  0
SECTION
  2
HEADER
  9
$ACADVER
  1
AC1024
  9
$ACADMAINTVER
 70
     6
  9
$DWGCODEPAGE
  3
UNDEFINED
  9
$INSBASE
 10
0.0
 20
0.0
 30
0.0
  9
$EXTMIN
 10
1.000000000000000E+20
 20
1.000000000000000E+20
 30
1.000000000000000E+20
  9
$EXTMAX
 10
-1.000000000000000E+20
 20
-1.000000000000000E+20
 30
-1.000000000000000E+20
  9
$LIMMIN
 10
0.0
 20
0.0
  9
$LIMMAX
 10
12.0
 20
9.0
  9
$ORTHOMODE
 70
     0
  9
$REGENMODE
 70
     1
  9
$FILLMODE
 70
     1
  9
$QTEXTMODE
 70
     0
  9
$MIRRTEXT
 70
     1
  9
$LTSCALE
 40
1.0
  9
$ATTMODE
 70
     1
  9
$TEXTSIZE
 40
0.2
  9
$TRACEWID
 40
0.05
  9
$TEXTSTYLE
  7
Standard
  9
$CLAYER
  8
0
  9
$CELTYPE
  6
ByLayer
  9
$CECOLOR
 62
   256
  9
$CELTSCALE
 40
1.0
  9
$DISPSILH
 70
     0
  9
$DIMSCALE
 40
1.0
  9
$DIMASZ
 40
0.18
  9
$DIMEXO
 40
0.0625
  9
$DIMDLI
 40
0.38
  9
$DIMRND
 40
0.0
  9
$DIMDLE
 40
0.0
  9
$DIMEXE
 40
0.18
  9
$DIMTP
 40
0.0
  9
$DIMTM
 40
0.0
  9
$DIMTXT
 40
0.18
  9
$DIMCEN
 40
0.09
  9
$DIMTSZ
 40
0.0
  9
$DIMTOL
 70
     0
  9
$DIMLIM
 70
     0
  9
$DIMTIH
 70
     1
  9
$DIMTOH
 70
     1
  9
$DIMSE1
 70
     0
  9
$DIMSE2
 70
     0
  9
$DIMTAD
 70
     0
  9
$DIMZIN
 70
     0
  9
$DIMBLK
  1

  9
$DIMASO
 70
     1
  9
$DIMSHO
 70
     1
  9
$DIMPOST
  1

  9
$DIMAPOST
  1

  9
$DIMALT
 70
     0
  9
$DIMALTD
 70
     2
  9
$DIMALTF
 40
25.4
  9
$DIMLFAC
 40
1.0
  9
$DIMTOFL
 70
     0
  9
$DIMTVP
 40
0.0
  9
$DIMTIX
 70
     0
  9
$DIMSOXD
 70
     0
  9
$DIMSAH
 70
     0
  9
$DIMBLK1
  1

  9
$DIMBLK2
  1

  9
$DIMSTYLE
  2
Standard
  9
$DIMCLRD
 70
     0
  9
$DIMCLRE
 70
     0
  9
$DIMCLRT
 70
     0
  9
$DIMTFAC
 40
1.0
  9
$DIMGAP
 40
0.09
  9
$DIMJUST
 70
     0
  9
$DIMSD1
 70
     0
  9
$DIMSD2
 70
     0
  9
$DIMTOLJ
 70
     1
  9
$DIMTZIN
 70
     0
  9
$DIMALTZ
 70
     0
  9
$DIMALTTZ
 70
     0
  9
$DIMUPT
 70
     0
  9
$DIMDEC
 70
     4
  9
$DIMTDEC
 70
     4
  9
$DIMALTU
 70
     2
  9
$DIMALTTD
 70
     2
  9
$DIMTXSTY
  7
Standard
  9
$DIMAUNIT
 70
     0
  9
$DIMADEC
 70
     0
  9
$DIMALTRND
 40
0.0
  9
$DIMAZIN
 70
     0
  9
$DIMDSEP
 70
    46
  9
$DIMATFIT
 70
     3
  9
$DIMFRAC
 70
     0
  9
$DIMLDRBLK
  1

  9
$DIMLUNIT
 70
     2
  9
$DIMLWD
 70
    -2
  9
$DIMLWE
 70
    -2
  9
$DIMTMOVE
 70
     0
  9
$DIMFXL
 40
1.0
  9
$DIMFXLON
 70
     0
  9
$DIMJOGANG
 40
0.7853981633974483
  9
$DIMTFILL
 70
     0
  9
$DIMTFILLCLR
 70
     0
  9
$DIMARCSYM
 70
     0
  9
$DIMLTYPE
  6

  9
$DIMLTEX1
  6

  9
$DIMLTEX2
  6

  9
$DIMTXTDIRECTION
 70
     0
  9
$LUNITS
 70
     2
  9
$LUPREC
 70
     4
  9
$SKETCHINC
 40
0.1
  9
$FILLETRAD
 40
0.5
  9
$AUNITS
 70
     0
  9
$AUPREC
 70
     0
  9
$MENU
  1
.
  9
$ELEVATION
 40
0.0
  9
$PELEVATION
 40
0.0
  9
$THICKNESS
 40
0.0
  9
$LIMCHECK
 70
     0
  9
$CHAMFERA
 40
0.5
  9
$CHAMFERB
 40
0.5
  9
$CHAMFERC
 40
1.0
  9
$CHAMFERD
 40
0.0
  9
$SKPOLY
 70
     0
  9
$TDCREATE
 40
2457917.612719907
  9
$TDUCREATE
 40
2457917.237719907
  9
$TDUPDATE
 40
2457917.612719907
  9
$TDUUPDATE
 40
2457917.237719907
  9
$TDINDWG
 40
0.0000000116
  9
$TDUSRTIMER
 40
0.0000000116
  9
$USRTIMER
 70
     1
  9
$ANGBASE
 50
0.0
  9
$ANGDIR
 70
     0
  9
$PDMODE
 70
     0
  9
$PDSIZE
 40
0.0
  9
$PLINEWID
 40
0.0
  9
$SPLFRAME
 70
     0
  9
$SPLINETYPE
 70
     6
  9
$SPLINESEGS
 70
     8
  9
$HANDSEED
  5
16F
  9
$SURFTAB1
 70
     6
  9
$SURFTAB2
 70
     6
  9
$SURFTYPE
 70
     6
  9
$SURFU
 70
     6
  9
$SURFV
 70
     6
  9
$UCSBASE
  2

  9
$UCSNAME
  2

  9
$UCSORG
 10
0.0
 20
0.0
 30
0.0
  9
$UCSXDIR
 10
1.0
 20
0.0
 30
0.0
  9
$UCSYDIR
 10
0.0
 20
1.0
 30
0.0
  9
$UCSORTHOREF
  2

  9
$UCSORTHOVIEW
 70
     0
  9
$UCSORGTOP
 10
0.0
 20
0.0
 30
0.0
  9
$UCSORGBOTTOM
 10
0.0
 20
0.0
 30
0.0
  9
$UCSORGLEFT
 10
0.0
 20
0.0
 30
0.0
  9
$UCSORGRIGHT
 10
0.0
 20
0.0
 30
0.0
  9
$UCSORGFRONT
 10
0.0
 20
0.0
 30
0.0
  9
$UCSORGBACK
 10
0.0
 20
0.0
 30
0.0
  9
$PUCSBASE
  2

  9
$PUCSNAME
  2

  9
$PUCSORG
 10
0.0
 20
0.0
 30
0.0
  9
$PUCSXDIR
 10
1.0
 20
0.0
 30
0.0
  9
$PUCSYDIR
 10
0.0
 20
1.0
 30
0.0
  9
$PUCSORTHOREF
  2

  9
$PUCSORTHOVIEW
 70
     0
  9
$PUCSORGTOP
 10
0.0
 20
0.0
 30
0.0
  9
$PUCSORGBOTTOM
 10
0.0
 20
0.0
 30
0.0
  9
$PUCSORGLEFT
 10
0.0
 20
0.0
 30
0.0
  9
$PUCSORGRIGHT
 10
0.0
 20
0.0
 30
0.0
  9
$PUCSORGFRONT
 10
0.0
 20
0.0
 30
0.0
  9
$PUCSORGBACK
 10
0.0
 20
0.0
 30
0.0
  9
$USERI1
 70
     0
  9
$USERI2
 70
     0
  9
$USERI3
 70
     0
  9
$USERI4
 70
     0
  9
$USERI5
 70
     0
  9
$USERR1
 40
0.0
  9
$USERR2
 40
0.0
  9
$USERR3
 40
0.0
  9
$USERR4
 40
0.0
  9
$USERR5
 40
0.0
  9
$WORLDVIEW
 70
     1
  9
$SHADEDGE
 70
     3
  9
$SHADEDIF
 70
    70
  9
$TILEMODE
 70
     1
  9
$MAXACTVP
 70
    64
  9
$PINSBASE
 10
0.0
 20
0.0
 30
0.0
  9
$PLIMCHECK
 70
     0
  9
$PEXTMIN
 10
1.000000000000000E+20
 20
1.000000000000000E+20
 30
1.000000000000000E+20
  9
$PEXTMAX
 10
-1.000000000000000E+20
 20
-1.000000000000000E+20
 30
-1.000000000000000E+20
  9
$PLIMMIN
 10
0.0
 20
0.0
  9
$PLIMMAX
 10
12.0
 20
9.0
  9
$UNITMODE
 70
     0
  9
$VISRETAIN
 70
     1
  9
$PLINEGEN
 70
     0
  9
$PSLTSCALE
 70
     1
  9
$TREEDEPTH
 70
  3020
  9
$CMLSTYLE
  2
Standard
  9
$CMLJUST
 70
     0
  9
$CMLSCALE
 40
1.0
  9
$PROXYGRAPHICS
 70
     1
  9
$MEASUREMENT
 70
     0
  9
$CELWEIGHT
370
    -1
  9
$ENDCAPS
280
     0
  9
$JOINSTYLE
280
     0
  9
$LWDISPLAY
290
     1
  9
$INSUNITS
 70
     1
  9
$HYPERLINKBASE
  1

  9
$STYLESHEET
  1

  9
$XEDIT
290
     1
  9
$CEPSNTYPE
380
     0
  9
$PSTYLEMODE
290
     1
  9
$FINGERPRINTGUID
  2
{37AB58D9-1137-8590-7619-0E6EFB65E285}
  9
$VERSIONGUID
  2
{FAEB1C32-E019-11D5-929B-00C0DF256EC4}
  9
$EXTNAMES
290
     1
  9
$PSVPSCALE
 40
0.0
  9
$OLESTARTUP
290
     0
  9
$SORTENTS
280
   127
  9
$INDEXCTL
280
     0
  9
$HIDETEXT
280
     1
  9
$XCLIPFRAME
280
     2
  9
$HALOGAP
280
     0
  9
$OBSCOLOR
 70
   257
  9
$OBSLTYPE
280
     0
  9
$INTERSECTIONDISPLAY
280
     0
  9
$INTERSECTIONCOLOR
 70
   257
  9
$DIMASSOC
280
     2
  9
$PROJECTNAME
  1

  9
$CAMERADISPLAY
290
     0
  9
$LENSLENGTH
 40
50.0
  9
$CAMERAHEIGHT
 40
0.0
  9
$STEPSPERSEC
 40
2.0
  9
$STEPSIZE
 40
6.0
  9
$3DDWFPREC
 40
2.0
  9
$PSOLWIDTH
 40
0.25
  9
$PSOLHEIGHT
 40
4.0
  9
$LOFTANG1
 40
1.570796326794897
  9
$LOFTANG2
 40
1.570796326794897
  9
$LOFTMAG1
 40
0.0
  9
$LOFTMAG2
 40
0.0
  9
$LOFTPARAM
 70
     7
  9
$LOFTNORMALS
280
     1
  9
$LATITUDE
 40
37.795
  9
$LONGITUDE
 40
-122.394
  9
$NORTHDIRECTION
 40
0.0
  9
$TIMEZONE
 70
 -8000
  9
$LIGHTGLYPHDISPLAY
280
     1
  9
$TILEMODELIGHTSYNCH
280
     1
  9
$CMATERIAL
347
3C
  9
$SOLIDHIST
280
     1
  9
$SHOWHIST
280
     1
  9
$DWFFRAME
280
     2
  9
$DGNFRAME
280
     2
  9
$REALWORLDSCALE
290
     1
  9
$INTERFERECOLOR
 62
   256
  9
$CSHADOW
280
     0
  9
$SHADOWPLANELOCATION
 40
0.0
  0
ENDSEC
  0
SECTION
  2
CLASSES
  0
CLASS
  1
ACDBDICTIONARYWDFLT
  2
AcDbDictionaryWithDefault
  3
ObjectDBX Classes
 90
        0
 91
        4
280
     0
281
     0
  0
CLASS
  1
VISUALSTYLE
  2
AcDbVisualStyle
  3
ObjectDBX Classes
 90
     4095
 91
        4
280
     0
281
     0
  0
CLASS
  1
MATERIAL
  2
AcDbMaterial
  3
ObjectDBX Classes
 90
     1153
 91
        4
280
     0
281
     0
  0
CLASS
  1
SUN
  2
AcDbSun
  3
SCENEOE
 90
     1024
 91
        4
280
     0
281
     0
  0
ENDSEC
  0
SECTION
  2
TABLES
  0
TABLE
  2
VPORT
  5
8
330
0
100
AcDbSymbolTable
 70
     1
  0
VPORT
  5
29
330
8
100
AcDbSymbolTableRecord
100
AcDbViewportTableRecord
  2
*Active
 70
     0
 10
0.0
 20
0.0
 11
1.0
 21
1.0
 12
0.0
 22
0.0
 13
0.0
 23
0.0
 14
0.5
 24
0.5
 15
0.5
 25
0.5
 16
0.0
 26
0.0
 36
1.0
 17
91.00082462281999
 27
-128.4993055234307
 37
0.0
 40
256.9986110468615
 41
0.7081814508812795
 42
50.0
 43
0.0
 44
0.0
 50
0.0
 51
0.0
 71
     0
 72
   100
 73
     1
 74
     3
 75
     0
 76
     0
 77
     0
 78
     0
281
     0
 65
     1
110
0.0
120
0.0
130
0.0
111
1.0
121
0.0
131
0.0
112
0.0
122
1.0
132
0.0
 79
     0
146
0.0
 60
     3
 61
     5
292
     1
282
     1
141
0.0
142
0.0
 63
   250
361
3F
  0
ENDTAB
  0
TABLE
  2
LTYPE
  5
5
330
0
100
AcDbSymbolTable
 70
     1
  0
LTYPE
  5
14
330
5
100
AcDbSymbolTableRecord
100
AcDbLinetypeTableRecord
  2
ByBlock
 70
     0
  3

 72
    65
 73
     0
 40
0.0
  0
LTYPE
  5
15
330
5
100
AcDbSymbolTableRecord
100
AcDbLinetypeTableRecord
  2
ByLayer
 70
     0
  3

 72
    65
 73
     0
 40
0.0
  0
LTYPE
  5
16
330
5
100
AcDbSymbolTableRecord
100
AcDbLinetypeTableRecord
  2
Continuous
 70
     0
  3
Solid line
 72
    65
 73
     0
 40
0.0
  0
ENDTAB
  0
TABLE
  2
LAYER
  5
2
330
0
100
AcDbSymbolTable
 70
     2
  0
LAYER
  5
10
330
2
100
AcDbSymbolTableRecord
100
AcDbLayerTableRecord
  2
0
 70
     0
 62
     7
  6
Continuous
370
    -3
390
F
347
3E
  0
LAYER
  5
40
330
2
100
AcDbSymbolTableRecord
100
AcDbLayerTableRecord
  2
_U+30EC_U+30A4_U+30E4_U+30FC 1
 70
     0
 62
     7
  6
Continuous
370
    -3
390
F
347
3E
  0
ENDTAB
  0
TABLE
  2
STYLE
  5
3
330
0
100
AcDbSymbolTable
 70
     1
  0
STYLE
  5
11
330
3
100
AcDbSymbolTableRecord
100
AcDbTextStyleTableRecord
  2
Standard
 70
     0
 40
0.0
 41
1.0
 50
0.0
 71
     0
 42
0.2
  3
txt
  4

  0
ENDTAB
  0
TABLE
  2
VIEW
  5
6
330
0
100
AcDbSymbolTable
 70
     0
  0
ENDTAB
  0
TABLE
  2
UCS
  5
7
330
0
100
AcDbSymbolTable
 70
     0
  0
ENDTAB
  0
TABLE
  2
APPID
  5
9
330
0
100
AcDbSymbolTable
 70
     1
  0
APPID
  5
12
330
9
100
AcDbSymbolTableRecord
100
AcDbRegAppTableRecord
  2
ACAD
 70
     0
  0
ENDTAB
  0
TABLE
  2
DIMSTYLE
  5
A
330
0
100
AcDbSymbolTable
 70
     1
100
AcDbDimStyleTable
  0
DIMSTYLE
105
27
330
A
100
AcDbSymbolTableRecord
100
AcDbDimStyleTableRecord
  2
Standard
 70
     0
178
     0
340
11
  0
ENDTAB
  0
TABLE
  2
BLOCK_RECORD
  5
1
330
0
100
AcDbSymbolTable
 70
     7
  0
BLOCK_RECORD
  5
1F
330
1
100
AcDbSymbolTableRecord
100
AcDbBlockTableRecord
  2
*Model_Space
340
22
 70
     0
280
     1
281
     0
  0
BLOCK_RECORD
  5
1B
330
1
100
AcDbSymbolTableRecord
100
AcDbBlockTableRecord
  2
*Paper_Space
340
1E
 70
     0
280
     1
281
     0
  0
BLOCK_RECORD
  5
23
330
1
100
AcDbSymbolTableRecord
100
AcDbBlockTableRecord
  2
*Paper_Space0
340
26
 70
     0
280
     1
281
     0
  0
BLOCK_RECORD
  5
108
330
1
100
AcDbSymbolTableRecord
100
AcDbBlockTableRecord
  2
block 2
340
0
102
{BLKREFS
331
109
102
}
 70
     0
280
     1
281
     0
  0
BLOCK_RECORD
  5
116
330
1
100
AcDbSymbolTableRecord
100
AcDbBlockTableRecord
  2
block 3
340
0
102
{BLKREFS
331
117
102
}
 70
     0
280
     1
281
     0
  0
BLOCK_RECORD
  5
127
330
1
100
AcDbSymbolTableRecord
100
AcDbBlockTableRecord
  2
block 4
340
0
102
{BLKREFS
331
128
102
}
 70
     0
280
     1
281
     0
  0
BLOCK_RECORD
  5
139
330
1
100
AcDbSymbolTableRecord
100
AcDbBlockTableRecord
  2
block 5
340
0
102
{BLKREFS
331
13A
102
}
 70
     0
280
     1
281
     0
  0
BLOCK_RECORD
  5
14D
330
1
100
AcDbSymbolTableRecord
100
AcDbBlockTableRecord
  2
block 6
340
0
102
{BLKREFS
331
14E
102
}
 70
     0
280
     1
281
     0
  0
BLOCK_RECORD
  5
15D
330
1
100
AcDbSymbolTableRecord
100
AcDbBlockTableRecord
  2
block 7
340
0
102
{BLKREFS
331
15E
102
}
 70
     0
280
     1
281
     0
  0
ENDTAB
  0
ENDSEC
  0
SECTION
  2
BLOCKS
  0
BLOCK
  5
20
330
1F
100
AcDbEntity
  8
0
100
AcDbBlockBegin
  2
*Model_Space
 70
     0
 10
0.0
 20
0.0
 30
0.0
  3
*Model_Space
  1

  0
ENDBLK
  5
21
330
1F
100
AcDbEntity
  8
0
100
AcDbBlockEnd
  0
BLOCK
  5
1C
330
1B
100
AcDbEntity
 67
     1
  8
0
100
AcDbBlockBegin
  2
*Paper_Space
 70
     0
 10
0.0
 20
0.0
 30
0.0
  3
*Paper_Space
  1

  0
ENDBLK
  5
1D
330
1B
100
AcDbEntity
 67
     1
  8
0
100
AcDbBlockEnd
  0
BLOCK
  5
24
330
23
100
AcDbEntity
  8
0
100
AcDbBlockBegin
  2
*Paper_Space0
 70
     0
 10
0.0
 20
0.0
 30
0.0
  3
*Paper_Space0
  1

  0
ENDBLK
  5
25
330
23
100
AcDbEntity
  8
0
100
AcDbBlockEnd
  0
BLOCK
  5
10A
330
108
100
AcDbEntity
  8
0
100
AcDbBlockBegin
  2
block 2
 70
     0
 10
0.0
 20
0.0
 30
0.0
  3
block 2
  1

  0
SPLINE
  5
10C
330
108
100
AcDbEntity
  8
_U+30EC_U+30A4_U+30E4_U+30FC 1
370
     0
100
AcDbSpline
210
0.0
220
0.0
230
1.0
 70
    11
 71
     3
 72
    26
 73
    22
 74
     0
 42
0.0000000001
 43
0.0000000001
 12
1.0
 22
0.0
 32
0.0
 13
1.0
 23
0.0
 33
0.0
 40
0.0
 40
0.0
 40
0.0
 40
0.0
 40
1.0
 40
1.0
 40
1.0
 40
2.0
 40
2.0
 40
2.0
 40
3.0
 40
3.0
 40
3.0
 40
4.0
 40
4.0
 40
4.0
 40
5.0
 40
5.0
 40
5.0
 40
6.0
 40
6.0
 40
6.0
 40
7.0
 40
7.0
 40
7.0
 40
7.0
 10
108.3992404242891
 20
-125.6023247298841
 30
0.0
 10
108.3992404242891
 20
-125.6023247298841
 30
0.0
 10
107.2950873212665
 20
-125.6023247298841
 30
0.0
 10
107.2950873212665
 20
-125.6023247298841
 30
0.0
 10
107.2950873212665
 20
-125.6023247298841
 30
0.0
 10
107.2950873212665
 20
-125.9323648773711
 30
0.0
 10
107.2950873212665
 20
-125.9323648773711
 30
0.0
 10
107.2950873212665
 20
-125.9323648773711
 30
0.0
 10
107.1469482154008
 20
-125.9323648773711
 30
0.0
 10
107.1469482154008
 20
-125.9323648773711
 30
0.0
 10
107.1321343048142
 20
-125.600257672593
 30
0.0
 10
106.9691812883619
 20
-125.5537488835421
 30
0.0
 10
106.8548041182516
 20
-125.524121062369
 30
0.0
 10
106.8548041182516
 20
-125.524121062369
 30
0.0
 10
106.8548041182516
 20
-125.3780490137944
 30
0.0
 10
106.8548041182516
 20
-125.3780490137944
 30
0.0
 10
106.8548041182516
 20
-125.3780490137944
 30
0.0
 10
108.3992404242891
 20
-125.3780490137944
 30
0.0
 10
108.3992404242891
 20
-125.3780490137944
 30
0.0
 10
108.3992404242891
 20
-125.3780490137944
 30
0.0
 10
108.3992404242891
 20
-125.6023247298841
 30
0.0
 10
108.3992404242891
 20
-125.6023247298841
 30
0.0
  0
HATCH
  5
10D
330
108
100
AcDbEntity
  8
_U+30EC_U+30A4_U+30E4_U+30FC 1
 62
     7
420
 16777215
100
AcDbHatch
 10
0.0
 20
0.0
 30
0.0
210
0.0
220
0.0
230
1.0
  2
SOLID
 70
     1
 71
     0
 91
        1
 92
        1
 93
        1
 72
     4
 94
        3
 73
     0
 74
     1
 95
       26
 96
       22
 40
0.0
 40
0.0
 40
0.0
 40
0.0
 40
1.0
 40
1.0
 40
1.0
 40
2.0
 40
2.0
 40
2.0
 40
3.0
 40
3.0
 40
3.0
 40
4.0
 40
4.0
 40
4.0
 40
5.0
 40
5.0
 40
5.0
 40
6.0
 40
6.0
 40
6.0
 40
7.0
 40
7.0
 40
7.0
 40
7.0
 10
108.3992404242891
 20
-125.6023247298841
 10
108.3992404242891
 20
-125.6023247298841
 10
107.2950873212665
 20
-125.6023247298841
 10
107.2950873212665
 20
-125.6023247298841
 10
107.2950873212665
 20
-125.6023247298841
 10
107.2950873212665
 20
-125.9323648773711
 10
107.2950873212665
 20
-125.9323648773711
 10
107.2950873212665
 20
-125.9323648773711
 10
107.1469482154008
 20
-125.9323648773711
 10
107.1469482154008
 20
-125.9323648773711
 10
107.1321343048142
 20
-125.600257672593
 10
106.9691812883619
 20
-125.5537488835421
 10
106.8548041182516
 20
-125.524121062369
 10
106.8548041182516
 20
-125.524121062369
 10
106.8548041182516
 20
-125.3780490137944
 10
106.8548041182516
 20
-125.3780490137944
 10
106.8548041182516
 20
-125.3780490137944
 10
108.3992404242891
 20
-125.3780490137944
 10
108.3992404242891
 20
-125.3780490137944
 10
108.3992404242891
 20
-125.3780490137944
 10
108.3992404242891
 20
-125.6023247298841
 10
108.3992404242891
 20
-125.6023247298841
 97
        0
 97
        0
 75
     2
 76
     1
 98
        0
  0
ENDBLK
  5
10B
330
108
100
AcDbEntity
  8
0
100
AcDbBlockEnd
  0
BLOCK
  5
118
330
116
100
AcDbEntity
  8
0
100
AcDbBlockBegin
  2
block 3
 70
     0
 10
0.0
 20
0.0
 30
0.0
  3
block 3
  1

  0
SPLINE
  5
11A
330
116
100
AcDbEntity
  8
_U+30EC_U+30A4_U+30E4_U+30FC 1
370
     0
100
AcDbSpline
210
0.0
220
0.0
230
1.0
 70
    11
 71
     3
 72
    26
 73
    22
 74
     0
 42
0.0000000001
 43
0.0000000001
 12
1.0
 22
0.0
 32
0.0
 13
1.0
 23
0.0
 33
0.0
 40
0.0
 40
0.0
 40
0.0
 40
0.0
 40
1.0
 40
1.0
 40
1.0
 40
2.0
 40
2.0
 40
2.0
 40
3.0
 40
3.0
 40
3.0
 40
4.0
 40
4.0
 40
4.0
 40
5.0
 40
5.0
 40
5.0
 40
6.0
 40
6.0
 40
6.0
 40
7.0
 40
7.0
 40
7.0
 40
7.0
 10
87.23136797949425
 20
-137.8785779820234
 30
0.0
 10
87.23136797949425
 20
-137.8785779820234
 30
0.0
 10
87.23136797949425
 20
-136.7740803694523
 30
0.0
 10
87.23136797949425
 20
-136.7740803694523
 30
0.0
 10
87.23136797949425
 20
-136.7740803694523
 30
0.0
 10
86.90132783200731
 20
-136.7740803694523
 30
0.0
 10
86.90132783200731
 20
-136.7740803694523
 30
0.0
 10
86.90132783200731
 20
-136.7740803694523
 30
0.0
 10
86.90132783200731
 20
-136.6262857731351
 30
0.0
 10
86.90132783200731
 20
-136.6262857731351
 30
0.0
 10
87.2334350367854
 20
-136.6114718625485
 30
0.0
 10
87.27994382583627
 20
-136.4485188460962
 30
0.0
 10
87.30957164700942
 20
-136.3341416759859
 30
0.0
 10
87.30957164700942
 20
-136.3341416759859
 30
0.0
 10
87.45564369558402
 20
-136.3341416759859
 30
0.0
 10
87.45564369558402
 20
-136.3341416759859
 30
0.0
 10
87.45564369558402
 20
-136.3341416759859
 30
0.0
 10
87.45564369558402
 20
-137.8785779820234
 30
0.0
 10
87.45564369558402
 20
-137.8785779820234
 30
0.0
 10
87.45564369558402
 20
-137.8785779820234
 30
0.0
 10
87.23136797949425
 20
-137.8785779820234
 30
0.0
 10
87.23136797949425
 20
-137.8785779820234
 30
0.0
  0
HATCH
  5
11B
330
116
100
AcDbEntity
  8
_U+30EC_U+30A4_U+30E4_U+30FC 1
 62
     7
420
 16777215
100
AcDbHatch
 10
0.0
 20
0.0
 30
0.0
210
0.0
220
0.0
230
1.0
  2
SOLID
 70
     1
 71
     0
 91
        1
 92
        1
 93
        1
 72
     4
 94
        3
 73
     0
 74
     1
 95
       26
 96
       22
 40
0.0
 40
0.0
 40
0.0
 40
0.0
 40
1.0
 40
1.0
 40
1.0
 40
2.0
 40
2.0
 40
2.0
 40
3.0
 40
3.0
 40
3.0
 40
4.0
 40
4.0
 40
4.0
 40
5.0
 40
5.0
 40
5.0
 40
6.0
 40
6.0
 40
6.0
 40
7.0
 40
7.0
 40
7.0
 40
7.0
 10
87.23136797949425
 20
-137.8785779820234
 10
87.23136797949425
 20
-137.8785779820234
 10
87.23136797949425
 20
-136.7740803694523
 10
87.23136797949425
 20
-136.7740803694523
 10
87.23136797949425
 20
-136.7740803694523
 10
86.90132783200731
 20
-136.7740803694523
 10
86.90132783200731
 20
-136.7740803694523
 10
86.90132783200731
 20
-136.7740803694523
 10
86.90132783200731
 20
-136.6262857731351
 10
86.90132783200731
 20
-136.6262857731351
 10
87.2334350367854
 20
-136.6114718625485
 10
87.27994382583627
 20
-136.4485188460962
 10
87.30957164700942
 20
-136.3341416759859
 10
87.30957164700942
 20
-136.3341416759859
 10
87.45564369558402
 20
-136.3341416759859
 10
87.45564369558402
 20
-136.3341416759859
 10
87.45564369558402
 20
-136.3341416759859
 10
87.45564369558402
 20
-137.8785779820234
 10
87.45564369558402
 20
-137.8785779820234
 10
87.45564369558402
 20
-137.8785779820234
 10
87.23136797949425
 20
-137.8785779820234
 10
87.23136797949425
 20
-137.8785779820234
 97
        0
 97
        0
 75
     2
 76
     1
 98
        0
  0
SPLINE
  5
11C
330
116
100
AcDbEntity
  8
_U+30EC_U+30A4_U+30E4_U+30FC 1
370
     0
100
AcDbSpline
210
0.0
220
0.0
230
1.0
 70
    11
 71
     3
 72
    29
 73
    25
 74
     0
 42
0.0000000001
 43
0.0000000001
 12
1.0
 22
0.0
 32
0.0
 13
1.0
 23
0.0
 33
0.0
 40
0.0
 40
0.0
 40
0.0
 40
0.0
 40
1.0
 40
1.0
 40
1.0
 40
2.0
 40
2.0
 40
2.0
 40
3.0
 40
3.0
 40
3.0
 40
4.0
 40
4.0
 40
4.0
 40
5.0
 40
5.0
 40
5.0
 40
6.0
 40
6.0
 40
6.0
 40
7.0
 40
7.0
 40
7.0
 40
8.0
 40
8.0
 40
8.0
 40
8.0
 10
88.8545247173697
 20
-137.7008110549845
 30
0.0
 10
88.74669322868138
 20
-137.9102728604877
 30
0.0
 10
88.57323267099906
 20
-137.9292208856566
 30
0.0
 10
88.45678844359762
 20
-137.9292208856566
 30
0.0
 10
88.29607473921071
 20
-137.9292208856566
 30
0.0
 10
88.15430905999267
 20
-137.8827120966057
 30
0.0
 10
88.05905216982552
 20
-137.7008110549845
 30
0.0
 10
87.95552705049376
 20
-137.5061631600679
 30
0.0
 10
87.93640677055062
 20
-137.2691405906827
 30
0.0
 10
87.93640677055062
 20
-137.1061875742304
 30
0.0
 10
87.93640677055062
 20
-136.9625270924955
 30
0.0
 10
87.95328773842834
 20
-136.7106906125237
 30
0.0
 10
88.05905216982552
 20
-136.5119086030248
 30
0.0
 10
88.1670559132881
 20
-136.3086479693951
 30
0.0
 10
88.327769617675
 20
-136.2855658296439
 30
0.0
 10
88.45678844359762
 20
-136.2855658296439
 30
0.0
 10
88.61543509069337
 20
-136.2855658296439
 30
0.0
 10
88.75926782720255
 20
-136.3300075614036
 30
0.0
 10
88.8545247173697
 20
-136.5119086030248
 30
0.0
 10
88.95391572211916
 20
-136.7044894406503
 30
0.0
 10
88.9771701166446
 20
-136.9328992713223
 30
0.0
 10
88.9771701166446
 20
-137.1061875742304
 30
0.0
 10
88.9771701166446
 20
-137.2777533293958
 30
0.0
 10
88.95615503418458
 20
-137.5082302173591
 30
0.0
 10
88.8545247173697
 20
-137.7008110549845
 30
0.0
  0
SPLINE
  5
11D
330
116
100
AcDbEntity
  8
_U+30EC_U+30A4_U+30E4_U+30FC 1
370
     0
100
AcDbSpline
210
0.0
220
0.0
230
1.0
 70
    11
 71
     3
 72
    17
 73
    13
 74
     0
 42
0.0000000001
 43
0.0000000001
 12
1.0
 22
0.0
 32
0.0
 13
1.0
 23
0.0
 33
0.0
 40
0.0
 40
0.0
 40
0.0
 40
0.0
 40
1.0
 40
1.0
 40
1.0
 40
2.0
 40
2.0
 40
2.0
 40
3.0
 40
3.0
 40
3.0
 40
4.0
 40
4.0
 40
4.0
 40
4.0
 10
88.45678844359762
 20
-136.4781466672694
 30
0.0
 10
88.20719127569126
 20
-136.4781466672694
 30
0.0
 10
88.16068248664038
 20
-136.7616780257054
 30
0.0
 10
88.16068248664038
 20
-137.1061875742304
 30
0.0
 10
88.16068248664038
 20
-137.4258924352616
 30
0.0
 10
88.19668373446125
 20
-137.73457299074
 30
0.0
 10
88.45678844359762
 20
-137.73457299074
 30
0.0
 10
88.70431855421282
 20
-137.73457299074
 30
0.0
 10
88.75306665532909
 20
-137.4531086895951
 30
0.0
 10
88.75306665532909
 20
-137.1061875742304
 30
0.0
 10
88.75306665532909
 20
-136.7868272227477
 30
0.0
 10
88.71482609544283
 20
-136.4781466672694
 30
0.0
 10
88.45678844359762
 20
-136.4781466672694
 30
0.0
  0
HATCH
  5
11E
330
116
100
AcDbEntity
  8
_U+30EC_U+30A4_U+30E4_U+30FC 1
 62
     7
420
 16777215
100
AcDbHatch
 10
0.0
 20
0.0
 30
0.0
210
0.0
220
0.0
230
1.0
  2
SOLID
 70
     1
 71
     0
 91
        2
 92
        1
 93
        1
 72
     4
 94
        3
 73
     0
 74
     1
 95
       29
 96
       25
 40
0.0
 40
0.0
 40
0.0
 40
0.0
 40
1.0
 40
1.0
 40
1.0
 40
2.0
 40
2.0
 40
2.0
 40
3.0
 40
3.0
 40
3.0
 40
4.0
 40
4.0
 40
4.0
 40
5.0
 40
5.0
 40
5.0
 40
6.0
 40
6.0
 40
6.0
 40
7.0
 40
7.0
 40
7.0
 40
8.0
 40
8.0
 40
8.0
 40
8.0
 10
88.8545247173697
 20
-137.7008110549845
 10
88.74669322868138
 20
-137.9102728604877
 10
88.57323267099906
 20
-137.9292208856566
 10
88.45678844359762
 20
-137.9292208856566
 10
88.29607473921071
 20
-137.9292208856566
 10
88.15430905999267
 20
-137.8827120966057
 10
88.05905216982552
 20
-137.7008110549845
 10
87.95552705049376
 20
-137.5061631600679
 10
87.93640677055062
 20
-137.2691405906827
 10
87.93640677055062
 20
-137.1061875742304
 10
87.93640677055062
 20
-136.9625270924955
 10
87.95328773842834
 20
-136.7106906125237
 10
88.05905216982552
 20
-136.5119086030248
 10
88.1670559132881
 20
-136.3086479693951
 10
88.327769617675
 20
-136.2855658296439
 10
88.45678844359762
 20
-136.2855658296439
 10
88.61543509069337
 20
-136.2855658296439
 10
88.75926782720255
 20
-136.3300075614036
 10
88.8545247173697
 20
-136.5119086030248
 10
88.95391572211916
 20
-136.7044894406503
 10
88.9771701166446
 20
-136.9328992713223
 10
88.9771701166446
 20
-137.1061875742304
 10
88.9771701166446
 20
-137.2777533293958
 10
88.95615503418458
 20
-137.5082302173591
 10
88.8545247173697
 20
-137.7008110549845
 97
        0
 97
        0
 92
        1
 93
        1
 72
     4
 94
        3
 73
     0
 74
     1
 95
       17
 96
       13
 40
0.0
 40
0.0
 40
0.0
 40
0.0
 40
1.0
 40
1.0
 40
1.0
 40
2.0
 40
2.0
 40
2.0
 40
3.0
 40
3.0
 40
3.0
 40
4.0
 40
4.0
 40
4.0
 40
4.0
 10
88.45678844359762
 20
-136.4781466672694
 10
88.20719127569126
 20
-136.4781466672694
 10
88.16068248664038
 20
-136.7616780257054
 10
88.16068248664038
 20
-137.1061875742304
 10
88.16068248664038
 20
-137.4258924352616
 10
88.19668373446125
 20
-137.73457299074
 10
88.45678844359762
 20
-137.73457299074
 10
88.70431855421282
 20
-137.73457299074
 10
88.75306665532909
 20
-137.4531086895951
 10
88.75306665532909
 20
-137.1061875742304
 10
88.75306665532909
 20
-136.7868272227477
 10
88.71482609544283
 20
-136.4781466672694
 10
88.45678844359762
 20
-136.4781466672694
 97
        0
 97
        0
 75
     2
 76
     1
 98
        0
  0
ENDBLK
  5
119
330
116
100
AcDbEntity
  8
0
100
AcDbBlockEnd
  0
BLOCK
  5
129
330
127
100
AcDbEntity
  8
0
100
AcDbBlockBegin
  2
block 4
 70
     0
 10
0.0
 20
0.0
 30
0.0
  3
block 4
  1

  0
SPLINE
  5
12B
330
127
100
AcDbEntity
  8
_U+30EC_U+30A4_U+30E4_U+30FC 1
370
     0
100
AcDbSpline
210
0.0
220
0.0
230
1.0
 70
    11
 71
     3
 72
    62
 73
    58
 74
     0
 42
0.0000000001
 43
0.0000000001
 12
1.0
 22
0.0
 32
0.0
 13
1.0
 23
0.0
 33
0.0
 40
0.0
 40
0.0
 40
0.0
 40
0.0
 40
1.0
 40
1.0
 40
1.0
 40
2.0
 40
2.0
 40
2.0
 40
3.0
 40
3.0
 40
3.0
 40
4.0
 40
4.0
 40
4.0
 40
5.0
 40
5.0
 40
5.0
 40
6.0
 40
6.0
 40
6.0
 40
7.0
 40
7.0
 40
7.0
 40
8.0
 40
8.0
 40
8.0
 40
9.0
 40
9.0
 40
9.0
 40
10.0
 40
10.0
 40
10.0
 40
11.0
 40
11.0
 40
11.0
 40
12.0
 40
12.0
 40
12.0
 40
13.0
 40
13.0
 40
13.0
 40
14.0
 40
14.0
 40
14.0
 40
15.0
 40
15.0
 40
15.0
 40
16.0
 40
16.0
 40
16.0
 40
17.0
 40
17.0
 40
17.0
 40
18.0
 40
18.0
 40
18.0
 40
19.0
 40
19.0
 40
19.0
 40
19.0
 10
108.4498833279223
 20
-133.0340847106651
 30
0.0
 10
108.4498833279223
 20
-133.1295138556065
 30
0.0
 10
108.4288682454622
 20
-133.3472438902743
 30
0.0
 10
108.2428330892587
 20
-133.4723008563889
 30
0.0
 10
108.1305229764396
 20
-133.5463704093218
 30
0.0
 10
108.0313042264644
 20
-133.550504523904
 30
0.0
 10
107.9465548775272
 20
-133.5546386384864
 30
0.0
 10
107.9465548775272
 20
-133.5546386384864
 30
0.0
 10
107.9465548775272
 20
-133.3344970369789
 30
0.0
 10
107.9465548775272
 20
-133.3344970369789
 30
0.0
 10
108.0206244304601
 20
-133.3324299796877
 30
0.0
 10
108.2552354330056
 20
-133.322094693232
 30
0.0
 10
108.2552354330056
 20
-133.0385633347959
 30
0.0
 10
108.2552354330056
 20
-132.9011040249345
 30
0.0
 10
108.1856445042036
 20
-132.7484862949379
 30
0.0
 10
107.9572346735315
 20
-132.7484862949379
 30
0.0
 10
107.8407904461301
 20
-132.7484862949379
 30
0.0
 10
107.7922145997881
 20
-132.7867268548242
 30
0.0
 10
107.7605197213238
 20
-132.8184217332885
 30
0.0
 10
107.6864501683909
 20
-132.8924912862213
 30
0.0
 10
107.6737033150955
 20
-133.0089355136228
 30
0.0
 10
107.6737033150955
 20
-133.0637125318382
 30
0.0
 10
107.6737033150955
 20
-133.0830050665556
 30
0.0
 10
107.6757703723866
 20
-133.1188340596022
 30
0.0
 10
107.6799044869689
 20
-133.1463948234842
 30
0.0
 10
107.6799044869689
 20
-133.1463948234842
 30
0.0
 10
107.4852565920523
 20
-133.1463948234842
 30
0.0
 10
107.4852565920523
 20
-133.1463948234842
 30
0.0
 10
107.4918022734743
 20
-133.108154263598
 30
0.0
 10
107.4938693307654
 20
-133.0661240986779
 30
0.0
 10
107.4938693307654
 20
-133.0595784172559
 30
0.0
 10
107.4938693307654
 20
-132.9941216030362
 30
0.0
 10
107.4725097387569
 20
-132.7953395935373
 30
0.0
 10
107.2358316789202
 20
-132.7953395935373
 30
0.0
 10
107.0580647518813
 20
-132.7953395935373
 30
0.0
 10
107.0029432241173
 20
-132.9262532219768
 30
0.0
 10
107.0029432241173
 20
-133.0364962775048
 30
0.0
 10
107.0029432241173
 20
-133.3007351012234
 30
0.0
 10
107.2358316789202
 20
-133.3093478399365
 30
0.0
 10
107.3074896650134
 20
-133.3134819545189
 30
0.0
 10
107.3074896650134
 20
-133.3134819545189
 30
0.0
 10
107.3074896650134
 20
-133.5167425881486
 30
0.0
 10
107.3074896650134
 20
-133.5167425881486
 30
0.0
 10
107.1827772084474
 20
-133.5081298494355
 30
0.0
 10
106.8062282719096
 20
-133.4805690855535
 30
0.0
 10
106.8062282719096
 20
-133.0237494242093
 30
0.0
 10
106.8062282719096
 20
-132.7994737081196
 30
0.0
 10
106.9333522953153
 20
-132.5583170241521
 30
0.0
 10
107.2292859974982
 20
-132.5583170241521
 30
0.0
 10
107.4156656632503
 20
-132.5583170241521
 30
0.0
 10
107.4980034453477
 20
-132.653401659545
 30
0.0
 10
107.5593261449852
 20
-132.7529649190687
 30
0.0
 10
107.5868869088672
 20
-132.6916422194313
 30
0.0
 10
107.6671576336735
 20
-132.5097411778101
 30
0.0
 10
107.9444878202361
 20
-132.5097411778101
 30
0.0
 10
108.2827961968876
 20
-132.5097411778101
 30
0.0
 10
108.4498833279223
 20
-132.757099033651
 30
0.0
 10
108.4498833279223
 20
-133.0340847106651
 30
0.0
  0
HATCH
  5
12C
330
127
100
AcDbEntity
  8
_U+30EC_U+30A4_U+30E4_U+30FC 1
 62
     7
420
 16777215
100
AcDbHatch
 10
0.0
 20
0.0
 30
0.0
210
0.0
220
0.0
230
1.0
  2
SOLID
 70
     1
 71
     0
 91
        1
 92
        1
 93
        1
 72
     4
 94
        3
 73
     0
 74
     1
 95
       62
 96
       58
 40
0.0
 40
0.0
 40
0.0
 40
0.0
 40
1.0
 40
1.0
 40
1.0
 40
2.0
 40
2.0
 40
2.0
 40
3.0
 40
3.0
 40
3.0
 40
4.0
 40
4.0
 40
4.0
 40
5.0
 40
5.0
 40
5.0
 40
6.0
 40
6.0
 40
6.0
 40
7.0
 40
7.0
 40
7.0
 40
8.0
 40
8.0
 40
8.0
 40
9.0
 40
9.0
 40
9.0
 40
10.0
 40
10.0
 40
10.0
 40
11.0
 40
11.0
 40
11.0
 40
12.0
 40
12.0
 40
12.0
 40
13.0
 40
13.0
 40
13.0
 40
14.0
 40
14.0
 40
14.0
 40
15.0
 40
15.0
 40
15.0
 40
16.0
 40
16.0
 40
16.0
 40
17.0
 40
17.0
 40
17.0
 40
18.0
 40
18.0
 40
18.0
 40
19.0
 40
19.0
 40
19.0
 40
19.0
 10
108.4498833279223
 20
-133.0340847106651
 10
108.4498833279223
 20
-133.1295138556065
 10
108.4288682454622
 20
-133.3472438902743
 10
108.2428330892587
 20
-133.4723008563889
 10
108.1305229764396
 20
-133.5463704093218
 10
108.0313042264644
 20
-133.550504523904
 10
107.9465548775272
 20
-133.5546386384864
 10
107.9465548775272
 20
-133.5546386384864
 10
107.9465548775272
 20
-133.3344970369789
 10
107.9465548775272
 20
-133.3344970369789
 10
108.0206244304601
 20
-133.3324299796877
 10
108.2552354330056
 20
-133.322094693232
 10
108.2552354330056
 20
-133.0385633347959
 10
108.2552354330056
 20
-132.9011040249345
 10
108.1856445042036
 20
-132.7484862949379
 10
107.9572346735315
 20
-132.7484862949379
 10
107.8407904461301
 20
-132.7484862949379
 10
107.7922145997881
 20
-132.7867268548242
 10
107.7605197213238
 20
-132.8184217332885
 10
107.6864501683909
 20
-132.8924912862213
 10
107.6737033150955
 20
-133.0089355136228
 10
107.6737033150955
 20
-133.0637125318382
 10
107.6737033150955
 20
-133.0830050665556
 10
107.6757703723866
 20
-133.1188340596022
 10
107.6799044869689
 20
-133.1463948234842
 10
107.6799044869689
 20
-133.1463948234842
 10
107.4852565920523
 20
-133.1463948234842
 10
107.4852565920523
 20
-133.1463948234842
 10
107.4918022734743
 20
-133.108154263598
 10
107.4938693307654
 20
-133.0661240986779
 10
107.4938693307654
 20
-133.0595784172559
 10
107.4938693307654
 20
-132.9941216030362
 10
107.4725097387569
 20
-132.7953395935373
 10
107.2358316789202
 20
-132.7953395935373
 10
107.0580647518813
 20
-132.7953395935373
 10
107.0029432241173
 20
-132.9262532219768
 10
107.0029432241173
 20
-133.0364962775048
 10
107.0029432241173
 20
-133.3007351012234
 10
107.2358316789202
 20
-133.3093478399365
 10
107.3074896650134
 20
-133.3134819545189
 10
107.3074896650134
 20
-133.3134819545189
 10
107.3074896650134
 20
-133.5167425881486
 10
107.3074896650134
 20
-133.5167425881486
 10
107.1827772084474
 20
-133.5081298494355
 10
106.8062282719096
 20
-133.4805690855535
 10
106.8062282719096
 20
-133.0237494242093
 10
106.8062282719096
 20
-132.7994737081196
 10
106.9333522953153
 20
-132.5583170241521
 10
107.2292859974982
 20
-132.5583170241521
 10
107.4156656632503
 20
-132.5583170241521
 10
107.4980034453477
 20
-132.653401659545
 10
107.5593261449852
 20
-132.7529649190687
 10
107.5868869088672
 20
-132.6916422194313
 10
107.6671576336735
 20
-132.5097411778101
 10
107.9444878202361
 20
-132.5097411778101
 10
108.2827961968876
 20
-132.5097411778101
 10
108.4498833279223
 20
-132.757099033651
 10
108.4498833279223
 20
-133.0340847106651
 97
        0
 97
        0
 75
     2
 76
     1
 98
        0
  0
ENDBLK
  5
12A
330
127
100
AcDbEntity
  8
0
100
AcDbBlockEnd
  0
BLOCK
  5
13B
330
139
100
AcDbEntity
  8
0
100
AcDbBlockBegin
  2
block 5
 70
     0
 10
0.0
 20
0.0
 30
0.0
  3
block 5
  1

  0
SPLINE
  5
13D
330
139
100
AcDbEntity
  8
_U+30EC_U+30A4_U+30E4_U+30FC 1
370
     0
100
AcDbSpline
210
0.0
220
0.0
230
1.0
 70
    11
 71
     3
 72
    62
 73
    58
 74
     0
 42
0.0000000001
 43
0.0000000001
 12
1.0
 22
0.0
 32
0.0
 13
1.0
 23
0.0
 33
0.0
 40
0.0
 40
0.0
 40
0.0
 40
0.0
 40
1.0
 40
1.0
 40
1.0
 40
2.0
 40
2.0
 40
2.0
 40
3.0
 40
3.0
 40
3.0
 40
4.0
 40
4.0
 40
4.0
 40
5.0
 40
5.0
 40
5.0
 40
6.0
 40
6.0
 40
6.0
 40
7.0
 40
7.0
 40
7.0
 40
8.0
 40
8.0
 40
8.0
 40
9.0
 40
9.0
 40
9.0
 40
10.0
 40
10.0
 40
10.0
 40
11.0
 40
11.0
 40
11.0
 40
12.0
 40
12.0
 40
12.0
 40
13.0
 40
13.0
 40
13.0
 40
14.0
 40
14.0
 40
14.0
 40
15.0
 40
15.0
 40
15.0
 40
16.0
 40
16.0
 40
16.0
 40
17.0
 40
17.0
 40
17.0
 40
18.0
 40
18.0
 40
18.0
 40
19.0
 40
19.0
 40
19.0
 40
19.0
 10
87.77138669680716
 20
-120.4293416040072
 30
0.0
 10
87.67612980664
 20
-120.4293416040072
 30
0.0
 10
87.45822751719794
 20
-120.408154266773
 30
0.0
 10
87.3335150606319
 20
-120.2219468557952
 30
0.0
 10
87.25944550769903
 20
-120.1098089977503
 30
0.0
 10
87.25513913834247
 20
-120.0104179930009
 30
0.0
 10
87.25100502376017
 20
-119.925840898838
 30
0.0
 10
87.25100502376017
 20
-119.925840898838
 30
0.0
 10
87.47097437049337
 20
-119.925840898838
 30
0.0
 10
87.47097437049337
 20
-119.925840898838
 30
0.0
 10
87.47304142778452
 20
-119.9999104517709
 30
0.0
 10
87.48372122378879
 20
-120.2346937090906
 30
0.0
 10
87.7670803274506
 20
-120.2346937090906
 30
0.0
 10
87.90471189208633
 20
-120.2346937090906
 30
0.0
 10
88.05698511253436
 20
-120.1649305255143
 30
0.0
 10
88.05698511253436
 20
-119.936348440068
 30
0.0
 10
88.05698511253436
 20
-119.8200764674408
 30
0.0
 10
88.01891680742236
 20
-119.7713283663245
 30
0.0
 10
87.98722192895806
 20
-119.7396334878602
 30
0.0
 10
87.9131523760252
 20
-119.6655639349274
 30
0.0
 10
87.79670814862375
 20
-119.6529893364062
 30
0.0
 10
87.741758875634
 20
-119.6529893364062
 30
0.0
 10
87.72281085046514
 20
-119.6529893364062
 30
0.0
 10
87.68680960264427
 20
-119.6550563936974
 30
0.0
 10
87.65924883876228
 20
-119.6591905082797
 30
0.0
 10
87.65924883876228
 20
-119.6591905082797
 30
0.0
 10
87.65924883876228
 20
-119.464542613363
 30
0.0
 10
87.65924883876228
 20
-119.464542613363
 30
0.0
 10
87.69731714387429
 20
-119.4709160400107
 30
0.0
 10
87.73969181834286
 20
-119.4731553520762
 30
0.0
 10
87.74606524499058
 20
-119.4731553520762
 30
0.0
 10
87.81152205921032
 20
-119.4731553520762
 30
0.0
 10
88.0104763234835
 20
-119.4519680148419
 30
0.0
 10
88.0104763234835
 20
-119.2149454454567
 30
0.0
 10
88.0104763234835
 20
-119.0373507731921
 30
0.0
 10
87.87921818549547
 20
-118.9822292454281
 30
0.0
 10
87.76931963951601
 20
-118.9822292454281
 30
0.0
 10
87.50490856102309
 20
-118.9822292454281
 30
0.0
 10
87.49629582230996
 20
-119.2149454454567
 30
0.0
 10
87.49216170772766
 20
-119.2869479410984
 30
0.0
 10
87.49216170772766
 20
-119.2869479410984
 30
0.0
 10
87.28907332887218
 20
-119.2869479410984
 30
0.0
 10
87.28907332887218
 20
-119.2869479410984
 30
0.0
 10
87.29751381281105
 20
-119.1620632297581
 30
0.0
 10
87.32507457669304
 20
-118.7855142932203
 30
0.0
 10
87.78189423803717
 20
-118.7855142932203
 30
0.0
 10
88.00616995412693
 20
-118.7855142932203
 30
0.0
 10
88.24732663809442
 20
-118.9124660618517
 30
0.0
 10
88.24732663809442
 20
-119.208572018809
 30
0.0
 10
88.24732663809442
 20
-119.3947794297867
 30
0.0
 10
88.15224200270153
 20
-119.4772894666585
 30
0.0
 10
88.05267874317781
 20
-119.5386121662959
 30
0.0
 10
88.11417369758952
 20
-119.5661729301779
 30
0.0
 10
88.29607473921071
 20
-119.6466159097585
 30
0.0
 10
88.29607473921071
 20
-119.9237738415468
 30
0.0
 10
88.29607473921071
 20
-120.2622544729726
 30
0.0
 10
88.04854462859551
 20
-120.4293416040072
 30
0.0
 10
87.77138669680716
 20
-120.4293416040072
 30
0.0
  0
HATCH
  5
13E
330
139
100
AcDbEntity
  8
_U+30EC_U+30A4_U+30E4_U+30FC 1
 62
     7
420
 16777215
100
AcDbHatch
 10
0.0
 20
0.0
 30
0.0
210
0.0
220
0.0
230
1.0
  2
SOLID
 70
     1
 71
     0
 91
        1
 92
        1
 93
        1
 72
     4
 94
        3
 73
     0
 74
     1
 95
       62
 96
       58
 40
0.0
 40
0.0
 40
0.0
 40
0.0
 40
1.0
 40
1.0
 40
1.0
 40
2.0
 40
2.0
 40
2.0
 40
3.0
 40
3.0
 40
3.0
 40
4.0
 40
4.0
 40
4.0
 40
5.0
 40
5.0
 40
5.0
 40
6.0
 40
6.0
 40
6.0
 40
7.0
 40
7.0
 40
7.0
 40
8.0
 40
8.0
 40
8.0
 40
9.0
 40
9.0
 40
9.0
 40
10.0
 40
10.0
 40
10.0
 40
11.0
 40
11.0
 40
11.0
 40
12.0
 40
12.0
 40
12.0
 40
13.0
 40
13.0
 40
13.0
 40
14.0
 40
14.0
 40
14.0
 40
15.0
 40
15.0
 40
15.0
 40
16.0
 40
16.0
 40
16.0
 40
17.0
 40
17.0
 40
17.0
 40
18.0
 40
18.0
 40
18.0
 40
19.0
 40
19.0
 40
19.0
 40
19.0
 10
87.77138669680716
 20
-120.4293416040072
 10
87.67612980664
 20
-120.4293416040072
 10
87.45822751719794
 20
-120.408154266773
 10
87.3335150606319
 20
-120.2219468557952
 10
87.25944550769903
 20
-120.1098089977503
 10
87.25513913834247
 20
-120.0104179930009
 10
87.25100502376017
 20
-119.925840898838
 10
87.25100502376017
 20
-119.925840898838
 10
87.47097437049337
 20
-119.925840898838
 10
87.47097437049337
 20
-119.925840898838
 10
87.47304142778452
 20
-119.9999104517709
 10
87.48372122378879
 20
-120.2346937090906
 10
87.7670803274506
 20
-120.2346937090906
 10
87.90471189208633
 20
-120.2346937090906
 10
88.05698511253436
 20
-120.1649305255143
 10
88.05698511253436
 20
-119.936348440068
 10
88.05698511253436
 20
-119.8200764674408
 10
88.01891680742236
 20
-119.7713283663245
 10
87.98722192895806
 20
-119.7396334878602
 10
87.9131523760252
 20
-119.6655639349274
 10
87.79670814862375
 20
-119.6529893364062
 10
87.741758875634
 20
-119.6529893364062
 10
87.72281085046514
 20
-119.6529893364062
 10
87.68680960264427
 20
-119.6550563936974
 10
87.65924883876228
 20
-119.6591905082797
 10
87.65924883876228
 20
-119.6591905082797
 10
87.65924883876228
 20
-119.464542613363
 10
87.65924883876228
 20
-119.464542613363
 10
87.69731714387429
 20
-119.4709160400107
 10
87.73969181834286
 20
-119.4731553520762
 10
87.74606524499058
 20
-119.4731553520762
 10
87.81152205921032
 20
-119.4731553520762
 10
88.0104763234835
 20
-119.4519680148419
 10
88.0104763234835
 20
-119.2149454454567
 10
88.0104763234835
 20
-119.0373507731921
 10
87.87921818549547
 20
-118.9822292454281
 10
87.76931963951601
 20
-118.9822292454281
 10
87.50490856102309
 20
-118.9822292454281
 10
87.49629582230996
 20
-119.2149454454567
 10
87.49216170772766
 20
-119.2869479410984
 10
87.49216170772766
 20
-119.2869479410984
 10
87.28907332887218
 20
-119.2869479410984
 10
87.28907332887218
 20
-119.2869479410984
 10
87.29751381281105
 20
-119.1620632297581
 10
87.32507457669304
 20
-118.7855142932203
 10
87.78189423803717
 20
-118.7855142932203
 10
88.00616995412693
 20
-118.7855142932203
 10
88.24732663809442
 20
-118.9124660618517
 10
88.24732663809442
 20
-119.208572018809
 10
88.24732663809442
 20
-119.3947794297867
 10
88.15224200270153
 20
-119.4772894666585
 10
88.05267874317781
 20
-119.5386121662959
 10
88.11417369758952
 20
-119.5661729301779
 10
88.29607473921071
 20
-119.6466159097585
 10
88.29607473921071
 20
-119.9237738415468
 10
88.29607473921071
 20
-120.2622544729726
 10
88.04854462859551
 20
-120.4293416040072
 10
87.77138669680716
 20
-120.4293416040072
 97
        0
 97
        0
 75
     2
 76
     1
 98
        0
  0
SPLINE
  5
13F
330
139
100
AcDbEntity
  8
_U+30EC_U+30A4_U+30E4_U+30FC 1
370
     0
100
AcDbSpline
210
0.0
220
0.0
230
1.0
 70
    11
 71
     3
 72
    53
 73
    49
 74
     0
 42
0.0000000001
 43
0.0000000001
 12
1.0
 22
0.0
 32
0.0
 13
1.0
 23
0.0
 33
0.0
 40
0.0
 40
0.0
 40
0.0
 40
0.0
 40
1.0
 40
1.0
 40
1.0
 40
2.0
 40
2.0
 40
2.0
 40
3.0
 40
3.0
 40
3.0
 40
4.0
 40
4.0
 40
4.0
 40
5.0
 40
5.0
 40
5.0
 40
6.0
 40
6.0
 40
6.0
 40
7.0
 40
7.0
 40
7.0
 40
8.0
 40
8.0
 40
8.0
 40
9.0
 40
9.0
 40
9.0
 40
10.0
 40
10.0
 40
10.0
 40
11.0
 40
11.0
 40
11.0
 40
12.0
 40
12.0
 40
12.0
 40
13.0
 40
13.0
 40
13.0
 40
14.0
 40
14.0
 40
14.0
 40
15.0
 40
15.0
 40
15.0
 40
16.0
 40
16.0
 40
16.0
 40
16.0
 10
88.93772377333849
 20
-120.4293416040072
 30
0.0
 10
88.85934785104905
 20
-120.4293416040072
 30
0.0
 10
88.75788978900844
 20
-120.4122883813553
 30
0.0
 10
88.65625947219358
 20
-120.3488986244267
 30
0.0
 10
88.48279891451125
 20
-120.2388278236729
 30
0.0
 10
88.46161157727697
 20
-120.1077419404592
 30
0.0
 10
88.44266355210809
 20
-119.9999104517709
 30
0.0
 10
88.44266355210809
 20
-119.9999104517709
 30
0.0
 10
88.66469995613244
 20
-119.9999104517709
 30
0.0
 10
88.66469995613244
 20
-119.9999104517709
 30
0.0
 10
88.71982148389644
 20
-120.1986924612698
 30
0.0
 10
88.8467732525279
 20
-120.2283202824429
 30
0.0
 10
88.93979083062963
 20
-120.2283202824429
 30
0.0
 10
89.07931719778226
 20
-120.2283202824429
 30
0.0
 10
89.23176267300457
 20
-120.1289292776935
 30
0.0
 10
89.23176267300457
 20
-119.8962130776648
 30
0.0
 10
89.23176267300457
 20
-119.6402424831108
 30
0.0
 10
89.05192868867452
 20
-119.5704792995345
 30
0.0
 10
88.93135034669078
 20
-119.5704792995345
 30
0.0
 10
88.89965546822648
 20
-119.5704792995345
 30
0.0
 10
88.75788978900844
 20
-119.5704792995345
 30
0.0
 10
88.66900632548901
 20
-119.6994981254571
 30
0.0
 10
88.66900632548901
 20
-119.6994981254571
 30
0.0
 10
88.49347871051552
 20
-119.6803778455139
 30
0.0
 10
88.49347871051552
 20
-119.6803778455139
 30
0.0
 10
88.49347871051552
 20
-119.6803778455139
 30
0.0
 10
88.61405705249926
 20
-118.8342623943366
 30
0.0
 10
88.61405705249926
 20
-118.8342623943366
 30
0.0
 10
88.61405705249926
 20
-118.8342623943366
 30
0.0
 10
89.39247637739147
 20
-118.8342623943366
 30
0.0
 10
89.39247637739147
 20
-118.8342623943366
 30
0.0
 10
89.39247637739147
 20
-118.8342623943366
 30
0.0
 10
89.39247637739147
 20
-119.0289102892532
 30
0.0
 10
89.39247637739147
 20
-119.0289102892532
 30
0.0
 10
89.39247637739147
 20
-119.0289102892532
 30
0.0
 10
88.77683781417733
 20
-119.0289102892532
 30
0.0
 10
88.77683781417733
 20
-119.0289102892532
 30
0.0
 10
88.77683781417733
 20
-119.0289102892532
 30
0.0
 10
88.71138099995757
 20
-119.4519680148419
 30
0.0
 10
88.71138099995757
 20
-119.4519680148419
 30
0.0
 10
88.77270369959503
 20
-119.4180338243122
 30
0.0
 10
88.85521373646675
 20
-119.377898461909
 30
0.0
 10
88.97355276638508
 20
-119.377898461909
 30
0.0
 10
89.227456303648
 20
-119.377898461909
 30
0.0
 10
89.46447887303319
 20
-119.5641058728868
 30
0.0
 10
89.46447887303319
 20
-119.8770927977217
 30
0.0
 10
89.46447887303319
 20
-120.1945583466875
 30
0.0
 10
89.24020315694342
 20
-120.4293416040072
 30
0.0
 10
88.93772377333849
 20
-120.4293416040072
 30
0.0
  0
HATCH
  5
140
330
139
100
AcDbEntity
  8
_U+30EC_U+30A4_U+30E4_U+30FC 1
 62
     7
420
 16777215
100
AcDbHatch
 10
0.0
 20
0.0
 30
0.0
210
0.0
220
0.0
230
1.0
  2
SOLID
 70
     1
 71
     0
 91
        1
 92
        1
 93
        1
 72
     4
 94
        3
 73
     0
 74
     1
 95
       53
 96
       49
 40
0.0
 40
0.0
 40
0.0
 40
0.0
 40
1.0
 40
1.0
 40
1.0
 40
2.0
 40
2.0
 40
2.0
 40
3.0
 40
3.0
 40
3.0
 40
4.0
 40
4.0
 40
4.0
 40
5.0
 40
5.0
 40
5.0
 40
6.0
 40
6.0
 40
6.0
 40
7.0
 40
7.0
 40
7.0
 40
8.0
 40
8.0
 40
8.0
 40
9.0
 40
9.0
 40
9.0
 40
10.0
 40
10.0
 40
10.0
 40
11.0
 40
11.0
 40
11.0
 40
12.0
 40
12.0
 40
12.0
 40
13.0
 40
13.0
 40
13.0
 40
14.0
 40
14.0
 40
14.0
 40
15.0
 40
15.0
 40
15.0
 40
16.0
 40
16.0
 40
16.0
 40
16.0
 10
88.93772377333849
 20
-120.4293416040072
 10
88.85934785104905
 20
-120.4293416040072
 10
88.75788978900844
 20
-120.4122883813553
 10
88.65625947219358
 20
-120.3488986244267
 10
88.48279891451125
 20
-120.2388278236729
 10
88.46161157727697
 20
-120.1077419404592
 10
88.44266355210809
 20
-119.9999104517709
 10
88.44266355210809
 20
-119.9999104517709
 10
88.66469995613244
 20
-119.9999104517709
 10
88.66469995613244
 20
-119.9999104517709
 10
88.71982148389644
 20
-120.1986924612698
 10
88.8467732525279
 20
-120.2283202824429
 10
88.93979083062963
 20
-120.2283202824429
 10
89.07931719778226
 20
-120.2283202824429
 10
89.23176267300457
 20
-120.1289292776935
 10
89.23176267300457
 20
-119.8962130776648
 10
89.23176267300457
 20
-119.6402424831108
 10
89.05192868867452
 20
-119.5704792995345
 10
88.93135034669078
 20
-119.5704792995345
 10
88.89965546822648
 20
-119.5704792995345
 10
88.75788978900844
 20
-119.5704792995345
 10
88.66900632548901
 20
-119.6994981254571
 10
88.66900632548901
 20
-119.6994981254571
 10
88.49347871051552
 20
-119.6803778455139
 10
88.49347871051552
 20
-119.6803778455139
 10
88.49347871051552
 20
-119.6803778455139
 10
88.61405705249926
 20
-118.8342623943366
 10
88.61405705249926
 20
-118.8342623943366
 10
88.61405705249926
 20
-118.8342623943366
 10
89.39247637739147
 20
-118.8342623943366
 10
89.39247637739147
 20
-118.8342623943366
 10
89.39247637739147
 20
-118.8342623943366
 10
89.39247637739147
 20
-119.0289102892532
 10
89.39247637739147
 20
-119.0289102892532
 10
89.39247637739147
 20
-119.0289102892532
 10
88.77683781417733
 20
-119.0289102892532
 10
88.77683781417733
 20
-119.0289102892532
 10
88.77683781417733
 20
-119.0289102892532
 10
88.71138099995757
 20
-119.4519680148419
 10
88.71138099995757
 20
-119.4519680148419
 10
88.77270369959503
 20
-119.4180338243122
 10
88.85521373646675
 20
-119.377898461909
 10
88.97355276638508
 20
-119.377898461909
 10
89.227456303648
 20
-119.377898461909
 10
89.46447887303319
 20
-119.5641058728868
 10
89.46447887303319
 20
-119.8770927977217
 10
89.46447887303319
 20
-120.1945583466875
 10
89.24020315694342
 20
-120.4293416040072
 10
88.93772377333849
 20
-120.4293416040072
 97
        0
 97
        0
 75
     2
 76
     1
 98
        0
  0
ENDBLK
  5
13C
330
139
100
AcDbEntity
  8
0
100
AcDbBlockEnd
  0
BLOCK
  5
14F
330
14D
100
AcDbEntity
  8
0
100
AcDbBlockBegin
  2
block 6
 70
     0
 10
0.0
 20
0.0
 30
0.0
  3
block 6
  1

  0
SPLINE
  5
151
330
14D
100
AcDbEntity
  8
_U+30EC_U+30A4_U+30E4_U+30FC 1
370
     0
100
AcDbSpline
210
0.0
220
0.0
230
1.0
 70
    11
 71
     3
 72
    26
 73
    22
 74
     0
 42
0.0000000001
 43
0.0000000001
 12
1.0
 22
0.0
 32
0.0
 13
1.0
 23
0.0
 33
0.0
 40
0.0
 40
0.0
 40
0.0
 40
0.0
 40
1.0
 40
1.0
 40
1.0
 40
2.0
 40
2.0
 40
2.0
 40
3.0
 40
3.0
 40
3.0
 40
4.0
 40
4.0
 40
4.0
 40
5.0
 40
5.0
 40
5.0
 40
6.0
 40
6.0
 40
6.0
 40
7.0
 40
7.0
 40
7.0
 40
7.0
 10
76.23152260464003
 20
-137.8785779820234
 30
0.0
 10
76.23152260464003
 20
-137.8785779820234
 30
0.0
 10
76.23152260464003
 20
-136.7740803694523
 30
0.0
 10
76.23152260464003
 20
-136.7740803694523
 30
0.0
 10
76.23152260464003
 20
-136.7740803694523
 30
0.0
 10
75.90148245715311
 20
-136.7740803694523
 30
0.0
 10
75.90148245715311
 20
-136.7740803694523
 30
0.0
 10
75.90148245715311
 20
-136.7740803694523
 30
0.0
 10
75.90148245715311
 20
-136.6262857731351
 30
0.0
 10
75.90148245715311
 20
-136.6262857731351
 30
0.0
 10
76.23358966193119
 20
-136.6114718625485
 30
0.0
 10
76.28009845098207
 20
-136.4485188460962
 30
0.0
 10
76.30972627215522
 20
-136.3341416759859
 30
0.0
 10
76.30972627215522
 20
-136.3341416759859
 30
0.0
 10
76.4557983207298
 20
-136.3341416759859
 30
0.0
 10
76.4557983207298
 20
-136.3341416759859
 30
0.0
 10
76.4557983207298
 20
-136.3341416759859
 30
0.0
 10
76.4557983207298
 20
-137.8785779820234
 30
0.0
 10
76.4557983207298
 20
-137.8785779820234
 30
0.0
 10
76.4557983207298
 20
-137.8785779820234
 30
0.0
 10
76.23152260464003
 20
-137.8785779820234
 30
0.0
 10
76.23152260464003
 20
-137.8785779820234
 30
0.0
  0
HATCH
  5
152
330
14D
100
AcDbEntity
  8
_U+30EC_U+30A4_U+30E4_U+30FC 1
 62
     7
420
 16777215
100
AcDbHatch
 10
0.0
 20
0.0
 30
0.0
210
0.0
220
0.0
230
1.0
  2
SOLID
 70
     1
 71
     0
 91
        1
 92
        1
 93
        1
 72
     4
 94
        3
 73
     0
 74
     1
 95
       26
 96
       22
 40
0.0
 40
0.0
 40
0.0
 40
0.0
 40
1.0
 40
1.0
 40
1.0
 40
2.0
 40
2.0
 40
2.0
 40
3.0
 40
3.0
 40
3.0
 40
4.0
 40
4.0
 40
4.0
 40
5.0
 40
5.0
 40
5.0
 40
6.0
 40
6.0
 40
6.0
 40
7.0
 40
7.0
 40
7.0
 40
7.0
 10
76.23152260464003
 20
-137.8785779820234
 10
76.23152260464003
 20
-137.8785779820234
 10
76.23152260464003
 20
-136.7740803694523
 10
76.23152260464003
 20
-136.7740803694523
 10
76.23152260464003
 20
-136.7740803694523
 10
75.90148245715311
 20
-136.7740803694523
 10
75.90148245715311
 20
-136.7740803694523
 10
75.90148245715311
 20
-136.7740803694523
 10
75.90148245715311
 20
-136.6262857731351
 10
75.90148245715311
 20
-136.6262857731351
 10
76.23358966193119
 20
-136.6114718625485
 10
76.28009845098207
 20
-136.4485188460962
 10
76.30972627215522
 20
-136.3341416759859
 10
76.30972627215522
 20
-136.3341416759859
 10
76.4557983207298
 20
-136.3341416759859
 10
76.4557983207298
 20
-136.3341416759859
 10
76.4557983207298
 20
-136.3341416759859
 10
76.4557983207298
 20
-137.8785779820234
 10
76.4557983207298
 20
-137.8785779820234
 10
76.4557983207298
 20
-137.8785779820234
 10
76.23152260464003
 20
-137.8785779820234
 10
76.23152260464003
 20
-137.8785779820234
 97
        0
 97
        0
 75
     2
 76
     1
 98
        0
  0
SPLINE
  5
153
330
14D
100
AcDbEntity
  8
_U+30EC_U+30A4_U+30E4_U+30FC 1
370
     0
100
AcDbSpline
210
0.0
220
0.0
230
1.0
 70
    11
 71
     3
 72
    44
 73
    40
 74
     0
 42
0.0000000001
 43
0.0000000001
 12
1.0
 22
0.0
 32
0.0
 13
1.0
 23
0.0
 33
0.0
 40
0.0
 40
0.0
 40
0.0
 40
0.0
 40
1.0
 40
1.0
 40
1.0
 40
2.0
 40
2.0
 40
2.0
 40
3.0
 40
3.0
 40
3.0
 40
4.0
 40
4.0
 40
4.0
 40
5.0
 40
5.0
 40
5.0
 40
6.0
 40
6.0
 40
6.0
 40
7.0
 40
7.0
 40
7.0
 40
8.0
 40
8.0
 40
8.0
 40
9.0
 40
9.0
 40
9.0
 40
10.0
 40
10.0
 40
10.0
 40
11.0
 40
11.0
 40
11.0
 40
12.0
 40
12.0
 40
12.0
 40
13.0
 40
13.0
 40
13.0
 40
13.0
 10
77.55013290161942
 20
-137.2967013545647
 30
0.0
 10
77.33223061217737
 20
-137.4555202564347
 30
0.0
 10
77.23904077930135
 20
-137.5295898093676
 30
0.0
 10
77.19046493295933
 20
-137.6732502911025
 30
0.0
 10
77.19046493295933
 20
-137.6732502911025
 30
0.0
 10
77.96888425785153
 20
-137.6732502911025
 30
0.0
 10
77.96888425785153
 20
-137.6732502911025
 30
0.0
 10
77.96888425785153
 20
-137.6732502911025
 30
0.0
 10
77.96888425785153
 20
-137.8785779820234
 30
0.0
 10
77.96888425785153
 20
-137.8785779820234
 30
0.0
 10
77.96888425785153
 20
-137.8785779820234
 30
0.0
 10
76.94086776505299
 20
-137.8785779820234
 30
0.0
 10
76.94086776505299
 20
-137.8785779820234
 30
0.0
 10
76.97256264351728
 20
-137.5209770706545
 30
0.0
 10
77.03801945773702
 20
-137.4427734031393
 30
0.0
 10
77.42318113298796
 20
-137.1444281341167
 30
0.0
 10
77.67915172754202
 20
-136.9456461246178
 30
0.0
 10
77.74460854176176
 20
-136.8777777435583
 30
0.0
 10
77.74460854176176
 20
-136.7403184336969
 30
0.0
 10
77.74460854176176
 20
-136.6218071490043
 30
0.0
 10
77.67277830089431
 20
-136.4908935205648
 30
0.0
 10
77.47606334868654
 20
-136.4908935205648
 30
0.0
 10
77.21578638477592
 20
-136.4908935205648
 30
0.0
 10
77.20734590083705
 20
-136.721370408528
 30
0.0
 10
77.2030395314805
 20
-136.8378146359294
 30
0.0
 10
77.2030395314805
 20
-136.8378146359294
 30
0.0
 10
76.97893607016499
 20
-136.8378146359294
 30
0.0
 10
76.97893607016499
 20
-136.8378146359294
 30
0.0
 10
76.98737655410386
 20
-136.7106906125237
 30
0.0
 10
76.99788409533386
 20
-136.5987250092531
 30
0.0
 10
77.07832707491445
 20
-136.4802137245605
 30
0.0
 10
77.18822562089392
 20
-136.3193277653994
 30
0.0
 10
77.37443303187167
 20
-136.2855658296439
 30
0.0
 10
77.49087725927312
 20
-136.2855658296439
 30
0.0
 10
77.76803519106147
 20
-136.2855658296439
 30
0.0
 10
77.97525768449924
 20
-136.4695339285562
 30
0.0
 10
77.97525768449924
 20
-136.742385490988
 30
0.0
 10
77.97525768449924
 20
-136.9707953216601
 30
0.0
 10
77.85898571187207
 20
-137.0703585811838
 30
0.0
 10
77.55013290161942
 20
-137.2967013545647
 30
0.0
  0
HATCH
  5
154
330
14D
100
AcDbEntity
  8
_U+30EC_U+30A4_U+30E4_U+30FC 1
 62
     7
420
 16777215
100
AcDbHatch
 10
0.0
 20
0.0
 30
0.0
210
0.0
220
0.0
230
1.0
  2
SOLID
 70
     1
 71
     0
 91
        1
 92
        1
 93
        1
 72
     4
 94
        3
 73
     0
 74
     1
 95
       44
 96
       40
 40
0.0
 40
0.0
 40
0.0
 40
0.0
 40
1.0
 40
1.0
 40
1.0
 40
2.0
 40
2.0
 40
2.0
 40
3.0
 40
3.0
 40
3.0
 40
4.0
 40
4.0
 40
4.0
 40
5.0
 40
5.0
 40
5.0
 40
6.0
 40
6.0
 40
6.0
 40
7.0
 40
7.0
 40
7.0
 40
8.0
 40
8.0
 40
8.0
 40
9.0
 40
9.0
 40
9.0
 40
10.0
 40
10.0
 40
10.0
 40
11.0
 40
11.0
 40
11.0
 40
12.0
 40
12.0
 40
12.0
 40
13.0
 40
13.0
 40
13.0
 40
13.0
 10
77.55013290161942
 20
-137.2967013545647
 10
77.33223061217737
 20
-137.4555202564347
 10
77.23904077930135
 20
-137.5295898093676
 10
77.19046493295933
 20
-137.6732502911025
 10
77.19046493295933
 20
-137.6732502911025
 10
77.96888425785153
 20
-137.6732502911025
 10
77.96888425785153
 20
-137.6732502911025
 10
77.96888425785153
 20
-137.6732502911025
 10
77.96888425785153
 20
-137.8785779820234
 10
77.96888425785153
 20
-137.8785779820234
 10
77.96888425785153
 20
-137.8785779820234
 10
76.94086776505299
 20
-137.8785779820234
 10
76.94086776505299
 20
-137.8785779820234
 10
76.97256264351728
 20
-137.5209770706545
 10
77.03801945773702
 20
-137.4427734031393
 10
77.42318113298796
 20
-137.1444281341167
 10
77.67915172754202
 20
-136.9456461246178
 10
77.74460854176176
 20
-136.8777777435583
 10
77.74460854176176
 20
-136.7403184336969
 10
77.74460854176176
 20
-136.6218071490043
 10
77.67277830089431
 20
-136.4908935205648
 10
77.47606334868654
 20
-136.4908935205648
 10
77.21578638477592
 20
-136.4908935205648
 10
77.20734590083705
 20
-136.721370408528
 10
77.2030395314805
 20
-136.8378146359294
 10
77.2030395314805
 20
-136.8378146359294
 10
76.97893607016499
 20
-136.8378146359294
 10
76.97893607016499
 20
-136.8378146359294
 10
76.98737655410386
 20
-136.7106906125237
 10
76.99788409533386
 20
-136.5987250092531
 10
77.07832707491445
 20
-136.4802137245605
 10
77.18822562089392
 20
-136.3193277653994
 10
77.37443303187167
 20
-136.2855658296439
 10
77.49087725927312
 20
-136.2855658296439
 10
77.76803519106147
 20
-136.2855658296439
 10
77.97525768449924
 20
-136.4695339285562
 10
77.97525768449924
 20
-136.742385490988
 10
77.97525768449924
 20
-136.9707953216601
 10
77.85898571187207
 20
-137.0703585811838
 10
77.55013290161942
 20
-137.2967013545647
 97
        0
 97
        0
 75
     2
 76
     1
 98
        0
  0
ENDBLK
  5
150
330
14D
100
AcDbEntity
  8
0
100
AcDbBlockEnd
  0
BLOCK
  5
15F
330
15D
100
AcDbEntity
  8
0
100
AcDbBlockBegin
  2
block 7
 70
     0
 10
0.0
 20
0.0
 30
0.0
  3
block 7
  1

  0
SPLINE
  5
161
330
15D
100
AcDbEntity
  8
_U+30EC_U+30A4_U+30E4_U+30FC 1
370
     0
100
AcDbSpline
210
0.0
220
0.0
230
1.0
 70
    11
 71
     3
 72
    53
 73
    49
 74
     0
 42
0.0000000001
 43
0.0000000001
 12
1.0
 22
0.0
 32
0.0
 13
1.0
 23
0.0
 33
0.0
 40
0.0
 40
0.0
 40
0.0
 40
0.0
 40
1.0
 40
1.0
 40
1.0
 40
2.0
 40
2.0
 40
2.0
 40
3.0
 40
3.0
 40
3.0
 40
4.0
 40
4.0
 40
4.0
 40
5.0
 40
5.0
 40
5.0
 40
6.0
 40
6.0
 40
6.0
 40
7.0
 40
7.0
 40
7.0
 40
8.0
 40
8.0
 40
8.0
 40
9.0
 40
9.0
 40
9.0
 40
10.0
 40
10.0
 40
10.0
 40
11.0
 40
11.0
 40
11.0
 40
12.0
 40
12.0
 40
12.0
 40
13.0
 40
13.0
 40
13.0
 40
14.0
 40
14.0
 40
14.0
 40
15.0
 40
15.0
 40
15.0
 40
16.0
 40
16.0
 40
16.0
 40
16.0
 10
108.4498833279223
 20
-129.6572021160232
 30
0.0
 10
108.4498833279223
 20
-129.7354057835384
 30
0.0
 10
108.4330023600445
 20
-129.8370361003533
 30
0.0
 10
108.3696126031159
 20
-129.9386664171681
 30
0.0
 10
108.2597140571365
 20
-130.1119547200762
 30
0.0
 10
108.1284559191485
 20
-130.1333143120847
 30
0.0
 10
108.0206244304601
 20
-130.1522623372536
 30
0.0
 10
108.0206244304601
 20
-130.1522623372536
 30
0.0
 10
108.0206244304601
 20
-129.930053678455
 30
0.0
 10
108.0206244304601
 20
-129.930053678455
 30
0.0
 10
108.219406439959
 20
-129.8752766602395
 30
0.0
 10
108.2490342611322
 20
-129.7481526368338
 30
0.0
 10
108.2490342611322
 20
-129.655135058732
 30
0.0
 10
108.2490342611322
 20
-129.5156086915794
 30
0.0
 10
108.1494710016085
 20
-129.3633354711314
 30
0.0
 10
107.9169270563541
 20
-129.3633354711314
 30
0.0
 10
107.6609564618
 20
-129.3633354711314
 30
0.0
 10
107.5910210234495
 20
-129.5431694554614
 30
0.0
 10
107.5910210234495
 20
-129.6637477974452
 30
0.0
 10
107.5910210234495
 20
-129.6954426759095
 30
0.0
 10
107.5910210234495
 20
-129.8370361003533
 30
0.0
 10
107.7202121041463
 20
-129.9259195638727
 30
0.0
 10
107.7202121041463
 20
-129.9259195638727
 30
0.0
 10
107.7012640789775
 20
-130.1016194336204
 30
0.0
 10
107.7012640789775
 20
-130.1016194336204
 30
0.0
 10
107.7012640789775
 20
-130.1016194336204
 30
0.0
 10
106.8548041182516
 20
-129.9810410916367
 30
0.0
 10
106.8548041182516
 20
-129.9810410916367
 30
0.0
 10
106.8548041182516
 20
-129.9810410916367
 30
0.0
 10
106.8548041182516
 20
-129.2024495119702
 30
0.0
 10
106.8548041182516
 20
-129.2024495119702
 30
0.0
 10
106.8548041182516
 20
-129.2024495119702
 30
0.0
 10
107.0494520131682
 20
-129.2024495119702
 30
0.0
 10
107.0494520131682
 20
-129.2024495119702
 30
0.0
 10
107.0494520131682
 20
-129.2024495119702
 30
0.0
 10
107.0494520131682
 20
-129.8180880751844
 30
0.0
 10
107.0494520131682
 20
-129.8180880751844
 30
0.0
 10
107.0494520131682
 20
-129.8180880751844
 30
0.0
 10
107.4725097387569
 20
-129.8835448894041
 30
0.0
 10
107.4725097387569
 20
-129.8835448894041
 30
0.0
 10
107.4387478030014
 20
-129.8222221897667
 30
0.0
 10
107.398440185824
 20
-129.7398844076692
 30
0.0
 10
107.398440185824
 20
-129.6213731229766
 30
0.0
 10
107.398440185824
 20
-129.3674695857137
 30
0.0
 10
107.584819851576
 20
-129.1304470163285
 30
0.0
 10
107.8979790311852
 20
-129.1304470163285
 30
0.0
 10
108.2152723253767
 20
-129.1304470163285
 30
0.0
 10
108.4498833279223
 20
-129.3547227324183
 30
0.0
 10
108.4498833279223
 20
-129.6572021160232
 30
0.0
  0
HATCH
  5
162
330
15D
100
AcDbEntity
  8
_U+30EC_U+30A4_U+30E4_U+30FC 1
 62
     7
420
 16777215
100
AcDbHatch
 10
0.0
 20
0.0
 30
0.0
210
0.0
220
0.0
230
1.0
  2
SOLID
 70
     1
 71
     0
 91
        1
 92
        1
 93
        1
 72
     4
 94
        3
 73
     0
 74
     1
 95
       53
 96
       49
 40
0.0
 40
0.0
 40
0.0
 40
0.0
 40
1.0
 40
1.0
 40
1.0
 40
2.0
 40
2.0
 40
2.0
 40
3.0
 40
3.0
 40
3.0
 40
4.0
 40
4.0
 40
4.0
 40
5.0
 40
5.0
 40
5.0
 40
6.0
 40
6.0
 40
6.0
 40
7.0
 40
7.0
 40
7.0
 40
8.0
 40
8.0
 40
8.0
 40
9.0
 40
9.0
 40
9.0
 40
10.0
 40
10.0
 40
10.0
 40
11.0
 40
11.0
 40
11.0
 40
12.0
 40
12.0
 40
12.0
 40
13.0
 40
13.0
 40
13.0
 40
14.0
 40
14.0
 40
14.0
 40
15.0
 40
15.0
 40
15.0
 40
16.0
 40
16.0
 40
16.0
 40
16.0
 10
108.4498833279223
 20
-129.6572021160232
 10
108.4498833279223
 20
-129.7354057835384
 10
108.4330023600445
 20
-129.8370361003533
 10
108.3696126031159
 20
-129.9386664171681
 10
108.2597140571365
 20
-130.1119547200762
 10
108.1284559191485
 20
-130.1333143120847
 10
108.0206244304601
 20
-130.1522623372536
 10
108.0206244304601
 20
-130.1522623372536
 10
108.0206244304601
 20
-129.930053678455
 10
108.0206244304601
 20
-129.930053678455
 10
108.219406439959
 20
-129.8752766602395
 10
108.2490342611322
 20
-129.7481526368338
 10
108.2490342611322
 20
-129.655135058732
 10
108.2490342611322
 20
-129.5156086915794
 10
108.1494710016085
 20
-129.3633354711314
 10
107.9169270563541
 20
-129.3633354711314
 10
107.6609564618
 20
-129.3633354711314
 10
107.5910210234495
 20
-129.5431694554614
 10
107.5910210234495
 20
-129.6637477974452
 10
107.5910210234495
 20
-129.6954426759095
 10
107.5910210234495
 20
-129.8370361003533
 10
107.7202121041463
 20
-129.9259195638727
 10
107.7202121041463
 20
-129.9259195638727
 10
107.7012640789775
 20
-130.1016194336204
 10
107.7012640789775
 20
-130.1016194336204
 10
107.7012640789775
 20
-130.1016194336204
 10
106.8548041182516
 20
-129.9810410916367
 10
106.8548041182516
 20
-129.9810410916367
 10
106.8548041182516
 20
-129.9810410916367
 10
106.8548041182516
 20
-129.2024495119702
 10
106.8548041182516
 20
-129.2024495119702
 10
106.8548041182516
 20
-129.2024495119702
 10
107.0494520131682
 20
-129.2024495119702
 10
107.0494520131682
 20
-129.2024495119702
 10
107.0494520131682
 20
-129.2024495119702
 10
107.0494520131682
 20
-129.8180880751844
 10
107.0494520131682
 20
-129.8180880751844
 10
107.0494520131682
 20
-129.8180880751844
 10
107.4725097387569
 20
-129.8835448894041
 10
107.4725097387569
 20
-129.8835448894041
 10
107.4387478030014
 20
-129.8222221897667
 10
107.398440185824
 20
-129.7398844076692
 10
107.398440185824
 20
-129.6213731229766
 10
107.398440185824
 20
-129.3674695857137
 10
107.584819851576
 20
-129.1304470163285
 10
107.8979790311852
 20
-129.1304470163285
 10
108.2152723253767
 20
-129.1304470163285
 10
108.4498833279223
 20
-129.3547227324183
 10
108.4498833279223
 20
-129.6572021160232
 97
        0
 97
        0
 75
     2
 76
     1
 98
        0
  0
POLYLINE
  5
163
330
15D
100
AcDbEntity
  8
_U+30EC_U+30A4_U+30E4_U+30FC 1
370
     0
100
AcDb2dPolyline
 66
     1
 10
0.0
 20
0.0
 30
0.0
  0
VERTEX
  5
164
330
163
100
AcDbEntity
  8
_U+30EC_U+30A4_U+30E4_U+30FC 1
370
     0
100
AcDbVertex
100
AcDb2dVertex
 10
108.3992404242891
 20
-128.9013481665594
 30
0.0
  0
VERTEX
  5
165
330
163
100
AcDbEntity
  8
_U+30EC_U+30A4_U+30E4_U+30FC 1
370
     0
100
AcDbVertex
100
AcDb2dVertex
 10
108.1474039443173
 20
-128.9013481665594
 30
0.0
  0
VERTEX
  5
166
330
163
100
AcDbEntity
  8
_U+30EC_U+30A4_U+30E4_U+30FC 1
370
     0
100
AcDbVertex
100
AcDb2dVertex
 10
108.1474039443173
 20
-128.6495116865876
 30
0.0
  0
VERTEX
  5
167
330
163
100
AcDbEntity
  8
_U+30EC_U+30A4_U+30E4_U+30FC 1
370
     0
100
AcDbVertex
100
AcDb2dVertex
 10
108.3992404242891
 20
-128.6495116865876
 30
0.0
  0
VERTEX
  5
168
330
163
100
AcDbEntity
  8
_U+30EC_U+30A4_U+30E4_U+30FC 1
370
     0
100
AcDbVertex
100
AcDb2dVertex
 10
108.3992404242891
 20
-128.9013481665594
 30
0.0
  0
SEQEND
  5
169
330
163
100
AcDbEntity
  8
_U+30EC_U+30A4_U+30E4_U+30FC 1
370
     0
  0
HATCH
  5
16A
330
15D
100
AcDbEntity
  8
_U+30EC_U+30A4_U+30E4_U+30FC 1
 62
     7
420
 16777215
100
AcDbHatch
 10
0.0
 20
0.0
 30
0.0
210
0.0
220
0.0
230
1.0
  2
SOLID
 70
     1
 71
     0
 91
        1
 92
        1
 93
        4
 72
     1
 10
108.3992404242891
 20
-128.9013481665594
 11
108.1474039443173
 21
-128.9013481665594
 72
     1
 10
108.1474039443173
 20
-128.9013481665594
 11
108.1474039443173
 21
-128.6495116865876
 72
     1
 10
108.1474039443173
 20
-128.6495116865876
 11
108.3992404242891
 21
-128.6495116865876
 72
     1
 10
108.3992404242891
 20
-128.6495116865876
 11
108.3992404242891
 21
-128.9013481665594
 97
        0
 75
     2
 76
     1
 98
        0
  0
SPLINE
  5
16B
330
15D
100
AcDbEntity
  8
_U+30EC_U+30A4_U+30E4_U+30FC 1
370
     0
100
AcDbSpline
210
0.0
220
0.0
230
1.0
 70
    11
 71
     3
 72
    53
 73
    49
 74
     0
 42
0.0000000001
 43
0.0000000001
 12
1.0
 22
0.0
 32
0.0
 13
1.0
 23
0.0
 33
0.0
 40
0.0
 40
0.0
 40
0.0
 40
0.0
 40
1.0
 40
1.0
 40
1.0
 40
2.0
 40
2.0
 40
2.0
 40
3.0
 40
3.0
 40
3.0
 40
4.0
 40
4.0
 40
4.0
 40
5.0
 40
5.0
 40
5.0
 40
6.0
 40
6.0
 40
6.0
 40
7.0
 40
7.0
 40
7.0
 40
8.0
 40
8.0
 40
8.0
 40
9.0
 40
9.0
 40
9.0
 40
10.0
 40
10.0
 40
10.0
 40
11.0
 40
11.0
 40
11.0
 40
12.0
 40
12.0
 40
12.0
 40
13.0
 40
13.0
 40
13.0
 40
14.0
 40
14.0
 40
14.0
 40
15.0
 40
15.0
 40
15.0
 40
16.0
 40
16.0
 40
16.0
 40
16.0
 10
108.4498833279223
 20
-127.9322428065586
 30
0.0
 10
108.4498833279223
 20
-128.0104464740738
 30
0.0
 10
108.4330023600445
 20
-128.1120767908887
 30
0.0
 10
108.3696126031159
 20
-128.2137071077035
 30
0.0
 10
108.2597140571365
 20
-128.3869954106116
 30
0.0
 10
108.1284559191485
 20
-128.4083550026201
 30
0.0
 10
108.0206244304601
 20
-128.427303027789
 30
0.0
 10
108.0206244304601
 20
-128.427303027789
 30
0.0
 10
108.0206244304601
 20
-128.2050943689904
 30
0.0
 10
108.0206244304601
 20
-128.2050943689904
 30
0.0
 10
108.219406439959
 20
-128.1503173507749
 30
0.0
 10
108.2490342611322
 20
-128.0231933273692
 30
0.0
 10
108.2490342611322
 20
-127.9301757492675
 30
0.0
 10
108.2490342611322
 20
-127.7906493821149
 30
0.0
 10
108.1494710016085
 20
-127.6383761616668
 30
0.0
 10
107.9169270563541
 20
-127.6383761616668
 30
0.0
 10
107.6609564618
 20
-127.6383761616668
 30
0.0
 10
107.5910210234495
 20
-127.8182101459968
 30
0.0
 10
107.5910210234495
 20
-127.9387884879806
 30
0.0
 10
107.5910210234495
 20
-127.9704833664449
 30
0.0
 10
107.5910210234495
 20
-128.1120767908887
 30
0.0
 10
107.7202121041463
 20
-128.2009602544081
 30
0.0
 10
107.7202121041463
 20
-128.2009602544081
 30
0.0
 10
107.7012640789775
 20
-128.3766601241558
 30
0.0
 10
107.7012640789775
 20
-128.3766601241558
 30
0.0
 10
107.7012640789775
 20
-128.3766601241558
 30
0.0
 10
106.8548041182516
 20
-128.2560817821721
 30
0.0
 10
106.8548041182516
 20
-128.2560817821721
 30
0.0
 10
106.8548041182516
 20
-128.2560817821721
 30
0.0
 10
106.8548041182516
 20
-127.4774902025056
 30
0.0
 10
106.8548041182516
 20
-127.4774902025056
 30
0.0
 10
106.8548041182516
 20
-127.4774902025056
 30
0.0
 10
107.0494520131682
 20
-127.4774902025056
 30
0.0
 10
107.0494520131682
 20
-127.4774902025056
 30
0.0
 10
107.0494520131682
 20
-127.4774902025056
 30
0.0
 10
107.0494520131682
 20
-128.0931287657198
 30
0.0
 10
107.0494520131682
 20
-128.0931287657198
 30
0.0
 10
107.0494520131682
 20
-128.0931287657198
 30
0.0
 10
107.4725097387569
 20
-128.1585855799395
 30
0.0
 10
107.4725097387569
 20
-128.1585855799395
 30
0.0
 10
107.4387478030014
 20
-128.0972628803021
 30
0.0
 10
107.398440185824
 20
-128.0149250982046
 30
0.0
 10
107.398440185824
 20
-127.896413813512
 30
0.0
 10
107.398440185824
 20
-127.6425102762491
 30
0.0
 10
107.584819851576
 20
-127.4054877068639
 30
0.0
 10
107.8979790311852
 20
-127.4054877068639
 30
0.0
 10
108.2152723253767
 20
-127.4054877068639
 30
0.0
 10
108.4498833279223
 20
-127.6297634229537
 30
0.0
 10
108.4498833279223
 20
-127.9322428065586
 30
0.0
  0
HATCH
  5
16C
330
15D
100
AcDbEntity
  8
_U+30EC_U+30A4_U+30E4_U+30FC 1
 62
     7
420
 16777215
100
AcDbHatch
 10
0.0
 20
0.0
 30
0.0
210
0.0
220
0.0
230
1.0
  2
SOLID
 70
     1
 71
     0
 91
        1
 92
        1
 93
        1
 72
     4
 94
        3
 73
     0
 74
     1
 95
       53
 96
       49
 40
0.0
 40
0.0
 40
0.0
 40
0.0
 40
1.0
 40
1.0
 40
1.0
 40
2.0
 40
2.0
 40
2.0
 40
3.0
 40
3.0
 40
3.0
 40
4.0
 40
4.0
 40
4.0
 40
5.0
 40
5.0
 40
5.0
 40
6.0
 40
6.0
 40
6.0
 40
7.0
 40
7.0
 40
7.0
 40
8.0
 40
8.0
 40
8.0
 40
9.0
 40
9.0
 40
9.0
 40
10.0
 40
10.0
 40
10.0
 40
11.0
 40
11.0
 40
11.0
 40
12.0
 40
12.0
 40
12.0
 40
13.0
 40
13.0
 40
13.0
 40
14.0
 40
14.0
 40
14.0
 40
15.0
 40
15.0
 40
15.0
 40
16.0
 40
16.0
 40
16.0
 40
16.0
 10
108.4498833279223
 20
-127.9322428065586
 10
108.4498833279223
 20
-128.0104464740738
 10
108.4330023600445
 20
-128.1120767908887
 10
108.3696126031159
 20
-128.2137071077035
 10
108.2597140571365
 20
-128.3869954106116
 10
108.1284559191485
 20
-128.4083550026201
 10
108.0206244304601
 20
-128.427303027789
 10
108.0206244304601
 20
-128.427303027789
 10
108.0206244304601
 20
-128.2050943689904
 10
108.0206244304601
 20
-128.2050943689904
 10
108.219406439959
 20
-128.1503173507749
 10
108.2490342611322
 20
-128.0231933273692
 10
108.2490342611322
 20
-127.9301757492675
 10
108.2490342611322
 20
-127.7906493821149
 10
108.1494710016085
 20
-127.6383761616668
 10
107.9169270563541
 20
-127.6383761616668
 10
107.6609564618
 20
-127.6383761616668
 10
107.5910210234495
 20
-127.8182101459968
 10
107.5910210234495
 20
-127.9387884879806
 10
107.5910210234495
 20
-127.9704833664449
 10
107.5910210234495
 20
-128.1120767908887
 10
107.7202121041463
 20
-128.2009602544081
 10
107.7202121041463
 20
-128.2009602544081
 10
107.7012640789775
 20
-128.3766601241558
 10
107.7012640789775
 20
-128.3766601241558
 10
107.7012640789775
 20
-128.3766601241558
 10
106.8548041182516
 20
-128.2560817821721
 10
106.8548041182516
 20
-128.2560817821721
 10
106.8548041182516
 20
-128.2560817821721
 10
106.8548041182516
 20
-127.4774902025056
 10
106.8548041182516
 20
-127.4774902025056
 10
106.8548041182516
 20
-127.4774902025056
 10
107.0494520131682
 20
-127.4774902025056
 10
107.0494520131682
 20
-127.4774902025056
 10
107.0494520131682
 20
-127.4774902025056
 10
107.0494520131682
 20
-128.0931287657198
 10
107.0494520131682
 20
-128.0931287657198
 10
107.0494520131682
 20
-128.0931287657198
 10
107.4725097387569
 20
-128.1585855799395
 10
107.4725097387569
 20
-128.1585855799395
 10
107.4387478030014
 20
-128.0972628803021
 10
107.398440185824
 20
-128.0149250982046
 10
107.398440185824
 20
-127.896413813512
 10
107.398440185824
 20
-127.6425102762491
 10
107.584819851576
 20
-127.4054877068639
 10
107.8979790311852
 20
-127.4054877068639
 10
108.2152723253767
 20
-127.4054877068639
 10
108.4498833279223
 20
-127.6297634229537
 10
108.4498833279223
 20
-127.9322428065586
 97
        0
 97
        0
 75
     2
 76
     1
 98
        0
  0
ENDBLK
  5
160
330
15D
100
AcDbEntity
  8
0
100
AcDbBlockEnd
  0
ENDSEC
  0
SECTION
  2
ENTITIES
  0
POLYLINE
  5
41
330
1F
100
AcDbEntity
  8
_U+30EC_U+30A4_U+30E4_U+30FC 1
370
     0
100
AcDb2dPolyline
 66
     1
 10
0.0
 20
0.0
 30
0.0
  0
VERTEX
  5
42
330
41
100
AcDbEntity
  8
_U+30EC_U+30A4_U+30E4_U+30FC 1
370
     0
100
AcDbVertex
100
AcDb2dVertex
 10
92.8639145752886
 20
-126.0247105240492
 30
0.0
  0
VERTEX
  5
43
330
41
100
AcDbEntity
  8
_U+30EC_U+30A4_U+30E4_U+30FC 1
370
     0
100
AcDbVertex
100
AcDb2dVertex
 10
93.45509956020622
 20
-125.5251419130632
 30
0.0
  0
VERTEX
  5
44
330
41
100
AcDbEntity
  8
_U+30EC_U+30A4_U+30E4_U+30FC 1
370
     0
100
AcDbVertex
100
AcDb2dVertex
 10
94.04628454512384
 20
-126.0247105240492
 30
0.0
  0
VERTEX
  5
45
330
41
100
AcDbEntity
  8
_U+30EC_U+30A4_U+30E4_U+30FC 1
370
     0
100
AcDbVertex
100
AcDb2dVertex
 10
94.63746953004146
 20
-125.5251419130632
 30
0.0
  0
VERTEX
  5
46
330
41
100
AcDbEntity
  8
_U+30EC_U+30A4_U+30E4_U+30FC 1
370
     0
100
AcDbVertex
100
AcDb2dVertex
 10
95.22865451495906
 20
-126.0247105240492
 30
0.0
  0
VERTEX
  5
47
330
41
100
AcDbEntity
  8
_U+30EC_U+30A4_U+30E4_U+30FC 1
370
     0
100
AcDbVertex
100
AcDb2dVertex
 10
95.8198042220998
 20
-125.5251419130632
 30
0.0
  0
VERTEX
  5
48
330
41
100
AcDbEntity
  8
_U+30EC_U+30A4_U+30E4_U+30FC 1
370
     0
100
AcDbVertex
100
AcDb2dVertex
 10
96.41134442034142
 20
-126.0247105240492
 30
0.0
  0
VERTEX
  5
49
330
41
100
AcDbEntity
  8
_U+30EC_U+30A4_U+30E4_U+30FC 1
370
     0
100
AcDbVertex
100
AcDb2dVertex
 10
97.00217419193503
 20
-125.5251419130632
 30
0.0
  0
VERTEX
  5
4A
330
41
100
AcDbEntity
  8
_U+30EC_U+30A4_U+30E4_U+30FC 1
370
     0
100
AcDbVertex
100
AcDb2dVertex
 10
97.59402945461332
 20
-126.0247105240492
 30
0.0
  0
VERTEX
  5
4B
330
41
100
AcDbEntity
  8
_U+30EC_U+30A4_U+30E4_U+30FC 1
370
     0
100
AcDbVertex
100
AcDb2dVertex
 10
98.18454416177026
 20
-125.5251419130632
 30
0.0
  0
VERTEX
  5
4C
330
41
100
AcDbEntity
  8
_U+30EC_U+30A4_U+30E4_U+30FC 1
370
     0
100
AcDbVertex
100
AcDb2dVertex
 10
98.77639942444856
 20
-126.0247105240492
 30
0.0
  0
VERTEX
  5
4D
330
41
100
AcDbEntity
  8
_U+30EC_U+30A4_U+30E4_U+30FC 1
370
     0
100
AcDbVertex
100
AcDb2dVertex
 10
99.36687885382861
 20
-125.5251419130632
 30
0.0
  0
VERTEX
  5
4E
330
41
100
AcDbEntity
  8
_U+30EC_U+30A4_U+30E4_U+30FC 1
370
     0
100
AcDbVertex
100
AcDb2dVertex
 10
99.95876939428378
 20
-126.0247105240492
 30
0.0
  0
VERTEX
  5
4F
330
41
100
AcDbEntity
  8
_U+30EC_U+30A4_U+30E4_U+30FC 1
370
     0
100
AcDbVertex
100
AcDb2dVertex
 10
100.5492488236638
 20
-125.5251419130632
 30
0.0
  0
VERTEX
  5
50
330
41
100
AcDbEntity
  8
_U+30EC_U+30A4_U+30E4_U+30FC 1
370
     0
100
AcDbVertex
100
AcDb2dVertex
 10
101.1411040863421
 20
-126.0247105240492
 30
0.0
  0
VERTEX
  5
51
330
41
100
AcDbEntity
  8
_U+30EC_U+30A4_U+30E4_U+30FC 1
370
     0
100
AcDbVertex
100
AcDb2dVertex
 10
101.7319388634558
 20
-125.5251419130632
 30
0.0
  0
VERTEX
  5
52
330
41
100
AcDbEntity
  8
_U+30EC_U+30A4_U+30E4_U+30FC 1
370
     0
100
AcDbVertex
100
AcDb2dVertex
 10
102.3231212784086
 20
-126.0247105240492
 30
0.0
  0
VERTEX
  5
53
330
41
100
AcDbEntity
  8
_U+30EC_U+30A4_U+30E4_U+30FC 1
370
     0
100
AcDbVertex
100
AcDb2dVertex
 10
102.914659041095
 20
-125.5251419130632
 30
0.0
  0
VERTEX
  5
54
330
41
100
AcDbEntity
  8
_U+30EC_U+30A4_U+30E4_U+30FC 1
370
     0
100
AcDbVertex
100
AcDb2dVertex
 10
103.505138470475
 20
-126.0247105240492
 30
0.0
  0
VERTEX
  5
55
330
41
100
AcDbEntity
  8
_U+30EC_U+30A4_U+30E4_U+30FC 1
370
     0
100
AcDbVertex
100
AcDb2dVertex
 10
104.0969937331533
 20
-125.5251419130632
 30
0.0
  0
VERTEX
  5
56
330
41
100
AcDbEntity
  8
_U+30EC_U+30A4_U+30E4_U+30FC 1
370
     0
100
AcDbVertex
100
AcDb2dVertex
 10
104.6868055293839
 20
-126.0247105240492
 30
0.0
  0
VERTEX
  5
57
330
41
100
AcDbEntity
  8
_U+30EC_U+30A4_U+30E4_U+30FC 1
370
     0
100
AcDbVertex
100
AcDb2dVertex
 10
105.2793637029886
 20
-125.5251419130632
 30
0.0
  0
VERTEX
  5
58
330
41
100
AcDbEntity
  8
_U+30EC_U+30A4_U+30E4_U+30FC 1
370
     0
100
AcDbVertex
100
AcDb2dVertex
 10
105.8684672990704
 20
-126.0247105240492
 30
0.0
  0
VERTEX
  5
59
330
41
100
AcDbEntity
  8
_U+30EC_U+30A4_U+30E4_U+30FC 1
370
     0
100
AcDbVertex
100
AcDb2dVertex
 10
105.8684672990704
 20
-125.024938302077
 30
0.0
  0
VERTEX
  5
5A
330
41
100
AcDbEntity
  8
_U+30EC_U+30A4_U+30E4_U+30FC 1
370
     0
100
AcDbVertex
100
AcDb2dVertex
 10
70.86853819199297
 20
-125.024938302077
 30
0.0
  0
VERTEX
  5
5B
330
41
100
AcDbEntity
  8
_U+30EC_U+30A4_U+30E4_U+30FC 1
370
     0
100
AcDbVertex
100
AcDb2dVertex
 10
70.86853819199297
 20
-126.0247105240492
 30
0.0
  0
VERTEX
  5
5C
330
41
100
AcDbEntity
  8
_U+30EC_U+30A4_U+30E4_U+30FC 1
370
     0
100
AcDbVertex
100
AcDb2dVertex
 10
82.86848566362657
 20
-126.0247105240492
 30
0.0
  0
VERTEX
  5
5D
330
41
100
AcDbEntity
  8
_U+30EC_U+30A4_U+30E4_U+30FC 1
370
     0
100
AcDbVertex
100
AcDb2dVertex
 10
82.86848566362657
 20
-134.5251380219241
 30
0.0
  0
VERTEX
  5
5E
330
41
100
AcDbEntity
  8
_U+30EC_U+30A4_U+30E4_U+30FC 1
370
     0
100
AcDbVertex
100
AcDb2dVertex
 10
92.86874997678282
 20
-134.5251380219241
 30
0.0
  0
VERTEX
  5
5F
330
41
100
AcDbEntity
  8
_U+30EC_U+30A4_U+30E4_U+30FC 1
370
     0
100
AcDbVertex
100
AcDb2dVertex
 10
92.86874997678282
 20
-131.5251158004522
 30
0.0
  0
VERTEX
  5
60
330
41
100
AcDbEntity
  8
_U+30EC_U+30A4_U+30E4_U+30FC 1
370
     0
100
AcDbVertex
100
AcDb2dVertex
 10
91.86897775481027
 20
-131.5251158004522
 30
0.0
  0
VERTEX
  5
61
330
41
100
AcDbEntity
  8
_U+30EC_U+30A4_U+30E4_U+30FC 1
370
     0
100
AcDbVertex
100
AcDb2dVertex
 10
91.86897775481027
 20
-133.5246602443966
 30
0.0
  0
VERTEX
  5
62
330
41
100
AcDbEntity
  8
_U+30EC_U+30A4_U+30E4_U+30FC 1
370
     0
100
AcDbVertex
100
AcDb2dVertex
 10
83.76870397399342
 20
-133.5246602443966
 30
0.0
  0
VERTEX
  5
63
330
41
100
AcDbEntity
  8
_U+30EC_U+30A4_U+30E4_U+30FC 1
370
     0
100
AcDbVertex
100
AcDb2dVertex
 10
83.76870397399342
 20
-126.0247105240492
 30
0.0
  0
VERTEX
  5
64
330
41
100
AcDbEntity
  8
_U+30EC_U+30A4_U+30E4_U+30FC 1
370
     0
100
AcDbVertex
100
AcDb2dVertex
 10
92.8639145752886
 20
-126.0247105240492
 30
0.0
  0
SEQEND
  5
66
330
41
100
AcDbEntity
  8
_U+30EC_U+30A4_U+30E4_U+30FC 1
370
     0
  0
HATCH
  5
65
330
1F
100
AcDbEntity
  8
_U+30EC_U+30A4_U+30E4_U+30FC 1
 62
   253
420
 11711154
100
AcDbHatch
 10
0.0
 20
0.0
 30
0.0
210
0.0
220
0.0
230
1.0
  2
SOLID
 70
     1
 71
     0
 91
        1
 92
        1
 93
       34
 72
     1
 10
92.8639145752886
 20
-126.0247105240492
 11
93.45509956020622
 21
-125.5251419130632
 72
     1
 10
93.45509956020622
 20
-125.5251419130632
 11
94.04628454512384
 21
-126.0247105240492
 72
     1
 10
94.04628454512384
 20
-126.0247105240492
 11
94.63746953004146
 21
-125.5251419130632
 72
     1
 10
94.63746953004146
 20
-125.5251419130632
 11
95.22865451495906
 21
-126.0247105240492
 72
     1
 10
95.22865451495906
 20
-126.0247105240492
 11
95.8198042220998
 21
-125.5251419130632
 72
     1
 10
95.8198042220998
 20
-125.5251419130632
 11
96.41134442034142
 21
-126.0247105240492
 72
     1
 10
96.41134442034142
 20
-126.0247105240492
 11
97.00217419193503
 21
-125.5251419130632
 72
     1
 10
97.00217419193503
 20
-125.5251419130632
 11
97.59402945461332
 21
-126.0247105240492
 72
     1
 10
97.59402945461332
 20
-126.0247105240492
 11
98.18454416177026
 21
-125.5251419130632
 72
     1
 10
98.18454416177026
 20
-125.5251419130632
 11
98.77639942444856
 21
-126.0247105240492
 72
     1
 10
98.77639942444856
 20
-126.0247105240492
 11
99.36687885382861
 21
-125.5251419130632
 72
     1
 10
99.36687885382861
 20
-125.5251419130632
 11
99.95876939428378
 21
-126.0247105240492
 72
     1
 10
99.95876939428378
 20
-126.0247105240492
 11
100.5492488236638
 21
-125.5251419130632
 72
     1
 10
100.5492488236638
 20
-125.5251419130632
 11
101.1411040863421
 21
-126.0247105240492
 72
     1
 10
101.1411040863421
 20
-126.0247105240492
 11
101.7319388634558
 21
-125.5251419130632
 72
     1
 10
101.7319388634558
 20
-125.5251419130632
 11
102.3231212784086
 21
-126.0247105240492
 72
     1
 10
102.3231212784086
 20
-126.0247105240492
 11
102.914659041095
 21
-125.5251419130632
 72
     1
 10
102.914659041095
 20
-125.5251419130632
 11
103.505138470475
 21
-126.0247105240492
 72
     1
 10
103.505138470475
 20
-126.0247105240492
 11
104.0969937331533
 21
-125.5251419130632
 72
     1
 10
104.0969937331533
 20
-125.5251419130632
 11
104.6868055293839
 21
-126.0247105240492
 72
     1
 10
104.6868055293839
 20
-126.0247105240492
 11
105.2793637029886
 21
-125.5251419130632
 72
     1
 10
105.2793637029886
 20
-125.5251419130632
 11
105.8684672990704
 21
-126.0247105240492
 72
     1
 10
105.8684672990704
 20
-126.0247105240492
 11
105.8684672990704
 21
-125.024938302077
 72
     1
 10
105.8684672990704
 20
-125.024938302077
 11
70.86853819199297
 21
-125.024938302077
 72
     1
 10
70.86853819199297
 20
-125.024938302077
 11
70.86853819199297
 21
-126.0247105240492
 72
     1
 10
70.86853819199297
 20
-126.0247105240492
 11
82.86848566362657
 21
-126.0247105240492
 72
     1
 10
82.86848566362657
 20
-126.0247105240492
 11
82.86848566362657
 21
-134.5251380219241
 72
     1
 10
82.86848566362657
 20
-134.5251380219241
 11
92.86874997678282
 21
-134.5251380219241
 72
     1
 10
92.86874997678282
 20
-134.5251380219241
 11
92.86874997678282
 21
-131.5251158004522
 72
     1
 10
92.86874997678282
 20
-131.5251158004522
 11
91.86897775481027
 21
-131.5251158004522
 72
     1
 10
91.86897775481027
 20
-131.5251158004522
 11
91.86897775481027
 21
-133.5246602443966
 72
     1
 10
91.86897775481027
 20
-133.5246602443966
 11
83.76870397399342
 21
-133.5246602443966
 72
     1
 10
83.76870397399342
 20
-133.5246602443966
 11
83.76870397399342
 21
-126.0247105240492
 72
     1
 10
83.76870397399342
 20
-126.0247105240492
 11
92.8639145752886
 21
-126.0247105240492
 97
        0
 75
     2
 76
     1
 98
        0
  0
POLYLINE
  5
67
330
1F
100
AcDbEntity
  8
_U+30EC_U+30A4_U+30E4_U+30FC 1
 62
     7
420
 16777215
370
    25
100
AcDb2dPolyline
 66
     1
 10
0.0
 20
0.0
 30
0.0
  0
VERTEX
  5
68
330
67
100
AcDbEntity
  8
_U+30EC_U+30A4_U+30E4_U+30FC 1
 62
     7
420
 16777215
370
    25
100
AcDbVertex
100
AcDb2dVertex
 10
82.86848566362657
 20
-134.5251380219241
 30
0.0
  0
VERTEX
  5
69
330
67
100
AcDbEntity
  8
_U+30EC_U+30A4_U+30E4_U+30FC 1
 62
     7
420
 16777215
370
    25
100
AcDbVertex
100
AcDb2dVertex
 10
92.86874997678282
 20
-134.5251380219241
 30
0.0
  0
SEQEND
  5
6A
330
67
100
AcDbEntity
  8
_U+30EC_U+30A4_U+30E4_U+30FC 1
 62
     7
420
 16777215
370
    25
  0
POLYLINE
  5
6B
330
1F
100
AcDbEntity
  8
_U+30EC_U+30A4_U+30E4_U+30FC 1
 62
     7
420
 16777215
370
    25
100
AcDb2dPolyline
 66
     1
 10
0.0
 20
0.0
 30
0.0
  0
VERTEX
  5
6C
330
6B
100
AcDbEntity
  8
_U+30EC_U+30A4_U+30E4_U+30FC 1
 62
     7
420
 16777215
370
    25
100
AcDbVertex
100
AcDb2dVertex
 10
70.86853819199297
 20
-125.024938302077
 30
0.0
  0
VERTEX
  5
6D
330
6B
100
AcDbEntity
  8
_U+30EC_U+30A4_U+30E4_U+30FC 1
 62
     7
420
 16777215
370
    25
100
AcDbVertex
100
AcDb2dVertex
 10
105.8684672990704
 20
-125.024938302077
 30
0.0
  0
SEQEND
  5
6E
330
6B
100
AcDbEntity
  8
_U+30EC_U+30A4_U+30E4_U+30FC 1
 62
     7
420
 16777215
370
    25
  0
POLYLINE
  5
6F
330
1F
100
AcDbEntity
  8
_U+30EC_U+30A4_U+30E4_U+30FC 1
 62
     7
420
 16777215
370
    25
100
AcDb2dPolyline
 66
     1
 10
0.0
 20
0.0
 30
0.0
  0
VERTEX
  5
70
330
6F
100
AcDbEntity
  8
_U+30EC_U+30A4_U+30E4_U+30FC 1
 62
     7
420
 16777215
370
    25
100
AcDbVertex
100
AcDb2dVertex
 10
91.86897775481027
 20
-131.5251158004522
 30
0.0
  0
VERTEX
  5
71
330
6F
100
AcDbEntity
  8
_U+30EC_U+30A4_U+30E4_U+30FC 1
 62
     7
420
 16777215
370
    25
100
AcDbVertex
100
AcDb2dVertex
 10
92.86874997678282
 20
-131.5251158004522
 30
0.0
  0
SEQEND
  5
72
330
6F
100
AcDbEntity
  8
_U+30EC_U+30A4_U+30E4_U+30FC 1
 62
     7
420
 16777215
370
    25
  0
POLYLINE
  5
73
330
1F
100
AcDbEntity
  8
_U+30EC_U+30A4_U+30E4_U+30FC 1
 62
     7
420
 16777215
370
    25
100
AcDb2dPolyline
 66
     1
 10
0.0
 20
0.0
 30
0.0
  0
VERTEX
  5
74
330
73
100
AcDbEntity
  8
_U+30EC_U+30A4_U+30E4_U+30FC 1
 62
     7
420
 16777215
370
    25
100
AcDbVertex
100
AcDb2dVertex
 10
92.86874997678282
 20
-134.5251380219241
 30
0.0
  0
VERTEX
  5
75
330
73
100
AcDbEntity
  8
_U+30EC_U+30A4_U+30E4_U+30FC 1
 62
     7
420
 16777215
370
    25
100
AcDbVertex
100
AcDb2dVertex
 10
92.86874997678282
 20
-131.5251158004522
 30
0.0
  0
SEQEND
  5
76
330
73
100
AcDbEntity
  8
_U+30EC_U+30A4_U+30E4_U+30FC 1
 62
     7
420
 16777215
370
    25
  0
POLYLINE
  5
77
330
1F
100
AcDbEntity
  8
_U+30EC_U+30A4_U+30E4_U+30FC 1
 62
     7
420
 16777215
370
    25
100
AcDb2dPolyline
 66
     1
 10
0.0
 20
0.0
 30
0.0
  0
VERTEX
  5
78
330
77
100
AcDbEntity
  8
_U+30EC_U+30A4_U+30E4_U+30FC 1
 62
     7
420
 16777215
370
    25
100
AcDbVertex
100
AcDb2dVertex
 10
70.86853819199297
 20
-126.0247105240492
 30
0.0
  0
VERTEX
  5
79
330
77
100
AcDbEntity
  8
_U+30EC_U+30A4_U+30E4_U+30FC 1
 62
     7
420
 16777215
370
    25
100
AcDbVertex
100
AcDb2dVertex
 10
70.86853819199297
 20
-125.024938302077
 30
0.0
  0
SEQEND
  5
7A
330
77
100
AcDbEntity
  8
_U+30EC_U+30A4_U+30E4_U+30FC 1
 62
     7
420
 16777215
370
    25
  0
POLYLINE
  5
7B
330
1F
100
AcDbEntity
  8
_U+30EC_U+30A4_U+30E4_U+30FC 1
 62
     7
420
 16777215
370
    25
100
AcDb2dPolyline
 66
     1
 10
0.0
 20
0.0
 30
0.0
  0
VERTEX
  5
7C
330
7B
100
AcDbEntity
  8
_U+30EC_U+30A4_U+30E4_U+30FC 1
 62
     7
420
 16777215
370
    25
100
AcDbVertex
100
AcDb2dVertex
 10
70.86853819199297
 20
-126.0247105240492
 30
0.0
  0
VERTEX
  5
7D
330
7B
100
AcDbEntity
  8
_U+30EC_U+30A4_U+30E4_U+30FC 1
 62
     7
420
 16777215
370
    25
100
AcDbVertex
100
AcDb2dVertex
 10
82.86848566362657
 20
-126.0247105240492
 30
0.0
  0
SEQEND
  5
7E
330
7B
100
AcDbEntity
  8
_U+30EC_U+30A4_U+30E4_U+30FC 1
 62
     7
420
 16777215
370
    25
  0
POLYLINE
  5
7F
330
1F
100
AcDbEntity
  8
_U+30EC_U+30A4_U+30E4_U+30FC 1
 62
     7
420
 16777215
370
    25
100
AcDb2dPolyline
 66
     1
 10
0.0
 20
0.0
 30
0.0
  0
VERTEX
  5
80
330
7F
100
AcDbEntity
  8
_U+30EC_U+30A4_U+30E4_U+30FC 1
 62
     7
420
 16777215
370
    25
100
AcDbVertex
100
AcDb2dVertex
 10
91.86897775481027
 20
-133.5246602443966
 30
0.0
  0
VERTEX
  5
81
330
7F
100
AcDbEntity
  8
_U+30EC_U+30A4_U+30E4_U+30FC 1
 62
     7
420
 16777215
370
    25
100
AcDbVertex
100
AcDb2dVertex
 10
91.86897775481027
 20
-131.5251158004522
 30
0.0
  0
SEQEND
  5
82
330
7F
100
AcDbEntity
  8
_U+30EC_U+30A4_U+30E4_U+30FC 1
 62
     7
420
 16777215
370
    25
  0
POLYLINE
  5
83
330
1F
100
AcDbEntity
  8
_U+30EC_U+30A4_U+30E4_U+30FC 1
 62
     7
420
 16777215
370
    25
100
AcDb2dPolyline
 66
     1
 10
0.0
 20
0.0
 30
0.0
  0
VERTEX
  5
84
330
83
100
AcDbEntity
  8
_U+30EC_U+30A4_U+30E4_U+30FC 1
 62
     7
420
 16777215
370
    25
100
AcDbVertex
100
AcDb2dVertex
 10
83.76870397399342
 20
-133.5246602443966
 30
0.0
  0
VERTEX
  5
85
330
83
100
AcDbEntity
  8
_U+30EC_U+30A4_U+30E4_U+30FC 1
 62
     7
420
 16777215
370
    25
100
AcDbVertex
100
AcDb2dVertex
 10
91.86897775481027
 20
-133.5246602443966
 30
0.0
  0
SEQEND
  5
86
330
83
100
AcDbEntity
  8
_U+30EC_U+30A4_U+30E4_U+30FC 1
 62
     7
420
 16777215
370
    25
  0
POLYLINE
  5
87
330
1F
100
AcDbEntity
  8
_U+30EC_U+30A4_U+30E4_U+30FC 1
 62
     7
420
 16777215
370
    25
100
AcDb2dPolyline
 66
     1
 10
0.0
 20
0.0
 30
0.0
  0
VERTEX
  5
88
330
87
100
AcDbEntity
  8
_U+30EC_U+30A4_U+30E4_U+30FC 1
 62
     7
420
 16777215
370
    25
100
AcDbVertex
100
AcDb2dVertex
 10
82.86848566362657
 20
-134.5251380219241
 30
0.0
  0
VERTEX
  5
89
330
87
100
AcDbEntity
  8
_U+30EC_U+30A4_U+30E4_U+30FC 1
 62
     7
420
 16777215
370
    25
100
AcDbVertex
100
AcDb2dVertex
 10
82.86848566362657
 20
-126.0247105240492
 30
0.0
  0
SEQEND
  5
8A
330
87
100
AcDbEntity
  8
_U+30EC_U+30A4_U+30E4_U+30FC 1
 62
     7
420
 16777215
370
    25
  0
POLYLINE
  5
8B
330
1F
100
AcDbEntity
  8
_U+30EC_U+30A4_U+30E4_U+30FC 1
 62
     7
420
 16777215
370
    25
100
AcDb2dPolyline
 66
     1
 10
0.0
 20
0.0
 30
0.0
  0
VERTEX
  5
8C
330
8B
100
AcDbEntity
  8
_U+30EC_U+30A4_U+30E4_U+30FC 1
 62
     7
420
 16777215
370
    25
100
AcDbVertex
100
AcDb2dVertex
 10
105.8684672990704
 20
-126.0247105240492
 30
0.0
  0
VERTEX
  5
8D
330
8B
100
AcDbEntity
  8
_U+30EC_U+30A4_U+30E4_U+30FC 1
 62
     7
420
 16777215
370
    25
100
AcDbVertex
100
AcDb2dVertex
 10
105.8684672990704
 20
-125.024938302077
 30
0.0
  0
SEQEND
  5
8E
330
8B
100
AcDbEntity
  8
_U+30EC_U+30A4_U+30E4_U+30FC 1
 62
     7
420
 16777215
370
    25
  0
POLYLINE
  5
8F
330
1F
100
AcDbEntity
  8
_U+30EC_U+30A4_U+30E4_U+30FC 1
 62
     7
420
 16777215
370
    25
100
AcDb2dPolyline
 66
     1
 10
0.0
 20
0.0
 30
0.0
  0
VERTEX
  5
90
330
8F
100
AcDbEntity
  8
_U+30EC_U+30A4_U+30E4_U+30FC 1
 62
     7
420
 16777215
370
    25
100
AcDbVertex
100
AcDb2dVertex
 10
83.76870397399342
 20
-126.0247105240492
 30
0.0
  0
VERTEX
  5
91
330
8F
100
AcDbEntity
  8
_U+30EC_U+30A4_U+30E4_U+30FC 1
 62
     7
420
 16777215
370
    25
100
AcDbVertex
100
AcDb2dVertex
 10
92.86839719900506
 20
-126.0247105240492
 30
0.0
  0
SEQEND
  5
92
330
8F
100
AcDbEntity
  8
_U+30EC_U+30A4_U+30E4_U+30FC 1
 62
     7
420
 16777215
370
    25
  0
POLYLINE
  5
93
330
1F
100
AcDbEntity
  8
_U+30EC_U+30A4_U+30E4_U+30FC 1
 62
     7
420
 16777215
370
    25
100
AcDb2dPolyline
 66
     1
 10
0.0
 20
0.0
 30
0.0
  0
VERTEX
  5
94
330
93
100
AcDbEntity
  8
_U+30EC_U+30A4_U+30E4_U+30FC 1
 62
     7
420
 16777215
370
    25
100
AcDbVertex
100
AcDb2dVertex
 10
104.6868055293839
 20
-126.0247105240492
 30
0.0
  0
VERTEX
  5
95
330
93
100
AcDbEntity
  8
_U+30EC_U+30A4_U+30E4_U+30FC 1
 62
     7
420
 16777215
370
    25
100
AcDbVertex
100
AcDb2dVertex
 10
105.2793637029886
 20
-125.5251419130632
 30
0.0
  0
SEQEND
  5
96
330
93
100
AcDbEntity
  8
_U+30EC_U+30A4_U+30E4_U+30FC 1
 62
     7
420
 16777215
370
    25
  0
POLYLINE
  5
97
330
1F
100
AcDbEntity
  8
_U+30EC_U+30A4_U+30E4_U+30FC 1
 62
     7
420
 16777215
370
    25
100
AcDb2dPolyline
 66
     1
 10
0.0
 20
0.0
 30
0.0
  0
VERTEX
  5
98
330
97
100
AcDbEntity
  8
_U+30EC_U+30A4_U+30E4_U+30FC 1
 62
     7
420
 16777215
370
    25
100
AcDbVertex
100
AcDb2dVertex
 10
105.2793637029886
 20
-125.5251419130632
 30
0.0
  0
VERTEX
  5
99
330
97
100
AcDbEntity
  8
_U+30EC_U+30A4_U+30E4_U+30FC 1
 62
     7
420
 16777215
370
    25
100
AcDbVertex
100
AcDb2dVertex
 10
105.8684672990704
 20
-126.0247105240492
 30
0.0
  0
SEQEND
  5
9A
330
97
100
AcDbEntity
  8
_U+30EC_U+30A4_U+30E4_U+30FC 1
 62
     7
420
 16777215
370
    25
  0
POLYLINE
  5
9B
330
1F
100
AcDbEntity
  8
_U+30EC_U+30A4_U+30E4_U+30FC 1
 62
     7
420
 16777215
370
    25
100
AcDb2dPolyline
 66
     1
 10
0.0
 20
0.0
 30
0.0
  0
VERTEX
  5
9C
330
9B
100
AcDbEntity
  8
_U+30EC_U+30A4_U+30E4_U+30FC 1
 62
     7
420
 16777215
370
    25
100
AcDbVertex
100
AcDb2dVertex
 10
103.505138470475
 20
-126.0247105240492
 30
0.0
  0
VERTEX
  5
9D
330
9B
100
AcDbEntity
  8
_U+30EC_U+30A4_U+30E4_U+30FC 1
 62
     7
420
 16777215
370
    25
100
AcDbVertex
100
AcDb2dVertex
 10
104.0969937331533
 20
-125.5251419130632
 30
0.0
  0
SEQEND
  5
9E
330
9B
100
AcDbEntity
  8
_U+30EC_U+30A4_U+30E4_U+30FC 1
 62
     7
420
 16777215
370
    25
  0
POLYLINE
  5
9F
330
1F
100
AcDbEntity
  8
_U+30EC_U+30A4_U+30E4_U+30FC 1
 62
     7
420
 16777215
370
    25
100
AcDb2dPolyline
 66
     1
 10
0.0
 20
0.0
 30
0.0
  0
VERTEX
  5
A0
330
9F
100
AcDbEntity
  8
_U+30EC_U+30A4_U+30E4_U+30FC 1
 62
     7
420
 16777215
370
    25
100
AcDbVertex
100
AcDb2dVertex
 10
104.0969937331533
 20
-125.5251419130632
 30
0.0
  0
VERTEX
  5
A1
330
9F
100
AcDbEntity
  8
_U+30EC_U+30A4_U+30E4_U+30FC 1
 62
     7
420
 16777215
370
    25
100
AcDbVertex
100
AcDb2dVertex
 10
104.6868055293839
 20
-126.0247105240492
 30
0.0
  0
SEQEND
  5
A2
330
9F
100
AcDbEntity
  8
_U+30EC_U+30A4_U+30E4_U+30FC 1
 62
     7
420
 16777215
370
    25
  0
POLYLINE
  5
A3
330
1F
100
AcDbEntity
  8
_U+30EC_U+30A4_U+30E4_U+30FC 1
 62
     7
420
 16777215
370
    25
100
AcDb2dPolyline
 66
     1
 10
0.0
 20
0.0
 30
0.0
  0
VERTEX
  5
A4
330
A3
100
AcDbEntity
  8
_U+30EC_U+30A4_U+30E4_U+30FC 1
 62
     7
420
 16777215
370
    25
100
AcDbVertex
100
AcDb2dVertex
 10
102.914659041095
 20
-125.5251419130632
 30
0.0
  0
VERTEX
  5
A5
330
A3
100
AcDbEntity
  8
_U+30EC_U+30A4_U+30E4_U+30FC 1
 62
     7
420
 16777215
370
    25
100
AcDbVertex
100
AcDb2dVertex
 10
103.505138470475
 20
-126.0247105240492
 30
0.0
  0
SEQEND
  5
A6
330
A3
100
AcDbEntity
  8
_U+30EC_U+30A4_U+30E4_U+30FC 1
 62
     7
420
 16777215
370
    25
  0
POLYLINE
  5
A7
330
1F
100
AcDbEntity
  8
_U+30EC_U+30A4_U+30E4_U+30FC 1
 62
     7
420
 16777215
370
    25
100
AcDb2dPolyline
 66
     1
 10
0.0
 20
0.0
 30
0.0
  0
VERTEX
  5
A8
330
A7
100
AcDbEntity
  8
_U+30EC_U+30A4_U+30E4_U+30FC 1
 62
     7
420
 16777215
370
    25
100
AcDbVertex
100
AcDb2dVertex
 10
102.3231212784086
 20
-126.0247105240492
 30
0.0
  0
VERTEX
  5
A9
330
A7
100
AcDbEntity
  8
_U+30EC_U+30A4_U+30E4_U+30FC 1
 62
     7
420
 16777215
370
    25
100
AcDbVertex
100
AcDb2dVertex
 10
102.914659041095
 20
-125.5251419130632
 30
0.0
  0
SEQEND
  5
AA
330
A7
100
AcDbEntity
  8
_U+30EC_U+30A4_U+30E4_U+30FC 1
 62
     7
420
 16777215
370
    25
  0
POLYLINE
  5
AB
330
1F
100
AcDbEntity
  8
_U+30EC_U+30A4_U+30E4_U+30FC 1
 62
     7
420
 16777215
370
    25
100
AcDb2dPolyline
 66
     1
 10
0.0
 20
0.0
 30
0.0
  0
VERTEX
  5
AC
330
AB
100
AcDbEntity
  8
_U+30EC_U+30A4_U+30E4_U+30FC 1
 62
     7
420
 16777215
370
    25
100
AcDbVertex
100
AcDb2dVertex
 10
101.7319388634558
 20
-125.5251419130632
 30
0.0
  0
VERTEX
  5
AD
330
AB
100
AcDbEntity
  8
_U+30EC_U+30A4_U+30E4_U+30FC 1
 62
     7
420
 16777215
370
    25
100
AcDbVertex
100
AcDb2dVertex
 10
102.3231212784086
 20
-126.0247105240492
 30
0.0
  0
SEQEND
  5
AE
330
AB
100
AcDbEntity
  8
_U+30EC_U+30A4_U+30E4_U+30FC 1
 62
     7
420
 16777215
370
    25
  0
POLYLINE
  5
AF
330
1F
100
AcDbEntity
  8
_U+30EC_U+30A4_U+30E4_U+30FC 1
 62
     7
420
 16777215
370
    25
100
AcDb2dPolyline
 66
     1
 10
0.0
 20
0.0
 30
0.0
  0
VERTEX
  5
B0
330
AF
100
AcDbEntity
  8
_U+30EC_U+30A4_U+30E4_U+30FC 1
 62
     7
420
 16777215
370
    25
100
AcDbVertex
100
AcDb2dVertex
 10
101.1411040863421
 20
-126.0247105240492
 30
0.0
  0
VERTEX
  5
B1
330
AF
100
AcDbEntity
  8
_U+30EC_U+30A4_U+30E4_U+30FC 1
 62
     7
420
 16777215
370
    25
100
AcDbVertex
100
AcDb2dVertex
 10
101.7319388634558
 20
-125.5251419130632
 30
0.0
  0
SEQEND
  5
B2
330
AF
100
AcDbEntity
  8
_U+30EC_U+30A4_U+30E4_U+30FC 1
 62
     7
420
 16777215
370
    25
  0
POLYLINE
  5
B3
330
1F
100
AcDbEntity
  8
_U+30EC_U+30A4_U+30E4_U+30FC 1
 62
     7
420
 16777215
370
    25
100
AcDb2dPolyline
 66
     1
 10
0.0
 20
0.0
 30
0.0
  0
VERTEX
  5
B4
330
B3
100
AcDbEntity
  8
_U+30EC_U+30A4_U+30E4_U+30FC 1
 62
     7
420
 16777215
370
    25
100
AcDbVertex
100
AcDb2dVertex
 10
100.5492488236638
 20
-125.5251419130632
 30
0.0
  0
VERTEX
  5
B5
330
B3
100
AcDbEntity
  8
_U+30EC_U+30A4_U+30E4_U+30FC 1
 62
     7
420
 16777215
370
    25
100
AcDbVertex
100
AcDb2dVertex
 10
101.1411040863421
 20
-126.0247105240492
 30
0.0
  0
SEQEND
  5
B6
330
B3
100
AcDbEntity
  8
_U+30EC_U+30A4_U+30E4_U+30FC 1
 62
     7
420
 16777215
370
    25
  0
POLYLINE
  5
B7
330
1F
100
AcDbEntity
  8
_U+30EC_U+30A4_U+30E4_U+30FC 1
 62
     7
420
 16777215
370
    25
100
AcDb2dPolyline
 66
     1
 10
0.0
 20
0.0
 30
0.0
  0
VERTEX
  5
B8
330
B7
100
AcDbEntity
  8
_U+30EC_U+30A4_U+30E4_U+30FC 1
 62
     7
420
 16777215
370
    25
100
AcDbVertex
100
AcDb2dVertex
 10
99.95876939428378
 20
-126.0247105240492
 30
0.0
  0
VERTEX
  5
B9
330
B7
100
AcDbEntity
  8
_U+30EC_U+30A4_U+30E4_U+30FC 1
 62
     7
420
 16777215
370
    25
100
AcDbVertex
100
AcDb2dVertex
 10
100.5492488236638
 20
-125.5251419130632
 30
0.0
  0
SEQEND
  5
BA
330
B7
100
AcDbEntity
  8
_U+30EC_U+30A4_U+30E4_U+30FC 1
 62
     7
420
 16777215
370
    25
  0
POLYLINE
  5
BB
330
1F
100
AcDbEntity
  8
_U+30EC_U+30A4_U+30E4_U+30FC 1
 62
     7
420
 16777215
370
    25
100
AcDb2dPolyline
 66
     1
 10
0.0
 20
0.0
 30
0.0
  0
VERTEX
  5
BC
330
BB
100
AcDbEntity
  8
_U+30EC_U+30A4_U+30E4_U+30FC 1
 62
     7
420
 16777215
370
    25
100
AcDbVertex
100
AcDb2dVertex
 10
99.36687885382861
 20
-125.5251419130632
 30
0.0
  0
VERTEX
  5
BD
330
BB
100
AcDbEntity
  8
_U+30EC_U+30A4_U+30E4_U+30FC 1
 62
     7
420
 16777215
370
    25
100
AcDbVertex
100
AcDb2dVertex
 10
99.95876939428378
 20
-126.0247105240492
 30
0.0
  0
SEQEND
  5
BE
330
BB
100
AcDbEntity
  8
_U+30EC_U+30A4_U+30E4_U+30FC 1
 62
     7
420
 16777215
370
    25
  0
POLYLINE
  5
BF
330
1F
100
AcDbEntity
  8
_U+30EC_U+30A4_U+30E4_U+30FC 1
 62
     7
420
 16777215
370
    25
100
AcDb2dPolyline
 66
     1
 10
0.0
 20
0.0
 30
0.0
  0
VERTEX
  5
C0
330
BF
100
AcDbEntity
  8
_U+30EC_U+30A4_U+30E4_U+30FC 1
 62
     7
420
 16777215
370
    25
100
AcDbVertex
100
AcDb2dVertex
 10
98.77639942444856
 20
-126.0247105240492
 30
0.0
  0
VERTEX
  5
C1
330
BF
100
AcDbEntity
  8
_U+30EC_U+30A4_U+30E4_U+30FC 1
 62
     7
420
 16777215
370
    25
100
AcDbVertex
100
AcDb2dVertex
 10
99.36687885382861
 20
-125.5251419130632
 30
0.0
  0
SEQEND
  5
C2
330
BF
100
AcDbEntity
  8
_U+30EC_U+30A4_U+30E4_U+30FC 1
 62
     7
420
 16777215
370
    25
  0
POLYLINE
  5
C3
330
1F
100
AcDbEntity
  8
_U+30EC_U+30A4_U+30E4_U+30FC 1
 62
     7
420
 16777215
370
    25
100
AcDb2dPolyline
 66
     1
 10
0.0
 20
0.0
 30
0.0
  0
VERTEX
  5
C4
330
C3
100
AcDbEntity
  8
_U+30EC_U+30A4_U+30E4_U+30FC 1
 62
     7
420
 16777215
370
    25
100
AcDbVertex
100
AcDb2dVertex
 10
98.18454416177026
 20
-125.5251419130632
 30
0.0
  0
VERTEX
  5
C5
330
C3
100
AcDbEntity
  8
_U+30EC_U+30A4_U+30E4_U+30FC 1
 62
     7
420
 16777215
370
    25
100
AcDbVertex
100
AcDb2dVertex
 10
98.77639942444856
 20
-126.0247105240492
 30
0.0
  0
SEQEND
  5
C6
330
C3
100
AcDbEntity
  8
_U+30EC_U+30A4_U+30E4_U+30FC 1
 62
     7
420
 16777215
370
    25
  0
POLYLINE
  5
C7
330
1F
100
AcDbEntity
  8
_U+30EC_U+30A4_U+30E4_U+30FC 1
 62
     7
420
 16777215
370
    25
100
AcDb2dPolyline
 66
     1
 10
0.0
 20
0.0
 30
0.0
  0
VERTEX
  5
C8
330
C7
100
AcDbEntity
  8
_U+30EC_U+30A4_U+30E4_U+30FC 1
 62
     7
420
 16777215
370
    25
100
AcDbVertex
100
AcDb2dVertex
 10
97.59402945461332
 20
-126.0247105240492
 30
0.0
  0
VERTEX
  5
C9
330
C7
100
AcDbEntity
  8
_U+30EC_U+30A4_U+30E4_U+30FC 1
 62
     7
420
 16777215
370
    25
100
AcDbVertex
100
AcDb2dVertex
 10
98.18454416177026
 20
-125.5251419130632
 30
0.0
  0
SEQEND
  5
CA
330
C7
100
AcDbEntity
  8
_U+30EC_U+30A4_U+30E4_U+30FC 1
 62
     7
420
 16777215
370
    25
  0
POLYLINE
  5
CB
330
1F
100
AcDbEntity
  8
_U+30EC_U+30A4_U+30E4_U+30FC 1
 62
     7
420
 16777215
370
    25
100
AcDb2dPolyline
 66
     1
 10
0.0
 20
0.0
 30
0.0
  0
VERTEX
  5
CC
330
CB
100
AcDbEntity
  8
_U+30EC_U+30A4_U+30E4_U+30FC 1
 62
     7
420
 16777215
370
    25
100
AcDbVertex
100
AcDb2dVertex
 10
97.00217419193503
 20
-125.5251419130632
 30
0.0
  0
VERTEX
  5
CD
330
CB
100
AcDbEntity
  8
_U+30EC_U+30A4_U+30E4_U+30FC 1
 62
     7
420
 16777215
370
    25
100
AcDbVertex
100
AcDb2dVertex
 10
97.59402945461332
 20
-126.0247105240492
 30
0.0
  0
SEQEND
  5
CE
330
CB
100
AcDbEntity
  8
_U+30EC_U+30A4_U+30E4_U+30FC 1
 62
     7
420
 16777215
370
    25
  0
POLYLINE
  5
CF
330
1F
100
AcDbEntity
  8
_U+30EC_U+30A4_U+30E4_U+30FC 1
 62
     7
420
 16777215
370
    25
100
AcDb2dPolyline
 66
     1
 10
0.0
 20
0.0
 30
0.0
  0
VERTEX
  5
D0
330
CF
100
AcDbEntity
  8
_U+30EC_U+30A4_U+30E4_U+30FC 1
 62
     7
420
 16777215
370
    25
100
AcDbVertex
100
AcDb2dVertex
 10
96.41134442034142
 20
-126.0247105240492
 30
0.0
  0
VERTEX
  5
D1
330
CF
100
AcDbEntity
  8
_U+30EC_U+30A4_U+30E4_U+30FC 1
 62
     7
420
 16777215
370
    25
100
AcDbVertex
100
AcDb2dVertex
 10
97.00217419193503
 20
-125.5251419130632
 30
0.0
  0
SEQEND
  5
D2
330
CF
100
AcDbEntity
  8
_U+30EC_U+30A4_U+30E4_U+30FC 1
 62
     7
420
 16777215
370
    25
  0
POLYLINE
  5
D3
330
1F
100
AcDbEntity
  8
_U+30EC_U+30A4_U+30E4_U+30FC 1
 62
     7
420
 16777215
370
    25
100
AcDb2dPolyline
 66
     1
 10
0.0
 20
0.0
 30
0.0
  0
VERTEX
  5
D4
330
D3
100
AcDbEntity
  8
_U+30EC_U+30A4_U+30E4_U+30FC 1
 62
     7
420
 16777215
370
    25
100
AcDbVertex
100
AcDb2dVertex
 10
95.8198042220998
 20
-125.5251419130632
 30
0.0
  0
VERTEX
  5
D5
330
D3
100
AcDbEntity
  8
_U+30EC_U+30A4_U+30E4_U+30FC 1
 62
     7
420
 16777215
370
    25
100
AcDbVertex
100
AcDb2dVertex
 10
96.41134442034142
 20
-126.0247105240492
 30
0.0
  0
SEQEND
  5
D6
330
D3
100
AcDbEntity
  8
_U+30EC_U+30A4_U+30E4_U+30FC 1
 62
     7
420
 16777215
370
    25
  0
POLYLINE
  5
D7
330
1F
100
AcDbEntity
  8
_U+30EC_U+30A4_U+30E4_U+30FC 1
 62
     7
420
 16777215
370
    25
100
AcDb2dPolyline
 66
     1
 10
0.0
 20
0.0
 30
0.0
  0
VERTEX
  5
D8
330
D7
100
AcDbEntity
  8
_U+30EC_U+30A4_U+30E4_U+30FC 1
 62
     7
420
 16777215
370
    25
100
AcDbVertex
100
AcDb2dVertex
 10
95.22865451495906
 20
-126.0247105240492
 30
0.0
  0
VERTEX
  5
D9
330
D7
100
AcDbEntity
  8
_U+30EC_U+30A4_U+30E4_U+30FC 1
 62
     7
420
 16777215
370
    25
100
AcDbVertex
100
AcDb2dVertex
 10
95.8198042220998
 20
-125.5251419130632
 30
0.0
  0
SEQEND
  5
DA
330
D7
100
AcDbEntity
  8
_U+30EC_U+30A4_U+30E4_U+30FC 1
 62
     7
420
 16777215
370
    25
  0
POLYLINE
  5
DB
330
1F
100
AcDbEntity
  8
_U+30EC_U+30A4_U+30E4_U+30FC 1
 62
     7
420
 16777215
370
    25
100
AcDb2dPolyline
 66
     1
 10
0.0
 20
0.0
 30
0.0
  0
VERTEX
  5
DC
330
DB
100
AcDbEntity
  8
_U+30EC_U+30A4_U+30E4_U+30FC 1
 62
     7
420
 16777215
370
    25
100
AcDbVertex
100
AcDb2dVertex
 10
94.63746953004146
 20
-125.5251419130632
 30
0.0
  0
VERTEX
  5
DD
330
DB
100
AcDbEntity
  8
_U+30EC_U+30A4_U+30E4_U+30FC 1
 62
     7
420
 16777215
370
    25
100
AcDbVertex
100
AcDb2dVertex
 10
95.22865451495906
 20
-126.0247105240492
 30
0.0
  0
SEQEND
  5
DE
330
DB
100
AcDbEntity
  8
_U+30EC_U+30A4_U+30E4_U+30FC 1
 62
     7
420
 16777215
370
    25
  0
POLYLINE
  5
DF
330
1F
100
AcDbEntity
  8
_U+30EC_U+30A4_U+30E4_U+30FC 1
 62
     7
420
 16777215
370
    25
100
AcDb2dPolyline
 66
     1
 10
0.0
 20
0.0
 30
0.0
  0
VERTEX
  5
E0
330
DF
100
AcDbEntity
  8
_U+30EC_U+30A4_U+30E4_U+30FC 1
 62
     7
420
 16777215
370
    25
100
AcDbVertex
100
AcDb2dVertex
 10
94.04628454512384
 20
-126.0247105240492
 30
0.0
  0
VERTEX
  5
E1
330
DF
100
AcDbEntity
  8
_U+30EC_U+30A4_U+30E4_U+30FC 1
 62
     7
420
 16777215
370
    25
100
AcDbVertex
100
AcDb2dVertex
 10
94.63746953004146
 20
-125.5251419130632
 30
0.0
  0
SEQEND
  5
E2
330
DF
100
AcDbEntity
  8
_U+30EC_U+30A4_U+30E4_U+30FC 1
 62
     7
420
 16777215
370
    25
  0
POLYLINE
  5
E3
330
1F
100
AcDbEntity
  8
_U+30EC_U+30A4_U+30E4_U+30FC 1
 62
     7
420
 16777215
370
    25
100
AcDb2dPolyline
 66
     1
 10
0.0
 20
0.0
 30
0.0
  0
VERTEX
  5
E4
330
E3
100
AcDbEntity
  8
_U+30EC_U+30A4_U+30E4_U+30FC 1
 62
     7
420
 16777215
370
    25
100
AcDbVertex
100
AcDb2dVertex
 10
93.45509956020622
 20
-125.5251419130632
 30
0.0
  0
VERTEX
  5
E5
330
E3
100
AcDbEntity
  8
_U+30EC_U+30A4_U+30E4_U+30FC 1
 62
     7
420
 16777215
370
    25
100
AcDbVertex
100
AcDb2dVertex
 10
94.04628454512384
 20
-126.0247105240492
 30
0.0
  0
SEQEND
  5
E6
330
E3
100
AcDbEntity
  8
_U+30EC_U+30A4_U+30E4_U+30FC 1
 62
     7
420
 16777215
370
    25
  0
POLYLINE
  5
E7
330
1F
100
AcDbEntity
  8
_U+30EC_U+30A4_U+30E4_U+30FC 1
 62
     7
420
 16777215
370
    25
100
AcDb2dPolyline
 66
     1
 10
0.0
 20
0.0
 30
0.0
  0
VERTEX
  5
E8
330
E7
100
AcDbEntity
  8
_U+30EC_U+30A4_U+30E4_U+30FC 1
 62
     7
420
 16777215
370
    25
100
AcDbVertex
100
AcDb2dVertex
 10
92.8639145752886
 20
-126.0247105240492
 30
0.0
  0
VERTEX
  5
E9
330
E7
100
AcDbEntity
  8
_U+30EC_U+30A4_U+30E4_U+30FC 1
 62
     7
420
 16777215
370
    25
100
AcDbVertex
100
AcDb2dVertex
 10
93.45509956020622
 20
-125.5251419130632
 30
0.0
  0
SEQEND
  5
EA
330
E7
100
AcDbEntity
  8
_U+30EC_U+30A4_U+30E4_U+30FC 1
 62
     7
420
 16777215
370
    25
  0
POLYLINE
  5
EB
330
1F
100
AcDbEntity
  8
_U+30EC_U+30A4_U+30E4_U+30FC 1
 62
     7
420
 16777215
370
    25
100
AcDb2dPolyline
 66
     1
 10
0.0
 20
0.0
 30
0.0
  0
VERTEX
  5
EC
330
EB
100
AcDbEntity
  8
_U+30EC_U+30A4_U+30E4_U+30FC 1
 62
     7
420
 16777215
370
    25
100
AcDbVertex
100
AcDb2dVertex
 10
83.76870397399342
 20
-133.5246602443966
 30
0.0
  0
VERTEX
  5
ED
330
EB
100
AcDbEntity
  8
_U+30EC_U+30A4_U+30E4_U+30FC 1
 62
     7
420
 16777215
370
    25
100
AcDbVertex
100
AcDb2dVertex
 10
83.76870397399342
 20
-126.0247105240492
 30
0.0
  0
SEQEND
  5
EE
330
EB
100
AcDbEntity
  8
_U+30EC_U+30A4_U+30E4_U+30FC 1
 62
     7
420
 16777215
370
    25
  0
SPLINE
  5
EF
330
1F
100
AcDbEntity
  8
_U+30EC_U+30A4_U+30E4_U+30FC 1
 62
     7
420
 16777215
370
     9
100
AcDbSpline
210
0.0
220
0.0
230
1.0
 70
    11
 71
     3
 72
    17
 73
    13
 74
     0
 42
0.0000000001
 43
0.0000000001
 12
1.0
 22
0.0
 32
0.0
 13
1.0
 23
0.0
 33
0.0
 40
0.0
 40
0.0
 40
0.0
 40
0.0
 40
1.0
 40
1.0
 40
1.0
 40
2.0
 40
2.0
 40
2.0
 40
3.0
 40
3.0
 40
3.0
 40
4.0
 40
4.0
 40
4.0
 40
4.0
 10
82.96874720148
 20
-138.5248619098134
 30
0.0
 10
82.96874720148
 20
-138.4697580209379
 30
0.0
 10
82.9239776066553
 20
-138.4249552431718
 30
0.0
 10
82.86848566362657
 20
-138.4249552431718
 30
0.0
 10
82.8133817761435
 20
-138.4249552431718
 30
0.0
 10
82.76857899950875
 20
-138.4697580209379
 30
0.0
 10
82.76857899950875
 20
-138.5248619098134
 30
0.0
 10
82.76857899950875
 20
-138.5800010764659
 30
0.0
 10
82.8133817761435
 20
-138.6247685764551
 30
0.0
 10
82.86848566362657
 20
-138.6247685764551
 30
0.0
 10
82.9239776066553
 20
-138.6247685764551
 30
0.0
 10
82.96874720148
 20
-138.5800010764659
 30
0.0
 10
82.96874720148
 20
-138.5248619098134
 30
0.0
  0
SPLINE
  5
F0
330
1F
100
AcDbEntity
  8
_U+30EC_U+30A4_U+30E4_U+30FC 1
 62
     7
420
 16777215
370
     9
100
AcDbSpline
210
0.0
220
0.0
230
1.0
 70
    11
 71
     3
 72
    17
 73
    13
 74
     0
 42
0.0000000001
 43
0.0000000001
 12
1.0
 22
0.0
 32
0.0
 13
1.0
 23
0.0
 33
0.0
 40
0.0
 40
0.0
 40
0.0
 40
0.0
 40
1.0
 40
1.0
 40
1.0
 40
2.0
 40
2.0
 40
2.0
 40
3.0
 40
3.0
 40
3.0
 40
4.0
 40
4.0
 40
4.0
 40
4.0
 10
92.9686542948387
 20
-138.5248619098134
 30
0.0
 10
92.9686542948387
 20
-138.4697580209379
 30
0.0
 10
92.9238867959808
 20
-138.4249552431718
 30
0.0
 10
92.86874997678282
 20
-138.4249552431718
 30
0.0
 10
92.81364374323779
 20
-138.4249552431718
 30
0.0
 10
92.76884096660302
 20
-138.4697580209379
 30
0.0
 10
92.76884096660302
 20
-138.5248619098134
 30
0.0
 10
92.76884096660302
 20
-138.5800010764659
 30
0.0
 10
92.81364374323779
 20
-138.6247685764551
 30
0.0
 10
92.86874997678282
 20
-138.6247685764551
 30
0.0
 10
92.9238867959808
 20
-138.6247685764551
 30
0.0
 10
92.9686542948387
 20
-138.5800010764659
 30
0.0
 10
92.9686542948387
 20
-138.5248619098134
 30
0.0
  0
SPLINE
  5
F1
330
1F
100
AcDbEntity
  8
_U+30EC_U+30A4_U+30E4_U+30FC 1
 62
     7
420
 16777215
370
     9
100
AcDbSpline
210
0.0
220
0.0
230
1.0
 70
    11
 71
     3
 72
    17
 73
    13
 74
     0
 42
0.0000000001
 43
0.0000000001
 12
1.0
 22
0.0
 32
0.0
 13
1.0
 23
0.0
 33
0.0
 40
0.0
 40
0.0
 40
0.0
 40
0.0
 40
1.0
 40
1.0
 40
1.0
 40
2.0
 40
2.0
 40
2.0
 40
3.0
 40
3.0
 40
3.0
 40
4.0
 40
4.0
 40
4.0
 40
4.0
 10
109.9688385833501
 20
-134.5251380219241
 30
0.0
 10
109.9688385833501
 20
-134.4696460774939
 30
0.0
 10
109.9240358067153
 20
-134.4248785775047
 30
0.0
 10
109.8689319192323
 20
-134.4248785775047
 30
0.0
 10
109.8137927539723
 20
-134.4248785775047
 30
0.0
 10
109.7690252551144
 20
-134.4696460774939
 30
0.0
 10
109.7690252551144
 20
-134.5251380219241
 30
0.0
 10
109.7690252551144
 20
-134.5802419107996
 30
0.0
 10
109.8137927539723
 20
-134.6250446885657
 30
0.0
 10
109.8689319192323
 20
-134.6250446885657
 30
0.0
 10
109.9240358067153
 20
-134.6250446885657
 30
0.0
 10
109.9688385833501
 20
-134.5802419107996
 30
0.0
 10
109.9688385833501
 20
-134.5251380219241
 30
0.0
  0
SPLINE
  5
F2
330
1F
100
AcDbEntity
  8
_U+30EC_U+30A4_U+30E4_U+30FC 1
 62
     7
420
 16777215
370
     9
100
AcDbSpline
210
0.0
220
0.0
230
1.0
 70
    11
 71
     3
 72
    17
 73
    13
 74
     0
 42
0.0000000001
 43
0.0000000001
 12
1.0
 22
0.0
 32
0.0
 13
1.0
 23
0.0
 33
0.0
 40
0.0
 40
0.0
 40
0.0
 40
0.0
 40
1.0
 40
1.0
 40
1.0
 40
2.0
 40
2.0
 40
2.0
 40
3.0
 40
3.0
 40
3.0
 40
4.0
 40
4.0
 40
4.0
 40
4.0
 10
109.9688385833501
 20
-131.5251158004522
 30
0.0
 10
109.9688385833501
 20
-131.4696591337995
 30
0.0
 10
109.9240358067153
 20
-131.4248916338103
 30
0.0
 10
109.8689319192323
 20
-131.4248916338103
 30
0.0
 10
109.8137927539723
 20
-131.4248916338103
 30
0.0
 10
109.7690252551144
 20
-131.4696591337995
 30
0.0
 10
109.7690252551144
 20
-131.5251158004522
 30
0.0
 10
109.7690252551144
 20
-131.5802549671047
 30
0.0
 10
109.8137927539723
 20
-131.6250577448714
 30
0.0
 10
109.8689319192323
 20
-131.6250577448714
 30
0.0
 10
109.9240358067153
 20
-131.6250577448714
 30
0.0
 10
109.9688385833501
 20
-131.5802549671047
 30
0.0
 10
109.9688385833501
 20
-131.5251158004522
 30
0.0
  0
SPLINE
  5
F3
330
1F
100
AcDbEntity
  8
_U+30EC_U+30A4_U+30E4_U+30FC 1
 62
     7
420
 16777215
370
     9
100
AcDbSpline
210
0.0
220
0.0
230
1.0
 70
    11
 71
     3
 72
    17
 73
    13
 74
     0
 42
0.0000000001
 43
0.0000000001
 12
1.0
 22
0.0
 32
0.0
 13
1.0
 23
0.0
 33
0.0
 40
0.0
 40
0.0
 40
0.0
 40
0.0
 40
1.0
 40
1.0
 40
1.0
 40
2.0
 40
2.0
 40
2.0
 40
3.0
 40
3.0
 40
3.0
 40
4.0
 40
4.0
 40
4.0
 40
4.0
 10
109.9688385833501
 20
-125.024938302077
 30
0.0
 10
109.9688385833501
 20
-124.9697991354243
 30
0.0
 10
109.9240358067153
 20
-124.9250316354354
 30
0.0
 10
109.8689319192323
 20
-124.9250316354354
 30
0.0
 10
109.8137927539723
 20
-124.9250316354354
 30
0.0
 10
109.7690252551144
 20
-124.9697991354243
 30
0.0
 10
109.7690252551144
 20
-125.024938302077
 30
0.0
 10
109.7690252551144
 20
-125.0800421909523
 30
0.0
 10
109.8137927539723
 20
-125.1248449687186
 30
0.0
 10
109.8689319192323
 20
-125.1248449687186
 30
0.0
 10
109.9240358067153
 20
-125.1248449687186
 30
0.0
 10
109.9688385833501
 20
-125.0800421909523
 30
0.0
 10
109.9688385833501
 20
-125.024938302077
 30
0.0
  0
SPLINE
  5
F4
330
1F
100
AcDbEntity
  8
_U+30EC_U+30A4_U+30E4_U+30FC 1
 62
     7
420
 16777215
370
     9
100
AcDbSpline
210
0.0
220
0.0
230
1.0
 70
    11
 71
     3
 72
    17
 73
    13
 74
     0
 42
0.0000000001
 43
0.0000000001
 12
1.0
 22
0.0
 32
0.0
 13
1.0
 23
0.0
 33
0.0
 40
0.0
 40
0.0
 40
0.0
 40
0.0
 40
1.0
 40
1.0
 40
1.0
 40
2.0
 40
2.0
 40
2.0
 40
3.0
 40
3.0
 40
3.0
 40
4.0
 40
4.0
 40
4.0
 40
4.0
 10
105.9690795187258
 20
-121.0248263586327
 30
0.0
 10
105.9690795187258
 20
-120.9697224697575
 30
0.0
 10
105.924276742091
 20
-120.9249196919911
 30
0.0
 10
105.8684672990704
 20
-120.9249196919911
 30
0.0
 10
105.8133634115873
 20
-120.9249196919911
 30
0.0
 10
105.7685606349526
 20
-120.9697224697575
 30
0.0
 10
105.7685606349526
 20
-121.0248263586327
 30
0.0
 10
105.7685606349526
 20
-121.0802830252854
 30
0.0
 10
105.8133634115873
 20
-121.1250858030521
 30
0.0
 10
105.8684672990704
 20
-121.1250858030521
 30
0.0
 10
105.924276742091
 20
-121.1250858030521
 30
0.0
 10
105.9690795187258
 20
-121.0802830252854
 30
0.0
 10
105.9690795187258
 20
-121.0248263586327
 30
0.0
  0
SPLINE
  5
F5
330
1F
100
AcDbEntity
  8
_U+30EC_U+30A4_U+30E4_U+30FC 1
 62
     7
420
 16777215
370
     9
100
AcDbSpline
210
0.0
220
0.0
230
1.0
 70
    11
 71
     3
 72
    17
 73
    13
 74
     0
 42
0.0000000001
 43
0.0000000001
 12
1.0
 22
0.0
 32
0.0
 13
1.0
 23
0.0
 33
0.0
 40
0.0
 40
0.0
 40
0.0
 40
0.0
 40
1.0
 40
1.0
 40
1.0
 40
2.0
 40
2.0
 40
2.0
 40
3.0
 40
3.0
 40
3.0
 40
4.0
 40
4.0
 40
4.0
 40
4.0
 10
109.9688385833501
 20
-126.0247105240492
 30
0.0
 10
109.9688385833501
 20
-125.9695713573965
 30
0.0
 10
109.9240358067153
 20
-125.9247685796301
 30
0.0
 10
109.8689319192323
 20
-125.9247685796301
 30
0.0
 10
109.8137927539723
 20
-125.9247685796301
 30
0.0
 10
109.7690252551144
 20
-125.9695713573965
 30
0.0
 10
109.7690252551144
 20
-126.0247105240492
 30
0.0
 10
109.7690252551144
 20
-126.0801671907022
 30
0.0
 10
109.8137927539723
 20
-126.1249346906911
 30
0.0
 10
109.8689319192323
 20
-126.1249346906911
 30
0.0
 10
109.9240358067153
 20
-126.1249346906911
 30
0.0
 10
109.9688385833501
 20
-126.0801671907022
 30
0.0
 10
109.9688385833501
 20
-126.0247105240492
 30
0.0
  0
SPLINE
  5
F6
330
1F
100
AcDbEntity
  8
_U+30EC_U+30A4_U+30E4_U+30FC 1
 62
     7
420
 16777215
370
     9
100
AcDbSpline
210
0.0
220
0.0
230
1.0
 70
    11
 71
     3
 72
    17
 73
    13
 74
     0
 42
0.0000000001
 43
0.0000000001
 12
1.0
 22
0.0
 32
0.0
 13
1.0
 23
0.0
 33
0.0
 40
0.0
 40
0.0
 40
0.0
 40
0.0
 40
1.0
 40
1.0
 40
1.0
 40
2.0
 40
2.0
 40
2.0
 40
3.0
 40
3.0
 40
3.0
 40
4.0
 40
4.0
 40
4.0
 40
4.0
 10
70.96879763387957
 20
-138.5248619098134
 30
0.0
 10
70.96879763387957
 20
-138.4697580209379
 30
0.0
 10
70.92399485724481
 20
-138.4249552431718
 30
0.0
 10
70.86853819199297
 20
-138.4249552431718
 30
0.0
 10
70.81343609340767
 20
-138.4249552431718
 30
0.0
 10
70.76863331564127
 20
-138.4697580209379
 30
0.0
 10
70.76863331564127
 20
-138.5248619098134
 30
0.0
 10
70.76863331564127
 20
-138.5800010764659
 30
0.0
 10
70.81343609340767
 20
-138.6247685764551
 30
0.0
 10
70.86853819199297
 20
-138.6247685764551
 30
0.0
 10
70.92399485724481
 20
-138.6247685764551
 30
0.0
 10
70.96879763387957
 20
-138.5800010764659
 30
0.0
 10
70.96879763387957
 20
-138.5248619098134
 30
0.0
  0
SPLINE
  5
F7
330
1F
100
AcDbEntity
  8
_U+30EC_U+30A4_U+30E4_U+30FC 1
 62
     7
420
 16777215
370
     9
100
AcDbSpline
210
0.0
220
0.0
230
1.0
 70
    11
 71
     3
 72
    17
 73
    13
 74
     0
 42
0.0000000001
 43
0.0000000001
 12
1.0
 22
0.0
 32
0.0
 13
1.0
 23
0.0
 33
0.0
 40
0.0
 40
0.0
 40
0.0
 40
0.0
 40
1.0
 40
1.0
 40
1.0
 40
2.0
 40
2.0
 40
2.0
 40
3.0
 40
3.0
 40
3.0
 40
4.0
 40
4.0
 40
4.0
 40
4.0
 10
70.96879763387957
 20
-121.0248263586327
 30
0.0
 10
70.96879763387957
 20
-120.9697224697575
 30
0.0
 10
70.92399485724481
 20
-120.9249196919911
 30
0.0
 10
70.86853819199297
 20
-120.9249196919911
 30
0.0
 10
70.81343609340767
 20
-120.9249196919911
 30
0.0
 10
70.76863331564127
 20
-120.9697224697575
 30
0.0
 10
70.76863331564127
 20
-121.0248263586327
 30
0.0
 10
70.76863331564127
 20
-121.0802830252854
 30
0.0
 10
70.81343609340767
 20
-121.1250858030521
 30
0.0
 10
70.86853819199297
 20
-121.1250858030521
 30
0.0
 10
70.92399485724481
 20
-121.1250858030521
 30
0.0
 10
70.96879763387957
 20
-121.0802830252854
 30
0.0
 10
70.96879763387957
 20
-121.0248263586327
 30
0.0
  0
POLYLINE
  5
F8
330
1F
100
AcDbEntity
  8
_U+30EC_U+30A4_U+30E4_U+30FC 1
 62
     7
420
 16777215
370
     9
100
AcDb2dPolyline
 66
     1
 10
0.0
 20
0.0
 30
0.0
  0
VERTEX
  5
F9
330
F8
100
AcDbEntity
  8
_U+30EC_U+30A4_U+30E4_U+30FC 1
 62
     7
420
 16777215
370
     9
100
AcDbVertex
100
AcDb2dVertex
 10
109.8689319192323
 20
-125.024938302077
 30
0.0
  0
VERTEX
  5
FA
330
F8
100
AcDbEntity
  8
_U+30EC_U+30A4_U+30E4_U+30FC 1
 62
     7
420
 16777215
370
     9
100
AcDbVertex
100
AcDb2dVertex
 10
109.8689319192323
 20
-121.2546258030196
 30
0.0
  0
SEQEND
  5
FB
330
F8
100
AcDbEntity
  8
_U+30EC_U+30A4_U+30E4_U+30FC 1
 62
     7
420
 16777215
370
     9
  0
POLYLINE
  5
FC
330
1F
100
AcDbEntity
  8
_U+30EC_U+30A4_U+30E4_U+30FC 1
 62
     7
420
 16777215
370
     9
100
AcDb2dPolyline
 66
     1
 10
0.0
 20
0.0
 30
0.0
  0
VERTEX
  5
FD
330
FC
100
AcDbEntity
  8
_U+30EC_U+30A4_U+30E4_U+30FC 1
 62
     7
420
 16777215
370
     9
100
AcDbVertex
100
AcDb2dVertex
 10
109.8689319192323
 20
-125.024938302077
 30
0.0
  0
VERTEX
  5
FE
330
FC
100
AcDbEntity
  8
_U+30EC_U+30A4_U+30E4_U+30FC 1
 62
     7
420
 16777215
370
     9
100
AcDbVertex
100
AcDb2dVertex
 10
109.8689319192323
 20
-126.0247105240492
 30
0.0
  0
SEQEND
  5
FF
330
FC
100
AcDbEntity
  8
_U+30EC_U+30A4_U+30E4_U+30FC 1
 62
     7
420
 16777215
370
     9
  0
POLYLINE
  5
100
330
1F
100
AcDbEntity
  8
_U+30EC_U+30A4_U+30E4_U+30FC 1
 62
     7
420
 16777215
370
     9
100
AcDb2dPolyline
 66
     1
 10
0.0
 20
0.0
 30
0.0
  0
VERTEX
  5
101
330
100
100
AcDbEntity
  8
_U+30EC_U+30A4_U+30E4_U+30FC 1
 62
     7
420
 16777215
370
     9
100
AcDbVertex
100
AcDb2dVertex
 10
108.4088905675921
 20
-125.024938302077
 30
0.0
  0
VERTEX
  5
102
330
100
100
AcDbEntity
  8
_U+30EC_U+30A4_U+30E4_U+30FC 1
 62
     7
420
 16777215
370
     9
100
AcDbVertex
100
AcDb2dVertex
 10
110.8686688381713
 20
-125.024938302077
 30
0.0
  0
SEQEND
  5
103
330
100
100
AcDbEntity
  8
_U+30EC_U+30A4_U+30E4_U+30FC 1
 62
     7
420
 16777215
370
     9
  0
POLYLINE
  5
104
330
1F
100
AcDbEntity
  8
_U+30EC_U+30A4_U+30E4_U+30FC 1
 62
     7
420
 16777215
370
     9
100
AcDb2dPolyline
 66
     1
 10
0.0
 20
0.0
 30
0.0
  0
VERTEX
  5
105
330
104
100
AcDbEntity
  8
_U+30EC_U+30A4_U+30E4_U+30FC 1
 62
     7
420
 16777215
370
     9
100
AcDbVertex
100
AcDb2dVertex
 10
108.4088905675921
 20
-126.0247105240492
 30
0.0
  0
VERTEX
  5
106
330
104
100
AcDbEntity
  8
_U+30EC_U+30A4_U+30E4_U+30FC 1
 62
     7
420
 16777215
370
     9
100
AcDbVertex
100
AcDb2dVertex
 10
110.8686688381713
 20
-126.0247105240492
 30
0.0
  0
SEQEND
  5
107
330
104
100
AcDbEntity
  8
_U+30EC_U+30A4_U+30E4_U+30FC 1
 62
     7
420
 16777215
370
     9
  0
INSERT
  5
109
330
1F
100
AcDbEntity
  8
_U+30EC_U+30A4_U+30E4_U+30FC 1
100
AcDbBlockReference
  2
block 2
 10
0.0
 20
0.0
 30
0.0
  0
POLYLINE
  5
10E
330
1F
100
AcDbEntity
  8
_U+30EC_U+30A4_U+30E4_U+30FC 1
 62
     7
420
 16777215
370
     9
100
AcDb2dPolyline
 66
     1
 10
0.0
 20
0.0
 30
0.0
  0
VERTEX
  5
10F
330
10E
100
AcDbEntity
  8
_U+30EC_U+30A4_U+30E4_U+30FC 1
 62
     7
420
 16777215
370
     9
100
AcDbVertex
100
AcDb2dVertex
 10
82.86848566362657
 20
-138.5248619098134
 30
0.0
  0
VERTEX
  5
110
330
10E
100
AcDbEntity
  8
_U+30EC_U+30A4_U+30E4_U+30FC 1
 62
     7
420
 16777215
370
     9
100
AcDbVertex
100
AcDb2dVertex
 10
92.86874997678282
 20
-138.5248619098134
 30
0.0
  0
SEQEND
  5
111
330
10E
100
AcDbEntity
  8
_U+30EC_U+30A4_U+30E4_U+30FC 1
 62
     7
420
 16777215
370
     9
  0
POLYLINE
  5
112
330
1F
100
AcDbEntity
  8
_U+30EC_U+30A4_U+30E4_U+30FC 1
 62
     7
420
 16777215
370
     9
100
AcDb2dPolyline
 66
     1
 10
0.0
 20
0.0
 30
0.0
  0
VERTEX
  5
113
330
112
100
AcDbEntity
  8
_U+30EC_U+30A4_U+30E4_U+30FC 1
 62
     7
420
 16777215
370
     9
100
AcDbVertex
100
AcDb2dVertex
 10
92.86874997678282
 20
-137.0648557990673
 30
0.0
  0
VERTEX
  5
114
330
112
100
AcDbEntity
  8
_U+30EC_U+30A4_U+30E4_U+30FC 1
 62
     7
420
 16777215
370
     9
100
AcDbVertex
100
AcDb2dVertex
 10
92.86874997678282
 20
-139.5249869095631
 30
0.0
  0
SEQEND
  5
115
330
112
100
AcDbEntity
  8
_U+30EC_U+30A4_U+30E4_U+30FC 1
 62
     7
420
 16777215
370
     9
  0
INSERT
  5
117
330
1F
100
AcDbEntity
  8
_U+30EC_U+30A4_U+30E4_U+30FC 1
100
AcDbBlockReference
  2
block 3
 10
0.0
 20
0.0
 30
0.0
  0
POLYLINE
  5
11F
330
1F
100
AcDbEntity
  8
_U+30EC_U+30A4_U+30E4_U+30FC 1
 62
     7
420
 16777215
370
     9
100
AcDb2dPolyline
 66
     1
 10
0.0
 20
0.0
 30
0.0
  0
VERTEX
  5
120
330
11F
100
AcDbEntity
  8
_U+30EC_U+30A4_U+30E4_U+30FC 1
 62
     7
420
 16777215
370
     9
100
AcDbVertex
100
AcDb2dVertex
 10
109.8689319192323
 20
-134.5251380219241
 30
0.0
  0
VERTEX
  5
121
330
11F
100
AcDbEntity
  8
_U+30EC_U+30A4_U+30E4_U+30FC 1
 62
     7
420
 16777215
370
     9
100
AcDbVertex
100
AcDb2dVertex
 10
109.8689319192323
 20
-131.5251158004522
 30
0.0
  0
SEQEND
  5
122
330
11F
100
AcDbEntity
  8
_U+30EC_U+30A4_U+30E4_U+30FC 1
 62
     7
420
 16777215
370
     9
  0
POLYLINE
  5
123
330
1F
100
AcDbEntity
  8
_U+30EC_U+30A4_U+30E4_U+30FC 1
 62
     7
420
 16777215
370
     9
100
AcDb2dPolyline
 66
     1
 10
0.0
 20
0.0
 30
0.0
  0
VERTEX
  5
124
330
123
100
AcDbEntity
  8
_U+30EC_U+30A4_U+30E4_U+30FC 1
 62
     7
420
 16777215
370
     9
100
AcDbVertex
100
AcDb2dVertex
 10
95.40846534370505
 20
-134.5251380219241
 30
0.0
  0
VERTEX
  5
125
330
123
100
AcDbEntity
  8
_U+30EC_U+30A4_U+30E4_U+30FC 1
 62
     7
420
 16777215
370
     9
100
AcDbVertex
100
AcDb2dVertex
 10
110.8686688381713
 20
-134.5251380219241
 30
0.0
  0
SEQEND
  5
126
330
123
100
AcDbEntity
  8
_U+30EC_U+30A4_U+30E4_U+30FC 1
 62
     7
420
 16777215
370
     9
  0
INSERT
  5
128
330
1F
100
AcDbEntity
  8
_U+30EC_U+30A4_U+30E4_U+30FC 1
100
AcDbBlockReference
  2
block 4
 10
0.0
 20
0.0
 30
0.0
  0
POLYLINE
  5
12D
330
1F
100
AcDbEntity
  8
_U+30EC_U+30A4_U+30E4_U+30FC 1
 62
     7
420
 16777215
370
     9
100
AcDb2dPolyline
 66
     1
 10
0.0
 20
0.0
 30
0.0
  0
VERTEX
  5
12E
330
12D
100
AcDbEntity
  8
_U+30EC_U+30A4_U+30E4_U+30FC 1
 62
     7
420
 16777215
370
     9
100
AcDbVertex
100
AcDb2dVertex
 10
70.86853819199297
 20
-121.0248263586327
 30
0.0
  0
VERTEX
  5
12F
330
12D
100
AcDbEntity
  8
_U+30EC_U+30A4_U+30E4_U+30FC 1
 62
     7
420
 16777215
370
     9
100
AcDbVertex
100
AcDb2dVertex
 10
105.8684672990704
 20
-121.0248263586327
 30
0.0
  0
SEQEND
  5
130
330
12D
100
AcDbEntity
  8
_U+30EC_U+30A4_U+30E4_U+30FC 1
 62
     7
420
 16777215
370
     9
  0
POLYLINE
  5
131
330
1F
100
AcDbEntity
  8
_U+30EC_U+30A4_U+30E4_U+30FC 1
 62
     7
420
 16777215
370
     9
100
AcDb2dPolyline
 66
     1
 10
0.0
 20
0.0
 30
0.0
  0
VERTEX
  5
132
330
131
100
AcDbEntity
  8
_U+30EC_U+30A4_U+30E4_U+30FC 1
 62
     7
420
 16777215
370
     9
100
AcDbVertex
100
AcDb2dVertex
 10
70.86853819199297
 20
-122.4848677471567
 30
0.0
  0
VERTEX
  5
133
330
131
100
AcDbEntity
  8
_U+30EC_U+30A4_U+30E4_U+30FC 1
 62
     7
420
 16777215
370
     9
100
AcDbVertex
100
AcDb2dVertex
 10
70.86853819199297
 20
-120.0247013588827
 30
0.0
  0
SEQEND
  5
134
330
131
100
AcDbEntity
  8
_U+30EC_U+30A4_U+30E4_U+30FC 1
 62
     7
420
 16777215
370
     9
  0
POLYLINE
  5
135
330
1F
100
AcDbEntity
  8
_U+30EC_U+30A4_U+30E4_U+30FC 1
 62
     7
420
 16777215
370
     9
100
AcDb2dPolyline
 66
     1
 10
0.0
 20
0.0
 30
0.0
  0
VERTEX
  5
136
330
135
100
AcDbEntity
  8
_U+30EC_U+30A4_U+30E4_U+30FC 1
 62
     7
420
 16777215
370
     9
100
AcDbVertex
100
AcDb2dVertex
 10
105.8684672990704
 20
-122.4848677471567
 30
0.0
  0
VERTEX
  5
137
330
135
100
AcDbEntity
  8
_U+30EC_U+30A4_U+30E4_U+30FC 1
 62
     7
420
 16777215
370
     9
100
AcDbVertex
100
AcDb2dVertex
 10
105.8684672990704
 20
-120.0247013588827
 30
0.0
  0
SEQEND
  5
138
330
135
100
AcDbEntity
  8
_U+30EC_U+30A4_U+30E4_U+30FC 1
 62
     7
420
 16777215
370
     9
  0
INSERT
  5
13A
330
1F
100
AcDbEntity
  8
_U+30EC_U+30A4_U+30E4_U+30FC 1
100
AcDbBlockReference
  2
block 5
 10
0.0
 20
0.0
 30
0.0
  0
POLYLINE
  5
141
330
1F
100
AcDbEntity
  8
_U+30EC_U+30A4_U+30E4_U+30FC 1
 62
     7
420
 16777215
370
     9
100
AcDb2dPolyline
 66
     1
 10
0.0
 20
0.0
 30
0.0
  0
VERTEX
  5
142
330
141
100
AcDbEntity
  8
_U+30EC_U+30A4_U+30E4_U+30FC 1
 62
     7
420
 16777215
370
     9
100
AcDbVertex
100
AcDb2dVertex
 10
70.86853819199297
 20
-138.5248619098134
 30
0.0
  0
VERTEX
  5
143
330
141
100
AcDbEntity
  8
_U+30EC_U+30A4_U+30E4_U+30FC 1
 62
     7
420
 16777215
370
     9
100
AcDbVertex
100
AcDb2dVertex
 10
82.86848566362657
 20
-138.5248619098134
 30
0.0
  0
SEQEND
  5
144
330
141
100
AcDbEntity
  8
_U+30EC_U+30A4_U+30E4_U+30FC 1
 62
     7
420
 16777215
370
     9
  0
POLYLINE
  5
145
330
1F
100
AcDbEntity
  8
_U+30EC_U+30A4_U+30E4_U+30FC 1
 62
     7
420
 16777215
370
     9
100
AcDb2dPolyline
 66
     1
 10
0.0
 20
0.0
 30
0.0
  0
VERTEX
  5
146
330
145
100
AcDbEntity
  8
_U+30EC_U+30A4_U+30E4_U+30FC 1
 62
     7
420
 16777215
370
     9
100
AcDbVertex
100
AcDb2dVertex
 10
70.86853819199297
 20
-128.5650985789698
 30
0.0
  0
VERTEX
  5
147
330
145
100
AcDbEntity
  8
_U+30EC_U+30A4_U+30E4_U+30FC 1
 62
     7
420
 16777215
370
     9
100
AcDbVertex
100
AcDb2dVertex
 10
70.86853819199297
 20
-139.5249869095631
 30
0.0
  0
SEQEND
  5
148
330
145
100
AcDbEntity
  8
_U+30EC_U+30A4_U+30E4_U+30FC 1
 62
     7
420
 16777215
370
     9
  0
POLYLINE
  5
149
330
1F
100
AcDbEntity
  8
_U+30EC_U+30A4_U+30E4_U+30FC 1
 62
     7
420
 16777215
370
     9
100
AcDb2dPolyline
 66
     1
 10
0.0
 20
0.0
 30
0.0
  0
VERTEX
  5
14A
330
149
100
AcDbEntity
  8
_U+30EC_U+30A4_U+30E4_U+30FC 1
 62
     7
420
 16777215
370
     9
100
AcDbVertex
100
AcDb2dVertex
 10
82.86848566362657
 20
-137.0648557990673
 30
0.0
  0
VERTEX
  5
14B
330
149
100
AcDbEntity
  8
_U+30EC_U+30A4_U+30E4_U+30FC 1
 62
     7
420
 16777215
370
     9
100
AcDbVertex
100
AcDb2dVertex
 10
82.86848566362657
 20
-139.5249869095631
 30
0.0
  0
SEQEND
  5
14C
330
149
100
AcDbEntity
  8
_U+30EC_U+30A4_U+30E4_U+30FC 1
 62
     7
420
 16777215
370
     9
  0
INSERT
  5
14E
330
1F
100
AcDbEntity
  8
_U+30EC_U+30A4_U+30E4_U+30FC 1
100
AcDbBlockReference
  2
block 6
 10
0.0
 20
0.0
 30
0.0
  0
POLYLINE
  5
155
330
1F
100
AcDbEntity
  8
_U+30EC_U+30A4_U+30E4_U+30FC 1
 62
     7
420
 16777215
370
     9
100
AcDb2dPolyline
 66
     1
 10
0.0
 20
0.0
 30
0.0
  0
VERTEX
  5
156
330
155
100
AcDbEntity
  8
_U+30EC_U+30A4_U+30E4_U+30FC 1
 62
     7
420
 16777215
370
     9
100
AcDbVertex
100
AcDb2dVertex
 10
109.8689319192323
 20
-131.5251158004522
 30
0.0
  0
VERTEX
  5
157
330
155
100
AcDbEntity
  8
_U+30EC_U+30A4_U+30E4_U+30FC 1
 62
     7
420
 16777215
370
     9
100
AcDbVertex
100
AcDb2dVertex
 10
109.8689319192323
 20
-126.0247105240492
 30
0.0
  0
SEQEND
  5
158
330
155
100
AcDbEntity
  8
_U+30EC_U+30A4_U+30E4_U+30FC 1
 62
     7
420
 16777215
370
     9
  0
POLYLINE
  5
159
330
1F
100
AcDbEntity
  8
_U+30EC_U+30A4_U+30E4_U+30FC 1
 62
     7
420
 16777215
370
     9
100
AcDb2dPolyline
 66
     1
 10
0.0
 20
0.0
 30
0.0
  0
VERTEX
  5
15A
330
159
100
AcDbEntity
  8
_U+30EC_U+30A4_U+30E4_U+30FC 1
 62
     7
420
 16777215
370
     9
100
AcDbVertex
100
AcDb2dVertex
 10
95.40846534370505
 20
-131.5251158004522
 30
0.0
  0
VERTEX
  5
15B
330
159
100
AcDbEntity
  8
_U+30EC_U+30A4_U+30E4_U+30FC 1
 62
     7
420
 16777215
370
     9
100
AcDbVertex
100
AcDb2dVertex
 10
110.8686688381713
 20
-131.5251158004522
 30
0.0
  0
SEQEND
  5
15C
330
159
100
AcDbEntity
  8
_U+30EC_U+30A4_U+30E4_U+30FC 1
 62
     7
420
 16777215
370
     9
  0
INSERT
  5
15E
330
1F
100
AcDbEntity
  8
_U+30EC_U+30A4_U+30E4_U+30FC 1
100
AcDbBlockReference
  2
block 7
 10
0.0
 20
0.0
 30
0.0
  0
ENDSEC
  0
SECTION
  2
OBJECTS
  0
DICTIONARY
  5
C
330
0
100
AcDbDictionary
281
     1
  3
ACAD_GROUP
350
D
  3
ACAD_LAYOUT
350
1A
  3
ACAD_MATERIAL
350
3B
  3
ACAD_MLEADERSTYLE
350
16E
  3
ACAD_MLINESTYLE
350
17
  3
ACAD_PLOTSETTINGS
350
19
  3
ACAD_PLOTSTYLENAME
350
E
  3
ACAD_TABLESTYLE
350
16D
  3
ACAD_VISUALSTYLE
350
2A
  0
SUN
  5
3F
330
29
100
AcDbSun
 90
        1
290
     0
 63
     7
421
 16777215
 40
1.0
291
     1
 91
  2455826
 92
 54000000
292
     0
 70
     2
 71
   256
280
     1
  0
DICTIONARY
  5
D
102
{ACAD_REACTORS
330
C
102
}
330
C
100
AcDbDictionary
281
     1
  0
DICTIONARY
  5
1A
102
{ACAD_REACTORS
330
C
102
}
330
C
100
AcDbDictionary
281
     1
  3
Layout1
350
1E
  3
Layout2
350
26
  3
Model
350
22
  0
DICTIONARY
  5
3B
102
{ACAD_REACTORS
330
C
102
}
330
C
100
AcDbDictionary
281
     1
  3
ByBlock
350
3D
  3
ByLayer
350
3C
  3
Global
350
3E
  0
DICTIONARY
  5
16E
102
{ACAD_REACTORS
330
C
102
}
330
C
100
AcDbDictionary
281
     1
  0
DICTIONARY
  5
17
102
{ACAD_REACTORS
330
C
102
}
330
C
100
AcDbDictionary
281
     1
  3
Standard
350
18
  0
DICTIONARY
  5
19
102
{ACAD_REACTORS
330
C
102
}
330
C
100
AcDbDictionary
281
     1
  0
ACDBDICTIONARYWDFLT
  5
E
102
{ACAD_REACTORS
330
C
102
}
330
C
100
AcDbDictionary
281
     1
  3
Normal
350
F
100
AcDbDictionaryWithDefault
340
F
  0
DICTIONARY
  5
16D
102
{ACAD_REACTORS
330
C
102
}
330
C
100
AcDbDictionary
281
     1
  0
DICTIONARY
  5
2A
102
{ACAD_REACTORS
330
C
102
}
330
C
100
AcDbDictionary
281
     1
  3
2dWireframe
350
2F
  3
3D Hidden
350
31
  3
3dWireframe
350
30
  3
Basic
350
32
  3
Brighten
350
36
  3
ColorChange
350
3A
  3
Conceptual
350
34
  3
Dim
350
35
  3
Facepattern
350
39
  3
Flat
350
2B
  3
FlatWithEdges
350
2C
  3
Gouraud
350
2D
  3
GouraudWithEdges
350
2E
  3
Linepattern
350
38
  3
Realistic
350
33
  3
Thicken
350
37
  0
LAYOUT
  5
1E
102
{ACAD_REACTORS
330
1A
102
}
330
1A
100
AcDbPlotSettings
  1

  2
none_device
  4

  6

 40
0.0
 41
0.0
 42
0.0
 43
0.0
 44
0.0
 45
0.0
 46
0.0
 47
0.0
 48
0.0
 49
0.0
140
0.0
141
0.0
142
1.0
143
1.0
 70
   688
 72
     0
 73
     0
 74
     5
  7

 75
    16
 76
     0
 77
     2
 78
   300
147
1.0
148
0.0
149
0.0
100
AcDbLayout
  1
Layout1
 70
     1
 71
     1
 10
0.0
 20
0.0
 11
12.0
 21
9.0
 12
0.0
 22
0.0
 32
0.0
 14
1.000000000000000E+20
 24
1.000000000000000E+20
 34
1.000000000000000E+20
 15
-1.000000000000000E+20
 25
-1.000000000000000E+20
 35
-1.000000000000000E+20
146
0.0
 13
0.0
 23
0.0
 33
0.0
 16
1.0
 26
0.0
 36
0.0
 17
0.0
 27
1.0
 37
0.0
 76
     0
330
1B
  0
LAYOUT
  5
26
102
{ACAD_REACTORS
330
1A
102
}
330
1A
100
AcDbPlotSettings
  1

  2
none_device
  4

  6

 40
0.0
 41
0.0
 42
0.0
 43
0.0
 44
0.0
 45
0.0
 46
0.0
 47
0.0
 48
0.0
 49
0.0
140
0.0
141
0.0
142
1.0
143
1.0
 70
   688
 72
     0
 73
     0
 74
     5
  7

 75
    16
 76
     0
 77
     2
 78
   300
147
1.0
148
0.0
149
0.0
100
AcDbLayout
  1
Layout2
 70
     1
 71
     2
 10
0.0
 20
0.0
 11
0.0
 21
0.0
 12
0.0
 22
0.0
 32
0.0
 14
0.0
 24
0.0
 34
0.0
 15
0.0
 25
0.0
 35
0.0
146
0.0
 13
0.0
 23
0.0
 33
0.0
 16
1.0
 26
0.0
 36
0.0
 17
0.0
 27
1.0
 37
0.0
 76
     0
330
23
  0
LAYOUT
  5
22
102
{ACAD_REACTORS
330
1A
102
}
330
1A
100
AcDbPlotSettings
  1

  2
none_device
  4

  6

 40
0.0
 41
0.0
 42
0.0
 43
0.0
 44
0.0
 45
0.0
 46
0.0
 47
0.0
 48
0.0
 49
0.0
140
0.0
141
0.0
142
1.0
143
1.0
 70
  1712
 72
     0
 73
     0
 74
     0
  7

 75
     0
 76
     0
 77
     2
 78
   300
147
1.0
148
0.0
149
0.0
100
AcDbLayout
  1
Model
 70
     1
 71
     0
 10
0.0
 20
0.0
 11
12.0
 21
9.0
 12
0.0
 22
0.0
 32
0.0
 14
1.000000000000000E+20
 24
1.000000000000000E+20
 34
1.000000000000000E+20
 15
-1.000000000000000E+20
 25
-1.000000000000000E+20
 35
-1.000000000000000E+20
146
0.0
 13
0.0
 23
0.0
 33
0.0
 16
1.0
 26
0.0
 36
0.0
 17
0.0
 27
1.0
 37
0.0
 76
     0
330
1F
331
29
  0
MATERIAL
  5
3D
102
{ACAD_REACTORS
330
3B
102
}
330
3B
100
AcDbMaterial
  1
ByBlock
 72
     1
 94
      127
  0
MATERIAL
  5
3C
102
{ACAD_REACTORS
330
3B
102
}
330
3B
100
AcDbMaterial
  1
ByLayer
 72
     1
 94
      127
  0
MATERIAL
  5
3E
102
{ACAD_REACTORS
330
3B
102
}
330
3B
100
AcDbMaterial
  1
Global
 72
     1
 94
      127
  0
MLINESTYLE
  5
18
102
{ACAD_REACTORS
330
17
102
}
330
17
100
AcDbMlineStyle
  2
Standard
 70
     0
  3

 62
   256
 51
90.0
 52
90.0
 71
     2
 49
0.5
 62
   256
  6
BYLAYER
 49
-0.5
 62
   256
  6
BYLAYER
  0
ACDBPLACEHOLDER
  5
F
102
{ACAD_REACTORS
330
E
102
}
330
E
  0
VISUALSTYLE
  5
2F
102
{ACAD_REACTORS
330
2A
102
}
330
2A
100
AcDbVisualStyle
  2
2dWireframe
 70
     4
177
     2
291
     0
 71
     0
176
     1
 72
     2
176
     1
 73
     0
176
     1
 90
        0
176
     1
 40
-0.6
176
     1
 41
-30.0
176
     1
 62
     5
 63
     7
421
 16777215
176
     1
 74
     1
176
     1
 91
        4
176
     1
 64
     7
176
     1
 65
   257
176
     1
 75
     1
176
     1
175
     1
176
     1
 42
1.0
176
     1
 92
        0
176
     1
 66
   257
176
     1
 43
1.0
176
     1
 76
     1
176
     1
 77
     6
176
     1
 78
     2
176
     1
 67
     7
176
     1
 79
     5
176
     1
170
     0
176
     1
171
     0
176
     1
290
     0
176
     1
 93
        1
176
     1
 44
0.0
176
     1
173
     0
176
     1
  0
VISUALSTYLE
  5
31
102
{ACAD_REACTORS
330
2A
102
}
330
2A
100
AcDbVisualStyle
  2
3D Hidden
 70
     6
177
     2
291
     0
 71
     1
176
     1
 72
     2
176
     1
 73
     2
176
     1
 90
        0
176
     1
 40
-0.6
176
     1
 41
-30.0
176
     1
 62
     5
 63
     7
421
 16777215
176
     1
 74
     2
176
     1
 91
        2
176
     1
 64
     7
176
     1
 65
   257
176
     1
 75
     2
176
     1
175
     1
176
     1
 42
40.0
176
     1
 92
        0
176
     1
 66
   257
176
     1
 43
1.0
176
     1
 76
     1
176
     1
 77
     6
176
     1
 78
     2
176
     1
 67
     7
176
     1
 79
     3
176
     1
170
     0
176
     1
171
     0
176
     1
290
     0
176
     1
 93
        1
176
     1
 44
0.0
176
     1
173
     0
176
     1
  0
VISUALSTYLE
  5
30
102
{ACAD_REACTORS
330
2A
102
}
330
2A
100
AcDbVisualStyle
  2
3dWireframe
 70
     5
177
     2
291
     0
 71
     0
176
     1
 72
     2
176
     1
 73
     0
176
     1
 90
        0
176
     1
 40
-0.6
176
     1
 41
-30.0
176
     1
 62
     5
 63
     7
421
 16777215
176
     1
 74
     1
176
     1
 91
        4
176
     1
 64
     7
176
     1
 65
   257
176
     1
 75
     1
176
     1
175
     1
176
     1
 42
1.0
176
     1
 92
        0
176
     1
 66
   257
176
     1
 43
1.0
176
     1
 76
     1
176
     1
 77
     6
176
     1
 78
     2
176
     1
 67
     7
176
     1
 79
     5
176
     1
170
     0
176
     1
171
     0
176
     1
290
     0
176
     1
 93
        1
176
     1
 44
0.0
176
     1
173
     0
176
     1
  0
VISUALSTYLE
  5
32
102
{ACAD_REACTORS
330
2A
102
}
330
2A
100
AcDbVisualStyle
  2
Basic
 70
     7
177
     2
291
     1
 71
     1
176
     1
 72
     0
176
     1
 73
     1
176
     1
 90
        0
176
     1
 40
-0.6
176
     1
 41
-30.0
176
     1
 62
     5
 63
     7
421
 16777215
176
     1
 74
     0
176
     1
 91
        4
176
     1
 64
     7
176
     1
 65
   257
176
     1
 75
     1
176
     1
175
     1
176
     1
 42
1.0
176
     1
 92
        8
176
     1
 66
     7
176
     1
 43
1.0
176
     1
 76
     1
176
     1
 77
     6
176
     1
 78
     2
176
     1
 67
     7
176
     1
 79
     5
176
     1
170
     0
176
     1
171
     0
176
     1
290
     0
176
     1
 93
        1
176
     1
 44
0.0
176
     1
173
     0
176
     1
  0
VISUALSTYLE
  5
36
102
{ACAD_REACTORS
330
2A
102
}
330
2A
100
AcDbVisualStyle
  2
Brighten
 70
    12
177
     2
291
     1
 71
     2
176
     1
 72
     2
176
     1
 73
     0
176
     1
 90
        0
176
     1
 40
-0.6
176
     1
 41
-30.0
176
     1
 62
     5
 63
     7
421
 16777215
176
     1
 74
     1
176
     1
 91
        4
176
     1
 64
     7
176
     1
 65
   257
176
     1
 75
     1
176
     1
175
     1
176
     1
 42
1.0
176
     1
 92
        8
176
     1
 66
     7
176
     1
 43
1.0
176
     1
 76
     1
176
     1
 77
     6
176
     1
 78
     2
176
     1
 67
     7
176
     1
 79
     5
176
     1
170
     0
176
     1
171
     0
176
     1
290
     0
176
     1
 93
        1
176
     1
 44
50.0
176
     1
173
     0
176
     1
  0
VISUALSTYLE
  5
3A
102
{ACAD_REACTORS
330
2A
102
}
330
2A
100
AcDbVisualStyle
  2
ColorChange
 70
    16
177
     2
291
     1
 71
     2
176
     1
 72
     2
176
     1
 73
     3
176
     1
 90
        0
176
     1
 40
-0.6
176
     1
 41
-30.0
176
     1
 62
     5
 63
     8
421
  8421504
176
     1
 74
     1
176
     1
 91
        4
176
     1
 64
     7
176
     1
 65
   257
176
     1
 75
     1
176
     1
175
     1
176
     1
 42
1.0
176
     1
 92
        8
176
     1
 66
     8
424
  8421504
176
     1
 43
1.0
176
     1
 76
     1
176
     1
 77
     6
176
     1
 78
     2
176
     1
 67
     7
176
     1
 79
     5
176
     1
170
     0
176
     1
171
     0
176
     1
290
     0
176
     1
 93
        1
176
     1
 44
0.0
176
     1
173
     0
176
     1
  0
VISUALSTYLE
  5
34
102
{ACAD_REACTORS
330
2A
102
}
330
2A
100
AcDbVisualStyle
  2
Conceptual
 70
     9
177
     2
291
     0
 71
     3
176
     1
 72
     2
176
     1
 73
     0
176
     1
 90
        0
176
     1
 40
-0.6
176
     1
 41
-30.0
176
     1
 62
     5
 63
     7
421
 16777215
176
     1
 74
     2
176
     1
 91
        2
176
     1
 64
     7
176
     1
 65
   257
176
     1
 75
     1
176
     1
175
     1
176
     1
 42
40.0
176
     1
 92
        8
176
     1
 66
     7
176
     1
 43
1.0
176
     1
 76
     1
176
     1
 77
     6
176
     1
 78
     2
176
     1
 67
     7
176
     1
 79
     3
176
     1
170
     0
176
     1
171
     0
176
     1
290
     0
176
     1
 93
        1
176
     1
 44
0.0
176
     1
173
     0
176
     1
  0
VISUALSTYLE
  5
35
102
{ACAD_REACTORS
330
2A
102
}
330
2A
100
AcDbVisualStyle
  2
Dim
 70
    11
177
     2
291
     1
 71
     2
176
     1
 72
     2
176
     1
 73
     0
176
     1
 90
        0
176
     1
 40
-0.6
176
     1
 41
-30.0
176
     1
 62
     5
 63
     7
421
 16777215
176
     1
 74
     1
176
     1
 91
        4
176
     1
 64
     7
176
     1
 65
   257
176
     1
 75
     1
176
     1
175
     1
176
     1
 42
1.0
176
     1
 92
        8
176
     1
 66
     7
176
     1
 43
1.0
176
     1
 76
     1
176
     1
 77
     6
176
     1
 78
     2
176
     1
 67
     7
176
     1
 79
     5
176
     1
170
     0
176
     1
171
     0
176
     1
290
     0
176
     1
 93
        1
176
     1
 44
-50.0
176
     1
173
     0
176
     1
  0
VISUALSTYLE
  5
39
102
{ACAD_REACTORS
330
2A
102
}
330
2A
100
AcDbVisualStyle
  2
Facepattern
 70
    15
177
     2
291
     1
 71
     2
176
     1
 72
     2
176
     1
 73
     0
176
     1
 90
        0
176
     1
 40
-0.6
176
     1
 41
-30.0
176
     1
 62
     5
 63
     7
421
 16777215
176
     1
 74
     1
176
     1
 91
        4
176
     1
 64
     7
176
     1
 65
   257
176
     1
 75
     1
176
     1
175
     1
176
     1
 42
1.0
176
     1
 92
        8
176
     1
 66
     7
176
     1
 43
1.0
176
     1
 76
     1
176
     1
 77
     6
176
     1
 78
     2
176
     1
 67
     7
176
     1
 79
     5
176
     1
170
     0
176
     1
171
     0
176
     1
290
     0
176
     1
 93
        1
176
     1
 44
0.0
176
     1
173
     0
176
     1
  0
VISUALSTYLE
  5
2B
102
{ACAD_REACTORS
330
2A
102
}
330
2A
100
AcDbVisualStyle
  2
Flat
 70
     0
177
     2
291
     1
 71
     2
176
     1
 72
     1
176
     1
 73
     1
176
     1
 90
        2
176
     1
 40
-0.6
176
     1
 41
30.0
176
     1
 62
     5
 63
     7
421
 16777215
176
     1
 74
     0
176
     1
 91
        4
176
     1
 64
     7
176
     1
 65
   257
176
     1
 75
     1
176
     1
175
     1
176
     1
 42
1.0
176
     1
 92
        8
176
     1
 66
     7
176
     1
 43
1.0
176
     1
 76
     1
176
     1
 77
     6
176
     1
 78
     2
176
     1
 67
     7
176
     1
 79
     5
176
     1
170
     0
176
     1
171
     0
176
     1
290
     0
176
     1
 93
       13
176
     1
 44
0.0
176
     1
173
     0
176
     1
  0
VISUALSTYLE
  5
2C
102
{ACAD_REACTORS
330
2A
102
}
330
2A
100
AcDbVisualStyle
  2
FlatWithEdges
 70
     1
177
     2
291
     1
 71
     2
176
     1
 72
     1
176
     1
 73
     1
176
     1
 90
        2
176
     1
 40
-0.6
176
     1
 41
30.0
176
     1
 62
     5
 63
     7
421
 16777215
176
     1
 74
     1
176
     1
 91
        4
176
     1
 64
     7
176
     1
 65
   257
176
     1
 75
     1
176
     1
175
     1
176
     1
 42
1.0
176
     1
 92
        0
176
     1
 66
   257
176
     1
 43
1.0
176
     1
 76
     1
176
     1
 77
     6
176
     1
 78
     2
176
     1
 67
     7
176
     1
 79
     5
176
     1
170
     0
176
     1
171
     0
176
     1
290
     0
176
     1
 93
       13
176
     1
 44
0.0
176
     1
173
     0
176
     1
  0
VISUALSTYLE
  5
2D
102
{ACAD_REACTORS
330
2A
102
}
330
2A
100
AcDbVisualStyle
  2
Gouraud
 70
     2
177
     2
291
     1
 71
     2
176
     1
 72
     2
176
     1
 73
     1
176
     1
 90
        2
176
     1
 40
-0.6
176
     1
 41
30.0
176
     1
 62
     5
 63
     7
421
 16777215
176
     1
 74
     0
176
     1
 91
        4
176
     1
 64
     7
176
     1
 65
   257
176
     1
 75
     1
176
     1
175
     1
176
     1
 42
1.0
176
     1
 92
        0
176
     1
 66
     7
176
     1
 43
1.0
176
     1
 76
     1
176
     1
 77
     6
176
     1
 78
     2
176
     1
 67
     7
176
     1
 79
     5
176
     1
170
     0
176
     1
171
     0
176
     1
290
     0
176
     1
 93
       13
176
     1
 44
0.0
176
     1
173
     0
176
     1
  0
VISUALSTYLE
  5
2E
102
{ACAD_REACTORS
330
2A
102
}
330
2A
100
AcDbVisualStyle
  2
GouraudWithEdges
 70
     3
177
     2
291
     1
 71
     2
176
     1
 72
     2
176
     1
 73
     1
176
     1
 90
        2
176
     1
 40
-0.6
176
     1
 41
30.0
176
     1
 62
     5
 63
     7
421
 16777215
176
     1
 74
     1
176
     1
 91
        4
176
     1
 64
     7
176
     1
 65
   257
176
     1
 75
     1
176
     1
175
     1
176
     1
 42
1.0
176
     1
 92
        0
176
     1
 66
   257
176
     1
 43
1.0
176
     1
 76
     1
176
     1
 77
     6
176
     1
 78
     2
176
     1
 67
     7
176
     1
 79
     5
176
     1
170
     0
176
     1
171
     0
176
     1
290
     0
176
     1
 93
       13
176
     1
 44
0.0
176
     1
173
     0
176
     1
  0
VISUALSTYLE
  5
38
102
{ACAD_REACTORS
330
2A
102
}
330
2A
100
AcDbVisualStyle
  2
Linepattern
 70
    14
177
     2
291
     1
 71
     2
176
     1
 72
     2
176
     1
 73
     0
176
     1
 90
        0
176
     1
 40
-0.6
176
     1
 41
-30.0
176
     1
 62
     5
 63
     7
421
 16777215
176
     1
 74
     1
176
     1
 91
        4
176
     1
 64
     7
176
     1
 65
   257
176
     1
 75
     7
176
     1
175
     7
176
     1
 42
1.0
176
     1
 92
        8
176
     1
 66
     7
176
     1
 43
1.0
176
     1
 76
     1
176
     1
 77
     6
176
     1
 78
     2
176
     1
 67
     7
176
     1
 79
     5
176
     1
170
     0
176
     1
171
     0
176
     1
290
     0
176
     1
 93
        1
176
     1
 44
0.0
176
     1
173
     0
176
     1
  0
VISUALSTYLE
  5
33
102
{ACAD_REACTORS
330
2A
102
}
330
2A
100
AcDbVisualStyle
  2
Realistic
 70
     8
177
     2
291
     0
 71
     2
176
     1
 72
     2
176
     1
 73
     0
176
     1
 90
        0
176
     1
 40
-0.6
176
     1
 41
-30.0
176
     1
 62
     5
 63
     7
421
 16777215
176
     1
 74
     1
176
     1
 91
        0
176
     1
 64
     7
176
     1
 65
   257
176
     1
 75
     1
176
     1
175
     1
176
     1
 42
1.0
176
     1
 92
        8
176
     1
 66
     8
424
  7895160
176
     1
 43
1.0
176
     1
 76
     1
176
     1
 77
     6
176
     1
 78
     2
176
     1
 67
     7
176
     1
 79
     5
176
     1
170
     0
176
     1
171
     0
176
     1
290
     0
176
     1
 93
       13
176
     1
 44
0.0
176
     1
173
     0
176
     1
  0
VISUALSTYLE
  5
37
102
{ACAD_REACTORS
330
2A
102
}
330
2A
100
AcDbVisualStyle
  2
Thicken
 70
    13
177
     2
291
     1
 71
     2
176
     1
 72
     2
176
     1
 73
     0
176
     1
 90
        0
176
     1
 40
-0.6
176
     1
 41
-30.0
176
     1
 62
     5
 63
     7
421
 16777215
176
     1
 74
     1
176
     1
 91
        4
176
     1
 64
     7
176
     1
 65
   257
176
     1
 75
     1
176
     1
175
     1
176
     1
 42
1.0
176
     1
 92
       12
176
     1
 66
     7
176
     1
 43
1.0
176
     1
 76
     1
176
     1
 77
     6
176
     1
 78
     2
176
     1
 67
     7
176
     1
 79
     5
176
     1
170
     0
176
     1
171
     0
176
     1
290
     0
176
     1
 93
        1
176
     1
 44
0.0
176
     1
173
     0
176
     1
  0
ENDSEC
  0
EOF
