  0
SECTION
  2
HEADER
  9
$ACADVER
  1
AC1024
  9
$ACADMAINTVER
 70
     6
  9
$DWGCODEPAGE
  3
UNDEFINED
  9
$INSBASE
 10
0.0
 20
0.0
 30
0.0
  9
$EXTMIN
 10
1.000000000000000E+20
 20
1.000000000000000E+20
 30
1.000000000000000E+20
  9
$EXTMAX
 10
-1.000000000000000E+20
 20
-1.000000000000000E+20
 30
-1.000000000000000E+20
  9
$LIMMIN
 10
0.0
 20
0.0
  9
$LIMMAX
 10
12.0
 20
9.0
  9
$ORTHOMODE
 70
     0
  9
$REGENMODE
 70
     1
  9
$FILLMODE
 70
     1
  9
$QTEXTMODE
 70
     0
  9
$MIRRTEXT
 70
     1
  9
$LTSCALE
 40
1.0
  9
$ATTMODE
 70
     1
  9
$TEXTSIZE
 40
0.2
  9
$TRACEWID
 40
0.05
  9
$TEXTSTYLE
  7
Standard
  9
$CLAYER
  8
0
  9
$CELTYPE
  6
ByLayer
  9
$CECOLOR
 62
   256
  9
$CELTSCALE
 40
1.0
  9
$DISPSILH
 70
     0
  9
$DIMSCALE
 40
1.0
  9
$DIMASZ
 40
0.18
  9
$DIMEXO
 40
0.0625
  9
$DIMDLI
 40
0.38
  9
$DIMRND
 40
0.0
  9
$DIMDLE
 40
0.0
  9
$DIMEXE
 40
0.18
  9
$DIMTP
 40
0.0
  9
$DIMTM
 40
0.0
  9
$DIMTXT
 40
0.18
  9
$DIMCEN
 40
0.09
  9
$DIMTSZ
 40
0.0
  9
$DIMTOL
 70
     0
  9
$DIMLIM
 70
     0
  9
$DIMTIH
 70
     1
  9
$DIMTOH
 70
     1
  9
$DIMSE1
 70
     0
  9
$DIMSE2
 70
     0
  9
$DIMTAD
 70
     0
  9
$DIMZIN
 70
     0
  9
$DIMBLK
  1

  9
$DIMASO
 70
     1
  9
$DIMSHO
 70
     1
  9
$DIMPOST
  1

  9
$DIMAPOST
  1

  9
$DIMALT
 70
     0
  9
$DIMALTD
 70
     2
  9
$DIMALTF
 40
25.4
  9
$DIMLFAC
 40
1.0
  9
$DIMTOFL
 70
     0
  9
$DIMTVP
 40
0.0
  9
$DIMTIX
 70
     0
  9
$DIMSOXD
 70
     0
  9
$DIMSAH
 70
     0
  9
$DIMBLK1
  1

  9
$DIMBLK2
  1

  9
$DIMSTYLE
  2
Standard
  9
$DIMCLRD
 70
     0
  9
$DIMCLRE
 70
     0
  9
$DIMCLRT
 70
     0
  9
$DIMTFAC
 40
1.0
  9
$DIMGAP
 40
0.09
  9
$DIMJUST
 70
     0
  9
$DIMSD1
 70
     0
  9
$DIMSD2
 70
     0
  9
$DIMTOLJ
 70
     1
  9
$DIMTZIN
 70
     0
  9
$DIMALTZ
 70
     0
  9
$DIMALTTZ
 70
     0
  9
$DIMUPT
 70
     0
  9
$DIMDEC
 70
     4
  9
$DIMTDEC
 70
     4
  9
$DIMALTU
 70
     2
  9
$DIMALTTD
 70
     2
  9
$DIMTXSTY
  7
Standard
  9
$DIMAUNIT
 70
     0
  9
$DIMADEC
 70
     0
  9
$DIMALTRND
 40
0.0
  9
$DIMAZIN
 70
     0
  9
$DIMDSEP
 70
    46
  9
$DIMATFIT
 70
     3
  9
$DIMFRAC
 70
     0
  9
$DIMLDRBLK
  1

  9
$DIMLUNIT
 70
     2
  9
$DIMLWD
 70
    -2
  9
$DIMLWE
 70
    -2
  9
$DIMTMOVE
 70
     0
  9
$DIMFXL
 40
1.0
  9
$DIMFXLON
 70
     0
  9
$DIMJOGANG
 40
0.7853981633974483
  9
$DIMTFILL
 70
     0
  9
$DIMTFILLCLR
 70
     0
  9
$DIMARCSYM
 70
     0
  9
$DIMLTYPE
  6

  9
$DIMLTEX1
  6

  9
$DIMLTEX2
  6

  9
$DIMTXTDIRECTION
 70
     0
  9
$LUNITS
 70
     2
  9
$LUPREC
 70
     4
  9
$SKETCHINC
 40
0.1
  9
$FILLETRAD
 40
0.5
  9
$AUNITS
 70
     0
  9
$AUPREC
 70
     0
  9
$MENU
  1
.
  9
$ELEVATION
 40
0.0
  9
$PELEVATION
 40
0.0
  9
$THICKNESS
 40
0.0
  9
$LIMCHECK
 70
     0
  9
$CHAMFERA
 40
0.5
  9
$CHAMFERB
 40
0.5
  9
$CHAMFERC
 40
1.0
  9
$CHAMFERD
 40
0.0
  9
$SKPOLY
 70
     0
  9
$TDCREATE
 40
2457917.612638877
  9
$TDUCREATE
 40
2457917.237638889
  9
$TDUPDATE
 40
2457917.612638877
  9
$TDUUPDATE
 40
2457917.237638889
  9
$TDINDWG
 40
0.0000000116
  9
$TDUSRTIMER
 40
0.0000000116
  9
$USRTIMER
 70
     1
  9
$ANGBASE
 50
0.0
  9
$ANGDIR
 70
     0
  9
$PDMODE
 70
     0
  9
$PDSIZE
 40
0.0
  9
$PLINEWID
 40
0.0
  9
$SPLFRAME
 70
     0
  9
$SPLINETYPE
 70
     6
  9
$SPLINESEGS
 70
     8
  9
$HANDSEED
  5
F0
  9
$SURFTAB1
 70
     6
  9
$SURFTAB2
 70
     6
  9
$SURFTYPE
 70
     6
  9
$SURFU
 70
     6
  9
$SURFV
 70
     6
  9
$UCSBASE
  2

  9
$UCSNAME
  2

  9
$UCSORG
 10
0.0
 20
0.0
 30
0.0
  9
$UCSXDIR
 10
1.0
 20
0.0
 30
0.0
  9
$UCSYDIR
 10
0.0
 20
1.0
 30
0.0
  9
$UCSORTHOREF
  2

  9
$UCSORTHOVIEW
 70
     0
  9
$UCSORGTOP
 10
0.0
 20
0.0
 30
0.0
  9
$UCSORGBOTTOM
 10
0.0
 20
0.0
 30
0.0
  9
$UCSORGLEFT
 10
0.0
 20
0.0
 30
0.0
  9
$UCSORGRIGHT
 10
0.0
 20
0.0
 30
0.0
  9
$UCSORGFRONT
 10
0.0
 20
0.0
 30
0.0
  9
$UCSORGBACK
 10
0.0
 20
0.0
 30
0.0
  9
$PUCSBASE
  2

  9
$PUCSNAME
  2

  9
$PUCSORG
 10
0.0
 20
0.0
 30
0.0
  9
$PUCSXDIR
 10
1.0
 20
0.0
 30
0.0
  9
$PUCSYDIR
 10
0.0
 20
1.0
 30
0.0
  9
$PUCSORTHOREF
  2

  9
$PUCSORTHOVIEW
 70
     0
  9
$PUCSORGTOP
 10
0.0
 20
0.0
 30
0.0
  9
$PUCSORGBOTTOM
 10
0.0
 20
0.0
 30
0.0
  9
$PUCSORGLEFT
 10
0.0
 20
0.0
 30
0.0
  9
$PUCSORGRIGHT
 10
0.0
 20
0.0
 30
0.0
  9
$PUCSORGFRONT
 10
0.0
 20
0.0
 30
0.0
  9
$PUCSORGBACK
 10
0.0
 20
0.0
 30
0.0
  9
$USERI1
 70
     0
  9
$USERI2
 70
     0
  9
$USERI3
 70
     0
  9
$USERI4
 70
     0
  9
$USERI5
 70
     0
  9
$USERR1
 40
0.0
  9
$USERR2
 40
0.0
  9
$USERR3
 40
0.0
  9
$USERR4
 40
0.0
  9
$USERR5
 40
0.0
  9
$WORLDVIEW
 70
     1
  9
$SHADEDGE
 70
     3
  9
$SHADEDIF
 70
    70
  9
$TILEMODE
 70
     1
  9
$MAXACTVP
 70
    64
  9
$PINSBASE
 10
0.0
 20
0.0
 30
0.0
  9
$PLIMCHECK
 70
     0
  9
$PEXTMIN
 10
1.000000000000000E+20
 20
1.000000000000000E+20
 30
1.000000000000000E+20
  9
$PEXTMAX
 10
-1.000000000000000E+20
 20
-1.000000000000000E+20
 30
-1.000000000000000E+20
  9
$PLIMMIN
 10
0.0
 20
0.0
  9
$PLIMMAX
 10
12.0
 20
9.0
  9
$UNITMODE
 70
     0
  9
$VISRETAIN
 70
     1
  9
$PLINEGEN
 70
     0
  9
$PSLTSCALE
 70
     1
  9
$TREEDEPTH
 70
  3020
  9
$CMLSTYLE
  2
Standard
  9
$CMLJUST
 70
     0
  9
$CMLSCALE
 40
1.0
  9
$PROXYGRAPHICS
 70
     1
  9
$MEASUREMENT
 70
     0
  9
$CELWEIGHT
370
    -1
  9
$ENDCAPS
280
     0
  9
$JOINSTYLE
280
     0
  9
$LWDISPLAY
290
     1
  9
$INSUNITS
 70
     1
  9
$HYPERLINKBASE
  1

  9
$STYLESHEET
  1

  9
$XEDIT
290
     1
  9
$CEPSNTYPE
380
     0
  9
$PSTYLEMODE
290
     1
  9
$FINGERPRINTGUID
  2
{067B0182-F28F-16AD-9C79-6661D2373B18}
  9
$VERSIONGUID
  2
{FAEB1C32-E019-11D5-929B-00C0DF256EC4}
  9
$EXTNAMES
290
     1
  9
$PSVPSCALE
 40
0.0
  9
$OLESTARTUP
290
     0
  9
$SORTENTS
280
   127
  9
$INDEXCTL
280
     0
  9
$HIDETEXT
280
     1
  9
$XCLIPFRAME
280
     2
  9
$HALOGAP
280
     0
  9
$OBSCOLOR
 70
   257
  9
$OBSLTYPE
280
     0
  9
$INTERSECTIONDISPLAY
280
     0
  9
$INTERSECTIONCOLOR
 70
   257
  9
$DIMASSOC
280
     2
  9
$PROJECTNAME
  1

  9
$CAMERADISPLAY
290
     0
  9
$LENSLENGTH
 40
50.0
  9
$CAMERAHEIGHT
 40
0.0
  9
$STEPSPERSEC
 40
2.0
  9
$STEPSIZE
 40
6.0
  9
$3DDWFPREC
 40
2.0
  9
$PSOLWIDTH
 40
0.25
  9
$PSOLHEIGHT
 40
4.0
  9
$LOFTANG1
 40
1.570796326794897
  9
$LOFTANG2
 40
1.570796326794897
  9
$LOFTMAG1
 40
0.0
  9
$LOFTMAG2
 40
0.0
  9
$LOFTPARAM
 70
     7
  9
$LOFTNORMALS
280
     1
  9
$LATITUDE
 40
37.795
  9
$LONGITUDE
 40
-122.394
  9
$NORTHDIRECTION
 40
0.0
  9
$TIMEZONE
 70
 -8000
  9
$LIGHTGLYPHDISPLAY
280
     1
  9
$TILEMODELIGHTSYNCH
280
     1
  9
$CMATERIAL
347
3C
  9
$SOLIDHIST
280
     1
  9
$SHOWHIST
280
     1
  9
$DWFFRAME
280
     2
  9
$DGNFRAME
280
     2
  9
$REALWORLDSCALE
290
     1
  9
$INTERFERECOLOR
 62
   256
  9
$CSHADOW
280
     0
  9
$SHADOWPLANELOCATION
 40
0.0
  0
ENDSEC
  0
SECTION
  2
CLASSES
  0
CLASS
  1
ACDBDICTIONARYWDFLT
  2
AcDbDictionaryWithDefault
  3
ObjectDBX Classes
 90
        0
 91
        4
280
     0
281
     0
  0
CLASS
  1
VISUALSTYLE
  2
AcDbVisualStyle
  3
ObjectDBX Classes
 90
     4095
 91
        4
280
     0
281
     0
  0
CLASS
  1
MATERIAL
  2
AcDbMaterial
  3
ObjectDBX Classes
 90
     1153
 91
        4
280
     0
281
     0
  0
CLASS
  1
SUN
  2
AcDbSun
  3
SCENEOE
 90
     1024
 91
        4
280
     0
281
     0
  0
ENDSEC
  0
SECTION
  2
TABLES
  0
TABLE
  2
VPORT
  5
8
330
0
100
AcDbSymbolTable
 70
     1
  0
VPORT
  5
29
330
8
100
AcDbSymbolTableRecord
100
AcDbViewportTableRecord
  2
*Active
 70
     0
 10
0.0
 20
0.0
 11
1.0
 21
1.0
 12
0.0
 22
0.0
 13
0.0
 23
0.0
 14
0.5
 24
0.5
 15
0.5
 25
0.5
 16
0.0
 26
0.0
 36
1.0
 17
91.00082462281999
 27
-128.4993055234307
 37
0.0
 40
256.9986110468615
 41
0.7081814508812795
 42
50.0
 43
0.0
 44
0.0
 50
0.0
 51
0.0
 71
     0
 72
   100
 73
     1
 74
     3
 75
     0
 76
     0
 77
     0
 78
     0
281
     0
 65
     1
110
0.0
120
0.0
130
0.0
111
1.0
121
0.0
131
0.0
112
0.0
122
1.0
132
0.0
 79
     0
146
0.0
 60
     3
 61
     5
292
     1
282
     1
141
0.0
142
0.0
 63
   250
361
3F
  0
ENDTAB
  0
TABLE
  2
LTYPE
  5
5
330
0
100
AcDbSymbolTable
 70
     1
  0
LTYPE
  5
14
330
5
100
AcDbSymbolTableRecord
100
AcDbLinetypeTableRecord
  2
ByBlock
 70
     0
  3

 72
    65
 73
     0
 40
0.0
  0
LTYPE
  5
15
330
5
100
AcDbSymbolTableRecord
100
AcDbLinetypeTableRecord
  2
ByLayer
 70
     0
  3

 72
    65
 73
     0
 40
0.0
  0
LTYPE
  5
16
330
5
100
AcDbSymbolTableRecord
100
AcDbLinetypeTableRecord
  2
Continuous
 70
     0
  3
Solid line
 72
    65
 73
     0
 40
0.0
  0
ENDTAB
  0
TABLE
  2
LAYER
  5
2
330
0
100
AcDbSymbolTable
 70
     2
  0
LAYER
  5
10
330
2
100
AcDbSymbolTableRecord
100
AcDbLayerTableRecord
  2
0
 70
     0
 62
     7
  6
Continuous
370
    -3
390
F
347
3E
  0
LAYER
  5
40
330
2
100
AcDbSymbolTableRecord
100
AcDbLayerTableRecord
  2
_U+30EC_U+30A4_U+30E4_U+30FC 1
 70
     0
 62
     7
  6
Continuous
370
    -3
390
F
347
3E
  0
ENDTAB
  0
TABLE
  2
STYLE
  5
3
330
0
100
AcDbSymbolTable
 70
     1
  0
STYLE
  5
11
330
3
100
AcDbSymbolTableRecord
100
AcDbTextStyleTableRecord
  2
Standard
 70
     0
 40
0.0
 41
1.0
 50
0.0
 71
     0
 42
0.2
  3
txt
  4

  0
ENDTAB
  0
TABLE
  2
VIEW
  5
6
330
0
100
AcDbSymbolTable
 70
     0
  0
ENDTAB
  0
TABLE
  2
UCS
  5
7
330
0
100
AcDbSymbolTable
 70
     0
  0
ENDTAB
  0
TABLE
  2
APPID
  5
9
330
0
100
AcDbSymbolTable
 70
     1
  0
APPID
  5
12
330
9
100
AcDbSymbolTableRecord
100
AcDbRegAppTableRecord
  2
ACAD
 70
     0
  0
ENDTAB
  0
TABLE
  2
DIMSTYLE
  5
A
330
0
100
AcDbSymbolTable
 70
     1
100
AcDbDimStyleTable
  0
DIMSTYLE
105
27
330
A
100
AcDbSymbolTableRecord
100
AcDbDimStyleTableRecord
  2
Standard
 70
     0
178
     0
340
11
  0
ENDTAB
  0
TABLE
  2
BLOCK_RECORD
  5
1
330
0
100
AcDbSymbolTable
 70
    11
  0
BLOCK_RECORD
  5
1F
330
1
100
AcDbSymbolTableRecord
100
AcDbBlockTableRecord
  2
*Model_Space
340
22
 70
     0
280
     1
281
     0
  0
BLOCK_RECORD
  5
1B
330
1
100
AcDbSymbolTableRecord
100
AcDbBlockTableRecord
  2
*Paper_Space
340
1E
 70
     0
280
     1
281
     0
  0
BLOCK_RECORD
  5
23
330
1
100
AcDbSymbolTableRecord
100
AcDbBlockTableRecord
  2
*Paper_Space0
340
26
 70
     0
280
     1
281
     0
  0
BLOCK_RECORD
  5
7F
330
1
100
AcDbSymbolTableRecord
100
AcDbBlockTableRecord
  2
block 2
340
0
102
{BLKREFS
331
80
102
}
 70
     0
280
     1
281
     0
  0
BLOCK_RECORD
  5
8F
330
1
100
AcDbSymbolTableRecord
100
AcDbBlockTableRecord
  2
block 3
340
0
102
{BLKREFS
331
90
102
}
 70
     0
280
     1
281
     0
  0
BLOCK_RECORD
  5
97
330
1
100
AcDbSymbolTableRecord
100
AcDbBlockTableRecord
  2
block 4
340
0
102
{BLKREFS
331
98
102
}
 70
     0
280
     1
281
     0
  0
BLOCK_RECORD
  5
A7
330
1
100
AcDbSymbolTableRecord
100
AcDbBlockTableRecord
  2
block 5
340
0
102
{BLKREFS
331
A8
102
}
 70
     0
280
     1
281
     0
  0
BLOCK_RECORD
  5
AD
330
1
100
AcDbSymbolTableRecord
100
AcDbBlockTableRecord
  2
block 6
340
0
102
{BLKREFS
331
AE
102
}
 70
     0
280
     1
281
     0
  0
BLOCK_RECORD
  5
C1
330
1
100
AcDbSymbolTableRecord
100
AcDbBlockTableRecord
  2
block 7
340
0
102
{BLKREFS
331
C2
102
}
 70
     0
280
     1
281
     0
  0
BLOCK_RECORD
  5
C7
330
1
100
AcDbSymbolTableRecord
100
AcDbBlockTableRecord
  2
block 8
340
0
102
{BLKREFS
331
C8
102
}
 70
     0
280
     1
281
     0
  0
BLOCK_RECORD
  5
D3
330
1
100
AcDbSymbolTableRecord
100
AcDbBlockTableRecord
  2
block 9
340
0
102
{BLKREFS
331
D4
102
}
 70
     0
280
     1
281
     0
  0
BLOCK_RECORD
  5
D9
330
1
100
AcDbSymbolTableRecord
100
AcDbBlockTableRecord
  2
block 10
340
0
102
{BLKREFS
331
DA
102
}
 70
     0
280
     1
281
     0
  0
BLOCK_RECORD
  5
E5
330
1
100
AcDbSymbolTableRecord
100
AcDbBlockTableRecord
  2
block 11
340
0
102
{BLKREFS
331
E6
102
}
 70
     0
280
     1
281
     0
  0
ENDTAB
  0
ENDSEC
  0
SECTION
  2
BLOCKS
  0
BLOCK
  5
20
330
1F
100
AcDbEntity
  8
0
100
AcDbBlockBegin
  2
*Model_Space
 70
     0
 10
0.0
 20
0.0
 30
0.0
  3
*Model_Space
  1

  0
ENDBLK
  5
21
330
1F
100
AcDbEntity
  8
0
100
AcDbBlockEnd
  0
BLOCK
  5
1C
330
1B
100
AcDbEntity
 67
     1
  8
0
100
AcDbBlockBegin
  2
*Paper_Space
 70
     0
 10
0.0
 20
0.0
 30
0.0
  3
*Paper_Space
  1

  0
ENDBLK
  5
1D
330
1B
100
AcDbEntity
 67
     1
  8
0
100
AcDbBlockEnd
  0
BLOCK
  5
24
330
23
100
AcDbEntity
  8
0
100
AcDbBlockBegin
  2
*Paper_Space0
 70
     0
 10
0.0
 20
0.0
 30
0.0
  3
*Paper_Space0
  1

  0
ENDBLK
  5
25
330
23
100
AcDbEntity
  8
0
100
AcDbBlockEnd
  0
BLOCK
  5
81
330
7F
100
AcDbEntity
  8
0
100
AcDbBlockBegin
  2
block 2
 70
     0
 10
0.0
 20
0.0
 30
0.0
  3
block 2
  1

  0
POLYLINE
  5
83
330
7F
100
AcDbEntity
  8
_U+30EC_U+30A4_U+30E4_U+30FC 1
 62
   179
420
  2234388
370
     9
100
AcDb2dPolyline
 66
     1
 10
0.0
 20
0.0
 30
0.0
  0
VERTEX
  5
84
330
83
100
AcDbEntity
  8
_U+30EC_U+30A4_U+30E4_U+30FC 1
 62
   179
420
  2234388
370
     9
100
AcDbVertex
100
AcDb2dVertex
 10
73.18865174391304
 20
-118.9358880258215
 30
0.0
  0
VERTEX
  5
85
330
83
100
AcDbEntity
  8
_U+30EC_U+30A4_U+30E4_U+30FC 1
 62
   179
420
  2234388
370
     9
100
AcDbVertex
100
AcDb2dVertex
 10
98.18867166166496
 20
-118.9358880258215
 30
0.0
  0
SEQEND
  5
86
330
83
100
AcDbEntity
  8
_U+30EC_U+30A4_U+30E4_U+30FC 1
 62
   179
420
  2234388
370
     9
  0
POLYLINE
  5
87
330
7F
100
AcDbEntity
  8
_U+30EC_U+30A4_U+30E4_U+30FC 1
 62
   179
420
  2234388
370
     9
100
AcDb2dPolyline
 66
     1
 10
0.0
 20
0.0
 30
0.0
  0
VERTEX
  5
88
330
87
100
AcDbEntity
  8
_U+30EC_U+30A4_U+30E4_U+30FC 1
 62
   179
420
  2234388
370
     9
100
AcDbVertex
100
AcDb2dVertex
 10
73.18865174391304
 20
-120.3959294143456
 30
0.0
  0
VERTEX
  5
89
330
87
100
AcDbEntity
  8
_U+30EC_U+30A4_U+30E4_U+30FC 1
 62
   179
420
  2234388
370
     9
100
AcDbVertex
100
AcDb2dVertex
 10
73.18865174391304
 20
-117.9361158038493
 30
0.0
  0
SEQEND
  5
8A
330
87
100
AcDbEntity
  8
_U+30EC_U+30A4_U+30E4_U+30FC 1
 62
   179
420
  2234388
370
     9
  0
POLYLINE
  5
8B
330
7F
100
AcDbEntity
  8
_U+30EC_U+30A4_U+30E4_U+30FC 1
 62
   179
420
  2234388
370
     9
100
AcDb2dPolyline
 66
     1
 10
0.0
 20
0.0
 30
0.0
  0
VERTEX
  5
8C
330
8B
100
AcDbEntity
  8
_U+30EC_U+30A4_U+30E4_U+30FC 1
 62
   179
420
  2234388
370
     9
100
AcDbVertex
100
AcDb2dVertex
 10
98.18867166166496
 20
-120.3959294143456
 30
0.0
  0
VERTEX
  5
8D
330
8B
100
AcDbEntity
  8
_U+30EC_U+30A4_U+30E4_U+30FC 1
 62
   179
420
  2234388
370
     9
100
AcDbVertex
100
AcDb2dVertex
 10
98.18867166166496
 20
-117.9361158038493
 30
0.0
  0
SEQEND
  5
8E
330
8B
100
AcDbEntity
  8
_U+30EC_U+30A4_U+30E4_U+30FC 1
 62
   179
420
  2234388
370
     9
  0
INSERT
  5
90
330
7F
100
AcDbEntity
  8
_U+30EC_U+30A4_U+30E4_U+30FC 1
100
AcDbBlockReference
  2
block 3
 10
0.0
 20
0.0
 30
0.0
  0
ENDBLK
  5
82
330
7F
100
AcDbEntity
  8
0
100
AcDbBlockEnd
  0
BLOCK
  5
91
330
8F
100
AcDbEntity
  8
0
100
AcDbBlockBegin
  2
block 3
 70
     0
 10
0.0
 20
0.0
 30
0.0
  3
block 3
  1

  0
SPLINE
  5
93
330
8F
100
AcDbEntity
  8
_U+30EC_U+30A4_U+30E4_U+30FC 1
370
     0
100
AcDbSpline
210
0.0
220
0.0
230
1.0
 70
    11
 71
     3
 72
    44
 73
    40
 74
     0
 42
0.0000000001
 43
0.0000000001
 12
1.0
 22
0.0
 32
0.0
 13
1.0
 23
0.0
 33
0.0
 40
0.0
 40
0.0
 40
0.0
 40
0.0
 40
1.0
 40
1.0
 40
1.0
 40
2.0
 40
2.0
 40
2.0
 40
3.0
 40
3.0
 40
3.0
 40
4.0
 40
4.0
 40
4.0
 40
5.0
 40
5.0
 40
5.0
 40
6.0
 40
6.0
 40
6.0
 40
7.0
 40
7.0
 40
7.0
 40
8.0
 40
8.0
 40
8.0
 40
9.0
 40
9.0
 40
9.0
 40
10.0
 40
10.0
 40
10.0
 40
11.0
 40
11.0
 40
11.0
 40
12.0
 40
12.0
 40
12.0
 40
13.0
 40
13.0
 40
13.0
 40
13.0
 10
85.19324949042044
 20
-117.709094208854
 30
0.0
 10
84.97534720097839
 20
-117.8677408559497
 30
0.0
 10
84.88215736810238
 20
-117.9418104088826
 30
0.0
 10
84.83358152176037
 20
-118.0856431453918
 30
0.0
 10
84.83358152176037
 20
-118.0856431453918
 30
0.0
 10
85.61200084665256
 20
-118.0856431453918
 30
0.0
 10
85.61200084665256
 20
-118.0856431453918
 30
0.0
 10
85.61200084665256
 20
-118.0856431453918
 30
0.0
 10
85.61200084665256
 20
-118.2907985815384
 30
0.0
 10
85.61200084665256
 20
-118.2907985815384
 30
0.0
 10
85.61200084665256
 20
-118.2907985815384
 30
0.0
 10
84.583984353854
 20
-118.2907985815384
 30
0.0
 10
84.583984353854
 20
-118.2907985815384
 30
0.0
 10
84.6156792323183
 20
-117.9331976701695
 30
0.0
 10
84.68113604653806
 20
-117.8549940026543
 30
0.0
 10
85.06629772178898
 20
-117.5566487336317
 30
0.0
 10
85.32226831634304
 20
-117.3578667241328
 30
0.0
 10
85.3877251305628
 20
-117.2901705978476
 30
0.0
 10
85.3877251305628
 20
-117.1527112879861
 30
0.0
 10
85.3877251305628
 20
-117.0342000032935
 30
0.0
 10
85.31589488969533
 20
-116.9031141200798
 30
0.0
 10
85.11917993748757
 20
-116.9031141200798
 30
0.0
 10
84.85890297357695
 20
-116.9031141200798
 30
0.0
 10
84.85046248963808
 20
-117.133591008043
 30
0.0
 10
84.84615612028152
 20
-117.2500352354444
 30
0.0
 10
84.84615612028152
 20
-117.2500352354444
 30
0.0
 10
84.62205265896601
 20
-117.2500352354444
 30
0.0
 10
84.62205265896601
 20
-117.2500352354444
 30
0.0
 10
84.63049314290488
 20
-117.123083466813
 30
0.0
 10
84.6410006841349
 20
-117.0109456087681
 30
0.0
 10
84.72144366371548
 20
-116.8924343240755
 30
0.0
 10
84.83134220969495
 20
-116.7317206196886
 30
0.0
 10
85.0175496206727
 20
-116.6977864291589
 30
0.0
 10
85.13399384807414
 20
-116.6977864291589
 30
0.0
 10
85.4111517798625
 20
-116.6977864291589
 30
0.0
 10
85.61837427330028
 20
-116.8819267828455
 30
0.0
 10
85.61837427330028
 20
-117.1547783452773
 30
0.0
 10
85.61837427330028
 20
-117.3831881759493
 30
0.0
 10
85.50210230067309
 20
-117.4827514354731
 30
0.0
 10
85.19324949042044
 20
-117.709094208854
 30
0.0
  0
HATCH
  5
94
330
8F
100
AcDbEntity
  8
_U+30EC_U+30A4_U+30E4_U+30FC 1
 62
   179
420
  2234388
100
AcDbHatch
 10
0.0
 20
0.0
 30
0.0
210
0.0
220
0.0
230
1.0
  2
SOLID
 70
     1
 71
     0
 91
        1
 92
        1
 93
        1
 72
     4
 94
        3
 73
     0
 74
     1
 95
       44
 96
       40
 40
0.0
 40
0.0
 40
0.0
 40
0.0
 40
1.0
 40
1.0
 40
1.0
 40
2.0
 40
2.0
 40
2.0
 40
3.0
 40
3.0
 40
3.0
 40
4.0
 40
4.0
 40
4.0
 40
5.0
 40
5.0
 40
5.0
 40
6.0
 40
6.0
 40
6.0
 40
7.0
 40
7.0
 40
7.0
 40
8.0
 40
8.0
 40
8.0
 40
9.0
 40
9.0
 40
9.0
 40
10.0
 40
10.0
 40
10.0
 40
11.0
 40
11.0
 40
11.0
 40
12.0
 40
12.0
 40
12.0
 40
13.0
 40
13.0
 40
13.0
 40
13.0
 10
85.19324949042044
 20
-117.709094208854
 10
84.97534720097839
 20
-117.8677408559497
 10
84.88215736810238
 20
-117.9418104088826
 10
84.83358152176037
 20
-118.0856431453918
 10
84.83358152176037
 20
-118.0856431453918
 10
85.61200084665256
 20
-118.0856431453918
 10
85.61200084665256
 20
-118.0856431453918
 10
85.61200084665256
 20
-118.0856431453918
 10
85.61200084665256
 20
-118.2907985815384
 10
85.61200084665256
 20
-118.2907985815384
 10
85.61200084665256
 20
-118.2907985815384
 10
84.583984353854
 20
-118.2907985815384
 10
84.583984353854
 20
-118.2907985815384
 10
84.6156792323183
 20
-117.9331976701695
 10
84.68113604653806
 20
-117.8549940026543
 10
85.06629772178898
 20
-117.5566487336317
 10
85.32226831634304
 20
-117.3578667241328
 10
85.3877251305628
 20
-117.2901705978476
 10
85.3877251305628
 20
-117.1527112879861
 10
85.3877251305628
 20
-117.0342000032935
 10
85.31589488969533
 20
-116.9031141200798
 10
85.11917993748757
 20
-116.9031141200798
 10
84.85890297357695
 20
-116.9031141200798
 10
84.85046248963808
 20
-117.133591008043
 10
84.84615612028152
 20
-117.2500352354444
 10
84.84615612028152
 20
-117.2500352354444
 10
84.62205265896601
 20
-117.2500352354444
 10
84.62205265896601
 20
-117.2500352354444
 10
84.63049314290488
 20
-117.123083466813
 10
84.6410006841349
 20
-117.0109456087681
 10
84.72144366371548
 20
-116.8924343240755
 10
84.83134220969495
 20
-116.7317206196886
 10
85.0175496206727
 20
-116.6977864291589
 10
85.13399384807414
 20
-116.6977864291589
 10
85.4111517798625
 20
-116.6977864291589
 10
85.61837427330028
 20
-116.8819267828455
 10
85.61837427330028
 20
-117.1547783452773
 10
85.61837427330028
 20
-117.3831881759493
 10
85.50210230067309
 20
-117.4827514354731
 10
85.19324949042044
 20
-117.709094208854
 97
        0
 97
        0
 75
     2
 76
     1
 98
        0
  0
SPLINE
  5
95
330
8F
100
AcDbEntity
  8
_U+30EC_U+30A4_U+30E4_U+30FC 1
370
     0
100
AcDbSpline
210
0.0
220
0.0
230
1.0
 70
    11
 71
     3
 72
    53
 73
    49
 74
     0
 42
0.0000000001
 43
0.0000000001
 12
1.0
 22
0.0
 32
0.0
 13
1.0
 23
0.0
 33
0.0
 40
0.0
 40
0.0
 40
0.0
 40
0.0
 40
1.0
 40
1.0
 40
1.0
 40
2.0
 40
2.0
 40
2.0
 40
3.0
 40
3.0
 40
3.0
 40
4.0
 40
4.0
 40
4.0
 40
5.0
 40
5.0
 40
5.0
 40
6.0
 40
6.0
 40
6.0
 40
7.0
 40
7.0
 40
7.0
 40
8.0
 40
8.0
 40
8.0
 40
9.0
 40
9.0
 40
9.0
 40
10.0
 40
10.0
 40
10.0
 40
11.0
 40
11.0
 40
11.0
 40
12.0
 40
12.0
 40
12.0
 40
13.0
 40
13.0
 40
13.0
 40
14.0
 40
14.0
 40
14.0
 40
15.0
 40
15.0
 40
15.0
 40
16.0
 40
16.0
 40
16.0
 40
16.0
 10
86.2579562501369
 20
-118.3416137399459
 30
0.0
 10
86.17975258262173
 20
-118.3416137399459
 30
0.0
 10
86.07812226580687
 20
-118.3245605172939
 30
0.0
 10
85.97649194899199
 20
-118.2611707603653
 30
0.0
 10
85.80303139130966
 20
-118.1510999596115
 30
0.0
 10
85.78184405407538
 20
-118.0200140763978
 30
0.0
 10
85.7628960289065
 20
-117.9121825877095
 30
0.0
 10
85.7628960289065
 20
-117.9121825877095
 30
0.0
 10
85.98510468770512
 20
-117.9121825877095
 30
0.0
 10
85.98510468770512
 20
-117.9121825877095
 30
0.0
 10
86.03988170592059
 20
-118.1109645972084
 30
0.0
 10
86.1670057293263
 20
-118.1405924183815
 30
0.0
 10
86.26002330742806
 20
-118.1405924183815
 30
0.0
 10
86.39954967458067
 20
-118.1405924183815
 30
0.0
 10
86.55182289502872
 20
-118.0412014136321
 30
0.0
 10
86.55182289502872
 20
-117.8084852136034
 30
0.0
 10
86.55182289502872
 20
-117.5525146190494
 30
0.0
 10
86.37198891069868
 20
-117.4827514354731
 30
0.0
 10
86.25141056871493
 20
-117.4827514354731
 30
0.0
 10
86.21971569025062
 20
-117.4827514354731
 30
0.0
 10
86.07812226580687
 20
-117.4827514354731
 30
0.0
 10
85.98923880228742
 20
-117.6117702613957
 30
0.0
 10
85.98923880228742
 20
-117.6117702613957
 30
0.0
 10
85.81371118731394
 20
-117.5926499814525
 30
0.0
 10
85.81371118731394
 20
-117.5926499814525
 30
0.0
 10
85.81371118731394
 20
-117.5926499814525
 30
0.0
 10
85.93411727452342
 20
-116.7465345302752
 30
0.0
 10
85.93411727452342
 20
-116.7465345302752
 30
0.0
 10
85.93411727452342
 20
-116.7465345302752
 30
0.0
 10
86.71270885418988
 20
-116.7465345302752
 30
0.0
 10
86.71270885418988
 20
-116.7465345302752
 30
0.0
 10
86.71270885418988
 20
-116.7465345302752
 30
0.0
 10
86.71270885418988
 20
-116.9411824251918
 30
0.0
 10
86.71270885418988
 20
-116.9411824251918
 30
0.0
 10
86.71270885418988
 20
-116.9411824251918
 30
0.0
 10
86.09707029097574
 20
-116.9411824251918
 30
0.0
 10
86.09707029097574
 20
-116.9411824251918
 30
0.0
 10
86.09707029097574
 20
-116.9411824251918
 30
0.0
 10
86.031613476756
 20
-117.3642401507805
 30
0.0
 10
86.031613476756
 20
-117.3642401507805
 30
0.0
 10
86.09293617639344
 20
-117.3303059602508
 30
0.0
 10
86.1752739584909
 20
-117.2901705978476
 30
0.0
 10
86.2937852431835
 20
-117.2901705978476
 30
0.0
 10
86.54768878044642
 20
-117.2901705978476
 30
0.0
 10
86.78471134983161
 20
-117.4763780088253
 30
0.0
 10
86.78471134983161
 20
-117.7893649336603
 30
0.0
 10
86.78471134983161
 20
-118.1068304826261
 30
0.0
 10
86.56043563374185
 20
-118.3416137399459
 30
0.0
 10
86.2579562501369
 20
-118.3416137399459
 30
0.0
  0
HATCH
  5
96
330
8F
100
AcDbEntity
  8
_U+30EC_U+30A4_U+30E4_U+30FC 1
 62
   179
420
  2234388
100
AcDbHatch
 10
0.0
 20
0.0
 30
0.0
210
0.0
220
0.0
230
1.0
  2
SOLID
 70
     1
 71
     0
 91
        1
 92
        1
 93
        1
 72
     4
 94
        3
 73
     0
 74
     1
 95
       53
 96
       49
 40
0.0
 40
0.0
 40
0.0
 40
0.0
 40
1.0
 40
1.0
 40
1.0
 40
2.0
 40
2.0
 40
2.0
 40
3.0
 40
3.0
 40
3.0
 40
4.0
 40
4.0
 40
4.0
 40
5.0
 40
5.0
 40
5.0
 40
6.0
 40
6.0
 40
6.0
 40
7.0
 40
7.0
 40
7.0
 40
8.0
 40
8.0
 40
8.0
 40
9.0
 40
9.0
 40
9.0
 40
10.0
 40
10.0
 40
10.0
 40
11.0
 40
11.0
 40
11.0
 40
12.0
 40
12.0
 40
12.0
 40
13.0
 40
13.0
 40
13.0
 40
14.0
 40
14.0
 40
14.0
 40
15.0
 40
15.0
 40
15.0
 40
16.0
 40
16.0
 40
16.0
 40
16.0
 10
86.2579562501369
 20
-118.3416137399459
 10
86.17975258262173
 20
-118.3416137399459
 10
86.07812226580687
 20
-118.3245605172939
 10
85.97649194899199
 20
-118.2611707603653
 10
85.80303139130966
 20
-118.1510999596115
 10
85.78184405407538
 20
-118.0200140763978
 10
85.7628960289065
 20
-117.9121825877095
 10
85.7628960289065
 20
-117.9121825877095
 10
85.98510468770512
 20
-117.9121825877095
 10
85.98510468770512
 20
-117.9121825877095
 10
86.03988170592059
 20
-118.1109645972084
 10
86.1670057293263
 20
-118.1405924183815
 10
86.26002330742806
 20
-118.1405924183815
 10
86.39954967458067
 20
-118.1405924183815
 10
86.55182289502872
 20
-118.0412014136321
 10
86.55182289502872
 20
-117.8084852136034
 10
86.55182289502872
 20
-117.5525146190494
 10
86.37198891069868
 20
-117.4827514354731
 10
86.25141056871493
 20
-117.4827514354731
 10
86.21971569025062
 20
-117.4827514354731
 10
86.07812226580687
 20
-117.4827514354731
 10
85.98923880228742
 20
-117.6117702613957
 10
85.98923880228742
 20
-117.6117702613957
 10
85.81371118731394
 20
-117.5926499814525
 10
85.81371118731394
 20
-117.5926499814525
 10
85.81371118731394
 20
-117.5926499814525
 10
85.93411727452342
 20
-116.7465345302752
 10
85.93411727452342
 20
-116.7465345302752
 10
85.93411727452342
 20
-116.7465345302752
 10
86.71270885418988
 20
-116.7465345302752
 10
86.71270885418988
 20
-116.7465345302752
 10
86.71270885418988
 20
-116.7465345302752
 10
86.71270885418988
 20
-116.9411824251918
 10
86.71270885418988
 20
-116.9411824251918
 10
86.71270885418988
 20
-116.9411824251918
 10
86.09707029097574
 20
-116.9411824251918
 10
86.09707029097574
 20
-116.9411824251918
 10
86.09707029097574
 20
-116.9411824251918
 10
86.031613476756
 20
-117.3642401507805
 10
86.031613476756
 20
-117.3642401507805
 10
86.09293617639344
 20
-117.3303059602508
 10
86.1752739584909
 20
-117.2901705978476
 10
86.2937852431835
 20
-117.2901705978476
 10
86.54768878044642
 20
-117.2901705978476
 10
86.78471134983161
 20
-117.4763780088253
 10
86.78471134983161
 20
-117.7893649336603
 10
86.78471134983161
 20
-118.1068304826261
 10
86.56043563374185
 20
-118.3416137399459
 10
86.2579562501369
 20
-118.3416137399459
 97
        0
 97
        0
 75
     2
 76
     1
 98
        0
  0
ENDBLK
  5
92
330
8F
100
AcDbEntity
  8
0
100
AcDbBlockEnd
  0
BLOCK
  5
99
330
97
100
AcDbEntity
  8
0
100
AcDbBlockBegin
  2
block 4
 70
     0
 10
0.0
 20
0.0
 30
0.0
  3
block 4
  1

  0
POLYLINE
  5
9B
330
97
100
AcDbEntity
  8
_U+30EC_U+30A4_U+30E4_U+30FC 1
 62
   179
420
  2234388
370
     9
100
AcDb2dPolyline
 66
     1
 10
0.0
 20
0.0
 30
0.0
  0
VERTEX
  5
9C
330
9B
100
AcDbEntity
  8
_U+30EC_U+30A4_U+30E4_U+30FC 1
 62
   179
420
  2234388
370
     9
100
AcDbVertex
100
AcDb2dVertex
 10
73.18865174391304
 20
-140.9360980203214
 30
0.0
  0
VERTEX
  5
9D
330
9B
100
AcDbEntity
  8
_U+30EC_U+30A4_U+30E4_U+30FC 1
 62
   179
420
  2234388
370
     9
100
AcDbVertex
100
AcDb2dVertex
 10
78.18850050524517
 20
-140.9360980203214
 30
0.0
  0
SEQEND
  5
9E
330
9B
100
AcDbEntity
  8
_U+30EC_U+30A4_U+30E4_U+30FC 1
 62
   179
420
  2234388
370
     9
  0
POLYLINE
  5
9F
330
97
100
AcDbEntity
  8
_U+30EC_U+30A4_U+30E4_U+30FC 1
 62
   179
420
  2234388
370
     9
100
AcDb2dPolyline
 66
     1
 10
0.0
 20
0.0
 30
0.0
  0
VERTEX
  5
A0
330
9F
100
AcDbEntity
  8
_U+30EC_U+30A4_U+30E4_U+30FC 1
 62
   179
420
  2234388
370
     9
100
AcDbVertex
100
AcDb2dVertex
 10
73.18865174391304
 20
-139.4760566317977
 30
0.0
  0
VERTEX
  5
A1
330
9F
100
AcDbEntity
  8
_U+30EC_U+30A4_U+30E4_U+30FC 1
 62
   179
420
  2234388
370
     9
100
AcDbVertex
100
AcDb2dVertex
 10
73.18865174391304
 20
-141.935870242294
 30
0.0
  0
SEQEND
  5
A2
330
9F
100
AcDbEntity
  8
_U+30EC_U+30A4_U+30E4_U+30FC 1
 62
   179
420
  2234388
370
     9
  0
POLYLINE
  5
A3
330
97
100
AcDbEntity
  8
_U+30EC_U+30A4_U+30E4_U+30FC 1
 62
   179
420
  2234388
370
     9
100
AcDb2dPolyline
 66
     1
 10
0.0
 20
0.0
 30
0.0
  0
VERTEX
  5
A4
330
A3
100
AcDbEntity
  8
_U+30EC_U+30A4_U+30E4_U+30FC 1
 62
   179
420
  2234388
370
     9
100
AcDbVertex
100
AcDb2dVertex
 10
78.18850050524517
 20
-139.4760566317977
 30
0.0
  0
VERTEX
  5
A5
330
A3
100
AcDbEntity
  8
_U+30EC_U+30A4_U+30E4_U+30FC 1
 62
   179
420
  2234388
370
     9
100
AcDbVertex
100
AcDb2dVertex
 10
78.18850050524517
 20
-141.935870242294
 30
0.0
  0
SEQEND
  5
A6
330
A3
100
AcDbEntity
  8
_U+30EC_U+30A4_U+30E4_U+30FC 1
 62
   179
420
  2234388
370
     9
  0
INSERT
  5
A8
330
97
100
AcDbEntity
  8
_U+30EC_U+30A4_U+30E4_U+30FC 1
100
AcDbBlockReference
  2
block 5
 10
0.0
 20
0.0
 30
0.0
  0
ENDBLK
  5
9A
330
97
100
AcDbEntity
  8
0
100
AcDbBlockEnd
  0
BLOCK
  5
A9
330
A7
100
AcDbEntity
  8
0
100
AcDbBlockBegin
  2
block 5
 70
     0
 10
0.0
 20
0.0
 30
0.0
  3
block 5
  1

  0
SPLINE
  5
AB
330
A7
100
AcDbEntity
  8
_U+30EC_U+30A4_U+30E4_U+30FC 1
370
     0
100
AcDbSpline
210
0.0
220
0.0
230
1.0
 70
    11
 71
     3
 72
    53
 73
    49
 74
     0
 42
0.0000000001
 43
0.0000000001
 12
1.0
 22
0.0
 32
0.0
 13
1.0
 23
0.0
 33
0.0
 40
0.0
 40
0.0
 40
0.0
 40
0.0
 40
1.0
 40
1.0
 40
1.0
 40
2.0
 40
2.0
 40
2.0
 40
3.0
 40
3.0
 40
3.0
 40
4.0
 40
4.0
 40
4.0
 40
5.0
 40
5.0
 40
5.0
 40
6.0
 40
6.0
 40
6.0
 40
7.0
 40
7.0
 40
7.0
 40
8.0
 40
8.0
 40
8.0
 40
9.0
 40
9.0
 40
9.0
 40
10.0
 40
10.0
 40
10.0
 40
11.0
 40
11.0
 40
11.0
 40
12.0
 40
12.0
 40
12.0
 40
13.0
 40
13.0
 40
13.0
 40
14.0
 40
14.0
 40
14.0
 40
15.0
 40
15.0
 40
15.0
 40
16.0
 40
16.0
 40
16.0
 40
16.0
 10
75.66945527622153
 20
-140.3414767444285
 30
0.0
 10
75.59107935393209
 20
-140.3414767444285
 30
0.0
 10
75.48962129189148
 20
-140.3245957765508
 30
0.0
 10
75.38799097507662
 20
-140.2612060196222
 30
0.0
 10
75.21453041739429
 20
-140.1513074736427
 30
0.0
 10
75.19334308016
 20
-140.0200493356547
 30
0.0
 10
75.17439505499112
 20
-139.9122178469664
 30
0.0
 10
75.17439505499112
 20
-139.9122178469664
 30
0.0
 10
75.39643145901547
 20
-139.9122178469664
 30
0.0
 10
75.39643145901547
 20
-139.9122178469664
 30
0.0
 10
75.45155298677948
 20
-140.1109998564653
 30
0.0
 10
75.57850475541093
 20
-140.1406276776385
 30
0.0
 10
75.67152233351268
 20
-140.1406276776385
 30
0.0
 10
75.8110487006653
 20
-140.1406276776385
 30
0.0
 10
75.9634941758876
 20
-140.0410644181147
 30
0.0
 10
75.9634941758876
 20
-139.8085204728604
 30
0.0
 10
75.9634941758876
 20
-139.5525498783063
 30
0.0
 10
75.78366019155756
 20
-139.4826144399557
 30
0.0
 10
75.66308184957381
 20
-139.4826144399557
 30
0.0
 10
75.63138697110952
 20
-139.4826144399557
 30
0.0
 10
75.48962129189148
 20
-139.4826144399557
 30
0.0
 10
75.40073782837204
 20
-139.6118055206526
 30
0.0
 10
75.40073782837204
 20
-139.6118055206526
 30
0.0
 10
75.22521021339857
 20
-139.5928574954837
 30
0.0
 10
75.22521021339857
 20
-139.5928574954837
 30
0.0
 10
75.22521021339857
 20
-139.5928574954837
 30
0.0
 10
75.34578855538231
 20
-138.7463975347578
 30
0.0
 10
75.34578855538231
 20
-138.7463975347578
 30
0.0
 10
75.34578855538231
 20
-138.7463975347578
 30
0.0
 10
76.12420788027451
 20
-138.7463975347578
 30
0.0
 10
76.12420788027451
 20
-138.7463975347578
 30
0.0
 10
76.12420788027451
 20
-138.7463975347578
 30
0.0
 10
76.12420788027451
 20
-138.9410454296745
 30
0.0
 10
76.12420788027451
 20
-138.9410454296745
 30
0.0
 10
76.12420788027451
 20
-138.9410454296745
 30
0.0
 10
75.50856931706036
 20
-138.9410454296745
 30
0.0
 10
75.50856931706036
 20
-138.9410454296745
 30
0.0
 10
75.50856931706036
 20
-138.9410454296745
 30
0.0
 10
75.44311250284062
 20
-139.3641031552631
 30
0.0
 10
75.44311250284062
 20
-139.3641031552631
 30
0.0
 10
75.50443520247806
 20
-139.3303412195077
 30
0.0
 10
75.58694523934979
 20
-139.2900336023303
 30
0.0
 10
75.70528426926813
 20
-139.2900336023303
 30
0.0
 10
75.95918780653103
 20
-139.2900336023303
 30
0.0
 10
76.19621037591622
 20
-139.4764132680823
 30
0.0
 10
76.19621037591622
 20
-139.7895724476915
 30
0.0
 10
76.19621037591622
 20
-140.106865741883
 30
0.0
 10
75.97193465982646
 20
-140.3414767444285
 30
0.0
 10
75.66945527622153
 20
-140.3414767444285
 30
0.0
  0
HATCH
  5
AC
330
A7
100
AcDbEntity
  8
_U+30EC_U+30A4_U+30E4_U+30FC 1
 62
   179
420
  2234388
100
AcDbHatch
 10
0.0
 20
0.0
 30
0.0
210
0.0
220
0.0
230
1.0
  2
SOLID
 70
     1
 71
     0
 91
        1
 92
        1
 93
        1
 72
     4
 94
        3
 73
     0
 74
     1
 95
       53
 96
       49
 40
0.0
 40
0.0
 40
0.0
 40
0.0
 40
1.0
 40
1.0
 40
1.0
 40
2.0
 40
2.0
 40
2.0
 40
3.0
 40
3.0
 40
3.0
 40
4.0
 40
4.0
 40
4.0
 40
5.0
 40
5.0
 40
5.0
 40
6.0
 40
6.0
 40
6.0
 40
7.0
 40
7.0
 40
7.0
 40
8.0
 40
8.0
 40
8.0
 40
9.0
 40
9.0
 40
9.0
 40
10.0
 40
10.0
 40
10.0
 40
11.0
 40
11.0
 40
11.0
 40
12.0
 40
12.0
 40
12.0
 40
13.0
 40
13.0
 40
13.0
 40
14.0
 40
14.0
 40
14.0
 40
15.0
 40
15.0
 40
15.0
 40
16.0
 40
16.0
 40
16.0
 40
16.0
 10
75.66945527622153
 20
-140.3414767444285
 10
75.59107935393209
 20
-140.3414767444285
 10
75.48962129189148
 20
-140.3245957765508
 10
75.38799097507662
 20
-140.2612060196222
 10
75.21453041739429
 20
-140.1513074736427
 10
75.19334308016
 20
-140.0200493356547
 10
75.17439505499112
 20
-139.9122178469664
 10
75.17439505499112
 20
-139.9122178469664
 10
75.39643145901547
 20
-139.9122178469664
 10
75.39643145901547
 20
-139.9122178469664
 10
75.45155298677948
 20
-140.1109998564653
 10
75.57850475541093
 20
-140.1406276776385
 10
75.67152233351268
 20
-140.1406276776385
 10
75.8110487006653
 20
-140.1406276776385
 10
75.9634941758876
 20
-140.0410644181147
 10
75.9634941758876
 20
-139.8085204728604
 10
75.9634941758876
 20
-139.5525498783063
 10
75.78366019155756
 20
-139.4826144399557
 10
75.66308184957381
 20
-139.4826144399557
 10
75.63138697110952
 20
-139.4826144399557
 10
75.48962129189148
 20
-139.4826144399557
 10
75.40073782837204
 20
-139.6118055206526
 10
75.40073782837204
 20
-139.6118055206526
 10
75.22521021339857
 20
-139.5928574954837
 10
75.22521021339857
 20
-139.5928574954837
 10
75.22521021339857
 20
-139.5928574954837
 10
75.34578855538231
 20
-138.7463975347578
 10
75.34578855538231
 20
-138.7463975347578
 10
75.34578855538231
 20
-138.7463975347578
 10
76.12420788027451
 20
-138.7463975347578
 10
76.12420788027451
 20
-138.7463975347578
 10
76.12420788027451
 20
-138.7463975347578
 10
76.12420788027451
 20
-138.9410454296745
 10
76.12420788027451
 20
-138.9410454296745
 10
76.12420788027451
 20
-138.9410454296745
 10
75.50856931706036
 20
-138.9410454296745
 10
75.50856931706036
 20
-138.9410454296745
 10
75.50856931706036
 20
-138.9410454296745
 10
75.44311250284062
 20
-139.3641031552631
 10
75.44311250284062
 20
-139.3641031552631
 10
75.50443520247806
 20
-139.3303412195077
 10
75.58694523934979
 20
-139.2900336023303
 10
75.70528426926813
 20
-139.2900336023303
 10
75.95918780653103
 20
-139.2900336023303
 10
76.19621037591622
 20
-139.4764132680823
 10
76.19621037591622
 20
-139.7895724476915
 10
76.19621037591622
 20
-140.106865741883
 10
75.97193465982646
 20
-140.3414767444285
 10
75.66945527622153
 20
-140.3414767444285
 97
        0
 97
        0
 75
     2
 76
     1
 98
        0
  0
ENDBLK
  5
AA
330
A7
100
AcDbEntity
  8
0
100
AcDbBlockEnd
  0
BLOCK
  5
AF
330
AD
100
AcDbEntity
  8
0
100
AcDbBlockBegin
  2
block 6
 70
     0
 10
0.0
 20
0.0
 30
0.0
  3
block 6
  1

  0
POLYLINE
  5
B1
330
AD
100
AcDbEntity
  8
_U+30EC_U+30A4_U+30E4_U+30FC 1
 62
   179
420
  2234388
370
     9
100
AcDb2dPolyline
 66
     1
 10
0.0
 20
0.0
 30
0.0
  0
VERTEX
  5
B2
330
B1
100
AcDbEntity
  8
_U+30EC_U+30A4_U+30E4_U+30FC 1
 62
   179
420
  2234388
370
     9
100
AcDbVertex
100
AcDb2dVertex
 10
102.1884333077861
 20
-122.9363527470436
 30
0.0
  0
VERTEX
  5
B3
330
B1
100
AcDbEntity
  8
_U+30EC_U+30A4_U+30E4_U+30FC 1
 62
   179
420
  2234388
370
     9
100
AcDbVertex
100
AcDb2dVertex
 10
102.1884333077861
 20
-119.1660402479862
 30
0.0
  0
SEQEND
  5
B4
330
B1
100
AcDbEntity
  8
_U+30EC_U+30A4_U+30E4_U+30FC 1
 62
   179
420
  2234388
370
     9
  0
POLYLINE
  5
B5
330
AD
100
AcDbEntity
  8
_U+30EC_U+30A4_U+30E4_U+30FC 1
 62
   179
420
  2234388
370
     9
100
AcDb2dPolyline
 66
     1
 10
0.0
 20
0.0
 30
0.0
  0
VERTEX
  5
B6
330
B5
100
AcDbEntity
  8
_U+30EC_U+30A4_U+30E4_U+30FC 1
 62
   179
420
  2234388
370
     9
100
AcDbVertex
100
AcDb2dVertex
 10
102.1884333077861
 20
-122.9363527470436
 30
0.0
  0
VERTEX
  5
B7
330
B5
100
AcDbEntity
  8
_U+30EC_U+30A4_U+30E4_U+30FC 1
 62
   179
420
  2234388
370
     9
100
AcDbVertex
100
AcDb2dVertex
 10
102.1884333077861
 20
-123.9360896912383
 30
0.0
  0
SEQEND
  5
B8
330
B5
100
AcDbEntity
  8
_U+30EC_U+30A4_U+30E4_U+30FC 1
 62
   179
420
  2234388
370
     9
  0
POLYLINE
  5
B9
330
AD
100
AcDbEntity
  8
_U+30EC_U+30A4_U+30E4_U+30FC 1
 62
   179
420
  2234388
370
     9
100
AcDb2dPolyline
 66
     1
 10
0.0
 20
0.0
 30
0.0
  0
VERTEX
  5
BA
330
B9
100
AcDbEntity
  8
_U+30EC_U+30A4_U+30E4_U+30FC 1
 62
   179
420
  2234388
370
     9
100
AcDbVertex
100
AcDb2dVertex
 10
100.7283893746491
 20
-122.9363527470436
 30
0.0
  0
VERTEX
  5
BB
330
B9
100
AcDbEntity
  8
_U+30EC_U+30A4_U+30E4_U+30FC 1
 62
   179
420
  2234388
370
     9
100
AcDbVertex
100
AcDb2dVertex
 10
103.1888732007659
 20
-122.9363527470436
 30
0.0
  0
SEQEND
  5
BC
330
B9
100
AcDbEntity
  8
_U+30EC_U+30A4_U+30E4_U+30FC 1
 62
   179
420
  2234388
370
     9
  0
POLYLINE
  5
BD
330
AD
100
AcDbEntity
  8
_U+30EC_U+30A4_U+30E4_U+30FC 1
 62
   179
420
  2234388
370
     9
100
AcDb2dPolyline
 66
     1
 10
0.0
 20
0.0
 30
0.0
  0
VERTEX
  5
BE
330
BD
100
AcDbEntity
  8
_U+30EC_U+30A4_U+30E4_U+30FC 1
 62
   179
420
  2234388
370
     9
100
AcDbVertex
100
AcDb2dVertex
 10
100.7283893746491
 20
-123.9360896912383
 30
0.0
  0
VERTEX
  5
BF
330
BD
100
AcDbEntity
  8
_U+30EC_U+30A4_U+30E4_U+30FC 1
 62
   179
420
  2234388
370
     9
100
AcDbVertex
100
AcDb2dVertex
 10
103.1888732007659
 20
-123.9360896912383
 30
0.0
  0
SEQEND
  5
C0
330
BD
100
AcDbEntity
  8
_U+30EC_U+30A4_U+30E4_U+30FC 1
 62
   179
420
  2234388
370
     9
  0
INSERT
  5
C2
330
AD
100
AcDbEntity
  8
_U+30EC_U+30A4_U+30E4_U+30FC 1
100
AcDbBlockReference
  2
block 7
 10
0.0
 20
0.0
 30
0.0
  0
ENDBLK
  5
B0
330
AD
100
AcDbEntity
  8
0
100
AcDbBlockEnd
  0
BLOCK
  5
C3
330
C1
100
AcDbEntity
  8
0
100
AcDbBlockBegin
  2
block 7
 70
     0
 10
0.0
 20
0.0
 30
0.0
  3
block 7
  1

  0
SPLINE
  5
C5
330
C1
100
AcDbEntity
  8
_U+30EC_U+30A4_U+30E4_U+30FC 1
370
     0
100
AcDbSpline
210
0.0
220
0.0
230
1.0
 70
    11
 71
     3
 72
    26
 73
    22
 74
     0
 42
0.0000000001
 43
0.0000000001
 12
1.0
 22
0.0
 32
0.0
 13
1.0
 23
0.0
 33
0.0
 40
0.0
 40
0.0
 40
0.0
 40
0.0
 40
1.0
 40
1.0
 40
1.0
 40
2.0
 40
2.0
 40
2.0
 40
3.0
 40
3.0
 40
3.0
 40
4.0
 40
4.0
 40
4.0
 40
5.0
 40
5.0
 40
5.0
 40
6.0
 40
6.0
 40
6.0
 40
7.0
 40
7.0
 40
7.0
 40
7.0
 10
106.3635335020549
 20
-123.5149413753713
 30
0.0
 10
106.3635335020549
 20
-123.5149413753713
 30
0.0
 10
105.2593803990324
 20
-123.5149413753713
 30
0.0
 10
105.2593803990324
 20
-123.5149413753713
 30
0.0
 10
105.2593803990324
 20
-123.5149413753713
 30
0.0
 10
105.2593803990324
 20
-123.8449815228582
 30
0.0
 10
105.2593803990324
 20
-123.8449815228582
 30
0.0
 10
105.2593803990324
 20
-123.8449815228582
 30
0.0
 10
105.1112412931666
 20
-123.8449815228582
 30
0.0
 10
105.1112412931666
 20
-123.8449815228582
 30
0.0
 10
105.0964273825801
 20
-123.5128743180801
 30
0.0
 10
104.9334743661278
 20
-123.4663655290292
 30
0.0
 10
104.8190971960175
 20
-123.4367377078561
 30
0.0
 10
104.8190971960175
 20
-123.4367377078561
 30
0.0
 10
104.8190971960175
 20
-123.2906656592815
 30
0.0
 10
104.8190971960175
 20
-123.2906656592815
 30
0.0
 10
104.8190971960175
 20
-123.2906656592815
 30
0.0
 10
106.3635335020549
 20
-123.2906656592815
 30
0.0
 10
106.3635335020549
 20
-123.2906656592815
 30
0.0
 10
106.3635335020549
 20
-123.2906656592815
 30
0.0
 10
106.3635335020549
 20
-123.5149413753713
 30
0.0
 10
106.3635335020549
 20
-123.5149413753713
 30
0.0
  0
HATCH
  5
C6
330
C1
100
AcDbEntity
  8
_U+30EC_U+30A4_U+30E4_U+30FC 1
 62
   179
420
  2234388
100
AcDbHatch
 10
0.0
 20
0.0
 30
0.0
210
0.0
220
0.0
230
1.0
  2
SOLID
 70
     1
 71
     0
 91
        1
 92
        1
 93
        1
 72
     4
 94
        3
 73
     0
 74
     1
 95
       26
 96
       22
 40
0.0
 40
0.0
 40
0.0
 40
0.0
 40
1.0
 40
1.0
 40
1.0
 40
2.0
 40
2.0
 40
2.0
 40
3.0
 40
3.0
 40
3.0
 40
4.0
 40
4.0
 40
4.0
 40
5.0
 40
5.0
 40
5.0
 40
6.0
 40
6.0
 40
6.0
 40
7.0
 40
7.0
 40
7.0
 40
7.0
 10
106.3635335020549
 20
-123.5149413753713
 10
106.3635335020549
 20
-123.5149413753713
 10
105.2593803990324
 20
-123.5149413753713
 10
105.2593803990324
 20
-123.5149413753713
 10
105.2593803990324
 20
-123.5149413753713
 10
105.2593803990324
 20
-123.8449815228582
 10
105.2593803990324
 20
-123.8449815228582
 10
105.2593803990324
 20
-123.8449815228582
 10
105.1112412931666
 20
-123.8449815228582
 10
105.1112412931666
 20
-123.8449815228582
 10
105.0964273825801
 20
-123.5128743180801
 10
104.9334743661278
 20
-123.4663655290292
 10
104.8190971960175
 20
-123.4367377078561
 10
104.8190971960175
 20
-123.4367377078561
 10
104.8190971960175
 20
-123.2906656592815
 10
104.8190971960175
 20
-123.2906656592815
 10
104.8190971960175
 20
-123.2906656592815
 10
106.3635335020549
 20
-123.2906656592815
 10
106.3635335020549
 20
-123.2906656592815
 10
106.3635335020549
 20
-123.2906656592815
 10
106.3635335020549
 20
-123.5149413753713
 10
106.3635335020549
 20
-123.5149413753713
 97
        0
 97
        0
 75
     2
 76
     1
 98
        0
  0
ENDBLK
  5
C4
330
C1
100
AcDbEntity
  8
0
100
AcDbBlockEnd
  0
BLOCK
  5
C9
330
C7
100
AcDbEntity
  8
0
100
AcDbBlockBegin
  2
block 8
 70
     0
 10
0.0
 20
0.0
 30
0.0
  3
block 8
  1

  0
POLYLINE
  5
CB
330
C7
100
AcDbEntity
  8
_U+30EC_U+30A4_U+30E4_U+30FC 1
 62
   179
420
  2234388
370
     9
100
AcDb2dPolyline
 66
     1
 10
0.0
 20
0.0
 30
0.0
  0
VERTEX
  5
CC
330
CB
100
AcDbEntity
  8
_U+30EC_U+30A4_U+30E4_U+30FC 1
 62
   179
420
  2234388
370
     9
100
AcDbVertex
100
AcDb2dVertex
 10
102.1884333077861
 20
-136.9363388546545
 30
0.0
  0
VERTEX
  5
CD
330
CB
100
AcDbEntity
  8
_U+30EC_U+30A4_U+30E4_U+30FC 1
 62
   179
420
  2234388
370
     9
100
AcDbVertex
100
AcDb2dVertex
 10
102.1884333077861
 20
-133.9363519109602
 30
0.0
  0
SEQEND
  5
CE
330
CB
100
AcDbEntity
  8
_U+30EC_U+30A4_U+30E4_U+30FC 1
 62
   179
420
  2234388
370
     9
  0
POLYLINE
  5
CF
330
C7
100
AcDbEntity
  8
_U+30EC_U+30A4_U+30E4_U+30FC 1
 62
   179
420
  2234388
370
     9
100
AcDb2dPolyline
 66
     1
 10
0.0
 20
0.0
 30
0.0
  0
VERTEX
  5
D0
330
CF
100
AcDbEntity
  8
_U+30EC_U+30A4_U+30E4_U+30FC 1
 62
   179
420
  2234388
370
     9
100
AcDbVertex
100
AcDb2dVertex
 10
80.72892377376691
 20
-136.9363388546545
 30
0.0
  0
VERTEX
  5
D1
330
CF
100
AcDbEntity
  8
_U+30EC_U+30A4_U+30E4_U+30FC 1
 62
   179
420
  2234388
370
     9
100
AcDbVertex
100
AcDb2dVertex
 10
103.1888732007659
 20
-136.9363388546545
 30
0.0
  0
SEQEND
  5
D2
330
CF
100
AcDbEntity
  8
_U+30EC_U+30A4_U+30E4_U+30FC 1
 62
   179
420
  2234388
370
     9
  0
INSERT
  5
D4
330
C7
100
AcDbEntity
  8
_U+30EC_U+30A4_U+30E4_U+30FC 1
100
AcDbBlockReference
  2
block 9
 10
0.0
 20
0.0
 30
0.0
  0
ENDBLK
  5
CA
330
C7
100
AcDbEntity
  8
0
100
AcDbBlockEnd
  0
BLOCK
  5
D5
330
D3
100
AcDbEntity
  8
0
100
AcDbBlockBegin
  2
block 9
 70
     0
 10
0.0
 20
0.0
 30
0.0
  3
block 9
  1

  0
SPLINE
  5
D7
330
D3
100
AcDbEntity
  8
_U+30EC_U+30A4_U+30E4_U+30FC 1
370
     0
100
AcDbSpline
210
0.0
220
0.0
230
1.0
 70
    11
 71
     3
 72
    62
 73
    58
 74
     0
 42
0.0000000001
 43
0.0000000001
 12
1.0
 22
0.0
 32
0.0
 13
1.0
 23
0.0
 33
0.0
 40
0.0
 40
0.0
 40
0.0
 40
0.0
 40
1.0
 40
1.0
 40
1.0
 40
2.0
 40
2.0
 40
2.0
 40
3.0
 40
3.0
 40
3.0
 40
4.0
 40
4.0
 40
4.0
 40
5.0
 40
5.0
 40
5.0
 40
6.0
 40
6.0
 40
6.0
 40
7.0
 40
7.0
 40
7.0
 40
8.0
 40
8.0
 40
8.0
 40
9.0
 40
9.0
 40
9.0
 40
10.0
 40
10.0
 40
10.0
 40
11.0
 40
11.0
 40
11.0
 40
12.0
 40
12.0
 40
12.0
 40
13.0
 40
13.0
 40
13.0
 40
14.0
 40
14.0
 40
14.0
 40
15.0
 40
15.0
 40
15.0
 40
16.0
 40
16.0
 40
16.0
 40
17.0
 40
17.0
 40
17.0
 40
18.0
 40
18.0
 40
18.0
 40
19.0
 40
19.0
 40
19.0
 40
19.0
 10
101.5931097836295
 20
-135.4470295885341
 30
0.0
 10
101.5931097836295
 20
-135.5424587334755
 30
0.0
 10
101.5720947011695
 20
-135.7601887681433
 30
0.0
 10
101.386059544966
 20
-135.8852457342579
 30
0.0
 10
101.2737494321468
 20
-135.9593152871907
 30
0.0
 10
101.1745306821716
 20
-135.963449401773
 30
0.0
 10
101.0897813332345
 20
-135.9675835163553
 30
0.0
 10
101.0897813332345
 20
-135.9675835163553
 30
0.0
 10
101.0897813332345
 20
-135.7474419148479
 30
0.0
 10
101.0897813332345
 20
-135.7474419148479
 30
0.0
 10
101.1638508861674
 20
-135.7453748575567
 30
0.0
 10
101.3984618887129
 20
-135.735039571101
 30
0.0
 10
101.3984618887129
 20
-135.4515082126649
 30
0.0
 10
101.3984618887129
 20
-135.3140489028034
 30
0.0
 10
101.3288709599108
 20
-135.1614311728069
 30
0.0
 10
101.1004611292388
 20
-135.1614311728069
 30
0.0
 10
100.9840169018373
 20
-135.1614311728069
 30
0.0
 10
100.9354410554953
 20
-135.1996717326931
 30
0.0
 10
100.903746177031
 20
-135.2313666111575
 30
0.0
 10
100.8296766240981
 20
-135.3054361640903
 30
0.0
 10
100.8169297708027
 20
-135.4218803914918
 30
0.0
 10
100.8169297708027
 20
-135.4766574097072
 30
0.0
 10
100.8169297708027
 20
-135.4959499444246
 30
0.0
 10
100.8189968280939
 20
-135.5317789374712
 30
0.0
 10
100.8231309426762
 20
-135.5593397013532
 30
0.0
 10
100.8231309426762
 20
-135.5593397013532
 30
0.0
 10
100.6284830477595
 20
-135.5593397013532
 30
0.0
 10
100.6284830477595
 20
-135.5593397013532
 30
0.0
 10
100.6350287291815
 20
-135.5210991414669
 30
0.0
 10
100.6370957864727
 20
-135.4790689765469
 30
0.0
 10
100.6370957864727
 20
-135.4725232951249
 30
0.0
 10
100.6370957864727
 20
-135.4070664809052
 30
0.0
 10
100.6157361944641
 20
-135.2082844714063
 30
0.0
 10
100.3790581346275
 20
-135.2082844714063
 30
0.0
 10
100.2012912075886
 20
-135.2082844714063
 30
0.0
 10
100.1461696798246
 20
-135.3391980998458
 30
0.0
 10
100.1461696798246
 20
-135.4494411553738
 30
0.0
 10
100.1461696798246
 20
-135.7136799790924
 30
0.0
 10
100.3790581346275
 20
-135.7222927178055
 30
0.0
 10
100.4507161207207
 20
-135.7264268323878
 30
0.0
 10
100.4507161207207
 20
-135.7264268323878
 30
0.0
 10
100.4507161207207
 20
-135.9296874660176
 30
0.0
 10
100.4507161207207
 20
-135.9296874660176
 30
0.0
 10
100.3260036641546
 20
-135.9210747273045
 30
0.0
 10
99.94945472761681
 20
-135.8935139634225
 30
0.0
 10
99.94945472761681
 20
-135.4366943020783
 30
0.0
 10
99.94945472761681
 20
-135.2124185859886
 30
0.0
 10
100.0765787510225
 20
-134.9712619020211
 30
0.0
 10
100.3725124532055
 20
-134.9712619020211
 30
0.0
 10
100.5588921189575
 20
-134.9712619020211
 30
0.0
 10
100.641229901055
 20
-135.066346537414
 30
0.0
 10
100.7025526006924
 20
-135.1659097969377
 30
0.0
 10
100.7301133645744
 20
-135.1045870973003
 30
0.0
 10
100.8103840893807
 20
-134.9226860556791
 30
0.0
 10
101.0877142759434
 20
-134.9226860556791
 30
0.0
 10
101.4260226525949
 20
-134.9226860556791
 30
0.0
 10
101.5931097836295
 20
-135.17004391152
 30
0.0
 10
101.5931097836295
 20
-135.4470295885341
 30
0.0
  0
HATCH
  5
D8
330
D3
100
AcDbEntity
  8
_U+30EC_U+30A4_U+30E4_U+30FC 1
 62
   179
420
  2234388
100
AcDbHatch
 10
0.0
 20
0.0
 30
0.0
210
0.0
220
0.0
230
1.0
  2
SOLID
 70
     1
 71
     0
 91
        1
 92
        1
 93
        1
 72
     4
 94
        3
 73
     0
 74
     1
 95
       62
 96
       58
 40
0.0
 40
0.0
 40
0.0
 40
0.0
 40
1.0
 40
1.0
 40
1.0
 40
2.0
 40
2.0
 40
2.0
 40
3.0
 40
3.0
 40
3.0
 40
4.0
 40
4.0
 40
4.0
 40
5.0
 40
5.0
 40
5.0
 40
6.0
 40
6.0
 40
6.0
 40
7.0
 40
7.0
 40
7.0
 40
8.0
 40
8.0
 40
8.0
 40
9.0
 40
9.0
 40
9.0
 40
10.0
 40
10.0
 40
10.0
 40
11.0
 40
11.0
 40
11.0
 40
12.0
 40
12.0
 40
12.0
 40
13.0
 40
13.0
 40
13.0
 40
14.0
 40
14.0
 40
14.0
 40
15.0
 40
15.0
 40
15.0
 40
16.0
 40
16.0
 40
16.0
 40
17.0
 40
17.0
 40
17.0
 40
18.0
 40
18.0
 40
18.0
 40
19.0
 40
19.0
 40
19.0
 40
19.0
 10
101.5931097836295
 20
-135.4470295885341
 10
101.5931097836295
 20
-135.5424587334755
 10
101.5720947011695
 20
-135.7601887681433
 10
101.386059544966
 20
-135.8852457342579
 10
101.2737494321468
 20
-135.9593152871907
 10
101.1745306821716
 20
-135.963449401773
 10
101.0897813332345
 20
-135.9675835163553
 10
101.0897813332345
 20
-135.9675835163553
 10
101.0897813332345
 20
-135.7474419148479
 10
101.0897813332345
 20
-135.7474419148479
 10
101.1638508861674
 20
-135.7453748575567
 10
101.3984618887129
 20
-135.735039571101
 10
101.3984618887129
 20
-135.4515082126649
 10
101.3984618887129
 20
-135.3140489028034
 10
101.3288709599108
 20
-135.1614311728069
 10
101.1004611292388
 20
-135.1614311728069
 10
100.9840169018373
 20
-135.1614311728069
 10
100.9354410554953
 20
-135.1996717326931
 10
100.903746177031
 20
-135.2313666111575
 10
100.8296766240981
 20
-135.3054361640903
 10
100.8169297708027
 20
-135.4218803914918
 10
100.8169297708027
 20
-135.4766574097072
 10
100.8169297708027
 20
-135.4959499444246
 10
100.8189968280939
 20
-135.5317789374712
 10
100.8231309426762
 20
-135.5593397013532
 10
100.8231309426762
 20
-135.5593397013532
 10
100.6284830477595
 20
-135.5593397013532
 10
100.6284830477595
 20
-135.5593397013532
 10
100.6350287291815
 20
-135.5210991414669
 10
100.6370957864727
 20
-135.4790689765469
 10
100.6370957864727
 20
-135.4725232951249
 10
100.6370957864727
 20
-135.4070664809052
 10
100.6157361944641
 20
-135.2082844714063
 10
100.3790581346275
 20
-135.2082844714063
 10
100.2012912075886
 20
-135.2082844714063
 10
100.1461696798246
 20
-135.3391980998458
 10
100.1461696798246
 20
-135.4494411553738
 10
100.1461696798246
 20
-135.7136799790924
 10
100.3790581346275
 20
-135.7222927178055
 10
100.4507161207207
 20
-135.7264268323878
 10
100.4507161207207
 20
-135.7264268323878
 10
100.4507161207207
 20
-135.9296874660176
 10
100.4507161207207
 20
-135.9296874660176
 10
100.3260036641546
 20
-135.9210747273045
 10
99.94945472761681
 20
-135.8935139634225
 10
99.94945472761681
 20
-135.4366943020783
 10
99.94945472761681
 20
-135.2124185859886
 10
100.0765787510225
 20
-134.9712619020211
 10
100.3725124532055
 20
-134.9712619020211
 10
100.5588921189575
 20
-134.9712619020211
 10
100.641229901055
 20
-135.066346537414
 10
100.7025526006924
 20
-135.1659097969377
 10
100.7301133645744
 20
-135.1045870973003
 10
100.8103840893807
 20
-134.9226860556791
 10
101.0877142759434
 20
-134.9226860556791
 10
101.4260226525949
 20
-134.9226860556791
 10
101.5931097836295
 20
-135.17004391152
 10
101.5931097836295
 20
-135.4470295885341
 97
        0
 97
        0
 75
     2
 76
     1
 98
        0
  0
ENDBLK
  5
D6
330
D3
100
AcDbEntity
  8
0
100
AcDbBlockEnd
  0
BLOCK
  5
DB
330
D9
100
AcDbEntity
  8
0
100
AcDbBlockBegin
  2
block 10
 70
     0
 10
0.0
 20
0.0
 30
0.0
  3
block 10
  1

  0
POLYLINE
  5
DD
330
D9
100
AcDbEntity
  8
_U+30EC_U+30A4_U+30E4_U+30FC 1
 62
   179
420
  2234388
370
     9
100
AcDb2dPolyline
 66
     1
 10
0.0
 20
0.0
 30
0.0
  0
VERTEX
  5
DE
330
DD
100
AcDbEntity
  8
_U+30EC_U+30A4_U+30E4_U+30FC 1
 62
   179
420
  2234388
370
     9
100
AcDbVertex
100
AcDb2dVertex
 10
102.1884333077861
 20
-133.9363519109602
 30
0.0
  0
VERTEX
  5
DF
330
DD
100
AcDbEntity
  8
_U+30EC_U+30A4_U+30E4_U+30FC 1
 62
   179
420
  2234388
370
     9
100
AcDbVertex
100
AcDb2dVertex
 10
102.1884333077861
 20
-123.9360896912383
 30
0.0
  0
SEQEND
  5
E0
330
DD
100
AcDbEntity
  8
_U+30EC_U+30A4_U+30E4_U+30FC 1
 62
   179
420
  2234388
370
     9
  0
POLYLINE
  5
E1
330
D9
100
AcDbEntity
  8
_U+30EC_U+30A4_U+30E4_U+30FC 1
 62
   179
420
  2234388
370
     9
100
AcDb2dPolyline
 66
     1
 10
0.0
 20
0.0
 30
0.0
  0
VERTEX
  5
E2
330
E1
100
AcDbEntity
  8
_U+30EC_U+30A4_U+30E4_U+30FC 1
 62
   179
420
  2234388
370
     9
100
AcDbVertex
100
AcDb2dVertex
 10
80.72892377376691
 20
-133.9363519109602
 30
0.0
  0
VERTEX
  5
E3
330
E1
100
AcDbEntity
  8
_U+30EC_U+30A4_U+30E4_U+30FC 1
 62
   179
420
  2234388
370
     9
100
AcDbVertex
100
AcDb2dVertex
 10
103.1888732007659
 20
-133.9363519109602
 30
0.0
  0
SEQEND
  5
E4
330
E1
100
AcDbEntity
  8
_U+30EC_U+30A4_U+30E4_U+30FC 1
 62
   179
420
  2234388
370
     9
  0
INSERT
  5
E6
330
D9
100
AcDbEntity
  8
_U+30EC_U+30A4_U+30E4_U+30FC 1
100
AcDbBlockReference
  2
block 11
 10
0.0
 20
0.0
 30
0.0
  0
ENDBLK
  5
DC
330
D9
100
AcDbEntity
  8
0
100
AcDbBlockEnd
  0
BLOCK
  5
E7
330
E5
100
AcDbEntity
  8
0
100
AcDbBlockBegin
  2
block 11
 70
     0
 10
0.0
 20
0.0
 30
0.0
  3
block 11
  1

  0
SPLINE
  5
E9
330
E5
100
AcDbEntity
  8
_U+30EC_U+30A4_U+30E4_U+30FC 1
370
     0
100
AcDbSpline
210
0.0
220
0.0
230
1.0
 70
    11
 71
     3
 72
    26
 73
    22
 74
     0
 42
0.0000000001
 43
0.0000000001
 12
1.0
 22
0.0
 32
0.0
 13
1.0
 23
0.0
 33
0.0
 40
0.0
 40
0.0
 40
0.0
 40
0.0
 40
1.0
 40
1.0
 40
1.0
 40
2.0
 40
2.0
 40
2.0
 40
3.0
 40
3.0
 40
3.0
 40
4.0
 40
4.0
 40
4.0
 40
5.0
 40
5.0
 40
5.0
 40
6.0
 40
6.0
 40
6.0
 40
7.0
 40
7.0
 40
7.0
 40
7.0
 10
101.5424668799963
 20
-129.5758978625713
 30
0.0
 10
101.5424668799963
 20
-129.5758978625713
 30
0.0
 10
100.4383137769738
 20
-129.5758978625713
 30
0.0
 10
100.4383137769738
 20
-129.5758978625713
 30
0.0
 10
100.4383137769738
 20
-129.5758978625713
 30
0.0
 10
100.4383137769738
 20
-129.9059380100582
 30
0.0
 10
100.4383137769738
 20
-129.9059380100582
 30
0.0
 10
100.4383137769738
 20
-129.9059380100582
 30
0.0
 10
100.290174671108
 20
-129.9059380100582
 30
0.0
 10
100.290174671108
 20
-129.9059380100582
 30
0.0
 10
100.2753607605214
 20
-129.5738308052802
 30
0.0
 10
100.1124077440691
 20
-129.5273220162293
 30
0.0
 10
99.99803057395883
 20
-129.4976941950561
 30
0.0
 10
99.99803057395883
 20
-129.4976941950561
 30
0.0
 10
99.99803057395883
 20
-129.3516221464815
 30
0.0
 10
99.99803057395883
 20
-129.3516221464815
 30
0.0
 10
99.99803057395883
 20
-129.3516221464815
 30
0.0
 10
101.5424668799963
 20
-129.3516221464815
 30
0.0
 10
101.5424668799963
 20
-129.3516221464815
 30
0.0
 10
101.5424668799963
 20
-129.3516221464815
 30
0.0
 10
101.5424668799963
 20
-129.5758978625713
 30
0.0
 10
101.5424668799963
 20
-129.5758978625713
 30
0.0
  0
HATCH
  5
EA
330
E5
100
AcDbEntity
  8
_U+30EC_U+30A4_U+30E4_U+30FC 1
 62
   179
420
  2234388
100
AcDbHatch
 10
0.0
 20
0.0
 30
0.0
210
0.0
220
0.0
230
1.0
  2
SOLID
 70
     1
 71
     0
 91
        1
 92
        1
 93
        1
 72
     4
 94
        3
 73
     0
 74
     1
 95
       26
 96
       22
 40
0.0
 40
0.0
 40
0.0
 40
0.0
 40
1.0
 40
1.0
 40
1.0
 40
2.0
 40
2.0
 40
2.0
 40
3.0
 40
3.0
 40
3.0
 40
4.0
 40
4.0
 40
4.0
 40
5.0
 40
5.0
 40
5.0
 40
6.0
 40
6.0
 40
6.0
 40
7.0
 40
7.0
 40
7.0
 40
7.0
 10
101.5424668799963
 20
-129.5758978625713
 10
101.5424668799963
 20
-129.5758978625713
 10
100.4383137769738
 20
-129.5758978625713
 10
100.4383137769738
 20
-129.5758978625713
 10
100.4383137769738
 20
-129.5758978625713
 10
100.4383137769738
 20
-129.9059380100582
 10
100.4383137769738
 20
-129.9059380100582
 10
100.4383137769738
 20
-129.9059380100582
 10
100.290174671108
 20
-129.9059380100582
 10
100.290174671108
 20
-129.9059380100582
 10
100.2753607605214
 20
-129.5738308052802
 10
100.1124077440691
 20
-129.5273220162293
 10
99.99803057395883
 20
-129.4976941950561
 10
99.99803057395883
 20
-129.4976941950561
 10
99.99803057395883
 20
-129.3516221464815
 10
99.99803057395883
 20
-129.3516221464815
 10
99.99803057395883
 20
-129.3516221464815
 10
101.5424668799963
 20
-129.3516221464815
 10
101.5424668799963
 20
-129.3516221464815
 10
101.5424668799963
 20
-129.3516221464815
 10
101.5424668799963
 20
-129.5758978625713
 10
101.5424668799963
 20
-129.5758978625713
 97
        0
 97
        0
 75
     2
 76
     1
 98
        0
  0
SPLINE
  5
EB
330
E5
100
AcDbEntity
  8
_U+30EC_U+30A4_U+30E4_U+30FC 1
370
     0
100
AcDbSpline
210
0.0
220
0.0
230
1.0
 70
    11
 71
     3
 72
    29
 73
    25
 74
     0
 42
0.0000000001
 43
0.0000000001
 12
1.0
 22
0.0
 32
0.0
 13
1.0
 23
0.0
 33
0.0
 40
0.0
 40
0.0
 40
0.0
 40
0.0
 40
1.0
 40
1.0
 40
1.0
 40
2.0
 40
2.0
 40
2.0
 40
3.0
 40
3.0
 40
3.0
 40
4.0
 40
4.0
 40
4.0
 40
5.0
 40
5.0
 40
5.0
 40
6.0
 40
6.0
 40
6.0
 40
7.0
 40
7.0
 40
7.0
 40
8.0
 40
8.0
 40
8.0
 40
8.0
 10
101.3646999529574
 20
-127.9525688699216
 30
0.0
 10
101.5741617584606
 20
-128.0607448681584
 30
0.0
 10
101.5931097836295
 20
-128.2340331710665
 30
0.0
 10
101.5931097836295
 20
-128.3504773984679
 30
0.0
 10
101.5931097836295
 20
-128.5113633576291
 30
0.0
 10
101.5466009945786
 20
-128.6529567820729
 30
0.0
 10
101.3646999529574
 20
-128.7480414174658
 30
0.0
 10
101.1700520580408
 20
-128.8517387915718
 30
0.0
 10
100.9330294886556
 20
-128.8706868167407
 30
0.0
 10
100.7704209817518
 20
-128.8706868167407
 30
0.0
 10
100.6264159904684
 20
-128.8706868167407
 30
0.0
 10
100.3745795104966
 20
-128.8538058488629
 30
0.0
 10
100.1757975009977
 20
-128.7480414174658
 30
0.0
 10
99.9728813769165
 20
-128.6402099287775
 30
0.0
 10
99.94945472761681
 20
-128.4793239696163
 30
0.0
 10
99.94945472761681
 20
-128.3504773984679
 30
0.0
 10
99.94945472761681
 20
-128.1916584965979
 30
0.0
 10
99.99389645937653
 20
-128.047998014863
 30
0.0
 10
100.1757975009977
 20
-127.9525688699216
 30
0.0
 10
100.3683783386232
 20
-127.8533501199464
 30
0.0
 10
100.5967881692953
 20
-127.8299234706467
 30
0.0
 10
100.7704209817518
 20
-127.8299234706467
 30
0.0
 10
100.9416422273688
 20
-127.8299234706467
 30
0.0
 10
101.172119115332
 20
-127.8512830626552
 30
0.0
 10
101.3646999529574
 20
-127.9525688699216
 30
0.0
  0
SPLINE
  5
EC
330
E5
100
AcDbEntity
  8
_U+30EC_U+30A4_U+30E4_U+30FC 1
370
     0
100
AcDbSpline
210
0.0
220
0.0
230
1.0
 70
    11
 71
     3
 72
    17
 73
    13
 74
     0
 42
0.0000000001
 43
0.0000000001
 12
1.0
 22
0.0
 32
0.0
 13
1.0
 23
0.0
 33
0.0
 40
0.0
 40
0.0
 40
0.0
 40
0.0
 40
1.0
 40
1.0
 40
1.0
 40
2.0
 40
2.0
 40
2.0
 40
3.0
 40
3.0
 40
3.0
 40
4.0
 40
4.0
 40
4.0
 40
4.0
 10
100.1420355652423
 20
-128.3504773984679
 30
0.0
 10
100.1420355652423
 20
-128.5999023116
 30
0.0
 10
100.4255669236783
 20
-128.6467556101994
 30
0.0
 10
100.7704209817518
 20
-128.6467556101994
 30
0.0
 10
101.0897813332345
 20
-128.6467556101994
 30
0.0
 10
101.3984618887129
 20
-128.6105821076043
 30
0.0
 10
101.3984618887129
 20
-128.3504773984679
 30
0.0
 10
101.3984618887129
 20
-128.1027750330785
 30
0.0
 10
101.1173420971165
 20
-128.0541991867365
 30
0.0
 10
100.7704209817518
 20
-128.0541991867365
 30
0.0
 10
100.4507161207207
 20
-128.0541991867365
 30
0.0
 10
100.1420355652423
 20
-128.0924397466227
 30
0.0
 10
100.1420355652423
 20
-128.3504773984679
 30
0.0
  0
HATCH
  5
ED
330
E5
100
AcDbEntity
  8
_U+30EC_U+30A4_U+30E4_U+30FC 1
 62
   179
420
  2234388
100
AcDbHatch
 10
0.0
 20
0.0
 30
0.0
210
0.0
220
0.0
230
1.0
  2
SOLID
 70
     1
 71
     0
 91
        2
 92
        1
 93
        1
 72
     4
 94
        3
 73
     0
 74
     1
 95
       29
 96
       25
 40
0.0
 40
0.0
 40
0.0
 40
0.0
 40
1.0
 40
1.0
 40
1.0
 40
2.0
 40
2.0
 40
2.0
 40
3.0
 40
3.0
 40
3.0
 40
4.0
 40
4.0
 40
4.0
 40
5.0
 40
5.0
 40
5.0
 40
6.0
 40
6.0
 40
6.0
 40
7.0
 40
7.0
 40
7.0
 40
8.0
 40
8.0
 40
8.0
 40
8.0
 10
101.3646999529574
 20
-127.9525688699216
 10
101.5741617584606
 20
-128.0607448681584
 10
101.5931097836295
 20
-128.2340331710665
 10
101.5931097836295
 20
-128.3504773984679
 10
101.5931097836295
 20
-128.5113633576291
 10
101.5466009945786
 20
-128.6529567820729
 10
101.3646999529574
 20
-128.7480414174658
 10
101.1700520580408
 20
-128.8517387915718
 10
100.9330294886556
 20
-128.8706868167407
 10
100.7704209817518
 20
-128.8706868167407
 10
100.6264159904684
 20
-128.8706868167407
 10
100.3745795104966
 20
-128.8538058488629
 10
100.1757975009977
 20
-128.7480414174658
 10
99.9728813769165
 20
-128.6402099287775
 10
99.94945472761681
 20
-128.4793239696163
 10
99.94945472761681
 20
-128.3504773984679
 10
99.94945472761681
 20
-128.1916584965979
 10
99.99389645937653
 20
-128.047998014863
 10
100.1757975009977
 20
-127.9525688699216
 10
100.3683783386232
 20
-127.8533501199464
 10
100.5967881692953
 20
-127.8299234706467
 10
100.7704209817518
 20
-127.8299234706467
 10
100.9416422273688
 20
-127.8299234706467
 10
101.172119115332
 20
-127.8512830626552
 10
101.3646999529574
 20
-127.9525688699216
 97
        0
 97
        0
 92
        1
 93
        1
 72
     4
 94
        3
 73
     0
 74
     1
 95
       17
 96
       13
 40
0.0
 40
0.0
 40
0.0
 40
0.0
 40
1.0
 40
1.0
 40
1.0
 40
2.0
 40
2.0
 40
2.0
 40
3.0
 40
3.0
 40
3.0
 40
4.0
 40
4.0
 40
4.0
 40
4.0
 10
100.1420355652423
 20
-128.3504773984679
 10
100.1420355652423
 20
-128.5999023116
 10
100.4255669236783
 20
-128.6467556101994
 10
100.7704209817518
 20
-128.6467556101994
 10
101.0897813332345
 20
-128.6467556101994
 10
101.3984618887129
 20
-128.6105821076043
 10
101.3984618887129
 20
-128.3504773984679
 10
101.3984618887129
 20
-128.1027750330785
 10
101.1173420971165
 20
-128.0541991867365
 10
100.7704209817518
 20
-128.0541991867365
 10
100.4507161207207
 20
-128.0541991867365
 10
100.1420355652423
 20
-128.0924397466227
 10
100.1420355652423
 20
-128.3504773984679
 97
        0
 97
        0
 75
     2
 76
     1
 98
        0
  0
ENDBLK
  5
E8
330
E5
100
AcDbEntity
  8
0
100
AcDbBlockEnd
  0
ENDSEC
  0
SECTION
  2
ENTITIES
  0
POLYLINE
  5
41
330
1F
100
AcDbEntity
  8
_U+30EC_U+30A4_U+30E4_U+30FC 1
370
     0
100
AcDb2dPolyline
 66
     1
 10
0.0
 20
0.0
 30
0.0
  0
VERTEX
  5
42
330
41
100
AcDbEntity
  8
_U+30EC_U+30A4_U+30E4_U+30FC 1
370
     0
100
AcDbVertex
100
AcDb2dVertex
 10
73.18865174391304
 20
-136.9363388546545
 30
0.0
  0
VERTEX
  5
43
330
41
100
AcDbEntity
  8
_U+30EC_U+30A4_U+30E4_U+30FC 1
370
     0
100
AcDbVertex
100
AcDb2dVertex
 10
78.18850050524517
 20
-136.9363388546545
 30
0.0
  0
VERTEX
  5
44
330
41
100
AcDbEntity
  8
_U+30EC_U+30A4_U+30E4_U+30FC 1
370
     0
100
AcDbVertex
100
AcDb2dVertex
 10
78.18850050524517
 20
-133.9363519109602
 30
0.0
  0
VERTEX
  5
45
330
41
100
AcDbEntity
  8
_U+30EC_U+30A4_U+30E4_U+30FC 1
370
     0
100
AcDbVertex
100
AcDb2dVertex
 10
77.18872830852926
 20
-133.9363519109602
 30
0.0
  0
VERTEX
  5
46
330
41
100
AcDbEntity
  8
_U+30EC_U+30A4_U+30E4_U+30FC 1
370
     0
100
AcDbVertex
100
AcDb2dVertex
 10
77.18872830852926
 20
-135.9358963549047
 30
0.0
  0
VERTEX
  5
47
330
41
100
AcDbEntity
  8
_U+30EC_U+30A4_U+30E4_U+30FC 1
370
     0
100
AcDbVertex
100
AcDb2dVertex
 10
74.18874144062086
 20
-135.9358963549047
 30
0.0
  0
VERTEX
  5
48
330
41
100
AcDbEntity
  8
_U+30EC_U+30A4_U+30E4_U+30FC 1
370
     0
100
AcDbVertex
100
AcDb2dVertex
 10
74.18874144062086
 20
-123.9360896912383
 30
0.0
  0
VERTEX
  5
49
330
41
100
AcDbEntity
  8
_U+30EC_U+30A4_U+30E4_U+30FC 1
370
     0
100
AcDbVertex
100
AcDb2dVertex
 10
98.18867166166496
 20
-123.9360896912383
 30
0.0
  0
VERTEX
  5
4A
330
41
100
AcDbEntity
  8
_U+30EC_U+30A4_U+30E4_U+30FC 1
370
     0
100
AcDbVertex
100
AcDb2dVertex
 10
98.18867166166496
 20
-122.9363527470436
 30
0.0
  0
VERTEX
  5
4B
330
41
100
AcDbEntity
  8
_U+30EC_U+30A4_U+30E4_U+30FC 1
370
     0
100
AcDbVertex
100
AcDb2dVertex
 10
73.18865174391304
 20
-122.9363527470436
 30
0.0
  0
VERTEX
  5
4C
330
41
100
AcDbEntity
  8
_U+30EC_U+30A4_U+30E4_U+30FC 1
370
     0
100
AcDbVertex
100
AcDb2dVertex
 10
73.18865174391304
 20
-136.9363388546545
 30
0.0
  0
SEQEND
  5
4E
330
41
100
AcDbEntity
  8
_U+30EC_U+30A4_U+30E4_U+30FC 1
370
     0
  0
HATCH
  5
4D
330
1F
100
AcDbEntity
  8
_U+30EC_U+30A4_U+30E4_U+30FC 1
 62
     9
420
 13224394
100
AcDbHatch
 10
0.0
 20
0.0
 30
0.0
210
0.0
220
0.0
230
1.0
  2
SOLID
 70
     1
 71
     0
 91
        1
 92
        1
 93
       10
 72
     1
 10
73.18865174391304
 20
-136.9363388546545
 11
78.18850050524517
 21
-136.9363388546545
 72
     1
 10
78.18850050524517
 20
-136.9363388546545
 11
78.18850050524517
 21
-133.9363519109602
 72
     1
 10
78.18850050524517
 20
-133.9363519109602
 11
77.18872830852926
 21
-133.9363519109602
 72
     1
 10
77.18872830852926
 20
-133.9363519109602
 11
77.18872830852926
 21
-135.9358963549047
 72
     1
 10
77.18872830852926
 20
-135.9358963549047
 11
74.18874144062086
 21
-135.9358963549047
 72
     1
 10
74.18874144062086
 20
-135.9358963549047
 11
74.18874144062086
 21
-123.9360896912383
 72
     1
 10
74.18874144062086
 20
-123.9360896912383
 11
98.18867166166496
 21
-123.9360896912383
 72
     1
 10
98.18867166166496
 20
-123.9360896912383
 11
98.18867166166496
 21
-122.9363527470436
 72
     1
 10
98.18867166166496
 20
-122.9363527470436
 11
73.18865174391304
 21
-122.9363527470436
 72
     1
 10
73.18865174391304
 20
-122.9363527470436
 11
73.18865174391304
 21
-136.9363388546545
 97
        0
 75
     2
 76
     1
 98
        0
  0
POLYLINE
  5
4F
330
1F
100
AcDbEntity
  8
_U+30EC_U+30A4_U+30E4_U+30FC 1
 62
   179
420
  2234388
370
    25
100
AcDb2dPolyline
 66
     1
 10
0.0
 20
0.0
 30
0.0
  0
VERTEX
  5
50
330
4F
100
AcDbEntity
  8
_U+30EC_U+30A4_U+30E4_U+30FC 1
 62
   179
420
  2234388
370
    25
100
AcDbVertex
100
AcDb2dVertex
 10
73.18865174391304
 20
-136.9363388546545
 30
0.0
  0
VERTEX
  5
51
330
4F
100
AcDbEntity
  8
_U+30EC_U+30A4_U+30E4_U+30FC 1
 62
   179
420
  2234388
370
    25
100
AcDbVertex
100
AcDb2dVertex
 10
73.18865174391304
 20
-122.9363527470436
 30
0.0
  0
SEQEND
  5
52
330
4F
100
AcDbEntity
  8
_U+30EC_U+30A4_U+30E4_U+30FC 1
 62
   179
420
  2234388
370
    25
  0
POLYLINE
  5
53
330
1F
100
AcDbEntity
  8
_U+30EC_U+30A4_U+30E4_U+30FC 1
 62
   179
420
  2234388
370
    25
100
AcDb2dPolyline
 66
     1
 10
0.0
 20
0.0
 30
0.0
  0
VERTEX
  5
54
330
53
100
AcDbEntity
  8
_U+30EC_U+30A4_U+30E4_U+30FC 1
 62
   179
420
  2234388
370
    25
100
AcDbVertex
100
AcDb2dVertex
 10
98.18867166166496
 20
-123.9360896912383
 30
0.0
  0
VERTEX
  5
55
330
53
100
AcDbEntity
  8
_U+30EC_U+30A4_U+30E4_U+30FC 1
 62
   179
420
  2234388
370
    25
100
AcDbVertex
100
AcDb2dVertex
 10
98.18867166166496
 20
-122.9363527470436
 30
0.0
  0
SEQEND
  5
56
330
53
100
AcDbEntity
  8
_U+30EC_U+30A4_U+30E4_U+30FC 1
 62
   179
420
  2234388
370
    25
  0
POLYLINE
  5
57
330
1F
100
AcDbEntity
  8
_U+30EC_U+30A4_U+30E4_U+30FC 1
 62
   179
420
  2234388
370
    25
100
AcDb2dPolyline
 66
     1
 10
0.0
 20
0.0
 30
0.0
  0
VERTEX
  5
58
330
57
100
AcDbEntity
  8
_U+30EC_U+30A4_U+30E4_U+30FC 1
 62
   179
420
  2234388
370
    25
100
AcDbVertex
100
AcDb2dVertex
 10
74.18874144062086
 20
-123.9360896912383
 30
0.0
  0
VERTEX
  5
59
330
57
100
AcDbEntity
  8
_U+30EC_U+30A4_U+30E4_U+30FC 1
 62
   179
420
  2234388
370
    25
100
AcDbVertex
100
AcDb2dVertex
 10
98.18867166166496
 20
-123.9360896912383
 30
0.0
  0
SEQEND
  5
5A
330
57
100
AcDbEntity
  8
_U+30EC_U+30A4_U+30E4_U+30FC 1
 62
   179
420
  2234388
370
    25
  0
POLYLINE
  5
5B
330
1F
100
AcDbEntity
  8
_U+30EC_U+30A4_U+30E4_U+30FC 1
 62
   179
420
  2234388
370
    25
100
AcDb2dPolyline
 66
     1
 10
0.0
 20
0.0
 30
0.0
  0
VERTEX
  5
5C
330
5B
100
AcDbEntity
  8
_U+30EC_U+30A4_U+30E4_U+30FC 1
 62
   179
420
  2234388
370
    25
100
AcDbVertex
100
AcDb2dVertex
 10
73.18865174391304
 20
-136.9363388546545
 30
0.0
  0
VERTEX
  5
5D
330
5B
100
AcDbEntity
  8
_U+30EC_U+30A4_U+30E4_U+30FC 1
 62
   179
420
  2234388
370
    25
100
AcDbVertex
100
AcDb2dVertex
 10
78.18850050524517
 20
-136.9363388546545
 30
0.0
  0
SEQEND
  5
5E
330
5B
100
AcDbEntity
  8
_U+30EC_U+30A4_U+30E4_U+30FC 1
 62
   179
420
  2234388
370
    25
  0
POLYLINE
  5
5F
330
1F
100
AcDbEntity
  8
_U+30EC_U+30A4_U+30E4_U+30FC 1
 62
   179
420
  2234388
370
    25
100
AcDb2dPolyline
 66
     1
 10
0.0
 20
0.0
 30
0.0
  0
VERTEX
  5
60
330
5F
100
AcDbEntity
  8
_U+30EC_U+30A4_U+30E4_U+30FC 1
 62
   179
420
  2234388
370
    25
100
AcDbVertex
100
AcDb2dVertex
 10
73.18865174391304
 20
-122.9363527470436
 30
0.0
  0
VERTEX
  5
61
330
5F
100
AcDbEntity
  8
_U+30EC_U+30A4_U+30E4_U+30FC 1
 62
   179
420
  2234388
370
    25
100
AcDbVertex
100
AcDb2dVertex
 10
98.18867166166496
 20
-122.9363527470436
 30
0.0
  0
SEQEND
  5
62
330
5F
100
AcDbEntity
  8
_U+30EC_U+30A4_U+30E4_U+30FC 1
 62
   179
420
  2234388
370
    25
  0
POLYLINE
  5
63
330
1F
100
AcDbEntity
  8
_U+30EC_U+30A4_U+30E4_U+30FC 1
 62
   179
420
  2234388
370
    25
100
AcDb2dPolyline
 66
     1
 10
0.0
 20
0.0
 30
0.0
  0
VERTEX
  5
64
330
63
100
AcDbEntity
  8
_U+30EC_U+30A4_U+30E4_U+30FC 1
 62
   179
420
  2234388
370
    25
100
AcDbVertex
100
AcDb2dVertex
 10
74.18874144062086
 20
-135.9358963549047
 30
0.0
  0
VERTEX
  5
65
330
63
100
AcDbEntity
  8
_U+30EC_U+30A4_U+30E4_U+30FC 1
 62
   179
420
  2234388
370
    25
100
AcDbVertex
100
AcDb2dVertex
 10
74.18874144062086
 20
-123.9360896912383
 30
0.0
  0
SEQEND
  5
66
330
63
100
AcDbEntity
  8
_U+30EC_U+30A4_U+30E4_U+30FC 1
 62
   179
420
  2234388
370
    25
  0
POLYLINE
  5
67
330
1F
100
AcDbEntity
  8
_U+30EC_U+30A4_U+30E4_U+30FC 1
 62
   179
420
  2234388
370
    25
100
AcDb2dPolyline
 66
     1
 10
0.0
 20
0.0
 30
0.0
  0
VERTEX
  5
68
330
67
100
AcDbEntity
  8
_U+30EC_U+30A4_U+30E4_U+30FC 1
 62
   179
420
  2234388
370
    25
100
AcDbVertex
100
AcDb2dVertex
 10
77.18872830852926
 20
-133.9363519109602
 30
0.0
  0
VERTEX
  5
69
330
67
100
AcDbEntity
  8
_U+30EC_U+30A4_U+30E4_U+30FC 1
 62
   179
420
  2234388
370
    25
100
AcDbVertex
100
AcDb2dVertex
 10
78.18850050524517
 20
-133.9363519109602
 30
0.0
  0
SEQEND
  5
6A
330
67
100
AcDbEntity
  8
_U+30EC_U+30A4_U+30E4_U+30FC 1
 62
   179
420
  2234388
370
    25
  0
POLYLINE
  5
6B
330
1F
100
AcDbEntity
  8
_U+30EC_U+30A4_U+30E4_U+30FC 1
 62
   179
420
  2234388
370
    25
100
AcDb2dPolyline
 66
     1
 10
0.0
 20
0.0
 30
0.0
  0
VERTEX
  5
6C
330
6B
100
AcDbEntity
  8
_U+30EC_U+30A4_U+30E4_U+30FC 1
 62
   179
420
  2234388
370
    25
100
AcDbVertex
100
AcDb2dVertex
 10
78.18850050524517
 20
-136.9363388546545
 30
0.0
  0
VERTEX
  5
6D
330
6B
100
AcDbEntity
  8
_U+30EC_U+30A4_U+30E4_U+30FC 1
 62
   179
420
  2234388
370
    25
100
AcDbVertex
100
AcDb2dVertex
 10
78.18850050524517
 20
-133.9363519109602
 30
0.0
  0
SEQEND
  5
6E
330
6B
100
AcDbEntity
  8
_U+30EC_U+30A4_U+30E4_U+30FC 1
 62
   179
420
  2234388
370
    25
  0
POLYLINE
  5
6F
330
1F
100
AcDbEntity
  8
_U+30EC_U+30A4_U+30E4_U+30FC 1
 62
   179
420
  2234388
370
    25
100
AcDb2dPolyline
 66
     1
 10
0.0
 20
0.0
 30
0.0
  0
VERTEX
  5
70
330
6F
100
AcDbEntity
  8
_U+30EC_U+30A4_U+30E4_U+30FC 1
 62
   179
420
  2234388
370
    25
100
AcDbVertex
100
AcDb2dVertex
 10
77.18872830852926
 20
-135.9358963549047
 30
0.0
  0
VERTEX
  5
71
330
6F
100
AcDbEntity
  8
_U+30EC_U+30A4_U+30E4_U+30FC 1
 62
   179
420
  2234388
370
    25
100
AcDbVertex
100
AcDb2dVertex
 10
77.18872830852926
 20
-133.9363519109602
 30
0.0
  0
SEQEND
  5
72
330
6F
100
AcDbEntity
  8
_U+30EC_U+30A4_U+30E4_U+30FC 1
 62
   179
420
  2234388
370
    25
  0
POLYLINE
  5
73
330
1F
100
AcDbEntity
  8
_U+30EC_U+30A4_U+30E4_U+30FC 1
 62
   179
420
  2234388
370
    25
100
AcDb2dPolyline
 66
     1
 10
0.0
 20
0.0
 30
0.0
  0
VERTEX
  5
74
330
73
100
AcDbEntity
  8
_U+30EC_U+30A4_U+30E4_U+30FC 1
 62
   179
420
  2234388
370
    25
100
AcDbVertex
100
AcDb2dVertex
 10
74.18874144062086
 20
-135.9358963549047
 30
0.0
  0
VERTEX
  5
75
330
73
100
AcDbEntity
  8
_U+30EC_U+30A4_U+30E4_U+30FC 1
 62
   179
420
  2234388
370
    25
100
AcDbVertex
100
AcDb2dVertex
 10
77.18872830852926
 20
-135.9358963549047
 30
0.0
  0
SEQEND
  5
76
330
73
100
AcDbEntity
  8
_U+30EC_U+30A4_U+30E4_U+30FC 1
 62
   179
420
  2234388
370
    25
  0
SPLINE
  5
77
330
1F
100
AcDbEntity
  8
_U+30EC_U+30A4_U+30E4_U+30FC 1
 62
   179
420
  2234388
370
     9
100
AcDbSpline
210
0.0
220
0.0
230
1.0
 70
    11
 71
     3
 72
    17
 73
    13
 74
     0
 42
0.0000000001
 43
0.0000000001
 12
1.0
 22
0.0
 32
0.0
 13
1.0
 23
0.0
 33
0.0
 40
0.0
 40
0.0
 40
0.0
 40
0.0
 40
1.0
 40
1.0
 40
1.0
 40
2.0
 40
2.0
 40
2.0
 40
3.0
 40
3.0
 40
3.0
 40
4.0
 40
4.0
 40
4.0
 40
4.0
 10
73.28887775945542
 20
-140.9360980203214
 30
0.0
 10
73.28887775945542
 20
-140.8809941314465
 30
0.0
 10
73.2441084091649
 20
-140.8361913536798
 30
0.0
 10
73.18865174391304
 20
-140.8361913536798
 30
0.0
 10
73.1335125786531
 20
-140.8361913536798
 30
0.0
 10
73.08874507979522
 20
-140.8809941314465
 30
0.0
 10
73.08874507979522
 20
-140.9360980203214
 30
0.0
 10
73.08874507979522
 20
-140.9912371869745
 30
0.0
 10
73.1335125786531
 20
-141.0360046869631
 30
0.0
 10
73.18865174391304
 20
-141.0360046869631
 30
0.0
 10
73.2441084091649
 20
-141.0360046869631
 30
0.0
 10
73.28887775945542
 20
-140.9912371869745
 30
0.0
 10
73.28887775945542
 20
-140.9360980203214
 30
0.0
  0
SPLINE
  5
78
330
1F
100
AcDbEntity
  8
_U+30EC_U+30A4_U+30E4_U+30FC 1
 62
   179
420
  2234388
370
     9
100
AcDbSpline
210
0.0
220
0.0
230
1.0
 70
    11
 71
     3
 72
    17
 73
    13
 74
     0
 42
0.0000000001
 43
0.0000000001
 12
1.0
 22
0.0
 32
0.0
 13
1.0
 23
0.0
 33
0.0
 40
0.0
 40
0.0
 40
0.0
 40
0.0
 40
1.0
 40
1.0
 40
1.0
 40
2.0
 40
2.0
 40
2.0
 40
3.0
 40
3.0
 40
3.0
 40
4.0
 40
4.0
 40
4.0
 40
4.0
 10
78.28875994713178
 20
-140.9360980203214
 30
0.0
 10
78.28875994713178
 20
-140.8809941314465
 30
0.0
 10
78.24395717049701
 20
-140.8361913536798
 30
0.0
 10
78.18850050524517
 20
-140.8361913536798
 30
0.0
 10
78.1333966177621
 20
-140.8361913536798
 30
0.0
 10
78.08859384112733
 20
-140.8809941314465
 30
0.0
 10
78.08859384112733
 20
-140.9360980203214
 30
0.0
 10
78.08859384112733
 20
-140.9912371869745
 30
0.0
 10
78.1333966177621
 20
-141.0360046869631
 30
0.0
 10
78.18850050524517
 20
-141.0360046869631
 30
0.0
 10
78.24395717049701
 20
-141.0360046869631
 30
0.0
 10
78.28875994713178
 20
-140.9912371869745
 30
0.0
 10
78.28875994713178
 20
-140.9360980203214
 30
0.0
  0
SPLINE
  5
79
330
1F
100
AcDbEntity
  8
_U+30EC_U+30A4_U+30E4_U+30FC 1
 62
   179
420
  2234388
370
     9
100
AcDbSpline
210
0.0
220
0.0
230
1.0
 70
    11
 71
     3
 72
    17
 73
    13
 74
     0
 42
0.0000000001
 43
0.0000000001
 12
1.0
 22
0.0
 32
0.0
 13
1.0
 23
0.0
 33
0.0
 40
0.0
 40
0.0
 40
0.0
 40
0.0
 40
1.0
 40
1.0
 40
1.0
 40
2.0
 40
2.0
 40
2.0
 40
3.0
 40
3.0
 40
3.0
 40
4.0
 40
4.0
 40
4.0
 40
4.0
 10
102.2890076681678
 20
-136.9363388546545
 30
0.0
 10
102.2890076681678
 20
-136.8812349657796
 30
0.0
 10
102.2442401693099
 20
-136.8364321880129
 30
0.0
 10
102.1884333077861
 20
-136.8364321880129
 30
0.0
 10
102.1332915610293
 20
-136.8364321880129
 30
0.0
 10
102.0885240621714
 20
-136.8812349657796
 30
0.0
 10
102.0885240621714
 20
-136.9363388546545
 30
0.0
 10
102.0885240621714
 20
-136.9914780213076
 30
0.0
 10
102.1332915610293
 20
-137.0362455212962
 30
0.0
 10
102.1884333077861
 20
-137.0362455212962
 30
0.0
 10
102.2442401693099
 20
-137.0362455212962
 30
0.0
 10
102.2890076681678
 20
-136.9914780213076
 30
0.0
 10
102.2890076681678
 20
-136.9363388546545
 30
0.0
  0
SPLINE
  5
7A
330
1F
100
AcDbEntity
  8
_U+30EC_U+30A4_U+30E4_U+30FC 1
 62
   179
420
  2234388
370
     9
100
AcDbSpline
210
0.0
220
0.0
230
1.0
 70
    11
 71
     3
 72
    17
 73
    13
 74
     0
 42
0.0000000001
 43
0.0000000001
 12
1.0
 22
0.0
 32
0.0
 13
1.0
 23
0.0
 33
0.0
 40
0.0
 40
0.0
 40
0.0
 40
0.0
 40
1.0
 40
1.0
 40
1.0
 40
2.0
 40
2.0
 40
2.0
 40
3.0
 40
3.0
 40
3.0
 40
4.0
 40
4.0
 40
4.0
 40
4.0
 10
102.2890076681678
 20
-133.9363519109602
 30
0.0
 10
102.2890076681678
 20
-133.8812480220853
 30
0.0
 10
102.2442401693099
 20
-133.8364452443186
 30
0.0
 10
102.1884333077861
 20
-133.8364452443186
 30
0.0
 10
102.1332915610293
 20
-133.8364452443186
 30
0.0
 10
102.0885240621714
 20
-133.8812480220853
 30
0.0
 10
102.0885240621714
 20
-133.9363519109602
 30
0.0
 10
102.0885240621714
 20
-133.9914910776133
 30
0.0
 10
102.1332915610293
 20
-134.0362585776018
 30
0.0
 10
102.1884333077861
 20
-134.0362585776018
 30
0.0
 10
102.2442401693099
 20
-134.0362585776018
 30
0.0
 10
102.2890076681678
 20
-133.9914910776133
 30
0.0
 10
102.2890076681678
 20
-133.9363519109602
 30
0.0
  0
SPLINE
  5
7B
330
1F
100
AcDbEntity
  8
_U+30EC_U+30A4_U+30E4_U+30FC 1
 62
   179
420
  2234388
370
     9
100
AcDbSpline
210
0.0
220
0.0
230
1.0
 70
    11
 71
     3
 72
    17
 73
    13
 74
     0
 42
0.0000000001
 43
0.0000000001
 12
1.0
 22
0.0
 32
0.0
 13
1.0
 23
0.0
 33
0.0
 40
0.0
 40
0.0
 40
0.0
 40
0.0
 40
1.0
 40
1.0
 40
1.0
 40
2.0
 40
2.0
 40
2.0
 40
3.0
 40
3.0
 40
3.0
 40
4.0
 40
4.0
 40
4.0
 40
4.0
 10
102.2890076681678
 20
-123.9360896912383
 30
0.0
 10
102.2890076681678
 20
-123.8809858023631
 30
0.0
 10
102.2442401693099
 20
-123.8361830245964
 30
0.0
 10
102.1884333077861
 20
-123.8361830245964
 30
0.0
 10
102.1332915610293
 20
-123.8361830245964
 30
0.0
 10
102.0885240621714
 20
-123.8809858023631
 30
0.0
 10
102.0885240621714
 20
-123.9360896912383
 30
0.0
 10
102.0885240621714
 20
-123.9912288578911
 30
0.0
 10
102.1332915610293
 20
-124.03599635788
 30
0.0
 10
102.1884333077861
 20
-124.03599635788
 30
0.0
 10
102.2442401693099
 20
-124.03599635788
 30
0.0
 10
102.2890076681678
 20
-123.9912288578911
 30
0.0
 10
102.2890076681678
 20
-123.9360896912383
 30
0.0
  0
SPLINE
  5
7C
330
1F
100
AcDbEntity
  8
_U+30EC_U+30A4_U+30E4_U+30FC 1
 62
   179
420
  2234388
370
     9
100
AcDbSpline
210
0.0
220
0.0
230
1.0
 70
    11
 71
     3
 72
    17
 73
    13
 74
     0
 42
0.0000000001
 43
0.0000000001
 12
1.0
 22
0.0
 32
0.0
 13
1.0
 23
0.0
 33
0.0
 40
0.0
 40
0.0
 40
0.0
 40
0.0
 40
1.0
 40
1.0
 40
1.0
 40
2.0
 40
2.0
 40
2.0
 40
3.0
 40
3.0
 40
3.0
 40
4.0
 40
4.0
 40
4.0
 40
4.0
 10
102.2890076681678
 20
-122.9363527470436
 30
0.0
 10
102.2890076681678
 20
-122.8808608026131
 30
0.0
 10
102.2442401693099
 20
-122.8360933026242
 30
0.0
 10
102.1884333077861
 20
-122.8360933026242
 30
0.0
 10
102.1332915610293
 20
-122.8360933026242
 30
0.0
 10
102.0885240621714
 20
-122.8808608026131
 30
0.0
 10
102.0885240621714
 20
-122.9363527470436
 30
0.0
 10
102.0885240621714
 20
-122.9914566359189
 30
0.0
 10
102.1332915610293
 20
-123.0362594136852
 30
0.0
 10
102.1884333077861
 20
-123.0362594136852
 30
0.0
 10
102.2442401693099
 20
-123.0362594136852
 30
0.0
 10
102.2890076681678
 20
-122.9914566359189
 30
0.0
 10
102.2890076681678
 20
-122.9363527470436
 30
0.0
  0
SPLINE
  5
7D
330
1F
100
AcDbEntity
  8
_U+30EC_U+30A4_U+30E4_U+30FC 1
 62
   179
420
  2234388
370
     9
100
AcDbSpline
210
0.0
220
0.0
230
1.0
 70
    11
 71
     3
 72
    17
 73
    13
 74
     0
 42
0.0000000001
 43
0.0000000001
 12
1.0
 22
0.0
 32
0.0
 13
1.0
 23
0.0
 33
0.0
 40
0.0
 40
0.0
 40
0.0
 40
0.0
 40
1.0
 40
1.0
 40
1.0
 40
2.0
 40
2.0
 40
2.0
 40
3.0
 40
3.0
 40
3.0
 40
4.0
 40
4.0
 40
4.0
 40
4.0
 10
98.2885783257828
 20
-118.9358880258215
 30
0.0
 10
98.2885783257828
 20
-118.8807841369466
 30
0.0
 10
98.24377554914803
 20
-118.8359813591799
 30
0.0
 10
98.18867166166496
 20
-118.8359813591799
 30
0.0
 10
98.13353249640501
 20
-118.8359813591799
 30
0.0
 10
98.08876499754713
 20
-118.8807841369466
 30
0.0
 10
98.08876499754713
 20
-118.9358880258215
 30
0.0
 10
98.08876499754713
 20
-118.9913446924745
 30
0.0
 10
98.13353249640501
 20
-119.0361474702409
 30
0.0
 10
98.18867166166496
 20
-119.0361474702409
 30
0.0
 10
98.24377554914803
 20
-119.0361474702409
 30
0.0
 10
98.2885783257828
 20
-118.9913446924745
 30
0.0
 10
98.2885783257828
 20
-118.9358880258215
 30
0.0
  0
SPLINE
  5
7E
330
1F
100
AcDbEntity
  8
_U+30EC_U+30A4_U+30E4_U+30FC 1
 62
   179
420
  2234388
370
     9
100
AcDbSpline
210
0.0
220
0.0
230
1.0
 70
    11
 71
     3
 72
    17
 73
    13
 74
     0
 42
0.0000000001
 43
0.0000000001
 12
1.0
 22
0.0
 32
0.0
 13
1.0
 23
0.0
 33
0.0
 40
0.0
 40
0.0
 40
0.0
 40
0.0
 40
1.0
 40
1.0
 40
1.0
 40
2.0
 40
2.0
 40
2.0
 40
3.0
 40
3.0
 40
3.0
 40
4.0
 40
4.0
 40
4.0
 40
4.0
 10
73.28887775945542
 20
-118.9358880258215
 30
0.0
 10
73.28887775945542
 20
-118.8807841369466
 30
0.0
 10
73.2441084091649
 20
-118.8359813591799
 30
0.0
 10
73.18865174391304
 20
-118.8359813591799
 30
0.0
 10
73.1335125786531
 20
-118.8359813591799
 30
0.0
 10
73.08874507979522
 20
-118.8807841369466
 30
0.0
 10
73.08874507979522
 20
-118.9358880258215
 30
0.0
 10
73.08874507979522
 20
-118.9913446924745
 30
0.0
 10
73.1335125786531
 20
-119.0361474702409
 30
0.0
 10
73.18865174391304
 20
-119.0361474702409
 30
0.0
 10
73.2441084091649
 20
-119.0361474702409
 30
0.0
 10
73.28887775945542
 20
-118.9913446924745
 30
0.0
 10
73.28887775945542
 20
-118.9358880258215
 30
0.0
  0
INSERT
  5
80
330
1F
100
AcDbEntity
  8
_U+30EC_U+30A4_U+30E4_U+30FC 1
100
AcDbBlockReference
  2
block 2
 10
0.0
 20
0.0
 30
0.0
  0
INSERT
  5
98
330
1F
100
AcDbEntity
  8
_U+30EC_U+30A4_U+30E4_U+30FC 1
100
AcDbBlockReference
  2
block 4
 10
0.0
 20
0.0
 30
0.0
  0
INSERT
  5
AE
330
1F
100
AcDbEntity
  8
_U+30EC_U+30A4_U+30E4_U+30FC 1
100
AcDbBlockReference
  2
block 6
 10
0.0
 20
0.0
 30
0.0
  0
INSERT
  5
C8
330
1F
100
AcDbEntity
  8
_U+30EC_U+30A4_U+30E4_U+30FC 1
100
AcDbBlockReference
  2
block 8
 10
0.0
 20
0.0
 30
0.0
  0
INSERT
  5
DA
330
1F
100
AcDbEntity
  8
_U+30EC_U+30A4_U+30E4_U+30FC 1
100
AcDbBlockReference
  2
block 10
 10
0.0
 20
0.0
 30
0.0
  0
ENDSEC
  0
SECTION
  2
OBJECTS
  0
DICTIONARY
  5
C
330
0
100
AcDbDictionary
281
     1
  3
ACAD_GROUP
350
D
  3
ACAD_LAYOUT
350
1A
  3
ACAD_MATERIAL
350
3B
  3
ACAD_MLEADERSTYLE
350
EF
  3
ACAD_MLINESTYLE
350
17
  3
ACAD_PLOTSETTINGS
350
19
  3
ACAD_PLOTSTYLENAME
350
E
  3
ACAD_TABLESTYLE
350
EE
  3
ACAD_VISUALSTYLE
350
2A
  0
SUN
  5
3F
330
29
100
AcDbSun
 90
        1
290
     0
 63
     7
421
 16777215
 40
1.0
291
     1
 91
  2455826
 92
 54000000
292
     0
 70
     2
 71
   256
280
     1
  0
DICTIONARY
  5
D
102
{ACAD_REACTORS
330
C
102
}
330
C
100
AcDbDictionary
281
     1
  0
DICTIONARY
  5
1A
102
{ACAD_REACTORS
330
C
102
}
330
C
100
AcDbDictionary
281
     1
  3
Layout1
350
1E
  3
Layout2
350
26
  3
Model
350
22
  0
DICTIONARY
  5
3B
102
{ACAD_REACTORS
330
C
102
}
330
C
100
AcDbDictionary
281
     1
  3
ByBlock
350
3D
  3
ByLayer
350
3C
  3
Global
350
3E
  0
DICTIONARY
  5
EF
102
{ACAD_REACTORS
330
C
102
}
330
C
100
AcDbDictionary
281
     1
  0
DICTIONARY
  5
17
102
{ACAD_REACTORS
330
C
102
}
330
C
100
AcDbDictionary
281
     1
  3
Standard
350
18
  0
DICTIONARY
  5
19
102
{ACAD_REACTORS
330
C
102
}
330
C
100
AcDbDictionary
281
     1
  0
ACDBDICTIONARYWDFLT
  5
E
102
{ACAD_REACTORS
330
C
102
}
330
C
100
AcDbDictionary
281
     1
  3
Normal
350
F
100
AcDbDictionaryWithDefault
340
F
  0
DICTIONARY
  5
EE
102
{ACAD_REACTORS
330
C
102
}
330
C
100
AcDbDictionary
281
     1
  0
DICTIONARY
  5
2A
102
{ACAD_REACTORS
330
C
102
}
330
C
100
AcDbDictionary
281
     1
  3
2dWireframe
350
2F
  3
3D Hidden
350
31
  3
3dWireframe
350
30
  3
Basic
350
32
  3
Brighten
350
36
  3
ColorChange
350
3A
  3
Conceptual
350
34
  3
Dim
350
35
  3
Facepattern
350
39
  3
Flat
350
2B
  3
FlatWithEdges
350
2C
  3
Gouraud
350
2D
  3
GouraudWithEdges
350
2E
  3
Linepattern
350
38
  3
Realistic
350
33
  3
Thicken
350
37
  0
LAYOUT
  5
1E
102
{ACAD_REACTORS
330
1A
102
}
330
1A
100
AcDbPlotSettings
  1

  2
none_device
  4

  6

 40
0.0
 41
0.0
 42
0.0
 43
0.0
 44
0.0
 45
0.0
 46
0.0
 47
0.0
 48
0.0
 49
0.0
140
0.0
141
0.0
142
1.0
143
1.0
 70
   688
 72
     0
 73
     0
 74
     5
  7

 75
    16
 76
     0
 77
     2
 78
   300
147
1.0
148
0.0
149
0.0
100
AcDbLayout
  1
Layout1
 70
     1
 71
     1
 10
0.0
 20
0.0
 11
12.0
 21
9.0
 12
0.0
 22
0.0
 32
0.0
 14
1.000000000000000E+20
 24
1.000000000000000E+20
 34
1.000000000000000E+20
 15
-1.000000000000000E+20
 25
-1.000000000000000E+20
 35
-1.000000000000000E+20
146
0.0
 13
0.0
 23
0.0
 33
0.0
 16
1.0
 26
0.0
 36
0.0
 17
0.0
 27
1.0
 37
0.0
 76
     0
330
1B
  0
LAYOUT
  5
26
102
{ACAD_REACTORS
330
1A
102
}
330
1A
100
AcDbPlotSettings
  1

  2
none_device
  4

  6

 40
0.0
 41
0.0
 42
0.0
 43
0.0
 44
0.0
 45
0.0
 46
0.0
 47
0.0
 48
0.0
 49
0.0
140
0.0
141
0.0
142
1.0
143
1.0
 70
   688
 72
     0
 73
     0
 74
     5
  7

 75
    16
 76
     0
 77
     2
 78
   300
147
1.0
148
0.0
149
0.0
100
AcDbLayout
  1
Layout2
 70
     1
 71
     2
 10
0.0
 20
0.0
 11
0.0
 21
0.0
 12
0.0
 22
0.0
 32
0.0
 14
0.0
 24
0.0
 34
0.0
 15
0.0
 25
0.0
 35
0.0
146
0.0
 13
0.0
 23
0.0
 33
0.0
 16
1.0
 26
0.0
 36
0.0
 17
0.0
 27
1.0
 37
0.0
 76
     0
330
23
  0
LAYOUT
  5
22
102
{ACAD_REACTORS
330
1A
102
}
330
1A
100
AcDbPlotSettings
  1

  2
none_device
  4

  6

 40
0.0
 41
0.0
 42
0.0
 43
0.0
 44
0.0
 45
0.0
 46
0.0
 47
0.0
 48
0.0
 49
0.0
140
0.0
141
0.0
142
1.0
143
1.0
 70
  1712
 72
     0
 73
     0
 74
     0
  7

 75
     0
 76
     0
 77
     2
 78
   300
147
1.0
148
0.0
149
0.0
100
AcDbLayout
  1
Model
 70
     1
 71
     0
 10
0.0
 20
0.0
 11
12.0
 21
9.0
 12
0.0
 22
0.0
 32
0.0
 14
1.000000000000000E+20
 24
1.000000000000000E+20
 34
1.000000000000000E+20
 15
-1.000000000000000E+20
 25
-1.000000000000000E+20
 35
-1.000000000000000E+20
146
0.0
 13
0.0
 23
0.0
 33
0.0
 16
1.0
 26
0.0
 36
0.0
 17
0.0
 27
1.0
 37
0.0
 76
     0
330
1F
331
29
  0
MATERIAL
  5
3D
102
{ACAD_REACTORS
330
3B
102
}
330
3B
100
AcDbMaterial
  1
ByBlock
 72
     1
 94
      127
  0
MATERIAL
  5
3C
102
{ACAD_REACTORS
330
3B
102
}
330
3B
100
AcDbMaterial
  1
ByLayer
 72
     1
 94
      127
  0
MATERIAL
  5
3E
102
{ACAD_REACTORS
330
3B
102
}
330
3B
100
AcDbMaterial
  1
Global
 72
     1
 94
      127
  0
MLINESTYLE
  5
18
102
{ACAD_REACTORS
330
17
102
}
330
17
100
AcDbMlineStyle
  2
Standard
 70
     0
  3

 62
   256
 51
90.0
 52
90.0
 71
     2
 49
0.5
 62
   256
  6
BYLAYER
 49
-0.5
 62
   256
  6
BYLAYER
  0
ACDBPLACEHOLDER
  5
F
102
{ACAD_REACTORS
330
E
102
}
330
E
  0
VISUALSTYLE
  5
2F
102
{ACAD_REACTORS
330
2A
102
}
330
2A
100
AcDbVisualStyle
  2
2dWireframe
 70
     4
177
     2
291
     0
 71
     0
176
     1
 72
     2
176
     1
 73
     0
176
     1
 90
        0
176
     1
 40
-0.6
176
     1
 41
-30.0
176
     1
 62
     5
 63
     7
421
 16777215
176
     1
 74
     1
176
     1
 91
        4
176
     1
 64
     7
176
     1
 65
   257
176
     1
 75
     1
176
     1
175
     1
176
     1
 42
1.0
176
     1
 92
        0
176
     1
 66
   257
176
     1
 43
1.0
176
     1
 76
     1
176
     1
 77
     6
176
     1
 78
     2
176
     1
 67
     7
176
     1
 79
     5
176
     1
170
     0
176
     1
171
     0
176
     1
290
     0
176
     1
 93
        1
176
     1
 44
0.0
176
     1
173
     0
176
     1
  0
VISUALSTYLE
  5
31
102
{ACAD_REACTORS
330
2A
102
}
330
2A
100
AcDbVisualStyle
  2
3D Hidden
 70
     6
177
     2
291
     0
 71
     1
176
     1
 72
     2
176
     1
 73
     2
176
     1
 90
        0
176
     1
 40
-0.6
176
     1
 41
-30.0
176
     1
 62
     5
 63
     7
421
 16777215
176
     1
 74
     2
176
     1
 91
        2
176
     1
 64
     7
176
     1
 65
   257
176
     1
 75
     2
176
     1
175
     1
176
     1
 42
40.0
176
     1
 92
        0
176
     1
 66
   257
176
     1
 43
1.0
176
     1
 76
     1
176
     1
 77
     6
176
     1
 78
     2
176
     1
 67
     7
176
     1
 79
     3
176
     1
170
     0
176
     1
171
     0
176
     1
290
     0
176
     1
 93
        1
176
     1
 44
0.0
176
     1
173
     0
176
     1
  0
VISUALSTYLE
  5
30
102
{ACAD_REACTORS
330
2A
102
}
330
2A
100
AcDbVisualStyle
  2
3dWireframe
 70
     5
177
     2
291
     0
 71
     0
176
     1
 72
     2
176
     1
 73
     0
176
     1
 90
        0
176
     1
 40
-0.6
176
     1
 41
-30.0
176
     1
 62
     5
 63
     7
421
 16777215
176
     1
 74
     1
176
     1
 91
        4
176
     1
 64
     7
176
     1
 65
   257
176
     1
 75
     1
176
     1
175
     1
176
     1
 42
1.0
176
     1
 92
        0
176
     1
 66
   257
176
     1
 43
1.0
176
     1
 76
     1
176
     1
 77
     6
176
     1
 78
     2
176
     1
 67
     7
176
     1
 79
     5
176
     1
170
     0
176
     1
171
     0
176
     1
290
     0
176
     1
 93
        1
176
     1
 44
0.0
176
     1
173
     0
176
     1
  0
VISUALSTYLE
  5
32
102
{ACAD_REACTORS
330
2A
102
}
330
2A
100
AcDbVisualStyle
  2
Basic
 70
     7
177
     2
291
     1
 71
     1
176
     1
 72
     0
176
     1
 73
     1
176
     1
 90
        0
176
     1
 40
-0.6
176
     1
 41
-30.0
176
     1
 62
     5
 63
     7
421
 16777215
176
     1
 74
     0
176
     1
 91
        4
176
     1
 64
     7
176
     1
 65
   257
176
     1
 75
     1
176
     1
175
     1
176
     1
 42
1.0
176
     1
 92
        8
176
     1
 66
     7
176
     1
 43
1.0
176
     1
 76
     1
176
     1
 77
     6
176
     1
 78
     2
176
     1
 67
     7
176
     1
 79
     5
176
     1
170
     0
176
     1
171
     0
176
     1
290
     0
176
     1
 93
        1
176
     1
 44
0.0
176
     1
173
     0
176
     1
  0
VISUALSTYLE
  5
36
102
{ACAD_REACTORS
330
2A
102
}
330
2A
100
AcDbVisualStyle
  2
Brighten
 70
    12
177
     2
291
     1
 71
     2
176
     1
 72
     2
176
     1
 73
     0
176
     1
 90
        0
176
     1
 40
-0.6
176
     1
 41
-30.0
176
     1
 62
     5
 63
     7
421
 16777215
176
     1
 74
     1
176
     1
 91
        4
176
     1
 64
     7
176
     1
 65
   257
176
     1
 75
     1
176
     1
175
     1
176
     1
 42
1.0
176
     1
 92
        8
176
     1
 66
     7
176
     1
 43
1.0
176
     1
 76
     1
176
     1
 77
     6
176
     1
 78
     2
176
     1
 67
     7
176
     1
 79
     5
176
     1
170
     0
176
     1
171
     0
176
     1
290
     0
176
     1
 93
        1
176
     1
 44
50.0
176
     1
173
     0
176
     1
  0
VISUALSTYLE
  5
3A
102
{ACAD_REACTORS
330
2A
102
}
330
2A
100
AcDbVisualStyle
  2
ColorChange
 70
    16
177
     2
291
     1
 71
     2
176
     1
 72
     2
176
     1
 73
     3
176
     1
 90
        0
176
     1
 40
-0.6
176
     1
 41
-30.0
176
     1
 62
     5
 63
     8
421
  8421504
176
     1
 74
     1
176
     1
 91
        4
176
     1
 64
     7
176
     1
 65
   257
176
     1
 75
     1
176
     1
175
     1
176
     1
 42
1.0
176
     1
 92
        8
176
     1
 66
     8
424
  8421504
176
     1
 43
1.0
176
     1
 76
     1
176
     1
 77
     6
176
     1
 78
     2
176
     1
 67
     7
176
     1
 79
     5
176
     1
170
     0
176
     1
171
     0
176
     1
290
     0
176
     1
 93
        1
176
     1
 44
0.0
176
     1
173
     0
176
     1
  0
VISUALSTYLE
  5
34
102
{ACAD_REACTORS
330
2A
102
}
330
2A
100
AcDbVisualStyle
  2
Conceptual
 70
     9
177
     2
291
     0
 71
     3
176
     1
 72
     2
176
     1
 73
     0
176
     1
 90
        0
176
     1
 40
-0.6
176
     1
 41
-30.0
176
     1
 62
     5
 63
     7
421
 16777215
176
     1
 74
     2
176
     1
 91
        2
176
     1
 64
     7
176
     1
 65
   257
176
     1
 75
     1
176
     1
175
     1
176
     1
 42
40.0
176
     1
 92
        8
176
     1
 66
     7
176
     1
 43
1.0
176
     1
 76
     1
176
     1
 77
     6
176
     1
 78
     2
176
     1
 67
     7
176
     1
 79
     3
176
     1
170
     0
176
     1
171
     0
176
     1
290
     0
176
     1
 93
        1
176
     1
 44
0.0
176
     1
173
     0
176
     1
  0
VISUALSTYLE
  5
35
102
{ACAD_REACTORS
330
2A
102
}
330
2A
100
AcDbVisualStyle
  2
Dim
 70
    11
177
     2
291
     1
 71
     2
176
     1
 72
     2
176
     1
 73
     0
176
     1
 90
        0
176
     1
 40
-0.6
176
     1
 41
-30.0
176
     1
 62
     5
 63
     7
421
 16777215
176
     1
 74
     1
176
     1
 91
        4
176
     1
 64
     7
176
     1
 65
   257
176
     1
 75
     1
176
     1
175
     1
176
     1
 42
1.0
176
     1
 92
        8
176
     1
 66
     7
176
     1
 43
1.0
176
     1
 76
     1
176
     1
 77
     6
176
     1
 78
     2
176
     1
 67
     7
176
     1
 79
     5
176
     1
170
     0
176
     1
171
     0
176
     1
290
     0
176
     1
 93
        1
176
     1
 44
-50.0
176
     1
173
     0
176
     1
  0
VISUALSTYLE
  5
39
102
{ACAD_REACTORS
330
2A
102
}
330
2A
100
AcDbVisualStyle
  2
Facepattern
 70
    15
177
     2
291
     1
 71
     2
176
     1
 72
     2
176
     1
 73
     0
176
     1
 90
        0
176
     1
 40
-0.6
176
     1
 41
-30.0
176
     1
 62
     5
 63
     7
421
 16777215
176
     1
 74
     1
176
     1
 91
        4
176
     1
 64
     7
176
     1
 65
   257
176
     1
 75
     1
176
     1
175
     1
176
     1
 42
1.0
176
     1
 92
        8
176
     1
 66
     7
176
     1
 43
1.0
176
     1
 76
     1
176
     1
 77
     6
176
     1
 78
     2
176
     1
 67
     7
176
     1
 79
     5
176
     1
170
     0
176
     1
171
     0
176
     1
290
     0
176
     1
 93
        1
176
     1
 44
0.0
176
     1
173
     0
176
     1
  0
VISUALSTYLE
  5
2B
102
{ACAD_REACTORS
330
2A
102
}
330
2A
100
AcDbVisualStyle
  2
Flat
 70
     0
177
     2
291
     1
 71
     2
176
     1
 72
     1
176
     1
 73
     1
176
     1
 90
        2
176
     1
 40
-0.6
176
     1
 41
30.0
176
     1
 62
     5
 63
     7
421
 16777215
176
     1
 74
     0
176
     1
 91
        4
176
     1
 64
     7
176
     1
 65
   257
176
     1
 75
     1
176
     1
175
     1
176
     1
 42
1.0
176
     1
 92
        8
176
     1
 66
     7
176
     1
 43
1.0
176
     1
 76
     1
176
     1
 77
     6
176
     1
 78
     2
176
     1
 67
     7
176
     1
 79
     5
176
     1
170
     0
176
     1
171
     0
176
     1
290
     0
176
     1
 93
       13
176
     1
 44
0.0
176
     1
173
     0
176
     1
  0
VISUALSTYLE
  5
2C
102
{ACAD_REACTORS
330
2A
102
}
330
2A
100
AcDbVisualStyle
  2
FlatWithEdges
 70
     1
177
     2
291
     1
 71
     2
176
     1
 72
     1
176
     1
 73
     1
176
     1
 90
        2
176
     1
 40
-0.6
176
     1
 41
30.0
176
     1
 62
     5
 63
     7
421
 16777215
176
     1
 74
     1
176
     1
 91
        4
176
     1
 64
     7
176
     1
 65
   257
176
     1
 75
     1
176
     1
175
     1
176
     1
 42
1.0
176
     1
 92
        0
176
     1
 66
   257
176
     1
 43
1.0
176
     1
 76
     1
176
     1
 77
     6
176
     1
 78
     2
176
     1
 67
     7
176
     1
 79
     5
176
     1
170
     0
176
     1
171
     0
176
     1
290
     0
176
     1
 93
       13
176
     1
 44
0.0
176
     1
173
     0
176
     1
  0
VISUALSTYLE
  5
2D
102
{ACAD_REACTORS
330
2A
102
}
330
2A
100
AcDbVisualStyle
  2
Gouraud
 70
     2
177
     2
291
     1
 71
     2
176
     1
 72
     2
176
     1
 73
     1
176
     1
 90
        2
176
     1
 40
-0.6
176
     1
 41
30.0
176
     1
 62
     5
 63
     7
421
 16777215
176
     1
 74
     0
176
     1
 91
        4
176
     1
 64
     7
176
     1
 65
   257
176
     1
 75
     1
176
     1
175
     1
176
     1
 42
1.0
176
     1
 92
        0
176
     1
 66
     7
176
     1
 43
1.0
176
     1
 76
     1
176
     1
 77
     6
176
     1
 78
     2
176
     1
 67
     7
176
     1
 79
     5
176
     1
170
     0
176
     1
171
     0
176
     1
290
     0
176
     1
 93
       13
176
     1
 44
0.0
176
     1
173
     0
176
     1
  0
VISUALSTYLE
  5
2E
102
{ACAD_REACTORS
330
2A
102
}
330
2A
100
AcDbVisualStyle
  2
GouraudWithEdges
 70
     3
177
     2
291
     1
 71
     2
176
     1
 72
     2
176
     1
 73
     1
176
     1
 90
        2
176
     1
 40
-0.6
176
     1
 41
30.0
176
     1
 62
     5
 63
     7
421
 16777215
176
     1
 74
     1
176
     1
 91
        4
176
     1
 64
     7
176
     1
 65
   257
176
     1
 75
     1
176
     1
175
     1
176
     1
 42
1.0
176
     1
 92
        0
176
     1
 66
   257
176
     1
 43
1.0
176
     1
 76
     1
176
     1
 77
     6
176
     1
 78
     2
176
     1
 67
     7
176
     1
 79
     5
176
     1
170
     0
176
     1
171
     0
176
     1
290
     0
176
     1
 93
       13
176
     1
 44
0.0
176
     1
173
     0
176
     1
  0
VISUALSTYLE
  5
38
102
{ACAD_REACTORS
330
2A
102
}
330
2A
100
AcDbVisualStyle
  2
Linepattern
 70
    14
177
     2
291
     1
 71
     2
176
     1
 72
     2
176
     1
 73
     0
176
     1
 90
        0
176
     1
 40
-0.6
176
     1
 41
-30.0
176
     1
 62
     5
 63
     7
421
 16777215
176
     1
 74
     1
176
     1
 91
        4
176
     1
 64
     7
176
     1
 65
   257
176
     1
 75
     7
176
     1
175
     7
176
     1
 42
1.0
176
     1
 92
        8
176
     1
 66
     7
176
     1
 43
1.0
176
     1
 76
     1
176
     1
 77
     6
176
     1
 78
     2
176
     1
 67
     7
176
     1
 79
     5
176
     1
170
     0
176
     1
171
     0
176
     1
290
     0
176
     1
 93
        1
176
     1
 44
0.0
176
     1
173
     0
176
     1
  0
VISUALSTYLE
  5
33
102
{ACAD_REACTORS
330
2A
102
}
330
2A
100
AcDbVisualStyle
  2
Realistic
 70
     8
177
     2
291
     0
 71
     2
176
     1
 72
     2
176
     1
 73
     0
176
     1
 90
        0
176
     1
 40
-0.6
176
     1
 41
-30.0
176
     1
 62
     5
 63
     7
421
 16777215
176
     1
 74
     1
176
     1
 91
        0
176
     1
 64
     7
176
     1
 65
   257
176
     1
 75
     1
176
     1
175
     1
176
     1
 42
1.0
176
     1
 92
        8
176
     1
 66
     8
424
  7895160
176
     1
 43
1.0
176
     1
 76
     1
176
     1
 77
     6
176
     1
 78
     2
176
     1
 67
     7
176
     1
 79
     5
176
     1
170
     0
176
     1
171
     0
176
     1
290
     0
176
     1
 93
       13
176
     1
 44
0.0
176
     1
173
     0
176
     1
  0
VISUALSTYLE
  5
37
102
{ACAD_REACTORS
330
2A
102
}
330
2A
100
AcDbVisualStyle
  2
Thicken
 70
    13
177
     2
291
     1
 71
     2
176
     1
 72
     2
176
     1
 73
     0
176
     1
 90
        0
176
     1
 40
-0.6
176
     1
 41
-30.0
176
     1
 62
     5
 63
     7
421
 16777215
176
     1
 74
     1
176
     1
 91
        4
176
     1
 64
     7
176
     1
 65
   257
176
     1
 75
     1
176
     1
175
     1
176
     1
 42
1.0
176
     1
 92
       12
176
     1
 66
     7
176
     1
 43
1.0
176
     1
 76
     1
176
     1
 77
     6
176
     1
 78
     2
176
     1
 67
     7
176
     1
 79
     5
176
     1
170
     0
176
     1
171
     0
176
     1
290
     0
176
     1
 93
        1
176
     1
 44
0.0
176
     1
173
     0
176
     1
  0
ENDSEC
  0
EOF
