  0
SECTION
  2
HEADER
  9
$ACADVER
  1
AC1024
  9
$ACADMAINTVER
 70
     6
  9
$DWGCODEPAGE
  3
UNDEFINED
  9
$INSBASE
 10
0.0
 20
0.0
 30
0.0
  9
$EXTMIN
 10
1.000000000000000E+20
 20
1.000000000000000E+20
 30
1.000000000000000E+20
  9
$EXTMAX
 10
-1.000000000000000E+20
 20
-1.000000000000000E+20
 30
-1.000000000000000E+20
  9
$LIMMIN
 10
0.0
 20
0.0
  9
$LIMMAX
 10
12.0
 20
9.0
  9
$ORTHOMODE
 70
     0
  9
$REGENMODE
 70
     1
  9
$FILLMODE
 70
     1
  9
$QTEXTMODE
 70
     0
  9
$MIRRTEXT
 70
     1
  9
$LTSCALE
 40
1.0
  9
$ATTMODE
 70
     1
  9
$TEXTSIZE
 40
0.2
  9
$TRACEWID
 40
0.05
  9
$TEXTSTYLE
  7
Standard
  9
$CLAYER
  8
0
  9
$CELTYPE
  6
ByLayer
  9
$CECOLOR
 62
   256
  9
$CELTSCALE
 40
1.0
  9
$DISPSILH
 70
     0
  9
$DIMSCALE
 40
1.0
  9
$DIMASZ
 40
0.18
  9
$DIMEXO
 40
0.0625
  9
$DIMDLI
 40
0.38
  9
$DIMRND
 40
0.0
  9
$DIMDLE
 40
0.0
  9
$DIMEXE
 40
0.18
  9
$DIMTP
 40
0.0
  9
$DIMTM
 40
0.0
  9
$DIMTXT
 40
0.18
  9
$DIMCEN
 40
0.09
  9
$DIMTSZ
 40
0.0
  9
$DIMTOL
 70
     0
  9
$DIMLIM
 70
     0
  9
$DIMTIH
 70
     1
  9
$DIMTOH
 70
     1
  9
$DIMSE1
 70
     0
  9
$DIMSE2
 70
     0
  9
$DIMTAD
 70
     0
  9
$DIMZIN
 70
     0
  9
$DIMBLK
  1

  9
$DIMASO
 70
     1
  9
$DIMSHO
 70
     1
  9
$DIMPOST
  1

  9
$DIMAPOST
  1

  9
$DIMALT
 70
     0
  9
$DIMALTD
 70
     2
  9
$DIMALTF
 40
25.4
  9
$DIMLFAC
 40
1.0
  9
$DIMTOFL
 70
     0
  9
$DIMTVP
 40
0.0
  9
$DIMTIX
 70
     0
  9
$DIMSOXD
 70
     0
  9
$DIMSAH
 70
     0
  9
$DIMBLK1
  1

  9
$DIMBLK2
  1

  9
$DIMSTYLE
  2
Standard
  9
$DIMCLRD
 70
     0
  9
$DIMCLRE
 70
     0
  9
$DIMCLRT
 70
     0
  9
$DIMTFAC
 40
1.0
  9
$DIMGAP
 40
0.09
  9
$DIMJUST
 70
     0
  9
$DIMSD1
 70
     0
  9
$DIMSD2
 70
     0
  9
$DIMTOLJ
 70
     1
  9
$DIMTZIN
 70
     0
  9
$DIMALTZ
 70
     0
  9
$DIMALTTZ
 70
     0
  9
$DIMUPT
 70
     0
  9
$DIMDEC
 70
     4
  9
$DIMTDEC
 70
     4
  9
$DIMALTU
 70
     2
  9
$DIMALTTD
 70
     2
  9
$DIMTXSTY
  7
Standard
  9
$DIMAUNIT
 70
     0
  9
$DIMADEC
 70
     0
  9
$DIMALTRND
 40
0.0
  9
$DIMAZIN
 70
     0
  9
$DIMDSEP
 70
    46
  9
$DIMATFIT
 70
     3
  9
$DIMFRAC
 70
     0
  9
$DIMLDRBLK
  1

  9
$DIMLUNIT
 70
     2
  9
$DIMLWD
 70
    -2
  9
$DIMLWE
 70
    -2
  9
$DIMTMOVE
 70
     0
  9
$DIMFXL
 40
1.0
  9
$DIMFXLON
 70
     0
  9
$DIMJOGANG
 40
0.7853981633974483
  9
$DIMTFILL
 70
     0
  9
$DIMTFILLCLR
 70
     0
  9
$DIMARCSYM
 70
     0
  9
$DIMLTYPE
  6

  9
$DIMLTEX1
  6

  9
$DIMLTEX2
  6

  9
$DIMTXTDIRECTION
 70
     0
  9
$LUNITS
 70
     2
  9
$LUPREC
 70
     4
  9
$SKETCHINC
 40
0.1
  9
$FILLETRAD
 40
0.5
  9
$AUNITS
 70
     0
  9
$AUPREC
 70
     0
  9
$MENU
  1
.
  9
$ELEVATION
 40
0.0
  9
$PELEVATION
 40
0.0
  9
$THICKNESS
 40
0.0
  9
$LIMCHECK
 70
     0
  9
$CHAMFERA
 40
0.5
  9
$CHAMFERB
 40
0.5
  9
$CHAMFERC
 40
1.0
  9
$CHAMFERD
 40
0.0
  9
$SKPOLY
 70
     0
  9
$TDCREATE
 40
2458263.580462951
  9
$TDUCREATE
 40
2458263.205462963
  9
$TDUPDATE
 40
2458263.580462951
  9
$TDUUPDATE
 40
2458263.205462963
  9
$TDINDWG
 40
0.0000000116
  9
$TDUSRTIMER
 40
0.0000000116
  9
$USRTIMER
 70
     1
  9
$ANGBASE
 50
0.0
  9
$ANGDIR
 70
     0
  9
$PDMODE
 70
     0
  9
$PDSIZE
 40
0.0
  9
$PLINEWID
 40
0.0
  9
$SPLFRAME
 70
     0
  9
$SPLINETYPE
 70
     6
  9
$SPLINESEGS
 70
     8
  9
$HANDSEED
  5
DD
  9
$SURFTAB1
 70
     6
  9
$SURFTAB2
 70
     6
  9
$SURFTYPE
 70
     6
  9
$SURFU
 70
     6
  9
$SURFV
 70
     6
  9
$UCSBASE
  2

  9
$UCSNAME
  2

  9
$UCSORG
 10
0.0
 20
0.0
 30
0.0
  9
$UCSXDIR
 10
1.0
 20
0.0
 30
0.0
  9
$UCSYDIR
 10
0.0
 20
1.0
 30
0.0
  9
$UCSORTHOREF
  2

  9
$UCSORTHOVIEW
 70
     0
  9
$UCSORGTOP
 10
0.0
 20
0.0
 30
0.0
  9
$UCSORGBOTTOM
 10
0.0
 20
0.0
 30
0.0
  9
$UCSORGLEFT
 10
0.0
 20
0.0
 30
0.0
  9
$UCSORGRIGHT
 10
0.0
 20
0.0
 30
0.0
  9
$UCSORGFRONT
 10
0.0
 20
0.0
 30
0.0
  9
$UCSORGBACK
 10
0.0
 20
0.0
 30
0.0
  9
$PUCSBASE
  2

  9
$PUCSNAME
  2

  9
$PUCSORG
 10
0.0
 20
0.0
 30
0.0
  9
$PUCSXDIR
 10
1.0
 20
0.0
 30
0.0
  9
$PUCSYDIR
 10
0.0
 20
1.0
 30
0.0
  9
$PUCSORTHOREF
  2

  9
$PUCSORTHOVIEW
 70
     0
  9
$PUCSORGTOP
 10
0.0
 20
0.0
 30
0.0
  9
$PUCSORGBOTTOM
 10
0.0
 20
0.0
 30
0.0
  9
$PUCSORGLEFT
 10
0.0
 20
0.0
 30
0.0
  9
$PUCSORGRIGHT
 10
0.0
 20
0.0
 30
0.0
  9
$PUCSORGFRONT
 10
0.0
 20
0.0
 30
0.0
  9
$PUCSORGBACK
 10
0.0
 20
0.0
 30
0.0
  9
$USERI1
 70
     0
  9
$USERI2
 70
     0
  9
$USERI3
 70
     0
  9
$USERI4
 70
     0
  9
$USERI5
 70
     0
  9
$USERR1
 40
0.0
  9
$USERR2
 40
0.0
  9
$USERR3
 40
0.0
  9
$USERR4
 40
0.0
  9
$USERR5
 40
0.0
  9
$WORLDVIEW
 70
     1
  9
$SHADEDGE
 70
     3
  9
$SHADEDIF
 70
    70
  9
$TILEMODE
 70
     1
  9
$MAXACTVP
 70
    64
  9
$PINSBASE
 10
0.0
 20
0.0
 30
0.0
  9
$PLIMCHECK
 70
     0
  9
$PEXTMIN
 10
1.000000000000000E+20
 20
1.000000000000000E+20
 30
1.000000000000000E+20
  9
$PEXTMAX
 10
-1.000000000000000E+20
 20
-1.000000000000000E+20
 30
-1.000000000000000E+20
  9
$PLIMMIN
 10
0.0
 20
0.0
  9
$PLIMMAX
 10
12.0
 20
9.0
  9
$UNITMODE
 70
     0
  9
$VISRETAIN
 70
     1
  9
$PLINEGEN
 70
     0
  9
$PSLTSCALE
 70
     1
  9
$TREEDEPTH
 70
  3020
  9
$CMLSTYLE
  2
Standard
  9
$CMLJUST
 70
     0
  9
$CMLSCALE
 40
1.0
  9
$PROXYGRAPHICS
 70
     1
  9
$MEASUREMENT
 70
     0
  9
$CELWEIGHT
370
    -1
  9
$ENDCAPS
280
     0
  9
$JOINSTYLE
280
     0
  9
$LWDISPLAY
290
     1
  9
$INSUNITS
 70
     1
  9
$HYPERLINKBASE
  1

  9
$STYLESHEET
  1

  9
$XEDIT
290
     1
  9
$CEPSNTYPE
380
     0
  9
$PSTYLEMODE
290
     1
  9
$FINGERPRINTGUID
  2
{FF5A792A-AEAE-86B7-12BA-4D3D3936A916}
  9
$VERSIONGUID
  2
{FAEB1C32-E019-11D5-929B-00C0DF256EC4}
  9
$EXTNAMES
290
     1
  9
$PSVPSCALE
 40
0.0
  9
$OLESTARTUP
290
     0
  9
$SORTENTS
280
   127
  9
$INDEXCTL
280
     0
  9
$HIDETEXT
280
     1
  9
$XCLIPFRAME
280
     2
  9
$HALOGAP
280
     0
  9
$OBSCOLOR
 70
   257
  9
$OBSLTYPE
280
     0
  9
$INTERSECTIONDISPLAY
280
     0
  9
$INTERSECTIONCOLOR
 70
   257
  9
$DIMASSOC
280
     2
  9
$PROJECTNAME
  1

  9
$CAMERADISPLAY
290
     0
  9
$LENSLENGTH
 40
50.0
  9
$CAMERAHEIGHT
 40
0.0
  9
$STEPSPERSEC
 40
2.0
  9
$STEPSIZE
 40
6.0
  9
$3DDWFPREC
 40
2.0
  9
$PSOLWIDTH
 40
0.25
  9
$PSOLHEIGHT
 40
4.0
  9
$LOFTANG1
 40
1.570796326794897
  9
$LOFTANG2
 40
1.570796326794897
  9
$LOFTMAG1
 40
0.0
  9
$LOFTMAG2
 40
0.0
  9
$LOFTPARAM
 70
     7
  9
$LOFTNORMALS
280
     1
  9
$LATITUDE
 40
37.795
  9
$LONGITUDE
 40
-122.394
  9
$NORTHDIRECTION
 40
0.0
  9
$TIMEZONE
 70
 -8000
  9
$LIGHTGLYPHDISPLAY
280
     1
  9
$TILEMODELIGHTSYNCH
280
     1
  9
$CMATERIAL
347
3C
  9
$SOLIDHIST
280
     1
  9
$SHOWHIST
280
     1
  9
$DWFFRAME
280
     2
  9
$DGNFRAME
280
     2
  9
$REALWORLDSCALE
290
     1
  9
$INTERFERECOLOR
 62
   256
  9
$CSHADOW
280
     0
  9
$SHADOWPLANELOCATION
 40
0.0
  0
ENDSEC
  0
SECTION
  2
CLASSES
  0
CLASS
  1
ACDBDICTIONARYWDFLT
  2
AcDbDictionaryWithDefault
  3
ObjectDBX Classes
 90
        0
 91
        4
280
     0
281
     0
  0
CLASS
  1
VISUALSTYLE
  2
AcDbVisualStyle
  3
ObjectDBX Classes
 90
     4095
 91
        4
280
     0
281
     0
  0
CLASS
  1
MATERIAL
  2
AcDbMaterial
  3
ObjectDBX Classes
 90
     1153
 91
        4
280
     0
281
     0
  0
CLASS
  1
SUN
  2
AcDbSun
  3
SCENEOE
 90
     1024
 91
        4
280
     0
281
     0
  0
ENDSEC
  0
SECTION
  2
TABLES
  0
TABLE
  2
VPORT
  5
8
330
0
100
AcDbSymbolTable
 70
     1
  0
VPORT
  5
29
330
8
100
AcDbSymbolTableRecord
100
AcDbViewportTableRecord
  2
*Active
 70
     0
 10
0.0
 20
0.0
 11
1.0
 21
1.0
 12
0.0
 22
0.0
 13
0.0
 23
0.0
 14
0.5
 24
0.5
 15
0.5
 25
0.5
 16
0.0
 26
0.0
 36
1.0
 17
105.0007777515277
 27
-148.5000416295416
 37
0.0
 40
297.0000832590831
 41
0.7070757462376333
 42
50.0
 43
0.0
 44
0.0
 50
0.0
 51
0.0
 71
     0
 72
   100
 73
     1
 74
     3
 75
     0
 76
     0
 77
     0
 78
     0
281
     0
 65
     1
110
0.0
120
0.0
130
0.0
111
1.0
121
0.0
131
0.0
112
0.0
122
1.0
132
0.0
 79
     0
146
0.0
 60
     3
 61
     5
292
     1
282
     1
141
0.0
142
0.0
 63
   250
361
3F
  0
ENDTAB
  0
TABLE
  2
LTYPE
  5
5
330
0
100
AcDbSymbolTable
 70
     4
  0
LTYPE
  5
14
330
5
100
AcDbSymbolTableRecord
100
AcDbLinetypeTableRecord
  2
ByBlock
 70
     0
  3

 72
    65
 73
     0
 40
0.0
  0
LTYPE
  5
15
330
5
100
AcDbSymbolTableRecord
100
AcDbLinetypeTableRecord
  2
ByLayer
 70
     0
  3

 72
    65
 73
     0
 40
0.0
  0
LTYPE
  5
16
330
5
100
AcDbSymbolTableRecord
100
AcDbLinetypeTableRecord
  2
Continuous
 70
     0
  3
Solid line
 72
    65
 73
     0
 40
0.0
  0
LTYPE
  5
CF
330
5
100
AcDbSymbolTableRecord
100
AcDbLinetypeTableRecord
  2
AI-Linetype-1
 70
     0
  3
Adobe Illustrator Linetype No. 1
 72
    65
 73
     2
 40
1.411111110758333
 49
0.7055555553791667
 74
     0
 49
-0.7055555553791667
 74
     0
  0
LTYPE
  5
D4
330
5
100
AcDbSymbolTableRecord
100
AcDbLinetypeTableRecord
  2
AI-Linetype-2
 70
     0
  3
Adobe Illustrator Linetype No. 2
 72
    65
 73
     2
 40
1.411111110758333
 49
0.7055555553791667
 74
     0
 49
-0.7055555553791667
 74
     0
  0
LTYPE
  5
D9
330
5
100
AcDbSymbolTableRecord
100
AcDbLinetypeTableRecord
  2
AI-Linetype-3
 70
     0
  3
Adobe Illustrator Linetype No. 3
 72
    65
 73
     2
 40
1.411111110758333
 49
0.7055555553791667
 74
     0
 49
-0.7055555553791667
 74
     0
  0
ENDTAB
  0
TABLE
  2
LAYER
  5
2
330
0
100
AcDbSymbolTable
 70
     2
  0
LAYER
  5
10
330
2
100
AcDbSymbolTableRecord
100
AcDbLayerTableRecord
  2
0
 70
     0
 62
     7
  6
Continuous
370
    -3
390
F
347
3E
  0
LAYER
  5
40
330
2
100
AcDbSymbolTableRecord
100
AcDbLayerTableRecord
  2
_U+30EC_U+30A4_U+30E4_U+30FC 1
 70
     0
 62
     7
  6
Continuous
370
    -3
390
F
347
3E
  0
ENDTAB
  0
TABLE
  2
STYLE
  5
3
330
0
100
AcDbSymbolTable
 70
     1
  0
STYLE
  5
11
330
3
100
AcDbSymbolTableRecord
100
AcDbTextStyleTableRecord
  2
Standard
 70
     0
 40
0.0
 41
1.0
 50
0.0
 71
     0
 42
0.2
  3
txt
  4

  0
ENDTAB
  0
TABLE
  2
VIEW
  5
6
330
0
100
AcDbSymbolTable
 70
     0
  0
ENDTAB
  0
TABLE
  2
UCS
  5
7
330
0
100
AcDbSymbolTable
 70
     0
  0
ENDTAB
  0
TABLE
  2
APPID
  5
9
330
0
100
AcDbSymbolTable
 70
     1
  0
APPID
  5
12
330
9
100
AcDbSymbolTableRecord
100
AcDbRegAppTableRecord
  2
ACAD
 70
     0
  0
ENDTAB
  0
TABLE
  2
DIMSTYLE
  5
A
330
0
100
AcDbSymbolTable
 70
     1
100
AcDbDimStyleTable
  0
DIMSTYLE
105
27
330
A
100
AcDbSymbolTableRecord
100
AcDbDimStyleTableRecord
  2
Standard
 70
     0
178
     0
340
11
  0
ENDTAB
  0
TABLE
  2
BLOCK_RECORD
  5
1
330
0
100
AcDbSymbolTable
 70
     6
  0
BLOCK_RECORD
  5
1F
330
1
100
AcDbSymbolTableRecord
100
AcDbBlockTableRecord
  2
*Model_Space
340
22
 70
     0
280
     1
281
     0
  0
BLOCK_RECORD
  5
1B
330
1
100
AcDbSymbolTableRecord
100
AcDbBlockTableRecord
  2
*Paper_Space
340
1E
 70
     0
280
     1
281
     0
  0
BLOCK_RECORD
  5
23
330
1
100
AcDbSymbolTableRecord
100
AcDbBlockTableRecord
  2
*Paper_Space0
340
26
 70
     0
280
     1
281
     0
  0
BLOCK_RECORD
  5
74
330
1
100
AcDbSymbolTableRecord
100
AcDbBlockTableRecord
  2
block 2
340
0
102
{BLKREFS
331
75
102
}
 70
     0
280
     1
281
     0
  0
BLOCK_RECORD
  5
82
330
1
100
AcDbSymbolTableRecord
100
AcDbBlockTableRecord
  2
block 3
340
0
102
{BLKREFS
331
83
102
}
 70
     0
280
     1
281
     0
  0
BLOCK_RECORD
  5
94
330
1
100
AcDbSymbolTableRecord
100
AcDbBlockTableRecord
  2
block 4
340
0
102
{BLKREFS
331
95
102
}
 70
     0
280
     1
281
     0
  0
BLOCK_RECORD
  5
A9
330
1
100
AcDbSymbolTableRecord
100
AcDbBlockTableRecord
  2
block 5
340
0
102
{BLKREFS
331
AA
102
}
 70
     0
280
     1
281
     0
  0
BLOCK_RECORD
  5
B9
330
1
100
AcDbSymbolTableRecord
100
AcDbBlockTableRecord
  2
block 6
340
0
102
{BLKREFS
331
BA
102
}
 70
     0
280
     1
281
     0
  0
ENDTAB
  0
ENDSEC
  0
SECTION
  2
BLOCKS
  0
BLOCK
  5
20
330
1F
100
AcDbEntity
  8
0
100
AcDbBlockBegin
  2
*Model_Space
 70
     0
 10
0.0
 20
0.0
 30
0.0
  3
*Model_Space
  1

  0
ENDBLK
  5
21
330
1F
100
AcDbEntity
  8
0
100
AcDbBlockEnd
  0
BLOCK
  5
1C
330
1B
100
AcDbEntity
 67
     1
  8
0
100
AcDbBlockBegin
  2
*Paper_Space
 70
     0
 10
0.0
 20
0.0
 30
0.0
  3
*Paper_Space
  1

  0
ENDBLK
  5
1D
330
1B
100
AcDbEntity
 67
     1
  8
0
100
AcDbBlockEnd
  0
BLOCK
  5
24
330
23
100
AcDbEntity
  8
0
100
AcDbBlockBegin
  2
*Paper_Space0
 70
     0
 10
0.0
 20
0.0
 30
0.0
  3
*Paper_Space0
  1

  0
ENDBLK
  5
25
330
23
100
AcDbEntity
  8
0
100
AcDbBlockEnd
  0
BLOCK
  5
76
330
74
100
AcDbEntity
  8
0
100
AcDbBlockBegin
  2
block 2
 70
     0
 10
0.0
 20
0.0
 30
0.0
  3
block 2
  1

  0
SPLINE
  5
78
330
74
100
AcDbEntity
  8
_U+30EC_U+30A4_U+30E4_U+30FC 1
370
     0
100
AcDbSpline
210
0.0
220
0.0
230
1.0
 70
    11
 71
     3
 72
    26
 73
    22
 74
     0
 42
0.0000000001
 43
0.0000000001
 12
1.0
 22
0.0
 32
0.0
 13
1.0
 23
0.0
 33
0.0
 40
0.0
 40
0.0
 40
0.0
 40
0.0
 40
1.0
 40
1.0
 40
1.0
 40
2.0
 40
2.0
 40
2.0
 40
3.0
 40
3.0
 40
3.0
 40
4.0
 40
4.0
 40
4.0
 40
5.0
 40
5.0
 40
5.0
 40
6.0
 40
6.0
 40
6.0
 40
7.0
 40
7.0
 40
7.0
 40
7.0
 10
118.7734564590219
 20
-140.4606770482182
 30
0.0
 10
118.7734564590219
 20
-140.4606770482182
 30
0.0
 10
117.6693033559993
 20
-140.4606770482182
 30
0.0
 10
117.6693033559993
 20
-140.4606770482182
 30
0.0
 10
117.6693033559993
 20
-140.4606770482182
 30
0.0
 10
117.6693033559993
 20
-140.7907171957051
 30
0.0
 10
117.6693033559993
 20
-140.7907171957051
 30
0.0
 10
117.6693033559993
 20
-140.7907171957051
 30
0.0
 10
117.5211642501336
 20
-140.7907171957051
 30
0.0
 10
117.5211642501336
 20
-140.7907171957051
 30
0.0
 10
117.506350339547
 20
-140.458609990927
 30
0.0
 10
117.3433973230947
 20
-140.4121012018761
 30
0.0
 10
117.2290201529844
 20
-140.382473380703
 30
0.0
 10
117.2290201529844
 20
-140.382473380703
 30
0.0
 10
117.2290201529844
 20
-140.2364013321284
 30
0.0
 10
117.2290201529844
 20
-140.2364013321284
 30
0.0
 10
117.2290201529844
 20
-140.2364013321284
 30
0.0
 10
118.7734564590219
 20
-140.2364013321284
 30
0.0
 10
118.7734564590219
 20
-140.2364013321284
 30
0.0
 10
118.7734564590219
 20
-140.2364013321284
 30
0.0
 10
118.7734564590219
 20
-140.4606770482182
 30
0.0
 10
118.7734564590219
 20
-140.4606770482182
 30
0.0
  0
HATCH
  5
79
330
74
100
AcDbEntity
  8
_U+30EC_U+30A4_U+30E4_U+30FC 1
 62
   179
420
  2234388
100
AcDbHatch
 10
0.0
 20
0.0
 30
0.0
210
0.0
220
0.0
230
1.0
  2
SOLID
 70
     1
 71
     0
 91
        1
 92
        1
 93
        1
 72
     4
 94
        3
 73
     0
 74
     1
 95
       26
 96
       22
 40
0.0
 40
0.0
 40
0.0
 40
0.0
 40
1.0
 40
1.0
 40
1.0
 40
2.0
 40
2.0
 40
2.0
 40
3.0
 40
3.0
 40
3.0
 40
4.0
 40
4.0
 40
4.0
 40
5.0
 40
5.0
 40
5.0
 40
6.0
 40
6.0
 40
6.0
 40
7.0
 40
7.0
 40
7.0
 40
7.0
 10
118.7734564590219
 20
-140.4606770482182
 10
118.7734564590219
 20
-140.4606770482182
 10
117.6693033559993
 20
-140.4606770482182
 10
117.6693033559993
 20
-140.4606770482182
 10
117.6693033559993
 20
-140.4606770482182
 10
117.6693033559993
 20
-140.7907171957051
 10
117.6693033559993
 20
-140.7907171957051
 10
117.6693033559993
 20
-140.7907171957051
 10
117.5211642501336
 20
-140.7907171957051
 10
117.5211642501336
 20
-140.7907171957051
 10
117.506350339547
 20
-140.458609990927
 10
117.3433973230947
 20
-140.4121012018761
 10
117.2290201529844
 20
-140.382473380703
 10
117.2290201529844
 20
-140.382473380703
 10
117.2290201529844
 20
-140.2364013321284
 10
117.2290201529844
 20
-140.2364013321284
 10
117.2290201529844
 20
-140.2364013321284
 10
118.7734564590219
 20
-140.2364013321284
 10
118.7734564590219
 20
-140.2364013321284
 10
118.7734564590219
 20
-140.2364013321284
 10
118.7734564590219
 20
-140.4606770482182
 10
118.7734564590219
 20
-140.4606770482182
 97
        0
 97
        0
 75
     2
 76
     1
 98
        0
  0
ENDBLK
  5
77
330
74
100
AcDbEntity
  8
0
100
AcDbBlockEnd
  0
BLOCK
  5
84
330
82
100
AcDbEntity
  8
0
100
AcDbBlockBegin
  2
block 3
 70
     0
 10
0.0
 20
0.0
 30
0.0
  3
block 3
  1

  0
SPLINE
  5
86
330
82
100
AcDbEntity
  8
_U+30EC_U+30A4_U+30E4_U+30FC 1
370
     0
100
AcDbSpline
210
0.0
220
0.0
230
1.0
 70
    11
 71
     3
 72
    62
 73
    58
 74
     0
 42
0.0000000001
 43
0.0000000001
 12
1.0
 22
0.0
 32
0.0
 13
1.0
 23
0.0
 33
0.0
 40
0.0
 40
0.0
 40
0.0
 40
0.0
 40
1.0
 40
1.0
 40
1.0
 40
2.0
 40
2.0
 40
2.0
 40
3.0
 40
3.0
 40
3.0
 40
4.0
 40
4.0
 40
4.0
 40
5.0
 40
5.0
 40
5.0
 40
6.0
 40
6.0
 40
6.0
 40
7.0
 40
7.0
 40
7.0
 40
8.0
 40
8.0
 40
8.0
 40
9.0
 40
9.0
 40
9.0
 40
10.0
 40
10.0
 40
10.0
 40
11.0
 40
11.0
 40
11.0
 40
12.0
 40
12.0
 40
12.0
 40
13.0
 40
13.0
 40
13.0
 40
14.0
 40
14.0
 40
14.0
 40
15.0
 40
15.0
 40
15.0
 40
16.0
 40
16.0
 40
16.0
 40
17.0
 40
17.0
 40
17.0
 40
18.0
 40
18.0
 40
18.0
 40
19.0
 40
19.0
 40
19.0
 40
19.0
 10
118.8240993626551
 20
-154.419859444902
 30
0.0
 10
118.8240993626551
 20
-154.5152885898434
 30
0.0
 10
118.8030842801951
 20
-154.7330186245112
 30
0.0
 10
118.6170491239916
 20
-154.8580755906258
 30
0.0
 10
118.5047390111724
 20
-154.9321451435586
 30
0.0
 10
118.4055202611972
 20
-154.9362792581409
 30
0.0
 10
118.3207709122601
 20
-154.9404133727232
 30
0.0
 10
118.3207709122601
 20
-154.9404133727232
 30
0.0
 10
118.3207709122601
 20
-154.7202717712158
 30
0.0
 10
118.3207709122601
 20
-154.7202717712158
 30
0.0
 10
118.394840465193
 20
-154.7182047139246
 30
0.0
 10
118.6294514677385
 20
-154.7078694274689
 30
0.0
 10
118.6294514677385
 20
-154.4243380690328
 30
0.0
 10
118.6294514677385
 20
-154.2868787591713
 30
0.0
 10
118.5598605389364
 20
-154.1342610291748
 30
0.0
 10
118.3314507082644
 20
-154.1342610291748
 30
0.0
 10
118.2150064808629
 20
-154.1342610291748
 30
0.0
 10
118.1664306345209
 20
-154.1725015890611
 30
0.0
 10
118.1347357560566
 20
-154.2041964675253
 30
0.0
 10
118.0606662031237
 20
-154.2782660204582
 30
0.0
 10
118.0479193498283
 20
-154.3947102478596
 30
0.0
 10
118.0479193498283
 20
-154.4494872660751
 30
0.0
 10
118.0479193498283
 20
-154.4687798007925
 30
0.0
 10
118.0499864071194
 20
-154.5046087938391
 30
0.0
 10
118.0541205217017
 20
-154.5321695577211
 30
0.0
 10
118.0541205217017
 20
-154.5321695577211
 30
0.0
 10
117.8594726267851
 20
-154.5321695577211
 30
0.0
 10
117.8594726267851
 20
-154.5321695577211
 30
0.0
 10
117.8660183082071
 20
-154.4939289978349
 30
0.0
 10
117.8680853654983
 20
-154.4518988329148
 30
0.0
 10
117.8680853654983
 20
-154.4453531514928
 30
0.0
 10
117.8680853654983
 20
-154.3798963372731
 30
0.0
 10
117.8467257734897
 20
-154.1811143277742
 30
0.0
 10
117.610047713653
 20
-154.1811143277742
 30
0.0
 10
117.4322807866142
 20
-154.1811143277742
 30
0.0
 10
117.3771592588502
 20
-154.3120279562137
 30
0.0
 10
117.3771592588502
 20
-154.4222710117417
 30
0.0
 10
117.3771592588502
 20
-154.6865098354603
 30
0.0
 10
117.610047713653
 20
-154.6951225741734
 30
0.0
 10
117.6817056997462
 20
-154.6992566887558
 30
0.0
 10
117.6817056997462
 20
-154.6992566887558
 30
0.0
 10
117.6817056997462
 20
-154.9025173223855
 30
0.0
 10
117.6817056997462
 20
-154.9025173223855
 30
0.0
 10
117.5569932431802
 20
-154.8939045836724
 30
0.0
 10
117.1804443066424
 20
-154.8663438197904
 30
0.0
 10
117.1804443066424
 20
-154.4095241584462
 30
0.0
 10
117.1804443066424
 20
-154.1852484423565
 30
0.0
 10
117.3075683300481
 20
-153.944091758389
 30
0.0
 10
117.6035020322311
 20
-153.944091758389
 30
0.0
 10
117.7898816979831
 20
-153.944091758389
 30
0.0
 10
117.8722194800806
 20
-154.0391763937819
 30
0.0
 10
117.933542179718
 20
-154.1387396533056
 30
0.0
 10
117.9611029436
 20
-154.0774169536681
 30
0.0
 10
118.0413736684063
 20
-153.895515912047
 30
0.0
 10
118.3187038549689
 20
-153.895515912047
 30
0.0
 10
118.6570122316205
 20
-153.895515912047
 30
0.0
 10
118.8240993626551
 20
-154.1428737678879
 30
0.0
 10
118.8240993626551
 20
-154.419859444902
 30
0.0
  0
HATCH
  5
87
330
82
100
AcDbEntity
  8
_U+30EC_U+30A4_U+30E4_U+30FC 1
 62
   179
420
  2234388
100
AcDbHatch
 10
0.0
 20
0.0
 30
0.0
210
0.0
220
0.0
230
1.0
  2
SOLID
 70
     1
 71
     0
 91
        1
 92
        1
 93
        1
 72
     4
 94
        3
 73
     0
 74
     1
 95
       62
 96
       58
 40
0.0
 40
0.0
 40
0.0
 40
0.0
 40
1.0
 40
1.0
 40
1.0
 40
2.0
 40
2.0
 40
2.0
 40
3.0
 40
3.0
 40
3.0
 40
4.0
 40
4.0
 40
4.0
 40
5.0
 40
5.0
 40
5.0
 40
6.0
 40
6.0
 40
6.0
 40
7.0
 40
7.0
 40
7.0
 40
8.0
 40
8.0
 40
8.0
 40
9.0
 40
9.0
 40
9.0
 40
10.0
 40
10.0
 40
10.0
 40
11.0
 40
11.0
 40
11.0
 40
12.0
 40
12.0
 40
12.0
 40
13.0
 40
13.0
 40
13.0
 40
14.0
 40
14.0
 40
14.0
 40
15.0
 40
15.0
 40
15.0
 40
16.0
 40
16.0
 40
16.0
 40
17.0
 40
17.0
 40
17.0
 40
18.0
 40
18.0
 40
18.0
 40
19.0
 40
19.0
 40
19.0
 40
19.0
 10
118.8240993626551
 20
-154.419859444902
 10
118.8240993626551
 20
-154.5152885898434
 10
118.8030842801951
 20
-154.7330186245112
 10
118.6170491239916
 20
-154.8580755906258
 10
118.5047390111724
 20
-154.9321451435586
 10
118.4055202611972
 20
-154.9362792581409
 10
118.3207709122601
 20
-154.9404133727232
 10
118.3207709122601
 20
-154.9404133727232
 10
118.3207709122601
 20
-154.7202717712158
 10
118.3207709122601
 20
-154.7202717712158
 10
118.394840465193
 20
-154.7182047139246
 10
118.6294514677385
 20
-154.7078694274689
 10
118.6294514677385
 20
-154.4243380690328
 10
118.6294514677385
 20
-154.2868787591713
 10
118.5598605389364
 20
-154.1342610291748
 10
118.3314507082644
 20
-154.1342610291748
 10
118.2150064808629
 20
-154.1342610291748
 10
118.1664306345209
 20
-154.1725015890611
 10
118.1347357560566
 20
-154.2041964675253
 10
118.0606662031237
 20
-154.2782660204582
 10
118.0479193498283
 20
-154.3947102478596
 10
118.0479193498283
 20
-154.4494872660751
 10
118.0479193498283
 20
-154.4687798007925
 10
118.0499864071194
 20
-154.5046087938391
 10
118.0541205217017
 20
-154.5321695577211
 10
118.0541205217017
 20
-154.5321695577211
 10
117.8594726267851
 20
-154.5321695577211
 10
117.8594726267851
 20
-154.5321695577211
 10
117.8660183082071
 20
-154.4939289978349
 10
117.8680853654983
 20
-154.4518988329148
 10
117.8680853654983
 20
-154.4453531514928
 10
117.8680853654983
 20
-154.3798963372731
 10
117.8467257734897
 20
-154.1811143277742
 10
117.610047713653
 20
-154.1811143277742
 10
117.4322807866142
 20
-154.1811143277742
 10
117.3771592588502
 20
-154.3120279562137
 10
117.3771592588502
 20
-154.4222710117417
 10
117.3771592588502
 20
-154.6865098354603
 10
117.610047713653
 20
-154.6951225741734
 10
117.6817056997462
 20
-154.6992566887558
 10
117.6817056997462
 20
-154.6992566887558
 10
117.6817056997462
 20
-154.9025173223855
 10
117.6817056997462
 20
-154.9025173223855
 10
117.5569932431802
 20
-154.8939045836724
 10
117.1804443066424
 20
-154.8663438197904
 10
117.1804443066424
 20
-154.4095241584462
 10
117.1804443066424
 20
-154.1852484423565
 10
117.3075683300481
 20
-153.944091758389
 10
117.6035020322311
 20
-153.944091758389
 10
117.7898816979831
 20
-153.944091758389
 10
117.8722194800806
 20
-154.0391763937819
 10
117.933542179718
 20
-154.1387396533056
 10
117.9611029436
 20
-154.0774169536681
 10
118.0413736684063
 20
-153.895515912047
 10
118.3187038549689
 20
-153.895515912047
 10
118.6570122316205
 20
-153.895515912047
 10
118.8240993626551
 20
-154.1428737678879
 10
118.8240993626551
 20
-154.419859444902
 97
        0
 97
        0
 75
     2
 76
     1
 98
        0
  0
ENDBLK
  5
85
330
82
100
AcDbEntity
  8
0
100
AcDbBlockEnd
  0
BLOCK
  5
96
330
94
100
AcDbEntity
  8
0
100
AcDbBlockBegin
  2
block 4
 70
     0
 10
0.0
 20
0.0
 30
0.0
  3
block 4
  1

  0
SPLINE
  5
98
330
94
100
AcDbEntity
  8
_U+30EC_U+30A4_U+30E4_U+30FC 1
370
     0
100
AcDbSpline
210
0.0
220
0.0
230
1.0
 70
    11
 71
     3
 72
    26
 73
    22
 74
     0
 42
0.0000000001
 43
0.0000000001
 12
1.0
 22
0.0
 32
0.0
 13
1.0
 23
0.0
 33
0.0
 40
0.0
 40
0.0
 40
0.0
 40
0.0
 40
1.0
 40
1.0
 40
1.0
 40
2.0
 40
2.0
 40
2.0
 40
3.0
 40
3.0
 40
3.0
 40
4.0
 40
4.0
 40
4.0
 40
5.0
 40
5.0
 40
5.0
 40
6.0
 40
6.0
 40
6.0
 40
7.0
 40
7.0
 40
7.0
 40
7.0
 10
94.78181149974205
 20
-159.2653862449059
 30
0.0
 10
94.78181149974205
 20
-159.2653862449059
 30
0.0
 10
94.78181149974205
 20
-158.1612331418833
 30
0.0
 10
94.78181149974205
 20
-158.1612331418833
 30
0.0
 10
94.78181149974205
 20
-158.1612331418833
 30
0.0
 10
94.45177135225512
 20
-158.1612331418833
 30
0.0
 10
94.45177135225512
 20
-158.1612331418833
 30
0.0
 10
94.45177135225512
 20
-158.1612331418833
 30
0.0
 10
94.45177135225512
 20
-158.0130940360176
 30
0.0
 10
94.45177135225512
 20
-158.0130940360176
 30
0.0
 10
94.7838785570332
 20
-157.998280125431
 30
0.0
 10
94.83038734608408
 20
-157.8353271089787
 30
0.0
 10
94.86001516725722
 20
-157.7209499388684
 30
0.0
 10
94.86001516725722
 20
-157.7209499388684
 30
0.0
 10
95.00608721583181
 20
-157.7209499388684
 30
0.0
 10
95.00608721583181
 20
-157.7209499388684
 30
0.0
 10
95.00608721583181
 20
-157.7209499388684
 30
0.0
 10
95.00608721583181
 20
-159.2653862449059
 30
0.0
 10
95.00608721583181
 20
-159.2653862449059
 30
0.0
 10
95.00608721583181
 20
-159.2653862449059
 30
0.0
 10
94.78181149974205
 20
-159.2653862449059
 30
0.0
 10
94.78181149974205
 20
-159.2653862449059
 30
0.0
  0
HATCH
  5
99
330
94
100
AcDbEntity
  8
_U+30EC_U+30A4_U+30E4_U+30FC 1
 62
   179
420
  2234388
100
AcDbHatch
 10
0.0
 20
0.0
 30
0.0
210
0.0
220
0.0
230
1.0
  2
SOLID
 70
     1
 71
     0
 91
        1
 92
        1
 93
        1
 72
     4
 94
        3
 73
     0
 74
     1
 95
       26
 96
       22
 40
0.0
 40
0.0
 40
0.0
 40
0.0
 40
1.0
 40
1.0
 40
1.0
 40
2.0
 40
2.0
 40
2.0
 40
3.0
 40
3.0
 40
3.0
 40
4.0
 40
4.0
 40
4.0
 40
5.0
 40
5.0
 40
5.0
 40
6.0
 40
6.0
 40
6.0
 40
7.0
 40
7.0
 40
7.0
 40
7.0
 10
94.78181149974205
 20
-159.2653862449059
 10
94.78181149974205
 20
-159.2653862449059
 10
94.78181149974205
 20
-158.1612331418833
 10
94.78181149974205
 20
-158.1612331418833
 10
94.78181149974205
 20
-158.1612331418833
 10
94.45177135225512
 20
-158.1612331418833
 10
94.45177135225512
 20
-158.1612331418833
 10
94.45177135225512
 20
-158.1612331418833
 10
94.45177135225512
 20
-158.0130940360176
 10
94.45177135225512
 20
-158.0130940360176
 10
94.7838785570332
 20
-157.998280125431
 10
94.83038734608408
 20
-157.8353271089787
 10
94.86001516725722
 20
-157.7209499388684
 10
94.86001516725722
 20
-157.7209499388684
 10
95.00608721583181
 20
-157.7209499388684
 10
95.00608721583181
 20
-157.7209499388684
 10
95.00608721583181
 20
-157.7209499388684
 10
95.00608721583181
 20
-159.2653862449059
 10
95.00608721583181
 20
-159.2653862449059
 10
95.00608721583181
 20
-159.2653862449059
 10
94.78181149974205
 20
-159.2653862449059
 10
94.78181149974205
 20
-159.2653862449059
 97
        0
 97
        0
 75
     2
 76
     1
 98
        0
  0
SPLINE
  5
9A
330
94
100
AcDbEntity
  8
_U+30EC_U+30A4_U+30E4_U+30FC 1
370
     0
100
AcDbSpline
210
0.0
220
0.0
230
1.0
 70
    11
 71
     3
 72
    29
 73
    25
 74
     0
 42
0.0000000001
 43
0.0000000001
 12
1.0
 22
0.0
 32
0.0
 13
1.0
 23
0.0
 33
0.0
 40
0.0
 40
0.0
 40
0.0
 40
0.0
 40
1.0
 40
1.0
 40
1.0
 40
2.0
 40
2.0
 40
2.0
 40
3.0
 40
3.0
 40
3.0
 40
4.0
 40
4.0
 40
4.0
 40
5.0
 40
5.0
 40
5.0
 40
6.0
 40
6.0
 40
6.0
 40
7.0
 40
7.0
 40
7.0
 40
8.0
 40
8.0
 40
8.0
 40
8.0
 10
96.40496823761751
 20
-159.087619317867
 30
0.0
 10
96.29713674892919
 20
-159.2970811233702
 30
0.0
 10
96.12367619124686
 20
-159.3160291485391
 30
0.0
 10
96.00723196384541
 20
-159.3160291485391
 30
0.0
 10
95.84651825945852
 20
-159.3160291485391
 30
0.0
 10
95.70475258024048
 20
-159.2695203594882
 30
0.0
 10
95.60949569007333
 20
-159.087619317867
 30
0.0
 10
95.50597057074157
 20
-158.8929714229504
 30
0.0
 10
95.48685029079843
 20
-158.6562933631137
 30
0.0
 10
95.48685029079843
 20
-158.4933403466614
 30
0.0
 10
95.48685029079843
 20
-158.3493353553779
 30
0.0
 10
95.50373125867615
 20
-158.0974988754062
 30
0.0
 10
95.60949569007333
 20
-157.8987168659073
 30
0.0
 10
95.7174994335359
 20
-157.695800741826
 30
0.0
 10
95.87821313792281
 20
-157.6723740925264
 30
0.0
 10
96.00723196384541
 20
-157.6723740925264
 30
0.0
 10
96.16587861094118
 20
-157.6723740925264
 30
0.0
 10
96.30971134745036
 20
-157.7168158242861
 30
0.0
 10
96.40496823761751
 20
-157.8987168659073
 30
0.0
 10
96.50435924236697
 20
-158.0912977035327
 30
0.0
 10
96.52761363689241
 20
-158.3197075342048
 30
0.0
 10
96.52761363689241
 20
-158.4933403466614
 30
0.0
 10
96.52761363689241
 20
-158.6645615922783
 30
0.0
 10
96.50659855443239
 20
-158.8950384802415
 30
0.0
 10
96.40496823761751
 20
-159.087619317867
 30
0.0
  0
SPLINE
  5
9B
330
94
100
AcDbEntity
  8
_U+30EC_U+30A4_U+30E4_U+30FC 1
370
     0
100
AcDbSpline
210
0.0
220
0.0
230
1.0
 70
    11
 71
     3
 72
    17
 73
    13
 74
     0
 42
0.0000000001
 43
0.0000000001
 12
1.0
 22
0.0
 32
0.0
 13
1.0
 23
0.0
 33
0.0
 40
0.0
 40
0.0
 40
0.0
 40
0.0
 40
1.0
 40
1.0
 40
1.0
 40
2.0
 40
2.0
 40
2.0
 40
3.0
 40
3.0
 40
3.0
 40
4.0
 40
4.0
 40
4.0
 40
4.0
 10
96.00723196384541
 20
-157.8649549301518
 30
0.0
 10
95.75763479593907
 20
-157.8649549301518
 30
0.0
 10
95.7111260068882
 20
-158.1484862885879
 30
0.0
 10
95.7111260068882
 20
-158.4933403466614
 30
0.0
 10
95.7111260068882
 20
-158.8127006981441
 30
0.0
 10
95.74712725470906
 20
-159.1213812536224
 30
0.0
 10
96.00723196384541
 20
-159.1213812536224
 30
0.0
 10
96.25476207446061
 20
-159.1213812536224
 30
0.0
 10
96.3035101755769
 20
-158.8402614620261
 30
0.0
 10
96.3035101755769
 20
-158.4933403466614
 30
0.0
 10
96.3035101755769
 20
-158.1736354856302
 30
0.0
 10
96.26526961569063
 20
-157.8649549301518
 30
0.0
 10
96.00723196384541
 20
-157.8649549301518
 30
0.0
  0
HATCH
  5
9C
330
94
100
AcDbEntity
  8
_U+30EC_U+30A4_U+30E4_U+30FC 1
 62
   179
420
  2234388
100
AcDbHatch
 10
0.0
 20
0.0
 30
0.0
210
0.0
220
0.0
230
1.0
  2
SOLID
 70
     1
 71
     0
 91
        2
 92
        1
 93
        1
 72
     4
 94
        3
 73
     0
 74
     1
 95
       29
 96
       25
 40
0.0
 40
0.0
 40
0.0
 40
0.0
 40
1.0
 40
1.0
 40
1.0
 40
2.0
 40
2.0
 40
2.0
 40
3.0
 40
3.0
 40
3.0
 40
4.0
 40
4.0
 40
4.0
 40
5.0
 40
5.0
 40
5.0
 40
6.0
 40
6.0
 40
6.0
 40
7.0
 40
7.0
 40
7.0
 40
8.0
 40
8.0
 40
8.0
 40
8.0
 10
96.40496823761751
 20
-159.087619317867
 10
96.29713674892919
 20
-159.2970811233702
 10
96.12367619124686
 20
-159.3160291485391
 10
96.00723196384541
 20
-159.3160291485391
 10
95.84651825945852
 20
-159.3160291485391
 10
95.70475258024048
 20
-159.2695203594882
 10
95.60949569007333
 20
-159.087619317867
 10
95.50597057074157
 20
-158.8929714229504
 10
95.48685029079843
 20
-158.6562933631137
 10
95.48685029079843
 20
-158.4933403466614
 10
95.48685029079843
 20
-158.3493353553779
 10
95.50373125867615
 20
-158.0974988754062
 10
95.60949569007333
 20
-157.8987168659073
 10
95.7174994335359
 20
-157.695800741826
 10
95.87821313792281
 20
-157.6723740925264
 10
96.00723196384541
 20
-157.6723740925264
 10
96.16587861094118
 20
-157.6723740925264
 10
96.30971134745036
 20
-157.7168158242861
 10
96.40496823761751
 20
-157.8987168659073
 10
96.50435924236697
 20
-158.0912977035327
 10
96.52761363689241
 20
-158.3197075342048
 10
96.52761363689241
 20
-158.4933403466614
 10
96.52761363689241
 20
-158.6645615922783
 10
96.50659855443239
 20
-158.8950384802415
 10
96.40496823761751
 20
-159.087619317867
 97
        0
 97
        0
 92
        1
 93
        1
 72
     4
 94
        3
 73
     0
 74
     1
 95
       17
 96
       13
 40
0.0
 40
0.0
 40
0.0
 40
0.0
 40
1.0
 40
1.0
 40
1.0
 40
2.0
 40
2.0
 40
2.0
 40
3.0
 40
3.0
 40
3.0
 40
4.0
 40
4.0
 40
4.0
 40
4.0
 10
96.00723196384541
 20
-157.8649549301518
 10
95.75763479593907
 20
-157.8649549301518
 10
95.7111260068882
 20
-158.1484862885879
 10
95.7111260068882
 20
-158.4933403466614
 10
95.7111260068882
 20
-158.8127006981441
 10
95.74712725470906
 20
-159.1213812536224
 10
96.00723196384541
 20
-159.1213812536224
 10
96.25476207446061
 20
-159.1213812536224
 10
96.3035101755769
 20
-158.8402614620261
 10
96.3035101755769
 20
-158.4933403466614
 10
96.3035101755769
 20
-158.1736354856302
 10
96.26526961569063
 20
-157.8649549301518
 10
96.00723196384541
 20
-157.8649549301518
 97
        0
 97
        0
 75
     2
 76
     1
 98
        0
  0
ENDBLK
  5
97
330
94
100
AcDbEntity
  8
0
100
AcDbBlockEnd
  0
BLOCK
  5
AB
330
A9
100
AcDbEntity
  8
0
100
AcDbBlockBegin
  2
block 5
 70
     0
 10
0.0
 20
0.0
 30
0.0
  3
block 5
  1

  0
SPLINE
  5
AD
330
A9
100
AcDbEntity
  8
_U+30EC_U+30A4_U+30E4_U+30FC 1
370
     0
100
AcDbSpline
210
0.0
220
0.0
230
1.0
 70
    11
 71
     3
 72
    44
 73
    40
 74
     0
 42
0.0000000001
 43
0.0000000001
 12
1.0
 22
0.0
 32
0.0
 13
1.0
 23
0.0
 33
0.0
 40
0.0
 40
0.0
 40
0.0
 40
0.0
 40
1.0
 40
1.0
 40
1.0
 40
2.0
 40
2.0
 40
2.0
 40
3.0
 40
3.0
 40
3.0
 40
4.0
 40
4.0
 40
4.0
 40
5.0
 40
5.0
 40
5.0
 40
6.0
 40
6.0
 40
6.0
 40
7.0
 40
7.0
 40
7.0
 40
8.0
 40
8.0
 40
8.0
 40
9.0
 40
9.0
 40
9.0
 40
10.0
 40
10.0
 40
10.0
 40
11.0
 40
11.0
 40
11.0
 40
12.0
 40
12.0
 40
12.0
 40
13.0
 40
13.0
 40
13.0
 40
13.0
 10
102.423550050349
 20
-138.1836411872423
 30
0.0
 10
102.2056477609069
 20
-138.3424600891123
 30
0.0
 10
102.1124579280309
 20
-138.4165296420452
 30
0.0
 10
102.0638820816889
 20
-138.5601901237801
 30
0.0
 10
102.0638820816889
 20
-138.5601901237801
 30
0.0
 10
102.8423014065811
 20
-138.5601901237801
 30
0.0
 10
102.8423014065811
 20
-138.5601901237801
 30
0.0
 10
102.8423014065811
 20
-138.5601901237801
 30
0.0
 10
102.8423014065811
 20
-138.765517814701
 30
0.0
 10
102.8423014065811
 20
-138.765517814701
 30
0.0
 10
102.8423014065811
 20
-138.765517814701
 30
0.0
 10
101.8142849137825
 20
-138.765517814701
 30
0.0
 10
101.8142849137825
 20
-138.765517814701
 30
0.0
 10
101.8459797922468
 20
-138.4079169033321
 30
0.0
 10
101.9114366064666
 20
-138.3297132358169
 30
0.0
 10
102.2965982817175
 20
-138.0313679667942
 30
0.0
 10
102.5525688762716
 20
-137.8325859572953
 30
0.0
 10
102.6180256904913
 20
-137.7647175762359
 30
0.0
 10
102.6180256904913
 20
-137.6272582663744
 30
0.0
 10
102.6180256904913
 20
-137.5087469816818
 30
0.0
 10
102.5461954496239
 20
-137.3778333532424
 30
0.0
 10
102.3494804974161
 20
-137.3778333532424
 30
0.0
 10
102.0892035335055
 20
-137.3778333532424
 30
0.0
 10
102.0807630495666
 20
-137.6083102412056
 30
0.0
 10
102.0764566802101
 20
-137.724754468607
 30
0.0
 10
102.0764566802101
 20
-137.724754468607
 30
0.0
 10
101.8523532188945
 20
-137.724754468607
 30
0.0
 10
101.8523532188945
 20
-137.724754468607
 30
0.0
 10
101.8607937028334
 20
-137.5976304452013
 30
0.0
 10
101.8713012440634
 20
-137.4856648419307
 30
0.0
 10
101.951744223644
 20
-137.3671535572381
 30
0.0
 10
102.0616427696235
 20
-137.2062675980769
 30
0.0
 10
102.2478501806012
 20
-137.1725056623215
 30
0.0
 10
102.3642944080027
 20
-137.1725056623215
 30
0.0
 10
102.641452339791
 20
-137.1725056623215
 30
0.0
 10
102.8486748332288
 20
-137.3564737612338
 30
0.0
 10
102.8486748332288
 20
-137.6293253236656
 30
0.0
 10
102.8486748332288
 20
-137.8580796638862
 30
0.0
 10
102.7324028606016
 20
-137.9572984138614
 30
0.0
 10
102.423550050349
 20
-138.1836411872423
 30
0.0
  0
HATCH
  5
AE
330
A9
100
AcDbEntity
  8
_U+30EC_U+30A4_U+30E4_U+30FC 1
 62
   179
420
  2234388
100
AcDbHatch
 10
0.0
 20
0.0
 30
0.0
210
0.0
220
0.0
230
1.0
  2
SOLID
 70
     1
 71
     0
 91
        1
 92
        1
 93
        1
 72
     4
 94
        3
 73
     0
 74
     1
 95
       44
 96
       40
 40
0.0
 40
0.0
 40
0.0
 40
0.0
 40
1.0
 40
1.0
 40
1.0
 40
2.0
 40
2.0
 40
2.0
 40
3.0
 40
3.0
 40
3.0
 40
4.0
 40
4.0
 40
4.0
 40
5.0
 40
5.0
 40
5.0
 40
6.0
 40
6.0
 40
6.0
 40
7.0
 40
7.0
 40
7.0
 40
8.0
 40
8.0
 40
8.0
 40
9.0
 40
9.0
 40
9.0
 40
10.0
 40
10.0
 40
10.0
 40
11.0
 40
11.0
 40
11.0
 40
12.0
 40
12.0
 40
12.0
 40
13.0
 40
13.0
 40
13.0
 40
13.0
 10
102.423550050349
 20
-138.1836411872423
 10
102.2056477609069
 20
-138.3424600891123
 10
102.1124579280309
 20
-138.4165296420452
 10
102.0638820816889
 20
-138.5601901237801
 10
102.0638820816889
 20
-138.5601901237801
 10
102.8423014065811
 20
-138.5601901237801
 10
102.8423014065811
 20
-138.5601901237801
 10
102.8423014065811
 20
-138.5601901237801
 10
102.8423014065811
 20
-138.765517814701
 10
102.8423014065811
 20
-138.765517814701
 10
102.8423014065811
 20
-138.765517814701
 10
101.8142849137825
 20
-138.765517814701
 10
101.8142849137825
 20
-138.765517814701
 10
101.8459797922468
 20
-138.4079169033321
 10
101.9114366064666
 20
-138.3297132358169
 10
102.2965982817175
 20
-138.0313679667942
 10
102.5525688762716
 20
-137.8325859572953
 10
102.6180256904913
 20
-137.7647175762359
 10
102.6180256904913
 20
-137.6272582663744
 10
102.6180256904913
 20
-137.5087469816818
 10
102.5461954496239
 20
-137.3778333532424
 10
102.3494804974161
 20
-137.3778333532424
 10
102.0892035335055
 20
-137.3778333532424
 10
102.0807630495666
 20
-137.6083102412056
 10
102.0764566802101
 20
-137.724754468607
 10
102.0764566802101
 20
-137.724754468607
 10
101.8523532188945
 20
-137.724754468607
 10
101.8523532188945
 20
-137.724754468607
 10
101.8607937028334
 20
-137.5976304452013
 10
101.8713012440634
 20
-137.4856648419307
 10
101.951744223644
 20
-137.3671535572381
 10
102.0616427696235
 20
-137.2062675980769
 10
102.2478501806012
 20
-137.1725056623215
 10
102.3642944080027
 20
-137.1725056623215
 10
102.641452339791
 20
-137.1725056623215
 10
102.8486748332288
 20
-137.3564737612338
 10
102.8486748332288
 20
-137.6293253236656
 10
102.8486748332288
 20
-137.8580796638862
 10
102.7324028606016
 20
-137.9572984138614
 10
102.423550050349
 20
-138.1836411872423
 97
        0
 97
        0
 75
     2
 76
     1
 98
        0
  0
SPLINE
  5
AF
330
A9
100
AcDbEntity
  8
_U+30EC_U+30A4_U+30E4_U+30FC 1
370
     0
100
AcDbSpline
210
0.0
220
0.0
230
1.0
 70
    11
 71
     3
 72
    53
 73
    49
 74
     0
 42
0.0000000001
 43
0.0000000001
 12
1.0
 22
0.0
 32
0.0
 13
1.0
 23
0.0
 33
0.0
 40
0.0
 40
0.0
 40
0.0
 40
0.0
 40
1.0
 40
1.0
 40
1.0
 40
2.0
 40
2.0
 40
2.0
 40
3.0
 40
3.0
 40
3.0
 40
4.0
 40
4.0
 40
4.0
 40
5.0
 40
5.0
 40
5.0
 40
6.0
 40
6.0
 40
6.0
 40
7.0
 40
7.0
 40
7.0
 40
8.0
 40
8.0
 40
8.0
 40
9.0
 40
9.0
 40
9.0
 40
10.0
 40
10.0
 40
10.0
 40
11.0
 40
11.0
 40
11.0
 40
12.0
 40
12.0
 40
12.0
 40
13.0
 40
13.0
 40
13.0
 40
14.0
 40
14.0
 40
14.0
 40
15.0
 40
15.0
 40
15.0
 40
16.0
 40
16.0
 40
16.0
 40
16.0
 10
103.4882568100654
 20
-138.8161607183342
 30
0.0
 10
103.409880887776
 20
-138.8161607183342
 30
0.0
 10
103.3084228257354
 20
-138.7992797504564
 30
0.0
 10
103.2067925089205
 20
-138.7358899935278
 30
0.0
 10
103.0333319512382
 20
-138.6259914475484
 30
0.0
 10
103.0121446140039
 20
-138.4947333095604
 30
0.0
 10
102.993196588835
 20
-138.386901820872
 30
0.0
 10
102.993196588835
 20
-138.386901820872
 30
0.0
 10
103.2152329928594
 20
-138.386901820872
 30
0.0
 10
103.2152329928594
 20
-138.386901820872
 30
0.0
 10
103.2703545206234
 20
-138.585683830371
 30
0.0
 10
103.3973062892548
 20
-138.6153116515441
 30
0.0
 10
103.4903238673566
 20
-138.6153116515441
 30
0.0
 10
103.6298502345092
 20
-138.6153116515441
 30
0.0
 10
103.7822957097315
 20
-138.5157483920204
 30
0.0
 10
103.7822957097315
 20
-138.283204446766
 30
0.0
 10
103.7822957097315
 20
-138.0272338522119
 30
0.0
 10
103.6024617254015
 20
-137.9572984138614
 30
0.0
 10
103.4818833834177
 20
-137.9572984138614
 30
0.0
 10
103.4501885049534
 20
-137.9572984138614
 30
0.0
 10
103.3084228257354
 20
-137.9572984138614
 30
0.0
 10
103.219539362216
 20
-138.0864894945582
 30
0.0
 10
103.219539362216
 20
-138.0864894945582
 30
0.0
 10
103.0440117472425
 20
-138.0675414693894
 30
0.0
 10
103.0440117472425
 20
-138.0675414693894
 30
0.0
 10
103.0440117472425
 20
-138.0675414693894
 30
0.0
 10
103.1645900892262
 20
-137.2210815086635
 30
0.0
 10
103.1645900892262
 20
-137.2210815086635
 30
0.0
 10
103.1645900892262
 20
-137.2210815086635
 30
0.0
 10
103.9430094141184
 20
-137.2210815086635
 30
0.0
 10
103.9430094141184
 20
-137.2210815086635
 30
0.0
 10
103.9430094141184
 20
-137.2210815086635
 30
0.0
 10
103.9430094141184
 20
-137.4157294035801
 30
0.0
 10
103.9430094141184
 20
-137.4157294035801
 30
0.0
 10
103.9430094141184
 20
-137.4157294035801
 30
0.0
 10
103.3273708509043
 20
-137.4157294035801
 30
0.0
 10
103.3273708509043
 20
-137.4157294035801
 30
0.0
 10
103.3273708509043
 20
-137.4157294035801
 30
0.0
 10
103.2619140366845
 20
-137.8387871291688
 30
0.0
 10
103.2619140366845
 20
-137.8387871291688
 30
0.0
 10
103.323236736322
 20
-137.8050251934133
 30
0.0
 10
103.4057467731937
 20
-137.7647175762359
 30
0.0
 10
103.524085803112
 20
-137.7647175762359
 30
0.0
 10
103.777989340375
 20
-137.7647175762359
 30
0.0
 10
104.0150119097601
 20
-137.9510972419879
 30
0.0
 10
104.0150119097601
 20
-138.2642564215971
 30
0.0
 10
104.0150119097601
 20
-138.5815497157886
 30
0.0
 10
103.7907361936704
 20
-138.8161607183342
 30
0.0
 10
103.4882568100654
 20
-138.8161607183342
 30
0.0
  0
HATCH
  5
B0
330
A9
100
AcDbEntity
  8
_U+30EC_U+30A4_U+30E4_U+30FC 1
 62
   179
420
  2234388
100
AcDbHatch
 10
0.0
 20
0.0
 30
0.0
210
0.0
220
0.0
230
1.0
  2
SOLID
 70
     1
 71
     0
 91
        1
 92
        1
 93
        1
 72
     4
 94
        3
 73
     0
 74
     1
 95
       53
 96
       49
 40
0.0
 40
0.0
 40
0.0
 40
0.0
 40
1.0
 40
1.0
 40
1.0
 40
2.0
 40
2.0
 40
2.0
 40
3.0
 40
3.0
 40
3.0
 40
4.0
 40
4.0
 40
4.0
 40
5.0
 40
5.0
 40
5.0
 40
6.0
 40
6.0
 40
6.0
 40
7.0
 40
7.0
 40
7.0
 40
8.0
 40
8.0
 40
8.0
 40
9.0
 40
9.0
 40
9.0
 40
10.0
 40
10.0
 40
10.0
 40
11.0
 40
11.0
 40
11.0
 40
12.0
 40
12.0
 40
12.0
 40
13.0
 40
13.0
 40
13.0
 40
14.0
 40
14.0
 40
14.0
 40
15.0
 40
15.0
 40
15.0
 40
16.0
 40
16.0
 40
16.0
 40
16.0
 10
103.4882568100654
 20
-138.8161607183342
 10
103.409880887776
 20
-138.8161607183342
 10
103.3084228257354
 20
-138.7992797504564
 10
103.2067925089205
 20
-138.7358899935278
 10
103.0333319512382
 20
-138.6259914475484
 10
103.0121446140039
 20
-138.4947333095604
 10
102.993196588835
 20
-138.386901820872
 10
102.993196588835
 20
-138.386901820872
 10
103.2152329928594
 20
-138.386901820872
 10
103.2152329928594
 20
-138.386901820872
 10
103.2703545206234
 20
-138.585683830371
 10
103.3973062892548
 20
-138.6153116515441
 10
103.4903238673566
 20
-138.6153116515441
 10
103.6298502345092
 20
-138.6153116515441
 10
103.7822957097315
 20
-138.5157483920204
 10
103.7822957097315
 20
-138.283204446766
 10
103.7822957097315
 20
-138.0272338522119
 10
103.6024617254015
 20
-137.9572984138614
 10
103.4818833834177
 20
-137.9572984138614
 10
103.4501885049534
 20
-137.9572984138614
 10
103.3084228257354
 20
-137.9572984138614
 10
103.219539362216
 20
-138.0864894945582
 10
103.219539362216
 20
-138.0864894945582
 10
103.0440117472425
 20
-138.0675414693894
 10
103.0440117472425
 20
-138.0675414693894
 10
103.0440117472425
 20
-138.0675414693894
 10
103.1645900892262
 20
-137.2210815086635
 10
103.1645900892262
 20
-137.2210815086635
 10
103.1645900892262
 20
-137.2210815086635
 10
103.9430094141184
 20
-137.2210815086635
 10
103.9430094141184
 20
-137.2210815086635
 10
103.9430094141184
 20
-137.2210815086635
 10
103.9430094141184
 20
-137.4157294035801
 10
103.9430094141184
 20
-137.4157294035801
 10
103.9430094141184
 20
-137.4157294035801
 10
103.3273708509043
 20
-137.4157294035801
 10
103.3273708509043
 20
-137.4157294035801
 10
103.3273708509043
 20
-137.4157294035801
 10
103.2619140366845
 20
-137.8387871291688
 10
103.2619140366845
 20
-137.8387871291688
 10
103.323236736322
 20
-137.8050251934133
 10
103.4057467731937
 20
-137.7647175762359
 10
103.524085803112
 20
-137.7647175762359
 10
103.777989340375
 20
-137.7647175762359
 10
104.0150119097601
 20
-137.9510972419879
 10
104.0150119097601
 20
-138.2642564215971
 10
104.0150119097601
 20
-138.5815497157886
 10
103.7907361936704
 20
-138.8161607183342
 10
103.4882568100654
 20
-138.8161607183342
 97
        0
 97
        0
 75
     2
 76
     1
 98
        0
  0
ENDBLK
  5
AC
330
A9
100
AcDbEntity
  8
0
100
AcDbBlockEnd
  0
BLOCK
  5
BB
330
B9
100
AcDbEntity
  8
0
100
AcDbBlockBegin
  2
block 6
 70
     0
 10
0.0
 20
0.0
 30
0.0
  3
block 6
  1

  0
SPLINE
  5
BD
330
B9
100
AcDbEntity
  8
_U+30EC_U+30A4_U+30E4_U+30FC 1
370
     0
100
AcDbSpline
210
0.0
220
0.0
230
1.0
 70
    11
 71
     3
 72
    29
 73
    25
 74
     0
 42
0.0000000001
 43
0.0000000001
 12
1.0
 22
0.0
 32
0.0
 13
1.0
 23
0.0
 33
0.0
 40
0.0
 40
0.0
 40
0.0
 40
0.0
 40
1.0
 40
1.0
 40
1.0
 40
2.0
 40
2.0
 40
2.0
 40
3.0
 40
3.0
 40
3.0
 40
4.0
 40
4.0
 40
4.0
 40
5.0
 40
5.0
 40
5.0
 40
6.0
 40
6.0
 40
6.0
 40
7.0
 40
7.0
 40
7.0
 40
8.0
 40
8.0
 40
8.0
 40
8.0
 10
118.8240993626551
 20
-149.524378760362
 30
0.0
 10
118.8240993626551
 20
-149.7910291509203
 30
0.0
 10
118.6862955432451
 20
-150.0449326881832
 30
0.0
 10
118.3376518801378
 20
-150.0449326881832
 30
0.0
 10
118.0813367760352
 20
-150.0449326881832
 30
0.0
 10
117.9862521406423
 20
-149.9029947541909
 30
0.0
 10
117.9249294410049
 20
-149.7972303227938
 30
0.0
 10
117.8656737986586
 20
-149.9219427793598
 30
0.0
 10
117.7512966285483
 20
-149.9980793895838
 30
0.0
 10
117.5907551789357
 20
-149.9980793895838
 30
0.0
 10
117.3158365592127
 20
-149.9980793895838
 30
0.0
 10
117.1800997970939
 20
-149.7992973800849
 30
0.0
 10
117.1800997970939
 20
-149.524378760362
 30
0.0
 10
117.1800997970939
 20
-149.2408474019259
 30
0.0
 10
117.3241047883773
 20
-149.0503336215916
 30
0.0
 10
117.5907551789357
 20
-149.0503336215916
 30
0.0
 10
117.7512966285483
 20
-149.0503336215916
 30
0.0
 10
117.8656737986586
 20
-149.1288817986553
 30
0.0
 10
117.9249294410049
 20
-149.2535942552213
 30
0.0
 10
117.9759168541866
 20
-149.1647107917019
 30
0.0
 10
118.0710014895795
 20
-149.0058918898319
 30
0.0
 10
118.3335177655555
 20
-149.0058918898319
 30
0.0
 10
118.7076551352536
 20
-149.0058918898319
 30
0.0
 10
118.8240993626551
 20
-149.2852891336856
 30
0.0
 10
118.8240993626551
 20
-149.524378760362
 30
0.0
  0
SPLINE
  5
BE
330
B9
100
AcDbEntity
  8
_U+30EC_U+30A4_U+30E4_U+30FC 1
370
     0
100
AcDbSpline
210
0.0
220
0.0
230
1.0
 70
    11
 71
     3
 72
    17
 73
    13
 74
     0
 42
0.0000000001
 43
0.0000000001
 12
1.0
 22
0.0
 32
0.0
 13
1.0
 23
0.0
 33
0.0
 40
0.0
 40
0.0
 40
0.0
 40
0.0
 40
1.0
 40
1.0
 40
1.0
 40
2.0
 40
2.0
 40
2.0
 40
3.0
 40
3.0
 40
3.0
 40
4.0
 40
4.0
 40
4.0
 40
4.0
 10
117.3730251442679
 20
-149.524378760362
 30
0.0
 10
117.3730251442679
 20
-149.6893988341054
 30
0.0
 10
117.4681097796608
 20
-149.7741481830426
 30
0.0
 10
117.6031575226826
 20
-149.7741481830426
 30
0.0
 10
117.7258029219574
 20
-149.7741481830426
 30
0.0
 10
117.84431420665
 20
-149.7021456874009
 30
0.0
 10
117.84431420665
 20
-149.524378760362
 30
0.0
 10
117.84431420665
 20
-149.3466118333231
 30
0.0
 10
117.7258029219574
 20
-149.2746093376813
 30
0.0
 10
117.6031575226826
 20
-149.2746093376813
 30
0.0
 10
117.4681097796608
 20
-149.2746093376813
 30
0.0
 10
117.3730251442679
 20
-149.3614257439096
 30
0.0
 10
117.3730251442679
 20
-149.524378760362
 30
0.0
  0
SPLINE
  5
BF
330
B9
100
AcDbEntity
  8
_U+30EC_U+30A4_U+30E4_U+30FC 1
370
     0
100
AcDbSpline
210
0.0
220
0.0
230
1.0
 70
    11
 71
     3
 72
    17
 73
    13
 74
     0
 42
0.0000000001
 43
0.0000000001
 12
1.0
 22
0.0
 32
0.0
 13
1.0
 23
0.0
 33
0.0
 40
0.0
 40
0.0
 40
0.0
 40
0.0
 40
1.0
 40
1.0
 40
1.0
 40
2.0
 40
2.0
 40
2.0
 40
3.0
 40
3.0
 40
3.0
 40
4.0
 40
4.0
 40
4.0
 40
4.0
 10
118.0331054392417
 20
-149.524378760362
 30
0.0
 10
118.0331054392417
 20
-149.6680392420969
 30
0.0
 10
118.11992184547
 20
-149.8206569720934
 30
0.0
 10
118.3224934600027
 20
-149.8206569720934
 30
0.0
 10
118.5278211509236
 20
-149.8206569720934
 30
0.0
 10
118.62910695819
 20
-149.6935329486877
 30
0.0
 10
118.62910695819
 20
-149.524378760362
 30
0.0
 10
118.62910695819
 20
-149.3383436041585
 30
0.0
 10
118.5064615589151
 20
-149.2281005486305
 30
0.0
 10
118.3286946318762
 20
-149.2281005486305
 30
0.0
 10
118.1068304826261
 20
-149.2281005486305
 30
0.0
 10
118.0331054392417
 20
-149.3910535650828
 30
0.0
 10
118.0331054392417
 20
-149.524378760362
 30
0.0
  0
HATCH
  5
C0
330
B9
100
AcDbEntity
  8
_U+30EC_U+30A4_U+30E4_U+30FC 1
 62
   179
420
  2234388
100
AcDbHatch
 10
0.0
 20
0.0
 30
0.0
210
0.0
220
0.0
230
1.0
  2
SOLID
 70
     1
 71
     0
 91
        3
 92
        1
 93
        1
 72
     4
 94
        3
 73
     0
 74
     1
 95
       29
 96
       25
 40
0.0
 40
0.0
 40
0.0
 40
0.0
 40
1.0
 40
1.0
 40
1.0
 40
2.0
 40
2.0
 40
2.0
 40
3.0
 40
3.0
 40
3.0
 40
4.0
 40
4.0
 40
4.0
 40
5.0
 40
5.0
 40
5.0
 40
6.0
 40
6.0
 40
6.0
 40
7.0
 40
7.0
 40
7.0
 40
8.0
 40
8.0
 40
8.0
 40
8.0
 10
118.8240993626551
 20
-149.524378760362
 10
118.8240993626551
 20
-149.7910291509203
 10
118.6862955432451
 20
-150.0449326881832
 10
118.3376518801378
 20
-150.0449326881832
 10
118.0813367760352
 20
-150.0449326881832
 10
117.9862521406423
 20
-149.9029947541909
 10
117.9249294410049
 20
-149.7972303227938
 10
117.8656737986586
 20
-149.9219427793598
 10
117.7512966285483
 20
-149.9980793895838
 10
117.5907551789357
 20
-149.9980793895838
 10
117.3158365592127
 20
-149.9980793895838
 10
117.1800997970939
 20
-149.7992973800849
 10
117.1800997970939
 20
-149.524378760362
 10
117.1800997970939
 20
-149.2408474019259
 10
117.3241047883773
 20
-149.0503336215916
 10
117.5907551789357
 20
-149.0503336215916
 10
117.7512966285483
 20
-149.0503336215916
 10
117.8656737986586
 20
-149.1288817986553
 10
117.9249294410049
 20
-149.2535942552213
 10
117.9759168541866
 20
-149.1647107917019
 10
118.0710014895795
 20
-149.0058918898319
 10
118.3335177655555
 20
-149.0058918898319
 10
118.7076551352536
 20
-149.0058918898319
 10
118.8240993626551
 20
-149.2852891336856
 10
118.8240993626551
 20
-149.524378760362
 97
        0
 97
        0
 92
        1
 93
        1
 72
     4
 94
        3
 73
     0
 74
     1
 95
       17
 96
       13
 40
0.0
 40
0.0
 40
0.0
 40
0.0
 40
1.0
 40
1.0
 40
1.0
 40
2.0
 40
2.0
 40
2.0
 40
3.0
 40
3.0
 40
3.0
 40
4.0
 40
4.0
 40
4.0
 40
4.0
 10
117.3730251442679
 20
-149.524378760362
 10
117.3730251442679
 20
-149.6893988341054
 10
117.4681097796608
 20
-149.7741481830426
 10
117.6031575226826
 20
-149.7741481830426
 10
117.7258029219574
 20
-149.7741481830426
 10
117.84431420665
 20
-149.7021456874009
 10
117.84431420665
 20
-149.524378760362
 10
117.84431420665
 20
-149.3466118333231
 10
117.7258029219574
 20
-149.2746093376813
 10
117.6031575226826
 20
-149.2746093376813
 10
117.4681097796608
 20
-149.2746093376813
 10
117.3730251442679
 20
-149.3614257439096
 10
117.3730251442679
 20
-149.524378760362
 97
        0
 97
        0
 92
        1
 93
        1
 72
     4
 94
        3
 73
     0
 74
     1
 95
       17
 96
       13
 40
0.0
 40
0.0
 40
0.0
 40
0.0
 40
1.0
 40
1.0
 40
1.0
 40
2.0
 40
2.0
 40
2.0
 40
3.0
 40
3.0
 40
3.0
 40
4.0
 40
4.0
 40
4.0
 40
4.0
 10
118.0331054392417
 20
-149.524378760362
 10
118.0331054392417
 20
-149.6680392420969
 10
118.11992184547
 20
-149.8206569720934
 10
118.3224934600027
 20
-149.8206569720934
 10
118.5278211509236
 20
-149.8206569720934
 10
118.62910695819
 20
-149.6935329486877
 10
118.62910695819
 20
-149.524378760362
 10
118.62910695819
 20
-149.3383436041585
 10
118.5064615589151
 20
-149.2281005486305
 10
118.3286946318762
 20
-149.2281005486305
 10
118.1068304826261
 20
-149.2281005486305
 10
118.0331054392417
 20
-149.3910535650828
 10
118.0331054392417
 20
-149.524378760362
 97
        0
 97
        0
 75
     2
 76
     1
 98
        0
  0
POLYLINE
  5
C1
330
B9
100
AcDbEntity
  8
_U+30EC_U+30A4_U+30E4_U+30FC 1
370
     0
100
AcDb2dPolyline
 66
     1
 10
0.0
 20
0.0
 30
0.0
  0
VERTEX
  5
C2
330
C1
100
AcDbEntity
  8
_U+30EC_U+30A4_U+30E4_U+30FC 1
370
     0
100
AcDbVertex
100
AcDb2dVertex
 10
118.7731119494734
 20
-148.787472836067
 30
0.0
  0
VERTEX
  5
C3
330
C1
100
AcDbEntity
  8
_U+30EC_U+30A4_U+30E4_U+30FC 1
370
     0
100
AcDbVertex
100
AcDb2dVertex
 10
118.5216199790502
 20
-148.787472836067
 30
0.0
  0
VERTEX
  5
C4
330
C1
100
AcDbEntity
  8
_U+30EC_U+30A4_U+30E4_U+30FC 1
370
     0
100
AcDbVertex
100
AcDb2dVertex
 10
118.5216199790502
 20
-148.5356363560953
 30
0.0
  0
VERTEX
  5
C5
330
C1
100
AcDbEntity
  8
_U+30EC_U+30A4_U+30E4_U+30FC 1
370
     0
100
AcDbVertex
100
AcDb2dVertex
 10
118.7731119494734
 20
-148.5356363560953
 30
0.0
  0
VERTEX
  5
C6
330
C1
100
AcDbEntity
  8
_U+30EC_U+30A4_U+30E4_U+30FC 1
370
     0
100
AcDbVertex
100
AcDb2dVertex
 10
118.7731119494734
 20
-148.787472836067
 30
0.0
  0
SEQEND
  5
C7
330
C1
100
AcDbEntity
  8
_U+30EC_U+30A4_U+30E4_U+30FC 1
370
     0
  0
HATCH
  5
C8
330
B9
100
AcDbEntity
  8
_U+30EC_U+30A4_U+30E4_U+30FC 1
 62
   179
420
  2234388
100
AcDbHatch
 10
0.0
 20
0.0
 30
0.0
210
0.0
220
0.0
230
1.0
  2
SOLID
 70
     1
 71
     0
 91
        1
 92
        1
 93
        4
 72
     1
 10
118.7731119494734
 20
-148.787472836067
 11
118.5216199790502
 21
-148.787472836067
 72
     1
 10
118.5216199790502
 20
-148.787472836067
 11
118.5216199790502
 21
-148.5356363560953
 72
     1
 10
118.5216199790502
 20
-148.5356363560953
 11
118.7731119494734
 21
-148.5356363560953
 72
     1
 10
118.7731119494734
 20
-148.5356363560953
 11
118.7731119494734
 21
-148.787472836067
 97
        0
 75
     2
 76
     1
 98
        0
  0
SPLINE
  5
C9
330
B9
100
AcDbEntity
  8
_U+30EC_U+30A4_U+30E4_U+30FC 1
370
     0
100
AcDbSpline
210
0.0
220
0.0
230
1.0
 70
    11
 71
     3
 72
    53
 73
    49
 74
     0
 42
0.0000000001
 43
0.0000000001
 12
1.0
 22
0.0
 32
0.0
 13
1.0
 23
0.0
 33
0.0
 40
0.0
 40
0.0
 40
0.0
 40
0.0
 40
1.0
 40
1.0
 40
1.0
 40
2.0
 40
2.0
 40
2.0
 40
3.0
 40
3.0
 40
3.0
 40
4.0
 40
4.0
 40
4.0
 40
5.0
 40
5.0
 40
5.0
 40
6.0
 40
6.0
 40
6.0
 40
7.0
 40
7.0
 40
7.0
 40
8.0
 40
8.0
 40
8.0
 40
9.0
 40
9.0
 40
9.0
 40
10.0
 40
10.0
 40
10.0
 40
11.0
 40
11.0
 40
11.0
 40
12.0
 40
12.0
 40
12.0
 40
13.0
 40
13.0
 40
13.0
 40
14.0
 40
14.0
 40
14.0
 40
15.0
 40
15.0
 40
15.0
 40
16.0
 40
16.0
 40
16.0
 40
16.0
 10
118.8240993626551
 20
-147.8183674760662
 30
0.0
 10
118.8240993626551
 20
-147.8965711435814
 30
0.0
 10
118.8068738852288
 20
-147.9982014603963
 30
0.0
 10
118.7434841283002
 20
-148.0998317772112
 30
0.0
 10
118.6339300918693
 20
-148.2731200801192
 30
0.0
 10
118.5023274443328
 20
-148.2944796721278
 30
0.0
 10
118.394840465193
 20
-148.3134276972966
 30
0.0
 10
118.394840465193
 20
-148.3134276972966
 30
0.0
 10
118.394840465193
 20
-148.091219038498
 30
0.0
 10
118.394840465193
 20
-148.091219038498
 30
0.0
 10
118.5932779651434
 20
-148.0364420202825
 30
0.0
 10
118.6229057863165
 20
-147.9093179968768
 30
0.0
 10
118.6229057863165
 20
-147.8163004187751
 30
0.0
 10
118.6229057863165
 20
-147.6767740516225
 30
0.0
 10
118.5236870363413
 20
-147.5245008311744
 30
0.0
 10
118.2907985815384
 20
-147.5245008311744
 30
0.0
 10
118.0351724965329
 20
-147.5245008311744
 30
0.0
 10
117.9648925486338
 20
-147.7043348155045
 30
0.0
 10
117.9648925486338
 20
-147.8249131574882
 30
0.0
 10
117.9648925486338
 20
-147.8566080359525
 30
0.0
 10
117.9648925486338
 20
-147.9982014603963
 30
0.0
 10
118.0944281388792
 20
-148.0870849239157
 30
0.0
 10
118.0944281388792
 20
-148.0870849239157
 30
0.0
 10
118.0751356041618
 20
-148.2627847936635
 30
0.0
 10
118.0751356041618
 20
-148.2627847936635
 30
0.0
 10
118.0751356041618
 20
-148.2627847936635
 30
0.0
 10
117.2290201529844
 20
-148.1422064516797
 30
0.0
 10
117.2290201529844
 20
-148.1422064516797
 30
0.0
 10
117.2290201529844
 20
-148.1422064516797
 30
0.0
 10
117.2290201529844
 20
-147.3636148720133
 30
0.0
 10
117.2290201529844
 20
-147.3636148720133
 30
0.0
 10
117.2290201529844
 20
-147.3636148720133
 30
0.0
 10
117.4233235383525
 20
-147.3636148720133
 30
0.0
 10
117.4233235383525
 20
-147.3636148720133
 30
0.0
 10
117.4233235383525
 20
-147.3636148720133
 30
0.0
 10
117.4233235383525
 20
-147.9792534352274
 30
0.0
 10
117.4233235383525
 20
-147.9792534352274
 30
0.0
 10
117.4233235383525
 20
-147.9792534352274
 30
0.0
 10
117.8463812639412
 20
-148.0447102494471
 30
0.0
 10
117.8463812639412
 20
-148.0447102494471
 30
0.0
 10
117.8126193281857
 20
-147.9833875498097
 30
0.0
 10
117.7726562205568
 20
-147.9010497677122
 30
0.0
 10
117.7726562205568
 20
-147.7825384830197
 30
0.0
 10
117.7726562205568
 20
-147.5286349457567
 30
0.0
 10
117.9586913767603
 20
-147.2916123763715
 30
0.0
 10
118.2721950659181
 20
-147.2916123763715
 30
0.0
 10
118.5891438505611
 20
-147.2916123763715
 30
0.0
 10
118.8240993626551
 20
-147.5158880924613
 30
0.0
 10
118.8240993626551
 20
-147.8183674760662
 30
0.0
  0
HATCH
  5
CA
330
B9
100
AcDbEntity
  8
_U+30EC_U+30A4_U+30E4_U+30FC 1
 62
   179
420
  2234388
100
AcDbHatch
 10
0.0
 20
0.0
 30
0.0
210
0.0
220
0.0
230
1.0
  2
SOLID
 70
     1
 71
     0
 91
        1
 92
        1
 93
        1
 72
     4
 94
        3
 73
     0
 74
     1
 95
       53
 96
       49
 40
0.0
 40
0.0
 40
0.0
 40
0.0
 40
1.0
 40
1.0
 40
1.0
 40
2.0
 40
2.0
 40
2.0
 40
3.0
 40
3.0
 40
3.0
 40
4.0
 40
4.0
 40
4.0
 40
5.0
 40
5.0
 40
5.0
 40
6.0
 40
6.0
 40
6.0
 40
7.0
 40
7.0
 40
7.0
 40
8.0
 40
8.0
 40
8.0
 40
9.0
 40
9.0
 40
9.0
 40
10.0
 40
10.0
 40
10.0
 40
11.0
 40
11.0
 40
11.0
 40
12.0
 40
12.0
 40
12.0
 40
13.0
 40
13.0
 40
13.0
 40
14.0
 40
14.0
 40
14.0
 40
15.0
 40
15.0
 40
15.0
 40
16.0
 40
16.0
 40
16.0
 40
16.0
 10
118.8240993626551
 20
-147.8183674760662
 10
118.8240993626551
 20
-147.8965711435814
 10
118.8068738852288
 20
-147.9982014603963
 10
118.7434841283002
 20
-148.0998317772112
 10
118.6339300918693
 20
-148.2731200801192
 10
118.5023274443328
 20
-148.2944796721278
 10
118.394840465193
 20
-148.3134276972966
 10
118.394840465193
 20
-148.3134276972966
 10
118.394840465193
 20
-148.091219038498
 10
118.394840465193
 20
-148.091219038498
 10
118.5932779651434
 20
-148.0364420202825
 10
118.6229057863165
 20
-147.9093179968768
 10
118.6229057863165
 20
-147.8163004187751
 10
118.6229057863165
 20
-147.6767740516225
 10
118.5236870363413
 20
-147.5245008311744
 10
118.2907985815384
 20
-147.5245008311744
 10
118.0351724965329
 20
-147.5245008311744
 10
117.9648925486338
 20
-147.7043348155045
 10
117.9648925486338
 20
-147.8249131574882
 10
117.9648925486338
 20
-147.8566080359525
 10
117.9648925486338
 20
-147.9982014603963
 10
118.0944281388792
 20
-148.0870849239157
 10
118.0944281388792
 20
-148.0870849239157
 10
118.0751356041618
 20
-148.2627847936635
 10
118.0751356041618
 20
-148.2627847936635
 10
118.0751356041618
 20
-148.2627847936635
 10
117.2290201529844
 20
-148.1422064516797
 10
117.2290201529844
 20
-148.1422064516797
 10
117.2290201529844
 20
-148.1422064516797
 10
117.2290201529844
 20
-147.3636148720133
 10
117.2290201529844
 20
-147.3636148720133
 10
117.2290201529844
 20
-147.3636148720133
 10
117.4233235383525
 20
-147.3636148720133
 10
117.4233235383525
 20
-147.3636148720133
 10
117.4233235383525
 20
-147.3636148720133
 10
117.4233235383525
 20
-147.9792534352274
 10
117.4233235383525
 20
-147.9792534352274
 10
117.4233235383525
 20
-147.9792534352274
 10
117.8463812639412
 20
-148.0447102494471
 10
117.8463812639412
 20
-148.0447102494471
 10
117.8126193281857
 20
-147.9833875498097
 10
117.7726562205568
 20
-147.9010497677122
 10
117.7726562205568
 20
-147.7825384830197
 10
117.7726562205568
 20
-147.5286349457567
 10
117.9586913767603
 20
-147.2916123763715
 10
118.2721950659181
 20
-147.2916123763715
 10
118.5891438505611
 20
-147.2916123763715
 10
118.8240993626551
 20
-147.5158880924613
 10
118.8240993626551
 20
-147.8183674760662
 97
        0
 97
        0
 75
     2
 76
     1
 98
        0
  0
ENDBLK
  5
BC
330
B9
100
AcDbEntity
  8
0
100
AcDbBlockEnd
  0
ENDSEC
  0
SECTION
  2
ENTITIES
  0
POLYLINE
  5
41
330
1F
100
AcDbEntity
  8
_U+30EC_U+30A4_U+30E4_U+30FC 1
370
     0
100
AcDb2dPolyline
 66
     1
 10
0.0
 20
0.0
 30
0.0
  0
VERTEX
  5
42
330
41
100
AcDbEntity
  8
_U+30EC_U+30A4_U+30E4_U+30FC 1
370
     0
100
AcDbVertex
100
AcDb2dVertex
 10
99.41920070281991
 20
-152.9116720029234
 30
0.0
  0
VERTEX
  5
43
330
41
100
AcDbEntity
  8
_U+30EC_U+30A4_U+30E4_U+30FC 1
370
     0
100
AcDbVertex
100
AcDb2dVertex
 10
99.41920070281991
 20
-154.9115714639577
 30
0.0
  0
VERTEX
  5
44
330
41
100
AcDbEntity
  8
_U+30EC_U+30A4_U+30E4_U+30FC 1
370
     0
100
AcDbVertex
100
AcDb2dVertex
 10
91.41925834913413
 20
-154.9115714639577
 30
0.0
  0
VERTEX
  5
45
330
41
100
AcDbEntity
  8
_U+30EC_U+30A4_U+30E4_U+30FC 1
370
     0
100
AcDbVertex
100
AcDb2dVertex
 10
91.41925834913413
 20
-144.4115017847793
 30
0.0
  0
VERTEX
  5
46
330
41
100
AcDbEntity
  8
_U+30EC_U+30A4_U+30E4_U+30FC 1
370
     0
100
AcDbVertex
100
AcDb2dVertex
 10
115.4190746442681
 20
-144.4115017847793
 30
0.0
  0
VERTEX
  5
47
330
41
100
AcDbEntity
  8
_U+30EC_U+30A4_U+30E4_U+30FC 1
370
     0
100
AcDbVertex
100
AcDb2dVertex
 10
115.4190746442681
 20
-143.4117243090364
 30
0.0
  0
VERTEX
  5
48
330
41
100
AcDbEntity
  8
_U+30EC_U+30A4_U+30E4_U+30FC 1
370
     0
100
AcDbVertex
100
AcDb2dVertex
 10
90.4191255979193
 20
-143.4117243090364
 30
0.0
  0
VERTEX
  5
49
330
41
100
AcDbEntity
  8
_U+30EC_U+30A4_U+30E4_U+30FC 1
370
     0
100
AcDbVertex
100
AcDb2dVertex
 10
90.4191255979193
 20
-155.9117042151725
 30
0.0
  0
VERTEX
  5
4A
330
41
100
AcDbEntity
  8
_U+30EC_U+30A4_U+30E4_U+30FC 1
370
     0
100
AcDbVertex
100
AcDb2dVertex
 10
100.4189674126394
 20
-155.9117042151725
 30
0.0
  0
VERTEX
  5
4B
330
41
100
AcDbEntity
  8
_U+30EC_U+30A4_U+30E4_U+30FC 1
370
     0
100
AcDbVertex
100
AcDb2dVertex
 10
100.4189674126394
 20
-152.9116720029234
 30
0.0
  0
VERTEX
  5
4C
330
41
100
AcDbEntity
  8
_U+30EC_U+30A4_U+30E4_U+30FC 1
370
     0
100
AcDbVertex
100
AcDb2dVertex
 10
99.41920070281991
 20
-152.9116720029234
 30
0.0
  0
SEQEND
  5
4E
330
41
100
AcDbEntity
  8
_U+30EC_U+30A4_U+30E4_U+30FC 1
370
     0
  0
HATCH
  5
4D
330
1F
100
AcDbEntity
  8
_U+30EC_U+30A4_U+30E4_U+30FC 1
 62
     9
420
 13224394
100
AcDbHatch
 10
0.0
 20
0.0
 30
0.0
210
0.0
220
0.0
230
1.0
  2
SOLID
 70
     1
 71
     0
 91
        1
 92
        1
 93
       10
 72
     1
 10
99.41920070281991
 20
-152.9116720029234
 11
99.41920070281991
 21
-154.9115714639577
 72
     1
 10
99.41920070281991
 20
-154.9115714639577
 11
91.41925834913413
 21
-154.9115714639577
 72
     1
 10
91.41925834913413
 20
-154.9115714639577
 11
91.41925834913413
 21
-144.4115017847793
 72
     1
 10
91.41925834913413
 20
-144.4115017847793
 11
115.4190746442681
 21
-144.4115017847793
 72
     1
 10
115.4190746442681
 20
-144.4115017847793
 11
115.4190746442681
 21
-143.4117243090364
 72
     1
 10
115.4190746442681
 20
-143.4117243090364
 11
90.4191255979193
 21
-143.4117243090364
 72
     1
 10
90.4191255979193
 20
-143.4117243090364
 11
90.4191255979193
 21
-155.9117042151725
 72
     1
 10
90.4191255979193
 20
-155.9117042151725
 11
100.4189674126394
 21
-155.9117042151725
 72
     1
 10
100.4189674126394
 20
-155.9117042151725
 11
100.4189674126394
 21
-152.9116720029234
 72
     1
 10
100.4189674126394
 20
-152.9116720029234
 11
99.41920070281991
 21
-152.9116720029234
 97
        0
 75
     2
 76
     1
 98
        0
  0
POLYLINE
  5
4F
330
1F
100
AcDbEntity
  8
_U+30EC_U+30A4_U+30E4_U+30FC 1
 62
   179
420
  2234388
370
    25
100
AcDb2dPolyline
 66
     1
 10
0.0
 20
0.0
 30
0.0
  0
VERTEX
  5
50
330
4F
100
AcDbEntity
  8
_U+30EC_U+30A4_U+30E4_U+30FC 1
 62
   179
420
  2234388
370
    25
100
AcDbVertex
100
AcDb2dVertex
 10
99.41920070281991
 20
-152.9116720029234
 30
0.0
  0
VERTEX
  5
51
330
4F
100
AcDbEntity
  8
_U+30EC_U+30A4_U+30E4_U+30FC 1
 62
   179
420
  2234388
370
    25
100
AcDbVertex
100
AcDb2dVertex
 10
99.41920070281991
 20
-154.9115714639577
 30
0.0
  0
VERTEX
  5
52
330
4F
100
AcDbEntity
  8
_U+30EC_U+30A4_U+30E4_U+30FC 1
 62
   179
420
  2234388
370
    25
100
AcDbVertex
100
AcDb2dVertex
 10
91.41925834913413
 20
-154.9115714639577
 30
0.0
  0
VERTEX
  5
53
330
4F
100
AcDbEntity
  8
_U+30EC_U+30A4_U+30E4_U+30FC 1
 62
   179
420
  2234388
370
    25
100
AcDbVertex
100
AcDb2dVertex
 10
91.41925834913413
 20
-144.4115017847793
 30
0.0
  0
VERTEX
  5
54
330
4F
100
AcDbEntity
  8
_U+30EC_U+30A4_U+30E4_U+30FC 1
 62
   179
420
  2234388
370
    25
100
AcDbVertex
100
AcDb2dVertex
 10
115.4190746442681
 20
-144.4115017847793
 30
0.0
  0
VERTEX
  5
55
330
4F
100
AcDbEntity
  8
_U+30EC_U+30A4_U+30E4_U+30FC 1
 62
   179
420
  2234388
370
    25
100
AcDbVertex
100
AcDb2dVertex
 10
115.4190746442681
 20
-143.4117243090364
 30
0.0
  0
VERTEX
  5
56
330
4F
100
AcDbEntity
  8
_U+30EC_U+30A4_U+30E4_U+30FC 1
 62
   179
420
  2234388
370
    25
100
AcDbVertex
100
AcDb2dVertex
 10
90.4191255979193
 20
-143.4117243090364
 30
0.0
  0
VERTEX
  5
57
330
4F
100
AcDbEntity
  8
_U+30EC_U+30A4_U+30E4_U+30FC 1
 62
   179
420
  2234388
370
    25
100
AcDbVertex
100
AcDb2dVertex
 10
90.4191255979193
 20
-155.9117042151725
 30
0.0
  0
VERTEX
  5
58
330
4F
100
AcDbEntity
  8
_U+30EC_U+30A4_U+30E4_U+30FC 1
 62
   179
420
  2234388
370
    25
100
AcDbVertex
100
AcDb2dVertex
 10
100.4189674126394
 20
-155.9117042151725
 30
0.0
  0
VERTEX
  5
59
330
4F
100
AcDbEntity
  8
_U+30EC_U+30A4_U+30E4_U+30FC 1
 62
   179
420
  2234388
370
    25
100
AcDbVertex
100
AcDb2dVertex
 10
100.4189674126394
 20
-152.9116720029234
 30
0.0
  0
VERTEX
  5
5A
330
4F
100
AcDbEntity
  8
_U+30EC_U+30A4_U+30E4_U+30FC 1
 62
   179
420
  2234388
370
    25
100
AcDbVertex
100
AcDb2dVertex
 10
99.41920070281991
 20
-152.9116720029234
 30
0.0
  0
SEQEND
  5
5B
330
4F
100
AcDbEntity
  8
_U+30EC_U+30A4_U+30E4_U+30FC 1
 62
   179
420
  2234388
370
    25
  0
SPLINE
  5
5C
330
1F
100
AcDbEntity
  8
_U+30EC_U+30A4_U+30E4_U+30FC 1
 62
   179
420
  2234388
370
     9
100
AcDbSpline
210
0.0
220
0.0
230
1.0
 70
    11
 71
     3
 72
    17
 73
    13
 74
     0
 42
0.0000000001
 43
0.0000000001
 12
1.0
 22
0.0
 32
0.0
 13
1.0
 23
0.0
 33
0.0
 40
0.0
 40
0.0
 40
0.0
 40
0.0
 40
1.0
 40
1.0
 40
1.0
 40
2.0
 40
2.0
 40
2.0
 40
3.0
 40
3.0
 40
3.0
 40
4.0
 40
4.0
 40
4.0
 40
4.0
 10
90.51914102622547
 20
-139.4113978567216
 30
0.0
 10
90.51914102622547
 20
-139.3563732222681
 30
0.0
 10
90.47433325307044
 20
-139.3115654491131
 30
0.0
 10
90.41894257722166
 20
-139.3115654491131
 30
0.0
 10
90.36391794276818
 20
-139.3115654491131
 30
0.0
 10
90.31911016961315
 20
-139.3563732222681
 30
0.0
 10
90.31911016961315
 20
-139.4113978567216
 30
0.0
 10
90.31911016961315
 20
-139.4667885325704
 30
0.0
 10
90.36391794276818
 20
-139.5115963057257
 30
0.0
 10
90.41894257722166
 20
-139.5115963057257
 30
0.0
 10
90.47433325307044
 20
-139.5115963057257
 30
0.0
 10
90.51914102622547
 20
-139.4667885325704
 30
0.0
 10
90.51914102622547
 20
-139.4113978567216
 30
0.0
  0
SPLINE
  5
5D
330
1F
100
AcDbEntity
  8
_U+30EC_U+30A4_U+30E4_U+30FC 1
 62
   179
420
  2234388
370
     9
100
AcDbSpline
210
0.0
220
0.0
230
1.0
 70
    11
 71
     3
 72
    17
 73
    13
 74
     0
 42
0.0000000001
 43
0.0000000001
 12
1.0
 22
0.0
 32
0.0
 13
1.0
 23
0.0
 33
0.0
 40
0.0
 40
0.0
 40
0.0
 40
0.0
 40
1.0
 40
1.0
 40
1.0
 40
2.0
 40
2.0
 40
2.0
 40
3.0
 40
3.0
 40
3.0
 40
4.0
 40
4.0
 40
4.0
 40
4.0
 10
115.5191977318081
 20
-139.4113978567216
 30
0.0
 10
115.5191977318081
 20
-139.3563732222681
 30
0.0
 10
115.4743899586531
 20
-139.3115654491131
 30
0.0
 10
115.4193545582762
 20
-139.3115654491131
 30
0.0
 10
115.3639746483508
 20
-139.3115654491131
 30
0.0
 10
115.3191668751958
 20
-139.3563732222681
 30
0.0
 10
115.3191668751958
 20
-139.4113978567216
 30
0.0
 10
115.3191668751958
 20
-139.4667885325704
 30
0.0
 10
115.3639746483508
 20
-139.5115963057257
 30
0.0
 10
115.4193545582762
 20
-139.5115963057257
 30
0.0
 10
115.4743899586531
 20
-139.5115963057257
 30
0.0
 10
115.5191977318081
 20
-139.4667885325704
 30
0.0
 10
115.5191977318081
 20
-139.4113978567216
 30
0.0
  0
SPLINE
  5
5E
330
1F
100
AcDbEntity
  8
_U+30EC_U+30A4_U+30E4_U+30FC 1
 62
   179
420
  2234388
370
     9
100
AcDbSpline
210
0.0
220
0.0
230
1.0
 70
    11
 71
     3
 72
    17
 73
    13
 74
     0
 42
0.0000000001
 43
0.0000000001
 12
1.0
 22
0.0
 32
0.0
 13
1.0
 23
0.0
 33
0.0
 40
0.0
 40
0.0
 40
0.0
 40
0.0
 40
1.0
 40
1.0
 40
1.0
 40
2.0
 40
2.0
 40
2.0
 40
3.0
 40
3.0
 40
3.0
 40
4.0
 40
4.0
 40
4.0
 40
4.0
 10
119.5194488226592
 20
-143.4118319682703
 30
0.0
 10
119.5194488226592
 20
-143.3564520583449
 30
0.0
 10
119.4746410495042
 20
-143.3116442851899
 30
0.0
 10
119.4189058641069
 20
-143.3116442851899
 30
0.0
 10
119.36387046373
 20
-143.3116442851899
 30
0.0
 10
119.319062690575
 20
-143.3564520583449
 30
0.0
 10
119.319062690575
 20
-143.4118319682703
 30
0.0
 10
119.319062690575
 20
-143.4668673686472
 30
0.0
 10
119.36387046373
 20
-143.5116751418022
 30
0.0
 10
119.4189058641069
 20
-143.5116751418022
 30
0.0
 10
119.4746410495042
 20
-143.5116751418022
 30
0.0
 10
119.5194488226592
 20
-143.4668673686472
 30
0.0
 10
119.5194488226592
 20
-143.4118319682703
 30
0.0
  0
SPLINE
  5
5F
330
1F
100
AcDbEntity
  8
_U+30EC_U+30A4_U+30E4_U+30FC 1
 62
   179
420
  2234388
370
     9
100
AcDbSpline
210
0.0
220
0.0
230
1.0
 70
    11
 71
     3
 72
    17
 73
    13
 74
     0
 42
0.0000000001
 43
0.0000000001
 12
1.0
 22
0.0
 32
0.0
 13
1.0
 23
0.0
 33
0.0
 40
0.0
 40
0.0
 40
0.0
 40
0.0
 40
1.0
 40
1.0
 40
1.0
 40
2.0
 40
2.0
 40
2.0
 40
3.0
 40
3.0
 40
3.0
 40
4.0
 40
4.0
 40
4.0
 40
4.0
 10
119.5194488226592
 20
-144.4115986780898
 30
0.0
 10
119.5194488226592
 20
-144.3565740436363
 30
0.0
 10
119.4746410495042
 20
-144.3117662704813
 30
0.0
 10
119.4189058641069
 20
-144.3117662704813
 30
0.0
 10
119.36387046373
 20
-144.3117662704813
 30
0.0
 10
119.319062690575
 20
-144.3565740436363
 30
0.0
 10
119.319062690575
 20
-144.4115986780898
 30
0.0
 10
119.319062690575
 20
-144.4666340784667
 30
0.0
 10
119.36387046373
 20
-144.5114418516217
 30
0.0
 10
119.4189058641069
 20
-144.5114418516217
 30
0.0
 10
119.4746410495042
 20
-144.5114418516217
 30
0.0
 10
119.5194488226592
 20
-144.4666340784667
 30
0.0
 10
119.5194488226592
 20
-144.4115986780898
 30
0.0
  0
SPLINE
  5
60
330
1F
100
AcDbEntity
  8
_U+30EC_U+30A4_U+30E4_U+30FC 1
 62
   179
420
  2234388
370
     9
100
AcDbSpline
210
0.0
220
0.0
230
1.0
 70
    11
 71
     3
 72
    17
 73
    13
 74
     0
 42
0.0000000001
 43
0.0000000001
 12
1.0
 22
0.0
 32
0.0
 13
1.0
 23
0.0
 33
0.0
 40
0.0
 40
0.0
 40
0.0
 40
0.0
 40
1.0
 40
1.0
 40
1.0
 40
2.0
 40
2.0
 40
2.0
 40
3.0
 40
3.0
 40
3.0
 40
4.0
 40
4.0
 40
4.0
 40
4.0
 10
119.5194488226592
 20
-152.9116720029234
 30
0.0
 10
119.5194488226592
 20
-152.856292092998
 30
0.0
 10
119.4746410495042
 20
-152.8114843198429
 30
0.0
 10
119.4189058641069
 20
-152.8114843198429
 30
0.0
 10
119.36387046373
 20
-152.8114843198429
 30
0.0
 10
119.319062690575
 20
-152.856292092998
 30
0.0
 10
119.319062690575
 20
-152.9116720029234
 30
0.0
 10
119.319062690575
 20
-152.9667074033002
 30
0.0
 10
119.36387046373
 20
-153.0115151764552
 30
0.0
 10
119.4189058641069
 20
-153.0115151764552
 30
0.0
 10
119.4746410495042
 20
-153.0115151764552
 30
0.0
 10
119.5194488226592
 20
-152.9667074033002
 30
0.0
 10
119.5194488226592
 20
-152.9116720029234
 30
0.0
  0
SPLINE
  5
61
330
1F
100
AcDbEntity
  8
_U+30EC_U+30A4_U+30E4_U+30FC 1
 62
   179
420
  2234388
370
     9
100
AcDbSpline
210
0.0
220
0.0
230
1.0
 70
    11
 71
     3
 72
    17
 73
    13
 74
     0
 42
0.0000000001
 43
0.0000000001
 12
1.0
 22
0.0
 32
0.0
 13
1.0
 23
0.0
 33
0.0
 40
0.0
 40
0.0
 40
0.0
 40
0.0
 40
1.0
 40
1.0
 40
1.0
 40
2.0
 40
2.0
 40
2.0
 40
3.0
 40
3.0
 40
3.0
 40
4.0
 40
4.0
 40
4.0
 40
4.0
 10
119.5194488226592
 20
-155.9117042151725
 30
0.0
 10
119.5194488226592
 20
-155.856679580719
 30
0.0
 10
119.4746410495042
 20
-155.811871807564
 30
0.0
 10
119.4189058641069
 20
-155.811871807564
 30
0.0
 10
119.36387046373
 20
-155.811871807564
 30
0.0
 10
119.319062690575
 20
-155.856679580719
 30
0.0
 10
119.319062690575
 20
-155.9117042151725
 30
0.0
 10
119.319062690575
 20
-155.9667396155493
 30
0.0
 10
119.36387046373
 20
-156.0115473887044
 30
0.0
 10
119.4189058641069
 20
-156.0115473887044
 30
0.0
 10
119.4746410495042
 20
-156.0115473887044
 30
0.0
 10
119.5194488226592
 20
-155.9667396155493
 30
0.0
 10
119.5194488226592
 20
-155.9117042151725
 30
0.0
  0
SPLINE
  5
62
330
1F
100
AcDbEntity
  8
_U+30EC_U+30A4_U+30E4_U+30FC 1
 62
   179
420
  2234388
370
     9
100
AcDbSpline
210
0.0
220
0.0
230
1.0
 70
    11
 71
     3
 72
    17
 73
    13
 74
     0
 42
0.0000000001
 43
0.0000000001
 12
1.0
 22
0.0
 32
0.0
 13
1.0
 23
0.0
 33
0.0
 40
0.0
 40
0.0
 40
0.0
 40
0.0
 40
1.0
 40
1.0
 40
1.0
 40
2.0
 40
2.0
 40
2.0
 40
3.0
 40
3.0
 40
3.0
 40
4.0
 40
4.0
 40
4.0
 40
4.0
 10
100.5188751817116
 20
-159.9117722853259
 30
0.0
 10
100.5188751817116
 20
-159.8563923754005
 30
0.0
 10
100.4740674085566
 20
-159.8115846022455
 30
0.0
 10
100.4190320081798
 20
-159.8115846022455
 30
0.0
 10
100.3639966078029
 20
-159.8115846022455
 30
0.0
 10
100.3191996005713
 20
-159.8563923754005
 30
0.0
 10
100.3191996005713
 20
-159.9117722853259
 30
0.0
 10
100.3191996005713
 20
-159.9668076857027
 30
0.0
 10
100.3639966078029
 20
-160.0116154588578
 30
0.0
 10
100.4190320081798
 20
-160.0116154588578
 30
0.0
 10
100.4740674085566
 20
-160.0116154588578
 30
0.0
 10
100.5188751817116
 20
-159.9668076857027
 30
0.0
 10
100.5188751817116
 20
-159.9117722853259
 30
0.0
  0
SPLINE
  5
63
330
1F
100
AcDbEntity
  8
_U+30EC_U+30A4_U+30E4_U+30FC 1
 62
   179
420
  2234388
370
     9
100
AcDbSpline
210
0.0
220
0.0
230
1.0
 70
    11
 71
     3
 72
    17
 73
    13
 74
     0
 42
0.0000000001
 43
0.0000000001
 12
1.0
 22
0.0
 32
0.0
 13
1.0
 23
0.0
 33
0.0
 40
0.0
 40
0.0
 40
0.0
 40
0.0
 40
1.0
 40
1.0
 40
1.0
 40
2.0
 40
2.0
 40
2.0
 40
3.0
 40
3.0
 40
3.0
 40
4.0
 40
4.0
 40
4.0
 40
4.0
 10
90.51914102622547
 20
-159.9117722853259
 30
0.0
 10
90.51914102622547
 20
-159.8563923754005
 30
0.0
 10
90.47433325307044
 20
-159.8115846022455
 30
0.0
 10
90.41894257722166
 20
-159.8115846022455
 30
0.0
 10
90.36391794276818
 20
-159.8115846022455
 30
0.0
 10
90.31911016961315
 20
-159.8563923754005
 30
0.0
 10
90.31911016961315
 20
-159.9117722853259
 30
0.0
 10
90.31911016961315
 20
-159.9668076857027
 30
0.0
 10
90.36391794276818
 20
-160.0116154588578
 30
0.0
 10
90.41894257722166
 20
-160.0116154588578
 30
0.0
 10
90.47433325307044
 20
-160.0116154588578
 30
0.0
 10
90.51914102622547
 20
-159.9668076857027
 30
0.0
 10
90.51914102622547
 20
-159.9117722853259
 30
0.0
  0
POLYLINE
  5
64
330
1F
100
AcDbEntity
  8
_U+30EC_U+30A4_U+30E4_U+30FC 1
 62
   179
420
  2234388
370
     9
100
AcDb2dPolyline
 66
     1
 10
0.0
 20
0.0
 30
0.0
  0
VERTEX
  5
65
330
64
100
AcDbEntity
  8
_U+30EC_U+30A4_U+30E4_U+30FC 1
 62
   179
420
  2234388
370
     9
100
AcDbVertex
100
AcDb2dVertex
 10
119.4188735663367
 20
-143.4118319682703
 30
0.0
  0
VERTEX
  5
66
330
64
100
AcDbEntity
  8
_U+30EC_U+30A4_U+30E4_U+30FC 1
 62
   179
420
  2234388
370
     9
100
AcDbVertex
100
AcDb2dVertex
 10
119.4188735663367
 20
-139.6413472144386
 30
0.0
  0
SEQEND
  5
67
330
64
100
AcDbEntity
  8
_U+30EC_U+30A4_U+30E4_U+30FC 1
 62
   179
420
  2234388
370
     9
  0
POLYLINE
  5
68
330
1F
100
AcDbEntity
  8
_U+30EC_U+30A4_U+30E4_U+30FC 1
 62
   179
420
  2234388
370
     9
100
AcDb2dPolyline
 66
     1
 10
0.0
 20
0.0
 30
0.0
  0
VERTEX
  5
69
330
68
100
AcDbEntity
  8
_U+30EC_U+30A4_U+30E4_U+30FC 1
 62
   179
420
  2234388
370
     9
100
AcDbVertex
100
AcDb2dVertex
 10
119.4188735663367
 20
-143.4118319682703
 30
0.0
  0
VERTEX
  5
6A
330
68
100
AcDbEntity
  8
_U+30EC_U+30A4_U+30E4_U+30FC 1
 62
   179
420
  2234388
370
     9
100
AcDbVertex
100
AcDb2dVertex
 10
119.4188735663367
 20
-144.4116094440132
 30
0.0
  0
SEQEND
  5
6B
330
68
100
AcDbEntity
  8
_U+30EC_U+30A4_U+30E4_U+30FC 1
 62
   179
420
  2234388
370
     9
  0
POLYLINE
  5
6C
330
1F
100
AcDbEntity
  8
_U+30EC_U+30A4_U+30E4_U+30FC 1
 62
   179
420
  2234388
370
     9
100
AcDb2dPolyline
 66
     1
 10
0.0
 20
0.0
 30
0.0
  0
VERTEX
  5
6D
330
6C
100
AcDbEntity
  8
_U+30EC_U+30A4_U+30E4_U+30FC 1
 62
   179
420
  2234388
370
     9
100
AcDbVertex
100
AcDb2dVertex
 10
117.9591543114662
 20
-143.4118319682703
 30
0.0
  0
VERTEX
  5
6E
330
6C
100
AcDbEntity
  8
_U+30EC_U+30A4_U+30E4_U+30FC 1
 62
   179
420
  2234388
370
     9
100
AcDbVertex
100
AcDb2dVertex
 10
120.4194261885638
 20
-143.4118319682703
 30
0.0
  0
SEQEND
  5
6F
330
6C
100
AcDbEntity
  8
_U+30EC_U+30A4_U+30E4_U+30FC 1
 62
   179
420
  2234388
370
     9
  0
POLYLINE
  5
70
330
1F
100
AcDbEntity
  8
_U+30EC_U+30A4_U+30E4_U+30FC 1
 62
   179
420
  2234388
370
     9
100
AcDb2dPolyline
 66
     1
 10
0.0
 20
0.0
 30
0.0
  0
VERTEX
  5
71
330
70
100
AcDbEntity
  8
_U+30EC_U+30A4_U+30E4_U+30FC 1
 62
   179
420
  2234388
370
     9
100
AcDbVertex
100
AcDb2dVertex
 10
117.9591543114662
 20
-144.4115986780898
 30
0.0
  0
VERTEX
  5
72
330
70
100
AcDbEntity
  8
_U+30EC_U+30A4_U+30E4_U+30FC 1
 62
   179
420
  2234388
370
     9
100
AcDbVertex
100
AcDb2dVertex
 10
120.4194261885638
 20
-144.4115986780898
 30
0.0
  0
SEQEND
  5
73
330
70
100
AcDbEntity
  8
_U+30EC_U+30A4_U+30E4_U+30FC 1
 62
   179
420
  2234388
370
     9
  0
INSERT
  5
75
330
1F
100
AcDbEntity
  8
_U+30EC_U+30A4_U+30E4_U+30FC 1
100
AcDbBlockReference
  2
block 2
 10
0.0
 20
0.0
 30
0.0
  0
POLYLINE
  5
7A
330
1F
100
AcDbEntity
  8
_U+30EC_U+30A4_U+30E4_U+30FC 1
 62
   179
420
  2234388
370
     9
100
AcDb2dPolyline
 66
     1
 10
0.0
 20
0.0
 30
0.0
  0
VERTEX
  5
7B
330
7A
100
AcDbEntity
  8
_U+30EC_U+30A4_U+30E4_U+30FC 1
 62
   179
420
  2234388
370
     9
100
AcDbVertex
100
AcDb2dVertex
 10
119.4188735663367
 20
-152.9116720029234
 30
0.0
  0
VERTEX
  5
7C
330
7A
100
AcDbEntity
  8
_U+30EC_U+30A4_U+30E4_U+30FC 1
 62
   179
420
  2234388
370
     9
100
AcDbVertex
100
AcDb2dVertex
 10
119.4188735663367
 20
-155.9117042151725
 30
0.0
  0
SEQEND
  5
7D
330
7A
100
AcDbEntity
  8
_U+30EC_U+30A4_U+30E4_U+30FC 1
 62
   179
420
  2234388
370
     9
  0
POLYLINE
  5
7E
330
1F
100
AcDbEntity
  8
_U+30EC_U+30A4_U+30E4_U+30FC 1
 62
   179
420
  2234388
370
     9
100
AcDb2dPolyline
 66
     1
 10
0.0
 20
0.0
 30
0.0
  0
VERTEX
  5
7F
330
7E
100
AcDbEntity
  8
_U+30EC_U+30A4_U+30E4_U+30FC 1
 62
   179
420
  2234388
370
     9
100
AcDbVertex
100
AcDb2dVertex
 10
102.9590363139141
 20
-155.9117042151725
 30
0.0
  0
VERTEX
  5
80
330
7E
100
AcDbEntity
  8
_U+30EC_U+30A4_U+30E4_U+30FC 1
 62
   179
420
  2234388
370
     9
100
AcDbVertex
100
AcDb2dVertex
 10
120.4194154226404
 20
-155.9117042151725
 30
0.0
  0
SEQEND
  5
81
330
7E
100
AcDbEntity
  8
_U+30EC_U+30A4_U+30E4_U+30FC 1
 62
   179
420
  2234388
370
     9
  0
INSERT
  5
83
330
1F
100
AcDbEntity
  8
_U+30EC_U+30A4_U+30E4_U+30FC 1
100
AcDbBlockReference
  2
block 3
 10
0.0
 20
0.0
 30
0.0
  0
POLYLINE
  5
88
330
1F
100
AcDbEntity
  8
_U+30EC_U+30A4_U+30E4_U+30FC 1
 62
   179
420
  2234388
370
     9
100
AcDb2dPolyline
 66
     1
 10
0.0
 20
0.0
 30
0.0
  0
VERTEX
  5
89
330
88
100
AcDbEntity
  8
_U+30EC_U+30A4_U+30E4_U+30FC 1
 62
   179
420
  2234388
370
     9
100
AcDbVertex
100
AcDb2dVertex
 10
90.41906100237897
 20
-159.9117722853259
 30
0.0
  0
VERTEX
  5
8A
330
88
100
AcDbEntity
  8
_U+30EC_U+30A4_U+30E4_U+30FC 1
 62
   179
420
  2234388
370
     9
100
AcDbVertex
100
AcDb2dVertex
 10
100.418892051176
 20
-159.9117722853259
 30
0.0
  0
SEQEND
  5
8B
330
88
100
AcDbEntity
  8
_U+30EC_U+30A4_U+30E4_U+30FC 1
 62
   179
420
  2234388
370
     9
  0
POLYLINE
  5
8C
330
1F
100
AcDbEntity
  8
_U+30EC_U+30A4_U+30E4_U+30FC 1
 62
   179
420
  2234388
370
     9
100
AcDb2dPolyline
 66
     1
 10
0.0
 20
0.0
 30
0.0
  0
VERTEX
  5
8D
330
8C
100
AcDbEntity
  8
_U+30EC_U+30A4_U+30E4_U+30FC 1
 62
   179
420
  2234388
370
     9
100
AcDbVertex
100
AcDb2dVertex
 10
90.41906100237897
 20
-158.4517300527536
 30
0.0
  0
VERTEX
  5
8E
330
8C
100
AcDbEntity
  8
_U+30EC_U+30A4_U+30E4_U+30FC 1
 62
   179
420
  2234388
370
     9
100
AcDbVertex
100
AcDb2dVertex
 10
90.41906100237897
 20
-160.9116574203027
 30
0.0
  0
SEQEND
  5
8F
330
8C
100
AcDbEntity
  8
_U+30EC_U+30A4_U+30E4_U+30FC 1
 62
   179
420
  2234388
370
     9
  0
POLYLINE
  5
90
330
1F
100
AcDbEntity
  8
_U+30EC_U+30A4_U+30E4_U+30FC 1
 62
   179
420
  2234388
370
     9
100
AcDb2dPolyline
 66
     1
 10
0.0
 20
0.0
 30
0.0
  0
VERTEX
  5
91
330
90
100
AcDbEntity
  8
_U+30EC_U+30A4_U+30E4_U+30FC 1
 62
   179
420
  2234388
370
     9
100
AcDbVertex
100
AcDb2dVertex
 10
100.4189674126394
 20
-158.4517300527536
 30
0.0
  0
VERTEX
  5
92
330
90
100
AcDbEntity
  8
_U+30EC_U+30A4_U+30E4_U+30FC 1
 62
   179
420
  2234388
370
     9
100
AcDbVertex
100
AcDb2dVertex
 10
100.4189674126394
 20
-160.9116574203027
 30
0.0
  0
SEQEND
  5
93
330
90
100
AcDbEntity
  8
_U+30EC_U+30A4_U+30E4_U+30FC 1
 62
   179
420
  2234388
370
     9
  0
INSERT
  5
95
330
1F
100
AcDbEntity
  8
_U+30EC_U+30A4_U+30E4_U+30FC 1
100
AcDbBlockReference
  2
block 4
 10
0.0
 20
0.0
 30
0.0
  0
POLYLINE
  5
9D
330
1F
100
AcDbEntity
  8
_U+30EC_U+30A4_U+30E4_U+30FC 1
 62
   179
420
  2234388
370
     9
100
AcDb2dPolyline
 66
     1
 10
0.0
 20
0.0
 30
0.0
  0
VERTEX
  5
9E
330
9D
100
AcDbEntity
  8
_U+30EC_U+30A4_U+30E4_U+30FC 1
 62
   179
420
  2234388
370
     9
100
AcDbVertex
100
AcDb2dVertex
 10
90.41906100237897
 20
-139.4113978567216
 30
0.0
  0
VERTEX
  5
9F
330
9D
100
AcDbEntity
  8
_U+30EC_U+30A4_U+30E4_U+30FC 1
 62
   179
420
  2234388
370
     9
100
AcDbVertex
100
AcDb2dVertex
 10
115.4193545582762
 20
-139.4113978567216
 30
0.0
  0
SEQEND
  5
A0
330
9D
100
AcDbEntity
  8
_U+30EC_U+30A4_U+30E4_U+30FC 1
 62
   179
420
  2234388
370
     9
  0
POLYLINE
  5
A1
330
1F
100
AcDbEntity
  8
_U+30EC_U+30A4_U+30E4_U+30FC 1
 62
   179
420
  2234388
370
     9
100
AcDb2dPolyline
 66
     1
 10
0.0
 20
0.0
 30
0.0
  0
VERTEX
  5
A2
330
A1
100
AcDbEntity
  8
_U+30EC_U+30A4_U+30E4_U+30FC 1
 62
   179
420
  2234388
370
     9
100
AcDbVertex
100
AcDb2dVertex
 10
90.41906100237897
 20
-140.8714400892939
 30
0.0
  0
VERTEX
  5
A3
330
A1
100
AcDbEntity
  8
_U+30EC_U+30A4_U+30E4_U+30FC 1
 62
   179
420
  2234388
370
     9
100
AcDbVertex
100
AcDb2dVertex
 10
90.41906100237897
 20
-138.4115234876682
 30
0.0
  0
SEQEND
  5
A4
330
A1
100
AcDbEntity
  8
_U+30EC_U+30A4_U+30E4_U+30FC 1
 62
   179
420
  2234388
370
     9
  0
POLYLINE
  5
A5
330
1F
100
AcDbEntity
  8
_U+30EC_U+30A4_U+30E4_U+30FC 1
 62
   179
420
  2234388
370
     9
100
AcDb2dPolyline
 66
     1
 10
0.0
 20
0.0
 30
0.0
  0
VERTEX
  5
A6
330
A5
100
AcDbEntity
  8
_U+30EC_U+30A4_U+30E4_U+30FC 1
 62
   179
420
  2234388
370
     9
100
AcDbVertex
100
AcDb2dVertex
 10
115.4192253671956
 20
-140.8714400892939
 30
0.0
  0
VERTEX
  5
A7
330
A5
100
AcDbEntity
  8
_U+30EC_U+30A4_U+30E4_U+30FC 1
 62
   179
420
  2234388
370
     9
100
AcDbVertex
100
AcDb2dVertex
 10
115.4192253671956
 20
-138.4115234876682
 30
0.0
  0
SEQEND
  5
A8
330
A5
100
AcDbEntity
  8
_U+30EC_U+30A4_U+30E4_U+30FC 1
 62
   179
420
  2234388
370
     9
  0
INSERT
  5
AA
330
1F
100
AcDbEntity
  8
_U+30EC_U+30A4_U+30E4_U+30FC 1
100
AcDbBlockReference
  2
block 5
 10
0.0
 20
0.0
 30
0.0
  0
POLYLINE
  5
B1
330
1F
100
AcDbEntity
  8
_U+30EC_U+30A4_U+30E4_U+30FC 1
 62
   179
420
  2234388
370
     9
100
AcDb2dPolyline
 66
     1
 10
0.0
 20
0.0
 30
0.0
  0
VERTEX
  5
B2
330
B1
100
AcDbEntity
  8
_U+30EC_U+30A4_U+30E4_U+30FC 1
 62
   179
420
  2234388
370
     9
100
AcDbVertex
100
AcDb2dVertex
 10
119.4188735663367
 20
-152.9116720029234
 30
0.0
  0
VERTEX
  5
B3
330
B1
100
AcDbEntity
  8
_U+30EC_U+30A4_U+30E4_U+30FC 1
 62
   179
420
  2234388
370
     9
100
AcDbVertex
100
AcDb2dVertex
 10
119.4188735663367
 20
-144.4115017847793
 30
0.0
  0
SEQEND
  5
B4
330
B1
100
AcDbEntity
  8
_U+30EC_U+30A4_U+30E4_U+30FC 1
 62
   179
420
  2234388
370
     9
  0
POLYLINE
  5
B5
330
1F
100
AcDbEntity
  8
_U+30EC_U+30A4_U+30E4_U+30FC 1
 62
   179
420
  2234388
370
     9
100
AcDb2dPolyline
 66
     1
 10
0.0
 20
0.0
 30
0.0
  0
VERTEX
  5
B6
330
B5
100
AcDbEntity
  8
_U+30EC_U+30A4_U+30E4_U+30FC 1
 62
   179
420
  2234388
370
     9
100
AcDbVertex
100
AcDb2dVertex
 10
102.9590363139141
 20
-152.9116720029234
 30
0.0
  0
VERTEX
  5
B7
330
B5
100
AcDbEntity
  8
_U+30EC_U+30A4_U+30E4_U+30FC 1
 62
   179
420
  2234388
370
     9
100
AcDbVertex
100
AcDb2dVertex
 10
120.4194154226404
 20
-152.9116720029234
 30
0.0
  0
SEQEND
  5
B8
330
B5
100
AcDbEntity
  8
_U+30EC_U+30A4_U+30E4_U+30FC 1
 62
   179
420
  2234388
370
     9
  0
INSERT
  5
BA
330
1F
100
AcDbEntity
  8
_U+30EC_U+30A4_U+30E4_U+30FC 1
100
AcDbBlockReference
  2
block 6
 10
0.0
 20
0.0
 30
0.0
  0
POLYLINE
  5
CB
330
1F
100
AcDbEntity
  8
_U+30EC_U+30A4_U+30E4_U+30FC 1
  6
AI-Linetype-1
 62
   154
420
    23468
370
    25
100
AcDb2dPolyline
 66
     1
 10
0.0
 20
0.0
 30
0.0
  0
VERTEX
  5
CC
330
CB
100
AcDbEntity
  8
_U+30EC_U+30A4_U+30E4_U+30FC 1
  6
AI-Linetype-1
 62
   154
420
    23468
370
    25
100
AcDbVertex
100
AcDb2dVertex
 10
89.64337622202818
 20
-143.5134622850852
 30
0.0
  0
VERTEX
  5
CD
330
CB
100
AcDbEntity
  8
_U+30EC_U+30A4_U+30E4_U+30FC 1
  6
AI-Linetype-1
 62
   154
420
    23468
370
    25
100
AcDbVertex
100
AcDb2dVertex
 10
89.64337622202818
 20
-156.6159893915915
 30
0.0
  0
VERTEX
  5
CE
330
CB
100
AcDbEntity
  8
_U+30EC_U+30A4_U+30E4_U+30FC 1
  6
AI-Linetype-1
 62
   154
420
    23468
370
    25
100
AcDbVertex
100
AcDb2dVertex
 10
101.1435786524214
 20
-156.6159893915915
 30
0.0
  0
SEQEND
  5
D0
330
CB
100
AcDbEntity
  8
_U+30EC_U+30A4_U+30E4_U+30FC 1
  6
AI-Linetype-1
 62
   154
420
    23468
370
    25
  0
POLYLINE
  5
D1
330
1F
100
AcDbEntity
  8
_U+30EC_U+30A4_U+30E4_U+30FC 1
  6
AI-Linetype-2
 62
   154
420
    23468
370
    25
100
AcDb2dPolyline
 66
     1
 10
0.0
 20
0.0
 30
0.0
  0
VERTEX
  5
D2
330
D1
100
AcDbEntity
  8
_U+30EC_U+30A4_U+30E4_U+30FC 1
  6
AI-Linetype-2
 62
   154
420
    23468
370
    25
100
AcDbVertex
100
AcDb2dVertex
 10
89.64337622202818
 20
-156.615838668664
 30
0.0
  0
VERTEX
  5
D3
330
D1
100
AcDbEntity
  8
_U+30EC_U+30A4_U+30E4_U+30FC 1
  6
AI-Linetype-2
 62
   154
420
    23468
370
    25
100
AcDbVertex
100
AcDb2dVertex
 10
89.64337622202818
 20
-153.01362529744
 30
0.0
  0
SEQEND
  5
D5
330
D1
100
AcDbEntity
  8
_U+30EC_U+30A4_U+30E4_U+30FC 1
  6
AI-Linetype-2
 62
   154
420
    23468
370
    25
  0
POLYLINE
  5
D6
330
1F
100
AcDbEntity
  8
_U+30EC_U+30A4_U+30E4_U+30FC 1
  6
AI-Linetype-3
 62
   154
420
    23468
370
    25
100
AcDb2dPolyline
 66
     1
 10
0.0
 20
0.0
 30
0.0
  0
VERTEX
  5
D7
330
D6
100
AcDbEntity
  8
_U+30EC_U+30A4_U+30E4_U+30FC 1
  6
AI-Linetype-3
 62
   154
420
    23468
370
    25
100
AcDbVertex
100
AcDb2dVertex
 10
101.1692984434034
 20
-156.6155264568856
 30
0.0
  0
VERTEX
  5
D8
330
D6
100
AcDbEntity
  8
_U+30EC_U+30A4_U+30E4_U+30FC 1
  6
AI-Linetype-3
 62
   154
420
    23468
370
    25
100
AcDbVertex
100
AcDb2dVertex
 10
101.1692984434034
 20
-153.0136683611335
 30
0.0
  0
SEQEND
  5
DA
330
D6
100
AcDbEntity
  8
_U+30EC_U+30A4_U+30E4_U+30FC 1
  6
AI-Linetype-3
 62
   154
420
    23468
370
    25
  0
ENDSEC
  0
SECTION
  2
OBJECTS
  0
DICTIONARY
  5
C
330
0
100
AcDbDictionary
281
     1
  3
ACAD_GROUP
350
D
  3
ACAD_LAYOUT
350
1A
  3
ACAD_MATERIAL
350
3B
  3
ACAD_MLEADERSTYLE
350
DC
  3
ACAD_MLINESTYLE
350
17
  3
ACAD_PLOTSETTINGS
350
19
  3
ACAD_PLOTSTYLENAME
350
E
  3
ACAD_TABLESTYLE
350
DB
  3
ACAD_VISUALSTYLE
350
2A
  0
SUN
  5
3F
330
29
100
AcDbSun
 90
        1
290
     0
 63
     7
421
 16777215
 40
1.0
291
     1
 91
  2455826
 92
 54000000
292
     0
 70
     2
 71
   256
280
     1
  0
DICTIONARY
  5
D
102
{ACAD_REACTORS
330
C
102
}
330
C
100
AcDbDictionary
281
     1
  0
DICTIONARY
  5
1A
102
{ACAD_REACTORS
330
C
102
}
330
C
100
AcDbDictionary
281
     1
  3
Layout1
350
1E
  3
Layout2
350
26
  3
Model
350
22
  0
DICTIONARY
  5
3B
102
{ACAD_REACTORS
330
C
102
}
330
C
100
AcDbDictionary
281
     1
  3
ByBlock
350
3D
  3
ByLayer
350
3C
  3
Global
350
3E
  0
DICTIONARY
  5
DC
102
{ACAD_REACTORS
330
C
102
}
330
C
100
AcDbDictionary
281
     1
  0
DICTIONARY
  5
17
102
{ACAD_REACTORS
330
C
102
}
330
C
100
AcDbDictionary
281
     1
  3
Standard
350
18
  0
DICTIONARY
  5
19
102
{ACAD_REACTORS
330
C
102
}
330
C
100
AcDbDictionary
281
     1
  0
ACDBDICTIONARYWDFLT
  5
E
102
{ACAD_REACTORS
330
C
102
}
330
C
100
AcDbDictionary
281
     1
  3
Normal
350
F
100
AcDbDictionaryWithDefault
340
F
  0
DICTIONARY
  5
DB
102
{ACAD_REACTORS
330
C
102
}
330
C
100
AcDbDictionary
281
     1
  0
DICTIONARY
  5
2A
102
{ACAD_REACTORS
330
C
102
}
330
C
100
AcDbDictionary
281
     1
  3
2dWireframe
350
2F
  3
3D Hidden
350
31
  3
3dWireframe
350
30
  3
Basic
350
32
  3
Brighten
350
36
  3
ColorChange
350
3A
  3
Conceptual
350
34
  3
Dim
350
35
  3
Facepattern
350
39
  3
Flat
350
2B
  3
FlatWithEdges
350
2C
  3
Gouraud
350
2D
  3
GouraudWithEdges
350
2E
  3
Linepattern
350
38
  3
Realistic
350
33
  3
Thicken
350
37
  0
LAYOUT
  5
1E
102
{ACAD_REACTORS
330
1A
102
}
330
1A
100
AcDbPlotSettings
  1

  2
none_device
  4

  6

 40
0.0
 41
0.0
 42
0.0
 43
0.0
 44
0.0
 45
0.0
 46
0.0
 47
0.0
 48
0.0
 49
0.0
140
0.0
141
0.0
142
1.0
143
1.0
 70
   688
 72
     0
 73
     0
 74
     5
  7

 75
    16
 76
     0
 77
     2
 78
   300
147
1.0
148
0.0
149
0.0
100
AcDbLayout
  1
Layout1
 70
     1
 71
     1
 10
0.0
 20
0.0
 11
12.0
 21
9.0
 12
0.0
 22
0.0
 32
0.0
 14
1.000000000000000E+20
 24
1.000000000000000E+20
 34
1.000000000000000E+20
 15
-1.000000000000000E+20
 25
-1.000000000000000E+20
 35
-1.000000000000000E+20
146
0.0
 13
0.0
 23
0.0
 33
0.0
 16
1.0
 26
0.0
 36
0.0
 17
0.0
 27
1.0
 37
0.0
 76
     0
330
1B
  0
LAYOUT
  5
26
102
{ACAD_REACTORS
330
1A
102
}
330
1A
100
AcDbPlotSettings
  1

  2
none_device
  4

  6

 40
0.0
 41
0.0
 42
0.0
 43
0.0
 44
0.0
 45
0.0
 46
0.0
 47
0.0
 48
0.0
 49
0.0
140
0.0
141
0.0
142
1.0
143
1.0
 70
   688
 72
     0
 73
     0
 74
     5
  7

 75
    16
 76
     0
 77
     2
 78
   300
147
1.0
148
0.0
149
0.0
100
AcDbLayout
  1
Layout2
 70
     1
 71
     2
 10
0.0
 20
0.0
 11
0.0
 21
0.0
 12
0.0
 22
0.0
 32
0.0
 14
0.0
 24
0.0
 34
0.0
 15
0.0
 25
0.0
 35
0.0
146
0.0
 13
0.0
 23
0.0
 33
0.0
 16
1.0
 26
0.0
 36
0.0
 17
0.0
 27
1.0
 37
0.0
 76
     0
330
23
  0
LAYOUT
  5
22
102
{ACAD_REACTORS
330
1A
102
}
330
1A
100
AcDbPlotSettings
  1

  2
none_device
  4

  6

 40
0.0
 41
0.0
 42
0.0
 43
0.0
 44
0.0
 45
0.0
 46
0.0
 47
0.0
 48
0.0
 49
0.0
140
0.0
141
0.0
142
1.0
143
1.0
 70
  1712
 72
     0
 73
     0
 74
     0
  7

 75
     0
 76
     0
 77
     2
 78
   300
147
1.0
148
0.0
149
0.0
100
AcDbLayout
  1
Model
 70
     1
 71
     0
 10
0.0
 20
0.0
 11
12.0
 21
9.0
 12
0.0
 22
0.0
 32
0.0
 14
1.000000000000000E+20
 24
1.000000000000000E+20
 34
1.000000000000000E+20
 15
-1.000000000000000E+20
 25
-1.000000000000000E+20
 35
-1.000000000000000E+20
146
0.0
 13
0.0
 23
0.0
 33
0.0
 16
1.0
 26
0.0
 36
0.0
 17
0.0
 27
1.0
 37
0.0
 76
     0
330
1F
331
29
  0
MATERIAL
  5
3D
102
{ACAD_REACTORS
330
3B
102
}
330
3B
100
AcDbMaterial
  1
ByBlock
 72
     1
 94
      127
  0
MATERIAL
  5
3C
102
{ACAD_REACTORS
330
3B
102
}
330
3B
100
AcDbMaterial
  1
ByLayer
 72
     1
 94
      127
  0
MATERIAL
  5
3E
102
{ACAD_REACTORS
330
3B
102
}
330
3B
100
AcDbMaterial
  1
Global
 72
     1
 94
      127
  0
MLINESTYLE
  5
18
102
{ACAD_REACTORS
330
17
102
}
330
17
100
AcDbMlineStyle
  2
Standard
 70
     0
  3

 62
   256
 51
90.0
 52
90.0
 71
     2
 49
0.5
 62
   256
  6
BYLAYER
 49
-0.5
 62
   256
  6
BYLAYER
  0
ACDBPLACEHOLDER
  5
F
102
{ACAD_REACTORS
330
E
102
}
330
E
  0
VISUALSTYLE
  5
2F
102
{ACAD_REACTORS
330
2A
102
}
330
2A
100
AcDbVisualStyle
  2
2dWireframe
 70
     4
177
     2
291
     0
 71
     0
176
     1
 72
     2
176
     1
 73
     0
176
     1
 90
        0
176
     1
 40
-0.6
176
     1
 41
-30.0
176
     1
 62
     5
 63
     7
421
 16777215
176
     1
 74
     1
176
     1
 91
        4
176
     1
 64
     7
176
     1
 65
   257
176
     1
 75
     1
176
     1
175
     1
176
     1
 42
1.0
176
     1
 92
        0
176
     1
 66
   257
176
     1
 43
1.0
176
     1
 76
     1
176
     1
 77
     6
176
     1
 78
     2
176
     1
 67
     7
176
     1
 79
     5
176
     1
170
     0
176
     1
171
     0
176
     1
290
     0
176
     1
 93
        1
176
     1
 44
0.0
176
     1
173
     0
176
     1
  0
VISUALSTYLE
  5
31
102
{ACAD_REACTORS
330
2A
102
}
330
2A
100
AcDbVisualStyle
  2
3D Hidden
 70
     6
177
     2
291
     0
 71
     1
176
     1
 72
     2
176
     1
 73
     2
176
     1
 90
        0
176
     1
 40
-0.6
176
     1
 41
-30.0
176
     1
 62
     5
 63
     7
421
 16777215
176
     1
 74
     2
176
     1
 91
        2
176
     1
 64
     7
176
     1
 65
   257
176
     1
 75
     2
176
     1
175
     1
176
     1
 42
40.0
176
     1
 92
        0
176
     1
 66
   257
176
     1
 43
1.0
176
     1
 76
     1
176
     1
 77
     6
176
     1
 78
     2
176
     1
 67
     7
176
     1
 79
     3
176
     1
170
     0
176
     1
171
     0
176
     1
290
     0
176
     1
 93
        1
176
     1
 44
0.0
176
     1
173
     0
176
     1
  0
VISUALSTYLE
  5
30
102
{ACAD_REACTORS
330
2A
102
}
330
2A
100
AcDbVisualStyle
  2
3dWireframe
 70
     5
177
     2
291
     0
 71
     0
176
     1
 72
     2
176
     1
 73
     0
176
     1
 90
        0
176
     1
 40
-0.6
176
     1
 41
-30.0
176
     1
 62
     5
 63
     7
421
 16777215
176
     1
 74
     1
176
     1
 91
        4
176
     1
 64
     7
176
     1
 65
   257
176
     1
 75
     1
176
     1
175
     1
176
     1
 42
1.0
176
     1
 92
        0
176
     1
 66
   257
176
     1
 43
1.0
176
     1
 76
     1
176
     1
 77
     6
176
     1
 78
     2
176
     1
 67
     7
176
     1
 79
     5
176
     1
170
     0
176
     1
171
     0
176
     1
290
     0
176
     1
 93
        1
176
     1
 44
0.0
176
     1
173
     0
176
     1
  0
VISUALSTYLE
  5
32
102
{ACAD_REACTORS
330
2A
102
}
330
2A
100
AcDbVisualStyle
  2
Basic
 70
     7
177
     2
291
     1
 71
     1
176
     1
 72
     0
176
     1
 73
     1
176
     1
 90
        0
176
     1
 40
-0.6
176
     1
 41
-30.0
176
     1
 62
     5
 63
     7
421
 16777215
176
     1
 74
     0
176
     1
 91
        4
176
     1
 64
     7
176
     1
 65
   257
176
     1
 75
     1
176
     1
175
     1
176
     1
 42
1.0
176
     1
 92
        8
176
     1
 66
     7
176
     1
 43
1.0
176
     1
 76
     1
176
     1
 77
     6
176
     1
 78
     2
176
     1
 67
     7
176
     1
 79
     5
176
     1
170
     0
176
     1
171
     0
176
     1
290
     0
176
     1
 93
        1
176
     1
 44
0.0
176
     1
173
     0
176
     1
  0
VISUALSTYLE
  5
36
102
{ACAD_REACTORS
330
2A
102
}
330
2A
100
AcDbVisualStyle
  2
Brighten
 70
    12
177
     2
291
     1
 71
     2
176
     1
 72
     2
176
     1
 73
     0
176
     1
 90
        0
176
     1
 40
-0.6
176
     1
 41
-30.0
176
     1
 62
     5
 63
     7
421
 16777215
176
     1
 74
     1
176
     1
 91
        4
176
     1
 64
     7
176
     1
 65
   257
176
     1
 75
     1
176
     1
175
     1
176
     1
 42
1.0
176
     1
 92
        8
176
     1
 66
     7
176
     1
 43
1.0
176
     1
 76
     1
176
     1
 77
     6
176
     1
 78
     2
176
     1
 67
     7
176
     1
 79
     5
176
     1
170
     0
176
     1
171
     0
176
     1
290
     0
176
     1
 93
        1
176
     1
 44
50.0
176
     1
173
     0
176
     1
  0
VISUALSTYLE
  5
3A
102
{ACAD_REACTORS
330
2A
102
}
330
2A
100
AcDbVisualStyle
  2
ColorChange
 70
    16
177
     2
291
     1
 71
     2
176
     1
 72
     2
176
     1
 73
     3
176
     1
 90
        0
176
     1
 40
-0.6
176
     1
 41
-30.0
176
     1
 62
     5
 63
     8
421
  8421504
176
     1
 74
     1
176
     1
 91
        4
176
     1
 64
     7
176
     1
 65
   257
176
     1
 75
     1
176
     1
175
     1
176
     1
 42
1.0
176
     1
 92
        8
176
     1
 66
     8
424
  8421504
176
     1
 43
1.0
176
     1
 76
     1
176
     1
 77
     6
176
     1
 78
     2
176
     1
 67
     7
176
     1
 79
     5
176
     1
170
     0
176
     1
171
     0
176
     1
290
     0
176
     1
 93
        1
176
     1
 44
0.0
176
     1
173
     0
176
     1
  0
VISUALSTYLE
  5
34
102
{ACAD_REACTORS
330
2A
102
}
330
2A
100
AcDbVisualStyle
  2
Conceptual
 70
     9
177
     2
291
     0
 71
     3
176
     1
 72
     2
176
     1
 73
     0
176
     1
 90
        0
176
     1
 40
-0.6
176
     1
 41
-30.0
176
     1
 62
     5
 63
     7
421
 16777215
176
     1
 74
     2
176
     1
 91
        2
176
     1
 64
     7
176
     1
 65
   257
176
     1
 75
     1
176
     1
175
     1
176
     1
 42
40.0
176
     1
 92
        8
176
     1
 66
     7
176
     1
 43
1.0
176
     1
 76
     1
176
     1
 77
     6
176
     1
 78
     2
176
     1
 67
     7
176
     1
 79
     3
176
     1
170
     0
176
     1
171
     0
176
     1
290
     0
176
     1
 93
        1
176
     1
 44
0.0
176
     1
173
     0
176
     1
  0
VISUALSTYLE
  5
35
102
{ACAD_REACTORS
330
2A
102
}
330
2A
100
AcDbVisualStyle
  2
Dim
 70
    11
177
     2
291
     1
 71
     2
176
     1
 72
     2
176
     1
 73
     0
176
     1
 90
        0
176
     1
 40
-0.6
176
     1
 41
-30.0
176
     1
 62
     5
 63
     7
421
 16777215
176
     1
 74
     1
176
     1
 91
        4
176
     1
 64
     7
176
     1
 65
   257
176
     1
 75
     1
176
     1
175
     1
176
     1
 42
1.0
176
     1
 92
        8
176
     1
 66
     7
176
     1
 43
1.0
176
     1
 76
     1
176
     1
 77
     6
176
     1
 78
     2
176
     1
 67
     7
176
     1
 79
     5
176
     1
170
     0
176
     1
171
     0
176
     1
290
     0
176
     1
 93
        1
176
     1
 44
-50.0
176
     1
173
     0
176
     1
  0
VISUALSTYLE
  5
39
102
{ACAD_REACTORS
330
2A
102
}
330
2A
100
AcDbVisualStyle
  2
Facepattern
 70
    15
177
     2
291
     1
 71
     2
176
     1
 72
     2
176
     1
 73
     0
176
     1
 90
        0
176
     1
 40
-0.6
176
     1
 41
-30.0
176
     1
 62
     5
 63
     7
421
 16777215
176
     1
 74
     1
176
     1
 91
        4
176
     1
 64
     7
176
     1
 65
   257
176
     1
 75
     1
176
     1
175
     1
176
     1
 42
1.0
176
     1
 92
        8
176
     1
 66
     7
176
     1
 43
1.0
176
     1
 76
     1
176
     1
 77
     6
176
     1
 78
     2
176
     1
 67
     7
176
     1
 79
     5
176
     1
170
     0
176
     1
171
     0
176
     1
290
     0
176
     1
 93
        1
176
     1
 44
0.0
176
     1
173
     0
176
     1
  0
VISUALSTYLE
  5
2B
102
{ACAD_REACTORS
330
2A
102
}
330
2A
100
AcDbVisualStyle
  2
Flat
 70
     0
177
     2
291
     1
 71
     2
176
     1
 72
     1
176
     1
 73
     1
176
     1
 90
        2
176
     1
 40
-0.6
176
     1
 41
30.0
176
     1
 62
     5
 63
     7
421
 16777215
176
     1
 74
     0
176
     1
 91
        4
176
     1
 64
     7
176
     1
 65
   257
176
     1
 75
     1
176
     1
175
     1
176
     1
 42
1.0
176
     1
 92
        8
176
     1
 66
     7
176
     1
 43
1.0
176
     1
 76
     1
176
     1
 77
     6
176
     1
 78
     2
176
     1
 67
     7
176
     1
 79
     5
176
     1
170
     0
176
     1
171
     0
176
     1
290
     0
176
     1
 93
       13
176
     1
 44
0.0
176
     1
173
     0
176
     1
  0
VISUALSTYLE
  5
2C
102
{ACAD_REACTORS
330
2A
102
}
330
2A
100
AcDbVisualStyle
  2
FlatWithEdges
 70
     1
177
     2
291
     1
 71
     2
176
     1
 72
     1
176
     1
 73
     1
176
     1
 90
        2
176
     1
 40
-0.6
176
     1
 41
30.0
176
     1
 62
     5
 63
     7
421
 16777215
176
     1
 74
     1
176
     1
 91
        4
176
     1
 64
     7
176
     1
 65
   257
176
     1
 75
     1
176
     1
175
     1
176
     1
 42
1.0
176
     1
 92
        0
176
     1
 66
   257
176
     1
 43
1.0
176
     1
 76
     1
176
     1
 77
     6
176
     1
 78
     2
176
     1
 67
     7
176
     1
 79
     5
176
     1
170
     0
176
     1
171
     0
176
     1
290
     0
176
     1
 93
       13
176
     1
 44
0.0
176
     1
173
     0
176
     1
  0
VISUALSTYLE
  5
2D
102
{ACAD_REACTORS
330
2A
102
}
330
2A
100
AcDbVisualStyle
  2
Gouraud
 70
     2
177
     2
291
     1
 71
     2
176
     1
 72
     2
176
     1
 73
     1
176
     1
 90
        2
176
     1
 40
-0.6
176
     1
 41
30.0
176
     1
 62
     5
 63
     7
421
 16777215
176
     1
 74
     0
176
     1
 91
        4
176
     1
 64
     7
176
     1
 65
   257
176
     1
 75
     1
176
     1
175
     1
176
     1
 42
1.0
176
     1
 92
        0
176
     1
 66
     7
176
     1
 43
1.0
176
     1
 76
     1
176
     1
 77
     6
176
     1
 78
     2
176
     1
 67
     7
176
     1
 79
     5
176
     1
170
     0
176
     1
171
     0
176
     1
290
     0
176
     1
 93
       13
176
     1
 44
0.0
176
     1
173
     0
176
     1
  0
VISUALSTYLE
  5
2E
102
{ACAD_REACTORS
330
2A
102
}
330
2A
100
AcDbVisualStyle
  2
GouraudWithEdges
 70
     3
177
     2
291
     1
 71
     2
176
     1
 72
     2
176
     1
 73
     1
176
     1
 90
        2
176
     1
 40
-0.6
176
     1
 41
30.0
176
     1
 62
     5
 63
     7
421
 16777215
176
     1
 74
     1
176
     1
 91
        4
176
     1
 64
     7
176
     1
 65
   257
176
     1
 75
     1
176
     1
175
     1
176
     1
 42
1.0
176
     1
 92
        0
176
     1
 66
   257
176
     1
 43
1.0
176
     1
 76
     1
176
     1
 77
     6
176
     1
 78
     2
176
     1
 67
     7
176
     1
 79
     5
176
     1
170
     0
176
     1
171
     0
176
     1
290
     0
176
     1
 93
       13
176
     1
 44
0.0
176
     1
173
     0
176
     1
  0
VISUALSTYLE
  5
38
102
{ACAD_REACTORS
330
2A
102
}
330
2A
100
AcDbVisualStyle
  2
Linepattern
 70
    14
177
     2
291
     1
 71
     2
176
     1
 72
     2
176
     1
 73
     0
176
     1
 90
        0
176
     1
 40
-0.6
176
     1
 41
-30.0
176
     1
 62
     5
 63
     7
421
 16777215
176
     1
 74
     1
176
     1
 91
        4
176
     1
 64
     7
176
     1
 65
   257
176
     1
 75
     7
176
     1
175
     7
176
     1
 42
1.0
176
     1
 92
        8
176
     1
 66
     7
176
     1
 43
1.0
176
     1
 76
     1
176
     1
 77
     6
176
     1
 78
     2
176
     1
 67
     7
176
     1
 79
     5
176
     1
170
     0
176
     1
171
     0
176
     1
290
     0
176
     1
 93
        1
176
     1
 44
0.0
176
     1
173
     0
176
     1
  0
VISUALSTYLE
  5
33
102
{ACAD_REACTORS
330
2A
102
}
330
2A
100
AcDbVisualStyle
  2
Realistic
 70
     8
177
     2
291
     0
 71
     2
176
     1
 72
     2
176
     1
 73
     0
176
     1
 90
        0
176
     1
 40
-0.6
176
     1
 41
-30.0
176
     1
 62
     5
 63
     7
421
 16777215
176
     1
 74
     1
176
     1
 91
        0
176
     1
 64
     7
176
     1
 65
   257
176
     1
 75
     1
176
     1
175
     1
176
     1
 42
1.0
176
     1
 92
        8
176
     1
 66
     8
424
  7895160
176
     1
 43
1.0
176
     1
 76
     1
176
     1
 77
     6
176
     1
 78
     2
176
     1
 67
     7
176
     1
 79
     5
176
     1
170
     0
176
     1
171
     0
176
     1
290
     0
176
     1
 93
       13
176
     1
 44
0.0
176
     1
173
     0
176
     1
  0
VISUALSTYLE
  5
37
102
{ACAD_REACTORS
330
2A
102
}
330
2A
100
AcDbVisualStyle
  2
Thicken
 70
    13
177
     2
291
     1
 71
     2
176
     1
 72
     2
176
     1
 73
     0
176
     1
 90
        0
176
     1
 40
-0.6
176
     1
 41
-30.0
176
     1
 62
     5
 63
     7
421
 16777215
176
     1
 74
     1
176
     1
 91
        4
176
     1
 64
     7
176
     1
 65
   257
176
     1
 75
     1
176
     1
175
     1
176
     1
 42
1.0
176
     1
 92
       12
176
     1
 66
     7
176
     1
 43
1.0
176
     1
 76
     1
176
     1
 77
     6
176
     1
 78
     2
176
     1
 67
     7
176
     1
 79
     5
176
     1
170
     0
176
     1
171
     0
176
     1
290
     0
176
     1
 93
        1
176
     1
 44
0.0
176
     1
173
     0
176
     1
  0
ENDSEC
  0
EOF
