  0
SECTION
  2
HEADER
  9
$ACADVER
  1
AC1024
  9
$ACADMAINTVER
 70
     6
  9
$DWGCODEPAGE
  3
UNDEFINED
  9
$INSBASE
 10
0.0
 20
0.0
 30
0.0
  9
$EXTMIN
 10
1.000000000000000E+20
 20
1.000000000000000E+20
 30
1.000000000000000E+20
  9
$EXTMAX
 10
-1.000000000000000E+20
 20
-1.000000000000000E+20
 30
-1.000000000000000E+20
  9
$LIMMIN
 10
0.0
 20
0.0
  9
$LIMMAX
 10
12.0
 20
9.0
  9
$ORTHOMODE
 70
     0
  9
$REGENMODE
 70
     1
  9
$FILLMODE
 70
     1
  9
$QTEXTMODE
 70
     0
  9
$MIRRTEXT
 70
     1
  9
$LTSCALE
 40
1.0
  9
$ATTMODE
 70
     1
  9
$TEXTSIZE
 40
0.2
  9
$TRACEWID
 40
0.05
  9
$TEXTSTYLE
  7
Standard
  9
$CLAYER
  8
0
  9
$CELTYPE
  6
ByLayer
  9
$CECOLOR
 62
   256
  9
$CELTSCALE
 40
1.0
  9
$DISPSILH
 70
     0
  9
$DIMSCALE
 40
1.0
  9
$DIMASZ
 40
0.18
  9
$DIMEXO
 40
0.0625
  9
$DIMDLI
 40
0.38
  9
$DIMRND
 40
0.0
  9
$DIMDLE
 40
0.0
  9
$DIMEXE
 40
0.18
  9
$DIMTP
 40
0.0
  9
$DIMTM
 40
0.0
  9
$DIMTXT
 40
0.18
  9
$DIMCEN
 40
0.09
  9
$DIMTSZ
 40
0.0
  9
$DIMTOL
 70
     0
  9
$DIMLIM
 70
     0
  9
$DIMTIH
 70
     1
  9
$DIMTOH
 70
     1
  9
$DIMSE1
 70
     0
  9
$DIMSE2
 70
     0
  9
$DIMTAD
 70
     0
  9
$DIMZIN
 70
     0
  9
$DIMBLK
  1

  9
$DIMASO
 70
     1
  9
$DIMSHO
 70
     1
  9
$DIMPOST
  1

  9
$DIMAPOST
  1

  9
$DIMALT
 70
     0
  9
$DIMALTD
 70
     2
  9
$DIMALTF
 40
25.4
  9
$DIMLFAC
 40
1.0
  9
$DIMTOFL
 70
     0
  9
$DIMTVP
 40
0.0
  9
$DIMTIX
 70
     0
  9
$DIMSOXD
 70
     0
  9
$DIMSAH
 70
     0
  9
$DIMBLK1
  1

  9
$DIMBLK2
  1

  9
$DIMSTYLE
  2
Standard
  9
$DIMCLRD
 70
     0
  9
$DIMCLRE
 70
     0
  9
$DIMCLRT
 70
     0
  9
$DIMTFAC
 40
1.0
  9
$DIMGAP
 40
0.09
  9
$DIMJUST
 70
     0
  9
$DIMSD1
 70
     0
  9
$DIMSD2
 70
     0
  9
$DIMTOLJ
 70
     1
  9
$DIMTZIN
 70
     0
  9
$DIMALTZ
 70
     0
  9
$DIMALTTZ
 70
     0
  9
$DIMUPT
 70
     0
  9
$DIMDEC
 70
     4
  9
$DIMTDEC
 70
     4
  9
$DIMALTU
 70
     2
  9
$DIMALTTD
 70
     2
  9
$DIMTXSTY
  7
Standard
  9
$DIMAUNIT
 70
     0
  9
$DIMADEC
 70
     0
  9
$DIMALTRND
 40
0.0
  9
$DIMAZIN
 70
     0
  9
$DIMDSEP
 70
    46
  9
$DIMATFIT
 70
     3
  9
$DIMFRAC
 70
     0
  9
$DIMLDRBLK
  1

  9
$DIMLUNIT
 70
     2
  9
$DIMLWD
 70
    -2
  9
$DIMLWE
 70
    -2
  9
$DIMTMOVE
 70
     0
  9
$DIMFXL
 40
1.0
  9
$DIMFXLON
 70
     0
  9
$DIMJOGANG
 40
0.7853981633974483
  9
$DIMTFILL
 70
     0
  9
$DIMTFILLCLR
 70
     0
  9
$DIMARCSYM
 70
     0
  9
$DIMLTYPE
  6

  9
$DIMLTEX1
  6

  9
$DIMLTEX2
  6

  9
$DIMTXTDIRECTION
 70
     0
  9
$LUNITS
 70
     2
  9
$LUPREC
 70
     4
  9
$SKETCHINC
 40
0.1
  9
$FILLETRAD
 40
0.5
  9
$AUNITS
 70
     0
  9
$AUPREC
 70
     0
  9
$MENU
  1
.
  9
$ELEVATION
 40
0.0
  9
$PELEVATION
 40
0.0
  9
$THICKNESS
 40
0.0
  9
$LIMCHECK
 70
     0
  9
$CHAMFERA
 40
0.5
  9
$CHAMFERB
 40
0.5
  9
$CHAMFERC
 40
1.0
  9
$CHAMFERD
 40
0.0
  9
$SKPOLY
 70
     0
  9
$TDCREATE
 40
2457917.612488414
  9
$TDUCREATE
 40
2457917.237488426
  9
$TDUPDATE
 40
2457917.612488414
  9
$TDUUPDATE
 40
2457917.237488426
  9
$TDINDWG
 40
0.0000000116
  9
$TDUSRTIMER
 40
0.0000000116
  9
$USRTIMER
 70
     1
  9
$ANGBASE
 50
0.0
  9
$ANGDIR
 70
     0
  9
$PDMODE
 70
     0
  9
$PDSIZE
 40
0.0
  9
$PLINEWID
 40
0.0
  9
$SPLFRAME
 70
     0
  9
$SPLINETYPE
 70
     6
  9
$SPLINESEGS
 70
     8
  9
$HANDSEED
  5
EC
  9
$SURFTAB1
 70
     6
  9
$SURFTAB2
 70
     6
  9
$SURFTYPE
 70
     6
  9
$SURFU
 70
     6
  9
$SURFV
 70
     6
  9
$UCSBASE
  2

  9
$UCSNAME
  2

  9
$UCSORG
 10
0.0
 20
0.0
 30
0.0
  9
$UCSXDIR
 10
1.0
 20
0.0
 30
0.0
  9
$UCSYDIR
 10
0.0
 20
1.0
 30
0.0
  9
$UCSORTHOREF
  2

  9
$UCSORTHOVIEW
 70
     0
  9
$UCSORGTOP
 10
0.0
 20
0.0
 30
0.0
  9
$UCSORGBOTTOM
 10
0.0
 20
0.0
 30
0.0
  9
$UCSORGLEFT
 10
0.0
 20
0.0
 30
0.0
  9
$UCSORGRIGHT
 10
0.0
 20
0.0
 30
0.0
  9
$UCSORGFRONT
 10
0.0
 20
0.0
 30
0.0
  9
$UCSORGBACK
 10
0.0
 20
0.0
 30
0.0
  9
$PUCSBASE
  2

  9
$PUCSNAME
  2

  9
$PUCSORG
 10
0.0
 20
0.0
 30
0.0
  9
$PUCSXDIR
 10
1.0
 20
0.0
 30
0.0
  9
$PUCSYDIR
 10
0.0
 20
1.0
 30
0.0
  9
$PUCSORTHOREF
  2

  9
$PUCSORTHOVIEW
 70
     0
  9
$PUCSORGTOP
 10
0.0
 20
0.0
 30
0.0
  9
$PUCSORGBOTTOM
 10
0.0
 20
0.0
 30
0.0
  9
$PUCSORGLEFT
 10
0.0
 20
0.0
 30
0.0
  9
$PUCSORGRIGHT
 10
0.0
 20
0.0
 30
0.0
  9
$PUCSORGFRONT
 10
0.0
 20
0.0
 30
0.0
  9
$PUCSORGBACK
 10
0.0
 20
0.0
 30
0.0
  9
$USERI1
 70
     0
  9
$USERI2
 70
     0
  9
$USERI3
 70
     0
  9
$USERI4
 70
     0
  9
$USERI5
 70
     0
  9
$USERR1
 40
0.0
  9
$USERR2
 40
0.0
  9
$USERR3
 40
0.0
  9
$USERR4
 40
0.0
  9
$USERR5
 40
0.0
  9
$WORLDVIEW
 70
     1
  9
$SHADEDGE
 70
     3
  9
$SHADEDIF
 70
    70
  9
$TILEMODE
 70
     1
  9
$MAXACTVP
 70
    64
  9
$PINSBASE
 10
0.0
 20
0.0
 30
0.0
  9
$PLIMCHECK
 70
     0
  9
$PEXTMIN
 10
1.000000000000000E+20
 20
1.000000000000000E+20
 30
1.000000000000000E+20
  9
$PEXTMAX
 10
-1.000000000000000E+20
 20
-1.000000000000000E+20
 30
-1.000000000000000E+20
  9
$PLIMMIN
 10
0.0
 20
0.0
  9
$PLIMMAX
 10
12.0
 20
9.0
  9
$UNITMODE
 70
     0
  9
$VISRETAIN
 70
     1
  9
$PLINEGEN
 70
     0
  9
$PSLTSCALE
 70
     1
  9
$TREEDEPTH
 70
  3020
  9
$CMLSTYLE
  2
Standard
  9
$CMLJUST
 70
     0
  9
$CMLSCALE
 40
1.0
  9
$PROXYGRAPHICS
 70
     1
  9
$MEASUREMENT
 70
     0
  9
$CELWEIGHT
370
    -1
  9
$ENDCAPS
280
     0
  9
$JOINSTYLE
280
     0
  9
$LWDISPLAY
290
     1
  9
$INSUNITS
 70
     1
  9
$HYPERLINKBASE
  1

  9
$STYLESHEET
  1

  9
$XEDIT
290
     1
  9
$CEPSNTYPE
380
     0
  9
$PSTYLEMODE
290
     1
  9
$FINGERPRINTGUID
  2
{53982508-E747-BD11-2907-F787BCE617B6}
  9
$VERSIONGUID
  2
{FAEB1C32-E019-11D5-929B-00C0DF256EC4}
  9
$EXTNAMES
290
     1
  9
$PSVPSCALE
 40
0.0
  9
$OLESTARTUP
290
     0
  9
$SORTENTS
280
   127
  9
$INDEXCTL
280
     0
  9
$HIDETEXT
280
     1
  9
$XCLIPFRAME
280
     2
  9
$HALOGAP
280
     0
  9
$OBSCOLOR
 70
   257
  9
$OBSLTYPE
280
     0
  9
$INTERSECTIONDISPLAY
280
     0
  9
$INTERSECTIONCOLOR
 70
   257
  9
$DIMASSOC
280
     2
  9
$PROJECTNAME
  1

  9
$CAMERADISPLAY
290
     0
  9
$LENSLENGTH
 40
50.0
  9
$CAMERAHEIGHT
 40
0.0
  9
$STEPSPERSEC
 40
2.0
  9
$STEPSIZE
 40
6.0
  9
$3DDWFPREC
 40
2.0
  9
$PSOLWIDTH
 40
0.25
  9
$PSOLHEIGHT
 40
4.0
  9
$LOFTANG1
 40
1.570796326794897
  9
$LOFTANG2
 40
1.570796326794897
  9
$LOFTMAG1
 40
0.0
  9
$LOFTMAG2
 40
0.0
  9
$LOFTPARAM
 70
     7
  9
$LOFTNORMALS
280
     1
  9
$LATITUDE
 40
37.795
  9
$LONGITUDE
 40
-122.394
  9
$NORTHDIRECTION
 40
0.0
  9
$TIMEZONE
 70
 -8000
  9
$LIGHTGLYPHDISPLAY
280
     1
  9
$TILEMODELIGHTSYNCH
280
     1
  9
$CMATERIAL
347
3C
  9
$SOLIDHIST
280
     1
  9
$SHOWHIST
280
     1
  9
$DWFFRAME
280
     2
  9
$DGNFRAME
280
     2
  9
$REALWORLDSCALE
290
     1
  9
$INTERFERECOLOR
 62
   256
  9
$CSHADOW
280
     0
  9
$SHADOWPLANELOCATION
 40
0.0
  0
ENDSEC
  0
SECTION
  2
CLASSES
  0
CLASS
  1
ACDBDICTIONARYWDFLT
  2
AcDbDictionaryWithDefault
  3
ObjectDBX Classes
 90
        0
 91
        4
280
     0
281
     0
  0
CLASS
  1
VISUALSTYLE
  2
AcDbVisualStyle
  3
ObjectDBX Classes
 90
     4095
 91
        4
280
     0
281
     0
  0
CLASS
  1
MATERIAL
  2
AcDbMaterial
  3
ObjectDBX Classes
 90
     1153
 91
        4
280
     0
281
     0
  0
CLASS
  1
SUN
  2
AcDbSun
  3
SCENEOE
 90
     1024
 91
        4
280
     0
281
     0
  0
ENDSEC
  0
SECTION
  2
TABLES
  0
TABLE
  2
VPORT
  5
8
330
0
100
AcDbSymbolTable
 70
     1
  0
VPORT
  5
29
330
8
100
AcDbSymbolTableRecord
100
AcDbViewportTableRecord
  2
*Active
 70
     0
 10
0.0
 20
0.0
 11
1.0
 21
1.0
 12
0.0
 22
0.0
 13
0.0
 23
0.0
 14
0.5
 24
0.5
 15
0.5
 25
0.5
 16
0.0
 26
0.0
 36
1.0
 17
91.00082462281999
 27
-128.4993055234307
 37
0.0
 40
256.9986110468615
 41
0.7081814508812795
 42
50.0
 43
0.0
 44
0.0
 50
0.0
 51
0.0
 71
     0
 72
   100
 73
     1
 74
     3
 75
     0
 76
     0
 77
     0
 78
     0
281
     0
 65
     1
110
0.0
120
0.0
130
0.0
111
1.0
121
0.0
131
0.0
112
0.0
122
1.0
132
0.0
 79
     0
146
0.0
 60
     3
 61
     5
292
     1
282
     1
141
0.0
142
0.0
 63
   250
361
3F
  0
ENDTAB
  0
TABLE
  2
LTYPE
  5
5
330
0
100
AcDbSymbolTable
 70
     1
  0
LTYPE
  5
14
330
5
100
AcDbSymbolTableRecord
100
AcDbLinetypeTableRecord
  2
ByBlock
 70
     0
  3

 72
    65
 73
     0
 40
0.0
  0
LTYPE
  5
15
330
5
100
AcDbSymbolTableRecord
100
AcDbLinetypeTableRecord
  2
ByLayer
 70
     0
  3

 72
    65
 73
     0
 40
0.0
  0
LTYPE
  5
16
330
5
100
AcDbSymbolTableRecord
100
AcDbLinetypeTableRecord
  2
Continuous
 70
     0
  3
Solid line
 72
    65
 73
     0
 40
0.0
  0
ENDTAB
  0
TABLE
  2
LAYER
  5
2
330
0
100
AcDbSymbolTable
 70
     2
  0
LAYER
  5
10
330
2
100
AcDbSymbolTableRecord
100
AcDbLayerTableRecord
  2
0
 70
     0
 62
     7
  6
Continuous
370
    -3
390
F
347
3E
  0
LAYER
  5
40
330
2
100
AcDbSymbolTableRecord
100
AcDbLayerTableRecord
  2
_U+30EC_U+30A4_U+30E4_U+30FC 1
 70
     0
 62
     7
  6
Continuous
370
    -3
390
F
347
3E
  0
ENDTAB
  0
TABLE
  2
STYLE
  5
3
330
0
100
AcDbSymbolTable
 70
     1
  0
STYLE
  5
11
330
3
100
AcDbSymbolTableRecord
100
AcDbTextStyleTableRecord
  2
Standard
 70
     0
 40
0.0
 41
1.0
 50
0.0
 71
     0
 42
0.2
  3
txt
  4

  0
ENDTAB
  0
TABLE
  2
VIEW
  5
6
330
0
100
AcDbSymbolTable
 70
     0
  0
ENDTAB
  0
TABLE
  2
UCS
  5
7
330
0
100
AcDbSymbolTable
 70
     0
  0
ENDTAB
  0
TABLE
  2
APPID
  5
9
330
0
100
AcDbSymbolTable
 70
     1
  0
APPID
  5
12
330
9
100
AcDbSymbolTableRecord
100
AcDbRegAppTableRecord
  2
ACAD
 70
     0
  0
ENDTAB
  0
TABLE
  2
DIMSTYLE
  5
A
330
0
100
AcDbSymbolTable
 70
     1
100
AcDbDimStyleTable
  0
DIMSTYLE
105
27
330
A
100
AcDbSymbolTableRecord
100
AcDbDimStyleTableRecord
  2
Standard
 70
     0
178
     0
340
11
  0
ENDTAB
  0
TABLE
  2
BLOCK_RECORD
  5
1
330
0
100
AcDbSymbolTable
 70
     7
  0
BLOCK_RECORD
  5
1F
330
1
100
AcDbSymbolTableRecord
100
AcDbBlockTableRecord
  2
*Model_Space
340
22
 70
     0
280
     1
281
     0
  0
BLOCK_RECORD
  5
1B
330
1
100
AcDbSymbolTableRecord
100
AcDbBlockTableRecord
  2
*Paper_Space
340
1E
 70
     0
280
     1
281
     0
  0
BLOCK_RECORD
  5
23
330
1
100
AcDbSymbolTableRecord
100
AcDbBlockTableRecord
  2
*Paper_Space0
340
26
 70
     0
280
     1
281
     0
  0
BLOCK_RECORD
  5
41
330
1
100
AcDbSymbolTableRecord
100
AcDbBlockTableRecord
  2
block 2
340
0
102
{BLKREFS
331
42
102
}
 70
     0
280
     1
281
     0
  0
BLOCK_RECORD
  5
81
330
1
100
AcDbSymbolTableRecord
100
AcDbBlockTableRecord
  2
block 3
340
0
102
{BLKREFS
331
82
102
}
 70
     0
280
     1
281
     0
  0
BLOCK_RECORD
  5
93
330
1
100
AcDbSymbolTableRecord
100
AcDbBlockTableRecord
  2
block 4
340
0
102
{BLKREFS
331
94
102
}
 70
     0
280
     1
281
     0
  0
BLOCK_RECORD
  5
AB
330
1
100
AcDbSymbolTableRecord
100
AcDbBlockTableRecord
  2
block 5
340
0
102
{BLKREFS
331
AC
102
}
 70
     0
280
     1
281
     0
  0
BLOCK_RECORD
  5
C7
330
1
100
AcDbSymbolTableRecord
100
AcDbBlockTableRecord
  2
block 6
340
0
102
{BLKREFS
331
C8
102
}
 70
     0
280
     1
281
     0
  0
BLOCK_RECORD
  5
D8
330
1
100
AcDbSymbolTableRecord
100
AcDbBlockTableRecord
  2
block 7
340
0
102
{BLKREFS
331
D9
102
}
 70
     0
280
     1
281
     0
  0
ENDTAB
  0
ENDSEC
  0
SECTION
  2
BLOCKS
  0
BLOCK
  5
20
330
1F
100
AcDbEntity
  8
0
100
AcDbBlockBegin
  2
*Model_Space
 70
     0
 10
0.0
 20
0.0
 30
0.0
  3
*Model_Space
  1

  0
ENDBLK
  5
21
330
1F
100
AcDbEntity
  8
0
100
AcDbBlockEnd
  0
BLOCK
  5
1C
330
1B
100
AcDbEntity
 67
     1
  8
0
100
AcDbBlockBegin
  2
*Paper_Space
 70
     0
 10
0.0
 20
0.0
 30
0.0
  3
*Paper_Space
  1

  0
ENDBLK
  5
1D
330
1B
100
AcDbEntity
 67
     1
  8
0
100
AcDbBlockEnd
  0
BLOCK
  5
24
330
23
100
AcDbEntity
  8
0
100
AcDbBlockBegin
  2
*Paper_Space0
 70
     0
 10
0.0
 20
0.0
 30
0.0
  3
*Paper_Space0
  1

  0
ENDBLK
  5
25
330
23
100
AcDbEntity
  8
0
100
AcDbBlockEnd
  0
BLOCK
  5
43
330
41
100
AcDbEntity
  8
0
100
AcDbBlockBegin
  2
block 2
 70
     0
 10
0.0
 20
0.0
 30
0.0
  3
block 2
  1

  0
SPLINE
  5
45
330
41
100
AcDbEntity
  8
_U+30EC_U+30A4_U+30E4_U+30FC 1
370
     0
100
AcDbSpline
210
0.0
220
0.0
230
1.0
 70
    11
 71
     3
 72
    41
 73
    37
 74
     0
 42
0.0000000001
 43
0.0000000001
 12
1.0
 22
0.0
 32
0.0
 13
1.0
 23
0.0
 33
0.0
 40
0.0
 40
0.0
 40
0.0
 40
0.0
 40
1.0
 40
1.0
 40
1.0
 40
2.0
 40
2.0
 40
2.0
 40
3.0
 40
3.0
 40
3.0
 40
4.0
 40
4.0
 40
4.0
 40
5.0
 40
5.0
 40
5.0
 40
6.0
 40
6.0
 40
6.0
 40
7.0
 40
7.0
 40
7.0
 40
8.0
 40
8.0
 40
8.0
 40
9.0
 40
9.0
 40
9.0
 40
10.0
 40
10.0
 40
10.0
 40
11.0
 40
11.0
 40
11.0
 40
12.0
 40
12.0
 40
12.0
 40
12.0
 10
73.65269562096319
 20
-142.6641446865561
 30
0.0
 10
73.65269562096319
 20
-142.6641446865561
 30
0.0
 10
88.65333551604276
 20
-142.6641446865561
 30
0.0
 10
88.65333551604276
 20
-142.6641446865561
 30
0.0
 10
88.65333551604276
 20
-142.6641446865561
 30
0.0
 10
88.65333551604276
 20
-139.6641577428618
 30
0.0
 10
88.65333551604276
 20
-139.6641577428618
 30
0.0
 10
88.65333551604276
 20
-139.6641577428618
 30
0.0
 10
87.6528577637893
 20
-139.6641577428618
 30
0.0
 10
87.6528577637893
 20
-139.6641577428618
 30
0.0
 10
87.6528577637893
 20
-139.6641577428618
 30
0.0
 10
87.6528577637893
 20
-141.5637955201645
 30
0.0
 10
87.6528577637893
 20
-141.5637955201645
 30
0.0
 10
87.6528577637893
 20
-141.5637955201645
 30
0.0
 10
75.45309696392002
 20
-141.5637955201645
 30
0.0
 10
75.45309696392002
 20
-141.5637955201645
 30
0.0
 10
75.06655836267032
 20
-141.5637955201645
 30
0.0
 10
74.75304475955761
 20
-141.250281909132
 30
0.0
 10
74.75304475955761
 20
-140.8637432981176
 30
0.0
 10
74.75304475955761
 20
-140.8637432981176
 30
0.0
 10
74.75304475955761
 20
-118.8642388591729
 30
0.0
 10
74.75304475955761
 20
-118.8642388591729
 30
0.0
 10
74.75304475955761
 20
-118.4777002481584
 30
0.0
 10
75.06655836267032
 20
-118.1641866371256
 30
0.0
 10
75.45309696392002
 20
-118.1641866371256
 30
0.0
 10
75.45309696392002
 20
-118.1641866371256
 30
0.0
 10
103.6532698555848
 20
-118.1641866371256
 30
0.0
 10
103.6532698555848
 20
-118.1641866371256
 30
0.0
 10
103.6532698555848
 20
-118.1641866371256
 30
0.0
 10
103.6532698555848
 20
-117.0641549707339
 30
0.0
 10
103.6532698555848
 20
-117.0641549707339
 30
0.0
 10
103.6532698555848
 20
-117.0641549707339
 30
0.0
 10
73.65269562096319
 20
-117.0641549707339
 30
0.0
 10
73.65269562096319
 20
-117.0641549707339
 30
0.0
 10
73.65269562096319
 20
-117.0641549707339
 30
0.0
 10
73.65269562096319
 20
-142.6641446865561
 30
0.0
 10
73.65269562096319
 20
-142.6641446865561
 30
0.0
  0
HATCH
  5
46
330
41
100
AcDbEntity
  8
_U+30EC_U+30A4_U+30E4_U+30FC 1
 62
   253
420
 11711154
100
AcDbHatch
 10
0.0
 20
0.0
 30
0.0
210
0.0
220
0.0
230
1.0
  2
SOLID
 70
     1
 71
     0
 91
        1
 92
        1
 93
        1
 72
     4
 94
        3
 73
     0
 74
     1
 95
       41
 96
       37
 40
0.0
 40
0.0
 40
0.0
 40
0.0
 40
1.0
 40
1.0
 40
1.0
 40
2.0
 40
2.0
 40
2.0
 40
3.0
 40
3.0
 40
3.0
 40
4.0
 40
4.0
 40
4.0
 40
5.0
 40
5.0
 40
5.0
 40
6.0
 40
6.0
 40
6.0
 40
7.0
 40
7.0
 40
7.0
 40
8.0
 40
8.0
 40
8.0
 40
9.0
 40
9.0
 40
9.0
 40
10.0
 40
10.0
 40
10.0
 40
11.0
 40
11.0
 40
11.0
 40
12.0
 40
12.0
 40
12.0
 40
12.0
 10
73.65269562096319
 20
-142.6641446865561
 10
73.65269562096319
 20
-142.6641446865561
 10
88.65333551604276
 20
-142.6641446865561
 10
88.65333551604276
 20
-142.6641446865561
 10
88.65333551604276
 20
-142.6641446865561
 10
88.65333551604276
 20
-139.6641577428618
 10
88.65333551604276
 20
-139.6641577428618
 10
88.65333551604276
 20
-139.6641577428618
 10
87.6528577637893
 20
-139.6641577428618
 10
87.6528577637893
 20
-139.6641577428618
 10
87.6528577637893
 20
-139.6641577428618
 10
87.6528577637893
 20
-141.5637955201645
 10
87.6528577637893
 20
-141.5637955201645
 10
87.6528577637893
 20
-141.5637955201645
 10
75.45309696392002
 20
-141.5637955201645
 10
75.45309696392002
 20
-141.5637955201645
 10
75.06655836267032
 20
-141.5637955201645
 10
74.75304475955761
 20
-141.250281909132
 10
74.75304475955761
 20
-140.8637432981176
 10
74.75304475955761
 20
-140.8637432981176
 10
74.75304475955761
 20
-118.8642388591729
 10
74.75304475955761
 20
-118.8642388591729
 10
74.75304475955761
 20
-118.4777002481584
 10
75.06655836267032
 20
-118.1641866371256
 10
75.45309696392002
 20
-118.1641866371256
 10
75.45309696392002
 20
-118.1641866371256
 10
103.6532698555848
 20
-118.1641866371256
 10
103.6532698555848
 20
-118.1641866371256
 10
103.6532698555848
 20
-118.1641866371256
 10
103.6532698555848
 20
-117.0641549707339
 10
103.6532698555848
 20
-117.0641549707339
 10
103.6532698555848
 20
-117.0641549707339
 10
73.65269562096319
 20
-117.0641549707339
 10
73.65269562096319
 20
-117.0641549707339
 10
73.65269562096319
 20
-117.0641549707339
 10
73.65269562096319
 20
-142.6641446865561
 10
73.65269562096319
 20
-142.6641446865561
 97
        0
 97
        0
 75
     2
 76
     1
 98
        0
  0
POLYLINE
  5
47
330
41
100
AcDbEntity
  8
_U+30EC_U+30A4_U+30E4_U+30FC 1
 62
   179
420
  2234388
370
    25
100
AcDb2dPolyline
 66
     1
 10
0.0
 20
0.0
 30
0.0
  0
VERTEX
  5
48
330
47
100
AcDbEntity
  8
_U+30EC_U+30A4_U+30E4_U+30FC 1
 62
   179
420
  2234388
370
    25
100
AcDbVertex
100
AcDb2dVertex
 10
73.65269562096319
 20
-117.0641549707339
 30
0.0
  0
VERTEX
  5
49
330
47
100
AcDbEntity
  8
_U+30EC_U+30A4_U+30E4_U+30FC 1
 62
   179
420
  2234388
370
    25
100
AcDbVertex
100
AcDb2dVertex
 10
73.65269562096319
 20
-142.6641446865561
 30
0.0
  0
SEQEND
  5
4A
330
47
100
AcDbEntity
  8
_U+30EC_U+30A4_U+30E4_U+30FC 1
 62
   179
420
  2234388
370
    25
  0
POLYLINE
  5
4B
330
41
100
AcDbEntity
  8
_U+30EC_U+30A4_U+30E4_U+30FC 1
 62
   179
420
  2234388
370
    25
100
AcDb2dPolyline
 66
     1
 10
0.0
 20
0.0
 30
0.0
  0
VERTEX
  5
4C
330
4B
100
AcDbEntity
  8
_U+30EC_U+30A4_U+30E4_U+30FC 1
 62
   179
420
  2234388
370
    25
100
AcDbVertex
100
AcDb2dVertex
 10
103.652917077816
 20
-117.0641549707339
 30
0.0
  0
VERTEX
  5
4D
330
4B
100
AcDbEntity
  8
_U+30EC_U+30A4_U+30E4_U+30FC 1
 62
   179
420
  2234388
370
    25
100
AcDbVertex
100
AcDb2dVertex
 10
103.652917077816
 20
-118.1641866371256
 30
0.0
  0
SEQEND
  5
4E
330
4B
100
AcDbEntity
  8
_U+30EC_U+30A4_U+30E4_U+30FC 1
 62
   179
420
  2234388
370
    25
  0
POLYLINE
  5
4F
330
41
100
AcDbEntity
  8
_U+30EC_U+30A4_U+30E4_U+30FC 1
 62
   179
420
  2234388
370
    25
100
AcDb2dPolyline
 66
     1
 10
0.0
 20
0.0
 30
0.0
  0
VERTEX
  5
50
330
4F
100
AcDbEntity
  8
_U+30EC_U+30A4_U+30E4_U+30FC 1
 62
   179
420
  2234388
370
    25
100
AcDbVertex
100
AcDb2dVertex
 10
75.45309696392002
 20
-118.1641866371256
 30
0.0
  0
VERTEX
  5
51
330
4F
100
AcDbEntity
  8
_U+30EC_U+30A4_U+30E4_U+30FC 1
 62
   179
420
  2234388
370
    25
100
AcDbVertex
100
AcDb2dVertex
 10
103.652917077816
 20
-118.1641866371256
 30
0.0
  0
SEQEND
  5
52
330
4F
100
AcDbEntity
  8
_U+30EC_U+30A4_U+30E4_U+30FC 1
 62
   179
420
  2234388
370
    25
  0
POLYLINE
  5
53
330
41
100
AcDbEntity
  8
_U+30EC_U+30A4_U+30E4_U+30FC 1
 62
   179
420
  2234388
370
    25
100
AcDb2dPolyline
 66
     1
 10
0.0
 20
0.0
 30
0.0
  0
VERTEX
  5
54
330
53
100
AcDbEntity
  8
_U+30EC_U+30A4_U+30E4_U+30FC 1
 62
   179
420
  2234388
370
    25
100
AcDbVertex
100
AcDb2dVertex
 10
88.65298273827399
 20
-139.6641577428618
 30
0.0
  0
VERTEX
  5
55
330
53
100
AcDbEntity
  8
_U+30EC_U+30A4_U+30E4_U+30FC 1
 62
   179
420
  2234388
370
    25
100
AcDbVertex
100
AcDb2dVertex
 10
88.65298273827399
 20
-142.6641446865561
 30
0.0
  0
SEQEND
  5
56
330
53
100
AcDbEntity
  8
_U+30EC_U+30A4_U+30E4_U+30FC 1
 62
   179
420
  2234388
370
    25
  0
POLYLINE
  5
57
330
41
100
AcDbEntity
  8
_U+30EC_U+30A4_U+30E4_U+30FC 1
 62
   179
420
  2234388
370
    25
100
AcDb2dPolyline
 66
     1
 10
0.0
 20
0.0
 30
0.0
  0
VERTEX
  5
58
330
57
100
AcDbEntity
  8
_U+30EC_U+30A4_U+30E4_U+30FC 1
 62
   179
420
  2234388
370
    25
100
AcDbVertex
100
AcDb2dVertex
 10
87.6528577637893
 20
-139.6641577428618
 30
0.0
  0
VERTEX
  5
59
330
57
100
AcDbEntity
  8
_U+30EC_U+30A4_U+30E4_U+30FC 1
 62
   179
420
  2234388
370
    25
100
AcDbVertex
100
AcDb2dVertex
 10
87.6528577637893
 20
-141.5637955201645
 30
0.0
  0
SEQEND
  5
5A
330
57
100
AcDbEntity
  8
_U+30EC_U+30A4_U+30E4_U+30FC 1
 62
   179
420
  2234388
370
    25
  0
POLYLINE
  5
5B
330
41
100
AcDbEntity
  8
_U+30EC_U+30A4_U+30E4_U+30FC 1
 62
   179
420
  2234388
370
    25
100
AcDb2dPolyline
 66
     1
 10
0.0
 20
0.0
 30
0.0
  0
VERTEX
  5
5C
330
5B
100
AcDbEntity
  8
_U+30EC_U+30A4_U+30E4_U+30FC 1
 62
   179
420
  2234388
370
    25
100
AcDbVertex
100
AcDb2dVertex
 10
74.75304475955761
 20
-118.8642388591729
 30
0.0
  0
VERTEX
  5
5D
330
5B
100
AcDbEntity
  8
_U+30EC_U+30A4_U+30E4_U+30FC 1
 62
   179
420
  2234388
370
    25
100
AcDbVertex
100
AcDb2dVertex
 10
74.75304475955761
 20
-140.8637432981176
 30
0.0
  0
SEQEND
  5
5E
330
5B
100
AcDbEntity
  8
_U+30EC_U+30A4_U+30E4_U+30FC 1
 62
   179
420
  2234388
370
    25
  0
POLYLINE
  5
5F
330
41
100
AcDbEntity
  8
_U+30EC_U+30A4_U+30E4_U+30FC 1
 62
   179
420
  2234388
370
    25
100
AcDb2dPolyline
 66
     1
 10
0.0
 20
0.0
 30
0.0
  0
VERTEX
  5
60
330
5F
100
AcDbEntity
  8
_U+30EC_U+30A4_U+30E4_U+30FC 1
 62
   179
420
  2234388
370
    25
100
AcDbVertex
100
AcDb2dVertex
 10
87.6528577637893
 20
-139.6641577428618
 30
0.0
  0
VERTEX
  5
61
330
5F
100
AcDbEntity
  8
_U+30EC_U+30A4_U+30E4_U+30FC 1
 62
   179
420
  2234388
370
    25
100
AcDbVertex
100
AcDb2dVertex
 10
88.65298273827399
 20
-139.6641577428618
 30
0.0
  0
SEQEND
  5
62
330
5F
100
AcDbEntity
  8
_U+30EC_U+30A4_U+30E4_U+30FC 1
 62
   179
420
  2234388
370
    25
  0
POLYLINE
  5
63
330
41
100
AcDbEntity
  8
_U+30EC_U+30A4_U+30E4_U+30FC 1
 62
   179
420
  2234388
370
    25
100
AcDb2dPolyline
 66
     1
 10
0.0
 20
0.0
 30
0.0
  0
VERTEX
  5
64
330
63
100
AcDbEntity
  8
_U+30EC_U+30A4_U+30E4_U+30FC 1
 62
   179
420
  2234388
370
    25
100
AcDbVertex
100
AcDb2dVertex
 10
73.65269562096319
 20
-142.6641446865561
 30
0.0
  0
VERTEX
  5
65
330
63
100
AcDbEntity
  8
_U+30EC_U+30A4_U+30E4_U+30FC 1
 62
   179
420
  2234388
370
    25
100
AcDbVertex
100
AcDb2dVertex
 10
88.65298273827399
 20
-142.6641446865561
 30
0.0
  0
SEQEND
  5
66
330
63
100
AcDbEntity
  8
_U+30EC_U+30A4_U+30E4_U+30FC 1
 62
   179
420
  2234388
370
    25
  0
POLYLINE
  5
67
330
41
100
AcDbEntity
  8
_U+30EC_U+30A4_U+30E4_U+30FC 1
 62
   179
420
  2234388
370
    25
100
AcDb2dPolyline
 66
     1
 10
0.0
 20
0.0
 30
0.0
  0
VERTEX
  5
68
330
67
100
AcDbEntity
  8
_U+30EC_U+30A4_U+30E4_U+30FC 1
 62
   179
420
  2234388
370
    25
100
AcDbVertex
100
AcDb2dVertex
 10
75.45309696392002
 20
-141.5637955201645
 30
0.0
  0
VERTEX
  5
69
330
67
100
AcDbEntity
  8
_U+30EC_U+30A4_U+30E4_U+30FC 1
 62
   179
420
  2234388
370
    25
100
AcDbVertex
100
AcDb2dVertex
 10
87.6528577637893
 20
-141.5637955201645
 30
0.0
  0
SEQEND
  5
6A
330
67
100
AcDbEntity
  8
_U+30EC_U+30A4_U+30E4_U+30FC 1
 62
   179
420
  2234388
370
    25
  0
POLYLINE
  5
6B
330
41
100
AcDbEntity
  8
_U+30EC_U+30A4_U+30E4_U+30FC 1
 62
   179
420
  2234388
370
    25
100
AcDb2dPolyline
 66
     1
 10
0.0
 20
0.0
 30
0.0
  0
VERTEX
  5
6C
330
6B
100
AcDbEntity
  8
_U+30EC_U+30A4_U+30E4_U+30FC 1
 62
   179
420
  2234388
370
    25
100
AcDbVertex
100
AcDb2dVertex
 10
73.65269562096319
 20
-117.0641549707339
 30
0.0
  0
VERTEX
  5
6D
330
6B
100
AcDbEntity
  8
_U+30EC_U+30A4_U+30E4_U+30FC 1
 62
   179
420
  2234388
370
    25
100
AcDbVertex
100
AcDb2dVertex
 10
103.652917077816
 20
-117.0641549707339
 30
0.0
  0
SEQEND
  5
6E
330
6B
100
AcDbEntity
  8
_U+30EC_U+30A4_U+30E4_U+30FC 1
 62
   179
420
  2234388
370
    25
  0
SPLINE
  5
6F
330
41
100
AcDbEntity
  8
_U+30EC_U+30A4_U+30E4_U+30FC 1
 62
   179
420
  2234388
370
     9
100
AcDbSpline
210
0.0
220
0.0
230
1.0
 70
    11
 71
     3
 72
    17
 73
    13
 74
     0
 42
0.0000000001
 43
0.0000000001
 12
1.0
 22
0.0
 32
0.0
 13
1.0
 23
0.0
 33
0.0
 40
0.0
 40
0.0
 40
0.0
 40
0.0
 40
1.0
 40
1.0
 40
1.0
 40
2.0
 40
2.0
 40
2.0
 40
3.0
 40
3.0
 40
3.0
 40
4.0
 40
4.0
 40
4.0
 40
4.0
 10
107.7529355843269
 20
-117.0641549707339
 30
0.0
 10
107.7529355843269
 20
-117.0086983040813
 30
0.0
 10
107.708168085469
 20
-116.9639308040924
 30
0.0
 10
107.6530289202091
 20
-116.9639308040924
 30
0.0
 10
107.5975749731007
 20
-116.9639308040924
 30
0.0
 10
107.552772195334
 20
-117.0086983040813
 30
0.0
 10
107.552772195334
 20
-117.0641549707339
 30
0.0
 10
107.552772195334
 20
-117.119294137387
 30
0.0
 10
107.5975749731007
 20
-117.1640969151534
 30
0.0
 10
107.6530289202091
 20
-117.1640969151534
 30
0.0
 10
107.708168085469
 20
-117.1640969151534
 30
0.0
 10
107.7529355843269
 20
-117.119294137387
 30
0.0
 10
107.7529355843269
 20
-117.0641549707339
 30
0.0
  0
SPLINE
  5
70
330
41
100
AcDbEntity
  8
_U+30EC_U+30A4_U+30E4_U+30FC 1
 62
   179
420
  2234388
370
     9
100
AcDbSpline
210
0.0
220
0.0
230
1.0
 70
    11
 71
     3
 72
    17
 73
    13
 74
     0
 42
0.0000000001
 43
0.0000000001
 12
1.0
 22
0.0
 32
0.0
 13
1.0
 23
0.0
 33
0.0
 40
0.0
 40
0.0
 40
0.0
 40
0.0
 40
1.0
 40
1.0
 40
1.0
 40
2.0
 40
2.0
 40
2.0
 40
3.0
 40
3.0
 40
3.0
 40
4.0
 40
4.0
 40
4.0
 40
4.0
 10
107.7529355843269
 20
-118.1641866371256
 30
0.0
 10
107.7529355843269
 20
-118.1090827482506
 30
0.0
 10
107.708168085469
 20
-118.0642799704839
 30
0.0
 10
107.6530289202091
 20
-118.0642799704839
 30
0.0
 10
107.5975749731007
 20
-118.0642799704839
 30
0.0
 10
107.552772195334
 20
-118.1090827482506
 30
0.0
 10
107.552772195334
 20
-118.1641866371256
 30
0.0
 10
107.552772195334
 20
-118.2193258037786
 30
0.0
 10
107.5975749731007
 20
-118.2640933037672
 30
0.0
 10
107.6530289202091
 20
-118.2640933037672
 30
0.0
 10
107.708168085469
 20
-118.2640933037672
 30
0.0
 10
107.7529355843269
 20
-118.2193258037786
 30
0.0
 10
107.7529355843269
 20
-118.1641866371256
 30
0.0
  0
SPLINE
  5
71
330
41
100
AcDbEntity
  8
_U+30EC_U+30A4_U+30E4_U+30FC 1
 62
   179
420
  2234388
370
     9
100
AcDbSpline
210
0.0
220
0.0
230
1.0
 70
    11
 71
     3
 72
    17
 73
    13
 74
     0
 42
0.0000000001
 43
0.0000000001
 12
1.0
 22
0.0
 32
0.0
 13
1.0
 23
0.0
 33
0.0
 40
0.0
 40
0.0
 40
0.0
 40
0.0
 40
1.0
 40
1.0
 40
1.0
 40
2.0
 40
2.0
 40
2.0
 40
3.0
 40
3.0
 40
3.0
 40
4.0
 40
4.0
 40
4.0
 40
4.0
 10
107.7529355843269
 20
-139.6641577428618
 30
0.0
 10
107.7529355843269
 20
-139.6090538539868
 30
0.0
 10
107.708168085469
 20
-139.5642510762201
 30
0.0
 10
107.6530289202091
 20
-139.5642510762201
 30
0.0
 10
107.5975749731007
 20
-139.5642510762201
 30
0.0
 10
107.552772195334
 20
-139.6090538539868
 30
0.0
 10
107.552772195334
 20
-139.6641577428618
 30
0.0
 10
107.552772195334
 20
-139.7192969095148
 30
0.0
 10
107.5975749731007
 20
-139.7640644095034
 30
0.0
 10
107.6530289202091
 20
-139.7640644095034
 30
0.0
 10
107.708168085469
 20
-139.7640644095034
 30
0.0
 10
107.7529355843269
 20
-139.7192969095148
 30
0.0
 10
107.7529355843269
 20
-139.6641577428618
 30
0.0
  0
SPLINE
  5
72
330
41
100
AcDbEntity
  8
_U+30EC_U+30A4_U+30E4_U+30FC 1
 62
   179
420
  2234388
370
     9
100
AcDbSpline
210
0.0
220
0.0
230
1.0
 70
    11
 71
     3
 72
    17
 73
    13
 74
     0
 42
0.0000000001
 43
0.0000000001
 12
1.0
 22
0.0
 32
0.0
 13
1.0
 23
0.0
 33
0.0
 40
0.0
 40
0.0
 40
0.0
 40
0.0
 40
1.0
 40
1.0
 40
1.0
 40
2.0
 40
2.0
 40
2.0
 40
3.0
 40
3.0
 40
3.0
 40
4.0
 40
4.0
 40
4.0
 40
4.0
 10
107.7529355843269
 20
-142.6641446865561
 30
0.0
 10
107.7529355843269
 20
-142.6090407976812
 30
0.0
 10
107.708168085469
 20
-142.5642380199145
 30
0.0
 10
107.6530289202091
 20
-142.5642380199145
 30
0.0
 10
107.5975749731007
 20
-142.5642380199145
 30
0.0
 10
107.552772195334
 20
-142.6090407976812
 30
0.0
 10
107.552772195334
 20
-142.6641446865561
 30
0.0
 10
107.552772195334
 20
-142.7192838532092
 30
0.0
 10
107.5975749731007
 20
-142.7640513531977
 30
0.0
 10
107.6530289202091
 20
-142.7640513531977
 30
0.0
 10
107.708168085469
 20
-142.7640513531977
 30
0.0
 10
107.7529355843269
 20
-142.7192838532092
 30
0.0
 10
107.7529355843269
 20
-142.6641446865561
 30
0.0
  0
SPLINE
  5
73
330
41
100
AcDbEntity
  8
_U+30EC_U+30A4_U+30E4_U+30FC 1
 62
   179
420
  2234388
370
     9
100
AcDbSpline
210
0.0
220
0.0
230
1.0
 70
    11
 71
     3
 72
    17
 73
    13
 74
     0
 42
0.0000000001
 43
0.0000000001
 12
1.0
 22
0.0
 32
0.0
 13
1.0
 23
0.0
 33
0.0
 40
0.0
 40
0.0
 40
0.0
 40
0.0
 40
1.0
 40
1.0
 40
1.0
 40
2.0
 40
2.0
 40
2.0
 40
3.0
 40
3.0
 40
3.0
 40
4.0
 40
4.0
 40
4.0
 40
4.0
 10
88.75289164447831
 20
-146.663903852223
 30
0.0
 10
88.75289164447831
 20
-146.6087999633481
 30
0.0
 10
88.70812190353394
 20
-146.5639971855813
 30
0.0
 10
88.65298273827399
 20
-146.5639971855813
 30
0.0
 10
88.59752607302214
 20
-146.5639971855813
 30
0.0
 10
88.55307607415615
 20
-146.6087999633481
 30
0.0
 10
88.55307607415615
 20
-146.663903852223
 30
0.0
 10
88.55307607415615
 20
-146.7190430188761
 30
0.0
 10
88.59752607302214
 20
-146.7638105188646
 30
0.0
 10
88.65298273827399
 20
-146.7638105188646
 30
0.0
 10
88.70812190353394
 20
-146.7638105188646
 30
0.0
 10
88.75289164447831
 20
-146.7190430188761
 30
0.0
 10
88.75289164447831
 20
-146.663903852223
 30
0.0
  0
SPLINE
  5
74
330
41
100
AcDbEntity
  8
_U+30EC_U+30A4_U+30E4_U+30FC 1
 62
   179
420
  2234388
370
     9
100
AcDbSpline
210
0.0
220
0.0
230
1.0
 70
    11
 71
     3
 72
    17
 73
    13
 74
     0
 42
0.0000000001
 43
0.0000000001
 12
1.0
 22
0.0
 32
0.0
 13
1.0
 23
0.0
 33
0.0
 40
0.0
 40
0.0
 40
0.0
 40
0.0
 40
1.0
 40
1.0
 40
1.0
 40
2.0
 40
2.0
 40
2.0
 40
3.0
 40
3.0
 40
3.0
 40
4.0
 40
4.0
 40
4.0
 40
4.0
 10
73.75295506284981
 20
-146.663903852223
 30
0.0
 10
73.75295506284981
 20
-146.6087999633481
 30
0.0
 10
73.70815228621504
 20
-146.5639971855813
 30
0.0
 10
73.65269562096319
 20
-146.5639971855813
 30
0.0
 10
73.5975583149338
 20
-146.5639971855813
 30
0.0
 10
73.55278895684536
 20
-146.6087999633481
 30
0.0
 10
73.55278895684536
 20
-146.663903852223
 30
0.0
 10
73.55278895684536
 20
-146.7190430188761
 30
0.0
 10
73.5975583149338
 20
-146.7638105188646
 30
0.0
 10
73.65269562096319
 20
-146.7638105188646
 30
0.0
 10
73.70815228621504
 20
-146.7638105188646
 30
0.0
 10
73.75295506284981
 20
-146.7190430188761
 30
0.0
 10
73.75295506284981
 20
-146.663903852223
 30
0.0
  0
SPLINE
  5
75
330
41
100
AcDbEntity
  8
_U+30EC_U+30A4_U+30E4_U+30FC 1
 62
   179
420
  2234388
370
    25
100
AcDbSpline
210
0.0
220
0.0
230
1.0
 70
     8
 71
     3
 72
     8
 73
     4
 74
     0
 42
0.0000000001
 43
0.0000000001
 12
1.0
 22
0.0
 32
0.0
 13
1.0
 23
0.0
 33
0.0
 40
0.0
 40
0.0
 40
0.0
 40
0.0
 40
1.0
 40
1.0
 40
1.0
 40
1.0
 10
74.75304475955761
 20
-140.8637432981176
 30
0.0
 10
74.75304475955761
 20
-141.250281909132
 30
0.0
 10
75.06620558490155
 20
-141.5637955201645
 30
0.0
 10
75.45309696392002
 20
-141.5637955201645
 30
0.0
  0
SPLINE
  5
76
330
41
100
AcDbEntity
  8
_U+30EC_U+30A4_U+30E4_U+30FC 1
 62
   179
420
  2234388
370
    25
100
AcDbSpline
210
0.0
220
0.0
230
1.0
 70
     8
 71
     3
 72
     8
 73
     4
 74
     0
 42
0.0000000001
 43
0.0000000001
 12
1.0
 22
0.0
 32
0.0
 13
1.0
 23
0.0
 33
0.0
 40
0.0
 40
0.0
 40
0.0
 40
0.0
 40
1.0
 40
1.0
 40
1.0
 40
1.0
 10
75.45309696392002
 20
-118.1641866371256
 30
0.0
 10
75.06620558490155
 20
-118.1641866371256
 30
0.0
 10
74.75304475955761
 20
-118.4777002481584
 30
0.0
 10
74.75304475955761
 20
-118.8642388591729
 30
0.0
  0
SPLINE
  5
77
330
41
100
AcDbEntity
  8
_U+30EC_U+30A4_U+30E4_U+30FC 1
 62
   179
420
  2234388
370
     9
100
AcDbSpline
210
0.0
220
0.0
230
1.0
 70
    11
 71
     3
 72
    17
 73
    13
 74
     0
 42
0.0000000001
 43
0.0000000001
 12
1.0
 22
0.0
 32
0.0
 13
1.0
 23
0.0
 33
0.0
 40
0.0
 40
0.0
 40
0.0
 40
0.0
 40
1.0
 40
1.0
 40
1.0
 40
2.0
 40
2.0
 40
2.0
 40
3.0
 40
3.0
 40
3.0
 40
4.0
 40
4.0
 40
4.0
 40
4.0
 10
73.75295506284981
 20
-113.0640783050675
 30
0.0
 10
73.75295506284981
 20
-113.0089391384144
 30
0.0
 10
73.70815228621504
 20
-112.9641716384255
 30
0.0
 10
73.65269562096319
 20
-112.9641716384255
 30
0.0
 10
73.5975583149338
 20
-112.9641716384255
 30
0.0
 10
73.55278895684536
 20
-113.0089391384144
 30
0.0
 10
73.55278895684536
 20
-113.0640783050675
 30
0.0
 10
73.55278895684536
 20
-113.1191821939424
 30
0.0
 10
73.5975583149338
 20
-113.1639849717091
 30
0.0
 10
73.65269562096319
 20
-113.1639849717091
 30
0.0
 10
73.70815228621504
 20
-113.1639849717091
 30
0.0
 10
73.75295506284981
 20
-113.1191821939424
 30
0.0
 10
73.75295506284981
 20
-113.0640783050675
 30
0.0
  0
SPLINE
  5
78
330
41
100
AcDbEntity
  8
_U+30EC_U+30A4_U+30E4_U+30FC 1
 62
   179
420
  2234388
370
     9
100
AcDbSpline
210
0.0
220
0.0
230
1.0
 70
    11
 71
     3
 72
    17
 73
    13
 74
     0
 42
0.0000000001
 43
0.0000000001
 12
1.0
 22
0.0
 32
0.0
 13
1.0
 23
0.0
 33
0.0
 40
0.0
 40
0.0
 40
0.0
 40
0.0
 40
1.0
 40
1.0
 40
1.0
 40
2.0
 40
2.0
 40
2.0
 40
3.0
 40
3.0
 40
3.0
 40
4.0
 40
4.0
 40
4.0
 40
4.0
 10
103.7528237419338
 20
-113.0640783050675
 30
0.0
 10
103.7528237419338
 20
-113.0089391384144
 30
0.0
 10
103.7080562430759
 20
-112.9641716384255
 30
0.0
 10
103.652917077816
 20
-112.9641716384255
 30
0.0
 10
103.5978131903329
 20
-112.9641716384255
 30
0.0
 10
103.5530104136982
 20
-113.0089391384144
 30
0.0
 10
103.5530104136982
 20
-113.0640783050675
 30
0.0
 10
103.5530104136982
 20
-113.1191821939424
 30
0.0
 10
103.5978131903329
 20
-113.1639849717091
 30
0.0
 10
103.652917077816
 20
-113.1639849717091
 30
0.0
 10
103.7080562430759
 20
-113.1639849717091
 30
0.0
 10
103.7528237419338
 20
-113.1191821939424
 30
0.0
 10
103.7528237419338
 20
-113.0640783050675
 30
0.0
  0
POLYLINE
  5
79
330
41
100
AcDbEntity
  8
_U+30EC_U+30A4_U+30E4_U+30FC 1
 62
   179
420
  2234388
370
     9
100
AcDb2dPolyline
 66
     1
 10
0.0
 20
0.0
 30
0.0
  0
VERTEX
  5
7A
330
79
100
AcDbEntity
  8
_U+30EC_U+30A4_U+30E4_U+30FC 1
 62
   179
420
  2234388
370
     9
100
AcDbVertex
100
AcDb2dVertex
 10
107.6530289202091
 20
-139.6641577428618
 30
0.0
  0
VERTEX
  5
7B
330
79
100
AcDbEntity
  8
_U+30EC_U+30A4_U+30E4_U+30FC 1
 62
   179
420
  2234388
370
     9
100
AcDbVertex
100
AcDb2dVertex
 10
107.6530289202091
 20
-142.6641446865561
 30
0.0
  0
SEQEND
  5
7C
330
79
100
AcDbEntity
  8
_U+30EC_U+30A4_U+30E4_U+30FC 1
 62
   179
420
  2234388
370
     9
  0
POLYLINE
  5
7D
330
41
100
AcDbEntity
  8
_U+30EC_U+30A4_U+30E4_U+30FC 1
 62
   179
420
  2234388
370
     9
100
AcDb2dPolyline
 66
     1
 10
0.0
 20
0.0
 30
0.0
  0
VERTEX
  5
7E
330
7D
100
AcDbEntity
  8
_U+30EC_U+30A4_U+30E4_U+30FC 1
 62
   179
420
  2234388
370
     9
100
AcDbVertex
100
AcDb2dVertex
 10
91.1930555327573
 20
-142.6641446865561
 30
0.0
  0
VERTEX
  5
7F
330
7D
100
AcDbEntity
  8
_U+30EC_U+30A4_U+30E4_U+30FC 1
 62
   179
420
  2234388
370
     9
100
AcDbVertex
100
AcDb2dVertex
 10
108.652801116925
 20
-142.6641446865561
 30
0.0
  0
SEQEND
  5
80
330
7D
100
AcDbEntity
  8
_U+30EC_U+30A4_U+30E4_U+30FC 1
 62
   179
420
  2234388
370
     9
  0
INSERT
  5
82
330
41
100
AcDbEntity
  8
_U+30EC_U+30A4_U+30E4_U+30FC 1
100
AcDbBlockReference
  2
block 3
 10
0.0
 20
0.0
 30
0.0
  0
POLYLINE
  5
87
330
41
100
AcDbEntity
  8
_U+30EC_U+30A4_U+30E4_U+30FC 1
 62
   179
420
  2234388
370
     9
100
AcDb2dPolyline
 66
     1
 10
0.0
 20
0.0
 30
0.0
  0
VERTEX
  5
88
330
87
100
AcDbEntity
  8
_U+30EC_U+30A4_U+30E4_U+30FC 1
 62
   179
420
  2234388
370
     9
100
AcDbVertex
100
AcDb2dVertex
 10
73.65269562096319
 20
-146.663903852223
 30
0.0
  0
VERTEX
  5
89
330
87
100
AcDbEntity
  8
_U+30EC_U+30A4_U+30E4_U+30FC 1
 62
   179
420
  2234388
370
     9
100
AcDbVertex
100
AcDb2dVertex
 10
88.65298273827399
 20
-146.663903852223
 30
0.0
  0
SEQEND
  5
8A
330
87
100
AcDbEntity
  8
_U+30EC_U+30A4_U+30E4_U+30FC 1
 62
   179
420
  2234388
370
     9
  0
POLYLINE
  5
8B
330
41
100
AcDbEntity
  8
_U+30EC_U+30A4_U+30E4_U+30FC 1
 62
   179
420
  2234388
370
     9
100
AcDb2dPolyline
 66
     1
 10
0.0
 20
0.0
 30
0.0
  0
VERTEX
  5
8C
330
8B
100
AcDbEntity
  8
_U+30EC_U+30A4_U+30E4_U+30FC 1
 62
   179
420
  2234388
370
     9
100
AcDbVertex
100
AcDb2dVertex
 10
73.65269562096319
 20
-145.2038977414768
 30
0.0
  0
VERTEX
  5
8D
330
8B
100
AcDbEntity
  8
_U+30EC_U+30A4_U+30E4_U+30FC 1
 62
   179
420
  2234388
370
     9
100
AcDbVertex
100
AcDb2dVertex
 10
73.65269562096319
 20
-147.6636760741949
 30
0.0
  0
SEQEND
  5
8E
330
8B
100
AcDbEntity
  8
_U+30EC_U+30A4_U+30E4_U+30FC 1
 62
   179
420
  2234388
370
     9
  0
POLYLINE
  5
8F
330
41
100
AcDbEntity
  8
_U+30EC_U+30A4_U+30E4_U+30FC 1
 62
   179
420
  2234388
370
     9
100
AcDb2dPolyline
 66
     1
 10
0.0
 20
0.0
 30
0.0
  0
VERTEX
  5
90
330
8F
100
AcDbEntity
  8
_U+30EC_U+30A4_U+30E4_U+30FC 1
 62
   179
420
  2234388
370
     9
100
AcDbVertex
100
AcDb2dVertex
 10
88.65298273827399
 20
-145.2038977414768
 30
0.0
  0
VERTEX
  5
91
330
8F
100
AcDbEntity
  8
_U+30EC_U+30A4_U+30E4_U+30FC 1
 62
   179
420
  2234388
370
     9
100
AcDbVertex
100
AcDb2dVertex
 10
88.65298273827399
 20
-147.6636760741949
 30
0.0
  0
SEQEND
  5
92
330
8F
100
AcDbEntity
  8
_U+30EC_U+30A4_U+30E4_U+30FC 1
 62
   179
420
  2234388
370
     9
  0
INSERT
  5
94
330
41
100
AcDbEntity
  8
_U+30EC_U+30A4_U+30E4_U+30FC 1
100
AcDbBlockReference
  2
block 4
 10
0.0
 20
0.0
 30
0.0
  0
POLYLINE
  5
9B
330
41
100
AcDbEntity
  8
_U+30EC_U+30A4_U+30E4_U+30FC 1
 62
   179
420
  2234388
370
     9
100
AcDb2dPolyline
 66
     1
 10
0.0
 20
0.0
 30
0.0
  0
VERTEX
  5
9C
330
9B
100
AcDbEntity
  8
_U+30EC_U+30A4_U+30E4_U+30FC 1
 62
   179
420
  2234388
370
     9
100
AcDbVertex
100
AcDb2dVertex
 10
107.6530289202091
 20
-117.0641549707339
 30
0.0
  0
VERTEX
  5
9D
330
9B
100
AcDbEntity
  8
_U+30EC_U+30A4_U+30E4_U+30FC 1
 62
   179
420
  2234388
370
     9
100
AcDbVertex
100
AcDb2dVertex
 10
107.6530289202091
 20
-111.8062844164929
 30
0.0
  0
SEQEND
  5
9E
330
9B
100
AcDbEntity
  8
_U+30EC_U+30A4_U+30E4_U+30FC 1
 62
   179
420
  2234388
370
     9
  0
POLYLINE
  5
9F
330
41
100
AcDbEntity
  8
_U+30EC_U+30A4_U+30E4_U+30FC 1
 62
   179
420
  2234388
370
     9
100
AcDb2dPolyline
 66
     1
 10
0.0
 20
0.0
 30
0.0
  0
VERTEX
  5
A0
330
9F
100
AcDbEntity
  8
_U+30EC_U+30A4_U+30E4_U+30FC 1
 62
   179
420
  2234388
370
     9
100
AcDbVertex
100
AcDb2dVertex
 10
107.6530289202091
 20
-117.0641549707339
 30
0.0
  0
VERTEX
  5
A1
330
9F
100
AcDbEntity
  8
_U+30EC_U+30A4_U+30E4_U+30FC 1
 62
   179
420
  2234388
370
     9
100
AcDbVertex
100
AcDb2dVertex
 10
107.6530289202091
 20
-118.1641866371256
 30
0.0
  0
SEQEND
  5
A2
330
9F
100
AcDbEntity
  8
_U+30EC_U+30A4_U+30E4_U+30FC 1
 62
   179
420
  2234388
370
     9
  0
POLYLINE
  5
A3
330
41
100
AcDbEntity
  8
_U+30EC_U+30A4_U+30E4_U+30FC 1
 62
   179
420
  2234388
370
     9
100
AcDb2dPolyline
 66
     1
 10
0.0
 20
0.0
 30
0.0
  0
VERTEX
  5
A4
330
A3
100
AcDbEntity
  8
_U+30EC_U+30A4_U+30E4_U+30FC 1
 62
   179
420
  2234388
370
     9
100
AcDbVertex
100
AcDb2dVertex
 10
106.192987568569
 20
-117.0641549707339
 30
0.0
  0
VERTEX
  5
A5
330
A3
100
AcDbEntity
  8
_U+30EC_U+30A4_U+30E4_U+30FC 1
 62
   179
420
  2234388
370
     9
100
AcDbVertex
100
AcDb2dVertex
 10
108.652801116925
 20
-117.0641549707339
 30
0.0
  0
SEQEND
  5
A6
330
A3
100
AcDbEntity
  8
_U+30EC_U+30A4_U+30E4_U+30FC 1
 62
   179
420
  2234388
370
     9
  0
POLYLINE
  5
A7
330
41
100
AcDbEntity
  8
_U+30EC_U+30A4_U+30E4_U+30FC 1
 62
   179
420
  2234388
370
     9
100
AcDb2dPolyline
 66
     1
 10
0.0
 20
0.0
 30
0.0
  0
VERTEX
  5
A8
330
A7
100
AcDbEntity
  8
_U+30EC_U+30A4_U+30E4_U+30FC 1
 62
   179
420
  2234388
370
     9
100
AcDbVertex
100
AcDb2dVertex
 10
106.192987568569
 20
-118.1641866371256
 30
0.0
  0
VERTEX
  5
A9
330
A7
100
AcDbEntity
  8
_U+30EC_U+30A4_U+30E4_U+30FC 1
 62
   179
420
  2234388
370
     9
100
AcDbVertex
100
AcDb2dVertex
 10
108.652801116925
 20
-118.1641866371256
 30
0.0
  0
SEQEND
  5
AA
330
A7
100
AcDbEntity
  8
_U+30EC_U+30A4_U+30E4_U+30FC 1
 62
   179
420
  2234388
370
     9
  0
INSERT
  5
AC
330
41
100
AcDbEntity
  8
_U+30EC_U+30A4_U+30E4_U+30FC 1
100
AcDbBlockReference
  2
block 5
 10
0.0
 20
0.0
 30
0.0
  0
POLYLINE
  5
BB
330
41
100
AcDbEntity
  8
_U+30EC_U+30A4_U+30E4_U+30FC 1
 62
   179
420
  2234388
370
     9
100
AcDb2dPolyline
 66
     1
 10
0.0
 20
0.0
 30
0.0
  0
VERTEX
  5
BC
330
BB
100
AcDbEntity
  8
_U+30EC_U+30A4_U+30E4_U+30FC 1
 62
   179
420
  2234388
370
     9
100
AcDbVertex
100
AcDb2dVertex
 10
73.65269562096319
 20
-113.0640783050675
 30
0.0
  0
VERTEX
  5
BD
330
BB
100
AcDbEntity
  8
_U+30EC_U+30A4_U+30E4_U+30FC 1
 62
   179
420
  2234388
370
     9
100
AcDbVertex
100
AcDb2dVertex
 10
103.652917077816
 20
-113.0640783050675
 30
0.0
  0
SEQEND
  5
BE
330
BB
100
AcDbEntity
  8
_U+30EC_U+30A4_U+30E4_U+30FC 1
 62
   179
420
  2234388
370
     9
  0
POLYLINE
  5
BF
330
41
100
AcDbEntity
  8
_U+30EC_U+30A4_U+30E4_U+30FC 1
 62
   179
420
  2234388
370
     9
100
AcDb2dPolyline
 66
     1
 10
0.0
 20
0.0
 30
0.0
  0
VERTEX
  5
C0
330
BF
100
AcDbEntity
  8
_U+30EC_U+30A4_U+30E4_U+30FC 1
 62
   179
420
  2234388
370
     9
100
AcDbVertex
100
AcDb2dVertex
 10
73.65269562096319
 20
-114.5241196935912
 30
0.0
  0
VERTEX
  5
C1
330
BF
100
AcDbEntity
  8
_U+30EC_U+30A4_U+30E4_U+30FC 1
 62
   179
420
  2234388
370
     9
100
AcDbVertex
100
AcDb2dVertex
 10
73.65269562096319
 20
-112.0643060830949
 30
0.0
  0
SEQEND
  5
C2
330
BF
100
AcDbEntity
  8
_U+30EC_U+30A4_U+30E4_U+30FC 1
 62
   179
420
  2234388
370
     9
  0
POLYLINE
  5
C3
330
41
100
AcDbEntity
  8
_U+30EC_U+30A4_U+30E4_U+30FC 1
 62
   179
420
  2234388
370
     9
100
AcDb2dPolyline
 66
     1
 10
0.0
 20
0.0
 30
0.0
  0
VERTEX
  5
C4
330
C3
100
AcDbEntity
  8
_U+30EC_U+30A4_U+30E4_U+30FC 1
 62
   179
420
  2234388
370
     9
100
AcDbVertex
100
AcDb2dVertex
 10
103.652917077816
 20
-114.5241196935912
 30
0.0
  0
VERTEX
  5
C5
330
C3
100
AcDbEntity
  8
_U+30EC_U+30A4_U+30E4_U+30FC 1
 62
   179
420
  2234388
370
     9
100
AcDbVertex
100
AcDb2dVertex
 10
103.652917077816
 20
-112.0643060830949
 30
0.0
  0
SEQEND
  5
C6
330
C3
100
AcDbEntity
  8
_U+30EC_U+30A4_U+30E4_U+30FC 1
 62
   179
420
  2234388
370
     9
  0
INSERT
  5
C8
330
41
100
AcDbEntity
  8
_U+30EC_U+30A4_U+30E4_U+30FC 1
100
AcDbBlockReference
  2
block 6
 10
0.0
 20
0.0
 30
0.0
  0
POLYLINE
  5
D0
330
41
100
AcDbEntity
  8
_U+30EC_U+30A4_U+30E4_U+30FC 1
 62
   179
420
  2234388
370
     9
100
AcDb2dPolyline
 66
     1
 10
0.0
 20
0.0
 30
0.0
  0
VERTEX
  5
D1
330
D0
100
AcDbEntity
  8
_U+30EC_U+30A4_U+30E4_U+30FC 1
 62
   179
420
  2234388
370
     9
100
AcDbVertex
100
AcDb2dVertex
 10
107.6530289202091
 20
-139.6641577428618
 30
0.0
  0
VERTEX
  5
D2
330
D0
100
AcDbEntity
  8
_U+30EC_U+30A4_U+30E4_U+30FC 1
 62
   179
420
  2234388
370
     9
100
AcDbVertex
100
AcDb2dVertex
 10
107.6530289202091
 20
-118.1641866371256
 30
0.0
  0
SEQEND
  5
D3
330
D0
100
AcDbEntity
  8
_U+30EC_U+30A4_U+30E4_U+30FC 1
 62
   179
420
  2234388
370
     9
  0
POLYLINE
  5
D4
330
41
100
AcDbEntity
  8
_U+30EC_U+30A4_U+30E4_U+30FC 1
 62
   179
420
  2234388
370
     9
100
AcDb2dPolyline
 66
     1
 10
0.0
 20
0.0
 30
0.0
  0
VERTEX
  5
D5
330
D4
100
AcDbEntity
  8
_U+30EC_U+30A4_U+30E4_U+30FC 1
 62
   179
420
  2234388
370
     9
100
AcDbVertex
100
AcDb2dVertex
 10
91.1930555327573
 20
-139.6641577428618
 30
0.0
  0
VERTEX
  5
D6
330
D4
100
AcDbEntity
  8
_U+30EC_U+30A4_U+30E4_U+30FC 1
 62
   179
420
  2234388
370
     9
100
AcDbVertex
100
AcDb2dVertex
 10
108.652801116925
 20
-139.6641577428618
 30
0.0
  0
SEQEND
  5
D7
330
D4
100
AcDbEntity
  8
_U+30EC_U+30A4_U+30E4_U+30FC 1
 62
   179
420
  2234388
370
     9
  0
INSERT
  5
D9
330
41
100
AcDbEntity
  8
_U+30EC_U+30A4_U+30E4_U+30FC 1
100
AcDbBlockReference
  2
block 7
 10
0.0
 20
0.0
 30
0.0
  0
ENDBLK
  5
44
330
41
100
AcDbEntity
  8
0
100
AcDbBlockEnd
  0
BLOCK
  5
83
330
81
100
AcDbEntity
  8
0
100
AcDbBlockBegin
  2
block 3
 70
     0
 10
0.0
 20
0.0
 30
0.0
  3
block 3
  1

  0
SPLINE
  5
85
330
81
100
AcDbEntity
  8
_U+30EC_U+30A4_U+30E4_U+30FC 1
370
     0
100
AcDbSpline
210
0.0
220
0.0
230
1.0
 70
    11
 71
     3
 72
    62
 73
    58
 74
     0
 42
0.0000000001
 43
0.0000000001
 12
1.0
 22
0.0
 32
0.0
 13
1.0
 23
0.0
 33
0.0
 40
0.0
 40
0.0
 40
0.0
 40
0.0
 40
1.0
 40
1.0
 40
1.0
 40
2.0
 40
2.0
 40
2.0
 40
3.0
 40
3.0
 40
3.0
 40
4.0
 40
4.0
 40
4.0
 40
5.0
 40
5.0
 40
5.0
 40
6.0
 40
6.0
 40
6.0
 40
7.0
 40
7.0
 40
7.0
 40
8.0
 40
8.0
 40
8.0
 40
9.0
 40
9.0
 40
9.0
 40
10.0
 40
10.0
 40
10.0
 40
11.0
 40
11.0
 40
11.0
 40
12.0
 40
12.0
 40
12.0
 40
13.0
 40
13.0
 40
13.0
 40
14.0
 40
14.0
 40
14.0
 40
15.0
 40
15.0
 40
15.0
 40
16.0
 40
16.0
 40
16.0
 40
17.0
 40
17.0
 40
17.0
 40
18.0
 40
18.0
 40
18.0
 40
19.0
 40
19.0
 40
19.0
 40
19.0
 10
105.9108479552931
 20
-141.1720892659223
 30
0.0
 10
105.9108479552931
 20
-141.2640733153784
 30
0.0
 10
105.8898328728331
 20
-141.4742241399787
 30
0.0
 10
105.7037977166296
 20
-141.5944579724139
 30
0.0
 10
105.5914876038105
 20
-141.6657714489586
 30
0.0
 10
105.4922688538353
 20
-141.6699055635409
 30
0.0
 10
105.4075195048981
 20
-141.6740396781232
 30
0.0
 10
105.4075195048981
 20
-141.6740396781232
 30
0.0
 10
105.4075195048981
 20
-141.4618217962318
 30
0.0
 10
105.4075195048981
 20
-141.4618217962318
 30
0.0
 10
105.481589057831
 20
-141.4597547389406
 30
0.0
 10
105.7162000603765
 20
-141.4497639620334
 30
0.0
 10
105.7162000603765
 20
-141.1762233805046
 30
0.0
 10
105.7162000603765
 20
-141.0435872043224
 30
0.0
 10
105.6466091315745
 20
-140.8968261366508
 30
0.0
 10
105.4181993009024
 20
-140.8968261366508
 30
0.0
 10
105.301755073501
 20
-140.8968261366508
 30
0.0
 10
105.2531792271589
 20
-140.933688658343
 30
0.0
 10
105.2214843486946
 20
-140.9640054986132
 30
0.0
 10
105.1474147957618
 20
-141.0356634847064
 30
0.0
 10
105.1346679424663
 20
-141.147629087977
 30
0.0
 10
105.1346679424663
 20
-141.2006835584498
 30
0.0
 10
105.1346679424663
 20
-141.2192870740702
 30
0.0
 10
105.1367349997575
 20
-141.2537380289227
 30
0.0
 10
105.1408691143398
 20
-141.2802652641591
 30
0.0
 10
105.1408691143398
 20
-141.2802652641591
 30
0.0
 10
104.9462212194232
 20
-141.2802652641591
 30
0.0
 10
104.9462212194232
 20
-141.2802652641591
 30
0.0
 10
104.9527669008451
 20
-141.2437472520155
 30
0.0
 10
104.9548339581363
 20
-141.202750615741
 30
0.0
 10
104.9548339581363
 20
-141.1965494438675
 30
0.0
 10
104.9548339581363
 20
-141.1335041964875
 30
0.0
 10
104.9334743661278
 20
-140.941612377959
 30
0.0
 10
104.6967963062911
 20
-140.941612377959
 30
0.0
 10
104.5190293792522
 20
-140.941612377959
 30
0.0
 10
104.4639078514882
 20
-141.0680473822677
 30
0.0
 10
104.4639078514882
 20
-141.1741563232134
 30
0.0
 10
104.4639078514882
 20
-141.4294378986704
 30
0.0
 10
104.6967963062911
 20
-141.4373616182865
 30
0.0
 10
104.7684542923843
 20
-141.4414957328688
 30
0.0
 10
104.7684542923843
 20
-141.4414957328688
 30
0.0
 10
104.7684542923843
 20
-141.6375216659795
 30
0.0
 10
104.7684542923843
 20
-141.6375216659795
 30
0.0
 10
104.6437418358182
 20
-141.6292534368149
 30
0.0
 10
104.2671928992804
 20
-141.6027262015785
 30
0.0
 10
104.2671928992804
 20
-141.1620984890151
 30
0.0
 10
104.2671928992804
 20
-140.9457464925414
 30
0.0
 10
104.3943169226861
 20
-140.713202547287
 30
0.0
 10
104.6902506248691
 20
-140.713202547287
 30
0.0
 10
104.8766302906211
 20
-140.713202547287
 30
0.0
 10
104.9589680727186
 20
-140.8048420871946
 30
0.0
 10
105.020290772356
 20
-140.9009602512331
 30
0.0
 10
105.047851536238
 20
-140.8417046088868
 30
0.0
 10
105.1281222610444
 20
-140.6663492486876
 30
0.0
 10
105.405452447607
 20
-140.6663492486876
 30
0.0
 10
105.7437608242585
 20
-140.6663492486876
 30
0.0
 10
105.9108479552931
 20
-140.9050943658154
 30
0.0
 10
105.9108479552931
 20
-141.1720892659223
 30
0.0
  0
HATCH
  5
86
330
81
100
AcDbEntity
  8
_U+30EC_U+30A4_U+30E4_U+30FC 1
 62
   179
420
  2234388
100
AcDbHatch
 10
0.0
 20
0.0
 30
0.0
210
0.0
220
0.0
230
1.0
  2
SOLID
 70
     1
 71
     0
 91
        1
 92
        1
 93
        1
 72
     4
 94
        3
 73
     0
 74
     1
 95
       62
 96
       58
 40
0.0
 40
0.0
 40
0.0
 40
0.0
 40
1.0
 40
1.0
 40
1.0
 40
2.0
 40
2.0
 40
2.0
 40
3.0
 40
3.0
 40
3.0
 40
4.0
 40
4.0
 40
4.0
 40
5.0
 40
5.0
 40
5.0
 40
6.0
 40
6.0
 40
6.0
 40
7.0
 40
7.0
 40
7.0
 40
8.0
 40
8.0
 40
8.0
 40
9.0
 40
9.0
 40
9.0
 40
10.0
 40
10.0
 40
10.0
 40
11.0
 40
11.0
 40
11.0
 40
12.0
 40
12.0
 40
12.0
 40
13.0
 40
13.0
 40
13.0
 40
14.0
 40
14.0
 40
14.0
 40
15.0
 40
15.0
 40
15.0
 40
16.0
 40
16.0
 40
16.0
 40
17.0
 40
17.0
 40
17.0
 40
18.0
 40
18.0
 40
18.0
 40
19.0
 40
19.0
 40
19.0
 40
19.0
 10
105.9108479552931
 20
-141.1720892659223
 10
105.9108479552931
 20
-141.2640733153784
 10
105.8898328728331
 20
-141.4742241399787
 10
105.7037977166296
 20
-141.5944579724139
 10
105.5914876038105
 20
-141.6657714489586
 10
105.4922688538353
 20
-141.6699055635409
 10
105.4075195048981
 20
-141.6740396781232
 10
105.4075195048981
 20
-141.6740396781232
 10
105.4075195048981
 20
-141.4618217962318
 10
105.4075195048981
 20
-141.4618217962318
 10
105.481589057831
 20
-141.4597547389406
 10
105.7162000603765
 20
-141.4497639620334
 10
105.7162000603765
 20
-141.1762233805046
 10
105.7162000603765
 20
-141.0435872043224
 10
105.6466091315745
 20
-140.8968261366508
 10
105.4181993009024
 20
-140.8968261366508
 10
105.301755073501
 20
-140.8968261366508
 10
105.2531792271589
 20
-140.933688658343
 10
105.2214843486946
 20
-140.9640054986132
 10
105.1474147957618
 20
-141.0356634847064
 10
105.1346679424663
 20
-141.147629087977
 10
105.1346679424663
 20
-141.2006835584498
 10
105.1346679424663
 20
-141.2192870740702
 10
105.1367349997575
 20
-141.2537380289227
 10
105.1408691143398
 20
-141.2802652641591
 10
105.1408691143398
 20
-141.2802652641591
 10
104.9462212194232
 20
-141.2802652641591
 10
104.9462212194232
 20
-141.2802652641591
 10
104.9527669008451
 20
-141.2437472520155
 10
104.9548339581363
 20
-141.202750615741
 10
104.9548339581363
 20
-141.1965494438675
 10
104.9548339581363
 20
-141.1335041964875
 10
104.9334743661278
 20
-140.941612377959
 10
104.6967963062911
 20
-140.941612377959
 10
104.5190293792522
 20
-140.941612377959
 10
104.4639078514882
 20
-141.0680473822677
 10
104.4639078514882
 20
-141.1741563232134
 10
104.4639078514882
 20
-141.4294378986704
 10
104.6967963062911
 20
-141.4373616182865
 10
104.7684542923843
 20
-141.4414957328688
 10
104.7684542923843
 20
-141.4414957328688
 10
104.7684542923843
 20
-141.6375216659795
 10
104.7684542923843
 20
-141.6375216659795
 10
104.6437418358182
 20
-141.6292534368149
 10
104.2671928992804
 20
-141.6027262015785
 10
104.2671928992804
 20
-141.1620984890151
 10
104.2671928992804
 20
-140.9457464925414
 10
104.3943169226861
 20
-140.713202547287
 10
104.6902506248691
 20
-140.713202547287
 10
104.8766302906211
 20
-140.713202547287
 10
104.9589680727186
 20
-140.8048420871946
 10
105.020290772356
 20
-140.9009602512331
 10
105.047851536238
 20
-140.8417046088868
 10
105.1281222610444
 20
-140.6663492486876
 10
105.405452447607
 20
-140.6663492486876
 10
105.7437608242585
 20
-140.6663492486876
 10
105.9108479552931
 20
-140.9050943658154
 10
105.9108479552931
 20
-141.1720892659223
 97
        0
 97
        0
 75
     2
 76
     1
 98
        0
  0
ENDBLK
  5
84
330
81
100
AcDbEntity
  8
0
100
AcDbBlockEnd
  0
BLOCK
  5
95
330
93
100
AcDbEntity
  8
0
100
AcDbBlockBegin
  2
block 4
 70
     0
 10
0.0
 20
0.0
 30
0.0
  3
block 4
  1

  0
SPLINE
  5
97
330
93
100
AcDbEntity
  8
_U+30EC_U+30A4_U+30E4_U+30FC 1
370
     0
100
AcDbSpline
210
0.0
220
0.0
230
1.0
 70
    11
 71
     3
 72
    26
 73
    22
 74
     0
 42
0.0000000001
 43
0.0000000001
 12
1.0
 22
0.0
 32
0.0
 13
1.0
 23
0.0
 33
0.0
 40
0.0
 40
0.0
 40
0.0
 40
0.0
 40
1.0
 40
1.0
 40
1.0
 40
2.0
 40
2.0
 40
2.0
 40
3.0
 40
3.0
 40
3.0
 40
4.0
 40
4.0
 40
4.0
 40
5.0
 40
5.0
 40
5.0
 40
6.0
 40
6.0
 40
6.0
 40
7.0
 40
7.0
 40
7.0
 40
7.0
 10
80.5394422541707
 20
-146.0183050850232
 30
0.0
 10
80.5394422541707
 20
-146.0183050850232
 30
0.0
 10
80.5394422541707
 20
-144.9141519820006
 30
0.0
 10
80.5394422541707
 20
-144.9141519820006
 30
0.0
 10
80.5394422541707
 20
-144.9141519820006
 30
0.0
 10
80.22128768610787
 20
-144.9141519820006
 30
0.0
 10
80.22128768610787
 20
-144.9141519820006
 30
0.0
 10
80.22128768610787
 20
-144.9141519820006
 30
0.0
 10
80.22128768610787
 20
-144.7660128761349
 30
0.0
 10
80.22128768610787
 20
-144.7660128761349
 30
0.0
 10
80.54150931146185
 20
-144.7511989655483
 30
0.0
 10
80.58646780754435
 20
-144.588245949096
 30
0.0
 10
80.61488984529767
 20
-144.4738687789857
 30
0.0
 10
80.61488984529767
 20
-144.4738687789857
 30
0.0
 10
80.75579425064439
 20
-144.4738687789857
 30
0.0
 10
80.75579425064439
 20
-144.4738687789857
 30
0.0
 10
80.75579425064439
 20
-144.4738687789857
 30
0.0
 10
80.75579425064439
 20
-146.0183050850232
 30
0.0
 10
80.75579425064439
 20
-146.0183050850232
 30
0.0
 10
80.75579425064439
 20
-146.0183050850232
 30
0.0
 10
80.5394422541707
 20
-146.0183050850232
 30
0.0
 10
80.5394422541707
 20
-146.0183050850232
 30
0.0
  0
HATCH
  5
98
330
93
100
AcDbEntity
  8
_U+30EC_U+30A4_U+30E4_U+30FC 1
 62
   179
420
  2234388
100
AcDbHatch
 10
0.0
 20
0.0
 30
0.0
210
0.0
220
0.0
230
1.0
  2
SOLID
 70
     1
 71
     0
 91
        1
 92
        1
 93
        1
 72
     4
 94
        3
 73
     0
 74
     1
 95
       26
 96
       22
 40
0.0
 40
0.0
 40
0.0
 40
0.0
 40
1.0
 40
1.0
 40
1.0
 40
2.0
 40
2.0
 40
2.0
 40
3.0
 40
3.0
 40
3.0
 40
4.0
 40
4.0
 40
4.0
 40
5.0
 40
5.0
 40
5.0
 40
6.0
 40
6.0
 40
6.0
 40
7.0
 40
7.0
 40
7.0
 40
7.0
 10
80.5394422541707
 20
-146.0183050850232
 10
80.5394422541707
 20
-146.0183050850232
 10
80.5394422541707
 20
-144.9141519820006
 10
80.5394422541707
 20
-144.9141519820006
 10
80.5394422541707
 20
-144.9141519820006
 10
80.22128768610787
 20
-144.9141519820006
 10
80.22128768610787
 20
-144.9141519820006
 10
80.22128768610787
 20
-144.9141519820006
 10
80.22128768610787
 20
-144.7660128761349
 10
80.22128768610787
 20
-144.7660128761349
 10
80.54150931146185
 20
-144.7511989655483
 10
80.58646780754435
 20
-144.588245949096
 10
80.61488984529767
 20
-144.4738687789857
 10
80.61488984529767
 20
-144.4738687789857
 10
80.75579425064439
 20
-144.4738687789857
 10
80.75579425064439
 20
-144.4738687789857
 10
80.75579425064439
 20
-144.4738687789857
 10
80.75579425064439
 20
-146.0183050850232
 10
80.75579425064439
 20
-146.0183050850232
 10
80.75579425064439
 20
-146.0183050850232
 10
80.5394422541707
 20
-146.0183050850232
 10
80.5394422541707
 20
-146.0183050850232
 97
        0
 97
        0
 75
     2
 76
     1
 98
        0
  0
SPLINE
  5
99
330
93
100
AcDbEntity
  8
_U+30EC_U+30A4_U+30E4_U+30FC 1
370
     0
100
AcDbSpline
210
0.0
220
0.0
230
1.0
 70
    11
 71
     3
 72
    53
 73
    49
 74
     0
 42
0.0000000001
 43
0.0000000001
 12
1.0
 22
0.0
 32
0.0
 13
1.0
 23
0.0
 33
0.0
 40
0.0
 40
0.0
 40
0.0
 40
0.0
 40
1.0
 40
1.0
 40
1.0
 40
2.0
 40
2.0
 40
2.0
 40
3.0
 40
3.0
 40
3.0
 40
4.0
 40
4.0
 40
4.0
 40
5.0
 40
5.0
 40
5.0
 40
6.0
 40
6.0
 40
6.0
 40
7.0
 40
7.0
 40
7.0
 40
8.0
 40
8.0
 40
8.0
 40
9.0
 40
9.0
 40
9.0
 40
10.0
 40
10.0
 40
10.0
 40
11.0
 40
11.0
 40
11.0
 40
12.0
 40
12.0
 40
12.0
 40
13.0
 40
13.0
 40
13.0
 40
14.0
 40
14.0
 40
14.0
 40
15.0
 40
15.0
 40
15.0
 40
16.0
 40
16.0
 40
16.0
 40
16.0
 10
81.70147296134547
 20
-146.0689479886564
 30
0.0
 10
81.6260253702185
 20
-146.0689479886564
 30
0.0
 10
81.52801240366314
 20
-146.0520670207787
 30
0.0
 10
81.43017169188204
 20
-145.9886772638501
 30
0.0
 10
81.26291230607316
 20
-145.8787787178706
 30
0.0
 10
81.24241398793593
 20
-145.7475205798826
 30
0.0
 10
81.2241549818641
 20
-145.6396890911942
 30
0.0
 10
81.2241549818641
 20
-145.6396890911942
 30
0.0
 10
81.43826766627238
 20
-145.6396890911942
 30
0.0
 10
81.43826766627238
 20
-145.6396890911942
 30
0.0
 10
81.49132213674523
 20
-145.8384711006932
 30
0.0
 10
81.61379528124586
 20
-145.8680989218663
 30
0.0
 10
81.70354001863662
 20
-145.8680989218663
 30
0.0
 10
81.83807099733562
 20
-145.8680989218663
 30
0.0
 10
81.98500431978152
 20
-145.7685356623426
 30
0.0
 10
81.98500431978152
 20
-145.5359917170882
 30
0.0
 10
81.98500431978152
 20
-145.2800211225342
 30
0.0
 10
81.81171601687346
 20
-145.2100856841836
 30
0.0
 10
81.69527178947202
 20
-145.2100856841836
 30
0.0
 10
81.66478269442756
 20
-145.2100856841836
 30
0.0
 10
81.52801240366314
 20
-145.2100856841836
 30
0.0
 10
81.44240178085468
 20
-145.3392767648805
 30
0.0
 10
81.44240178085468
 20
-145.3392767648805
 30
0.0
 10
81.27307533775465
 20
-145.3203287397116
 30
0.0
 10
81.27307533775465
 20
-145.3203287397116
 30
0.0
 10
81.27307533775465
 20
-145.3203287397116
 30
0.0
 10
81.38934731038184
 20
-144.4738687789857
 30
0.0
 10
81.38934731038184
 20
-144.4738687789857
 30
0.0
 10
81.38934731038184
 20
-144.4738687789857
 30
0.0
 10
82.14003361661777
 20
-144.4738687789857
 30
0.0
 10
82.14003361661777
 20
-144.4738687789857
 30
0.0
 10
82.14003361661777
 20
-144.4738687789857
 30
0.0
 10
82.14003361661777
 20
-144.6685166739023
 30
0.0
 10
82.14003361661777
 20
-144.6685166739023
 30
0.0
 10
82.14003361661777
 20
-144.6685166739023
 30
0.0
 10
81.54644366450923
 20
-144.6685166739023
 30
0.0
 10
81.54644366450923
 20
-144.6685166739023
 30
0.0
 10
81.54644366450923
 20
-144.6685166739023
 30
0.0
 10
81.4832261623549
 20
-145.091574399491
 30
0.0
 10
81.4832261623549
 20
-145.091574399491
 30
0.0
 10
81.54230954992693
 20
-145.0578124637356
 30
0.0
 10
81.6218912556362
 20
-145.0175048465581
 30
0.0
 10
81.73609617097223
 20
-145.0175048465581
 30
0.0
 10
81.9810424599735
 20
-145.0175048465581
 30
0.0
 10
82.20945229064556
 20
-145.2038845123101
 30
0.0
 10
82.20945229064556
 20
-145.5170436919194
 30
0.0
 10
82.20945229064556
 20
-145.8343369861109
 30
0.0
 10
81.99327254894612
 20
-146.0689479886564
 30
0.0
 10
81.70147296134547
 20
-146.0689479886564
 30
0.0
  0
HATCH
  5
9A
330
93
100
AcDbEntity
  8
_U+30EC_U+30A4_U+30E4_U+30FC 1
 62
   179
420
  2234388
100
AcDbHatch
 10
0.0
 20
0.0
 30
0.0
210
0.0
220
0.0
230
1.0
  2
SOLID
 70
     1
 71
     0
 91
        1
 92
        1
 93
        1
 72
     4
 94
        3
 73
     0
 74
     1
 95
       53
 96
       49
 40
0.0
 40
0.0
 40
0.0
 40
0.0
 40
1.0
 40
1.0
 40
1.0
 40
2.0
 40
2.0
 40
2.0
 40
3.0
 40
3.0
 40
3.0
 40
4.0
 40
4.0
 40
4.0
 40
5.0
 40
5.0
 40
5.0
 40
6.0
 40
6.0
 40
6.0
 40
7.0
 40
7.0
 40
7.0
 40
8.0
 40
8.0
 40
8.0
 40
9.0
 40
9.0
 40
9.0
 40
10.0
 40
10.0
 40
10.0
 40
11.0
 40
11.0
 40
11.0
 40
12.0
 40
12.0
 40
12.0
 40
13.0
 40
13.0
 40
13.0
 40
14.0
 40
14.0
 40
14.0
 40
15.0
 40
15.0
 40
15.0
 40
16.0
 40
16.0
 40
16.0
 40
16.0
 10
81.70147296134547
 20
-146.0689479886564
 10
81.6260253702185
 20
-146.0689479886564
 10
81.52801240366314
 20
-146.0520670207787
 10
81.43017169188204
 20
-145.9886772638501
 10
81.26291230607316
 20
-145.8787787178706
 10
81.24241398793593
 20
-145.7475205798826
 10
81.2241549818641
 20
-145.6396890911942
 10
81.2241549818641
 20
-145.6396890911942
 10
81.43826766627238
 20
-145.6396890911942
 10
81.43826766627238
 20
-145.6396890911942
 10
81.49132213674523
 20
-145.8384711006932
 10
81.61379528124586
 20
-145.8680989218663
 10
81.70354001863662
 20
-145.8680989218663
 10
81.83807099733562
 20
-145.8680989218663
 10
81.98500431978152
 20
-145.7685356623426
 10
81.98500431978152
 20
-145.5359917170882
 10
81.98500431978152
 20
-145.2800211225342
 10
81.81171601687346
 20
-145.2100856841836
 10
81.69527178947202
 20
-145.2100856841836
 10
81.66478269442756
 20
-145.2100856841836
 10
81.52801240366314
 20
-145.2100856841836
 10
81.44240178085468
 20
-145.3392767648805
 10
81.44240178085468
 20
-145.3392767648805
 10
81.27307533775465
 20
-145.3203287397116
 10
81.27307533775465
 20
-145.3203287397116
 10
81.27307533775465
 20
-145.3203287397116
 10
81.38934731038184
 20
-144.4738687789857
 10
81.38934731038184
 20
-144.4738687789857
 10
81.38934731038184
 20
-144.4738687789857
 10
82.14003361661777
 20
-144.4738687789857
 10
82.14003361661777
 20
-144.4738687789857
 10
82.14003361661777
 20
-144.4738687789857
 10
82.14003361661777
 20
-144.6685166739023
 10
82.14003361661777
 20
-144.6685166739023
 10
82.14003361661777
 20
-144.6685166739023
 10
81.54644366450923
 20
-144.6685166739023
 10
81.54644366450923
 20
-144.6685166739023
 10
81.54644366450923
 20
-144.6685166739023
 10
81.4832261623549
 20
-145.091574399491
 10
81.4832261623549
 20
-145.091574399491
 10
81.54230954992693
 20
-145.0578124637356
 10
81.6218912556362
 20
-145.0175048465581
 10
81.73609617097223
 20
-145.0175048465581
 10
81.9810424599735
 20
-145.0175048465581
 10
82.20945229064556
 20
-145.2038845123101
 10
82.20945229064556
 20
-145.5170436919194
 10
82.20945229064556
 20
-145.8343369861109
 10
81.99327254894612
 20
-146.0689479886564
 10
81.70147296134547
 20
-146.0689479886564
 97
        0
 97
        0
 75
     2
 76
     1
 98
        0
  0
ENDBLK
  5
96
330
93
100
AcDbEntity
  8
0
100
AcDbBlockEnd
  0
BLOCK
  5
AD
330
AB
100
AcDbEntity
  8
0
100
AcDbBlockBegin
  2
block 5
 70
     0
 10
0.0
 20
0.0
 30
0.0
  3
block 5
  1

  0
SPLINE
  5
AF
330
AB
100
AcDbEntity
  8
_U+30EC_U+30A4_U+30E4_U+30FC 1
370
     0
100
AcDbSpline
210
0.0
220
0.0
230
1.0
 70
    11
 71
     3
 72
    26
 73
    22
 74
     0
 42
0.0000000001
 43
0.0000000001
 12
1.0
 22
0.0
 32
0.0
 13
1.0
 23
0.0
 33
0.0
 40
0.0
 40
0.0
 40
0.0
 40
0.0
 40
1.0
 40
1.0
 40
1.0
 40
2.0
 40
2.0
 40
2.0
 40
3.0
 40
3.0
 40
3.0
 40
4.0
 40
4.0
 40
4.0
 40
5.0
 40
5.0
 40
5.0
 40
6.0
 40
6.0
 40
6.0
 40
7.0
 40
7.0
 40
7.0
 40
7.0
 10
105.86020505166
 20
-118.5867322837214
 30
0.0
 10
105.86020505166
 20
-118.5867322837214
 30
0.0
 10
104.7560519486374
 20
-118.5867322837214
 30
0.0
 10
104.7560519486374
 20
-118.5867322837214
 30
0.0
 10
104.7560519486374
 20
-118.5867322837214
 30
0.0
 10
104.7560519486374
 20
-118.9050591065585
 30
0.0
 10
104.7560519486374
 20
-118.9050591065585
 30
0.0
 10
104.7560519486374
 20
-118.9050591065585
 30
0.0
 10
104.6079128427716
 20
-118.9050591065585
 30
0.0
 10
104.6079128427716
 20
-118.9050591065585
 30
0.0
 10
104.5930989321851
 20
-118.5846652264302
 30
0.0
 10
104.4301459157328
 20
-118.539878985122
 30
0.0
 10
104.3157687456224
 20
-118.5112846925944
 30
0.0
 10
104.3157687456224
 20
-118.5112846925944
 30
0.0
 10
104.3157687456224
 20
-118.3703802872477
 30
0.0
 10
104.3157687456224
 20
-118.3703802872477
 30
0.0
 10
104.3157687456224
 20
-118.3703802872477
 30
0.0
 10
105.86020505166
 20
-118.3703802872477
 30
0.0
 10
105.86020505166
 20
-118.3703802872477
 30
0.0
 10
105.86020505166
 20
-118.3703802872477
 30
0.0
 10
105.86020505166
 20
-118.5867322837214
 30
0.0
 10
105.86020505166
 20
-118.5867322837214
 30
0.0
  0
HATCH
  5
B0
330
AB
100
AcDbEntity
  8
_U+30EC_U+30A4_U+30E4_U+30FC 1
 62
   179
420
  2234388
100
AcDbHatch
 10
0.0
 20
0.0
 30
0.0
210
0.0
220
0.0
230
1.0
  2
SOLID
 70
     1
 71
     0
 91
        1
 92
        1
 93
        1
 72
     4
 94
        3
 73
     0
 74
     1
 95
       26
 96
       22
 40
0.0
 40
0.0
 40
0.0
 40
0.0
 40
1.0
 40
1.0
 40
1.0
 40
2.0
 40
2.0
 40
2.0
 40
3.0
 40
3.0
 40
3.0
 40
4.0
 40
4.0
 40
4.0
 40
5.0
 40
5.0
 40
5.0
 40
6.0
 40
6.0
 40
6.0
 40
7.0
 40
7.0
 40
7.0
 40
7.0
 10
105.86020505166
 20
-118.5867322837214
 10
105.86020505166
 20
-118.5867322837214
 10
104.7560519486374
 20
-118.5867322837214
 10
104.7560519486374
 20
-118.5867322837214
 10
104.7560519486374
 20
-118.5867322837214
 10
104.7560519486374
 20
-118.9050591065585
 10
104.7560519486374
 20
-118.9050591065585
 10
104.7560519486374
 20
-118.9050591065585
 10
104.6079128427716
 20
-118.9050591065585
 10
104.6079128427716
 20
-118.9050591065585
 10
104.5930989321851
 20
-118.5846652264302
 10
104.4301459157328
 20
-118.539878985122
 10
104.3157687456224
 20
-118.5112846925944
 10
104.3157687456224
 20
-118.5112846925944
 10
104.3157687456224
 20
-118.3703802872477
 10
104.3157687456224
 20
-118.3703802872477
 10
104.3157687456224
 20
-118.3703802872477
 10
105.86020505166
 20
-118.3703802872477
 10
105.86020505166
 20
-118.3703802872477
 10
105.86020505166
 20
-118.3703802872477
 10
105.86020505166
 20
-118.5867322837214
 10
105.86020505166
 20
-118.5867322837214
 97
        0
 97
        0
 75
     2
 76
     1
 98
        0
  0
POLYLINE
  5
B1
330
AB
100
AcDbEntity
  8
_U+30EC_U+30A4_U+30E4_U+30FC 1
370
     0
100
AcDb2dPolyline
 66
     1
 10
0.0
 20
0.0
 30
0.0
  0
VERTEX
  5
B2
330
B1
100
AcDbEntity
  8
_U+30EC_U+30A4_U+30E4_U+30FC 1
370
     0
100
AcDbVertex
100
AcDb2dVertex
 10
105.86020505166
 20
-117.830533824709
 30
0.0
  0
VERTEX
  5
B3
330
B1
100
AcDbEntity
  8
_U+30EC_U+30A4_U+30E4_U+30FC 1
370
     0
100
AcDbVertex
100
AcDb2dVertex
 10
105.6083685716882
 20
-117.830533824709
 30
0.0
  0
VERTEX
  5
B4
330
B1
100
AcDbEntity
  8
_U+30EC_U+30A4_U+30E4_U+30FC 1
370
     0
100
AcDbVertex
100
AcDb2dVertex
 10
105.6083685716882
 20
-117.5879991025475
 30
0.0
  0
VERTEX
  5
B5
330
B1
100
AcDbEntity
  8
_U+30EC_U+30A4_U+30E4_U+30FC 1
370
     0
100
AcDbVertex
100
AcDb2dVertex
 10
105.86020505166
 20
-117.5879991025475
 30
0.0
  0
VERTEX
  5
B6
330
B1
100
AcDbEntity
  8
_U+30EC_U+30A4_U+30E4_U+30FC 1
370
     0
100
AcDbVertex
100
AcDb2dVertex
 10
105.86020505166
 20
-117.830533824709
 30
0.0
  0
SEQEND
  5
B7
330
B1
100
AcDbEntity
  8
_U+30EC_U+30A4_U+30E4_U+30FC 1
370
     0
  0
HATCH
  5
B8
330
AB
100
AcDbEntity
  8
_U+30EC_U+30A4_U+30E4_U+30FC 1
 62
   179
420
  2234388
100
AcDbHatch
 10
0.0
 20
0.0
 30
0.0
210
0.0
220
0.0
230
1.0
  2
SOLID
 70
     1
 71
     0
 91
        1
 92
        1
 93
        4
 72
     1
 10
105.86020505166
 20
-117.830533824709
 11
105.6083685716882
 21
-117.830533824709
 72
     1
 10
105.6083685716882
 20
-117.830533824709
 11
105.6083685716882
 21
-117.5879991025475
 72
     1
 10
105.6083685716882
 20
-117.5879991025475
 11
105.86020505166
 21
-117.5879991025475
 72
     1
 10
105.86020505166
 20
-117.5879991025475
 11
105.86020505166
 21
-117.830533824709
 97
        0
 75
     2
 76
     1
 98
        0
  0
SPLINE
  5
B9
330
AB
100
AcDbEntity
  8
_U+30EC_U+30A4_U+30E4_U+30FC 1
370
     0
100
AcDbSpline
210
0.0
220
0.0
230
1.0
 70
    11
 71
     3
 72
    26
 73
    22
 74
     0
 42
0.0000000001
 43
0.0000000001
 12
1.0
 22
0.0
 32
0.0
 13
1.0
 23
0.0
 33
0.0
 40
0.0
 40
0.0
 40
0.0
 40
0.0
 40
1.0
 40
1.0
 40
1.0
 40
2.0
 40
2.0
 40
2.0
 40
3.0
 40
3.0
 40
3.0
 40
4.0
 40
4.0
 40
4.0
 40
5.0
 40
5.0
 40
5.0
 40
6.0
 40
6.0
 40
6.0
 40
7.0
 40
7.0
 40
7.0
 40
7.0
 10
105.86020505166
 20
-116.9255072407339
 30
0.0
 10
105.86020505166
 20
-116.9255072407339
 30
0.0
 10
104.7560519486374
 20
-116.9255072407339
 30
0.0
 10
104.7560519486374
 20
-116.9255072407339
 30
0.0
 10
104.7560519486374
 20
-116.9255072407339
 30
0.0
 10
104.7560519486374
 20
-117.243834063571
 30
0.0
 10
104.7560519486374
 20
-117.243834063571
 30
0.0
 10
104.7560519486374
 20
-117.243834063571
 30
0.0
 10
104.6079128427716
 20
-117.243834063571
 30
0.0
 10
104.6079128427716
 20
-117.243834063571
 30
0.0
 10
104.5930989321851
 20
-116.9234401834428
 30
0.0
 10
104.4301459157328
 20
-116.8786539421345
 30
0.0
 10
104.3157687456224
 20
-116.8500596496069
 30
0.0
 10
104.3157687456224
 20
-116.8500596496069
 30
0.0
 10
104.3157687456224
 20
-116.7091552442602
 30
0.0
 10
104.3157687456224
 20
-116.7091552442602
 30
0.0
 10
104.3157687456224
 20
-116.7091552442602
 30
0.0
 10
105.86020505166
 20
-116.7091552442602
 30
0.0
 10
105.86020505166
 20
-116.7091552442602
 30
0.0
 10
105.86020505166
 20
-116.7091552442602
 30
0.0
 10
105.86020505166
 20
-116.9255072407339
 30
0.0
 10
105.86020505166
 20
-116.9255072407339
 30
0.0
  0
HATCH
  5
BA
330
AB
100
AcDbEntity
  8
_U+30EC_U+30A4_U+30E4_U+30FC 1
 62
   179
420
  2234388
100
AcDbHatch
 10
0.0
 20
0.0
 30
0.0
210
0.0
220
0.0
230
1.0
  2
SOLID
 70
     1
 71
     0
 91
        1
 92
        1
 93
        1
 72
     4
 94
        3
 73
     0
 74
     1
 95
       26
 96
       22
 40
0.0
 40
0.0
 40
0.0
 40
0.0
 40
1.0
 40
1.0
 40
1.0
 40
2.0
 40
2.0
 40
2.0
 40
3.0
 40
3.0
 40
3.0
 40
4.0
 40
4.0
 40
4.0
 40
5.0
 40
5.0
 40
5.0
 40
6.0
 40
6.0
 40
6.0
 40
7.0
 40
7.0
 40
7.0
 40
7.0
 10
105.86020505166
 20
-116.9255072407339
 10
105.86020505166
 20
-116.9255072407339
 10
104.7560519486374
 20
-116.9255072407339
 10
104.7560519486374
 20
-116.9255072407339
 10
104.7560519486374
 20
-116.9255072407339
 10
104.7560519486374
 20
-117.243834063571
 10
104.7560519486374
 20
-117.243834063571
 10
104.7560519486374
 20
-117.243834063571
 10
104.6079128427716
 20
-117.243834063571
 10
104.6079128427716
 20
-117.243834063571
 10
104.5930989321851
 20
-116.9234401834428
 10
104.4301459157328
 20
-116.8786539421345
 10
104.3157687456224
 20
-116.8500596496069
 10
104.3157687456224
 20
-116.8500596496069
 10
104.3157687456224
 20
-116.7091552442602
 10
104.3157687456224
 20
-116.7091552442602
 10
104.3157687456224
 20
-116.7091552442602
 10
105.86020505166
 20
-116.7091552442602
 10
105.86020505166
 20
-116.7091552442602
 10
105.86020505166
 20
-116.7091552442602
 10
105.86020505166
 20
-116.9255072407339
 10
105.86020505166
 20
-116.9255072407339
 97
        0
 97
        0
 75
     2
 76
     1
 98
        0
  0
ENDBLK
  5
AE
330
AB
100
AcDbEntity
  8
0
100
AcDbBlockEnd
  0
BLOCK
  5
C9
330
C7
100
AcDbEntity
  8
0
100
AcDbBlockBegin
  2
block 6
 70
     0
 10
0.0
 20
0.0
 30
0.0
  3
block 6
  1

  0
SPLINE
  5
CB
330
C7
100
AcDbEntity
  8
_U+30EC_U+30A4_U+30E4_U+30FC 1
370
     0
100
AcDbSpline
210
0.0
220
0.0
230
1.0
 70
    11
 71
     3
 72
    62
 73
    58
 74
     0
 42
0.0000000001
 43
0.0000000001
 12
1.0
 22
0.0
 32
0.0
 13
1.0
 23
0.0
 33
0.0
 40
0.0
 40
0.0
 40
0.0
 40
0.0
 40
1.0
 40
1.0
 40
1.0
 40
2.0
 40
2.0
 40
2.0
 40
3.0
 40
3.0
 40
3.0
 40
4.0
 40
4.0
 40
4.0
 40
5.0
 40
5.0
 40
5.0
 40
6.0
 40
6.0
 40
6.0
 40
7.0
 40
7.0
 40
7.0
 40
8.0
 40
8.0
 40
8.0
 40
9.0
 40
9.0
 40
9.0
 40
10.0
 40
10.0
 40
10.0
 40
11.0
 40
11.0
 40
11.0
 40
12.0
 40
12.0
 40
12.0
 40
13.0
 40
13.0
 40
13.0
 40
14.0
 40
14.0
 40
14.0
 40
15.0
 40
15.0
 40
15.0
 40
16.0
 40
16.0
 40
16.0
 40
17.0
 40
17.0
 40
17.0
 40
18.0
 40
18.0
 40
18.0
 40
19.0
 40
19.0
 40
19.0
 40
19.0
 10
88.07817244976866
 20
-112.4687594662405
 30
0.0
 10
87.98618840031249
 20
-112.4687594662405
 30
0.0
 10
87.77603757571224
 20
-112.4475721290062
 30
0.0
 10
87.65580374327702
 20
-112.2613647180284
 30
0.0
 10
87.58414575718383
 20
-112.1492268599835
 30
0.0
 10
87.58035615215006
 20
-112.0498358552341
 30
0.0
 10
87.57622203756776
 20
-111.9652587610712
 30
0.0
 10
87.57622203756776
 20
-111.9652587610712
 30
0.0
 10
87.78843991945915
 20
-111.9652587610712
 30
0.0
 10
87.78843991945915
 20
-111.9652587610712
 30
0.0
 10
87.7905069767503
 20
-112.0393283140041
 30
0.0
 10
87.80049775365752
 20
-112.2741115713238
 30
0.0
 10
88.07403833518636
 20
-112.2741115713238
 30
0.0
 10
88.20667451136848
 20
-112.2741115713238
 30
0.0
 10
88.35343557904012
 20
-112.2043483877475
 30
0.0
 10
88.35343557904012
 20
-111.9757663023012
 30
0.0
 10
88.35343557904012
 20
-111.859494329674
 30
0.0
 10
88.31657305734794
 20
-111.8107462285577
 30
0.0
 10
88.28625621707775
 20
-111.7790513500934
 30
0.0
 10
88.21459823098455
 20
-111.7049817971606
 30
0.0
 10
88.10263262771393
 20
-111.6924071986394
 30
0.0
 10
88.04957815724109
 20
-111.6924071986394
 30
0.0
 10
88.03097464162073
 20
-111.6924071986394
 30
0.0
 10
87.99652368676823
 20
-111.6944742559306
 30
0.0
 10
87.96999645153181
 20
-111.6986083705129
 30
0.0
 10
87.96999645153181
 20
-111.6986083705129
 30
0.0
 10
87.96999645153181
 20
-111.5039604755962
 30
0.0
 10
87.96999645153181
 20
-111.5039604755962
 30
0.0
 10
88.00651446367546
 20
-111.5103339022439
 30
0.0
 10
88.04751109994993
 20
-111.5125732143094
 30
0.0
 10
88.05371227182339
 20
-111.5125732143094
 30
0.0
 10
88.11675751920346
 20
-111.5125732143094
 30
0.0
 10
88.30864933773186
 20
-111.4913858770751
 30
0.0
 10
88.30864933773186
 20
-111.2543633076899
 30
0.0
 10
88.30864933773186
 20
-111.0767686354253
 30
0.0
 10
88.1822143334232
 20
-111.0216471076613
 30
0.0
 10
88.0761053924775
 20
-111.0216471076613
 30
0.0
 10
87.8208238170205
 20
-111.0216471076613
 30
0.0
 10
87.81290009740442
 20
-111.2543633076899
 30
0.0
 10
87.80876598282212
 20
-111.3263658033316
 30
0.0
 10
87.80876598282212
 20
-111.3263658033316
 30
0.0
 10
87.6127400497114
 20
-111.3263658033316
 30
0.0
 10
87.6127400497114
 20
-111.3263658033316
 30
0.0
 10
87.621008278876
 20
-111.2014810919913
 30
0.0
 10
87.64753551411242
 20
-110.8249321554535
 30
0.0
 10
88.08816322667587
 20
-110.8249321554535
 30
0.0
 10
88.30451522314956
 20
-110.8249321554535
 30
0.0
 10
88.53705916840393
 20
-110.951883924085
 30
0.0
 10
88.53705916840393
 20
-111.2479898810422
 30
0.0
 10
88.53705916840393
 20
-111.4341972920199
 30
0.0
 10
88.44541962849628
 20
-111.5167073288917
 30
0.0
 10
88.34930146445782
 20
-111.5780300285291
 30
0.0
 10
88.40855710680411
 20
-111.6055907924111
 30
0.0
 10
88.58391246700333
 20
-111.6860337719917
 30
0.0
 10
88.58391246700333
 20
-111.96319170378
 30
0.0
 10
88.58391246700333
 20
-112.3016723352058
 30
0.0
 10
88.34516734987552
 20
-112.4687594662405
 30
0.0
 10
88.07817244976866
 20
-112.4687594662405
 30
0.0
  0
HATCH
  5
CC
330
C7
100
AcDbEntity
  8
_U+30EC_U+30A4_U+30E4_U+30FC 1
 62
   179
420
  2234388
100
AcDbHatch
 10
0.0
 20
0.0
 30
0.0
210
0.0
220
0.0
230
1.0
  2
SOLID
 70
     1
 71
     0
 91
        1
 92
        1
 93
        1
 72
     4
 94
        3
 73
     0
 74
     1
 95
       62
 96
       58
 40
0.0
 40
0.0
 40
0.0
 40
0.0
 40
1.0
 40
1.0
 40
1.0
 40
2.0
 40
2.0
 40
2.0
 40
3.0
 40
3.0
 40
3.0
 40
4.0
 40
4.0
 40
4.0
 40
5.0
 40
5.0
 40
5.0
 40
6.0
 40
6.0
 40
6.0
 40
7.0
 40
7.0
 40
7.0
 40
8.0
 40
8.0
 40
8.0
 40
9.0
 40
9.0
 40
9.0
 40
10.0
 40
10.0
 40
10.0
 40
11.0
 40
11.0
 40
11.0
 40
12.0
 40
12.0
 40
12.0
 40
13.0
 40
13.0
 40
13.0
 40
14.0
 40
14.0
 40
14.0
 40
15.0
 40
15.0
 40
15.0
 40
16.0
 40
16.0
 40
16.0
 40
17.0
 40
17.0
 40
17.0
 40
18.0
 40
18.0
 40
18.0
 40
19.0
 40
19.0
 40
19.0
 40
19.0
 10
88.07817244976866
 20
-112.4687594662405
 10
87.98618840031249
 20
-112.4687594662405
 10
87.77603757571224
 20
-112.4475721290062
 10
87.65580374327702
 20
-112.2613647180284
 10
87.58414575718383
 20
-112.1492268599835
 10
87.58035615215006
 20
-112.0498358552341
 10
87.57622203756776
 20
-111.9652587610712
 10
87.57622203756776
 20
-111.9652587610712
 10
87.78843991945915
 20
-111.9652587610712
 10
87.78843991945915
 20
-111.9652587610712
 10
87.7905069767503
 20
-112.0393283140041
 10
87.80049775365752
 20
-112.2741115713238
 10
88.07403833518636
 20
-112.2741115713238
 10
88.20667451136848
 20
-112.2741115713238
 10
88.35343557904012
 20
-112.2043483877475
 10
88.35343557904012
 20
-111.9757663023012
 10
88.35343557904012
 20
-111.859494329674
 10
88.31657305734794
 20
-111.8107462285577
 10
88.28625621707775
 20
-111.7790513500934
 10
88.21459823098455
 20
-111.7049817971606
 10
88.10263262771393
 20
-111.6924071986394
 10
88.04957815724109
 20
-111.6924071986394
 10
88.03097464162073
 20
-111.6924071986394
 10
87.99652368676823
 20
-111.6944742559306
 10
87.96999645153181
 20
-111.6986083705129
 10
87.96999645153181
 20
-111.6986083705129
 10
87.96999645153181
 20
-111.5039604755962
 10
87.96999645153181
 20
-111.5039604755962
 10
88.00651446367546
 20
-111.5103339022439
 10
88.04751109994993
 20
-111.5125732143094
 10
88.05371227182339
 20
-111.5125732143094
 10
88.11675751920346
 20
-111.5125732143094
 10
88.30864933773186
 20
-111.4913858770751
 10
88.30864933773186
 20
-111.2543633076899
 10
88.30864933773186
 20
-111.0767686354253
 10
88.1822143334232
 20
-111.0216471076613
 10
88.0761053924775
 20
-111.0216471076613
 10
87.8208238170205
 20
-111.0216471076613
 10
87.81290009740442
 20
-111.2543633076899
 10
87.80876598282212
 20
-111.3263658033316
 10
87.80876598282212
 20
-111.3263658033316
 10
87.6127400497114
 20
-111.3263658033316
 10
87.6127400497114
 20
-111.3263658033316
 10
87.621008278876
 20
-111.2014810919913
 10
87.64753551411242
 20
-110.8249321554535
 10
88.08816322667587
 20
-110.8249321554535
 10
88.30451522314956
 20
-110.8249321554535
 10
88.53705916840393
 20
-110.951883924085
 10
88.53705916840393
 20
-111.2479898810422
 10
88.53705916840393
 20
-111.4341972920199
 10
88.44541962849628
 20
-111.5167073288917
 10
88.34930146445782
 20
-111.5780300285291
 10
88.40855710680411
 20
-111.6055907924111
 10
88.58391246700333
 20
-111.6860337719917
 10
88.58391246700333
 20
-111.96319170378
 10
88.58391246700333
 20
-112.3016723352058
 10
88.34516734987552
 20
-112.4687594662405
 10
88.07817244976866
 20
-112.4687594662405
 97
        0
 97
        0
 75
     2
 76
     1
 98
        0
  0
SPLINE
  5
CD
330
C7
100
AcDbEntity
  8
_U+30EC_U+30A4_U+30E4_U+30FC 1
370
     0
100
AcDbSpline
210
0.0
220
0.0
230
1.0
 70
    11
 71
     3
 72
    29
 73
    25
 74
     0
 42
0.0000000001
 43
0.0000000001
 12
1.0
 22
0.0
 32
0.0
 13
1.0
 23
0.0
 33
0.0
 40
0.0
 40
0.0
 40
0.0
 40
0.0
 40
1.0
 40
1.0
 40
1.0
 40
2.0
 40
2.0
 40
2.0
 40
3.0
 40
3.0
 40
3.0
 40
4.0
 40
4.0
 40
4.0
 40
5.0
 40
5.0
 40
5.0
 40
6.0
 40
6.0
 40
6.0
 40
7.0
 40
7.0
 40
7.0
 40
8.0
 40
8.0
 40
8.0
 40
8.0
 10
89.60331622108876
 20
-112.2401773807941
 30
0.0
 10
89.49927433743422
 20
-112.4496391862973
 30
0.0
 10
89.33184269685107
 20
-112.4687594662405
 30
0.0
 10
89.21953258403192
 20
-112.4687594662405
 30
0.0
 10
89.06450328719568
 20
-112.4687594662405
 30
0.0
 10
88.92773299643126
 20
-112.4222506771896
 30
0.0
 10
88.83609345652361
 20
-112.2401773807941
 30
0.0
 10
88.73618568745137
 20
-112.0455294858775
 30
0.0
 10
88.71758217183103
 20
-111.8086791712666
 30
0.0
 10
88.71758217183103
 20
-111.6457261548143
 30
0.0
 10
88.71758217183103
 20
-111.5018934183051
 30
0.0
 10
88.73411863016022
 20
-111.2502291931076
 30
0.0
 10
88.83609345652361
 20
-111.0512749288344
 30
0.0
 10
88.94013534017816
 20
-110.8481865499789
 30
0.0
 10
89.0951646370144
 20
-110.8249321554535
 30
0.0
 10
89.21953258403192
 20
-110.8249321554535
 30
0.0
 10
89.37249482357701
 20
-110.8249321554535
 30
0.0
 10
89.51133217163259
 20
-110.8693738872132
 30
0.0
 10
89.60331622108876
 20
-111.0512749288344
 30
0.0
 10
89.69908987557871
 20
-111.2438557664599
 30
0.0
 10
89.72148299623282
 20
-111.4722655971319
 30
0.0
 10
89.72148299623282
 20
-111.6457261548143
 30
0.0
 10
89.72148299623282
 20
-111.8171196552054
 30
0.0
 10
89.70115693286985
 20
-112.0477687979429
 30
0.0
 10
89.60331622108876
 20
-112.2401773807941
 30
0.0
  0
SPLINE
  5
CE
330
C7
100
AcDbEntity
  8
_U+30EC_U+30A4_U+30E4_U+30FC 1
370
     0
100
AcDbSpline
210
0.0
220
0.0
230
1.0
 70
    11
 71
     3
 72
    17
 73
    13
 74
     0
 42
0.0000000001
 43
0.0000000001
 12
1.0
 22
0.0
 32
0.0
 13
1.0
 23
0.0
 33
0.0
 40
0.0
 40
0.0
 40
0.0
 40
0.0
 40
1.0
 40
1.0
 40
1.0
 40
2.0
 40
2.0
 40
2.0
 40
3.0
 40
3.0
 40
3.0
 40
4.0
 40
4.0
 40
4.0
 40
4.0
 10
89.21953258403192
 20
-111.017512993079
 30
0.0
 10
88.97872040961296
 20
-111.017512993079
 30
0.0
 10
88.93393416830472
 20
-111.301044351515
 30
0.0
 10
88.93393416830472
 20
-111.6457261548143
 30
0.0
 10
88.93393416830472
 20
-111.9652587610712
 30
0.0
 10
88.96872963270575
 20
-112.2741115713238
 30
0.0
 10
89.21953258403192
 20
-112.2741115713238
 30
0.0
 10
89.45827770115974
 20
-112.2741115713238
 30
0.0
 10
89.50513099975913
 20
-111.9926472701789
 30
0.0
 10
89.50513099975913
 20
-111.6457261548143
 30
0.0
 10
89.50513099975913
 20
-111.3263658033316
 30
0.0
 10
89.46861298761549
 20
-111.017512993079
 30
0.0
 10
89.21953258403192
 20
-111.017512993079
 30
0.0
  0
HATCH
  5
CF
330
C7
100
AcDbEntity
  8
_U+30EC_U+30A4_U+30E4_U+30FC 1
 62
   179
420
  2234388
100
AcDbHatch
 10
0.0
 20
0.0
 30
0.0
210
0.0
220
0.0
230
1.0
  2
SOLID
 70
     1
 71
     0
 91
        2
 92
        1
 93
        1
 72
     4
 94
        3
 73
     0
 74
     1
 95
       29
 96
       25
 40
0.0
 40
0.0
 40
0.0
 40
0.0
 40
1.0
 40
1.0
 40
1.0
 40
2.0
 40
2.0
 40
2.0
 40
3.0
 40
3.0
 40
3.0
 40
4.0
 40
4.0
 40
4.0
 40
5.0
 40
5.0
 40
5.0
 40
6.0
 40
6.0
 40
6.0
 40
7.0
 40
7.0
 40
7.0
 40
8.0
 40
8.0
 40
8.0
 40
8.0
 10
89.60331622108876
 20
-112.2401773807941
 10
89.49927433743422
 20
-112.4496391862973
 10
89.33184269685107
 20
-112.4687594662405
 10
89.21953258403192
 20
-112.4687594662405
 10
89.06450328719568
 20
-112.4687594662405
 10
88.92773299643126
 20
-112.4222506771896
 10
88.83609345652361
 20
-112.2401773807941
 10
88.73618568745137
 20
-112.0455294858775
 10
88.71758217183103
 20
-111.8086791712666
 10
88.71758217183103
 20
-111.6457261548143
 10
88.71758217183103
 20
-111.5018934183051
 10
88.73411863016022
 20
-111.2502291931076
 10
88.83609345652361
 20
-111.0512749288344
 10
88.94013534017816
 20
-110.8481865499789
 10
89.0951646370144
 20
-110.8249321554535
 10
89.21953258403192
 20
-110.8249321554535
 10
89.37249482357701
 20
-110.8249321554535
 10
89.51133217163259
 20
-110.8693738872132
 10
89.60331622108876
 20
-111.0512749288344
 10
89.69908987557871
 20
-111.2438557664599
 10
89.72148299623282
 20
-111.4722655971319
 10
89.72148299623282
 20
-111.6457261548143
 10
89.72148299623282
 20
-111.8171196552054
 10
89.70115693286985
 20
-112.0477687979429
 10
89.60331622108876
 20
-112.2401773807941
 97
        0
 97
        0
 92
        1
 93
        1
 72
     4
 94
        3
 73
     0
 74
     1
 95
       17
 96
       13
 40
0.0
 40
0.0
 40
0.0
 40
0.0
 40
1.0
 40
1.0
 40
1.0
 40
2.0
 40
2.0
 40
2.0
 40
3.0
 40
3.0
 40
3.0
 40
4.0
 40
4.0
 40
4.0
 40
4.0
 10
89.21953258403192
 20
-111.017512993079
 10
88.97872040961296
 20
-111.017512993079
 10
88.93393416830472
 20
-111.301044351515
 10
88.93393416830472
 20
-111.6457261548143
 10
88.93393416830472
 20
-111.9652587610712
 10
88.96872963270575
 20
-112.2741115713238
 10
89.21953258403192
 20
-112.2741115713238
 10
89.45827770115974
 20
-112.2741115713238
 10
89.50513099975913
 20
-111.9926472701789
 10
89.50513099975913
 20
-111.6457261548143
 10
89.50513099975913
 20
-111.3263658033316
 10
89.46861298761549
 20
-111.017512993079
 10
89.21953258403192
 20
-111.017512993079
 97
        0
 97
        0
 75
     2
 76
     1
 98
        0
  0
ENDBLK
  5
CA
330
C7
100
AcDbEntity
  8
0
100
AcDbBlockEnd
  0
BLOCK
  5
DA
330
D8
100
AcDbEntity
  8
0
100
AcDbBlockBegin
  2
block 7
 70
     0
 10
0.0
 20
0.0
 30
0.0
  3
block 7
  1

  0
SPLINE
  5
DC
330
D8
100
AcDbEntity
  8
_U+30EC_U+30A4_U+30E4_U+30FC 1
370
     0
100
AcDbSpline
210
0.0
220
0.0
230
1.0
 70
    11
 71
     3
 72
    44
 73
    40
 74
     0
 42
0.0000000001
 43
0.0000000001
 12
1.0
 22
0.0
 32
0.0
 13
1.0
 23
0.0
 33
0.0
 40
0.0
 40
0.0
 40
0.0
 40
0.0
 40
1.0
 40
1.0
 40
1.0
 40
2.0
 40
2.0
 40
2.0
 40
3.0
 40
3.0
 40
3.0
 40
4.0
 40
4.0
 40
4.0
 40
5.0
 40
5.0
 40
5.0
 40
6.0
 40
6.0
 40
6.0
 40
7.0
 40
7.0
 40
7.0
 40
8.0
 40
8.0
 40
8.0
 40
9.0
 40
9.0
 40
9.0
 40
10.0
 40
10.0
 40
10.0
 40
11.0
 40
11.0
 40
11.0
 40
12.0
 40
12.0
 40
12.0
 40
13.0
 40
13.0
 40
13.0
 40
13.0
 10
105.2783284242013
 20
-130.2211642469586
 30
0.0
 10
105.4371473260713
 20
-130.4313150715589
 30
0.0
 10
105.5112168790041
 20
-130.5212320637239
 30
0.0
 10
105.6548773607391
 20
-130.5680853623233
 30
0.0
 10
105.6548773607391
 20
-130.5680853623233
 30
0.0
 10
105.6548773607391
 20
-129.8173990560873
 30
0.0
 10
105.6548773607391
 20
-129.8173990560873
 30
0.0
 10
105.6548773607391
 20
-129.8173990560873
 30
0.0
 10
105.86020505166
 20
-129.8173990560873
 30
0.0
 10
105.86020505166
 20
-129.8173990560873
 30
0.0
 10
105.86020505166
 20
-129.8173990560873
 30
0.0
 10
105.86020505166
 20
-130.8088975367422
 30
0.0
 10
105.86020505166
 20
-130.8088975367422
 30
0.0
 10
105.502604140291
 20
-130.7782361869235
 30
0.0
 10
105.4244004727758
 20
-130.7148464299949
 30
0.0
 10
105.1260552037532
 20
-130.343465136685
 30
0.0
 10
104.9272731942543
 20
-130.0967962999411
 30
0.0
 10
104.8594048131949
 20
-130.0334065430125
 30
0.0
 10
104.7219455033334
 20
-130.0334065430125
 30
0.0
 10
104.6034342186408
 20
-130.0334065430125
 30
0.0
 10
104.4725205902013
 20
-130.1029974718145
 30
0.0
 10
104.4725205902013
 20
-130.2924777235033
 30
0.0
 10
104.4725205902013
 20
-130.543625184378
 30
0.0
 10
104.7029974781645
 20
-130.5518934135426
 30
0.0
 10
104.819441705566
 20
-130.5556830185764
 30
0.0
 10
104.819441705566
 20
-130.5556830185764
 30
0.0
 10
104.819441705566
 20
-130.7720350150501
 30
0.0
 10
104.819441705566
 20
-130.7720350150501
 30
0.0
 10
104.6923176821603
 20
-130.7637667858855
 30
0.0
 10
104.5803520788896
 20
-130.7537760089782
 30
0.0
 10
104.461840794197
 20
-130.6762613605601
 30
0.0
 10
104.3009548350359
 20
-130.5701524196144
 30
0.0
 10
104.2671928992804
 20
-130.3906629448329
 30
0.0
 10
104.2671928992804
 20
-130.2783528320138
 30
0.0
 10
104.2671928992804
 20
-130.0110134223584
 30
0.0
 10
104.4511609981928
 20
-129.8111978842139
 30
0.0
 10
104.7240125606246
 20
-129.8111978842139
 30
0.0
 10
104.9527669008451
 20
-129.8111978842139
 30
0.0
 10
105.0519856508203
 20
-129.923507997033
 30
0.0
 10
105.2783284242013
 20
-130.2211642469586
 30
0.0
  0
HATCH
  5
DD
330
D8
100
AcDbEntity
  8
_U+30EC_U+30A4_U+30E4_U+30FC 1
 62
   179
420
  2234388
100
AcDbHatch
 10
0.0
 20
0.0
 30
0.0
210
0.0
220
0.0
230
1.0
  2
SOLID
 70
     1
 71
     0
 91
        1
 92
        1
 93
        1
 72
     4
 94
        3
 73
     0
 74
     1
 95
       44
 96
       40
 40
0.0
 40
0.0
 40
0.0
 40
0.0
 40
1.0
 40
1.0
 40
1.0
 40
2.0
 40
2.0
 40
2.0
 40
3.0
 40
3.0
 40
3.0
 40
4.0
 40
4.0
 40
4.0
 40
5.0
 40
5.0
 40
5.0
 40
6.0
 40
6.0
 40
6.0
 40
7.0
 40
7.0
 40
7.0
 40
8.0
 40
8.0
 40
8.0
 40
9.0
 40
9.0
 40
9.0
 40
10.0
 40
10.0
 40
10.0
 40
11.0
 40
11.0
 40
11.0
 40
12.0
 40
12.0
 40
12.0
 40
13.0
 40
13.0
 40
13.0
 40
13.0
 10
105.2783284242013
 20
-130.2211642469586
 10
105.4371473260713
 20
-130.4313150715589
 10
105.5112168790041
 20
-130.5212320637239
 10
105.6548773607391
 20
-130.5680853623233
 10
105.6548773607391
 20
-130.5680853623233
 10
105.6548773607391
 20
-129.8173990560873
 10
105.6548773607391
 20
-129.8173990560873
 10
105.6548773607391
 20
-129.8173990560873
 10
105.86020505166
 20
-129.8173990560873
 10
105.86020505166
 20
-129.8173990560873
 10
105.86020505166
 20
-129.8173990560873
 10
105.86020505166
 20
-130.8088975367422
 10
105.86020505166
 20
-130.8088975367422
 10
105.502604140291
 20
-130.7782361869235
 10
105.4244004727758
 20
-130.7148464299949
 10
105.1260552037532
 20
-130.343465136685
 10
104.9272731942543
 20
-130.0967962999411
 10
104.8594048131949
 20
-130.0334065430125
 10
104.7219455033334
 20
-130.0334065430125
 10
104.6034342186408
 20
-130.0334065430125
 10
104.4725205902013
 20
-130.1029974718145
 10
104.4725205902013
 20
-130.2924777235033
 10
104.4725205902013
 20
-130.543625184378
 10
104.7029974781645
 20
-130.5518934135426
 10
104.819441705566
 20
-130.5556830185764
 10
104.819441705566
 20
-130.5556830185764
 10
104.819441705566
 20
-130.7720350150501
 10
104.819441705566
 20
-130.7720350150501
 10
104.6923176821603
 20
-130.7637667858855
 10
104.5803520788896
 20
-130.7537760089782
 10
104.461840794197
 20
-130.6762613605601
 10
104.3009548350359
 20
-130.5701524196144
 10
104.2671928992804
 20
-130.3906629448329
 10
104.2671928992804
 20
-130.2783528320138
 10
104.2671928992804
 20
-130.0110134223584
 10
104.4511609981928
 20
-129.8111978842139
 10
104.7240125606246
 20
-129.8111978842139
 10
104.9527669008451
 20
-129.8111978842139
 10
105.0519856508203
 20
-129.923507997033
 10
105.2783284242013
 20
-130.2211642469586
 97
        0
 97
        0
 75
     2
 76
     1
 98
        0
  0
SPLINE
  5
DE
330
D8
100
AcDbEntity
  8
_U+30EC_U+30A4_U+30E4_U+30FC 1
370
     0
100
AcDbSpline
210
0.0
220
0.0
230
1.0
 70
    11
 71
     3
 72
    26
 73
    22
 74
     0
 42
0.0000000001
 43
0.0000000001
 12
1.0
 22
0.0
 32
0.0
 13
1.0
 23
0.0
 33
0.0
 40
0.0
 40
0.0
 40
0.0
 40
0.0
 40
1.0
 40
1.0
 40
1.0
 40
2.0
 40
2.0
 40
2.0
 40
3.0
 40
3.0
 40
3.0
 40
4.0
 40
4.0
 40
4.0
 40
5.0
 40
5.0
 40
5.0
 40
6.0
 40
6.0
 40
6.0
 40
7.0
 40
7.0
 40
7.0
 40
7.0
 10
105.86020505166
 20
-129.2244981230758
 30
0.0
 10
105.86020505166
 20
-129.2244981230758
 30
0.0
 10
104.7560519486374
 20
-129.2244981230758
 30
0.0
 10
104.7560519486374
 20
-129.2244981230758
 30
0.0
 10
104.7560519486374
 20
-129.2244981230758
 30
0.0
 10
104.7560519486374
 20
-129.5428249459129
 30
0.0
 10
104.7560519486374
 20
-129.5428249459129
 30
0.0
 10
104.7560519486374
 20
-129.5428249459129
 30
0.0
 10
104.6079128427716
 20
-129.5428249459129
 30
0.0
 10
104.6079128427716
 20
-129.5428249459129
 30
0.0
 10
104.5930989321851
 20
-129.2224310657847
 30
0.0
 10
104.4301459157328
 20
-129.1776448244764
 30
0.0
 10
104.3157687456224
 20
-129.1490505319489
 30
0.0
 10
104.3157687456224
 20
-129.1490505319489
 30
0.0
 10
104.3157687456224
 20
-129.0081461266021
 30
0.0
 10
104.3157687456224
 20
-129.0081461266021
 30
0.0
 10
104.3157687456224
 20
-129.0081461266021
 30
0.0
 10
105.86020505166
 20
-129.0081461266021
 30
0.0
 10
105.86020505166
 20
-129.0081461266021
 30
0.0
 10
105.86020505166
 20
-129.0081461266021
 30
0.0
 10
105.86020505166
 20
-129.2244981230758
 30
0.0
 10
105.86020505166
 20
-129.2244981230758
 30
0.0
  0
HATCH
  5
DF
330
D8
100
AcDbEntity
  8
_U+30EC_U+30A4_U+30E4_U+30FC 1
 62
   179
420
  2234388
100
AcDbHatch
 10
0.0
 20
0.0
 30
0.0
210
0.0
220
0.0
230
1.0
  2
SOLID
 70
     1
 71
     0
 91
        1
 92
        1
 93
        1
 72
     4
 94
        3
 73
     0
 74
     1
 95
       26
 96
       22
 40
0.0
 40
0.0
 40
0.0
 40
0.0
 40
1.0
 40
1.0
 40
1.0
 40
2.0
 40
2.0
 40
2.0
 40
3.0
 40
3.0
 40
3.0
 40
4.0
 40
4.0
 40
4.0
 40
5.0
 40
5.0
 40
5.0
 40
6.0
 40
6.0
 40
6.0
 40
7.0
 40
7.0
 40
7.0
 40
7.0
 10
105.86020505166
 20
-129.2244981230758
 10
105.86020505166
 20
-129.2244981230758
 10
104.7560519486374
 20
-129.2244981230758
 10
104.7560519486374
 20
-129.2244981230758
 10
104.7560519486374
 20
-129.2244981230758
 10
104.7560519486374
 20
-129.5428249459129
 10
104.7560519486374
 20
-129.5428249459129
 10
104.7560519486374
 20
-129.5428249459129
 10
104.6079128427716
 20
-129.5428249459129
 10
104.6079128427716
 20
-129.5428249459129
 10
104.5930989321851
 20
-129.2224310657847
 10
104.4301459157328
 20
-129.1776448244764
 10
104.3157687456224
 20
-129.1490505319489
 10
104.3157687456224
 20
-129.1490505319489
 10
104.3157687456224
 20
-129.0081461266021
 10
104.3157687456224
 20
-129.0081461266021
 10
104.3157687456224
 20
-129.0081461266021
 10
105.86020505166
 20
-129.0081461266021
 10
105.86020505166
 20
-129.0081461266021
 10
105.86020505166
 20
-129.0081461266021
 10
105.86020505166
 20
-129.2244981230758
 10
105.86020505166
 20
-129.2244981230758
 97
        0
 97
        0
 75
     2
 76
     1
 98
        0
  0
POLYLINE
  5
E0
330
D8
100
AcDbEntity
  8
_U+30EC_U+30A4_U+30E4_U+30FC 1
370
     0
100
AcDb2dPolyline
 66
     1
 10
0.0
 20
0.0
 30
0.0
  0
VERTEX
  5
E1
330
E0
100
AcDbEntity
  8
_U+30EC_U+30A4_U+30E4_U+30FC 1
370
     0
100
AcDbVertex
100
AcDb2dVertex
 10
105.86020505166
 20
-128.4682996640635
 30
0.0
  0
VERTEX
  5
E2
330
E0
100
AcDbEntity
  8
_U+30EC_U+30A4_U+30E4_U+30FC 1
370
     0
100
AcDbVertex
100
AcDb2dVertex
 10
105.6083685716882
 20
-128.4682996640635
 30
0.0
  0
VERTEX
  5
E3
330
E0
100
AcDbEntity
  8
_U+30EC_U+30A4_U+30E4_U+30FC 1
370
     0
100
AcDbVertex
100
AcDb2dVertex
 10
105.6083685716882
 20
-128.2257649419019
 30
0.0
  0
VERTEX
  5
E4
330
E0
100
AcDbEntity
  8
_U+30EC_U+30A4_U+30E4_U+30FC 1
370
     0
100
AcDbVertex
100
AcDb2dVertex
 10
105.86020505166
 20
-128.2257649419019
 30
0.0
  0
VERTEX
  5
E5
330
E0
100
AcDbEntity
  8
_U+30EC_U+30A4_U+30E4_U+30FC 1
370
     0
100
AcDbVertex
100
AcDb2dVertex
 10
105.86020505166
 20
-128.4682996640635
 30
0.0
  0
SEQEND
  5
E6
330
E0
100
AcDbEntity
  8
_U+30EC_U+30A4_U+30E4_U+30FC 1
370
     0
  0
HATCH
  5
E7
330
D8
100
AcDbEntity
  8
_U+30EC_U+30A4_U+30E4_U+30FC 1
 62
   179
420
  2234388
100
AcDbHatch
 10
0.0
 20
0.0
 30
0.0
210
0.0
220
0.0
230
1.0
  2
SOLID
 70
     1
 71
     0
 91
        1
 92
        1
 93
        4
 72
     1
 10
105.86020505166
 20
-128.4682996640635
 11
105.6083685716882
 21
-128.4682996640635
 72
     1
 10
105.6083685716882
 20
-128.4682996640635
 11
105.6083685716882
 21
-128.2257649419019
 72
     1
 10
105.6083685716882
 20
-128.2257649419019
 11
105.86020505166
 21
-128.2257649419019
 72
     1
 10
105.86020505166
 20
-128.2257649419019
 11
105.86020505166
 21
-128.4682996640635
 97
        0
 75
     2
 76
     1
 98
        0
  0
SPLINE
  5
E8
330
D8
100
AcDbEntity
  8
_U+30EC_U+30A4_U+30E4_U+30FC 1
370
     0
100
AcDbSpline
210
0.0
220
0.0
230
1.0
 70
    11
 71
     3
 72
    53
 73
    49
 74
     0
 42
0.0000000001
 43
0.0000000001
 12
1.0
 22
0.0
 32
0.0
 13
1.0
 23
0.0
 33
0.0
 40
0.0
 40
0.0
 40
0.0
 40
0.0
 40
1.0
 40
1.0
 40
1.0
 40
2.0
 40
2.0
 40
2.0
 40
3.0
 40
3.0
 40
3.0
 40
4.0
 40
4.0
 40
4.0
 40
5.0
 40
5.0
 40
5.0
 40
6.0
 40
6.0
 40
6.0
 40
7.0
 40
7.0
 40
7.0
 40
8.0
 40
8.0
 40
8.0
 40
9.0
 40
9.0
 40
9.0
 40
10.0
 40
10.0
 40
10.0
 40
11.0
 40
11.0
 40
11.0
 40
12.0
 40
12.0
 40
12.0
 40
13.0
 40
13.0
 40
13.0
 40
14.0
 40
14.0
 40
14.0
 40
15.0
 40
15.0
 40
15.0
 40
16.0
 40
16.0
 40
16.0
 40
16.0
 10
105.9108479552931
 20
-127.5346787875608
 30
0.0
 10
105.9108479552931
 20
-127.6101263786878
 30
0.0
 10
105.8939669874154
 20
-127.7079670904688
 30
0.0
 10
105.8305772304868
 20
-127.8061523117985
 30
0.0
 10
105.7206786845073
 20
-127.9732394428331
 30
0.0
 10
105.5894205465193
 20
-127.9935655061961
 30
0.0
 10
105.481589057831
 20
-128.0121690218164
 30
0.0
 10
105.481589057831
 20
-128.0121690218164
 30
0.0
 10
105.481589057831
 20
-127.7978840826339
 30
0.0
 10
105.481589057831
 20
-127.7978840826339
 30
0.0
 10
105.6803710673299
 20
-127.744829612161
 30
0.0
 10
105.7099988885031
 20
-127.6225287224347
 30
0.0
 10
105.7099988885031
 20
-127.5326117302696
 30
0.0
 10
105.7099988885031
 20
-127.3979084967964
 30
0.0
 10
105.6104356289793
 20
-127.2511474291247
 30
0.0
 10
105.377891683725
 20
-127.2511474291247
 30
0.0
 10
105.1219210891709
 20
-127.2511474291247
 30
0.0
 10
105.0519856508203
 20
-127.4244357320328
 30
0.0
 10
105.0519856508203
 20
-127.5408799594342
 30
0.0
 10
105.0519856508203
 20
-127.571541309253
 30
0.0
 10
105.0519856508203
 20
-127.7079670904688
 30
0.0
 10
105.1811767315172
 20
-127.7937499680516
 30
0.0
 10
105.1811767315172
 20
-127.7937499680516
 30
0.0
 10
105.1622287063483
 20
-127.9632486659259
 30
0.0
 10
105.1622287063483
 20
-127.9632486659259
 30
0.0
 10
105.1622287063483
 20
-127.9632486659259
 30
0.0
 10
104.3157687456224
 20
-127.8468044385244
 30
0.0
 10
104.3157687456224
 20
-127.8468044385244
 30
0.0
 10
104.3157687456224
 20
-127.8468044385244
 30
0.0
 10
104.3157687456224
 20
-127.0961181322885
 30
0.0
 10
104.3157687456224
 20
-127.0961181322885
 30
0.0
 10
104.3157687456224
 20
-127.0961181322885
 30
0.0
 10
104.5104166405391
 20
-127.0961181322885
 30
0.0
 10
104.5104166405391
 20
-127.0961181322885
 30
0.0
 10
104.5104166405391
 20
-127.0961181322885
 30
0.0
 10
104.5104166405391
 20
-127.689708084397
 30
0.0
 10
104.5104166405391
 20
-127.689708084397
 30
0.0
 10
104.5104166405391
 20
-127.689708084397
 30
0.0
 10
104.9334743661278
 20
-127.7530978413256
 30
0.0
 10
104.9334743661278
 20
-127.7530978413256
 30
0.0
 10
104.8997124303723
 20
-127.6938421989793
 30
0.0
 10
104.8594048131949
 20
-127.6142604932701
 30
0.0
 10
104.8594048131949
 20
-127.4998833231598
 30
0.0
 10
104.8594048131949
 20
-127.255281543707
 30
0.0
 10
105.0457844789469
 20
-127.0265272034864
 30
0.0
 10
105.3589436585561
 20
-127.0265272034864
 30
0.0
 10
105.6762369527476
 20
-127.0265272034864
 30
0.0
 10
105.9108479552931
 20
-127.2428791999601
 30
0.0
 10
105.9108479552931
 20
-127.5346787875608
 30
0.0
  0
HATCH
  5
E9
330
D8
100
AcDbEntity
  8
_U+30EC_U+30A4_U+30E4_U+30FC 1
 62
   179
420
  2234388
100
AcDbHatch
 10
0.0
 20
0.0
 30
0.0
210
0.0
220
0.0
230
1.0
  2
SOLID
 70
     1
 71
     0
 91
        1
 92
        1
 93
        1
 72
     4
 94
        3
 73
     0
 74
     1
 95
       53
 96
       49
 40
0.0
 40
0.0
 40
0.0
 40
0.0
 40
1.0
 40
1.0
 40
1.0
 40
2.0
 40
2.0
 40
2.0
 40
3.0
 40
3.0
 40
3.0
 40
4.0
 40
4.0
 40
4.0
 40
5.0
 40
5.0
 40
5.0
 40
6.0
 40
6.0
 40
6.0
 40
7.0
 40
7.0
 40
7.0
 40
8.0
 40
8.0
 40
8.0
 40
9.0
 40
9.0
 40
9.0
 40
10.0
 40
10.0
 40
10.0
 40
11.0
 40
11.0
 40
11.0
 40
12.0
 40
12.0
 40
12.0
 40
13.0
 40
13.0
 40
13.0
 40
14.0
 40
14.0
 40
14.0
 40
15.0
 40
15.0
 40
15.0
 40
16.0
 40
16.0
 40
16.0
 40
16.0
 10
105.9108479552931
 20
-127.5346787875608
 10
105.9108479552931
 20
-127.6101263786878
 10
105.8939669874154
 20
-127.7079670904688
 10
105.8305772304868
 20
-127.8061523117985
 10
105.7206786845073
 20
-127.9732394428331
 10
105.5894205465193
 20
-127.9935655061961
 10
105.481589057831
 20
-128.0121690218164
 10
105.481589057831
 20
-128.0121690218164
 10
105.481589057831
 20
-127.7978840826339
 10
105.481589057831
 20
-127.7978840826339
 10
105.6803710673299
 20
-127.744829612161
 10
105.7099988885031
 20
-127.6225287224347
 10
105.7099988885031
 20
-127.5326117302696
 10
105.7099988885031
 20
-127.3979084967964
 10
105.6104356289793
 20
-127.2511474291247
 10
105.377891683725
 20
-127.2511474291247
 10
105.1219210891709
 20
-127.2511474291247
 10
105.0519856508203
 20
-127.4244357320328
 10
105.0519856508203
 20
-127.5408799594342
 10
105.0519856508203
 20
-127.571541309253
 10
105.0519856508203
 20
-127.7079670904688
 10
105.1811767315172
 20
-127.7937499680516
 10
105.1811767315172
 20
-127.7937499680516
 10
105.1622287063483
 20
-127.9632486659259
 10
105.1622287063483
 20
-127.9632486659259
 10
105.1622287063483
 20
-127.9632486659259
 10
104.3157687456224
 20
-127.8468044385244
 10
104.3157687456224
 20
-127.8468044385244
 10
104.3157687456224
 20
-127.8468044385244
 10
104.3157687456224
 20
-127.0961181322885
 10
104.3157687456224
 20
-127.0961181322885
 10
104.3157687456224
 20
-127.0961181322885
 10
104.5104166405391
 20
-127.0961181322885
 10
104.5104166405391
 20
-127.0961181322885
 10
104.5104166405391
 20
-127.0961181322885
 10
104.5104166405391
 20
-127.689708084397
 10
104.5104166405391
 20
-127.689708084397
 10
104.5104166405391
 20
-127.689708084397
 10
104.9334743661278
 20
-127.7530978413256
 10
104.9334743661278
 20
-127.7530978413256
 10
104.8997124303723
 20
-127.6938421989793
 10
104.8594048131949
 20
-127.6142604932701
 10
104.8594048131949
 20
-127.4998833231598
 10
104.8594048131949
 20
-127.255281543707
 10
105.0457844789469
 20
-127.0265272034864
 10
105.3589436585561
 20
-127.0265272034864
 10
105.6762369527476
 20
-127.0265272034864
 10
105.9108479552931
 20
-127.2428791999601
 10
105.9108479552931
 20
-127.5346787875608
 97
        0
 97
        0
 75
     2
 76
     1
 98
        0
  0
ENDBLK
  5
DB
330
D8
100
AcDbEntity
  8
0
100
AcDbBlockEnd
  0
ENDSEC
  0
SECTION
  2
ENTITIES
  0
INSERT
  5
42
330
1F
100
AcDbEntity
  8
_U+30EC_U+30A4_U+30E4_U+30FC 1
100
AcDbBlockReference
  2
block 2
 10
0.0
 20
0.0
 30
0.0
  0
ENDSEC
  0
SECTION
  2
OBJECTS
  0
DICTIONARY
  5
C
330
0
100
AcDbDictionary
281
     1
  3
ACAD_GROUP
350
D
  3
ACAD_LAYOUT
350
1A
  3
ACAD_MATERIAL
350
3B
  3
ACAD_MLEADERSTYLE
350
EB
  3
ACAD_MLINESTYLE
350
17
  3
ACAD_PLOTSETTINGS
350
19
  3
ACAD_PLOTSTYLENAME
350
E
  3
ACAD_TABLESTYLE
350
EA
  3
ACAD_VISUALSTYLE
350
2A
  0
SUN
  5
3F
330
29
100
AcDbSun
 90
        1
290
     0
 63
     7
421
 16777215
 40
1.0
291
     1
 91
  2455826
 92
 54000000
292
     0
 70
     2
 71
   256
280
     1
  0
DICTIONARY
  5
D
102
{ACAD_REACTORS
330
C
102
}
330
C
100
AcDbDictionary
281
     1
  0
DICTIONARY
  5
1A
102
{ACAD_REACTORS
330
C
102
}
330
C
100
AcDbDictionary
281
     1
  3
Layout1
350
1E
  3
Layout2
350
26
  3
Model
350
22
  0
DICTIONARY
  5
3B
102
{ACAD_REACTORS
330
C
102
}
330
C
100
AcDbDictionary
281
     1
  3
ByBlock
350
3D
  3
ByLayer
350
3C
  3
Global
350
3E
  0
DICTIONARY
  5
EB
102
{ACAD_REACTORS
330
C
102
}
330
C
100
AcDbDictionary
281
     1
  0
DICTIONARY
  5
17
102
{ACAD_REACTORS
330
C
102
}
330
C
100
AcDbDictionary
281
     1
  3
Standard
350
18
  0
DICTIONARY
  5
19
102
{ACAD_REACTORS
330
C
102
}
330
C
100
AcDbDictionary
281
     1
  0
ACDBDICTIONARYWDFLT
  5
E
102
{ACAD_REACTORS
330
C
102
}
330
C
100
AcDbDictionary
281
     1
  3
Normal
350
F
100
AcDbDictionaryWithDefault
340
F
  0
DICTIONARY
  5
EA
102
{ACAD_REACTORS
330
C
102
}
330
C
100
AcDbDictionary
281
     1
  0
DICTIONARY
  5
2A
102
{ACAD_REACTORS
330
C
102
}
330
C
100
AcDbDictionary
281
     1
  3
2dWireframe
350
2F
  3
3D Hidden
350
31
  3
3dWireframe
350
30
  3
Basic
350
32
  3
Brighten
350
36
  3
ColorChange
350
3A
  3
Conceptual
350
34
  3
Dim
350
35
  3
Facepattern
350
39
  3
Flat
350
2B
  3
FlatWithEdges
350
2C
  3
Gouraud
350
2D
  3
GouraudWithEdges
350
2E
  3
Linepattern
350
38
  3
Realistic
350
33
  3
Thicken
350
37
  0
LAYOUT
  5
1E
102
{ACAD_REACTORS
330
1A
102
}
330
1A
100
AcDbPlotSettings
  1

  2
none_device
  4

  6

 40
0.0
 41
0.0
 42
0.0
 43
0.0
 44
0.0
 45
0.0
 46
0.0
 47
0.0
 48
0.0
 49
0.0
140
0.0
141
0.0
142
1.0
143
1.0
 70
   688
 72
     0
 73
     0
 74
     5
  7

 75
    16
 76
     0
 77
     2
 78
   300
147
1.0
148
0.0
149
0.0
100
AcDbLayout
  1
Layout1
 70
     1
 71
     1
 10
0.0
 20
0.0
 11
12.0
 21
9.0
 12
0.0
 22
0.0
 32
0.0
 14
1.000000000000000E+20
 24
1.000000000000000E+20
 34
1.000000000000000E+20
 15
-1.000000000000000E+20
 25
-1.000000000000000E+20
 35
-1.000000000000000E+20
146
0.0
 13
0.0
 23
0.0
 33
0.0
 16
1.0
 26
0.0
 36
0.0
 17
0.0
 27
1.0
 37
0.0
 76
     0
330
1B
  0
LAYOUT
  5
26
102
{ACAD_REACTORS
330
1A
102
}
330
1A
100
AcDbPlotSettings
  1

  2
none_device
  4

  6

 40
0.0
 41
0.0
 42
0.0
 43
0.0
 44
0.0
 45
0.0
 46
0.0
 47
0.0
 48
0.0
 49
0.0
140
0.0
141
0.0
142
1.0
143
1.0
 70
   688
 72
     0
 73
     0
 74
     5
  7

 75
    16
 76
     0
 77
     2
 78
   300
147
1.0
148
0.0
149
0.0
100
AcDbLayout
  1
Layout2
 70
     1
 71
     2
 10
0.0
 20
0.0
 11
0.0
 21
0.0
 12
0.0
 22
0.0
 32
0.0
 14
0.0
 24
0.0
 34
0.0
 15
0.0
 25
0.0
 35
0.0
146
0.0
 13
0.0
 23
0.0
 33
0.0
 16
1.0
 26
0.0
 36
0.0
 17
0.0
 27
1.0
 37
0.0
 76
     0
330
23
  0
LAYOUT
  5
22
102
{ACAD_REACTORS
330
1A
102
}
330
1A
100
AcDbPlotSettings
  1

  2
none_device
  4

  6

 40
0.0
 41
0.0
 42
0.0
 43
0.0
 44
0.0
 45
0.0
 46
0.0
 47
0.0
 48
0.0
 49
0.0
140
0.0
141
0.0
142
1.0
143
1.0
 70
  1712
 72
     0
 73
     0
 74
     0
  7

 75
     0
 76
     0
 77
     2
 78
   300
147
1.0
148
0.0
149
0.0
100
AcDbLayout
  1
Model
 70
     1
 71
     0
 10
0.0
 20
0.0
 11
12.0
 21
9.0
 12
0.0
 22
0.0
 32
0.0
 14
1.000000000000000E+20
 24
1.000000000000000E+20
 34
1.000000000000000E+20
 15
-1.000000000000000E+20
 25
-1.000000000000000E+20
 35
-1.000000000000000E+20
146
0.0
 13
0.0
 23
0.0
 33
0.0
 16
1.0
 26
0.0
 36
0.0
 17
0.0
 27
1.0
 37
0.0
 76
     0
330
1F
331
29
  0
MATERIAL
  5
3D
102
{ACAD_REACTORS
330
3B
102
}
330
3B
100
AcDbMaterial
  1
ByBlock
 72
     1
 94
      127
  0
MATERIAL
  5
3C
102
{ACAD_REACTORS
330
3B
102
}
330
3B
100
AcDbMaterial
  1
ByLayer
 72
     1
 94
      127
  0
MATERIAL
  5
3E
102
{ACAD_REACTORS
330
3B
102
}
330
3B
100
AcDbMaterial
  1
Global
 72
     1
 94
      127
  0
MLINESTYLE
  5
18
102
{ACAD_REACTORS
330
17
102
}
330
17
100
AcDbMlineStyle
  2
Standard
 70
     0
  3

 62
   256
 51
90.0
 52
90.0
 71
     2
 49
0.5
 62
   256
  6
BYLAYER
 49
-0.5
 62
   256
  6
BYLAYER
  0
ACDBPLACEHOLDER
  5
F
102
{ACAD_REACTORS
330
E
102
}
330
E
  0
VISUALSTYLE
  5
2F
102
{ACAD_REACTORS
330
2A
102
}
330
2A
100
AcDbVisualStyle
  2
2dWireframe
 70
     4
177
     2
291
     0
 71
     0
176
     1
 72
     2
176
     1
 73
     0
176
     1
 90
        0
176
     1
 40
-0.6
176
     1
 41
-30.0
176
     1
 62
     5
 63
     7
421
 16777215
176
     1
 74
     1
176
     1
 91
        4
176
     1
 64
     7
176
     1
 65
   257
176
     1
 75
     1
176
     1
175
     1
176
     1
 42
1.0
176
     1
 92
        0
176
     1
 66
   257
176
     1
 43
1.0
176
     1
 76
     1
176
     1
 77
     6
176
     1
 78
     2
176
     1
 67
     7
176
     1
 79
     5
176
     1
170
     0
176
     1
171
     0
176
     1
290
     0
176
     1
 93
        1
176
     1
 44
0.0
176
     1
173
     0
176
     1
  0
VISUALSTYLE
  5
31
102
{ACAD_REACTORS
330
2A
102
}
330
2A
100
AcDbVisualStyle
  2
3D Hidden
 70
     6
177
     2
291
     0
 71
     1
176
     1
 72
     2
176
     1
 73
     2
176
     1
 90
        0
176
     1
 40
-0.6
176
     1
 41
-30.0
176
     1
 62
     5
 63
     7
421
 16777215
176
     1
 74
     2
176
     1
 91
        2
176
     1
 64
     7
176
     1
 65
   257
176
     1
 75
     2
176
     1
175
     1
176
     1
 42
40.0
176
     1
 92
        0
176
     1
 66
   257
176
     1
 43
1.0
176
     1
 76
     1
176
     1
 77
     6
176
     1
 78
     2
176
     1
 67
     7
176
     1
 79
     3
176
     1
170
     0
176
     1
171
     0
176
     1
290
     0
176
     1
 93
        1
176
     1
 44
0.0
176
     1
173
     0
176
     1
  0
VISUALSTYLE
  5
30
102
{ACAD_REACTORS
330
2A
102
}
330
2A
100
AcDbVisualStyle
  2
3dWireframe
 70
     5
177
     2
291
     0
 71
     0
176
     1
 72
     2
176
     1
 73
     0
176
     1
 90
        0
176
     1
 40
-0.6
176
     1
 41
-30.0
176
     1
 62
     5
 63
     7
421
 16777215
176
     1
 74
     1
176
     1
 91
        4
176
     1
 64
     7
176
     1
 65
   257
176
     1
 75
     1
176
     1
175
     1
176
     1
 42
1.0
176
     1
 92
        0
176
     1
 66
   257
176
     1
 43
1.0
176
     1
 76
     1
176
     1
 77
     6
176
     1
 78
     2
176
     1
 67
     7
176
     1
 79
     5
176
     1
170
     0
176
     1
171
     0
176
     1
290
     0
176
     1
 93
        1
176
     1
 44
0.0
176
     1
173
     0
176
     1
  0
VISUALSTYLE
  5
32
102
{ACAD_REACTORS
330
2A
102
}
330
2A
100
AcDbVisualStyle
  2
Basic
 70
     7
177
     2
291
     1
 71
     1
176
     1
 72
     0
176
     1
 73
     1
176
     1
 90
        0
176
     1
 40
-0.6
176
     1
 41
-30.0
176
     1
 62
     5
 63
     7
421
 16777215
176
     1
 74
     0
176
     1
 91
        4
176
     1
 64
     7
176
     1
 65
   257
176
     1
 75
     1
176
     1
175
     1
176
     1
 42
1.0
176
     1
 92
        8
176
     1
 66
     7
176
     1
 43
1.0
176
     1
 76
     1
176
     1
 77
     6
176
     1
 78
     2
176
     1
 67
     7
176
     1
 79
     5
176
     1
170
     0
176
     1
171
     0
176
     1
290
     0
176
     1
 93
        1
176
     1
 44
0.0
176
     1
173
     0
176
     1
  0
VISUALSTYLE
  5
36
102
{ACAD_REACTORS
330
2A
102
}
330
2A
100
AcDbVisualStyle
  2
Brighten
 70
    12
177
     2
291
     1
 71
     2
176
     1
 72
     2
176
     1
 73
     0
176
     1
 90
        0
176
     1
 40
-0.6
176
     1
 41
-30.0
176
     1
 62
     5
 63
     7
421
 16777215
176
     1
 74
     1
176
     1
 91
        4
176
     1
 64
     7
176
     1
 65
   257
176
     1
 75
     1
176
     1
175
     1
176
     1
 42
1.0
176
     1
 92
        8
176
     1
 66
     7
176
     1
 43
1.0
176
     1
 76
     1
176
     1
 77
     6
176
     1
 78
     2
176
     1
 67
     7
176
     1
 79
     5
176
     1
170
     0
176
     1
171
     0
176
     1
290
     0
176
     1
 93
        1
176
     1
 44
50.0
176
     1
173
     0
176
     1
  0
VISUALSTYLE
  5
3A
102
{ACAD_REACTORS
330
2A
102
}
330
2A
100
AcDbVisualStyle
  2
ColorChange
 70
    16
177
     2
291
     1
 71
     2
176
     1
 72
     2
176
     1
 73
     3
176
     1
 90
        0
176
     1
 40
-0.6
176
     1
 41
-30.0
176
     1
 62
     5
 63
     8
421
  8421504
176
     1
 74
     1
176
     1
 91
        4
176
     1
 64
     7
176
     1
 65
   257
176
     1
 75
     1
176
     1
175
     1
176
     1
 42
1.0
176
     1
 92
        8
176
     1
 66
     8
424
  8421504
176
     1
 43
1.0
176
     1
 76
     1
176
     1
 77
     6
176
     1
 78
     2
176
     1
 67
     7
176
     1
 79
     5
176
     1
170
     0
176
     1
171
     0
176
     1
290
     0
176
     1
 93
        1
176
     1
 44
0.0
176
     1
173
     0
176
     1
  0
VISUALSTYLE
  5
34
102
{ACAD_REACTORS
330
2A
102
}
330
2A
100
AcDbVisualStyle
  2
Conceptual
 70
     9
177
     2
291
     0
 71
     3
176
     1
 72
     2
176
     1
 73
     0
176
     1
 90
        0
176
     1
 40
-0.6
176
     1
 41
-30.0
176
     1
 62
     5
 63
     7
421
 16777215
176
     1
 74
     2
176
     1
 91
        2
176
     1
 64
     7
176
     1
 65
   257
176
     1
 75
     1
176
     1
175
     1
176
     1
 42
40.0
176
     1
 92
        8
176
     1
 66
     7
176
     1
 43
1.0
176
     1
 76
     1
176
     1
 77
     6
176
     1
 78
     2
176
     1
 67
     7
176
     1
 79
     3
176
     1
170
     0
176
     1
171
     0
176
     1
290
     0
176
     1
 93
        1
176
     1
 44
0.0
176
     1
173
     0
176
     1
  0
VISUALSTYLE
  5
35
102
{ACAD_REACTORS
330
2A
102
}
330
2A
100
AcDbVisualStyle
  2
Dim
 70
    11
177
     2
291
     1
 71
     2
176
     1
 72
     2
176
     1
 73
     0
176
     1
 90
        0
176
     1
 40
-0.6
176
     1
 41
-30.0
176
     1
 62
     5
 63
     7
421
 16777215
176
     1
 74
     1
176
     1
 91
        4
176
     1
 64
     7
176
     1
 65
   257
176
     1
 75
     1
176
     1
175
     1
176
     1
 42
1.0
176
     1
 92
        8
176
     1
 66
     7
176
     1
 43
1.0
176
     1
 76
     1
176
     1
 77
     6
176
     1
 78
     2
176
     1
 67
     7
176
     1
 79
     5
176
     1
170
     0
176
     1
171
     0
176
     1
290
     0
176
     1
 93
        1
176
     1
 44
-50.0
176
     1
173
     0
176
     1
  0
VISUALSTYLE
  5
39
102
{ACAD_REACTORS
330
2A
102
}
330
2A
100
AcDbVisualStyle
  2
Facepattern
 70
    15
177
     2
291
     1
 71
     2
176
     1
 72
     2
176
     1
 73
     0
176
     1
 90
        0
176
     1
 40
-0.6
176
     1
 41
-30.0
176
     1
 62
     5
 63
     7
421
 16777215
176
     1
 74
     1
176
     1
 91
        4
176
     1
 64
     7
176
     1
 65
   257
176
     1
 75
     1
176
     1
175
     1
176
     1
 42
1.0
176
     1
 92
        8
176
     1
 66
     7
176
     1
 43
1.0
176
     1
 76
     1
176
     1
 77
     6
176
     1
 78
     2
176
     1
 67
     7
176
     1
 79
     5
176
     1
170
     0
176
     1
171
     0
176
     1
290
     0
176
     1
 93
        1
176
     1
 44
0.0
176
     1
173
     0
176
     1
  0
VISUALSTYLE
  5
2B
102
{ACAD_REACTORS
330
2A
102
}
330
2A
100
AcDbVisualStyle
  2
Flat
 70
     0
177
     2
291
     1
 71
     2
176
     1
 72
     1
176
     1
 73
     1
176
     1
 90
        2
176
     1
 40
-0.6
176
     1
 41
30.0
176
     1
 62
     5
 63
     7
421
 16777215
176
     1
 74
     0
176
     1
 91
        4
176
     1
 64
     7
176
     1
 65
   257
176
     1
 75
     1
176
     1
175
     1
176
     1
 42
1.0
176
     1
 92
        8
176
     1
 66
     7
176
     1
 43
1.0
176
     1
 76
     1
176
     1
 77
     6
176
     1
 78
     2
176
     1
 67
     7
176
     1
 79
     5
176
     1
170
     0
176
     1
171
     0
176
     1
290
     0
176
     1
 93
       13
176
     1
 44
0.0
176
     1
173
     0
176
     1
  0
VISUALSTYLE
  5
2C
102
{ACAD_REACTORS
330
2A
102
}
330
2A
100
AcDbVisualStyle
  2
FlatWithEdges
 70
     1
177
     2
291
     1
 71
     2
176
     1
 72
     1
176
     1
 73
     1
176
     1
 90
        2
176
     1
 40
-0.6
176
     1
 41
30.0
176
     1
 62
     5
 63
     7
421
 16777215
176
     1
 74
     1
176
     1
 91
        4
176
     1
 64
     7
176
     1
 65
   257
176
     1
 75
     1
176
     1
175
     1
176
     1
 42
1.0
176
     1
 92
        0
176
     1
 66
   257
176
     1
 43
1.0
176
     1
 76
     1
176
     1
 77
     6
176
     1
 78
     2
176
     1
 67
     7
176
     1
 79
     5
176
     1
170
     0
176
     1
171
     0
176
     1
290
     0
176
     1
 93
       13
176
     1
 44
0.0
176
     1
173
     0
176
     1
  0
VISUALSTYLE
  5
2D
102
{ACAD_REACTORS
330
2A
102
}
330
2A
100
AcDbVisualStyle
  2
Gouraud
 70
     2
177
     2
291
     1
 71
     2
176
     1
 72
     2
176
     1
 73
     1
176
     1
 90
        2
176
     1
 40
-0.6
176
     1
 41
30.0
176
     1
 62
     5
 63
     7
421
 16777215
176
     1
 74
     0
176
     1
 91
        4
176
     1
 64
     7
176
     1
 65
   257
176
     1
 75
     1
176
     1
175
     1
176
     1
 42
1.0
176
     1
 92
        0
176
     1
 66
     7
176
     1
 43
1.0
176
     1
 76
     1
176
     1
 77
     6
176
     1
 78
     2
176
     1
 67
     7
176
     1
 79
     5
176
     1
170
     0
176
     1
171
     0
176
     1
290
     0
176
     1
 93
       13
176
     1
 44
0.0
176
     1
173
     0
176
     1
  0
VISUALSTYLE
  5
2E
102
{ACAD_REACTORS
330
2A
102
}
330
2A
100
AcDbVisualStyle
  2
GouraudWithEdges
 70
     3
177
     2
291
     1
 71
     2
176
     1
 72
     2
176
     1
 73
     1
176
     1
 90
        2
176
     1
 40
-0.6
176
     1
 41
30.0
176
     1
 62
     5
 63
     7
421
 16777215
176
     1
 74
     1
176
     1
 91
        4
176
     1
 64
     7
176
     1
 65
   257
176
     1
 75
     1
176
     1
175
     1
176
     1
 42
1.0
176
     1
 92
        0
176
     1
 66
   257
176
     1
 43
1.0
176
     1
 76
     1
176
     1
 77
     6
176
     1
 78
     2
176
     1
 67
     7
176
     1
 79
     5
176
     1
170
     0
176
     1
171
     0
176
     1
290
     0
176
     1
 93
       13
176
     1
 44
0.0
176
     1
173
     0
176
     1
  0
VISUALSTYLE
  5
38
102
{ACAD_REACTORS
330
2A
102
}
330
2A
100
AcDbVisualStyle
  2
Linepattern
 70
    14
177
     2
291
     1
 71
     2
176
     1
 72
     2
176
     1
 73
     0
176
     1
 90
        0
176
     1
 40
-0.6
176
     1
 41
-30.0
176
     1
 62
     5
 63
     7
421
 16777215
176
     1
 74
     1
176
     1
 91
        4
176
     1
 64
     7
176
     1
 65
   257
176
     1
 75
     7
176
     1
175
     7
176
     1
 42
1.0
176
     1
 92
        8
176
     1
 66
     7
176
     1
 43
1.0
176
     1
 76
     1
176
     1
 77
     6
176
     1
 78
     2
176
     1
 67
     7
176
     1
 79
     5
176
     1
170
     0
176
     1
171
     0
176
     1
290
     0
176
     1
 93
        1
176
     1
 44
0.0
176
     1
173
     0
176
     1
  0
VISUALSTYLE
  5
33
102
{ACAD_REACTORS
330
2A
102
}
330
2A
100
AcDbVisualStyle
  2
Realistic
 70
     8
177
     2
291
     0
 71
     2
176
     1
 72
     2
176
     1
 73
     0
176
     1
 90
        0
176
     1
 40
-0.6
176
     1
 41
-30.0
176
     1
 62
     5
 63
     7
421
 16777215
176
     1
 74
     1
176
     1
 91
        0
176
     1
 64
     7
176
     1
 65
   257
176
     1
 75
     1
176
     1
175
     1
176
     1
 42
1.0
176
     1
 92
        8
176
     1
 66
     8
424
  7895160
176
     1
 43
1.0
176
     1
 76
     1
176
     1
 77
     6
176
     1
 78
     2
176
     1
 67
     7
176
     1
 79
     5
176
     1
170
     0
176
     1
171
     0
176
     1
290
     0
176
     1
 93
       13
176
     1
 44
0.0
176
     1
173
     0
176
     1
  0
VISUALSTYLE
  5
37
102
{ACAD_REACTORS
330
2A
102
}
330
2A
100
AcDbVisualStyle
  2
Thicken
 70
    13
177
     2
291
     1
 71
     2
176
     1
 72
     2
176
     1
 73
     0
176
     1
 90
        0
176
     1
 40
-0.6
176
     1
 41
-30.0
176
     1
 62
     5
 63
     7
421
 16777215
176
     1
 74
     1
176
     1
 91
        4
176
     1
 64
     7
176
     1
 65
   257
176
     1
 75
     1
176
     1
175
     1
176
     1
 42
1.0
176
     1
 92
       12
176
     1
 66
     7
176
     1
 43
1.0
176
     1
 76
     1
176
     1
 77
     6
176
     1
 78
     2
176
     1
 67
     7
176
     1
 79
     5
176
     1
170
     0
176
     1
171
     0
176
     1
290
     0
176
     1
 93
        1
176
     1
 44
0.0
176
     1
173
     0
176
     1
  0
ENDSEC
  0
EOF
