  0
SECTION
  2
HEADER
  9
$ACADVER
  1
AC1024
  9
$ACADMAINTVER
 70
     6
  9
$DWGCODEPAGE
  3
UNDEFINED
  9
$INSBASE
 10
0.0
 20
0.0
 30
0.0
  9
$EXTMIN
 10
1.000000000000000E+20
 20
1.000000000000000E+20
 30
1.000000000000000E+20
  9
$EXTMAX
 10
-1.000000000000000E+20
 20
-1.000000000000000E+20
 30
-1.000000000000000E+20
  9
$LIMMIN
 10
0.0
 20
0.0
  9
$LIMMAX
 10
12.0
 20
9.0
  9
$ORTHOMODE
 70
     0
  9
$REGENMODE
 70
     1
  9
$FILLMODE
 70
     1
  9
$QTEXTMODE
 70
     0
  9
$MIRRTEXT
 70
     1
  9
$LTSCALE
 40
1.0
  9
$ATTMODE
 70
     1
  9
$TEXTSIZE
 40
0.2
  9
$TRACEWID
 40
0.05
  9
$TEXTSTYLE
  7
Standard
  9
$CLAYER
  8
0
  9
$CELTYPE
  6
ByLayer
  9
$CECOLOR
 62
   256
  9
$CELTSCALE
 40
1.0
  9
$DISPSILH
 70
     0
  9
$DIMSCALE
 40
1.0
  9
$DIMASZ
 40
0.18
  9
$DIMEXO
 40
0.0625
  9
$DIMDLI
 40
0.38
  9
$DIMRND
 40
0.0
  9
$DIMDLE
 40
0.0
  9
$DIMEXE
 40
0.18
  9
$DIMTP
 40
0.0
  9
$DIMTM
 40
0.0
  9
$DIMTXT
 40
0.18
  9
$DIMCEN
 40
0.09
  9
$DIMTSZ
 40
0.0
  9
$DIMTOL
 70
     0
  9
$DIMLIM
 70
     0
  9
$DIMTIH
 70
     1
  9
$DIMTOH
 70
     1
  9
$DIMSE1
 70
     0
  9
$DIMSE2
 70
     0
  9
$DIMTAD
 70
     0
  9
$DIMZIN
 70
     0
  9
$DIMBLK
  1

  9
$DIMASO
 70
     1
  9
$DIMSHO
 70
     1
  9
$DIMPOST
  1

  9
$DIMAPOST
  1

  9
$DIMALT
 70
     0
  9
$DIMALTD
 70
     2
  9
$DIMALTF
 40
25.4
  9
$DIMLFAC
 40
1.0
  9
$DIMTOFL
 70
     0
  9
$DIMTVP
 40
0.0
  9
$DIMTIX
 70
     0
  9
$DIMSOXD
 70
     0
  9
$DIMSAH
 70
     0
  9
$DIMBLK1
  1

  9
$DIMBLK2
  1

  9
$DIMSTYLE
  2
Standard
  9
$DIMCLRD
 70
     0
  9
$DIMCLRE
 70
     0
  9
$DIMCLRT
 70
     0
  9
$DIMTFAC
 40
1.0
  9
$DIMGAP
 40
0.09
  9
$DIMJUST
 70
     0
  9
$DIMSD1
 70
     0
  9
$DIMSD2
 70
     0
  9
$DIMTOLJ
 70
     1
  9
$DIMTZIN
 70
     0
  9
$DIMALTZ
 70
     0
  9
$DIMALTTZ
 70
     0
  9
$DIMUPT
 70
     0
  9
$DIMDEC
 70
     4
  9
$DIMTDEC
 70
     4
  9
$DIMALTU
 70
     2
  9
$DIMALTTD
 70
     2
  9
$DIMTXSTY
  7
Standard
  9
$DIMAUNIT
 70
     0
  9
$DIMADEC
 70
     0
  9
$DIMALTRND
 40
0.0
  9
$DIMAZIN
 70
     0
  9
$DIMDSEP
 70
    46
  9
$DIMATFIT
 70
     3
  9
$DIMFRAC
 70
     0
  9
$DIMLDRBLK
  1

  9
$DIMLUNIT
 70
     2
  9
$DIMLWD
 70
    -2
  9
$DIMLWE
 70
    -2
  9
$DIMTMOVE
 70
     0
  9
$DIMFXL
 40
1.0
  9
$DIMFXLON
 70
     0
  9
$DIMJOGANG
 40
0.7853981633974483
  9
$DIMTFILL
 70
     0
  9
$DIMTFILLCLR
 70
     0
  9
$DIMARCSYM
 70
     0
  9
$DIMLTYPE
  6

  9
$DIMLTEX1
  6

  9
$DIMLTEX2
  6

  9
$DIMTXTDIRECTION
 70
     0
  9
$LUNITS
 70
     2
  9
$LUPREC
 70
     4
  9
$SKETCHINC
 40
0.1
  9
$FILLETRAD
 40
0.5
  9
$AUNITS
 70
     0
  9
$AUPREC
 70
     0
  9
$MENU
  1
.
  9
$ELEVATION
 40
0.0
  9
$PELEVATION
 40
0.0
  9
$THICKNESS
 40
0.0
  9
$LIMCHECK
 70
     0
  9
$CHAMFERA
 40
0.5
  9
$CHAMFERB
 40
0.5
  9
$CHAMFERC
 40
1.0
  9
$CHAMFERD
 40
0.0
  9
$SKPOLY
 70
     0
  9
$TDCREATE
 40
2457917.612245359
  9
$TDUCREATE
 40
2457917.23724537
  9
$TDUPDATE
 40
2457917.612245359
  9
$TDUUPDATE
 40
2457917.23724537
  9
$TDINDWG
 40
0.0000000116
  9
$TDUSRTIMER
 40
0.0000000116
  9
$USRTIMER
 70
     1
  9
$ANGBASE
 50
0.0
  9
$ANGDIR
 70
     0
  9
$PDMODE
 70
     0
  9
$PDSIZE
 40
0.0
  9
$PLINEWID
 40
0.0
  9
$SPLFRAME
 70
     0
  9
$SPLINETYPE
 70
     6
  9
$SPLINESEGS
 70
     8
  9
$HANDSEED
  5
F9
  9
$SURFTAB1
 70
     6
  9
$SURFTAB2
 70
     6
  9
$SURFTYPE
 70
     6
  9
$SURFU
 70
     6
  9
$SURFV
 70
     6
  9
$UCSBASE
  2

  9
$UCSNAME
  2

  9
$UCSORG
 10
0.0
 20
0.0
 30
0.0
  9
$UCSXDIR
 10
1.0
 20
0.0
 30
0.0
  9
$UCSYDIR
 10
0.0
 20
1.0
 30
0.0
  9
$UCSORTHOREF
  2

  9
$UCSORTHOVIEW
 70
     0
  9
$UCSORGTOP
 10
0.0
 20
0.0
 30
0.0
  9
$UCSORGBOTTOM
 10
0.0
 20
0.0
 30
0.0
  9
$UCSORGLEFT
 10
0.0
 20
0.0
 30
0.0
  9
$UCSORGRIGHT
 10
0.0
 20
0.0
 30
0.0
  9
$UCSORGFRONT
 10
0.0
 20
0.0
 30
0.0
  9
$UCSORGBACK
 10
0.0
 20
0.0
 30
0.0
  9
$PUCSBASE
  2

  9
$PUCSNAME
  2

  9
$PUCSORG
 10
0.0
 20
0.0
 30
0.0
  9
$PUCSXDIR
 10
1.0
 20
0.0
 30
0.0
  9
$PUCSYDIR
 10
0.0
 20
1.0
 30
0.0
  9
$PUCSORTHOREF
  2

  9
$PUCSORTHOVIEW
 70
     0
  9
$PUCSORGTOP
 10
0.0
 20
0.0
 30
0.0
  9
$PUCSORGBOTTOM
 10
0.0
 20
0.0
 30
0.0
  9
$PUCSORGLEFT
 10
0.0
 20
0.0
 30
0.0
  9
$PUCSORGRIGHT
 10
0.0
 20
0.0
 30
0.0
  9
$PUCSORGFRONT
 10
0.0
 20
0.0
 30
0.0
  9
$PUCSORGBACK
 10
0.0
 20
0.0
 30
0.0
  9
$USERI1
 70
     0
  9
$USERI2
 70
     0
  9
$USERI3
 70
     0
  9
$USERI4
 70
     0
  9
$USERI5
 70
     0
  9
$USERR1
 40
0.0
  9
$USERR2
 40
0.0
  9
$USERR3
 40
0.0
  9
$USERR4
 40
0.0
  9
$USERR5
 40
0.0
  9
$WORLDVIEW
 70
     1
  9
$SHADEDGE
 70
     3
  9
$SHADEDIF
 70
    70
  9
$TILEMODE
 70
     1
  9
$MAXACTVP
 70
    64
  9
$PINSBASE
 10
0.0
 20
0.0
 30
0.0
  9
$PLIMCHECK
 70
     0
  9
$PEXTMIN
 10
1.000000000000000E+20
 20
1.000000000000000E+20
 30
1.000000000000000E+20
  9
$PEXTMAX
 10
-1.000000000000000E+20
 20
-1.000000000000000E+20
 30
-1.000000000000000E+20
  9
$PLIMMIN
 10
0.0
 20
0.0
  9
$PLIMMAX
 10
12.0
 20
9.0
  9
$UNITMODE
 70
     0
  9
$VISRETAIN
 70
     1
  9
$PLINEGEN
 70
     0
  9
$PSLTSCALE
 70
     1
  9
$TREEDEPTH
 70
  3020
  9
$CMLSTYLE
  2
Standard
  9
$CMLJUST
 70
     0
  9
$CMLSCALE
 40
1.0
  9
$PROXYGRAPHICS
 70
     1
  9
$MEASUREMENT
 70
     0
  9
$CELWEIGHT
370
    -1
  9
$ENDCAPS
280
     0
  9
$JOINSTYLE
280
     0
  9
$LWDISPLAY
290
     1
  9
$INSUNITS
 70
     1
  9
$HYPERLINKBASE
  1

  9
$STYLESHEET
  1

  9
$XEDIT
290
     1
  9
$CEPSNTYPE
380
     0
  9
$PSTYLEMODE
290
     1
  9
$FINGERPRINTGUID
  2
{26C2DEE6-E899-379F-0381-AEEB86E2E953}
  9
$VERSIONGUID
  2
{FAEB1C32-E019-11D5-929B-00C0DF256EC4}
  9
$EXTNAMES
290
     1
  9
$PSVPSCALE
 40
0.0
  9
$OLESTARTUP
290
     0
  9
$SORTENTS
280
   127
  9
$INDEXCTL
280
     0
  9
$HIDETEXT
280
     1
  9
$XCLIPFRAME
280
     2
  9
$HALOGAP
280
     0
  9
$OBSCOLOR
 70
   257
  9
$OBSLTYPE
280
     0
  9
$INTERSECTIONDISPLAY
280
     0
  9
$INTERSECTIONCOLOR
 70
   257
  9
$DIMASSOC
280
     2
  9
$PROJECTNAME
  1

  9
$CAMERADISPLAY
290
     0
  9
$LENSLENGTH
 40
50.0
  9
$CAMERAHEIGHT
 40
0.0
  9
$STEPSPERSEC
 40
2.0
  9
$STEPSIZE
 40
6.0
  9
$3DDWFPREC
 40
2.0
  9
$PSOLWIDTH
 40
0.25
  9
$PSOLHEIGHT
 40
4.0
  9
$LOFTANG1
 40
1.570796326794897
  9
$LOFTANG2
 40
1.570796326794897
  9
$LOFTMAG1
 40
0.0
  9
$LOFTMAG2
 40
0.0
  9
$LOFTPARAM
 70
     7
  9
$LOFTNORMALS
280
     1
  9
$LATITUDE
 40
37.795
  9
$LONGITUDE
 40
-122.394
  9
$NORTHDIRECTION
 40
0.0
  9
$TIMEZONE
 70
 -8000
  9
$LIGHTGLYPHDISPLAY
280
     1
  9
$TILEMODELIGHTSYNCH
280
     1
  9
$CMATERIAL
347
3C
  9
$SOLIDHIST
280
     1
  9
$SHOWHIST
280
     1
  9
$DWFFRAME
280
     2
  9
$DGNFRAME
280
     2
  9
$REALWORLDSCALE
290
     1
  9
$INTERFERECOLOR
 62
   256
  9
$CSHADOW
280
     0
  9
$SHADOWPLANELOCATION
 40
0.0
  0
ENDSEC
  0
SECTION
  2
CLASSES
  0
CLASS
  1
ACDBDICTIONARYWDFLT
  2
AcDbDictionaryWithDefault
  3
ObjectDBX Classes
 90
        0
 91
        4
280
     0
281
     0
  0
CLASS
  1
VISUALSTYLE
  2
AcDbVisualStyle
  3
ObjectDBX Classes
 90
     4095
 91
        4
280
     0
281
     0
  0
CLASS
  1
MATERIAL
  2
AcDbMaterial
  3
ObjectDBX Classes
 90
     1153
 91
        4
280
     0
281
     0
  0
CLASS
  1
SUN
  2
AcDbSun
  3
SCENEOE
 90
     1024
 91
        4
280
     0
281
     0
  0
ENDSEC
  0
SECTION
  2
TABLES
  0
TABLE
  2
VPORT
  5
8
330
0
100
AcDbSymbolTable
 70
     1
  0
VPORT
  5
29
330
8
100
AcDbSymbolTableRecord
100
AcDbViewportTableRecord
  2
*Active
 70
     0
 10
0.0
 20
0.0
 11
1.0
 21
1.0
 12
0.0
 22
0.0
 13
0.0
 23
0.0
 14
0.5
 24
0.5
 15
0.5
 25
0.5
 16
0.0
 26
0.0
 36
1.0
 17
91.00082462281999
 27
-128.4993055234307
 37
0.0
 40
256.9986110468615
 41
0.7081814508812795
 42
50.0
 43
0.0
 44
0.0
 50
0.0
 51
0.0
 71
     0
 72
   100
 73
     1
 74
     3
 75
     0
 76
     0
 77
     0
 78
     0
281
     0
 65
     1
110
0.0
120
0.0
130
0.0
111
1.0
121
0.0
131
0.0
112
0.0
122
1.0
132
0.0
 79
     0
146
0.0
 60
     3
 61
     5
292
     1
282
     1
141
0.0
142
0.0
 63
   250
361
3F
  0
ENDTAB
  0
TABLE
  2
LTYPE
  5
5
330
0
100
AcDbSymbolTable
 70
     1
  0
LTYPE
  5
14
330
5
100
AcDbSymbolTableRecord
100
AcDbLinetypeTableRecord
  2
ByBlock
 70
     0
  3

 72
    65
 73
     0
 40
0.0
  0
LTYPE
  5
15
330
5
100
AcDbSymbolTableRecord
100
AcDbLinetypeTableRecord
  2
ByLayer
 70
     0
  3

 72
    65
 73
     0
 40
0.0
  0
LTYPE
  5
16
330
5
100
AcDbSymbolTableRecord
100
AcDbLinetypeTableRecord
  2
Continuous
 70
     0
  3
Solid line
 72
    65
 73
     0
 40
0.0
  0
ENDTAB
  0
TABLE
  2
LAYER
  5
2
330
0
100
AcDbSymbolTable
 70
     2
  0
LAYER
  5
10
330
2
100
AcDbSymbolTableRecord
100
AcDbLayerTableRecord
  2
0
 70
     0
 62
     7
  6
Continuous
370
    -3
390
F
347
3E
  0
LAYER
  5
40
330
2
100
AcDbSymbolTableRecord
100
AcDbLayerTableRecord
  2
_U+30EC_U+30A4_U+30E4_U+30FC 1
 70
     0
 62
     7
  6
Continuous
370
    -3
390
F
347
3E
  0
ENDTAB
  0
TABLE
  2
STYLE
  5
3
330
0
100
AcDbSymbolTable
 70
     1
  0
STYLE
  5
11
330
3
100
AcDbSymbolTableRecord
100
AcDbTextStyleTableRecord
  2
Standard
 70
     0
 40
0.0
 41
1.0
 50
0.0
 71
     0
 42
0.2
  3
txt
  4

  0
ENDTAB
  0
TABLE
  2
VIEW
  5
6
330
0
100
AcDbSymbolTable
 70
     0
  0
ENDTAB
  0
TABLE
  2
UCS
  5
7
330
0
100
AcDbSymbolTable
 70
     0
  0
ENDTAB
  0
TABLE
  2
APPID
  5
9
330
0
100
AcDbSymbolTable
 70
     1
  0
APPID
  5
12
330
9
100
AcDbSymbolTableRecord
100
AcDbRegAppTableRecord
  2
ACAD
 70
     0
  0
ENDTAB
  0
TABLE
  2
DIMSTYLE
  5
A
330
0
100
AcDbSymbolTable
 70
     1
100
AcDbDimStyleTable
  0
DIMSTYLE
105
27
330
A
100
AcDbSymbolTableRecord
100
AcDbDimStyleTableRecord
  2
Standard
 70
     0
178
     0
340
11
  0
ENDTAB
  0
TABLE
  2
BLOCK_RECORD
  5
1
330
0
100
AcDbSymbolTable
 70
    12
  0
BLOCK_RECORD
  5
1F
330
1
100
AcDbSymbolTableRecord
100
AcDbBlockTableRecord
  2
*Model_Space
340
22
 70
     0
280
     1
281
     0
  0
BLOCK_RECORD
  5
1B
330
1
100
AcDbSymbolTableRecord
100
AcDbBlockTableRecord
  2
*Paper_Space
340
1E
 70
     0
280
     1
281
     0
  0
BLOCK_RECORD
  5
23
330
1
100
AcDbSymbolTableRecord
100
AcDbBlockTableRecord
  2
*Paper_Space0
340
26
 70
     0
280
     1
281
     0
  0
BLOCK_RECORD
  5
41
330
1
100
AcDbSymbolTableRecord
100
AcDbBlockTableRecord
  2
block 2
340
0
102
{BLKREFS
331
42
102
}
 70
     0
280
     1
281
     0
  0
BLOCK_RECORD
  5
87
330
1
100
AcDbSymbolTableRecord
100
AcDbBlockTableRecord
  2
block 3
340
0
102
{BLKREFS
331
88
102
}
 70
     0
280
     1
281
     0
  0
BLOCK_RECORD
  5
97
330
1
100
AcDbSymbolTableRecord
100
AcDbBlockTableRecord
  2
block 4
340
0
102
{BLKREFS
331
98
102
}
 70
     0
280
     1
281
     0
  0
BLOCK_RECORD
  5
A0
330
1
100
AcDbSymbolTableRecord
100
AcDbBlockTableRecord
  2
block 5
340
0
102
{BLKREFS
331
A1
102
}
 70
     0
280
     1
281
     0
  0
BLOCK_RECORD
  5
B0
330
1
100
AcDbSymbolTableRecord
100
AcDbBlockTableRecord
  2
block 6
340
0
102
{BLKREFS
331
B1
102
}
 70
     0
280
     1
281
     0
  0
BLOCK_RECORD
  5
B8
330
1
100
AcDbSymbolTableRecord
100
AcDbBlockTableRecord
  2
block 7
340
0
102
{BLKREFS
331
B9
102
}
 70
     0
280
     1
281
     0
  0
BLOCK_RECORD
  5
CC
330
1
100
AcDbSymbolTableRecord
100
AcDbBlockTableRecord
  2
block 8
340
0
102
{BLKREFS
331
CD
102
}
 70
     0
280
     1
281
     0
  0
BLOCK_RECORD
  5
D2
330
1
100
AcDbSymbolTableRecord
100
AcDbBlockTableRecord
  2
block 9
340
0
102
{BLKREFS
331
D3
102
}
 70
     0
280
     1
281
     0
  0
BLOCK_RECORD
  5
DE
330
1
100
AcDbSymbolTableRecord
100
AcDbBlockTableRecord
  2
block 10
340
0
102
{BLKREFS
331
DF
102
}
 70
     0
280
     1
281
     0
  0
BLOCK_RECORD
  5
E4
330
1
100
AcDbSymbolTableRecord
100
AcDbBlockTableRecord
  2
block 11
340
0
102
{BLKREFS
331
E5
102
}
 70
     0
280
     1
281
     0
  0
BLOCK_RECORD
  5
F0
330
1
100
AcDbSymbolTableRecord
100
AcDbBlockTableRecord
  2
block 12
340
0
102
{BLKREFS
331
F1
102
}
 70
     0
280
     1
281
     0
  0
ENDTAB
  0
ENDSEC
  0
SECTION
  2
BLOCKS
  0
BLOCK
  5
20
330
1F
100
AcDbEntity
  8
0
100
AcDbBlockBegin
  2
*Model_Space
 70
     0
 10
0.0
 20
0.0
 30
0.0
  3
*Model_Space
  1

  0
ENDBLK
  5
21
330
1F
100
AcDbEntity
  8
0
100
AcDbBlockEnd
  0
BLOCK
  5
1C
330
1B
100
AcDbEntity
 67
     1
  8
0
100
AcDbBlockBegin
  2
*Paper_Space
 70
     0
 10
0.0
 20
0.0
 30
0.0
  3
*Paper_Space
  1

  0
ENDBLK
  5
1D
330
1B
100
AcDbEntity
 67
     1
  8
0
100
AcDbBlockEnd
  0
BLOCK
  5
24
330
23
100
AcDbEntity
  8
0
100
AcDbBlockBegin
  2
*Paper_Space0
 70
     0
 10
0.0
 20
0.0
 30
0.0
  3
*Paper_Space0
  1

  0
ENDBLK
  5
25
330
23
100
AcDbEntity
  8
0
100
AcDbBlockEnd
  0
BLOCK
  5
43
330
41
100
AcDbEntity
  8
0
100
AcDbBlockBegin
  2
block 2
 70
     0
 10
0.0
 20
0.0
 30
0.0
  3
block 2
  1

  0
POLYLINE
  5
45
330
41
100
AcDbEntity
  8
_U+30EC_U+30A4_U+30E4_U+30FC 1
 62
   253
420
 11711154
370
     9
100
AcDb2dPolyline
 66
     1
 10
0.0
 20
0.0
 30
0.0
  0
VERTEX
  5
46
330
45
100
AcDbEntity
  8
_U+30EC_U+30A4_U+30E4_U+30FC 1
 62
   253
420
 11711154
370
     9
100
AcDbVertex
100
AcDb2dVertex
 10
73.14593035611408
 20
-124.9691288576466
 30
0.0
  0
VERTEX
  5
47
330
45
100
AcDbEntity
  8
_U+30EC_U+30A4_U+30E4_U+30FC 1
 62
   253
420
 11711154
370
     9
100
AcDbVertex
100
AcDb2dVertex
 10
73.14593035611408
 20
-134.8469066329552
 30
0.0
  0
VERTEX
  5
48
330
45
100
AcDbEntity
  8
_U+30EC_U+30A4_U+30E4_U+30FC 1
 62
   253
420
 11711154
370
     9
100
AcDbVertex
100
AcDb2dVertex
 10
83.08226899150584
 20
-134.8469066329552
 30
0.0
  0
VERTEX
  5
49
330
45
100
AcDbEntity
  8
_U+30EC_U+30A4_U+30E4_U+30FC 1
 62
   253
420
 11711154
370
     9
100
AcDbVertex
100
AcDb2dVertex
 10
83.08226899150584
 20
-131.9660880225642
 30
0.0
  0
VERTEX
  5
4A
330
45
100
AcDbEntity
  8
_U+30EC_U+30A4_U+30E4_U+30FC 1
 62
   253
420
 11711154
370
     9
100
AcDbVertex
100
AcDb2dVertex
 10
82.0832023503275
 20
-131.9660880225642
 30
0.0
  0
VERTEX
  5
4B
330
45
100
AcDbEntity
  8
_U+30EC_U+30A4_U+30E4_U+30FC 1
 62
   253
420
 11711154
370
     9
100
AcDbVertex
100
AcDb2dVertex
 10
82.0832023503275
 20
-133.8474871887605
 30
0.0
  0
VERTEX
  5
4C
330
45
100
AcDbEntity
  8
_U+30EC_U+30A4_U+30E4_U+30FC 1
 62
   253
420
 11711154
370
     9
100
AcDbVertex
100
AcDb2dVertex
 10
74.05750811063557
 20
-133.8474871887605
 30
0.0
  0
VERTEX
  5
4D
330
45
100
AcDbEntity
  8
_U+30EC_U+30A4_U+30E4_U+30FC 1
 62
   253
420
 11711154
370
     9
100
AcDbVertex
100
AcDb2dVertex
 10
74.05750811063557
 20
-125.9392677462929
 30
0.0
  0
VERTEX
  5
4E
330
45
100
AcDbEntity
  8
_U+30EC_U+30A4_U+30E4_U+30FC 1
 62
   253
420
 11711154
370
     9
100
AcDbVertex
100
AcDb2dVertex
 10
98.04639638751692
 20
-125.9392677462929
 30
0.0
  0
VERTEX
  5
4F
330
45
100
AcDbEntity
  8
_U+30EC_U+30A4_U+30E4_U+30FC 1
 62
   253
420
 11711154
370
     9
100
AcDbVertex
100
AcDb2dVertex
 10
98.04639638751692
 20
-124.9105324687725
 30
0.0
  0
VERTEX
  5
50
330
45
100
AcDbEntity
  8
_U+30EC_U+30A4_U+30E4_U+30FC 1
 62
   253
420
 11711154
370
     9
100
AcDbVertex
100
AcDb2dVertex
 10
73.14593035611408
 20
-124.9691288576466
 30
0.0
  0
SEQEND
  5
52
330
45
100
AcDbEntity
  8
_U+30EC_U+30A4_U+30E4_U+30FC 1
 62
   253
420
 11711154
370
     9
  0
HATCH
  5
51
330
41
100
AcDbEntity
  8
_U+30EC_U+30A4_U+30E4_U+30FC 1
 62
   253
420
 11711154
100
AcDbHatch
 10
0.0
 20
0.0
 30
0.0
210
0.0
220
0.0
230
1.0
  2
SOLID
 70
     1
 71
     0
 91
        1
 92
        1
 93
       10
 72
     1
 10
73.14593035611408
 20
-124.9691288576466
 11
73.14593035611408
 21
-134.8469066329552
 72
     1
 10
73.14593035611408
 20
-134.8469066329552
 11
83.08226899150584
 21
-134.8469066329552
 72
     1
 10
83.08226899150584
 20
-134.8469066329552
 11
83.08226899150584
 21
-131.9660880225642
 72
     1
 10
83.08226899150584
 20
-131.9660880225642
 11
82.0832023503275
 21
-131.9660880225642
 72
     1
 10
82.0832023503275
 20
-131.9660880225642
 11
82.0832023503275
 21
-133.8474871887605
 72
     1
 10
82.0832023503275
 20
-133.8474871887605
 11
74.05750811063557
 21
-133.8474871887605
 72
     1
 10
74.05750811063557
 20
-133.8474871887605
 11
74.05750811063557
 21
-125.9392677462929
 72
     1
 10
74.05750811063557
 20
-125.9392677462929
 11
98.04639638751692
 21
-125.9392677462929
 72
     1
 10
98.04639638751692
 20
-125.9392677462929
 11
98.04639638751692
 21
-124.9105324687725
 72
     1
 10
98.04639638751692
 20
-124.9105324687725
 11
73.14593035611408
 21
-124.9691288576466
 97
        0
 75
     2
 76
     1
 98
        0
  0
POLYLINE
  5
53
330
41
100
AcDbEntity
  8
_U+30EC_U+30A4_U+30E4_U+30FC 1
 62
   179
420
  2234388
370
    25
100
AcDb2dPolyline
 66
     1
 10
0.0
 20
0.0
 30
0.0
  0
VERTEX
  5
54
330
53
100
AcDbEntity
  8
_U+30EC_U+30A4_U+30E4_U+30FC 1
 62
   179
420
  2234388
370
    25
100
AcDbVertex
100
AcDb2dVertex
 10
73.09975174618107
 20
-124.8616374687847
 30
0.0
  0
VERTEX
  5
55
330
53
100
AcDbEntity
  8
_U+30EC_U+30A4_U+30E4_U+30FC 1
 62
   179
420
  2234388
370
    25
100
AcDbVertex
100
AcDb2dVertex
 10
98.10012444170177
 20
-124.8616374687847
 30
0.0
  0
SEQEND
  5
56
330
53
100
AcDbEntity
  8
_U+30EC_U+30A4_U+30E4_U+30FC 1
 62
   179
420
  2234388
370
    25
  0
POLYLINE
  5
57
330
41
100
AcDbEntity
  8
_U+30EC_U+30A4_U+30E4_U+30FC 1
 62
   179
420
  2234388
370
    25
100
AcDb2dPolyline
 66
     1
 10
0.0
 20
0.0
 30
0.0
  0
VERTEX
  5
58
330
57
100
AcDbEntity
  8
_U+30EC_U+30A4_U+30E4_U+30FC 1
 62
   179
420
  2234388
370
    25
100
AcDbVertex
100
AcDb2dVertex
 10
73.09975174618107
 20
-124.8616374687847
 30
0.0
  0
VERTEX
  5
59
330
57
100
AcDbEntity
  8
_U+30EC_U+30A4_U+30E4_U+30FC 1
 62
   179
420
  2234388
370
    25
100
AcDbVertex
100
AcDb2dVertex
 10
73.09975174618107
 20
-134.8613705218402
 30
0.0
  0
SEQEND
  5
5A
330
57
100
AcDbEntity
  8
_U+30EC_U+30A4_U+30E4_U+30FC 1
 62
   179
420
  2234388
370
    25
  0
POLYLINE
  5
5B
330
41
100
AcDbEntity
  8
_U+30EC_U+30A4_U+30E4_U+30FC 1
 62
   179
420
  2234388
370
    25
100
AcDb2dPolyline
 66
     1
 10
0.0
 20
0.0
 30
0.0
  0
VERTEX
  5
5C
330
5B
100
AcDbEntity
  8
_U+30EC_U+30A4_U+30E4_U+30FC 1
 62
   179
420
  2234388
370
    25
100
AcDbVertex
100
AcDb2dVertex
 10
98.10012444170177
 20
-124.8616374687847
 30
0.0
  0
VERTEX
  5
5D
330
5B
100
AcDbEntity
  8
_U+30EC_U+30A4_U+30E4_U+30FC 1
 62
   179
420
  2234388
370
    25
100
AcDbVertex
100
AcDb2dVertex
 10
98.10012444170177
 20
-125.8614096907569
 30
0.0
  0
SEQEND
  5
5E
330
5B
100
AcDbEntity
  8
_U+30EC_U+30A4_U+30E4_U+30FC 1
 62
   179
420
  2234388
370
    25
  0
POLYLINE
  5
5F
330
41
100
AcDbEntity
  8
_U+30EC_U+30A4_U+30E4_U+30FC 1
 62
   179
420
  2234388
370
    25
100
AcDb2dPolyline
 66
     1
 10
0.0
 20
0.0
 30
0.0
  0
VERTEX
  5
60
330
5F
100
AcDbEntity
  8
_U+30EC_U+30A4_U+30E4_U+30FC 1
 62
   179
420
  2234388
370
    25
100
AcDbVertex
100
AcDb2dVertex
 10
74.10022949843454
 20
-125.8614096907569
 30
0.0
  0
VERTEX
  5
61
330
5F
100
AcDbEntity
  8
_U+30EC_U+30A4_U+30E4_U+30FC 1
 62
   179
420
  2234388
370
    25
100
AcDbVertex
100
AcDb2dVertex
 10
91.34979239169486
 20
-125.8614096907569
 30
0.0
  0
SEQEND
  5
62
330
5F
100
AcDbEntity
  8
_U+30EC_U+30A4_U+30E4_U+30FC 1
 62
   179
420
  2234388
370
    25
  0
POLYLINE
  5
63
330
41
100
AcDbEntity
  8
_U+30EC_U+30A4_U+30E4_U+30FC 1
 62
   179
420
  2234388
370
    25
100
AcDb2dPolyline
 66
     1
 10
0.0
 20
0.0
 30
0.0
  0
VERTEX
  5
64
330
63
100
AcDbEntity
  8
_U+30EC_U+30A4_U+30E4_U+30FC 1
 62
   179
420
  2234388
370
    25
100
AcDbVertex
100
AcDb2dVertex
 10
83.0994845466222
 20
-131.8613835781459
 30
0.0
  0
VERTEX
  5
65
330
63
100
AcDbEntity
  8
_U+30EC_U+30A4_U+30E4_U+30FC 1
 62
   179
420
  2234388
370
    25
100
AcDbVertex
100
AcDb2dVertex
 10
83.0994845466222
 20
-134.8613705218402
 30
0.0
  0
SEQEND
  5
66
330
63
100
AcDbEntity
  8
_U+30EC_U+30A4_U+30E4_U+30FC 1
 62
   179
420
  2234388
370
    25
  0
POLYLINE
  5
67
330
41
100
AcDbEntity
  8
_U+30EC_U+30A4_U+30E4_U+30FC 1
 62
   179
420
  2234388
370
    25
100
AcDb2dPolyline
 66
     1
 10
0.0
 20
0.0
 30
0.0
  0
VERTEX
  5
68
330
67
100
AcDbEntity
  8
_U+30EC_U+30A4_U+30E4_U+30FC 1
 62
   179
420
  2234388
370
    25
100
AcDbVertex
100
AcDb2dVertex
 10
82.09971234990628
 20
-131.8613835781459
 30
0.0
  0
VERTEX
  5
69
330
67
100
AcDbEntity
  8
_U+30EC_U+30A4_U+30E4_U+30FC 1
 62
   179
420
  2234388
370
    25
100
AcDbVertex
100
AcDb2dVertex
 10
82.09971234990628
 20
-133.8608927443128
 30
0.0
  0
SEQEND
  5
6A
330
67
100
AcDbEntity
  8
_U+30EC_U+30A4_U+30E4_U+30FC 1
 62
   179
420
  2234388
370
    25
  0
POLYLINE
  5
6B
330
41
100
AcDbEntity
  8
_U+30EC_U+30A4_U+30E4_U+30FC 1
 62
   179
420
  2234388
370
    25
100
AcDb2dPolyline
 66
     1
 10
0.0
 20
0.0
 30
0.0
  0
VERTEX
  5
6C
330
6B
100
AcDbEntity
  8
_U+30EC_U+30A4_U+30E4_U+30FC 1
 62
   179
420
  2234388
370
    25
100
AcDbVertex
100
AcDb2dVertex
 10
74.10022949843454
 20
-125.8614096907569
 30
0.0
  0
VERTEX
  5
6D
330
6B
100
AcDbEntity
  8
_U+30EC_U+30A4_U+30E4_U+30FC 1
 62
   179
420
  2234388
370
    25
100
AcDbVertex
100
AcDb2dVertex
 10
74.10022949843454
 20
-133.8608927443128
 30
0.0
  0
SEQEND
  5
6E
330
6B
100
AcDbEntity
  8
_U+30EC_U+30A4_U+30E4_U+30FC 1
 62
   179
420
  2234388
370
    25
  0
POLYLINE
  5
6F
330
41
100
AcDbEntity
  8
_U+30EC_U+30A4_U+30E4_U+30FC 1
 62
   179
420
  2234388
370
    25
100
AcDb2dPolyline
 66
     1
 10
0.0
 20
0.0
 30
0.0
  0
VERTEX
  5
70
330
6F
100
AcDbEntity
  8
_U+30EC_U+30A4_U+30E4_U+30FC 1
 62
   179
420
  2234388
370
    25
100
AcDbVertex
100
AcDb2dVertex
 10
82.09971234990628
 20
-131.8613835781459
 30
0.0
  0
VERTEX
  5
71
330
6F
100
AcDbEntity
  8
_U+30EC_U+30A4_U+30E4_U+30FC 1
 62
   179
420
  2234388
370
    25
100
AcDbVertex
100
AcDb2dVertex
 10
83.0994845466222
 20
-131.8613835781459
 30
0.0
  0
SEQEND
  5
72
330
6F
100
AcDbEntity
  8
_U+30EC_U+30A4_U+30E4_U+30FC 1
 62
   179
420
  2234388
370
    25
  0
POLYLINE
  5
73
330
41
100
AcDbEntity
  8
_U+30EC_U+30A4_U+30E4_U+30FC 1
 62
   179
420
  2234388
370
    25
100
AcDb2dPolyline
 66
     1
 10
0.0
 20
0.0
 30
0.0
  0
VERTEX
  5
74
330
73
100
AcDbEntity
  8
_U+30EC_U+30A4_U+30E4_U+30FC 1
 62
   179
420
  2234388
370
    25
100
AcDbVertex
100
AcDb2dVertex
 10
73.09975174618107
 20
-134.8613705218402
 30
0.0
  0
VERTEX
  5
75
330
73
100
AcDbEntity
  8
_U+30EC_U+30A4_U+30E4_U+30FC 1
 62
   179
420
  2234388
370
    25
100
AcDbVertex
100
AcDb2dVertex
 10
83.0994845466222
 20
-134.8613705218402
 30
0.0
  0
SEQEND
  5
76
330
73
100
AcDbEntity
  8
_U+30EC_U+30A4_U+30E4_U+30FC 1
 62
   179
420
  2234388
370
    25
  0
POLYLINE
  5
77
330
41
100
AcDbEntity
  8
_U+30EC_U+30A4_U+30E4_U+30FC 1
 62
   179
420
  2234388
370
    25
100
AcDb2dPolyline
 66
     1
 10
0.0
 20
0.0
 30
0.0
  0
VERTEX
  5
78
330
77
100
AcDbEntity
  8
_U+30EC_U+30A4_U+30E4_U+30FC 1
 62
   179
420
  2234388
370
    25
100
AcDbVertex
100
AcDb2dVertex
 10
74.10022949843454
 20
-133.8608927443128
 30
0.0
  0
VERTEX
  5
79
330
77
100
AcDbEntity
  8
_U+30EC_U+30A4_U+30E4_U+30FC 1
 62
   179
420
  2234388
370
    25
100
AcDbVertex
100
AcDb2dVertex
 10
82.09971234990628
 20
-133.8608927443128
 30
0.0
  0
SEQEND
  5
7A
330
77
100
AcDbEntity
  8
_U+30EC_U+30A4_U+30E4_U+30FC 1
 62
   179
420
  2234388
370
    25
  0
POLYLINE
  5
7B
330
41
100
AcDbEntity
  8
_U+30EC_U+30A4_U+30E4_U+30FC 1
 62
   179
420
  2234388
370
    25
100
AcDb2dPolyline
 66
     1
 10
0.0
 20
0.0
 30
0.0
  0
VERTEX
  5
7C
330
7B
100
AcDbEntity
  8
_U+30EC_U+30A4_U+30E4_U+30FC 1
 62
   179
420
  2234388
370
    25
100
AcDbVertex
100
AcDb2dVertex
 10
91.34979239169486
 20
-125.8614096907569
 30
0.0
  0
VERTEX
  5
7D
330
7B
100
AcDbEntity
  8
_U+30EC_U+30A4_U+30E4_U+30FC 1
 62
   179
420
  2234388
370
    25
100
AcDbVertex
100
AcDb2dVertex
 10
98.10012444170177
 20
-125.8614096907569
 30
0.0
  0
SEQEND
  5
7E
330
7B
100
AcDbEntity
  8
_U+30EC_U+30A4_U+30E4_U+30FC 1
 62
   179
420
  2234388
370
    25
  0
SPLINE
  5
7F
330
41
100
AcDbEntity
  8
_U+30EC_U+30A4_U+30E4_U+30FC 1
 62
   179
420
  2234388
370
    25
100
AcDbSpline
210
0.0
220
0.0
230
1.0
 70
    11
 71
     3
 72
    17
 73
    13
 74
     0
 42
0.0000000001
 43
0.0000000001
 12
1.0
 22
0.0
 32
0.0
 13
1.0
 23
0.0
 33
0.0
 40
0.0
 40
0.0
 40
0.0
 40
0.0
 40
1.0
 40
1.0
 40
1.0
 40
2.0
 40
2.0
 40
2.0
 40
3.0
 40
3.0
 40
3.0
 40
4.0
 40
4.0
 40
4.0
 40
4.0
 10
73.19965841029891
 20
-120.8611727475626
 30
0.0
 10
73.19965841029891
 20
-120.8060688586873
 30
0.0
 10
73.15489091144103
 20
-120.7612660809209
 30
0.0
 10
73.09975174618107
 20
-120.7612660809209
 30
0.0
 10
73.044647858698
 20
-120.7612660809209
 30
0.0
 10
72.99984508206325
 20
-120.8060688586873
 30
0.0
 10
72.99984508206325
 20
-120.8611727475626
 30
0.0
 10
72.99984508206325
 20
-120.9163119142153
 30
0.0
 10
73.044647858698
 20
-120.9610794142042
 30
0.0
 10
73.09975174618107
 20
-120.9610794142042
 30
0.0
 10
73.15489091144103
 20
-120.9610794142042
 30
0.0
 10
73.19965841029891
 20
-120.9163119142153
 30
0.0
 10
73.19965841029891
 20
-120.8611727475626
 30
0.0
  0
SPLINE
  5
80
330
41
100
AcDbEntity
  8
_U+30EC_U+30A4_U+30E4_U+30FC 1
 62
   179
420
  2234388
370
    25
100
AcDbSpline
210
0.0
220
0.0
230
1.0
 70
    11
 71
     3
 72
    17
 73
    13
 74
     0
 42
0.0000000001
 43
0.0000000001
 12
1.0
 22
0.0
 32
0.0
 13
1.0
 23
0.0
 33
0.0
 40
0.0
 40
0.0
 40
0.0
 40
0.0
 40
1.0
 40
1.0
 40
1.0
 40
2.0
 40
2.0
 40
2.0
 40
3.0
 40
3.0
 40
3.0
 40
4.0
 40
4.0
 40
4.0
 40
4.0
 10
98.2000311058196
 20
-120.8611727475626
 30
0.0
 10
98.2000311058196
 20
-120.8060688586873
 30
0.0
 10
98.15526360696171
 20
-120.7612660809209
 30
0.0
 10
98.10012444170177
 20
-120.7612660809209
 30
0.0
 10
98.04431499868113
 20
-120.7612660809209
 30
0.0
 10
97.99951222204638
 20
-120.8060688586873
 30
0.0
 10
97.99951222204638
 20
-120.8611727475626
 30
0.0
 10
97.99951222204638
 20
-120.9163119142153
 30
0.0
 10
98.04431499868113
 20
-120.9610794142042
 30
0.0
 10
98.10012444170177
 20
-120.9610794142042
 30
0.0
 10
98.15526360696171
 20
-120.9610794142042
 30
0.0
 10
98.2000311058196
 20
-120.9163119142153
 30
0.0
 10
98.2000311058196
 20
-120.8611727475626
 30
0.0
  0
SPLINE
  5
81
330
41
100
AcDbEntity
  8
_U+30EC_U+30A4_U+30E4_U+30FC 1
 62
   179
420
  2234388
370
    25
100
AcDbSpline
210
0.0
220
0.0
230
1.0
 70
    11
 71
     3
 72
    17
 73
    13
 74
     0
 42
0.0000000001
 43
0.0000000001
 12
1.0
 22
0.0
 32
0.0
 13
1.0
 23
0.0
 33
0.0
 40
0.0
 40
0.0
 40
0.0
 40
0.0
 40
1.0
 40
1.0
 40
1.0
 40
2.0
 40
2.0
 40
2.0
 40
3.0
 40
3.0
 40
3.0
 40
4.0
 40
4.0
 40
4.0
 40
4.0
 10
102.1997901704439
 20
-124.8616374687847
 30
0.0
 10
102.1997901704439
 20
-124.8058280243542
 30
0.0
 10
102.1549873938092
 20
-124.7610252465875
 30
0.0
 10
102.099886085586
 20
-124.7610252465875
 30
0.0
 10
102.0447443410661
 20
-124.7610252465875
 30
0.0
 10
101.9999768422082
 20
-124.8058280243542
 30
0.0
 10
101.9999768422082
 20
-124.8616374687847
 30
0.0
 10
101.9999768422082
 20
-124.9167413576596
 30
0.0
 10
102.0447443410661
 20
-124.9615441354263
 30
0.0
 10
102.099886085586
 20
-124.9615441354263
 30
0.0
 10
102.1549873938092
 20
-124.9615441354263
 30
0.0
 10
102.1997901704439
 20
-124.9167413576596
 30
0.0
 10
102.1997901704439
 20
-124.8616374687847
 30
0.0
  0
SPLINE
  5
82
330
41
100
AcDbEntity
  8
_U+30EC_U+30A4_U+30E4_U+30FC 1
 62
   179
420
  2234388
370
    25
100
AcDbSpline
210
0.0
220
0.0
230
1.0
 70
    11
 71
     3
 72
    17
 73
    13
 74
     0
 42
0.0000000001
 43
0.0000000001
 12
1.0
 22
0.0
 32
0.0
 13
1.0
 23
0.0
 33
0.0
 40
0.0
 40
0.0
 40
0.0
 40
0.0
 40
1.0
 40
1.0
 40
1.0
 40
2.0
 40
2.0
 40
2.0
 40
3.0
 40
3.0
 40
3.0
 40
4.0
 40
4.0
 40
4.0
 40
4.0
 10
102.1997901704439
 20
-125.8614096907569
 30
0.0
 10
102.1997901704439
 20
-125.8062705241041
 30
0.0
 10
102.1549873938092
 20
-125.7615030241153
 30
0.0
 10
102.099886085586
 20
-125.7615030241153
 30
0.0
 10
102.0447443410661
 20
-125.7615030241153
 30
0.0
 10
101.9999768422082
 20
-125.8062705241041
 30
0.0
 10
101.9999768422082
 20
-125.8614096907569
 30
0.0
 10
101.9999768422082
 20
-125.9165135796321
 30
0.0
 10
102.0447443410661
 20
-125.9613163573985
 30
0.0
 10
102.099886085586
 20
-125.9613163573985
 30
0.0
 10
102.1549873938092
 20
-125.9613163573985
 30
0.0
 10
102.1997901704439
 20
-125.9165135796321
 30
0.0
 10
102.1997901704439
 20
-125.8614096907569
 30
0.0
  0
SPLINE
  5
83
330
41
100
AcDbEntity
  8
_U+30EC_U+30A4_U+30E4_U+30FC 1
 62
   179
420
  2234388
370
    25
100
AcDbSpline
210
0.0
220
0.0
230
1.0
 70
    11
 71
     3
 72
    17
 73
    13
 74
     0
 42
0.0000000001
 43
0.0000000001
 12
1.0
 22
0.0
 32
0.0
 13
1.0
 23
0.0
 33
0.0
 40
0.0
 40
0.0
 40
0.0
 40
0.0
 40
1.0
 40
1.0
 40
1.0
 40
2.0
 40
2.0
 40
2.0
 40
3.0
 40
3.0
 40
3.0
 40
4.0
 40
4.0
 40
4.0
 40
4.0
 10
102.1997901704439
 20
-131.8613835781459
 30
0.0
 10
102.1997901704439
 20
-131.8062444114928
 30
0.0
 10
102.1549873938092
 20
-131.7614769115042
 30
0.0
 10
102.099886085586
 20
-131.7614769115042
 30
0.0
 10
102.0447443410661
 20
-131.7614769115042
 30
0.0
 10
101.9999768422082
 20
-131.8062444114928
 30
0.0
 10
101.9999768422082
 20
-131.8613835781459
 30
0.0
 10
101.9999768422082
 20
-131.9164874670208
 30
0.0
 10
102.0447443410661
 20
-131.9612902447875
 30
0.0
 10
102.099886085586
 20
-131.9612902447875
 30
0.0
 10
102.1549873938092
 20
-131.9612902447875
 30
0.0
 10
102.1997901704439
 20
-131.9164874670208
 30
0.0
 10
102.1997901704439
 20
-131.8613835781459
 30
0.0
  0
SPLINE
  5
84
330
41
100
AcDbEntity
  8
_U+30EC_U+30A4_U+30E4_U+30FC 1
 62
   179
420
  2234388
370
    25
100
AcDbSpline
210
0.0
220
0.0
230
1.0
 70
    11
 71
     3
 72
    17
 73
    13
 74
     0
 42
0.0000000001
 43
0.0000000001
 12
1.0
 22
0.0
 32
0.0
 13
1.0
 23
0.0
 33
0.0
 40
0.0
 40
0.0
 40
0.0
 40
0.0
 40
1.0
 40
1.0
 40
1.0
 40
2.0
 40
2.0
 40
2.0
 40
3.0
 40
3.0
 40
3.0
 40
4.0
 40
4.0
 40
4.0
 40
4.0
 10
102.1997901704439
 20
-134.8613705218402
 30
0.0
 10
102.1997901704439
 20
-134.8062313551872
 30
0.0
 10
102.1549873938092
 20
-134.7614638551986
 30
0.0
 10
102.099886085586
 20
-134.7614638551986
 30
0.0
 10
102.0447443410661
 20
-134.7614638551986
 30
0.0
 10
101.9999768422082
 20
-134.8062313551872
 30
0.0
 10
101.9999768422082
 20
-134.8613705218402
 30
0.0
 10
101.9999768422082
 20
-134.9164744107152
 30
0.0
 10
102.0447443410661
 20
-134.9612771884819
 30
0.0
 10
102.099886085586
 20
-134.9612771884819
 30
0.0
 10
102.1549873938092
 20
-134.9612771884819
 30
0.0
 10
102.1997901704439
 20
-134.9164744107152
 30
0.0
 10
102.1997901704439
 20
-134.8613705218402
 30
0.0
  0
SPLINE
  5
85
330
41
100
AcDbEntity
  8
_U+30EC_U+30A4_U+30E4_U+30FC 1
 62
   179
420
  2234388
370
    25
100
AcDbSpline
210
0.0
220
0.0
230
1.0
 70
    11
 71
     3
 72
    17
 73
    13
 74
     0
 42
0.0000000001
 43
0.0000000001
 12
1.0
 22
0.0
 32
0.0
 13
1.0
 23
0.0
 33
0.0
 40
0.0
 40
0.0
 40
0.0
 40
0.0
 40
1.0
 40
1.0
 40
1.0
 40
2.0
 40
2.0
 40
2.0
 40
3.0
 40
3.0
 40
3.0
 40
4.0
 40
4.0
 40
4.0
 40
4.0
 10
83.19939121074003
 20
-138.8611296875071
 30
0.0
 10
83.19939121074003
 20
-138.805990520854
 30
0.0
 10
83.15462371188214
 20
-138.7612230208655
 30
0.0
 10
83.0994845466222
 20
-138.7612230208655
 30
0.0
 10
83.04438065913912
 20
-138.7612230208655
 30
0.0
 10
82.99957788250435
 20
-138.805990520854
 30
0.0
 10
82.99957788250435
 20
-138.8611296875071
 30
0.0
 10
82.99957788250435
 20
-138.916233576382
 30
0.0
 10
83.04438065913912
 20
-138.9610363541488
 30
0.0
 10
83.0994845466222
 20
-138.9610363541488
 30
0.0
 10
83.15462371188214
 20
-138.9610363541488
 30
0.0
 10
83.19939121074003
 20
-138.916233576382
 30
0.0
 10
83.19939121074003
 20
-138.8611296875071
 30
0.0
  0
SPLINE
  5
86
330
41
100
AcDbEntity
  8
_U+30EC_U+30A4_U+30E4_U+30FC 1
 62
   179
420
  2234388
370
    25
100
AcDbSpline
210
0.0
220
0.0
230
1.0
 70
    11
 71
     3
 72
    17
 73
    13
 74
     0
 42
0.0000000001
 43
0.0000000001
 12
1.0
 22
0.0
 32
0.0
 13
1.0
 23
0.0
 33
0.0
 40
0.0
 40
0.0
 40
0.0
 40
0.0
 40
1.0
 40
1.0
 40
1.0
 40
2.0
 40
2.0
 40
2.0
 40
3.0
 40
3.0
 40
3.0
 40
4.0
 40
4.0
 40
4.0
 40
4.0
 10
73.19965841029891
 20
-138.8611296875071
 30
0.0
 10
73.19965841029891
 20
-138.805990520854
 30
0.0
 10
73.15489091144103
 20
-138.7612230208655
 30
0.0
 10
73.09975174618107
 20
-138.7612230208655
 30
0.0
 10
73.044647858698
 20
-138.7612230208655
 30
0.0
 10
72.99984508206325
 20
-138.805990520854
 30
0.0
 10
72.99984508206325
 20
-138.8611296875071
 30
0.0
 10
72.99984508206325
 20
-138.916233576382
 30
0.0
 10
73.044647858698
 20
-138.9610363541488
 30
0.0
 10
73.09975174618107
 20
-138.9610363541488
 30
0.0
 10
73.15489091144103
 20
-138.9610363541488
 30
0.0
 10
73.19965841029891
 20
-138.916233576382
 30
0.0
 10
73.19965841029891
 20
-138.8611296875071
 30
0.0
  0
INSERT
  5
88
330
41
100
AcDbEntity
  8
_U+30EC_U+30A4_U+30E4_U+30FC 1
100
AcDbBlockReference
  2
block 3
 10
0.0
 20
0.0
 30
0.0
  0
INSERT
  5
A1
330
41
100
AcDbEntity
  8
_U+30EC_U+30A4_U+30E4_U+30FC 1
100
AcDbBlockReference
  2
block 5
 10
0.0
 20
0.0
 30
0.0
  0
INSERT
  5
B9
330
41
100
AcDbEntity
  8
_U+30EC_U+30A4_U+30E4_U+30FC 1
100
AcDbBlockReference
  2
block 7
 10
0.0
 20
0.0
 30
0.0
  0
INSERT
  5
D3
330
41
100
AcDbEntity
  8
_U+30EC_U+30A4_U+30E4_U+30FC 1
100
AcDbBlockReference
  2
block 9
 10
0.0
 20
0.0
 30
0.0
  0
INSERT
  5
E5
330
41
100
AcDbEntity
  8
_U+30EC_U+30A4_U+30E4_U+30FC 1
100
AcDbBlockReference
  2
block 11
 10
0.0
 20
0.0
 30
0.0
  0
ENDBLK
  5
44
330
41
100
AcDbEntity
  8
0
100
AcDbBlockEnd
  0
BLOCK
  5
89
330
87
100
AcDbEntity
  8
0
100
AcDbBlockBegin
  2
block 3
 70
     0
 10
0.0
 20
0.0
 30
0.0
  3
block 3
  1

  0
POLYLINE
  5
8B
330
87
100
AcDbEntity
  8
_U+30EC_U+30A4_U+30E4_U+30FC 1
 62
   179
420
  2234388
370
     9
100
AcDb2dPolyline
 66
     1
 10
0.0
 20
0.0
 30
0.0
  0
VERTEX
  5
8C
330
8B
100
AcDbEntity
  8
_U+30EC_U+30A4_U+30E4_U+30FC 1
 62
   179
420
  2234388
370
     9
100
AcDbVertex
100
AcDb2dVertex
 10
73.09975174618107
 20
-138.8611296875071
 30
0.0
  0
VERTEX
  5
8D
330
8B
100
AcDbEntity
  8
_U+30EC_U+30A4_U+30E4_U+30FC 1
 62
   179
420
  2234388
370
     9
100
AcDbVertex
100
AcDb2dVertex
 10
83.0994845466222
 20
-138.8611296875071
 30
0.0
  0
SEQEND
  5
8E
330
8B
100
AcDbEntity
  8
_U+30EC_U+30A4_U+30E4_U+30FC 1
 62
   179
420
  2234388
370
     9
  0
POLYLINE
  5
8F
330
87
100
AcDbEntity
  8
_U+30EC_U+30A4_U+30E4_U+30FC 1
 62
   179
420
  2234388
370
     9
100
AcDb2dPolyline
 66
     1
 10
0.0
 20
0.0
 30
0.0
  0
VERTEX
  5
90
330
8F
100
AcDbEntity
  8
_U+30EC_U+30A4_U+30E4_U+30FC 1
 62
   179
420
  2234388
370
     9
100
AcDbVertex
100
AcDb2dVertex
 10
73.09975174618107
 20
-137.4010882989828
 30
0.0
  0
VERTEX
  5
91
330
8F
100
AcDbEntity
  8
_U+30EC_U+30A4_U+30E4_U+30FC 1
 62
   179
420
  2234388
370
     9
100
AcDbVertex
100
AcDb2dVertex
 10
73.09975174618107
 20
-139.861572187257
 30
0.0
  0
SEQEND
  5
92
330
8F
100
AcDbEntity
  8
_U+30EC_U+30A4_U+30E4_U+30FC 1
 62
   179
420
  2234388
370
     9
  0
POLYLINE
  5
93
330
87
100
AcDbEntity
  8
_U+30EC_U+30A4_U+30E4_U+30FC 1
 62
   179
420
  2234388
370
     9
100
AcDb2dPolyline
 66
     1
 10
0.0
 20
0.0
 30
0.0
  0
VERTEX
  5
94
330
93
100
AcDbEntity
  8
_U+30EC_U+30A4_U+30E4_U+30FC 1
 62
   179
420
  2234388
370
     9
100
AcDbVertex
100
AcDb2dVertex
 10
83.0994845466222
 20
-137.4010882989828
 30
0.0
  0
VERTEX
  5
95
330
93
100
AcDbEntity
  8
_U+30EC_U+30A4_U+30E4_U+30FC 1
 62
   179
420
  2234388
370
     9
100
AcDbVertex
100
AcDb2dVertex
 10
83.0994845466222
 20
-139.861572187257
 30
0.0
  0
SEQEND
  5
96
330
93
100
AcDbEntity
  8
_U+30EC_U+30A4_U+30E4_U+30FC 1
 62
   179
420
  2234388
370
     9
  0
INSERT
  5
98
330
87
100
AcDbEntity
  8
_U+30EC_U+30A4_U+30E4_U+30FC 1
100
AcDbBlockReference
  2
block 4
 10
0.0
 20
0.0
 30
0.0
  0
ENDBLK
  5
8A
330
87
100
AcDbEntity
  8
0
100
AcDbBlockEnd
  0
BLOCK
  5
99
330
97
100
AcDbEntity
  8
0
100
AcDbBlockBegin
  2
block 4
 70
     0
 10
0.0
 20
0.0
 30
0.0
  3
block 4
  1

  0
SPLINE
  5
9B
330
97
100
AcDbEntity
  8
_U+30EC_U+30A4_U+30E4_U+30FC 1
370
     0
100
AcDbSpline
210
0.0
220
0.0
230
1.0
 70
    11
 71
     3
 72
    26
 73
    22
 74
     0
 42
0.0000000001
 43
0.0000000001
 12
1.0
 22
0.0
 32
0.0
 13
1.0
 23
0.0
 33
0.0
 40
0.0
 40
0.0
 40
0.0
 40
0.0
 40
1.0
 40
1.0
 40
1.0
 40
2.0
 40
2.0
 40
2.0
 40
3.0
 40
3.0
 40
3.0
 40
4.0
 40
4.0
 40
4.0
 40
5.0
 40
5.0
 40
5.0
 40
6.0
 40
6.0
 40
6.0
 40
7.0
 40
7.0
 40
7.0
 40
7.0
 10
77.46228296674555
 20
-138.2148193013838
 30
0.0
 10
77.46228296674555
 20
-138.2148193013838
 30
0.0
 10
77.46228296674555
 20
-137.1106661983612
 30
0.0
 10
77.46228296674555
 20
-137.1106661983612
 30
0.0
 10
77.46228296674555
 20
-137.1106661983612
 30
0.0
 10
77.13224281925861
 20
-137.1106661983612
 30
0.0
 10
77.13224281925861
 20
-137.1106661983612
 30
0.0
 10
77.13224281925861
 20
-137.1106661983612
 30
0.0
 10
77.13224281925861
 20
-136.9625270924955
 30
0.0
 10
77.13224281925861
 20
-136.9625270924955
 30
0.0
 10
77.46435002403669
 20
-136.9477131819089
 30
0.0
 10
77.51085881308757
 20
-136.7847601654566
 30
0.0
 10
77.54048663426072
 20
-136.6703829953463
 30
0.0
 10
77.54048663426072
 20
-136.6703829953463
 30
0.0
 10
77.68655868283531
 20
-136.6703829953463
 30
0.0
 10
77.68655868283531
 20
-136.6703829953463
 30
0.0
 10
77.68655868283531
 20
-136.6703829953463
 30
0.0
 10
77.68655868283531
 20
-138.2148193013838
 30
0.0
 10
77.68655868283531
 20
-138.2148193013838
 30
0.0
 10
77.68655868283531
 20
-138.2148193013838
 30
0.0
 10
77.46228296674555
 20
-138.2148193013838
 30
0.0
 10
77.46228296674555
 20
-138.2148193013838
 30
0.0
  0
HATCH
  5
9C
330
97
100
AcDbEntity
  8
_U+30EC_U+30A4_U+30E4_U+30FC 1
 62
   179
420
  2234388
100
AcDbHatch
 10
0.0
 20
0.0
 30
0.0
210
0.0
220
0.0
230
1.0
  2
SOLID
 70
     1
 71
     0
 91
        1
 92
        1
 93
        1
 72
     4
 94
        3
 73
     0
 74
     1
 95
       26
 96
       22
 40
0.0
 40
0.0
 40
0.0
 40
0.0
 40
1.0
 40
1.0
 40
1.0
 40
2.0
 40
2.0
 40
2.0
 40
3.0
 40
3.0
 40
3.0
 40
4.0
 40
4.0
 40
4.0
 40
5.0
 40
5.0
 40
5.0
 40
6.0
 40
6.0
 40
6.0
 40
7.0
 40
7.0
 40
7.0
 40
7.0
 10
77.46228296674555
 20
-138.2148193013838
 10
77.46228296674555
 20
-138.2148193013838
 10
77.46228296674555
 20
-137.1106661983612
 10
77.46228296674555
 20
-137.1106661983612
 10
77.46228296674555
 20
-137.1106661983612
 10
77.13224281925861
 20
-137.1106661983612
 10
77.13224281925861
 20
-137.1106661983612
 10
77.13224281925861
 20
-137.1106661983612
 10
77.13224281925861
 20
-136.9625270924955
 10
77.13224281925861
 20
-136.9625270924955
 10
77.46435002403669
 20
-136.9477131819089
 10
77.51085881308757
 20
-136.7847601654566
 10
77.54048663426072
 20
-136.6703829953463
 10
77.54048663426072
 20
-136.6703829953463
 10
77.68655868283531
 20
-136.6703829953463
 10
77.68655868283531
 20
-136.6703829953463
 10
77.68655868283531
 20
-136.6703829953463
 10
77.68655868283531
 20
-138.2148193013838
 10
77.68655868283531
 20
-138.2148193013838
 10
77.68655868283531
 20
-138.2148193013838
 10
77.46228296674555
 20
-138.2148193013838
 10
77.46228296674555
 20
-138.2148193013838
 97
        0
 97
        0
 75
     2
 76
     1
 98
        0
  0
SPLINE
  5
9D
330
97
100
AcDbEntity
  8
_U+30EC_U+30A4_U+30E4_U+30FC 1
370
     0
100
AcDbSpline
210
0.0
220
0.0
230
1.0
 70
    11
 71
     3
 72
    29
 73
    25
 74
     0
 42
0.0000000001
 43
0.0000000001
 12
1.0
 22
0.0
 32
0.0
 13
1.0
 23
0.0
 33
0.0
 40
0.0
 40
0.0
 40
0.0
 40
0.0
 40
1.0
 40
1.0
 40
1.0
 40
2.0
 40
2.0
 40
2.0
 40
3.0
 40
3.0
 40
3.0
 40
4.0
 40
4.0
 40
4.0
 40
5.0
 40
5.0
 40
5.0
 40
6.0
 40
6.0
 40
6.0
 40
7.0
 40
7.0
 40
7.0
 40
8.0
 40
8.0
 40
8.0
 40
8.0
 10
79.08543970462101
 20
-138.0370523743449
 30
0.0
 10
78.97760821593269
 20
-138.2465141798481
 30
0.0
 10
78.80414765825036
 20
-138.265462205017
 30
0.0
 10
78.68770343084891
 20
-138.265462205017
 30
0.0
 10
78.526989726462
 20
-138.265462205017
 30
0.0
 10
78.38522404724398
 20
-138.2189534159661
 30
0.0
 10
78.28996715707682
 20
-138.0370523743449
 30
0.0
 10
78.18644203774505
 20
-137.8424044794283
 30
0.0
 10
78.16732175780193
 20
-137.6053819100431
 30
0.0
 10
78.16732175780193
 20
-137.4427734031393
 30
0.0
 10
78.16732175780193
 20
-137.2987684118559
 30
0.0
 10
78.18420272567965
 20
-137.0469319318841
 30
0.0
 10
78.28996715707682
 20
-136.8481499223852
 30
0.0
 10
78.3979709005394
 20
-136.645233798304
 30
0.0
 10
78.5586846049263
 20
-136.6218071490043
 30
0.0
 10
78.68770343084891
 20
-136.6218071490043
 30
0.0
 10
78.84635007794466
 20
-136.6218071490043
 30
0.0
 10
78.99018281445385
 20
-136.666248880764
 30
0.0
 10
79.08543970462101
 20
-136.8481499223852
 30
0.0
 10
79.18483070937046
 20
-137.0407307600107
 30
0.0
 10
79.2080851038959
 20
-137.2691405906827
 30
0.0
 10
79.2080851038959
 20
-137.4427734031393
 30
0.0
 10
79.2080851038959
 20
-137.6139946487562
 30
0.0
 10
79.18707002143587
 20
-137.8444715367195
 30
0.0
 10
79.08543970462101
 20
-138.0370523743449
 30
0.0
  0
SPLINE
  5
9E
330
97
100
AcDbEntity
  8
_U+30EC_U+30A4_U+30E4_U+30FC 1
370
     0
100
AcDbSpline
210
0.0
220
0.0
230
1.0
 70
    11
 71
     3
 72
    17
 73
    13
 74
     0
 42
0.0000000001
 43
0.0000000001
 12
1.0
 22
0.0
 32
0.0
 13
1.0
 23
0.0
 33
0.0
 40
0.0
 40
0.0
 40
0.0
 40
0.0
 40
1.0
 40
1.0
 40
1.0
 40
2.0
 40
2.0
 40
2.0
 40
3.0
 40
3.0
 40
3.0
 40
4.0
 40
4.0
 40
4.0
 40
4.0
 10
78.68770343084891
 20
-136.8143879866298
 30
0.0
 10
78.43810626294255
 20
-136.8143879866298
 30
0.0
 10
78.3915974738917
 20
-137.0979193450658
 30
0.0
 10
78.3915974738917
 20
-137.4427734031393
 30
0.0
 10
78.3915974738917
 20
-137.762133754622
 30
0.0
 10
78.42759872171254
 20
-138.0708143101004
 30
0.0
 10
78.68770343084891
 20
-138.0708143101004
 30
0.0
 10
78.93523354146411
 20
-138.0708143101004
 30
0.0
 10
78.9839816425804
 20
-137.789694518504
 30
0.0
 10
78.9839816425804
 20
-137.4427734031393
 30
0.0
 10
78.9839816425804
 20
-137.1230685421081
 30
0.0
 10
78.94574108269413
 20
-136.8143879866298
 30
0.0
 10
78.68770343084891
 20
-136.8143879866298
 30
0.0
  0
HATCH
  5
9F
330
97
100
AcDbEntity
  8
_U+30EC_U+30A4_U+30E4_U+30FC 1
 62
   179
420
  2234388
100
AcDbHatch
 10
0.0
 20
0.0
 30
0.0
210
0.0
220
0.0
230
1.0
  2
SOLID
 70
     1
 71
     0
 91
        2
 92
        1
 93
        1
 72
     4
 94
        3
 73
     0
 74
     1
 95
       29
 96
       25
 40
0.0
 40
0.0
 40
0.0
 40
0.0
 40
1.0
 40
1.0
 40
1.0
 40
2.0
 40
2.0
 40
2.0
 40
3.0
 40
3.0
 40
3.0
 40
4.0
 40
4.0
 40
4.0
 40
5.0
 40
5.0
 40
5.0
 40
6.0
 40
6.0
 40
6.0
 40
7.0
 40
7.0
 40
7.0
 40
8.0
 40
8.0
 40
8.0
 40
8.0
 10
79.08543970462101
 20
-138.0370523743449
 10
78.97760821593269
 20
-138.2465141798481
 10
78.80414765825036
 20
-138.265462205017
 10
78.68770343084891
 20
-138.265462205017
 10
78.526989726462
 20
-138.265462205017
 10
78.38522404724398
 20
-138.2189534159661
 10
78.28996715707682
 20
-138.0370523743449
 10
78.18644203774505
 20
-137.8424044794283
 10
78.16732175780193
 20
-137.6053819100431
 10
78.16732175780193
 20
-137.4427734031393
 10
78.16732175780193
 20
-137.2987684118559
 10
78.18420272567965
 20
-137.0469319318841
 10
78.28996715707682
 20
-136.8481499223852
 10
78.3979709005394
 20
-136.645233798304
 10
78.5586846049263
 20
-136.6218071490043
 10
78.68770343084891
 20
-136.6218071490043
 10
78.84635007794466
 20
-136.6218071490043
 10
78.99018281445385
 20
-136.666248880764
 10
79.08543970462101
 20
-136.8481499223852
 10
79.18483070937046
 20
-137.0407307600107
 10
79.2080851038959
 20
-137.2691405906827
 10
79.2080851038959
 20
-137.4427734031393
 10
79.2080851038959
 20
-137.6139946487562
 10
79.18707002143587
 20
-137.8444715367195
 10
79.08543970462101
 20
-138.0370523743449
 97
        0
 97
        0
 92
        1
 93
        1
 72
     4
 94
        3
 73
     0
 74
     1
 95
       17
 96
       13
 40
0.0
 40
0.0
 40
0.0
 40
0.0
 40
1.0
 40
1.0
 40
1.0
 40
2.0
 40
2.0
 40
2.0
 40
3.0
 40
3.0
 40
3.0
 40
4.0
 40
4.0
 40
4.0
 40
4.0
 10
78.68770343084891
 20
-136.8143879866298
 10
78.43810626294255
 20
-136.8143879866298
 10
78.3915974738917
 20
-137.0979193450658
 10
78.3915974738917
 20
-137.4427734031393
 10
78.3915974738917
 20
-137.762133754622
 10
78.42759872171254
 20
-138.0708143101004
 10
78.68770343084891
 20
-138.0708143101004
 10
78.93523354146411
 20
-138.0708143101004
 10
78.9839816425804
 20
-137.789694518504
 10
78.9839816425804
 20
-137.4427734031393
 10
78.9839816425804
 20
-137.1230685421081
 10
78.94574108269413
 20
-136.8143879866298
 10
78.68770343084891
 20
-136.8143879866298
 97
        0
 97
        0
 75
     2
 76
     1
 98
        0
  0
ENDBLK
  5
9A
330
97
100
AcDbEntity
  8
0
100
AcDbBlockEnd
  0
BLOCK
  5
A2
330
A0
100
AcDbEntity
  8
0
100
AcDbBlockBegin
  2
block 5
 70
     0
 10
0.0
 20
0.0
 30
0.0
  3
block 5
  1

  0
POLYLINE
  5
A4
330
A0
100
AcDbEntity
  8
_U+30EC_U+30A4_U+30E4_U+30FC 1
 62
   179
420
  2234388
370
     9
100
AcDb2dPolyline
 66
     1
 10
0.0
 20
0.0
 30
0.0
  0
VERTEX
  5
A5
330
A4
100
AcDbEntity
  8
_U+30EC_U+30A4_U+30E4_U+30FC 1
 62
   179
420
  2234388
370
     9
100
AcDbVertex
100
AcDb2dVertex
 10
73.09975174618107
 20
-120.8611727475626
 30
0.0
  0
VERTEX
  5
A6
330
A4
100
AcDbEntity
  8
_U+30EC_U+30A4_U+30E4_U+30FC 1
 62
   179
420
  2234388
370
     9
100
AcDbVertex
100
AcDb2dVertex
 10
98.10012444170177
 20
-120.8611727475626
 30
0.0
  0
SEQEND
  5
A7
330
A4
100
AcDbEntity
  8
_U+30EC_U+30A4_U+30E4_U+30FC 1
 62
   179
420
  2234388
370
     9
  0
POLYLINE
  5
A8
330
A0
100
AcDbEntity
  8
_U+30EC_U+30A4_U+30E4_U+30FC 1
 62
   179
420
  2234388
370
     9
100
AcDb2dPolyline
 66
     1
 10
0.0
 20
0.0
 30
0.0
  0
VERTEX
  5
A9
330
A8
100
AcDbEntity
  8
_U+30EC_U+30A4_U+30E4_U+30FC 1
 62
   179
420
  2234388
370
     9
100
AcDbVertex
100
AcDb2dVertex
 10
73.09975174618107
 20
-122.3212141360863
 30
0.0
  0
VERTEX
  5
AA
330
A8
100
AcDbEntity
  8
_U+30EC_U+30A4_U+30E4_U+30FC 1
 62
   179
420
  2234388
370
     9
100
AcDbVertex
100
AcDb2dVertex
 10
73.09975174618107
 20
-119.8614005255904
 30
0.0
  0
SEQEND
  5
AB
330
A8
100
AcDbEntity
  8
_U+30EC_U+30A4_U+30E4_U+30FC 1
 62
   179
420
  2234388
370
     9
  0
POLYLINE
  5
AC
330
A0
100
AcDbEntity
  8
_U+30EC_U+30A4_U+30E4_U+30FC 1
 62
   179
420
  2234388
370
     9
100
AcDb2dPolyline
 66
     1
 10
0.0
 20
0.0
 30
0.0
  0
VERTEX
  5
AD
330
AC
100
AcDbEntity
  8
_U+30EC_U+30A4_U+30E4_U+30FC 1
 62
   179
420
  2234388
370
     9
100
AcDbVertex
100
AcDb2dVertex
 10
98.10012444170177
 20
-122.3212141360863
 30
0.0
  0
VERTEX
  5
AE
330
AC
100
AcDbEntity
  8
_U+30EC_U+30A4_U+30E4_U+30FC 1
 62
   179
420
  2234388
370
     9
100
AcDbVertex
100
AcDb2dVertex
 10
98.10012444170177
 20
-119.8614005255904
 30
0.0
  0
SEQEND
  5
AF
330
AC
100
AcDbEntity
  8
_U+30EC_U+30A4_U+30E4_U+30FC 1
 62
   179
420
  2234388
370
     9
  0
INSERT
  5
B1
330
A0
100
AcDbEntity
  8
_U+30EC_U+30A4_U+30E4_U+30FC 1
100
AcDbBlockReference
  2
block 6
 10
0.0
 20
0.0
 30
0.0
  0
ENDBLK
  5
A3
330
A0
100
AcDbEntity
  8
0
100
AcDbBlockEnd
  0
BLOCK
  5
B2
330
B0
100
AcDbEntity
  8
0
100
AcDbBlockBegin
  2
block 6
 70
     0
 10
0.0
 20
0.0
 30
0.0
  3
block 6
  1

  0
SPLINE
  5
B4
330
B0
100
AcDbEntity
  8
_U+30EC_U+30A4_U+30E4_U+30FC 1
370
     0
100
AcDbSpline
210
0.0
220
0.0
230
1.0
 70
    11
 71
     3
 72
    44
 73
    40
 74
     0
 42
0.0000000001
 43
0.0000000001
 12
1.0
 22
0.0
 32
0.0
 13
1.0
 23
0.0
 33
0.0
 40
0.0
 40
0.0
 40
0.0
 40
0.0
 40
1.0
 40
1.0
 40
1.0
 40
2.0
 40
2.0
 40
2.0
 40
3.0
 40
3.0
 40
3.0
 40
4.0
 40
4.0
 40
4.0
 40
5.0
 40
5.0
 40
5.0
 40
6.0
 40
6.0
 40
6.0
 40
7.0
 40
7.0
 40
7.0
 40
8.0
 40
8.0
 40
8.0
 40
9.0
 40
9.0
 40
9.0
 40
10.0
 40
10.0
 40
10.0
 40
11.0
 40
11.0
 40
11.0
 40
12.0
 40
12.0
 40
12.0
 40
13.0
 40
13.0
 40
13.0
 40
13.0
 10
85.10402151735246
 20
-119.6336968016888
 30
0.0
 10
84.88611922791041
 20
-119.7923434487846
 30
0.0
 10
84.7929293950344
 20
-119.8664130017174
 30
0.0
 10
84.74435354869239
 20
-120.0102457382266
 30
0.0
 10
84.74435354869239
 20
-120.0102457382266
 30
0.0
 10
85.52277287358459
 20
-120.0102457382266
 30
0.0
 10
85.52277287358459
 20
-120.0102457382266
 30
0.0
 10
85.52277287358459
 20
-120.0102457382266
 30
0.0
 10
85.52277287358459
 20
-120.2154011743732
 30
0.0
 10
85.52277287358459
 20
-120.2154011743732
 30
0.0
 10
85.52277287358459
 20
-120.2154011743732
 30
0.0
 10
84.49475638078604
 20
-120.2154011743732
 30
0.0
 10
84.49475638078604
 20
-120.2154011743732
 30
0.0
 10
84.52645125925034
 20
-119.8578002630043
 30
0.0
 10
84.59190807347008
 20
-119.7795965954891
 30
0.0
 10
84.97706974872101
 20
-119.4812513264665
 30
0.0
 10
85.23304034327508
 20
-119.2824693169676
 30
0.0
 10
85.29849715749482
 20
-119.2147731906824
 30
0.0
 10
85.29849715749482
 20
-119.077313880821
 30
0.0
 10
85.29849715749482
 20
-118.9588025961284
 30
0.0
 10
85.22666691662737
 20
-118.8277167129146
 30
0.0
 10
85.0299519644196
 20
-118.8277167129146
 30
0.0
 10
84.76967500050897
 20
-118.8277167129146
 30
0.0
 10
84.76123451657011
 20
-119.0581936008778
 30
0.0
 10
84.75692814721354
 20
-119.1746378282793
 30
0.0
 10
84.75692814721354
 20
-119.1746378282793
 30
0.0
 10
84.53282468589805
 20
-119.1746378282793
 30
0.0
 10
84.53282468589805
 20
-119.1746378282793
 30
0.0
 10
84.5412651698369
 20
-119.0476860596478
 30
0.0
 10
84.55177271106692
 20
-118.9355482016029
 30
0.0
 10
84.6322156906475
 20
-118.8170369169103
 30
0.0
 10
84.74211423662697
 20
-118.6563232125234
 30
0.0
 10
84.92832164760473
 20
-118.6223890219937
 30
0.0
 10
85.04476587500618
 20
-118.6223890219937
 30
0.0
 10
85.32192380679453
 20
-118.6223890219937
 30
0.0
 10
85.5291463002323
 20
-118.8065293756803
 30
0.0
 10
85.5291463002323
 20
-119.0793809381121
 30
0.0
 10
85.5291463002323
 20
-119.3077907687842
 30
0.0
 10
85.41287432760512
 20
-119.4073540283079
 30
0.0
 10
85.10402151735246
 20
-119.6336968016888
 30
0.0
  0
HATCH
  5
B5
330
B0
100
AcDbEntity
  8
_U+30EC_U+30A4_U+30E4_U+30FC 1
 62
   179
420
  2234388
100
AcDbHatch
 10
0.0
 20
0.0
 30
0.0
210
0.0
220
0.0
230
1.0
  2
SOLID
 70
     1
 71
     0
 91
        1
 92
        1
 93
        1
 72
     4
 94
        3
 73
     0
 74
     1
 95
       44
 96
       40
 40
0.0
 40
0.0
 40
0.0
 40
0.0
 40
1.0
 40
1.0
 40
1.0
 40
2.0
 40
2.0
 40
2.0
 40
3.0
 40
3.0
 40
3.0
 40
4.0
 40
4.0
 40
4.0
 40
5.0
 40
5.0
 40
5.0
 40
6.0
 40
6.0
 40
6.0
 40
7.0
 40
7.0
 40
7.0
 40
8.0
 40
8.0
 40
8.0
 40
9.0
 40
9.0
 40
9.0
 40
10.0
 40
10.0
 40
10.0
 40
11.0
 40
11.0
 40
11.0
 40
12.0
 40
12.0
 40
12.0
 40
13.0
 40
13.0
 40
13.0
 40
13.0
 10
85.10402151735246
 20
-119.6336968016888
 10
84.88611922791041
 20
-119.7923434487846
 10
84.7929293950344
 20
-119.8664130017174
 10
84.74435354869239
 20
-120.0102457382266
 10
84.74435354869239
 20
-120.0102457382266
 10
85.52277287358459
 20
-120.0102457382266
 10
85.52277287358459
 20
-120.0102457382266
 10
85.52277287358459
 20
-120.0102457382266
 10
85.52277287358459
 20
-120.2154011743732
 10
85.52277287358459
 20
-120.2154011743732
 10
85.52277287358459
 20
-120.2154011743732
 10
84.49475638078604
 20
-120.2154011743732
 10
84.49475638078604
 20
-120.2154011743732
 10
84.52645125925034
 20
-119.8578002630043
 10
84.59190807347008
 20
-119.7795965954891
 10
84.97706974872101
 20
-119.4812513264665
 10
85.23304034327508
 20
-119.2824693169676
 10
85.29849715749482
 20
-119.2147731906824
 10
85.29849715749482
 20
-119.077313880821
 10
85.29849715749482
 20
-118.9588025961284
 10
85.22666691662737
 20
-118.8277167129146
 10
85.0299519644196
 20
-118.8277167129146
 10
84.76967500050897
 20
-118.8277167129146
 10
84.76123451657011
 20
-119.0581936008778
 10
84.75692814721354
 20
-119.1746378282793
 10
84.75692814721354
 20
-119.1746378282793
 10
84.53282468589805
 20
-119.1746378282793
 10
84.53282468589805
 20
-119.1746378282793
 10
84.5412651698369
 20
-119.0476860596478
 10
84.55177271106692
 20
-118.9355482016029
 10
84.6322156906475
 20
-118.8170369169103
 10
84.74211423662697
 20
-118.6563232125234
 10
84.92832164760473
 20
-118.6223890219937
 10
85.04476587500618
 20
-118.6223890219937
 10
85.32192380679453
 20
-118.6223890219937
 10
85.5291463002323
 20
-118.8065293756803
 10
85.5291463002323
 20
-119.0793809381121
 10
85.5291463002323
 20
-119.3077907687842
 10
85.41287432760512
 20
-119.4073540283079
 10
85.10402151735246
 20
-119.6336968016888
 97
        0
 97
        0
 75
     2
 76
     1
 98
        0
  0
SPLINE
  5
B6
330
B0
100
AcDbEntity
  8
_U+30EC_U+30A4_U+30E4_U+30FC 1
370
     0
100
AcDbSpline
210
0.0
220
0.0
230
1.0
 70
    11
 71
     3
 72
    53
 73
    49
 74
     0
 42
0.0000000001
 43
0.0000000001
 12
1.0
 22
0.0
 32
0.0
 13
1.0
 23
0.0
 33
0.0
 40
0.0
 40
0.0
 40
0.0
 40
0.0
 40
1.0
 40
1.0
 40
1.0
 40
2.0
 40
2.0
 40
2.0
 40
3.0
 40
3.0
 40
3.0
 40
4.0
 40
4.0
 40
4.0
 40
5.0
 40
5.0
 40
5.0
 40
6.0
 40
6.0
 40
6.0
 40
7.0
 40
7.0
 40
7.0
 40
8.0
 40
8.0
 40
8.0
 40
9.0
 40
9.0
 40
9.0
 40
10.0
 40
10.0
 40
10.0
 40
11.0
 40
11.0
 40
11.0
 40
12.0
 40
12.0
 40
12.0
 40
13.0
 40
13.0
 40
13.0
 40
14.0
 40
14.0
 40
14.0
 40
15.0
 40
15.0
 40
15.0
 40
16.0
 40
16.0
 40
16.0
 40
16.0
 10
86.16872827706894
 20
-120.2662163327807
 30
0.0
 10
86.09052460955377
 20
-120.2662163327807
 30
0.0
 10
85.98889429273889
 20
-120.2491631101287
 30
0.0
 10
85.88726397592401
 20
-120.1857733532001
 30
0.0
 10
85.71397567301595
 20
-120.0757025524464
 30
0.0
 10
85.6926160810074
 20
-119.9446166692326
 30
0.0
 10
85.67366805583853
 20
-119.8367851805443
 30
0.0
 10
85.67366805583853
 20
-119.8367851805443
 30
0.0
 10
85.89587671463714
 20
-119.8367851805443
 30
0.0
 10
85.89587671463714
 20
-119.8367851805443
 30
0.0
 10
85.95065373285262
 20
-120.0355671900432
 30
0.0
 10
86.07777775625834
 20
-120.0651950112163
 30
0.0
 10
86.17079533436008
 20
-120.0651950112163
 30
0.0
 10
86.3103217015127
 20
-120.0651950112163
 30
0.0
 10
86.46259492196074
 20
-119.9658040064669
 30
0.0
 10
86.46259492196074
 20
-119.7330878064383
 30
0.0
 10
86.46259492196074
 20
-119.4771172118842
 30
0.0
 10
86.2827609376307
 20
-119.4073540283079
 30
0.0
 10
86.16218259564695
 20
-119.4073540283079
 30
0.0
 10
86.13048771718266
 20
-119.4073540283079
 30
0.0
 10
85.98889429273889
 20
-119.4073540283079
 30
0.0
 10
85.90001082921944
 20
-119.5363728542305
 30
0.0
 10
85.90001082921944
 20
-119.5363728542305
 30
0.0
 10
85.72431095947171
 20
-119.5172525742874
 30
0.0
 10
85.72431095947171
 20
-119.5172525742874
 30
0.0
 10
85.72431095947171
 20
-119.5172525742874
 30
0.0
 10
85.84488930145545
 20
-118.67113712311
 30
0.0
 10
85.84488930145545
 20
-118.67113712311
 30
0.0
 10
85.84488930145545
 20
-118.67113712311
 30
0.0
 10
86.6234808811219
 20
-118.67113712311
 30
0.0
 10
86.6234808811219
 20
-118.67113712311
 30
0.0
 10
86.6234808811219
 20
-118.67113712311
 30
0.0
 10
86.6234808811219
 20
-118.8657850180266
 30
0.0
 10
86.6234808811219
 20
-118.8657850180266
 30
0.0
 10
86.6234808811219
 20
-118.8657850180266
 30
0.0
 10
86.00784231790776
 20
-118.8657850180266
 30
0.0
 10
86.00784231790776
 20
-118.8657850180266
 30
0.0
 10
86.00784231790776
 20
-118.8657850180266
 30
0.0
 10
85.94238550368802
 20
-119.2888427436153
 30
0.0
 10
85.94238550368802
 20
-119.2888427436153
 30
0.0
 10
86.00370820332546
 20
-119.2549085530856
 30
0.0
 10
86.08604598542294
 20
-119.2147731906824
 30
0.0
 10
86.20455727011553
 20
-119.2147731906824
 30
0.0
 10
86.45846080737844
 20
-119.2147731906824
 30
0.0
 10
86.69548337676363
 20
-119.4009806016602
 30
0.0
 10
86.69548337676363
 20
-119.7139675264951
 30
0.0
 10
86.69548337676363
 20
-120.0314330754609
 30
0.0
 10
86.47120766067387
 20
-120.2662163327807
 30
0.0
 10
86.16872827706894
 20
-120.2662163327807
 30
0.0
  0
HATCH
  5
B7
330
B0
100
AcDbEntity
  8
_U+30EC_U+30A4_U+30E4_U+30FC 1
 62
   179
420
  2234388
100
AcDbHatch
 10
0.0
 20
0.0
 30
0.0
210
0.0
220
0.0
230
1.0
  2
SOLID
 70
     1
 71
     0
 91
        1
 92
        1
 93
        1
 72
     4
 94
        3
 73
     0
 74
     1
 95
       53
 96
       49
 40
0.0
 40
0.0
 40
0.0
 40
0.0
 40
1.0
 40
1.0
 40
1.0
 40
2.0
 40
2.0
 40
2.0
 40
3.0
 40
3.0
 40
3.0
 40
4.0
 40
4.0
 40
4.0
 40
5.0
 40
5.0
 40
5.0
 40
6.0
 40
6.0
 40
6.0
 40
7.0
 40
7.0
 40
7.0
 40
8.0
 40
8.0
 40
8.0
 40
9.0
 40
9.0
 40
9.0
 40
10.0
 40
10.0
 40
10.0
 40
11.0
 40
11.0
 40
11.0
 40
12.0
 40
12.0
 40
12.0
 40
13.0
 40
13.0
 40
13.0
 40
14.0
 40
14.0
 40
14.0
 40
15.0
 40
15.0
 40
15.0
 40
16.0
 40
16.0
 40
16.0
 40
16.0
 10
86.16872827706894
 20
-120.2662163327807
 10
86.09052460955377
 20
-120.2662163327807
 10
85.98889429273889
 20
-120.2491631101287
 10
85.88726397592401
 20
-120.1857733532001
 10
85.71397567301595
 20
-120.0757025524464
 10
85.6926160810074
 20
-119.9446166692326
 10
85.67366805583853
 20
-119.8367851805443
 10
85.67366805583853
 20
-119.8367851805443
 10
85.89587671463714
 20
-119.8367851805443
 10
85.89587671463714
 20
-119.8367851805443
 10
85.95065373285262
 20
-120.0355671900432
 10
86.07777775625834
 20
-120.0651950112163
 10
86.17079533436008
 20
-120.0651950112163
 10
86.3103217015127
 20
-120.0651950112163
 10
86.46259492196074
 20
-119.9658040064669
 10
86.46259492196074
 20
-119.7330878064383
 10
86.46259492196074
 20
-119.4771172118842
 10
86.2827609376307
 20
-119.4073540283079
 10
86.16218259564695
 20
-119.4073540283079
 10
86.13048771718266
 20
-119.4073540283079
 10
85.98889429273889
 20
-119.4073540283079
 10
85.90001082921944
 20
-119.5363728542305
 10
85.90001082921944
 20
-119.5363728542305
 10
85.72431095947171
 20
-119.5172525742874
 10
85.72431095947171
 20
-119.5172525742874
 10
85.72431095947171
 20
-119.5172525742874
 10
85.84488930145545
 20
-118.67113712311
 10
85.84488930145545
 20
-118.67113712311
 10
85.84488930145545
 20
-118.67113712311
 10
86.6234808811219
 20
-118.67113712311
 10
86.6234808811219
 20
-118.67113712311
 10
86.6234808811219
 20
-118.67113712311
 10
86.6234808811219
 20
-118.8657850180266
 10
86.6234808811219
 20
-118.8657850180266
 10
86.6234808811219
 20
-118.8657850180266
 10
86.00784231790776
 20
-118.8657850180266
 10
86.00784231790776
 20
-118.8657850180266
 10
86.00784231790776
 20
-118.8657850180266
 10
85.94238550368802
 20
-119.2888427436153
 10
85.94238550368802
 20
-119.2888427436153
 10
86.00370820332546
 20
-119.2549085530856
 10
86.08604598542294
 20
-119.2147731906824
 10
86.20455727011553
 20
-119.2147731906824
 10
86.45846080737844
 20
-119.2147731906824
 10
86.69548337676363
 20
-119.4009806016602
 10
86.69548337676363
 20
-119.7139675264951
 10
86.69548337676363
 20
-120.0314330754609
 10
86.47120766067387
 20
-120.2662163327807
 10
86.16872827706894
 20
-120.2662163327807
 97
        0
 97
        0
 75
     2
 76
     1
 98
        0
  0
ENDBLK
  5
B3
330
B0
100
AcDbEntity
  8
0
100
AcDbBlockEnd
  0
BLOCK
  5
BA
330
B8
100
AcDbEntity
  8
0
100
AcDbBlockBegin
  2
block 7
 70
     0
 10
0.0
 20
0.0
 30
0.0
  3
block 7
  1

  0
POLYLINE
  5
BC
330
B8
100
AcDbEntity
  8
_U+30EC_U+30A4_U+30E4_U+30FC 1
 62
   179
420
  2234388
370
     9
100
AcDb2dPolyline
 66
     1
 10
0.0
 20
0.0
 30
0.0
  0
VERTEX
  5
BD
330
BC
100
AcDbEntity
  8
_U+30EC_U+30A4_U+30E4_U+30FC 1
 62
   179
420
  2234388
370
     9
100
AcDbVertex
100
AcDb2dVertex
 10
102.099886085586
 20
-124.8616374687847
 30
0.0
  0
VERTEX
  5
BE
330
BC
100
AcDbEntity
  8
_U+30EC_U+30A4_U+30E4_U+30FC 1
 62
   179
420
  2234388
370
     9
100
AcDbVertex
100
AcDb2dVertex
 10
102.099886085586
 20
-121.0913249697272
 30
0.0
  0
SEQEND
  5
BF
330
BC
100
AcDbEntity
  8
_U+30EC_U+30A4_U+30E4_U+30FC 1
 62
   179
420
  2234388
370
     9
  0
POLYLINE
  5
C0
330
B8
100
AcDbEntity
  8
_U+30EC_U+30A4_U+30E4_U+30FC 1
 62
   179
420
  2234388
370
     9
100
AcDb2dPolyline
 66
     1
 10
0.0
 20
0.0
 30
0.0
  0
VERTEX
  5
C1
330
C0
100
AcDbEntity
  8
_U+30EC_U+30A4_U+30E4_U+30FC 1
 62
   179
420
  2234388
370
     9
100
AcDbVertex
100
AcDb2dVertex
 10
102.099886085586
 20
-124.8616374687847
 30
0.0
  0
VERTEX
  5
C2
330
C0
100
AcDbEntity
  8
_U+30EC_U+30A4_U+30E4_U+30FC 1
 62
   179
420
  2234388
370
     9
100
AcDbVertex
100
AcDb2dVertex
 10
102.099886085586
 20
-125.8614096907569
 30
0.0
  0
SEQEND
  5
C3
330
C0
100
AcDbEntity
  8
_U+30EC_U+30A4_U+30E4_U+30FC 1
 62
   179
420
  2234388
370
     9
  0
POLYLINE
  5
C4
330
B8
100
AcDbEntity
  8
_U+30EC_U+30A4_U+30E4_U+30FC 1
 62
   179
420
  2234388
370
     9
100
AcDb2dPolyline
 66
     1
 10
0.0
 20
0.0
 30
0.0
  0
VERTEX
  5
C5
330
C4
100
AcDbEntity
  8
_U+30EC_U+30A4_U+30E4_U+30FC 1
 62
   179
420
  2234388
370
     9
100
AcDbVertex
100
AcDb2dVertex
 10
100.639842154686
 20
-124.8616374687847
 30
0.0
  0
VERTEX
  5
C6
330
C4
100
AcDbEntity
  8
_U+30EC_U+30A4_U+30E4_U+30FC 1
 62
   179
420
  2234388
370
     9
100
AcDbVertex
100
AcDb2dVertex
 10
103.0996583075585
 20
-124.8616374687847
 30
0.0
  0
SEQEND
  5
C7
330
C4
100
AcDbEntity
  8
_U+30EC_U+30A4_U+30E4_U+30FC 1
 62
   179
420
  2234388
370
     9
  0
POLYLINE
  5
C8
330
B8
100
AcDbEntity
  8
_U+30EC_U+30A4_U+30E4_U+30FC 1
 62
   179
420
  2234388
370
     9
100
AcDb2dPolyline
 66
     1
 10
0.0
 20
0.0
 30
0.0
  0
VERTEX
  5
C9
330
C8
100
AcDbEntity
  8
_U+30EC_U+30A4_U+30E4_U+30FC 1
 62
   179
420
  2234388
370
     9
100
AcDbVertex
100
AcDb2dVertex
 10
100.639842154686
 20
-125.8614096907569
 30
0.0
  0
VERTEX
  5
CA
330
C8
100
AcDbEntity
  8
_U+30EC_U+30A4_U+30E4_U+30FC 1
 62
   179
420
  2234388
370
     9
100
AcDbVertex
100
AcDb2dVertex
 10
103.0996583075585
 20
-125.8614096907569
 30
0.0
  0
SEQEND
  5
CB
330
C8
100
AcDbEntity
  8
_U+30EC_U+30A4_U+30E4_U+30FC 1
 62
   179
420
  2234388
370
     9
  0
INSERT
  5
CD
330
B8
100
AcDbEntity
  8
_U+30EC_U+30A4_U+30E4_U+30FC 1
100
AcDbBlockReference
  2
block 8
 10
0.0
 20
0.0
 30
0.0
  0
ENDBLK
  5
BB
330
B8
100
AcDbEntity
  8
0
100
AcDbBlockEnd
  0
BLOCK
  5
CE
330
CC
100
AcDbEntity
  8
0
100
AcDbBlockBegin
  2
block 8
 70
     0
 10
0.0
 20
0.0
 30
0.0
  3
block 8
  1

  0
SPLINE
  5
D0
330
CC
100
AcDbEntity
  8
_U+30EC_U+30A4_U+30E4_U+30FC 1
370
     0
100
AcDbSpline
210
0.0
220
0.0
230
1.0
 70
    11
 71
     3
 72
    26
 73
    22
 74
     0
 42
0.0000000001
 43
0.0000000001
 12
1.0
 22
0.0
 32
0.0
 13
1.0
 23
0.0
 33
0.0
 40
0.0
 40
0.0
 40
0.0
 40
0.0
 40
1.0
 40
1.0
 40
1.0
 40
2.0
 40
2.0
 40
2.0
 40
3.0
 40
3.0
 40
3.0
 40
4.0
 40
4.0
 40
4.0
 40
5.0
 40
5.0
 40
5.0
 40
6.0
 40
6.0
 40
6.0
 40
7.0
 40
7.0
 40
7.0
 40
7.0
 10
106.392472304131
 20
-125.6726046777832
 30
0.0
 10
106.392472304131
 20
-125.6726046777832
 30
0.0
 10
105.2883192011085
 20
-125.6726046777832
 30
0.0
 10
105.2883192011085
 20
-125.6726046777832
 30
0.0
 10
105.2883192011085
 20
-125.6726046777832
 30
0.0
 10
105.2883192011085
 20
-126.0026448252702
 30
0.0
 10
105.2883192011085
 20
-126.0026448252702
 30
0.0
 10
105.2883192011085
 20
-126.0026448252702
 30
0.0
 10
105.1401800952427
 20
-126.0026448252702
 30
0.0
 10
105.1401800952427
 20
-126.0026448252702
 30
0.0
 10
105.1253661846562
 20
-125.6705376204921
 30
0.0
 10
104.9624131682039
 20
-125.6240288314412
 30
0.0
 10
104.8480359980936
 20
-125.5944010102681
 30
0.0
 10
104.8480359980936
 20
-125.5944010102681
 30
0.0
 10
104.8480359980936
 20
-125.4483289616935
 30
0.0
 10
104.8480359980936
 20
-125.4483289616935
 30
0.0
 10
104.8480359980936
 20
-125.4483289616935
 30
0.0
 10
106.392472304131
 20
-125.4483289616935
 30
0.0
 10
106.392472304131
 20
-125.4483289616935
 30
0.0
 10
106.392472304131
 20
-125.4483289616935
 30
0.0
 10
106.392472304131
 20
-125.6726046777832
 30
0.0
 10
106.392472304131
 20
-125.6726046777832
 30
0.0
  0
HATCH
  5
D1
330
CC
100
AcDbEntity
  8
_U+30EC_U+30A4_U+30E4_U+30FC 1
 62
   179
420
  2234388
100
AcDbHatch
 10
0.0
 20
0.0
 30
0.0
210
0.0
220
0.0
230
1.0
  2
SOLID
 70
     1
 71
     0
 91
        1
 92
        1
 93
        1
 72
     4
 94
        3
 73
     0
 74
     1
 95
       26
 96
       22
 40
0.0
 40
0.0
 40
0.0
 40
0.0
 40
1.0
 40
1.0
 40
1.0
 40
2.0
 40
2.0
 40
2.0
 40
3.0
 40
3.0
 40
3.0
 40
4.0
 40
4.0
 40
4.0
 40
5.0
 40
5.0
 40
5.0
 40
6.0
 40
6.0
 40
6.0
 40
7.0
 40
7.0
 40
7.0
 40
7.0
 10
106.392472304131
 20
-125.6726046777832
 10
106.392472304131
 20
-125.6726046777832
 10
105.2883192011085
 20
-125.6726046777832
 10
105.2883192011085
 20
-125.6726046777832
 10
105.2883192011085
 20
-125.6726046777832
 10
105.2883192011085
 20
-126.0026448252702
 10
105.2883192011085
 20
-126.0026448252702
 10
105.2883192011085
 20
-126.0026448252702
 10
105.1401800952427
 20
-126.0026448252702
 10
105.1401800952427
 20
-126.0026448252702
 10
105.1253661846562
 20
-125.6705376204921
 10
104.9624131682039
 20
-125.6240288314412
 10
104.8480359980936
 20
-125.5944010102681
 10
104.8480359980936
 20
-125.5944010102681
 10
104.8480359980936
 20
-125.4483289616935
 10
104.8480359980936
 20
-125.4483289616935
 10
104.8480359980936
 20
-125.4483289616935
 10
106.392472304131
 20
-125.4483289616935
 10
106.392472304131
 20
-125.4483289616935
 10
106.392472304131
 20
-125.4483289616935
 10
106.392472304131
 20
-125.6726046777832
 10
106.392472304131
 20
-125.6726046777832
 97
        0
 97
        0
 75
     2
 76
     1
 98
        0
  0
ENDBLK
  5
CF
330
CC
100
AcDbEntity
  8
0
100
AcDbBlockEnd
  0
BLOCK
  5
D4
330
D2
100
AcDbEntity
  8
0
100
AcDbBlockBegin
  2
block 9
 70
     0
 10
0.0
 20
0.0
 30
0.0
  3
block 9
  1

  0
POLYLINE
  5
D6
330
D2
100
AcDbEntity
  8
_U+30EC_U+30A4_U+30E4_U+30FC 1
 62
   179
420
  2234388
370
     9
100
AcDb2dPolyline
 66
     1
 10
0.0
 20
0.0
 30
0.0
  0
VERTEX
  5
D7
330
D6
100
AcDbEntity
  8
_U+30EC_U+30A4_U+30E4_U+30FC 1
 62
   179
420
  2234388
370
     9
100
AcDbVertex
100
AcDb2dVertex
 10
102.099886085586
 20
-131.8613835781459
 30
0.0
  0
VERTEX
  5
D8
330
D6
100
AcDbEntity
  8
_U+30EC_U+30A4_U+30E4_U+30FC 1
 62
   179
420
  2234388
370
     9
100
AcDbVertex
100
AcDb2dVertex
 10
102.099886085586
 20
-134.8613705218402
 30
0.0
  0
SEQEND
  5
D9
330
D6
100
AcDbEntity
  8
_U+30EC_U+30A4_U+30E4_U+30FC 1
 62
   179
420
  2234388
370
     9
  0
POLYLINE
  5
DA
330
D2
100
AcDbEntity
  8
_U+30EC_U+30A4_U+30E4_U+30FC 1
 62
   179
420
  2234388
370
     9
100
AcDb2dPolyline
 66
     1
 10
0.0
 20
0.0
 30
0.0
  0
VERTEX
  5
DB
330
DA
100
AcDbEntity
  8
_U+30EC_U+30A4_U+30E4_U+30FC 1
 62
   179
420
  2234388
370
     9
100
AcDbVertex
100
AcDb2dVertex
 10
85.63990781514393
 20
-134.8613705218402
 30
0.0
  0
VERTEX
  5
DC
330
DA
100
AcDbEntity
  8
_U+30EC_U+30A4_U+30E4_U+30FC 1
 62
   179
420
  2234388
370
     9
100
AcDbVertex
100
AcDb2dVertex
 10
103.0996583075585
 20
-134.8613705218402
 30
0.0
  0
SEQEND
  5
DD
330
DA
100
AcDbEntity
  8
_U+30EC_U+30A4_U+30E4_U+30FC 1
 62
   179
420
  2234388
370
     9
  0
INSERT
  5
DF
330
D2
100
AcDbEntity
  8
_U+30EC_U+30A4_U+30E4_U+30FC 1
100
AcDbBlockReference
  2
block 10
 10
0.0
 20
0.0
 30
0.0
  0
ENDBLK
  5
D5
330
D2
100
AcDbEntity
  8
0
100
AcDbBlockEnd
  0
BLOCK
  5
E0
330
DE
100
AcDbEntity
  8
0
100
AcDbBlockBegin
  2
block 10
 70
     0
 10
0.0
 20
0.0
 30
0.0
  3
block 10
  1

  0
SPLINE
  5
E2
330
DE
100
AcDbEntity
  8
_U+30EC_U+30A4_U+30E4_U+30FC 1
370
     0
100
AcDbSpline
210
0.0
220
0.0
230
1.0
 70
    11
 71
     3
 72
    62
 73
    58
 74
     0
 42
0.0000000001
 43
0.0000000001
 12
1.0
 22
0.0
 32
0.0
 13
1.0
 23
0.0
 33
0.0
 40
0.0
 40
0.0
 40
0.0
 40
0.0
 40
1.0
 40
1.0
 40
1.0
 40
2.0
 40
2.0
 40
2.0
 40
3.0
 40
3.0
 40
3.0
 40
4.0
 40
4.0
 40
4.0
 40
5.0
 40
5.0
 40
5.0
 40
6.0
 40
6.0
 40
6.0
 40
7.0
 40
7.0
 40
7.0
 40
8.0
 40
8.0
 40
8.0
 40
9.0
 40
9.0
 40
9.0
 40
10.0
 40
10.0
 40
10.0
 40
11.0
 40
11.0
 40
11.0
 40
12.0
 40
12.0
 40
12.0
 40
13.0
 40
13.0
 40
13.0
 40
14.0
 40
14.0
 40
14.0
 40
15.0
 40
15.0
 40
15.0
 40
16.0
 40
16.0
 40
16.0
 40
17.0
 40
17.0
 40
17.0
 40
18.0
 40
18.0
 40
18.0
 40
19.0
 40
19.0
 40
19.0
 40
19.0
 10
101.5042263201101
 20
-133.3692925013799
 30
0.0
 10
101.5042263201101
 20
-133.4647216463213
 30
0.0
 10
101.48321123765
 20
-133.6824516809891
 30
0.0
 10
101.2971760814465
 20
-133.8075086471037
 30
0.0
 10
101.1848659686274
 20
-133.881233690488
 30
0.0
 10
101.0856472186522
 20
-133.8857123146188
 30
0.0
 10
101.0008978697151
 20
-133.8898464292012
 30
0.0
 10
101.0008978697151
 20
-133.8898464292012
 30
0.0
 10
101.0008978697151
 20
-133.6697048276937
 30
0.0
 10
101.0008978697151
 20
-133.6697048276937
 30
0.0
 10
101.0749674226479
 20
-133.6676377704025
 30
0.0
 10
101.3095784251935
 20
-133.6573024839468
 30
0.0
 10
101.3095784251935
 20
-133.3737711255107
 30
0.0
 10
101.3095784251935
 20
-133.2363118156493
 30
0.0
 10
101.2399874963914
 20
-133.0836940856527
 30
0.0
 10
101.0115776657193
 20
-133.0836940856527
 30
0.0
 10
100.8951334383179
 20
-133.0836940856527
 30
0.0
 10
100.8465575919759
 20
-133.121934645539
 30
0.0
 10
100.8148627135116
 20
-133.1536295240033
 30
0.0
 10
100.7407931605787
 20
-133.2276990769361
 30
0.0
 10
100.7280463072833
 20
-133.3441433043376
 30
0.0
 10
100.7280463072833
 20
-133.3989203225531
 30
0.0
 10
100.7280463072833
 20
-133.4182128572704
 30
0.0
 10
100.7301133645744
 20
-133.4540418503171
 30
0.0
 10
100.7342474791567
 20
-133.4816026141991
 30
0.0
 10
100.7342474791567
 20
-133.4816026141991
 30
0.0
 10
100.5395995842401
 20
-133.4816026141991
 30
0.0
 10
100.5395995842401
 20
-133.4816026141991
 30
0.0
 10
100.5461452656621
 20
-133.4433620543128
 30
0.0
 10
100.5482123229532
 20
-133.4013318893927
 30
0.0
 10
100.5482123229532
 20
-133.3947862079708
 30
0.0
 10
100.5482123229532
 20
-133.329329393751
 30
0.0
 10
100.5268527309447
 20
-133.1305473842521
 30
0.0
 10
100.290174671108
 20
-133.1305473842521
 30
0.0
 10
100.1124077440691
 20
-133.1305473842521
 30
0.0
 10
100.0572862163051
 20
-133.2614610126916
 30
0.0
 10
100.0572862163051
 20
-133.3717040682196
 30
0.0
 10
100.0572862163051
 20
-133.6359428919382
 30
0.0
 10
100.290174671108
 20
-133.6445556306514
 30
0.0
 10
100.3618326572012
 20
-133.6486897452337
 30
0.0
 10
100.3618326572012
 20
-133.6486897452337
 30
0.0
 10
100.3618326572012
 20
-133.8519503788634
 30
0.0
 10
100.3618326572012
 20
-133.8519503788634
 30
0.0
 10
100.2371202006352
 20
-133.8433376401503
 30
0.0
 10
99.86057126409736
 20
-133.8157768762683
 30
0.0
 10
99.86057126409736
 20
-133.3589572149241
 30
0.0
 10
99.86057126409736
 20
-133.1346814988344
 30
0.0
 10
99.98769528750309
 20
-132.8935248148669
 30
0.0
 10
100.283628989686
 20
-132.8935248148669
 30
0.0
 10
100.4700086554381
 20
-132.8935248148669
 30
0.0
 10
100.5523464375355
 20
-132.9886094502598
 30
0.0
 10
100.613669137173
 20
-133.0881727097835
 30
0.0
 10
100.641229901055
 20
-133.0268500101461
 30
0.0
 10
100.7215006258613
 20
-132.8449489685249
 30
0.0
 10
100.9988308124239
 20
-132.8449489685249
 30
0.0
 10
101.3371391890754
 20
-132.8449489685249
 30
0.0
 10
101.5042263201101
 20
-133.0923068243658
 30
0.0
 10
101.5042263201101
 20
-133.3692925013799
 30
0.0
  0
HATCH
  5
E3
330
DE
100
AcDbEntity
  8
_U+30EC_U+30A4_U+30E4_U+30FC 1
 62
   179
420
  2234388
100
AcDbHatch
 10
0.0
 20
0.0
 30
0.0
210
0.0
220
0.0
230
1.0
  2
SOLID
 70
     1
 71
     0
 91
        1
 92
        1
 93
        1
 72
     4
 94
        3
 73
     0
 74
     1
 95
       62
 96
       58
 40
0.0
 40
0.0
 40
0.0
 40
0.0
 40
1.0
 40
1.0
 40
1.0
 40
2.0
 40
2.0
 40
2.0
 40
3.0
 40
3.0
 40
3.0
 40
4.0
 40
4.0
 40
4.0
 40
5.0
 40
5.0
 40
5.0
 40
6.0
 40
6.0
 40
6.0
 40
7.0
 40
7.0
 40
7.0
 40
8.0
 40
8.0
 40
8.0
 40
9.0
 40
9.0
 40
9.0
 40
10.0
 40
10.0
 40
10.0
 40
11.0
 40
11.0
 40
11.0
 40
12.0
 40
12.0
 40
12.0
 40
13.0
 40
13.0
 40
13.0
 40
14.0
 40
14.0
 40
14.0
 40
15.0
 40
15.0
 40
15.0
 40
16.0
 40
16.0
 40
16.0
 40
17.0
 40
17.0
 40
17.0
 40
18.0
 40
18.0
 40
18.0
 40
19.0
 40
19.0
 40
19.0
 40
19.0
 10
101.5042263201101
 20
-133.3692925013799
 10
101.5042263201101
 20
-133.4647216463213
 10
101.48321123765
 20
-133.6824516809891
 10
101.2971760814465
 20
-133.8075086471037
 10
101.1848659686274
 20
-133.881233690488
 10
101.0856472186522
 20
-133.8857123146188
 10
101.0008978697151
 20
-133.8898464292012
 10
101.0008978697151
 20
-133.8898464292012
 10
101.0008978697151
 20
-133.6697048276937
 10
101.0008978697151
 20
-133.6697048276937
 10
101.0749674226479
 20
-133.6676377704025
 10
101.3095784251935
 20
-133.6573024839468
 10
101.3095784251935
 20
-133.3737711255107
 10
101.3095784251935
 20
-133.2363118156493
 10
101.2399874963914
 20
-133.0836940856527
 10
101.0115776657193
 20
-133.0836940856527
 10
100.8951334383179
 20
-133.0836940856527
 10
100.8465575919759
 20
-133.121934645539
 10
100.8148627135116
 20
-133.1536295240033
 10
100.7407931605787
 20
-133.2276990769361
 10
100.7280463072833
 20
-133.3441433043376
 10
100.7280463072833
 20
-133.3989203225531
 10
100.7280463072833
 20
-133.4182128572704
 10
100.7301133645744
 20
-133.4540418503171
 10
100.7342474791567
 20
-133.4816026141991
 10
100.7342474791567
 20
-133.4816026141991
 10
100.5395995842401
 20
-133.4816026141991
 10
100.5395995842401
 20
-133.4816026141991
 10
100.5461452656621
 20
-133.4433620543128
 10
100.5482123229532
 20
-133.4013318893927
 10
100.5482123229532
 20
-133.3947862079708
 10
100.5482123229532
 20
-133.329329393751
 10
100.5268527309447
 20
-133.1305473842521
 10
100.290174671108
 20
-133.1305473842521
 10
100.1124077440691
 20
-133.1305473842521
 10
100.0572862163051
 20
-133.2614610126916
 10
100.0572862163051
 20
-133.3717040682196
 10
100.0572862163051
 20
-133.6359428919382
 10
100.290174671108
 20
-133.6445556306514
 10
100.3618326572012
 20
-133.6486897452337
 10
100.3618326572012
 20
-133.6486897452337
 10
100.3618326572012
 20
-133.8519503788634
 10
100.3618326572012
 20
-133.8519503788634
 10
100.2371202006352
 20
-133.8433376401503
 10
99.86057126409736
 20
-133.8157768762683
 10
99.86057126409736
 20
-133.3589572149241
 10
99.86057126409736
 20
-133.1346814988344
 10
99.98769528750309
 20
-132.8935248148669
 10
100.283628989686
 20
-132.8935248148669
 10
100.4700086554381
 20
-132.8935248148669
 10
100.5523464375355
 20
-132.9886094502598
 10
100.613669137173
 20
-133.0881727097835
 10
100.641229901055
 20
-133.0268500101461
 10
100.7215006258613
 20
-132.8449489685249
 10
100.9988308124239
 20
-132.8449489685249
 10
101.3371391890754
 20
-132.8449489685249
 10
101.5042263201101
 20
-133.0923068243658
 10
101.5042263201101
 20
-133.3692925013799
 97
        0
 97
        0
 75
     2
 76
     1
 98
        0
  0
ENDBLK
  5
E1
330
DE
100
AcDbEntity
  8
0
100
AcDbBlockEnd
  0
BLOCK
  5
E6
330
E4
100
AcDbEntity
  8
0
100
AcDbBlockBegin
  2
block 11
 70
     0
 10
0.0
 20
0.0
 30
0.0
  3
block 11
  1

  0
POLYLINE
  5
E8
330
E4
100
AcDbEntity
  8
_U+30EC_U+30A4_U+30E4_U+30FC 1
 62
   179
420
  2234388
370
     9
100
AcDb2dPolyline
 66
     1
 10
0.0
 20
0.0
 30
0.0
  0
VERTEX
  5
E9
330
E8
100
AcDbEntity
  8
_U+30EC_U+30A4_U+30E4_U+30FC 1
 62
   179
420
  2234388
370
     9
100
AcDbVertex
100
AcDb2dVertex
 10
102.099886085586
 20
-131.8613835781459
 30
0.0
  0
VERTEX
  5
EA
330
E8
100
AcDbEntity
  8
_U+30EC_U+30A4_U+30E4_U+30FC 1
 62
   179
420
  2234388
370
     9
100
AcDbVertex
100
AcDb2dVertex
 10
102.099886085586
 20
-125.8614096907569
 30
0.0
  0
SEQEND
  5
EB
330
E8
100
AcDbEntity
  8
_U+30EC_U+30A4_U+30E4_U+30FC 1
 62
   179
420
  2234388
370
     9
  0
POLYLINE
  5
EC
330
E4
100
AcDbEntity
  8
_U+30EC_U+30A4_U+30E4_U+30FC 1
 62
   179
420
  2234388
370
     9
100
AcDb2dPolyline
 66
     1
 10
0.0
 20
0.0
 30
0.0
  0
VERTEX
  5
ED
330
EC
100
AcDbEntity
  8
_U+30EC_U+30A4_U+30E4_U+30FC 1
 62
   179
420
  2234388
370
     9
100
AcDbVertex
100
AcDb2dVertex
 10
85.63990781514393
 20
-131.8613835781459
 30
0.0
  0
VERTEX
  5
EE
330
EC
100
AcDbEntity
  8
_U+30EC_U+30A4_U+30E4_U+30FC 1
 62
   179
420
  2234388
370
     9
100
AcDbVertex
100
AcDb2dVertex
 10
103.0996583075585
 20
-131.8613835781459
 30
0.0
  0
SEQEND
  5
EF
330
EC
100
AcDbEntity
  8
_U+30EC_U+30A4_U+30E4_U+30FC 1
 62
   179
420
  2234388
370
     9
  0
INSERT
  5
F1
330
E4
100
AcDbEntity
  8
_U+30EC_U+30A4_U+30E4_U+30FC 1
100
AcDbBlockReference
  2
block 12
 10
0.0
 20
0.0
 30
0.0
  0
ENDBLK
  5
E7
330
E4
100
AcDbEntity
  8
0
100
AcDbBlockEnd
  0
BLOCK
  5
F2
330
F0
100
AcDbEntity
  8
0
100
AcDbBlockBegin
  2
block 12
 70
     0
 10
0.0
 20
0.0
 30
0.0
  3
block 12
  1

  0
SPLINE
  5
F4
330
F0
100
AcDbEntity
  8
_U+30EC_U+30A4_U+30E4_U+30FC 1
370
     0
100
AcDbSpline
210
0.0
220
0.0
230
1.0
 70
    11
 71
     3
 72
    32
 73
    28
 74
     0
 42
0.0000000001
 43
0.0000000001
 12
1.0
 22
0.0
 32
0.0
 13
1.0
 23
0.0
 33
0.0
 40
0.0
 40
0.0
 40
0.0
 40
0.0
 40
1.0
 40
1.0
 40
1.0
 40
2.0
 40
2.0
 40
2.0
 40
3.0
 40
3.0
 40
3.0
 40
4.0
 40
4.0
 40
4.0
 40
5.0
 40
5.0
 40
5.0
 40
6.0
 40
6.0
 40
6.0
 40
7.0
 40
7.0
 40
7.0
 40
8.0
 40
8.0
 40
8.0
 40
9.0
 40
9.0
 40
9.0
 40
9.0
 10
101.5042263201101
 20
-129.4449842341318
 30
0.0
 10
101.5042263201101
 20
-129.9610595378223
 30
0.0
 10
100.9502549660819
 20
-129.9696722765354
 30
0.0
 10
100.7363145364479
 20
-129.9696722765354
 30
0.0
 10
100.5058376484847
 20
-129.9696722765354
 30
0.0
 10
99.85850420680622
 20
-129.950379741818
 30
0.0
 10
99.85850420680622
 20
-129.4067436742455
 30
0.0
 10
99.85850420680622
 20
-129.2334553713375
 30
0.0
 10
99.92843964515679
 20
-128.9878200632392
 30
0.0
 10
100.2605468499349
 20
-128.9499240129014
 30
0.0
 10
100.2605468499349
 20
-128.9499240129014
 30
0.0
 10
100.2605468499349
 20
-129.1635199329869
 30
0.0
 10
100.2605468499349
 20
-129.1635199329869
 30
0.0
 10
100.2033582648797
 20
-129.1741997289912
 30
0.0
 10
100.055219159014
 20
-129.2058946074555
 30
0.0
 10
100.055219159014
 20
-129.4088107315367
 30
0.0
 10
100.055219159014
 20
-129.7009548286859
 30
0.0
 10
100.3831922492098
 20
-129.7409179363148
 30
0.0
 10
100.5881754305821
 20
-129.7536647896102
 30
0.0
 10
100.509971763067
 20
-129.6606472115085
 30
0.0
 10
100.4507161207207
 20
-129.592778830449
 30
0.0
 10
100.4507161207207
 20
-129.4108777888278
 30
0.0
 10
100.4507161207207
 20
-129.2310438044978
 30
0.0
 10
100.5588921189575
 20
-128.9285644208929
 30
0.0
 10
100.9650688766685
 20
-128.9285644208929
 30
0.0
 10
101.2844292281511
 20
-128.9285644208929
 30
0.0
 10
101.5042263201101
 20
-129.1276909399403
 30
0.0
 10
101.5042263201101
 20
-129.4449842341318
 30
0.0
  0
SPLINE
  5
F5
330
F0
100
AcDbEntity
  8
_U+30EC_U+30A4_U+30E4_U+30FC 1
370
     0
100
AcDbSpline
210
0.0
220
0.0
230
1.0
 70
    11
 71
     3
 72
    17
 73
    13
 74
     0
 42
0.0000000001
 43
0.0000000001
 12
1.0
 22
0.0
 32
0.0
 13
1.0
 23
0.0
 33
0.0
 40
0.0
 40
0.0
 40
0.0
 40
0.0
 40
1.0
 40
1.0
 40
1.0
 40
2.0
 40
2.0
 40
2.0
 40
3.0
 40
3.0
 40
3.0
 40
4.0
 40
4.0
 40
4.0
 40
4.0
 10
100.6453640156373
 20
-129.4281032662541
 30
0.0
 10
100.6453640156373
 20
-129.6902750326816
 30
0.0
 10
100.8568928784316
 20
-129.7281710830194
 30
0.0
 10
100.9733371058331
 20
-129.7281710830194
 30
0.0
 10
101.1490369755808
 20
-129.7281710830194
 30
0.0
 10
101.3119899920331
 20
-129.6330864476265
 30
0.0
 10
101.3119899920331
 20
-129.4491183487141
 30
0.0
 10
101.3119899920331
 20
-129.3285400067304
 30
0.0
 10
101.2527343496868
 20
-129.1528401369826
 30
0.0
 10
100.9671359339596
 20
-129.1528401369826
 30
0.0
 10
100.7428602178698
 20
-129.1528401369826
 30
0.0
 10
100.6453640156373
 20
-129.2923665041353
 30
0.0
 10
100.6453640156373
 20
-129.4281032662541
 30
0.0
  0
HATCH
  5
F6
330
F0
100
AcDbEntity
  8
_U+30EC_U+30A4_U+30E4_U+30FC 1
 62
   179
420
  2234388
100
AcDbHatch
 10
0.0
 20
0.0
 30
0.0
210
0.0
220
0.0
230
1.0
  2
SOLID
 70
     1
 71
     0
 91
        2
 92
        1
 93
        1
 72
     4
 94
        3
 73
     0
 74
     1
 95
       32
 96
       28
 40
0.0
 40
0.0
 40
0.0
 40
0.0
 40
1.0
 40
1.0
 40
1.0
 40
2.0
 40
2.0
 40
2.0
 40
3.0
 40
3.0
 40
3.0
 40
4.0
 40
4.0
 40
4.0
 40
5.0
 40
5.0
 40
5.0
 40
6.0
 40
6.0
 40
6.0
 40
7.0
 40
7.0
 40
7.0
 40
8.0
 40
8.0
 40
8.0
 40
9.0
 40
9.0
 40
9.0
 40
9.0
 10
101.5042263201101
 20
-129.4449842341318
 10
101.5042263201101
 20
-129.9610595378223
 10
100.9502549660819
 20
-129.9696722765354
 10
100.7363145364479
 20
-129.9696722765354
 10
100.5058376484847
 20
-129.9696722765354
 10
99.85850420680622
 20
-129.950379741818
 10
99.85850420680622
 20
-129.4067436742455
 10
99.85850420680622
 20
-129.2334553713375
 10
99.92843964515679
 20
-128.9878200632392
 10
100.2605468499349
 20
-128.9499240129014
 10
100.2605468499349
 20
-128.9499240129014
 10
100.2605468499349
 20
-129.1635199329869
 10
100.2605468499349
 20
-129.1635199329869
 10
100.2033582648797
 20
-129.1741997289912
 10
100.055219159014
 20
-129.2058946074555
 10
100.055219159014
 20
-129.4088107315367
 10
100.055219159014
 20
-129.7009548286859
 10
100.3831922492098
 20
-129.7409179363148
 10
100.5881754305821
 20
-129.7536647896102
 10
100.509971763067
 20
-129.6606472115085
 10
100.4507161207207
 20
-129.592778830449
 10
100.4507161207207
 20
-129.4108777888278
 10
100.4507161207207
 20
-129.2310438044978
 10
100.5588921189575
 20
-128.9285644208929
 10
100.9650688766685
 20
-128.9285644208929
 10
101.2844292281511
 20
-128.9285644208929
 10
101.5042263201101
 20
-129.1276909399403
 10
101.5042263201101
 20
-129.4449842341318
 97
        0
 97
        0
 92
        1
 93
        1
 72
     4
 94
        3
 73
     0
 74
     1
 95
       17
 96
       13
 40
0.0
 40
0.0
 40
0.0
 40
0.0
 40
1.0
 40
1.0
 40
1.0
 40
2.0
 40
2.0
 40
2.0
 40
3.0
 40
3.0
 40
3.0
 40
4.0
 40
4.0
 40
4.0
 40
4.0
 10
100.6453640156373
 20
-129.4281032662541
 10
100.6453640156373
 20
-129.6902750326816
 10
100.8568928784316
 20
-129.7281710830194
 10
100.9733371058331
 20
-129.7281710830194
 10
101.1490369755808
 20
-129.7281710830194
 10
101.3119899920331
 20
-129.6330864476265
 10
101.3119899920331
 20
-129.4491183487141
 10
101.3119899920331
 20
-129.3285400067304
 10
101.2527343496868
 20
-129.1528401369826
 10
100.9671359339596
 20
-129.1528401369826
 10
100.7428602178698
 20
-129.1528401369826
 10
100.6453640156373
 20
-129.2923665041353
 10
100.6453640156373
 20
-129.4281032662541
 97
        0
 97
        0
 75
     2
 76
     1
 98
        0
  0
ENDBLK
  5
F3
330
F0
100
AcDbEntity
  8
0
100
AcDbBlockEnd
  0
ENDSEC
  0
SECTION
  2
ENTITIES
  0
INSERT
  5
42
330
1F
100
AcDbEntity
  8
_U+30EC_U+30A4_U+30E4_U+30FC 1
100
AcDbBlockReference
  2
block 2
 10
0.0
 20
0.0
 30
0.0
  0
ENDSEC
  0
SECTION
  2
OBJECTS
  0
DICTIONARY
  5
C
330
0
100
AcDbDictionary
281
     1
  3
ACAD_GROUP
350
D
  3
ACAD_LAYOUT
350
1A
  3
ACAD_MATERIAL
350
3B
  3
ACAD_MLEADERSTYLE
350
F8
  3
ACAD_MLINESTYLE
350
17
  3
ACAD_PLOTSETTINGS
350
19
  3
ACAD_PLOTSTYLENAME
350
E
  3
ACAD_TABLESTYLE
350
F7
  3
ACAD_VISUALSTYLE
350
2A
  0
SUN
  5
3F
330
29
100
AcDbSun
 90
        1
290
     0
 63
     7
421
 16777215
 40
1.0
291
     1
 91
  2455826
 92
 54000000
292
     0
 70
     2
 71
   256
280
     1
  0
DICTIONARY
  5
D
102
{ACAD_REACTORS
330
C
102
}
330
C
100
AcDbDictionary
281
     1
  0
DICTIONARY
  5
1A
102
{ACAD_REACTORS
330
C
102
}
330
C
100
AcDbDictionary
281
     1
  3
Layout1
350
1E
  3
Layout2
350
26
  3
Model
350
22
  0
DICTIONARY
  5
3B
102
{ACAD_REACTORS
330
C
102
}
330
C
100
AcDbDictionary
281
     1
  3
ByBlock
350
3D
  3
ByLayer
350
3C
  3
Global
350
3E
  0
DICTIONARY
  5
F8
102
{ACAD_REACTORS
330
C
102
}
330
C
100
AcDbDictionary
281
     1
  0
DICTIONARY
  5
17
102
{ACAD_REACTORS
330
C
102
}
330
C
100
AcDbDictionary
281
     1
  3
Standard
350
18
  0
DICTIONARY
  5
19
102
{ACAD_REACTORS
330
C
102
}
330
C
100
AcDbDictionary
281
     1
  0
ACDBDICTIONARYWDFLT
  5
E
102
{ACAD_REACTORS
330
C
102
}
330
C
100
AcDbDictionary
281
     1
  3
Normal
350
F
100
AcDbDictionaryWithDefault
340
F
  0
DICTIONARY
  5
F7
102
{ACAD_REACTORS
330
C
102
}
330
C
100
AcDbDictionary
281
     1
  0
DICTIONARY
  5
2A
102
{ACAD_REACTORS
330
C
102
}
330
C
100
AcDbDictionary
281
     1
  3
2dWireframe
350
2F
  3
3D Hidden
350
31
  3
3dWireframe
350
30
  3
Basic
350
32
  3
Brighten
350
36
  3
ColorChange
350
3A
  3
Conceptual
350
34
  3
Dim
350
35
  3
Facepattern
350
39
  3
Flat
350
2B
  3
FlatWithEdges
350
2C
  3
Gouraud
350
2D
  3
GouraudWithEdges
350
2E
  3
Linepattern
350
38
  3
Realistic
350
33
  3
Thicken
350
37
  0
LAYOUT
  5
1E
102
{ACAD_REACTORS
330
1A
102
}
330
1A
100
AcDbPlotSettings
  1

  2
none_device
  4

  6

 40
0.0
 41
0.0
 42
0.0
 43
0.0
 44
0.0
 45
0.0
 46
0.0
 47
0.0
 48
0.0
 49
0.0
140
0.0
141
0.0
142
1.0
143
1.0
 70
   688
 72
     0
 73
     0
 74
     5
  7

 75
    16
 76
     0
 77
     2
 78
   300
147
1.0
148
0.0
149
0.0
100
AcDbLayout
  1
Layout1
 70
     1
 71
     1
 10
0.0
 20
0.0
 11
12.0
 21
9.0
 12
0.0
 22
0.0
 32
0.0
 14
1.000000000000000E+20
 24
1.000000000000000E+20
 34
1.000000000000000E+20
 15
-1.000000000000000E+20
 25
-1.000000000000000E+20
 35
-1.000000000000000E+20
146
0.0
 13
0.0
 23
0.0
 33
0.0
 16
1.0
 26
0.0
 36
0.0
 17
0.0
 27
1.0
 37
0.0
 76
     0
330
1B
  0
LAYOUT
  5
26
102
{ACAD_REACTORS
330
1A
102
}
330
1A
100
AcDbPlotSettings
  1

  2
none_device
  4

  6

 40
0.0
 41
0.0
 42
0.0
 43
0.0
 44
0.0
 45
0.0
 46
0.0
 47
0.0
 48
0.0
 49
0.0
140
0.0
141
0.0
142
1.0
143
1.0
 70
   688
 72
     0
 73
     0
 74
     5
  7

 75
    16
 76
     0
 77
     2
 78
   300
147
1.0
148
0.0
149
0.0
100
AcDbLayout
  1
Layout2
 70
     1
 71
     2
 10
0.0
 20
0.0
 11
0.0
 21
0.0
 12
0.0
 22
0.0
 32
0.0
 14
0.0
 24
0.0
 34
0.0
 15
0.0
 25
0.0
 35
0.0
146
0.0
 13
0.0
 23
0.0
 33
0.0
 16
1.0
 26
0.0
 36
0.0
 17
0.0
 27
1.0
 37
0.0
 76
     0
330
23
  0
LAYOUT
  5
22
102
{ACAD_REACTORS
330
1A
102
}
330
1A
100
AcDbPlotSettings
  1

  2
none_device
  4

  6

 40
0.0
 41
0.0
 42
0.0
 43
0.0
 44
0.0
 45
0.0
 46
0.0
 47
0.0
 48
0.0
 49
0.0
140
0.0
141
0.0
142
1.0
143
1.0
 70
  1712
 72
     0
 73
     0
 74
     0
  7

 75
     0
 76
     0
 77
     2
 78
   300
147
1.0
148
0.0
149
0.0
100
AcDbLayout
  1
Model
 70
     1
 71
     0
 10
0.0
 20
0.0
 11
12.0
 21
9.0
 12
0.0
 22
0.0
 32
0.0
 14
1.000000000000000E+20
 24
1.000000000000000E+20
 34
1.000000000000000E+20
 15
-1.000000000000000E+20
 25
-1.000000000000000E+20
 35
-1.000000000000000E+20
146
0.0
 13
0.0
 23
0.0
 33
0.0
 16
1.0
 26
0.0
 36
0.0
 17
0.0
 27
1.0
 37
0.0
 76
     0
330
1F
331
29
  0
MATERIAL
  5
3D
102
{ACAD_REACTORS
330
3B
102
}
330
3B
100
AcDbMaterial
  1
ByBlock
 72
     1
 94
      127
  0
MATERIAL
  5
3C
102
{ACAD_REACTORS
330
3B
102
}
330
3B
100
AcDbMaterial
  1
ByLayer
 72
     1
 94
      127
  0
MATERIAL
  5
3E
102
{ACAD_REACTORS
330
3B
102
}
330
3B
100
AcDbMaterial
  1
Global
 72
     1
 94
      127
  0
MLINESTYLE
  5
18
102
{ACAD_REACTORS
330
17
102
}
330
17
100
AcDbMlineStyle
  2
Standard
 70
     0
  3

 62
   256
 51
90.0
 52
90.0
 71
     2
 49
0.5
 62
   256
  6
BYLAYER
 49
-0.5
 62
   256
  6
BYLAYER
  0
ACDBPLACEHOLDER
  5
F
102
{ACAD_REACTORS
330
E
102
}
330
E
  0
VISUALSTYLE
  5
2F
102
{ACAD_REACTORS
330
2A
102
}
330
2A
100
AcDbVisualStyle
  2
2dWireframe
 70
     4
177
     2
291
     0
 71
     0
176
     1
 72
     2
176
     1
 73
     0
176
     1
 90
        0
176
     1
 40
-0.6
176
     1
 41
-30.0
176
     1
 62
     5
 63
     7
421
 16777215
176
     1
 74
     1
176
     1
 91
        4
176
     1
 64
     7
176
     1
 65
   257
176
     1
 75
     1
176
     1
175
     1
176
     1
 42
1.0
176
     1
 92
        0
176
     1
 66
   257
176
     1
 43
1.0
176
     1
 76
     1
176
     1
 77
     6
176
     1
 78
     2
176
     1
 67
     7
176
     1
 79
     5
176
     1
170
     0
176
     1
171
     0
176
     1
290
     0
176
     1
 93
        1
176
     1
 44
0.0
176
     1
173
     0
176
     1
  0
VISUALSTYLE
  5
31
102
{ACAD_REACTORS
330
2A
102
}
330
2A
100
AcDbVisualStyle
  2
3D Hidden
 70
     6
177
     2
291
     0
 71
     1
176
     1
 72
     2
176
     1
 73
     2
176
     1
 90
        0
176
     1
 40
-0.6
176
     1
 41
-30.0
176
     1
 62
     5
 63
     7
421
 16777215
176
     1
 74
     2
176
     1
 91
        2
176
     1
 64
     7
176
     1
 65
   257
176
     1
 75
     2
176
     1
175
     1
176
     1
 42
40.0
176
     1
 92
        0
176
     1
 66
   257
176
     1
 43
1.0
176
     1
 76
     1
176
     1
 77
     6
176
     1
 78
     2
176
     1
 67
     7
176
     1
 79
     3
176
     1
170
     0
176
     1
171
     0
176
     1
290
     0
176
     1
 93
        1
176
     1
 44
0.0
176
     1
173
     0
176
     1
  0
VISUALSTYLE
  5
30
102
{ACAD_REACTORS
330
2A
102
}
330
2A
100
AcDbVisualStyle
  2
3dWireframe
 70
     5
177
     2
291
     0
 71
     0
176
     1
 72
     2
176
     1
 73
     0
176
     1
 90
        0
176
     1
 40
-0.6
176
     1
 41
-30.0
176
     1
 62
     5
 63
     7
421
 16777215
176
     1
 74
     1
176
     1
 91
        4
176
     1
 64
     7
176
     1
 65
   257
176
     1
 75
     1
176
     1
175
     1
176
     1
 42
1.0
176
     1
 92
        0
176
     1
 66
   257
176
     1
 43
1.0
176
     1
 76
     1
176
     1
 77
     6
176
     1
 78
     2
176
     1
 67
     7
176
     1
 79
     5
176
     1
170
     0
176
     1
171
     0
176
     1
290
     0
176
     1
 93
        1
176
     1
 44
0.0
176
     1
173
     0
176
     1
  0
VISUALSTYLE
  5
32
102
{ACAD_REACTORS
330
2A
102
}
330
2A
100
AcDbVisualStyle
  2
Basic
 70
     7
177
     2
291
     1
 71
     1
176
     1
 72
     0
176
     1
 73
     1
176
     1
 90
        0
176
     1
 40
-0.6
176
     1
 41
-30.0
176
     1
 62
     5
 63
     7
421
 16777215
176
     1
 74
     0
176
     1
 91
        4
176
     1
 64
     7
176
     1
 65
   257
176
     1
 75
     1
176
     1
175
     1
176
     1
 42
1.0
176
     1
 92
        8
176
     1
 66
     7
176
     1
 43
1.0
176
     1
 76
     1
176
     1
 77
     6
176
     1
 78
     2
176
     1
 67
     7
176
     1
 79
     5
176
     1
170
     0
176
     1
171
     0
176
     1
290
     0
176
     1
 93
        1
176
     1
 44
0.0
176
     1
173
     0
176
     1
  0
VISUALSTYLE
  5
36
102
{ACAD_REACTORS
330
2A
102
}
330
2A
100
AcDbVisualStyle
  2
Brighten
 70
    12
177
     2
291
     1
 71
     2
176
     1
 72
     2
176
     1
 73
     0
176
     1
 90
        0
176
     1
 40
-0.6
176
     1
 41
-30.0
176
     1
 62
     5
 63
     7
421
 16777215
176
     1
 74
     1
176
     1
 91
        4
176
     1
 64
     7
176
     1
 65
   257
176
     1
 75
     1
176
     1
175
     1
176
     1
 42
1.0
176
     1
 92
        8
176
     1
 66
     7
176
     1
 43
1.0
176
     1
 76
     1
176
     1
 77
     6
176
     1
 78
     2
176
     1
 67
     7
176
     1
 79
     5
176
     1
170
     0
176
     1
171
     0
176
     1
290
     0
176
     1
 93
        1
176
     1
 44
50.0
176
     1
173
     0
176
     1
  0
VISUALSTYLE
  5
3A
102
{ACAD_REACTORS
330
2A
102
}
330
2A
100
AcDbVisualStyle
  2
ColorChange
 70
    16
177
     2
291
     1
 71
     2
176
     1
 72
     2
176
     1
 73
     3
176
     1
 90
        0
176
     1
 40
-0.6
176
     1
 41
-30.0
176
     1
 62
     5
 63
     8
421
  8421504
176
     1
 74
     1
176
     1
 91
        4
176
     1
 64
     7
176
     1
 65
   257
176
     1
 75
     1
176
     1
175
     1
176
     1
 42
1.0
176
     1
 92
        8
176
     1
 66
     8
424
  8421504
176
     1
 43
1.0
176
     1
 76
     1
176
     1
 77
     6
176
     1
 78
     2
176
     1
 67
     7
176
     1
 79
     5
176
     1
170
     0
176
     1
171
     0
176
     1
290
     0
176
     1
 93
        1
176
     1
 44
0.0
176
     1
173
     0
176
     1
  0
VISUALSTYLE
  5
34
102
{ACAD_REACTORS
330
2A
102
}
330
2A
100
AcDbVisualStyle
  2
Conceptual
 70
     9
177
     2
291
     0
 71
     3
176
     1
 72
     2
176
     1
 73
     0
176
     1
 90
        0
176
     1
 40
-0.6
176
     1
 41
-30.0
176
     1
 62
     5
 63
     7
421
 16777215
176
     1
 74
     2
176
     1
 91
        2
176
     1
 64
     7
176
     1
 65
   257
176
     1
 75
     1
176
     1
175
     1
176
     1
 42
40.0
176
     1
 92
        8
176
     1
 66
     7
176
     1
 43
1.0
176
     1
 76
     1
176
     1
 77
     6
176
     1
 78
     2
176
     1
 67
     7
176
     1
 79
     3
176
     1
170
     0
176
     1
171
     0
176
     1
290
     0
176
     1
 93
        1
176
     1
 44
0.0
176
     1
173
     0
176
     1
  0
VISUALSTYLE
  5
35
102
{ACAD_REACTORS
330
2A
102
}
330
2A
100
AcDbVisualStyle
  2
Dim
 70
    11
177
     2
291
     1
 71
     2
176
     1
 72
     2
176
     1
 73
     0
176
     1
 90
        0
176
     1
 40
-0.6
176
     1
 41
-30.0
176
     1
 62
     5
 63
     7
421
 16777215
176
     1
 74
     1
176
     1
 91
        4
176
     1
 64
     7
176
     1
 65
   257
176
     1
 75
     1
176
     1
175
     1
176
     1
 42
1.0
176
     1
 92
        8
176
     1
 66
     7
176
     1
 43
1.0
176
     1
 76
     1
176
     1
 77
     6
176
     1
 78
     2
176
     1
 67
     7
176
     1
 79
     5
176
     1
170
     0
176
     1
171
     0
176
     1
290
     0
176
     1
 93
        1
176
     1
 44
-50.0
176
     1
173
     0
176
     1
  0
VISUALSTYLE
  5
39
102
{ACAD_REACTORS
330
2A
102
}
330
2A
100
AcDbVisualStyle
  2
Facepattern
 70
    15
177
     2
291
     1
 71
     2
176
     1
 72
     2
176
     1
 73
     0
176
     1
 90
        0
176
     1
 40
-0.6
176
     1
 41
-30.0
176
     1
 62
     5
 63
     7
421
 16777215
176
     1
 74
     1
176
     1
 91
        4
176
     1
 64
     7
176
     1
 65
   257
176
     1
 75
     1
176
     1
175
     1
176
     1
 42
1.0
176
     1
 92
        8
176
     1
 66
     7
176
     1
 43
1.0
176
     1
 76
     1
176
     1
 77
     6
176
     1
 78
     2
176
     1
 67
     7
176
     1
 79
     5
176
     1
170
     0
176
     1
171
     0
176
     1
290
     0
176
     1
 93
        1
176
     1
 44
0.0
176
     1
173
     0
176
     1
  0
VISUALSTYLE
  5
2B
102
{ACAD_REACTORS
330
2A
102
}
330
2A
100
AcDbVisualStyle
  2
Flat
 70
     0
177
     2
291
     1
 71
     2
176
     1
 72
     1
176
     1
 73
     1
176
     1
 90
        2
176
     1
 40
-0.6
176
     1
 41
30.0
176
     1
 62
     5
 63
     7
421
 16777215
176
     1
 74
     0
176
     1
 91
        4
176
     1
 64
     7
176
     1
 65
   257
176
     1
 75
     1
176
     1
175
     1
176
     1
 42
1.0
176
     1
 92
        8
176
     1
 66
     7
176
     1
 43
1.0
176
     1
 76
     1
176
     1
 77
     6
176
     1
 78
     2
176
     1
 67
     7
176
     1
 79
     5
176
     1
170
     0
176
     1
171
     0
176
     1
290
     0
176
     1
 93
       13
176
     1
 44
0.0
176
     1
173
     0
176
     1
  0
VISUALSTYLE
  5
2C
102
{ACAD_REACTORS
330
2A
102
}
330
2A
100
AcDbVisualStyle
  2
FlatWithEdges
 70
     1
177
     2
291
     1
 71
     2
176
     1
 72
     1
176
     1
 73
     1
176
     1
 90
        2
176
     1
 40
-0.6
176
     1
 41
30.0
176
     1
 62
     5
 63
     7
421
 16777215
176
     1
 74
     1
176
     1
 91
        4
176
     1
 64
     7
176
     1
 65
   257
176
     1
 75
     1
176
     1
175
     1
176
     1
 42
1.0
176
     1
 92
        0
176
     1
 66
   257
176
     1
 43
1.0
176
     1
 76
     1
176
     1
 77
     6
176
     1
 78
     2
176
     1
 67
     7
176
     1
 79
     5
176
     1
170
     0
176
     1
171
     0
176
     1
290
     0
176
     1
 93
       13
176
     1
 44
0.0
176
     1
173
     0
176
     1
  0
VISUALSTYLE
  5
2D
102
{ACAD_REACTORS
330
2A
102
}
330
2A
100
AcDbVisualStyle
  2
Gouraud
 70
     2
177
     2
291
     1
 71
     2
176
     1
 72
     2
176
     1
 73
     1
176
     1
 90
        2
176
     1
 40
-0.6
176
     1
 41
30.0
176
     1
 62
     5
 63
     7
421
 16777215
176
     1
 74
     0
176
     1
 91
        4
176
     1
 64
     7
176
     1
 65
   257
176
     1
 75
     1
176
     1
175
     1
176
     1
 42
1.0
176
     1
 92
        0
176
     1
 66
     7
176
     1
 43
1.0
176
     1
 76
     1
176
     1
 77
     6
176
     1
 78
     2
176
     1
 67
     7
176
     1
 79
     5
176
     1
170
     0
176
     1
171
     0
176
     1
290
     0
176
     1
 93
       13
176
     1
 44
0.0
176
     1
173
     0
176
     1
  0
VISUALSTYLE
  5
2E
102
{ACAD_REACTORS
330
2A
102
}
330
2A
100
AcDbVisualStyle
  2
GouraudWithEdges
 70
     3
177
     2
291
     1
 71
     2
176
     1
 72
     2
176
     1
 73
     1
176
     1
 90
        2
176
     1
 40
-0.6
176
     1
 41
30.0
176
     1
 62
     5
 63
     7
421
 16777215
176
     1
 74
     1
176
     1
 91
        4
176
     1
 64
     7
176
     1
 65
   257
176
     1
 75
     1
176
     1
175
     1
176
     1
 42
1.0
176
     1
 92
        0
176
     1
 66
   257
176
     1
 43
1.0
176
     1
 76
     1
176
     1
 77
     6
176
     1
 78
     2
176
     1
 67
     7
176
     1
 79
     5
176
     1
170
     0
176
     1
171
     0
176
     1
290
     0
176
     1
 93
       13
176
     1
 44
0.0
176
     1
173
     0
176
     1
  0
VISUALSTYLE
  5
38
102
{ACAD_REACTORS
330
2A
102
}
330
2A
100
AcDbVisualStyle
  2
Linepattern
 70
    14
177
     2
291
     1
 71
     2
176
     1
 72
     2
176
     1
 73
     0
176
     1
 90
        0
176
     1
 40
-0.6
176
     1
 41
-30.0
176
     1
 62
     5
 63
     7
421
 16777215
176
     1
 74
     1
176
     1
 91
        4
176
     1
 64
     7
176
     1
 65
   257
176
     1
 75
     7
176
     1
175
     7
176
     1
 42
1.0
176
     1
 92
        8
176
     1
 66
     7
176
     1
 43
1.0
176
     1
 76
     1
176
     1
 77
     6
176
     1
 78
     2
176
     1
 67
     7
176
     1
 79
     5
176
     1
170
     0
176
     1
171
     0
176
     1
290
     0
176
     1
 93
        1
176
     1
 44
0.0
176
     1
173
     0
176
     1
  0
VISUALSTYLE
  5
33
102
{ACAD_REACTORS
330
2A
102
}
330
2A
100
AcDbVisualStyle
  2
Realistic
 70
     8
177
     2
291
     0
 71
     2
176
     1
 72
     2
176
     1
 73
     0
176
     1
 90
        0
176
     1
 40
-0.6
176
     1
 41
-30.0
176
     1
 62
     5
 63
     7
421
 16777215
176
     1
 74
     1
176
     1
 91
        0
176
     1
 64
     7
176
     1
 65
   257
176
     1
 75
     1
176
     1
175
     1
176
     1
 42
1.0
176
     1
 92
        8
176
     1
 66
     8
424
  7895160
176
     1
 43
1.0
176
     1
 76
     1
176
     1
 77
     6
176
     1
 78
     2
176
     1
 67
     7
176
     1
 79
     5
176
     1
170
     0
176
     1
171
     0
176
     1
290
     0
176
     1
 93
       13
176
     1
 44
0.0
176
     1
173
     0
176
     1
  0
VISUALSTYLE
  5
37
102
{ACAD_REACTORS
330
2A
102
}
330
2A
100
AcDbVisualStyle
  2
Thicken
 70
    13
177
     2
291
     1
 71
     2
176
     1
 72
     2
176
     1
 73
     0
176
     1
 90
        0
176
     1
 40
-0.6
176
     1
 41
-30.0
176
     1
 62
     5
 63
     7
421
 16777215
176
     1
 74
     1
176
     1
 91
        4
176
     1
 64
     7
176
     1
 65
   257
176
     1
 75
     1
176
     1
175
     1
176
     1
 42
1.0
176
     1
 92
       12
176
     1
 66
     7
176
     1
 43
1.0
176
     1
 76
     1
176
     1
 77
     6
176
     1
 78
     2
176
     1
 67
     7
176
     1
 79
     5
176
     1
170
     0
176
     1
171
     0
176
     1
290
     0
176
     1
 93
        1
176
     1
 44
0.0
176
     1
173
     0
176
     1
  0
ENDSEC
  0
EOF
