  0
SECTION
  2
HEADER
  9
$ACADVER
  1
AC1024
  9
$ACADMAINTVER
 70
     6
  9
$DWGCODEPAGE
  3
UNDEFINED
  9
$INSBASE
 10
0.0
 20
0.0
 30
0.0
  9
$EXTMIN
 10
1.000000000000000E+20
 20
1.000000000000000E+20
 30
1.000000000000000E+20
  9
$EXTMAX
 10
-1.000000000000000E+20
 20
-1.000000000000000E+20
 30
-1.000000000000000E+20
  9
$LIMMIN
 10
0.0
 20
0.0
  9
$LIMMAX
 10
12.0
 20
9.0
  9
$ORTHOMODE
 70
     0
  9
$REGENMODE
 70
     1
  9
$FILLMODE
 70
     1
  9
$QTEXTMODE
 70
     0
  9
$MIRRTEXT
 70
     1
  9
$LTSCALE
 40
1.0
  9
$ATTMODE
 70
     1
  9
$TEXTSIZE
 40
0.2
  9
$TRACEWID
 40
0.05
  9
$TEXTSTYLE
  7
Standard
  9
$CLAYER
  8
0
  9
$CELTYPE
  6
ByLayer
  9
$CECOLOR
 62
   256
  9
$CELTSCALE
 40
1.0
  9
$DISPSILH
 70
     0
  9
$DIMSCALE
 40
1.0
  9
$DIMASZ
 40
0.18
  9
$DIMEXO
 40
0.0625
  9
$DIMDLI
 40
0.38
  9
$DIMRND
 40
0.0
  9
$DIMDLE
 40
0.0
  9
$DIMEXE
 40
0.18
  9
$DIMTP
 40
0.0
  9
$DIMTM
 40
0.0
  9
$DIMTXT
 40
0.18
  9
$DIMCEN
 40
0.09
  9
$DIMTSZ
 40
0.0
  9
$DIMTOL
 70
     0
  9
$DIMLIM
 70
     0
  9
$DIMTIH
 70
     1
  9
$DIMTOH
 70
     1
  9
$DIMSE1
 70
     0
  9
$DIMSE2
 70
     0
  9
$DIMTAD
 70
     0
  9
$DIMZIN
 70
     0
  9
$DIMBLK
  1

  9
$DIMASO
 70
     1
  9
$DIMSHO
 70
     1
  9
$DIMPOST
  1

  9
$DIMAPOST
  1

  9
$DIMALT
 70
     0
  9
$DIMALTD
 70
     2
  9
$DIMALTF
 40
25.4
  9
$DIMLFAC
 40
1.0
  9
$DIMTOFL
 70
     0
  9
$DIMTVP
 40
0.0
  9
$DIMTIX
 70
     0
  9
$DIMSOXD
 70
     0
  9
$DIMSAH
 70
     0
  9
$DIMBLK1
  1

  9
$DIMBLK2
  1

  9
$DIMSTYLE
  2
Standard
  9
$DIMCLRD
 70
     0
  9
$DIMCLRE
 70
     0
  9
$DIMCLRT
 70
     0
  9
$DIMTFAC
 40
1.0
  9
$DIMGAP
 40
0.09
  9
$DIMJUST
 70
     0
  9
$DIMSD1
 70
     0
  9
$DIMSD2
 70
     0
  9
$DIMTOLJ
 70
     1
  9
$DIMTZIN
 70
     0
  9
$DIMALTZ
 70
     0
  9
$DIMALTTZ
 70
     0
  9
$DIMUPT
 70
     0
  9
$DIMDEC
 70
     4
  9
$DIMTDEC
 70
     4
  9
$DIMALTU
 70
     2
  9
$DIMALTTD
 70
     2
  9
$DIMTXSTY
  7
Standard
  9
$DIMAUNIT
 70
     0
  9
$DIMADEC
 70
     0
  9
$DIMALTRND
 40
0.0
  9
$DIMAZIN
 70
     0
  9
$DIMDSEP
 70
    46
  9
$DIMATFIT
 70
     3
  9
$DIMFRAC
 70
     0
  9
$DIMLDRBLK
  1

  9
$DIMLUNIT
 70
     2
  9
$DIMLWD
 70
    -2
  9
$DIMLWE
 70
    -2
  9
$DIMTMOVE
 70
     0
  9
$DIMFXL
 40
1.0
  9
$DIMFXLON
 70
     0
  9
$DIMJOGANG
 40
0.7853981633974483
  9
$DIMTFILL
 70
     0
  9
$DIMTFILLCLR
 70
     0
  9
$DIMARCSYM
 70
     0
  9
$DIMLTYPE
  6

  9
$DIMLTEX1
  6

  9
$DIMLTEX2
  6

  9
$DIMTXTDIRECTION
 70
     0
  9
$LUNITS
 70
     2
  9
$LUPREC
 70
     4
  9
$SKETCHINC
 40
0.1
  9
$FILLETRAD
 40
0.5
  9
$AUNITS
 70
     0
  9
$AUPREC
 70
     0
  9
$MENU
  1
.
  9
$ELEVATION
 40
0.0
  9
$PELEVATION
 40
0.0
  9
$THICKNESS
 40
0.0
  9
$LIMCHECK
 70
     0
  9
$CHAMFERA
 40
0.5
  9
$CHAMFERB
 40
0.5
  9
$CHAMFERC
 40
1.0
  9
$CHAMFERD
 40
0.0
  9
$SKPOLY
 70
     0
  9
$TDCREATE
 40
2458263.580416667
  9
$TDUCREATE
 40
2458263.205416667
  9
$TDUPDATE
 40
2458263.580416667
  9
$TDUUPDATE
 40
2458263.205416667
  9
$TDINDWG
 40
0.0000000116
  9
$TDUSRTIMER
 40
0.0000000116
  9
$USRTIMER
 70
     1
  9
$ANGBASE
 50
0.0
  9
$ANGDIR
 70
     0
  9
$PDMODE
 70
     0
  9
$PDSIZE
 40
0.0
  9
$PLINEWID
 40
0.0
  9
$SPLFRAME
 70
     0
  9
$SPLINETYPE
 70
     6
  9
$SPLINESEGS
 70
     8
  9
$HANDSEED
  5
17F
  9
$SURFTAB1
 70
     6
  9
$SURFTAB2
 70
     6
  9
$SURFTYPE
 70
     6
  9
$SURFU
 70
     6
  9
$SURFV
 70
     6
  9
$UCSBASE
  2

  9
$UCSNAME
  2

  9
$UCSORG
 10
0.0
 20
0.0
 30
0.0
  9
$UCSXDIR
 10
1.0
 20
0.0
 30
0.0
  9
$UCSYDIR
 10
0.0
 20
1.0
 30
0.0
  9
$UCSORTHOREF
  2

  9
$UCSORTHOVIEW
 70
     0
  9
$UCSORGTOP
 10
0.0
 20
0.0
 30
0.0
  9
$UCSORGBOTTOM
 10
0.0
 20
0.0
 30
0.0
  9
$UCSORGLEFT
 10
0.0
 20
0.0
 30
0.0
  9
$UCSORGRIGHT
 10
0.0
 20
0.0
 30
0.0
  9
$UCSORGFRONT
 10
0.0
 20
0.0
 30
0.0
  9
$UCSORGBACK
 10
0.0
 20
0.0
 30
0.0
  9
$PUCSBASE
  2

  9
$PUCSNAME
  2

  9
$PUCSORG
 10
0.0
 20
0.0
 30
0.0
  9
$PUCSXDIR
 10
1.0
 20
0.0
 30
0.0
  9
$PUCSYDIR
 10
0.0
 20
1.0
 30
0.0
  9
$PUCSORTHOREF
  2

  9
$PUCSORTHOVIEW
 70
     0
  9
$PUCSORGTOP
 10
0.0
 20
0.0
 30
0.0
  9
$PUCSORGBOTTOM
 10
0.0
 20
0.0
 30
0.0
  9
$PUCSORGLEFT
 10
0.0
 20
0.0
 30
0.0
  9
$PUCSORGRIGHT
 10
0.0
 20
0.0
 30
0.0
  9
$PUCSORGFRONT
 10
0.0
 20
0.0
 30
0.0
  9
$PUCSORGBACK
 10
0.0
 20
0.0
 30
0.0
  9
$USERI1
 70
     0
  9
$USERI2
 70
     0
  9
$USERI3
 70
     0
  9
$USERI4
 70
     0
  9
$USERI5
 70
     0
  9
$USERR1
 40
0.0
  9
$USERR2
 40
0.0
  9
$USERR3
 40
0.0
  9
$USERR4
 40
0.0
  9
$USERR5
 40
0.0
  9
$WORLDVIEW
 70
     1
  9
$SHADEDGE
 70
     3
  9
$SHADEDIF
 70
    70
  9
$TILEMODE
 70
     1
  9
$MAXACTVP
 70
    64
  9
$PINSBASE
 10
0.0
 20
0.0
 30
0.0
  9
$PLIMCHECK
 70
     0
  9
$PEXTMIN
 10
1.000000000000000E+20
 20
1.000000000000000E+20
 30
1.000000000000000E+20
  9
$PEXTMAX
 10
-1.000000000000000E+20
 20
-1.000000000000000E+20
 30
-1.000000000000000E+20
  9
$PLIMMIN
 10
0.0
 20
0.0
  9
$PLIMMAX
 10
12.0
 20
9.0
  9
$UNITMODE
 70
     0
  9
$VISRETAIN
 70
     1
  9
$PLINEGEN
 70
     0
  9
$PSLTSCALE
 70
     1
  9
$TREEDEPTH
 70
  3020
  9
$CMLSTYLE
  2
Standard
  9
$CMLJUST
 70
     0
  9
$CMLSCALE
 40
1.0
  9
$PROXYGRAPHICS
 70
     1
  9
$MEASUREMENT
 70
     0
  9
$CELWEIGHT
370
    -1
  9
$ENDCAPS
280
     0
  9
$JOINSTYLE
280
     0
  9
$LWDISPLAY
290
     1
  9
$INSUNITS
 70
     1
  9
$HYPERLINKBASE
  1

  9
$STYLESHEET
  1

  9
$XEDIT
290
     1
  9
$CEPSNTYPE
380
     0
  9
$PSTYLEMODE
290
     1
  9
$FINGERPRINTGUID
  2
{6BDB6798-BB95-3E43-0C53-E28D735C7B71}
  9
$VERSIONGUID
  2
{FAEB1C32-E019-11D5-929B-00C0DF256EC4}
  9
$EXTNAMES
290
     1
  9
$PSVPSCALE
 40
0.0
  9
$OLESTARTUP
290
     0
  9
$SORTENTS
280
   127
  9
$INDEXCTL
280
     0
  9
$HIDETEXT
280
     1
  9
$XCLIPFRAME
280
     2
  9
$HALOGAP
280
     0
  9
$OBSCOLOR
 70
   257
  9
$OBSLTYPE
280
     0
  9
$INTERSECTIONDISPLAY
280
     0
  9
$INTERSECTIONCOLOR
 70
   257
  9
$DIMASSOC
280
     2
  9
$PROJECTNAME
  1

  9
$CAMERADISPLAY
290
     0
  9
$LENSLENGTH
 40
50.0
  9
$CAMERAHEIGHT
 40
0.0
  9
$STEPSPERSEC
 40
2.0
  9
$STEPSIZE
 40
6.0
  9
$3DDWFPREC
 40
2.0
  9
$PSOLWIDTH
 40
0.25
  9
$PSOLHEIGHT
 40
4.0
  9
$LOFTANG1
 40
1.570796326794897
  9
$LOFTANG2
 40
1.570796326794897
  9
$LOFTMAG1
 40
0.0
  9
$LOFTMAG2
 40
0.0
  9
$LOFTPARAM
 70
     7
  9
$LOFTNORMALS
280
     1
  9
$LATITUDE
 40
37.795
  9
$LONGITUDE
 40
-122.394
  9
$NORTHDIRECTION
 40
0.0
  9
$TIMEZONE
 70
 -8000
  9
$LIGHTGLYPHDISPLAY
280
     1
  9
$TILEMODELIGHTSYNCH
280
     1
  9
$CMATERIAL
347
3C
  9
$SOLIDHIST
280
     1
  9
$SHOWHIST
280
     1
  9
$DWFFRAME
280
     2
  9
$DGNFRAME
280
     2
  9
$REALWORLDSCALE
290
     1
  9
$INTERFERECOLOR
 62
   256
  9
$CSHADOW
280
     0
  9
$SHADOWPLANELOCATION
 40
0.0
  0
ENDSEC
  0
SECTION
  2
CLASSES
  0
CLASS
  1
ACDBDICTIONARYWDFLT
  2
AcDbDictionaryWithDefault
  3
ObjectDBX Classes
 90
        0
 91
        4
280
     0
281
     0
  0
CLASS
  1
VISUALSTYLE
  2
AcDbVisualStyle
  3
ObjectDBX Classes
 90
     4095
 91
        4
280
     0
281
     0
  0
CLASS
  1
MATERIAL
  2
AcDbMaterial
  3
ObjectDBX Classes
 90
     1153
 91
        4
280
     0
281
     0
  0
CLASS
  1
SUN
  2
AcDbSun
  3
SCENEOE
 90
     1024
 91
        4
280
     0
281
     0
  0
ENDSEC
  0
SECTION
  2
TABLES
  0
TABLE
  2
VPORT
  5
8
330
0
100
AcDbSymbolTable
 70
     1
  0
VPORT
  5
29
330
8
100
AcDbSymbolTableRecord
100
AcDbViewportTableRecord
  2
*Active
 70
     0
 10
0.0
 20
0.0
 11
1.0
 21
1.0
 12
0.0
 22
0.0
 13
0.0
 23
0.0
 14
0.5
 24
0.5
 15
0.5
 25
0.5
 16
0.0
 26
0.0
 36
1.0
 17
105.0007777515277
 27
-148.5000416295416
 37
0.0
 40
297.0000832590831
 41
0.7070757462376333
 42
50.0
 43
0.0
 44
0.0
 50
0.0
 51
0.0
 71
     0
 72
   100
 73
     1
 74
     3
 75
     0
 76
     0
 77
     0
 78
     0
281
     0
 65
     1
110
0.0
120
0.0
130
0.0
111
1.0
121
0.0
131
0.0
112
0.0
122
1.0
132
0.0
 79
     0
146
0.0
 60
     3
 61
     5
292
     1
282
     1
141
0.0
142
0.0
 63
   250
361
3F
  0
ENDTAB
  0
TABLE
  2
LTYPE
  5
5
330
0
100
AcDbSymbolTable
 70
     1
  0
LTYPE
  5
14
330
5
100
AcDbSymbolTableRecord
100
AcDbLinetypeTableRecord
  2
ByBlock
 70
     0
  3

 72
    65
 73
     0
 40
0.0
  0
LTYPE
  5
15
330
5
100
AcDbSymbolTableRecord
100
AcDbLinetypeTableRecord
  2
ByLayer
 70
     0
  3

 72
    65
 73
     0
 40
0.0
  0
LTYPE
  5
16
330
5
100
AcDbSymbolTableRecord
100
AcDbLinetypeTableRecord
  2
Continuous
 70
     0
  3
Solid line
 72
    65
 73
     0
 40
0.0
  0
ENDTAB
  0
TABLE
  2
LAYER
  5
2
330
0
100
AcDbSymbolTable
 70
     2
  0
LAYER
  5
10
330
2
100
AcDbSymbolTableRecord
100
AcDbLayerTableRecord
  2
0
 70
     0
 62
     7
  6
Continuous
370
    -3
390
F
347
3E
  0
LAYER
  5
40
330
2
100
AcDbSymbolTableRecord
100
AcDbLayerTableRecord
  2
_U+30EC_U+30A4_U+30E4_U+30FC 1
 70
     0
 62
     7
  6
Continuous
370
    -3
390
F
347
3E
  0
ENDTAB
  0
TABLE
  2
STYLE
  5
3
330
0
100
AcDbSymbolTable
 70
     1
  0
STYLE
  5
11
330
3
100
AcDbSymbolTableRecord
100
AcDbTextStyleTableRecord
  2
Standard
 70
     0
 40
0.0
 41
1.0
 50
0.0
 71
     0
 42
0.2
  3
txt
  4

  0
ENDTAB
  0
TABLE
  2
VIEW
  5
6
330
0
100
AcDbSymbolTable
 70
     0
  0
ENDTAB
  0
TABLE
  2
UCS
  5
7
330
0
100
AcDbSymbolTable
 70
     0
  0
ENDTAB
  0
TABLE
  2
APPID
  5
9
330
0
100
AcDbSymbolTable
 70
     1
  0
APPID
  5
12
330
9
100
AcDbSymbolTableRecord
100
AcDbRegAppTableRecord
  2
ACAD
 70
     0
  0
ENDTAB
  0
TABLE
  2
DIMSTYLE
  5
A
330
0
100
AcDbSymbolTable
 70
     1
100
AcDbDimStyleTable
  0
DIMSTYLE
105
27
330
A
100
AcDbSymbolTableRecord
100
AcDbDimStyleTableRecord
  2
Standard
 70
     0
178
     0
340
11
  0
ENDTAB
  0
TABLE
  2
BLOCK_RECORD
  5
1
330
0
100
AcDbSymbolTable
 70
    10
  0
BLOCK_RECORD
  5
1F
330
1
100
AcDbSymbolTableRecord
100
AcDbBlockTableRecord
  2
*Model_Space
340
22
 70
     0
280
     1
281
     0
  0
BLOCK_RECORD
  5
1B
330
1
100
AcDbSymbolTableRecord
100
AcDbBlockTableRecord
  2
*Paper_Space
340
1E
 70
     0
280
     1
281
     0
  0
BLOCK_RECORD
  5
23
330
1
100
AcDbSymbolTableRecord
100
AcDbBlockTableRecord
  2
*Paper_Space0
340
26
 70
     0
280
     1
281
     0
  0
BLOCK_RECORD
  5
FE
330
1
100
AcDbSymbolTableRecord
100
AcDbBlockTableRecord
  2
block 2
340
0
102
{BLKREFS
331
FF
102
}
 70
     0
280
     1
281
     0
  0
BLOCK_RECORD
  5
10E
330
1
100
AcDbSymbolTableRecord
100
AcDbBlockTableRecord
  2
block 3
340
0
102
{BLKREFS
331
10F
102
}
 70
     0
280
     1
281
     0
  0
BLOCK_RECORD
  5
116
330
1
100
AcDbSymbolTableRecord
100
AcDbBlockTableRecord
  2
block 4
340
0
102
{BLKREFS
331
117
102
}
 70
     0
280
     1
281
     0
  0
BLOCK_RECORD
  5
12A
330
1
100
AcDbSymbolTableRecord
100
AcDbBlockTableRecord
  2
block 5
340
0
102
{BLKREFS
331
12B
102
}
 70
     0
280
     1
281
     0
  0
BLOCK_RECORD
  5
13A
330
1
100
AcDbSymbolTableRecord
100
AcDbBlockTableRecord
  2
block 6
340
0
102
{BLKREFS
331
13B
102
}
 70
     0
280
     1
281
     0
  0
BLOCK_RECORD
  5
143
330
1
100
AcDbSymbolTableRecord
100
AcDbBlockTableRecord
  2
block 7
340
0
102
{BLKREFS
331
144
102
}
 70
     0
280
     1
281
     0
  0
BLOCK_RECORD
  5
153
330
1
100
AcDbSymbolTableRecord
100
AcDbBlockTableRecord
  2
block 8
340
0
102
{BLKREFS
331
154
102
}
 70
     0
280
     1
281
     0
  0
BLOCK_RECORD
  5
163
330
1
100
AcDbSymbolTableRecord
100
AcDbBlockTableRecord
  2
block 9
340
0
102
{BLKREFS
331
164
102
}
 70
     0
280
     1
281
     0
  0
BLOCK_RECORD
  5
16B
330
1
100
AcDbSymbolTableRecord
100
AcDbBlockTableRecord
  2
block 10
340
0
102
{BLKREFS
331
16C
102
}
 70
     0
280
     1
281
     0
  0
ENDTAB
  0
ENDSEC
  0
SECTION
  2
BLOCKS
  0
BLOCK
  5
20
330
1F
100
AcDbEntity
  8
0
100
AcDbBlockBegin
  2
*Model_Space
 70
     0
 10
0.0
 20
0.0
 30
0.0
  3
*Model_Space
  1

  0
ENDBLK
  5
21
330
1F
100
AcDbEntity
  8
0
100
AcDbBlockEnd
  0
BLOCK
  5
1C
330
1B
100
AcDbEntity
 67
     1
  8
0
100
AcDbBlockBegin
  2
*Paper_Space
 70
     0
 10
0.0
 20
0.0
 30
0.0
  3
*Paper_Space
  1

  0
ENDBLK
  5
1D
330
1B
100
AcDbEntity
 67
     1
  8
0
100
AcDbBlockEnd
  0
BLOCK
  5
24
330
23
100
AcDbEntity
  8
0
100
AcDbBlockBegin
  2
*Paper_Space0
 70
     0
 10
0.0
 20
0.0
 30
0.0
  3
*Paper_Space0
  1

  0
ENDBLK
  5
25
330
23
100
AcDbEntity
  8
0
100
AcDbBlockEnd
  0
BLOCK
  5
100
330
FE
100
AcDbEntity
  8
0
100
AcDbBlockBegin
  2
block 2
 70
     0
 10
0.0
 20
0.0
 30
0.0
  3
block 2
  1

  0
SPLINE
  5
102
330
FE
100
AcDbEntity
  8
_U+30EC_U+30A4_U+30E4_U+30FC 1
370
     0
100
AcDbSpline
210
0.0
220
0.0
230
1.0
 70
    11
 71
     3
 72
    62
 73
    58
 74
     0
 42
0.0000000001
 43
0.0000000001
 12
1.0
 22
0.0
 32
0.0
 13
1.0
 23
0.0
 33
0.0
 40
0.0
 40
0.0
 40
0.0
 40
0.0
 40
1.0
 40
1.0
 40
1.0
 40
2.0
 40
2.0
 40
2.0
 40
3.0
 40
3.0
 40
3.0
 40
4.0
 40
4.0
 40
4.0
 40
5.0
 40
5.0
 40
5.0
 40
6.0
 40
6.0
 40
6.0
 40
7.0
 40
7.0
 40
7.0
 40
8.0
 40
8.0
 40
8.0
 40
9.0
 40
9.0
 40
9.0
 40
10.0
 40
10.0
 40
10.0
 40
11.0
 40
11.0
 40
11.0
 40
12.0
 40
12.0
 40
12.0
 40
13.0
 40
13.0
 40
13.0
 40
14.0
 40
14.0
 40
14.0
 40
15.0
 40
15.0
 40
15.0
 40
16.0
 40
16.0
 40
16.0
 40
17.0
 40
17.0
 40
17.0
 40
18.0
 40
18.0
 40
18.0
 40
19.0
 40
19.0
 40
19.0
 40
19.0
 10
81.95330944131723
 20
-120.2271144990231
 30
0.0
 10
81.86924911147713
 20
-120.2271144990231
 30
0.0
 10
81.67684052862593
 20
-120.2059271617888
 30
0.0
 10
81.5667697278722
 20
-120.019719750811
 30
0.0
 10
81.50131291365246
 20
-119.9075818927662
 30
0.0
 10
81.49752330861868
 20
-119.8081908880167
 30
0.0
 10
81.49390595835916
 20
-119.7236137938538
 30
0.0
 10
81.49390595835916
 20
-119.7236137938538
 30
0.0
 10
81.688037088953
 20
-119.7236137938538
 30
0.0
 10
81.688037088953
 20
-119.7236137938538
 30
0.0
 10
81.68993189146988
 20
-119.7976833467867
 30
0.0
 10
81.69923364928006
 20
-120.0324666041065
 30
0.0
 10
81.94951983628346
 20
-120.0324666041065
 30
0.0
 10
82.07095945213851
 20
-120.0324666041065
 30
0.0
 10
82.20549043083751
 20
-119.9627034205302
 30
0.0
 10
82.20549043083751
 20
-119.7341213350838
 30
0.0
 10
82.20549043083751
 20
-119.6178493624567
 30
0.0
 10
82.17190074985633
 20
-119.5691012613404
 30
0.0
 10
82.14382322165154
 20
-119.5374063828761
 30
0.0
 10
82.07853866220606
 20
-119.4633368299432
 30
0.0
 10
81.97570256197136
 20
-119.450762231422
 30
0.0
 10
81.92712671562933
 20
-119.450762231422
 30
0.0
 10
81.91041800252587
 20
-119.450762231422
 30
0.0
 10
81.87855086928731
 20
-119.4528292887132
 30
0.0
 10
81.8542629461163
 20
-119.4569634032955
 30
0.0
 10
81.8542629461163
 20
-119.4569634032955
 30
0.0
 10
81.8542629461163
 20
-119.2624877631531
 30
0.0
 10
81.8542629461163
 20
-119.2624877631531
 30
0.0
 10
81.88802488187174
 20
-119.2686889350266
 30
0.0
 10
81.92540416788671
 20
-119.270928247092
 30
0.0
 10
81.9309163206631
 20
-119.270928247092
 30
0.0
 10
81.98879392481531
 20
-119.270928247092
 30
0.0
 10
82.16449379456304
 20
-119.2497409098577
 30
0.0
 10
82.16449379456304
 20
-119.0127183404725
 30
0.0
 10
82.16449379456304
 20
-118.8351236682079
 30
0.0
 10
82.0485663314844
 20
-118.7800021404439
 30
0.0
 10
81.95141463880034
 20
-118.7800021404439
 30
0.0
 10
81.71800941967467
 20
-118.7800021404439
 30
0.0
 10
81.71043020960713
 20
-119.0127183404725
 30
0.0
 10
81.70681285934761
 20
-119.0847208361142
 30
0.0
 10
81.70681285934761
 20
-119.0847208361142
 30
0.0
 10
81.52749563934036
 20
-119.0847208361142
 30
0.0
 10
81.52749563934036
 20
-119.0847208361142
 30
0.0
 10
81.53490259463364
 20
-118.9598361247739
 30
0.0
 10
81.55919051780465
 20
-118.5832871882361
 30
0.0
 10
81.96261119912741
 20
-118.5832871882361
 30
0.0
 10
82.16070418952927
 20
-118.5832871882361
 30
0.0
 10
82.37361109051771
 20
-118.7102389568676
 30
0.0
 10
82.37361109051771
 20
-119.0063449138248
 30
0.0
 10
82.37361109051771
 20
-119.1925523248026
 30
0.0
 10
82.28955076067761
 20
-119.2750623616743
 30
0.0
 10
82.20170082580374
 20
-119.3363850613117
 30
0.0
 10
82.25596107969643
 20
-119.3639458251937
 30
0.0
 10
82.41650252930907
 20
-119.4443888047743
 30
0.0
 10
82.41650252930907
 20
-119.7215467365627
 30
0.0
 10
82.41650252930907
 20
-120.0600273679885
 30
0.0
 10
82.19808347554424
 20
-120.2271144990231
 30
0.0
 10
81.95330944131723
 20
-120.2271144990231
 30
0.0
  0
HATCH
  5
103
330
FE
100
AcDbEntity
  8
_U+30EC_U+30A4_U+30E4_U+30FC 1
 62
   179
420
  2234388
100
AcDbHatch
 10
0.0
 20
0.0
 30
0.0
210
0.0
220
0.0
230
1.0
  2
SOLID
 70
     1
 71
     0
 91
        1
 92
        1
 93
        1
 72
     4
 94
        3
 73
     0
 74
     1
 95
       62
 96
       58
 40
0.0
 40
0.0
 40
0.0
 40
0.0
 40
1.0
 40
1.0
 40
1.0
 40
2.0
 40
2.0
 40
2.0
 40
3.0
 40
3.0
 40
3.0
 40
4.0
 40
4.0
 40
4.0
 40
5.0
 40
5.0
 40
5.0
 40
6.0
 40
6.0
 40
6.0
 40
7.0
 40
7.0
 40
7.0
 40
8.0
 40
8.0
 40
8.0
 40
9.0
 40
9.0
 40
9.0
 40
10.0
 40
10.0
 40
10.0
 40
11.0
 40
11.0
 40
11.0
 40
12.0
 40
12.0
 40
12.0
 40
13.0
 40
13.0
 40
13.0
 40
14.0
 40
14.0
 40
14.0
 40
15.0
 40
15.0
 40
15.0
 40
16.0
 40
16.0
 40
16.0
 40
17.0
 40
17.0
 40
17.0
 40
18.0
 40
18.0
 40
18.0
 40
19.0
 40
19.0
 40
19.0
 40
19.0
 10
81.95330944131723
 20
-120.2271144990231
 10
81.86924911147713
 20
-120.2271144990231
 10
81.67684052862593
 20
-120.2059271617888
 10
81.5667697278722
 20
-120.019719750811
 10
81.50131291365246
 20
-119.9075818927662
 10
81.49752330861868
 20
-119.8081908880167
 10
81.49390595835916
 20
-119.7236137938538
 10
81.49390595835916
 20
-119.7236137938538
 10
81.688037088953
 20
-119.7236137938538
 10
81.688037088953
 20
-119.7236137938538
 10
81.68993189146988
 20
-119.7976833467867
 10
81.69923364928006
 20
-120.0324666041065
 10
81.94951983628346
 20
-120.0324666041065
 10
82.07095945213851
 20
-120.0324666041065
 10
82.20549043083751
 20
-119.9627034205302
 10
82.20549043083751
 20
-119.7341213350838
 10
82.20549043083751
 20
-119.6178493624567
 10
82.17190074985633
 20
-119.5691012613404
 10
82.14382322165154
 20
-119.5374063828761
 10
82.07853866220606
 20
-119.4633368299432
 10
81.97570256197136
 20
-119.450762231422
 10
81.92712671562933
 20
-119.450762231422
 10
81.91041800252587
 20
-119.450762231422
 10
81.87855086928731
 20
-119.4528292887132
 10
81.8542629461163
 20
-119.4569634032955
 10
81.8542629461163
 20
-119.4569634032955
 10
81.8542629461163
 20
-119.2624877631531
 10
81.8542629461163
 20
-119.2624877631531
 10
81.88802488187174
 20
-119.2686889350266
 10
81.92540416788671
 20
-119.270928247092
 10
81.9309163206631
 20
-119.270928247092
 10
81.98879392481531
 20
-119.270928247092
 10
82.16449379456304
 20
-119.2497409098577
 10
82.16449379456304
 20
-119.0127183404725
 10
82.16449379456304
 20
-118.8351236682079
 10
82.0485663314844
 20
-118.7800021404439
 10
81.95141463880034
 20
-118.7800021404439
 10
81.71800941967467
 20
-118.7800021404439
 10
81.71043020960713
 20
-119.0127183404725
 10
81.70681285934761
 20
-119.0847208361142
 10
81.70681285934761
 20
-119.0847208361142
 10
81.52749563934036
 20
-119.0847208361142
 10
81.52749563934036
 20
-119.0847208361142
 10
81.53490259463364
 20
-118.9598361247739
 10
81.55919051780465
 20
-118.5832871882361
 10
81.96261119912741
 20
-118.5832871882361
 10
82.16070418952927
 20
-118.5832871882361
 10
82.37361109051771
 20
-118.7102389568676
 10
82.37361109051771
 20
-119.0063449138248
 10
82.37361109051771
 20
-119.1925523248026
 10
82.28955076067761
 20
-119.2750623616743
 10
82.20170082580374
 20
-119.3363850613117
 10
82.25596107969643
 20
-119.3639458251937
 10
82.41650252930907
 20
-119.4443888047743
 10
82.41650252930907
 20
-119.7215467365627
 10
82.41650252930907
 20
-120.0600273679885
 10
82.19808347554424
 20
-120.2271144990231
 10
81.95330944131723
 20
-120.2271144990231
 97
        0
 97
        0
 75
     2
 76
     1
 98
        0
  0
POLYLINE
  5
104
330
FE
100
AcDbEntity
  8
_U+30EC_U+30A4_U+30E4_U+30FC 1
370
     0
100
AcDb2dPolyline
 66
     1
 10
0.0
 20
0.0
 30
0.0
  0
VERTEX
  5
105
330
104
100
AcDbEntity
  8
_U+30EC_U+30A4_U+30E4_U+30FC 1
370
     0
100
AcDbVertex
100
AcDb2dVertex
 10
82.612011698097
 20
-120.1762993406157
 30
0.0
  0
VERTEX
  5
106
330
104
100
AcDbEntity
  8
_U+30EC_U+30A4_U+30E4_U+30FC 1
370
     0
100
AcDbVertex
100
AcDb2dVertex
 10
82.612011698097
 20
-119.9246351154182
 30
0.0
  0
VERTEX
  5
107
330
104
100
AcDbEntity
  8
_U+30EC_U+30A4_U+30E4_U+30FC 1
370
     0
100
AcDbVertex
100
AcDb2dVertex
 10
82.83422035689561
 20
-119.9246351154182
 30
0.0
  0
VERTEX
  5
108
330
104
100
AcDbEntity
  8
_U+30EC_U+30A4_U+30E4_U+30FC 1
370
     0
100
AcDbVertex
100
AcDb2dVertex
 10
82.83422035689561
 20
-120.1762993406157
 30
0.0
  0
VERTEX
  5
109
330
104
100
AcDbEntity
  8
_U+30EC_U+30A4_U+30E4_U+30FC 1
370
     0
100
AcDbVertex
100
AcDb2dVertex
 10
82.612011698097
 20
-120.1762993406157
 30
0.0
  0
SEQEND
  5
10A
330
104
100
AcDbEntity
  8
_U+30EC_U+30A4_U+30E4_U+30FC 1
370
     0
  0
HATCH
  5
10B
330
FE
100
AcDbEntity
  8
_U+30EC_U+30A4_U+30E4_U+30FC 1
 62
   179
420
  2234388
100
AcDbHatch
 10
0.0
 20
0.0
 30
0.0
210
0.0
220
0.0
230
1.0
  2
SOLID
 70
     1
 71
     0
 91
        1
 92
        1
 93
        4
 72
     1
 10
82.612011698097
 20
-120.1762993406157
 11
82.612011698097
 21
-119.9246351154182
 72
     1
 10
82.612011698097
 20
-119.9246351154182
 11
82.83422035689561
 21
-119.9246351154182
 72
     1
 10
82.83422035689561
 20
-119.9246351154182
 11
82.83422035689561
 21
-120.1762993406157
 72
     1
 10
82.83422035689561
 20
-120.1762993406157
 11
82.612011698097
 21
-120.1762993406157
 97
        0
 75
     2
 76
     1
 98
        0
  0
SPLINE
  5
10C
330
FE
100
AcDbEntity
  8
_U+30EC_U+30A4_U+30E4_U+30FC 1
370
     0
100
AcDbSpline
210
0.0
220
0.0
230
1.0
 70
    11
 71
     3
 72
    53
 73
    49
 74
     0
 42
0.0000000001
 43
0.0000000001
 12
1.0
 22
0.0
 32
0.0
 13
1.0
 23
0.0
 33
0.0
 40
0.0
 40
0.0
 40
0.0
 40
0.0
 40
1.0
 40
1.0
 40
1.0
 40
2.0
 40
2.0
 40
2.0
 40
3.0
 40
3.0
 40
3.0
 40
4.0
 40
4.0
 40
4.0
 40
5.0
 40
5.0
 40
5.0
 40
6.0
 40
6.0
 40
6.0
 40
7.0
 40
7.0
 40
7.0
 40
8.0
 40
8.0
 40
8.0
 40
9.0
 40
9.0
 40
9.0
 40
10.0
 40
10.0
 40
10.0
 40
11.0
 40
11.0
 40
11.0
 40
12.0
 40
12.0
 40
12.0
 40
13.0
 40
13.0
 40
13.0
 40
14.0
 40
14.0
 40
14.0
 40
15.0
 40
15.0
 40
15.0
 40
16.0
 40
16.0
 40
16.0
 40
16.0
 10
83.46811792618159
 20
-120.2271144990231
 30
0.0
 10
83.39904376170233
 20
-120.2271144990231
 30
0.0
 10
83.30929902431157
 20
-120.2102335311454
 30
0.0
 10
83.21972654169507
 20
-120.1466715194425
 30
0.0
 10
83.06659204737572
 20
-120.0366007186888
 30
0.0
 10
83.04781627698111
 20
-119.905514835475
 30
0.0
 10
83.03110756387764
 20
-119.7976833467867
 30
0.0
 10
83.03110756387764
 20
-119.7976833467867
 30
0.0
 10
83.22713349698836
 20
-119.7976833467867
 30
0.0
 10
83.22713349698836
 20
-119.7976833467867
 30
0.0
 10
83.27570934333038
 20
-119.9964653562856
 30
0.0
 10
83.38784720137527
 20
-120.0260931774588
 30
0.0
 10
83.47001272869848
 20
-120.0260931774588
 30
0.0
 10
83.59317489229615
 20
-120.0260931774588
 30
0.0
 10
83.72770587099517
 20
-119.9267021727093
 30
0.0
 10
83.72770587099517
 20
-119.6939859726807
 30
0.0
 10
83.72770587099517
 20
-119.4380153781266
 30
0.0
 10
83.5690592238994
 20
-119.3682521945503
 30
0.0
 10
83.46243351863092
 20
-119.3682521945503
 30
0.0
 10
83.4345282452004
 20
-119.3682521945503
 30
0.0
 10
83.30929902431157
 20
-119.3682521945503
 30
0.0
 10
83.23092310202213
 20
-119.4972710204729
 30
0.0
 10
83.23092310202213
 20
-119.4972710204729
 30
0.0
 10
83.07589380518588
 20
-119.4781507405298
 30
0.0
 10
83.07589380518588
 20
-119.4781507405298
 30
0.0
 10
83.07589380518588
 20
-119.4781507405298
 30
0.0
 10
83.18234725568011
 20
-118.6320352893524
 30
0.0
 10
83.18234725568011
 20
-118.6320352893524
 30
0.0
 10
83.18234725568011
 20
-118.6320352893524
 30
0.0
 10
83.86964380498745
 20
-118.6320352893524
 30
0.0
 10
83.86964380498745
 20
-118.6320352893524
 30
0.0
 10
83.86964380498745
 20
-118.6320352893524
 30
0.0
 10
83.86964380498745
 20
-118.826683184269
 30
0.0
 10
83.86964380498745
 20
-118.826683184269
 30
0.0
 10
83.86964380498745
 20
-118.826683184269
 30
0.0
 10
83.3261799921893
 20
-118.826683184269
 30
0.0
 10
83.3261799921893
 20
-118.826683184269
 30
0.0
 10
83.3261799921893
 20
-118.826683184269
 30
0.0
 10
83.2683023880371
 20
-119.2497409098577
 30
0.0
 10
83.2683023880371
 20
-119.2497409098577
 30
0.0
 10
83.32239038715552
 20
-119.215806719328
 30
0.0
 10
83.39525415666856
 20
-119.1756713569248
 30
0.0
 10
83.49981280464588
 20
-119.1756713569248
 30
0.0
 10
83.72408852073565
 20
-119.1756713569248
 30
0.0
 10
83.93320581669032
 20
-119.3618787679026
 30
0.0
 10
83.93320581669032
 20
-119.6748656927375
 30
0.0
 10
83.93320581669032
 20
-119.9923312417033
 30
0.0
 10
83.73528508106271
 20
-120.2271144990231
 30
0.0
 10
83.46811792618159
 20
-120.2271144990231
 30
0.0
  0
HATCH
  5
10D
330
FE
100
AcDbEntity
  8
_U+30EC_U+30A4_U+30E4_U+30FC 1
 62
   179
420
  2234388
100
AcDbHatch
 10
0.0
 20
0.0
 30
0.0
210
0.0
220
0.0
230
1.0
  2
SOLID
 70
     1
 71
     0
 91
        1
 92
        1
 93
        1
 72
     4
 94
        3
 73
     0
 74
     1
 95
       53
 96
       49
 40
0.0
 40
0.0
 40
0.0
 40
0.0
 40
1.0
 40
1.0
 40
1.0
 40
2.0
 40
2.0
 40
2.0
 40
3.0
 40
3.0
 40
3.0
 40
4.0
 40
4.0
 40
4.0
 40
5.0
 40
5.0
 40
5.0
 40
6.0
 40
6.0
 40
6.0
 40
7.0
 40
7.0
 40
7.0
 40
8.0
 40
8.0
 40
8.0
 40
9.0
 40
9.0
 40
9.0
 40
10.0
 40
10.0
 40
10.0
 40
11.0
 40
11.0
 40
11.0
 40
12.0
 40
12.0
 40
12.0
 40
13.0
 40
13.0
 40
13.0
 40
14.0
 40
14.0
 40
14.0
 40
15.0
 40
15.0
 40
15.0
 40
16.0
 40
16.0
 40
16.0
 40
16.0
 10
83.46811792618159
 20
-120.2271144990231
 10
83.39904376170233
 20
-120.2271144990231
 10
83.30929902431157
 20
-120.2102335311454
 10
83.21972654169507
 20
-120.1466715194425
 10
83.06659204737572
 20
-120.0366007186888
 10
83.04781627698111
 20
-119.905514835475
 10
83.03110756387764
 20
-119.7976833467867
 10
83.03110756387764
 20
-119.7976833467867
 10
83.22713349698836
 20
-119.7976833467867
 10
83.22713349698836
 20
-119.7976833467867
 10
83.27570934333038
 20
-119.9964653562856
 10
83.38784720137527
 20
-120.0260931774588
 10
83.47001272869848
 20
-120.0260931774588
 10
83.59317489229615
 20
-120.0260931774588
 10
83.72770587099517
 20
-119.9267021727093
 10
83.72770587099517
 20
-119.6939859726807
 10
83.72770587099517
 20
-119.4380153781266
 10
83.5690592238994
 20
-119.3682521945503
 10
83.46243351863092
 20
-119.3682521945503
 10
83.4345282452004
 20
-119.3682521945503
 10
83.30929902431157
 20
-119.3682521945503
 10
83.23092310202213
 20
-119.4972710204729
 10
83.23092310202213
 20
-119.4972710204729
 10
83.07589380518588
 20
-119.4781507405298
 10
83.07589380518588
 20
-119.4781507405298
 10
83.07589380518588
 20
-119.4781507405298
 10
83.18234725568011
 20
-118.6320352893524
 10
83.18234725568011
 20
-118.6320352893524
 10
83.18234725568011
 20
-118.6320352893524
 10
83.86964380498745
 20
-118.6320352893524
 10
83.86964380498745
 20
-118.6320352893524
 10
83.86964380498745
 20
-118.6320352893524
 10
83.86964380498745
 20
-118.826683184269
 10
83.86964380498745
 20
-118.826683184269
 10
83.86964380498745
 20
-118.826683184269
 10
83.3261799921893
 20
-118.826683184269
 10
83.3261799921893
 20
-118.826683184269
 10
83.3261799921893
 20
-118.826683184269
 10
83.2683023880371
 20
-119.2497409098577
 10
83.2683023880371
 20
-119.2497409098577
 10
83.32239038715552
 20
-119.215806719328
 10
83.39525415666856
 20
-119.1756713569248
 10
83.49981280464588
 20
-119.1756713569248
 10
83.72408852073565
 20
-119.1756713569248
 10
83.93320581669032
 20
-119.3618787679026
 10
83.93320581669032
 20
-119.6748656927375
 10
83.93320581669032
 20
-119.9923312417033
 10
83.73528508106271
 20
-120.2271144990231
 10
83.46811792618159
 20
-120.2271144990231
 97
        0
 97
        0
 75
     2
 76
     1
 98
        0
  0
ENDBLK
  5
101
330
FE
100
AcDbEntity
  8
0
100
AcDbBlockEnd
  0
BLOCK
  5
110
330
10E
100
AcDbEntity
  8
0
100
AcDbBlockBegin
  2
block 3
 70
     0
 10
0.0
 20
0.0
 30
0.0
  3
block 3
  1

  0
SPLINE
  5
112
330
10E
100
AcDbEntity
  8
_U+30EC_U+30A4_U+30E4_U+30FC 1
370
     0
100
AcDbSpline
210
0.0
220
0.0
230
1.0
 70
    11
 71
     3
 72
    26
 73
    22
 74
     0
 42
0.0000000001
 43
0.0000000001
 12
1.0
 22
0.0
 32
0.0
 13
1.0
 23
0.0
 33
0.0
 40
0.0
 40
0.0
 40
0.0
 40
0.0
 40
1.0
 40
1.0
 40
1.0
 40
2.0
 40
2.0
 40
2.0
 40
3.0
 40
3.0
 40
3.0
 40
4.0
 40
4.0
 40
4.0
 40
5.0
 40
5.0
 40
5.0
 40
6.0
 40
6.0
 40
6.0
 40
7.0
 40
7.0
 40
7.0
 40
7.0
 10
90.52367347997325
 20
-120.1762993406157
 30
0.0
 10
90.52367347997325
 20
-120.1762993406157
 30
0.0
 10
90.52367347997325
 20
-119.0719739828188
 30
0.0
 10
90.52367347997325
 20
-119.0719739828188
 30
0.0
 10
90.52367347997325
 20
-119.0719739828188
 30
0.0
 10
90.23239065669537
 20
-119.0719739828188
 30
0.0
 10
90.23239065669537
 20
-119.0719739828188
 30
0.0
 10
90.23239065669537
 20
-119.0719739828188
 30
0.0
 10
90.23239065669537
 20
-118.9238348769531
 30
0.0
 10
90.23239065669537
 20
-118.9238348769531
 30
0.0
 10
90.52556828249014
 20
-118.9091932211408
 30
0.0
 10
90.56673717353887
 20
-118.7462402046884
 30
0.0
 10
90.59274764445252
 20
-118.6320352893524
 30
0.0
 10
90.59274764445252
 20
-118.6320352893524
 30
0.0
 10
90.72176647037512
 20
-118.6320352893524
 30
0.0
 10
90.72176647037512
 20
-118.6320352893524
 30
0.0
 10
90.72176647037512
 20
-118.6320352893524
 30
0.0
 10
90.72176647037512
 20
-120.1762993406157
 30
0.0
 10
90.72176647037512
 20
-120.1762993406157
 30
0.0
 10
90.72176647037512
 20
-120.1762993406157
 30
0.0
 10
90.52367347997325
 20
-120.1762993406157
 30
0.0
 10
90.52367347997325
 20
-120.1762993406157
 30
0.0
  0
HATCH
  5
113
330
10E
100
AcDbEntity
  8
_U+30EC_U+30A4_U+30E4_U+30FC 1
 62
   179
420
  2234388
100
AcDbHatch
 10
0.0
 20
0.0
 30
0.0
210
0.0
220
0.0
230
1.0
  2
SOLID
 70
     1
 71
     0
 91
        1
 92
        1
 93
        1
 72
     4
 94
        3
 73
     0
 74
     1
 95
       26
 96
       22
 40
0.0
 40
0.0
 40
0.0
 40
0.0
 40
1.0
 40
1.0
 40
1.0
 40
2.0
 40
2.0
 40
2.0
 40
3.0
 40
3.0
 40
3.0
 40
4.0
 40
4.0
 40
4.0
 40
5.0
 40
5.0
 40
5.0
 40
6.0
 40
6.0
 40
6.0
 40
7.0
 40
7.0
 40
7.0
 40
7.0
 10
90.52367347997325
 20
-120.1762993406157
 10
90.52367347997325
 20
-120.1762993406157
 10
90.52367347997325
 20
-119.0719739828188
 10
90.52367347997325
 20
-119.0719739828188
 10
90.52367347997325
 20
-119.0719739828188
 10
90.23239065669537
 20
-119.0719739828188
 10
90.23239065669537
 20
-119.0719739828188
 10
90.23239065669537
 20
-119.0719739828188
 10
90.23239065669537
 20
-118.9238348769531
 10
90.23239065669537
 20
-118.9238348769531
 10
90.52556828249014
 20
-118.9091932211408
 10
90.56673717353887
 20
-118.7462402046884
 10
90.59274764445252
 20
-118.6320352893524
 10
90.59274764445252
 20
-118.6320352893524
 10
90.72176647037512
 20
-118.6320352893524
 10
90.72176647037512
 20
-118.6320352893524
 10
90.72176647037512
 20
-118.6320352893524
 10
90.72176647037512
 20
-120.1762993406157
 10
90.72176647037512
 20
-120.1762993406157
 10
90.72176647037512
 20
-120.1762993406157
 10
90.52367347997325
 20
-120.1762993406157
 10
90.52367347997325
 20
-120.1762993406157
 97
        0
 97
        0
 75
     2
 76
     1
 98
        0
  0
SPLINE
  5
114
330
10E
100
AcDbEntity
  8
_U+30EC_U+30A4_U+30E4_U+30FC 1
370
     0
100
AcDbSpline
210
0.0
220
0.0
230
1.0
 70
    11
 71
     3
 72
    62
 73
    58
 74
     0
 42
0.0000000001
 43
0.0000000001
 12
1.0
 22
0.0
 32
0.0
 13
1.0
 23
0.0
 33
0.0
 40
0.0
 40
0.0
 40
0.0
 40
0.0
 40
1.0
 40
1.0
 40
1.0
 40
2.0
 40
2.0
 40
2.0
 40
3.0
 40
3.0
 40
3.0
 40
4.0
 40
4.0
 40
4.0
 40
5.0
 40
5.0
 40
5.0
 40
6.0
 40
6.0
 40
6.0
 40
7.0
 40
7.0
 40
7.0
 40
8.0
 40
8.0
 40
8.0
 40
9.0
 40
9.0
 40
9.0
 40
10.0
 40
10.0
 40
10.0
 40
11.0
 40
11.0
 40
11.0
 40
12.0
 40
12.0
 40
12.0
 40
13.0
 40
13.0
 40
13.0
 40
14.0
 40
14.0
 40
14.0
 40
15.0
 40
15.0
 40
15.0
 40
16.0
 40
16.0
 40
16.0
 40
17.0
 40
17.0
 40
17.0
 40
18.0
 40
18.0
 40
18.0
 40
19.0
 40
19.0
 40
19.0
 40
19.0
 10
91.59923229046825
 20
-120.2271144990231
 30
0.0
 10
91.51517196062815
 20
-120.2271144990231
 30
0.0
 10
91.3225911230027
 20
-120.2059271617888
 30
0.0
 10
91.2123480674747
 20
-120.019719750811
 30
0.0
 10
91.14689125325495
 20
-119.9075818927662
 30
0.0
 10
91.1434461577697
 20
-119.8081908880167
 30
0.0
 10
91.13965655273593
 20
-119.7236137938538
 30
0.0
 10
91.13965655273593
 20
-119.7236137938538
 30
0.0
 10
91.33395993810402
 20
-119.7236137938538
 30
0.0
 10
91.33395993810402
 20
-119.7236137938538
 30
0.0
 10
91.33568248584663
 20
-119.7976833467867
 30
0.0
 10
91.34498424365681
 20
-120.0324666041065
 30
0.0
 10
91.59544268543448
 20
-120.0324666041065
 30
0.0
 10
91.71671004651527
 20
-120.0324666041065
 30
0.0
 10
91.85141327998853
 20
-119.9627034205302
 30
0.0
 10
91.85141327998853
 20
-119.7341213350838
 30
0.0
 10
91.85141327998853
 20
-119.6178493624567
 30
0.0
 10
91.81765134423308
 20
-119.5691012613404
 30
0.0
 10
91.78974607080256
 20
-119.5374063828761
 30
0.0
 10
91.72428925658282
 20
-119.4633368299432
 30
0.0
 10
91.62162541112238
 20
-119.450762231422
 30
0.0
 10
91.57304956478035
 20
-119.450762231422
 30
0.0
 10
91.55616859690262
 20
-119.450762231422
 30
0.0
 10
91.52447371843833
 20
-119.4528292887132
 30
0.0
 10
91.50001354049306
 20
-119.4569634032955
 30
0.0
 10
91.50001354049306
 20
-119.4569634032955
 30
0.0
 10
91.50001354049306
 20
-119.2624877631531
 30
0.0
 10
91.50001354049306
 20
-119.2624877631531
 30
0.0
 10
91.53377547624851
 20
-119.2686889350266
 30
0.0
 10
91.5709825074892
 20
-119.270928247092
 30
0.0
 10
91.57683916981412
 20
-119.270928247092
 30
0.0
 10
91.63471677396633
 20
-119.270928247092
 30
0.0
 10
91.81007213416554
 20
-119.2497409098577
 30
0.0
 10
91.81007213416554
 20
-119.0127183404725
 30
0.0
 10
91.81007213416554
 20
-118.8351236682079
 30
0.0
 10
91.69431692586114
 20
-118.7800021404439
 30
0.0
 10
91.59716523317711
 20
-118.7800021404439
 30
0.0
 10
91.36358775927717
 20
-118.7800021404439
 30
0.0
 10
91.35635305875813
 20
-119.0127183404725
 30
0.0
 10
91.35256345372436
 20
-119.0847208361142
 30
0.0
 10
91.35256345372436
 20
-119.0847208361142
 30
0.0
 10
91.17307397894285
 20
-119.0847208361142
 30
0.0
 10
91.17307397894285
 20
-119.0847208361142
 30
0.0
 10
91.1806531890104
 20
-118.9598361247739
 30
0.0
 10
91.20511336695567
 20
-118.5832871882361
 30
0.0
 10
91.60853404827843
 20
-118.5832871882361
 30
0.0
 10
91.80628252913176
 20
-118.5832871882361
 30
0.0
 10
92.01953393966873
 20
-118.7102389568676
 30
0.0
 10
92.01953393966873
 20
-119.0063449138248
 30
0.0
 10
92.01953393966873
 20
-119.1925523248026
 30
0.0
 10
91.93547360982863
 20
-119.2750623616743
 30
0.0
 10
91.84762367495476
 20
-119.3363850613117
 30
0.0
 10
91.90171167407318
 20
-119.3639458251937
 30
0.0
 10
92.06225312368584
 20
-119.4443888047743
 30
0.0
 10
92.06225312368584
 20
-119.7215467365627
 30
0.0
 10
92.06225312368584
 20
-120.0600273679885
 30
0.0
 10
91.84383406992099
 20
-120.2271144990231
 30
0.0
 10
91.59923229046825
 20
-120.2271144990231
 30
0.0
  0
HATCH
  5
115
330
10E
100
AcDbEntity
  8
_U+30EC_U+30A4_U+30E4_U+30FC 1
 62
   179
420
  2234388
100
AcDbHatch
 10
0.0
 20
0.0
 30
0.0
210
0.0
220
0.0
230
1.0
  2
SOLID
 70
     1
 71
     0
 91
        1
 92
        1
 93
        1
 72
     4
 94
        3
 73
     0
 74
     1
 95
       62
 96
       58
 40
0.0
 40
0.0
 40
0.0
 40
0.0
 40
1.0
 40
1.0
 40
1.0
 40
2.0
 40
2.0
 40
2.0
 40
3.0
 40
3.0
 40
3.0
 40
4.0
 40
4.0
 40
4.0
 40
5.0
 40
5.0
 40
5.0
 40
6.0
 40
6.0
 40
6.0
 40
7.0
 40
7.0
 40
7.0
 40
8.0
 40
8.0
 40
8.0
 40
9.0
 40
9.0
 40
9.0
 40
10.0
 40
10.0
 40
10.0
 40
11.0
 40
11.0
 40
11.0
 40
12.0
 40
12.0
 40
12.0
 40
13.0
 40
13.0
 40
13.0
 40
14.0
 40
14.0
 40
14.0
 40
15.0
 40
15.0
 40
15.0
 40
16.0
 40
16.0
 40
16.0
 40
17.0
 40
17.0
 40
17.0
 40
18.0
 40
18.0
 40
18.0
 40
19.0
 40
19.0
 40
19.0
 40
19.0
 10
91.59923229046825
 20
-120.2271144990231
 10
91.51517196062815
 20
-120.2271144990231
 10
91.3225911230027
 20
-120.2059271617888
 10
91.2123480674747
 20
-120.019719750811
 10
91.14689125325495
 20
-119.9075818927662
 10
91.1434461577697
 20
-119.8081908880167
 10
91.13965655273593
 20
-119.7236137938538
 10
91.13965655273593
 20
-119.7236137938538
 10
91.33395993810402
 20
-119.7236137938538
 10
91.33395993810402
 20
-119.7236137938538
 10
91.33568248584663
 20
-119.7976833467867
 10
91.34498424365681
 20
-120.0324666041065
 10
91.59544268543448
 20
-120.0324666041065
 10
91.71671004651527
 20
-120.0324666041065
 10
91.85141327998853
 20
-119.9627034205302
 10
91.85141327998853
 20
-119.7341213350838
 10
91.85141327998853
 20
-119.6178493624567
 10
91.81765134423308
 20
-119.5691012613404
 10
91.78974607080256
 20
-119.5374063828761
 10
91.72428925658282
 20
-119.4633368299432
 10
91.62162541112238
 20
-119.450762231422
 10
91.57304956478035
 20
-119.450762231422
 10
91.55616859690262
 20
-119.450762231422
 10
91.52447371843833
 20
-119.4528292887132
 10
91.50001354049306
 20
-119.4569634032955
 10
91.50001354049306
 20
-119.4569634032955
 10
91.50001354049306
 20
-119.2624877631531
 10
91.50001354049306
 20
-119.2624877631531
 10
91.53377547624851
 20
-119.2686889350266
 10
91.5709825074892
 20
-119.270928247092
 10
91.57683916981412
 20
-119.270928247092
 10
91.63471677396633
 20
-119.270928247092
 10
91.81007213416554
 20
-119.2497409098577
 10
91.81007213416554
 20
-119.0127183404725
 10
91.81007213416554
 20
-118.8351236682079
 10
91.69431692586114
 20
-118.7800021404439
 10
91.59716523317711
 20
-118.7800021404439
 10
91.36358775927717
 20
-118.7800021404439
 10
91.35635305875813
 20
-119.0127183404725
 10
91.35256345372436
 20
-119.0847208361142
 10
91.35256345372436
 20
-119.0847208361142
 10
91.17307397894285
 20
-119.0847208361142
 10
91.17307397894285
 20
-119.0847208361142
 10
91.1806531890104
 20
-118.9598361247739
 10
91.20511336695567
 20
-118.5832871882361
 10
91.60853404827843
 20
-118.5832871882361
 10
91.80628252913176
 20
-118.5832871882361
 10
92.01953393966873
 20
-118.7102389568676
 10
92.01953393966873
 20
-119.0063449138248
 10
92.01953393966873
 20
-119.1925523248026
 10
91.93547360982863
 20
-119.2750623616743
 10
91.84762367495476
 20
-119.3363850613117
 10
91.90171167407318
 20
-119.3639458251937
 10
92.06225312368584
 20
-119.4443888047743
 10
92.06225312368584
 20
-119.7215467365627
 10
92.06225312368584
 20
-120.0600273679885
 10
91.84383406992099
 20
-120.2271144990231
 10
91.59923229046825
 20
-120.2271144990231
 97
        0
 97
        0
 75
     2
 76
     1
 98
        0
  0
ENDBLK
  5
111
330
10E
100
AcDbEntity
  8
0
100
AcDbBlockEnd
  0
BLOCK
  5
118
330
116
100
AcDbEntity
  8
0
100
AcDbBlockBegin
  2
block 4
 70
     0
 10
0.0
 20
0.0
 30
0.0
  3
block 4
  1

  0
SPLINE
  5
11A
330
116
100
AcDbEntity
  8
_U+30EC_U+30A4_U+30E4_U+30FC 1
370
     0
100
AcDbSpline
210
0.0
220
0.0
230
1.0
 70
    11
 71
     3
 72
    62
 73
    58
 74
     0
 42
0.0000000001
 43
0.0000000001
 12
1.0
 22
0.0
 32
0.0
 13
1.0
 23
0.0
 33
0.0
 40
0.0
 40
0.0
 40
0.0
 40
0.0
 40
1.0
 40
1.0
 40
1.0
 40
2.0
 40
2.0
 40
2.0
 40
3.0
 40
3.0
 40
3.0
 40
4.0
 40
4.0
 40
4.0
 40
5.0
 40
5.0
 40
5.0
 40
6.0
 40
6.0
 40
6.0
 40
7.0
 40
7.0
 40
7.0
 40
8.0
 40
8.0
 40
8.0
 40
9.0
 40
9.0
 40
9.0
 40
10.0
 40
10.0
 40
10.0
 40
11.0
 40
11.0
 40
11.0
 40
12.0
 40
12.0
 40
12.0
 40
13.0
 40
13.0
 40
13.0
 40
14.0
 40
14.0
 40
14.0
 40
15.0
 40
15.0
 40
15.0
 40
16.0
 40
16.0
 40
16.0
 40
17.0
 40
17.0
 40
17.0
 40
18.0
 40
18.0
 40
18.0
 40
19.0
 40
19.0
 40
19.0
 40
19.0
 10
112.0107340214765
 20
-120.2271144990231
 30
0.0
 10
111.9266736916364
 20
-120.2271144990231
 30
0.0
 10
111.7340928540109
 20
-120.2059271617888
 30
0.0
 10
111.6238497984829
 20
-120.019719750811
 30
0.0
 10
111.5583929842632
 20
-119.9075818927662
 30
0.0
 10
111.5549478887779
 20
-119.8081908880167
 30
0.0
 10
111.5511582837442
 20
-119.7236137938538
 30
0.0
 10
111.5511582837442
 20
-119.7236137938538
 30
0.0
 10
111.7454616691122
 20
-119.7236137938538
 30
0.0
 10
111.7454616691122
 20
-119.7236137938538
 30
0.0
 10
111.7471842168549
 20
-119.7976833467867
 30
0.0
 10
111.7564859746651
 20
-120.0324666041065
 30
0.0
 10
112.0069444164427
 20
-120.0324666041065
 30
0.0
 10
112.1282117775235
 20
-120.0324666041065
 30
0.0
 10
112.2629150109968
 20
-119.9627034205302
 30
0.0
 10
112.2629150109968
 20
-119.7341213350838
 30
0.0
 10
112.2629150109968
 20
-119.6178493624567
 30
0.0
 10
112.2291530752413
 20
-119.5691012613404
 30
0.0
 10
112.2012478018108
 20
-119.5374063828761
 30
0.0
 10
112.1357909875911
 20
-119.4633368299432
 30
0.0
 10
112.0331271421306
 20
-119.450762231422
 30
0.0
 10
111.9845512957886
 20
-119.450762231422
 30
0.0
 10
111.9676703279109
 20
-119.450762231422
 30
0.0
 10
111.9359754494466
 20
-119.4528292887132
 30
0.0
 10
111.9115152715013
 20
-119.4569634032955
 30
0.0
 10
111.9115152715013
 20
-119.4569634032955
 30
0.0
 10
111.9115152715013
 20
-119.2624877631531
 30
0.0
 10
111.9115152715013
 20
-119.2624877631531
 30
0.0
 10
111.9452772072567
 20
-119.2686889350266
 30
0.0
 10
111.9824842384974
 20
-119.270928247092
 30
0.0
 10
111.9883409008224
 20
-119.270928247092
 30
0.0
 10
112.0462185049746
 20
-119.270928247092
 30
0.0
 10
112.2215738651738
 20
-119.2497409098577
 30
0.0
 10
112.2215738651738
 20
-119.0127183404725
 30
0.0
 10
112.2215738651738
 20
-118.8351236682079
 30
0.0
 10
112.1058186568694
 20
-118.7800021404439
 30
0.0
 10
112.0086669641853
 20
-118.7800021404439
 30
0.0
 10
111.7750894902854
 20
-118.7800021404439
 30
0.0
 10
111.7678547897664
 20
-119.0127183404725
 30
0.0
 10
111.7640651847326
 20
-119.0847208361142
 30
0.0
 10
111.7640651847326
 20
-119.0847208361142
 30
0.0
 10
111.5845757099511
 20
-119.0847208361142
 30
0.0
 10
111.5845757099511
 20
-119.0847208361142
 30
0.0
 10
111.5921549200186
 20
-118.9598361247739
 30
0.0
 10
111.6166150979639
 20
-118.5832871882361
 30
0.0
 10
112.0200357792867
 20
-118.5832871882361
 30
0.0
 10
112.21778426014
 20
-118.5832871882361
 30
0.0
 10
112.431035670677
 20
-118.7102389568676
 30
0.0
 10
112.431035670677
 20
-119.0063449138248
 30
0.0
 10
112.431035670677
 20
-119.1925523248026
 30
0.0
 10
112.3469753408369
 20
-119.2750623616743
 30
0.0
 10
112.259125405963
 20
-119.3363850613117
 30
0.0
 10
112.3132134050814
 20
-119.3639458251937
 30
0.0
 10
112.4737548546941
 20
-119.4443888047743
 30
0.0
 10
112.4737548546941
 20
-119.7215467365627
 30
0.0
 10
112.4737548546941
 20
-120.0600273679885
 30
0.0
 10
112.2553358009292
 20
-120.2271144990231
 30
0.0
 10
112.0107340214765
 20
-120.2271144990231
 30
0.0
  0
HATCH
  5
11B
330
116
100
AcDbEntity
  8
_U+30EC_U+30A4_U+30E4_U+30FC 1
 62
   179
420
  2234388
100
AcDbHatch
 10
0.0
 20
0.0
 30
0.0
210
0.0
220
0.0
230
1.0
  2
SOLID
 70
     1
 71
     0
 91
        1
 92
        1
 93
        1
 72
     4
 94
        3
 73
     0
 74
     1
 95
       62
 96
       58
 40
0.0
 40
0.0
 40
0.0
 40
0.0
 40
1.0
 40
1.0
 40
1.0
 40
2.0
 40
2.0
 40
2.0
 40
3.0
 40
3.0
 40
3.0
 40
4.0
 40
4.0
 40
4.0
 40
5.0
 40
5.0
 40
5.0
 40
6.0
 40
6.0
 40
6.0
 40
7.0
 40
7.0
 40
7.0
 40
8.0
 40
8.0
 40
8.0
 40
9.0
 40
9.0
 40
9.0
 40
10.0
 40
10.0
 40
10.0
 40
11.0
 40
11.0
 40
11.0
 40
12.0
 40
12.0
 40
12.0
 40
13.0
 40
13.0
 40
13.0
 40
14.0
 40
14.0
 40
14.0
 40
15.0
 40
15.0
 40
15.0
 40
16.0
 40
16.0
 40
16.0
 40
17.0
 40
17.0
 40
17.0
 40
18.0
 40
18.0
 40
18.0
 40
19.0
 40
19.0
 40
19.0
 40
19.0
 10
112.0107340214765
 20
-120.2271144990231
 10
111.9266736916364
 20
-120.2271144990231
 10
111.7340928540109
 20
-120.2059271617888
 10
111.6238497984829
 20
-120.019719750811
 10
111.5583929842632
 20
-119.9075818927662
 10
111.5549478887779
 20
-119.8081908880167
 10
111.5511582837442
 20
-119.7236137938538
 10
111.5511582837442
 20
-119.7236137938538
 10
111.7454616691122
 20
-119.7236137938538
 10
111.7454616691122
 20
-119.7236137938538
 10
111.7471842168549
 20
-119.7976833467867
 10
111.7564859746651
 20
-120.0324666041065
 10
112.0069444164427
 20
-120.0324666041065
 10
112.1282117775235
 20
-120.0324666041065
 10
112.2629150109968
 20
-119.9627034205302
 10
112.2629150109968
 20
-119.7341213350838
 10
112.2629150109968
 20
-119.6178493624567
 10
112.2291530752413
 20
-119.5691012613404
 10
112.2012478018108
 20
-119.5374063828761
 10
112.1357909875911
 20
-119.4633368299432
 10
112.0331271421306
 20
-119.450762231422
 10
111.9845512957886
 20
-119.450762231422
 10
111.9676703279109
 20
-119.450762231422
 10
111.9359754494466
 20
-119.4528292887132
 10
111.9115152715013
 20
-119.4569634032955
 10
111.9115152715013
 20
-119.4569634032955
 10
111.9115152715013
 20
-119.2624877631531
 10
111.9115152715013
 20
-119.2624877631531
 10
111.9452772072567
 20
-119.2686889350266
 10
111.9824842384974
 20
-119.270928247092
 10
111.9883409008224
 20
-119.270928247092
 10
112.0462185049746
 20
-119.270928247092
 10
112.2215738651738
 20
-119.2497409098577
 10
112.2215738651738
 20
-119.0127183404725
 10
112.2215738651738
 20
-118.8351236682079
 10
112.1058186568694
 20
-118.7800021404439
 10
112.0086669641853
 20
-118.7800021404439
 10
111.7750894902854
 20
-118.7800021404439
 10
111.7678547897664
 20
-119.0127183404725
 10
111.7640651847326
 20
-119.0847208361142
 10
111.7640651847326
 20
-119.0847208361142
 10
111.5845757099511
 20
-119.0847208361142
 10
111.5845757099511
 20
-119.0847208361142
 10
111.5921549200186
 20
-118.9598361247739
 10
111.6166150979639
 20
-118.5832871882361
 10
112.0200357792867
 20
-118.5832871882361
 10
112.21778426014
 20
-118.5832871882361
 10
112.431035670677
 20
-118.7102389568676
 10
112.431035670677
 20
-119.0063449138248
 10
112.431035670677
 20
-119.1925523248026
 10
112.3469753408369
 20
-119.2750623616743
 10
112.259125405963
 20
-119.3363850613117
 10
112.3132134050814
 20
-119.3639458251937
 10
112.4737548546941
 20
-119.4443888047743
 10
112.4737548546941
 20
-119.7215467365627
 10
112.4737548546941
 20
-120.0600273679885
 10
112.2553358009292
 20
-120.2271144990231
 10
112.0107340214765
 20
-120.2271144990231
 97
        0
 97
        0
 75
     2
 76
     1
 98
        0
  0
SPLINE
  5
11C
330
116
100
AcDbEntity
  8
_U+30EC_U+30A4_U+30E4_U+30FC 1
370
     0
100
AcDbSpline
210
0.0
220
0.0
230
1.0
 70
    11
 71
     3
 72
    26
 73
    22
 74
     0
 42
0.0000000001
 43
0.0000000001
 12
1.0
 22
0.0
 32
0.0
 13
1.0
 23
0.0
 33
0.0
 40
0.0
 40
0.0
 40
0.0
 40
0.0
 40
1.0
 40
1.0
 40
1.0
 40
2.0
 40
2.0
 40
2.0
 40
3.0
 40
3.0
 40
3.0
 40
4.0
 40
4.0
 40
4.0
 40
5.0
 40
5.0
 40
5.0
 40
6.0
 40
6.0
 40
6.0
 40
7.0
 40
7.0
 40
7.0
 40
7.0
 10
113.0149793554268
 20
-120.1762993406157
 30
0.0
 10
113.0149793554268
 20
-120.1762993406157
 30
0.0
 10
113.0149793554268
 20
-119.0719739828188
 30
0.0
 10
113.0149793554268
 20
-119.0719739828188
 30
0.0
 10
113.0149793554268
 20
-119.0719739828188
 30
0.0
 10
112.7235242773747
 20
-119.0719739828188
 30
0.0
 10
112.7235242773747
 20
-119.0719739828188
 30
0.0
 10
112.7235242773747
 20
-119.0719739828188
 30
0.0
 10
112.7235242773747
 20
-118.9238348769531
 30
0.0
 10
112.7235242773747
 20
-118.9238348769531
 30
0.0
 10
113.0167019031694
 20
-118.9091932211408
 30
0.0
 10
113.0576985394439
 20
-118.7462402046884
 30
0.0
 10
113.0838812651318
 20
-118.6320352893524
 30
0.0
 10
113.0838812651318
 20
-118.6320352893524
 30
0.0
 10
113.2127278362802
 20
-118.6320352893524
 30
0.0
 10
113.2127278362802
 20
-118.6320352893524
 30
0.0
 10
113.2127278362802
 20
-118.6320352893524
 30
0.0
 10
113.2127278362802
 20
-120.1762993406157
 30
0.0
 10
113.2127278362802
 20
-120.1762993406157
 30
0.0
 10
113.2127278362802
 20
-120.1762993406157
 30
0.0
 10
113.0149793554268
 20
-120.1762993406157
 30
0.0
 10
113.0149793554268
 20
-120.1762993406157
 30
0.0
  0
HATCH
  5
11D
330
116
100
AcDbEntity
  8
_U+30EC_U+30A4_U+30E4_U+30FC 1
 62
   179
420
  2234388
100
AcDbHatch
 10
0.0
 20
0.0
 30
0.0
210
0.0
220
0.0
230
1.0
  2
SOLID
 70
     1
 71
     0
 91
        1
 92
        1
 93
        1
 72
     4
 94
        3
 73
     0
 74
     1
 95
       26
 96
       22
 40
0.0
 40
0.0
 40
0.0
 40
0.0
 40
1.0
 40
1.0
 40
1.0
 40
2.0
 40
2.0
 40
2.0
 40
3.0
 40
3.0
 40
3.0
 40
4.0
 40
4.0
 40
4.0
 40
5.0
 40
5.0
 40
5.0
 40
6.0
 40
6.0
 40
6.0
 40
7.0
 40
7.0
 40
7.0
 40
7.0
 10
113.0149793554268
 20
-120.1762993406157
 10
113.0149793554268
 20
-120.1762993406157
 10
113.0149793554268
 20
-119.0719739828188
 10
113.0149793554268
 20
-119.0719739828188
 10
113.0149793554268
 20
-119.0719739828188
 10
112.7235242773747
 20
-119.0719739828188
 10
112.7235242773747
 20
-119.0719739828188
 10
112.7235242773747
 20
-119.0719739828188
 10
112.7235242773747
 20
-118.9238348769531
 10
112.7235242773747
 20
-118.9238348769531
 10
113.0167019031694
 20
-118.9091932211408
 10
113.0576985394439
 20
-118.7462402046884
 10
113.0838812651318
 20
-118.6320352893524
 10
113.0838812651318
 20
-118.6320352893524
 10
113.2127278362802
 20
-118.6320352893524
 10
113.2127278362802
 20
-118.6320352893524
 10
113.2127278362802
 20
-118.6320352893524
 10
113.2127278362802
 20
-120.1762993406157
 10
113.2127278362802
 20
-120.1762993406157
 10
113.2127278362802
 20
-120.1762993406157
 10
113.0149793554268
 20
-120.1762993406157
 10
113.0149793554268
 20
-120.1762993406157
 97
        0
 97
        0
 75
     2
 76
     1
 98
        0
  0
POLYLINE
  5
11E
330
116
100
AcDbEntity
  8
_U+30EC_U+30A4_U+30E4_U+30FC 1
370
     0
100
AcDb2dPolyline
 66
     1
 10
0.0
 20
0.0
 30
0.0
  0
VERTEX
  5
11F
330
11E
100
AcDbEntity
  8
_U+30EC_U+30A4_U+30E4_U+30FC 1
370
     0
100
AcDbVertex
100
AcDb2dVertex
 10
113.7091660957047
 20
-120.1762993406157
 30
0.0
  0
VERTEX
  5
120
330
11E
100
AcDbEntity
  8
_U+30EC_U+30A4_U+30E4_U+30FC 1
370
     0
100
AcDbVertex
100
AcDb2dVertex
 10
113.7091660957047
 20
-119.9246351154182
 30
0.0
  0
VERTEX
  5
121
330
11E
100
AcDbEntity
  8
_U+30EC_U+30A4_U+30E4_U+30FC 1
370
     0
100
AcDbVertex
100
AcDb2dVertex
 10
113.9313747545033
 20
-119.9246351154182
 30
0.0
  0
VERTEX
  5
122
330
11E
100
AcDbEntity
  8
_U+30EC_U+30A4_U+30E4_U+30FC 1
370
     0
100
AcDbVertex
100
AcDb2dVertex
 10
113.9313747545033
 20
-120.1762993406157
 30
0.0
  0
VERTEX
  5
123
330
11E
100
AcDbEntity
  8
_U+30EC_U+30A4_U+30E4_U+30FC 1
370
     0
100
AcDbVertex
100
AcDb2dVertex
 10
113.7091660957047
 20
-120.1762993406157
 30
0.0
  0
SEQEND
  5
124
330
11E
100
AcDbEntity
  8
_U+30EC_U+30A4_U+30E4_U+30FC 1
370
     0
  0
HATCH
  5
125
330
116
100
AcDbEntity
  8
_U+30EC_U+30A4_U+30E4_U+30FC 1
 62
   179
420
  2234388
100
AcDbHatch
 10
0.0
 20
0.0
 30
0.0
210
0.0
220
0.0
230
1.0
  2
SOLID
 70
     1
 71
     0
 91
        1
 92
        1
 93
        4
 72
     1
 10
113.7091660957047
 20
-120.1762993406157
 11
113.7091660957047
 21
-119.9246351154182
 72
     1
 10
113.7091660957047
 20
-119.9246351154182
 11
113.9313747545033
 21
-119.9246351154182
 72
     1
 10
113.9313747545033
 20
-119.9246351154182
 11
113.9313747545033
 21
-120.1762993406157
 72
     1
 10
113.9313747545033
 20
-120.1762993406157
 11
113.7091660957047
 21
-120.1762993406157
 97
        0
 75
     2
 76
     1
 98
        0
  0
SPLINE
  5
126
330
116
100
AcDbEntity
  8
_U+30EC_U+30A4_U+30E4_U+30FC 1
370
     0
100
AcDbSpline
210
0.0
220
0.0
230
1.0
 70
    11
 71
     3
 72
    29
 73
    25
 74
     0
 42
0.0000000001
 43
0.0000000001
 12
1.0
 22
0.0
 32
0.0
 13
1.0
 23
0.0
 33
0.0
 40
0.0
 40
0.0
 40
0.0
 40
0.0
 40
1.0
 40
1.0
 40
1.0
 40
2.0
 40
2.0
 40
2.0
 40
3.0
 40
3.0
 40
3.0
 40
4.0
 40
4.0
 40
4.0
 40
5.0
 40
5.0
 40
5.0
 40
6.0
 40
6.0
 40
6.0
 40
7.0
 40
7.0
 40
7.0
 40
8.0
 40
8.0
 40
8.0
 40
8.0
 10
114.5818087821184
 20
-120.2271144990231
 30
0.0
 10
114.3465087604759
 20
-120.2271144990231
 30
0.0
 10
114.1222330443861
 20
-120.0894829343874
 30
0.0
 10
114.1222330443861
 20
-119.7404947617316
 30
0.0
 10
114.1222330443861
 20
-119.4845241671775
 30
0.0
 10
114.2476345200492
 20
-119.3892672770103
 30
0.0
 10
114.3409966076995
 20
-119.3279445773729
 30
0.0
 10
114.2307535521715
 20
-119.2686889350266
 30
0.0
 10
114.1635741902091
 20
-119.1544840196906
 30
0.0
 10
114.1635741902091
 20
-118.9937703153036
 30
0.0
 10
114.1635741902091
 20
-118.7186794408064
 30
0.0
 10
114.3389295504083
 20
-118.5832871882361
 30
0.0
 10
114.5818087821184
 20
-118.5832871882361
 30
0.0
 10
114.8322672238961
 20
-118.5832871882361
 30
0.0
 10
115.0003878835763
 20
-118.7271199247453
 30
0.0
 10
115.0003878835763
 20
-118.9937703153036
 30
0.0
 10
115.0003878835763
 20
-119.1544840196906
 30
0.0
 10
114.9311414643228
 20
-119.2686889350266
 30
0.0
 10
114.8208984087948
 20
-119.3279445773729
 30
0.0
 10
114.8994465858585
 20
-119.3787597357803
 30
0.0
 10
115.0396619721081
 20
-119.4740166259475
 30
0.0
 10
115.0396619721081
 20
-119.736188392375
 30
0.0
 10
115.0396619721081
 20
-120.1106702716216
 30
0.0
 10
114.7929931353643
 20
-120.2271144990231
 30
0.0
 10
114.5818087821184
 20
-120.2271144990231
 30
0.0
  0
SPLINE
  5
127
330
116
100
AcDbEntity
  8
_U+30EC_U+30A4_U+30E4_U+30FC 1
370
     0
100
AcDbSpline
210
0.0
220
0.0
230
1.0
 70
    11
 71
     3
 72
    17
 73
    13
 74
     0
 42
0.0000000001
 43
0.0000000001
 12
1.0
 22
0.0
 32
0.0
 13
1.0
 23
0.0
 33
0.0
 40
0.0
 40
0.0
 40
0.0
 40
0.0
 40
1.0
 40
1.0
 40
1.0
 40
2.0
 40
2.0
 40
2.0
 40
3.0
 40
3.0
 40
3.0
 40
4.0
 40
4.0
 40
4.0
 40
4.0
 10
114.5818087821184
 20
-119.4359483208355
 30
0.0
 10
114.4550292682612
 20
-119.4359483208355
 30
0.0
 10
114.320326034788
 20
-119.5225924722895
 30
0.0
 10
114.320326034788
 20
-119.725680851145
 30
0.0
 10
114.320326034788
 20
-119.9308362872916
 30
0.0
 10
114.4326361476071
 20
-120.0324666041065
 30
0.0
 10
114.5818087821184
 20
-120.0324666041065
 30
0.0
 10
114.7461398367649
 20
-120.0324666041065
 30
0.0
 10
114.8432915294489
 20
-119.9098212048316
 30
0.0
 10
114.8432915294489
 20
-119.7320542777927
 30
0.0
 10
114.8432915294489
 20
-119.5098456189941
 30
0.0
 10
114.699631047714
 20
-119.4359483208355
 30
0.0
 10
114.5818087821184
 20
-119.4359483208355
 30
0.0
  0
SPLINE
  5
128
330
116
100
AcDbEntity
  8
_U+30EC_U+30A4_U+30E4_U+30FC 1
370
     0
100
AcDbSpline
210
0.0
220
0.0
230
1.0
 70
    11
 71
     3
 72
    17
 73
    13
 74
     0
 42
0.0000000001
 43
0.0000000001
 12
1.0
 22
0.0
 32
0.0
 13
1.0
 23
0.0
 33
0.0
 40
0.0
 40
0.0
 40
0.0
 40
0.0
 40
1.0
 40
1.0
 40
1.0
 40
2.0
 40
2.0
 40
2.0
 40
3.0
 40
3.0
 40
3.0
 40
4.0
 40
4.0
 40
4.0
 40
4.0
 10
114.5818087821184
 20
-118.7758680258616
 30
0.0
 10
114.4360812430924
 20
-118.7758680258616
 30
0.0
 10
114.3613226710625
 20
-118.8709526612545
 30
0.0
 10
114.3613226710625
 20
-119.0063449138248
 30
0.0
 10
114.3613226710625
 20
-119.129162567874
 30
0.0
 10
114.4250569375396
 20
-119.2476738525666
 30
0.0
 10
114.5818087821184
 20
-119.2476738525666
 30
0.0
 10
114.7389051362458
 20
-119.2476738525666
 30
0.0
 10
114.8022948931744
 20
-119.129162567874
 30
0.0
 10
114.8022948931744
 20
-119.0063449138248
 30
0.0
 10
114.8022948931744
 20
-118.8709526612545
 30
0.0
 10
114.7258137734019
 20
-118.7758680258616
 30
0.0
 10
114.5818087821184
 20
-118.7758680258616
 30
0.0
  0
HATCH
  5
129
330
116
100
AcDbEntity
  8
_U+30EC_U+30A4_U+30E4_U+30FC 1
 62
   179
420
  2234388
100
AcDbHatch
 10
0.0
 20
0.0
 30
0.0
210
0.0
220
0.0
230
1.0
  2
SOLID
 70
     1
 71
     0
 91
        3
 92
        1
 93
        1
 72
     4
 94
        3
 73
     0
 74
     1
 95
       29
 96
       25
 40
0.0
 40
0.0
 40
0.0
 40
0.0
 40
1.0
 40
1.0
 40
1.0
 40
2.0
 40
2.0
 40
2.0
 40
3.0
 40
3.0
 40
3.0
 40
4.0
 40
4.0
 40
4.0
 40
5.0
 40
5.0
 40
5.0
 40
6.0
 40
6.0
 40
6.0
 40
7.0
 40
7.0
 40
7.0
 40
8.0
 40
8.0
 40
8.0
 40
8.0
 10
114.5818087821184
 20
-120.2271144990231
 10
114.3465087604759
 20
-120.2271144990231
 10
114.1222330443861
 20
-120.0894829343874
 10
114.1222330443861
 20
-119.7404947617316
 10
114.1222330443861
 20
-119.4845241671775
 10
114.2476345200492
 20
-119.3892672770103
 10
114.3409966076995
 20
-119.3279445773729
 10
114.2307535521715
 20
-119.2686889350266
 10
114.1635741902091
 20
-119.1544840196906
 10
114.1635741902091
 20
-118.9937703153036
 10
114.1635741902091
 20
-118.7186794408064
 10
114.3389295504083
 20
-118.5832871882361
 10
114.5818087821184
 20
-118.5832871882361
 10
114.8322672238961
 20
-118.5832871882361
 10
115.0003878835763
 20
-118.7271199247453
 10
115.0003878835763
 20
-118.9937703153036
 10
115.0003878835763
 20
-119.1544840196906
 10
114.9311414643228
 20
-119.2686889350266
 10
114.8208984087948
 20
-119.3279445773729
 10
114.8994465858585
 20
-119.3787597357803
 10
115.0396619721081
 20
-119.4740166259475
 10
115.0396619721081
 20
-119.736188392375
 10
115.0396619721081
 20
-120.1106702716216
 10
114.7929931353643
 20
-120.2271144990231
 10
114.5818087821184
 20
-120.2271144990231
 97
        0
 97
        0
 92
        1
 93
        1
 72
     4
 94
        3
 73
     0
 74
     1
 95
       17
 96
       13
 40
0.0
 40
0.0
 40
0.0
 40
0.0
 40
1.0
 40
1.0
 40
1.0
 40
2.0
 40
2.0
 40
2.0
 40
3.0
 40
3.0
 40
3.0
 40
4.0
 40
4.0
 40
4.0
 40
4.0
 10
114.5818087821184
 20
-119.4359483208355
 10
114.4550292682612
 20
-119.4359483208355
 10
114.320326034788
 20
-119.5225924722895
 10
114.320326034788
 20
-119.725680851145
 10
114.320326034788
 20
-119.9308362872916
 10
114.4326361476071
 20
-120.0324666041065
 10
114.5818087821184
 20
-120.0324666041065
 10
114.7461398367649
 20
-120.0324666041065
 10
114.8432915294489
 20
-119.9098212048316
 10
114.8432915294489
 20
-119.7320542777927
 10
114.8432915294489
 20
-119.5098456189941
 10
114.699631047714
 20
-119.4359483208355
 10
114.5818087821184
 20
-119.4359483208355
 97
        0
 97
        0
 92
        1
 93
        1
 72
     4
 94
        3
 73
     0
 74
     1
 95
       17
 96
       13
 40
0.0
 40
0.0
 40
0.0
 40
0.0
 40
1.0
 40
1.0
 40
1.0
 40
2.0
 40
2.0
 40
2.0
 40
3.0
 40
3.0
 40
3.0
 40
4.0
 40
4.0
 40
4.0
 40
4.0
 10
114.5818087821184
 20
-118.7758680258616
 10
114.4360812430924
 20
-118.7758680258616
 10
114.3613226710625
 20
-118.8709526612545
 10
114.3613226710625
 20
-119.0063449138248
 10
114.3613226710625
 20
-119.129162567874
 10
114.4250569375396
 20
-119.2476738525666
 10
114.5818087821184
 20
-119.2476738525666
 10
114.7389051362458
 20
-119.2476738525666
 10
114.8022948931744
 20
-119.129162567874
 10
114.8022948931744
 20
-119.0063449138248
 10
114.8022948931744
 20
-118.8709526612545
 10
114.7258137734019
 20
-118.7758680258616
 10
114.5818087821184
 20
-118.7758680258616
 97
        0
 97
        0
 75
     2
 76
     1
 98
        0
  0
ENDBLK
  5
119
330
116
100
AcDbEntity
  8
0
100
AcDbBlockEnd
  0
BLOCK
  5
12C
330
12A
100
AcDbEntity
  8
0
100
AcDbBlockBegin
  2
block 5
 70
     0
 10
0.0
 20
0.0
 30
0.0
  3
block 5
  1

  0
SPLINE
  5
12E
330
12A
100
AcDbEntity
  8
_U+30EC_U+30A4_U+30E4_U+30FC 1
370
     0
100
AcDbSpline
210
0.0
220
0.0
230
1.0
 70
    11
 71
     3
 72
    26
 73
    22
 74
     0
 42
0.0000000001
 43
0.0000000001
 12
1.0
 22
0.0
 32
0.0
 13
1.0
 23
0.0
 33
0.0
 40
0.0
 40
0.0
 40
0.0
 40
0.0
 40
1.0
 40
1.0
 40
1.0
 40
2.0
 40
2.0
 40
2.0
 40
3.0
 40
3.0
 40
3.0
 40
4.0
 40
4.0
 40
4.0
 40
5.0
 40
5.0
 40
5.0
 40
6.0
 40
6.0
 40
6.0
 40
7.0
 40
7.0
 40
7.0
 40
7.0
 10
83.74803193435814
 20
-178.1762043825393
 30
0.0
 10
83.74803193435814
 20
-178.1762043825393
 30
0.0
 10
83.5111816197472
 20
-178.1762043825393
 30
0.0
 10
83.5111816197472
 20
-178.1762043825393
 30
0.0
 10
83.5365030715638
 20
-177.8671793175124
 30
0.0
 10
83.72908390918926
 20
-177.3490369565308
 30
0.0
 10
84.13526066690022
 20
-176.8432969392961
 30
0.0
 10
84.13526066690022
 20
-176.8432969392961
 30
0.0
 10
83.29741344488745
 20
-176.8432969392961
 30
0.0
 10
83.29741344488745
 20
-176.8432969392961
 30
0.0
 10
83.29741344488745
 20
-176.8432969392961
 30
0.0
 10
83.29741344488745
 20
-176.6317680765018
 30
0.0
 10
83.29741344488745
 20
-176.6317680765018
 30
0.0
 10
83.29741344488745
 20
-176.6317680765018
 30
0.0
 10
84.37211098151114
 20
-176.6317680765018
 30
0.0
 10
84.37211098151114
 20
-176.6317680765018
 30
0.0
 10
84.37211098151114
 20
-176.6317680765018
 30
0.0
 10
84.37211098151114
 20
-176.8432969392961
 30
0.0
 10
84.37211098151114
 20
-176.8432969392961
 30
0.0
 10
84.04844426067191
 20
-177.1333739791542
 30
0.0
 10
83.78196612488784
 20
-177.7255858930686
 30
0.0
 10
83.74803193435814
 20
-178.1762043825393
 30
0.0
  0
HATCH
  5
12F
330
12A
100
AcDbEntity
  8
_U+30EC_U+30A4_U+30E4_U+30FC 1
 62
   179
420
  2234388
100
AcDbHatch
 10
0.0
 20
0.0
 30
0.0
210
0.0
220
0.0
230
1.0
  2
SOLID
 70
     1
 71
     0
 91
        1
 92
        1
 93
        1
 72
     4
 94
        3
 73
     0
 74
     1
 95
       26
 96
       22
 40
0.0
 40
0.0
 40
0.0
 40
0.0
 40
1.0
 40
1.0
 40
1.0
 40
2.0
 40
2.0
 40
2.0
 40
3.0
 40
3.0
 40
3.0
 40
4.0
 40
4.0
 40
4.0
 40
5.0
 40
5.0
 40
5.0
 40
6.0
 40
6.0
 40
6.0
 40
7.0
 40
7.0
 40
7.0
 40
7.0
 10
83.74803193435814
 20
-178.1762043825393
 10
83.74803193435814
 20
-178.1762043825393
 10
83.5111816197472
 20
-178.1762043825393
 10
83.5111816197472
 20
-178.1762043825393
 10
83.5365030715638
 20
-177.8671793175124
 10
83.72908390918926
 20
-177.3490369565308
 10
84.13526066690022
 20
-176.8432969392961
 10
84.13526066690022
 20
-176.8432969392961
 10
83.29741344488745
 20
-176.8432969392961
 10
83.29741344488745
 20
-176.8432969392961
 10
83.29741344488745
 20
-176.8432969392961
 10
83.29741344488745
 20
-176.6317680765018
 10
83.29741344488745
 20
-176.6317680765018
 10
83.29741344488745
 20
-176.6317680765018
 10
84.37211098151114
 20
-176.6317680765018
 10
84.37211098151114
 20
-176.6317680765018
 10
84.37211098151114
 20
-176.6317680765018
 10
84.37211098151114
 20
-176.8432969392961
 10
84.37211098151114
 20
-176.8432969392961
 10
84.04844426067191
 20
-177.1333739791542
 10
83.78196612488784
 20
-177.7255858930686
 10
83.74803193435814
 20
-178.1762043825393
 97
        0
 97
        0
 75
     2
 76
     1
 98
        0
  0
POLYLINE
  5
130
330
12A
100
AcDbEntity
  8
_U+30EC_U+30A4_U+30E4_U+30FC 1
370
     0
100
AcDb2dPolyline
 66
     1
 10
0.0
 20
0.0
 30
0.0
  0
VERTEX
  5
131
330
130
100
AcDbEntity
  8
_U+30EC_U+30A4_U+30E4_U+30FC 1
370
     0
100
AcDbVertex
100
AcDb2dVertex
 10
84.57382132217252
 20
-178.1762043825393
 30
0.0
  0
VERTEX
  5
132
330
130
100
AcDbEntity
  8
_U+30EC_U+30A4_U+30E4_U+30FC 1
370
     0
100
AcDbVertex
100
AcDb2dVertex
 10
84.57382132217252
 20
-177.9243679025675
 30
0.0
  0
VERTEX
  5
133
330
130
100
AcDbEntity
  8
_U+30EC_U+30A4_U+30E4_U+30FC 1
370
     0
100
AcDbVertex
100
AcDb2dVertex
 10
84.82548554737002
 20
-177.9243679025675
 30
0.0
  0
VERTEX
  5
134
330
130
100
AcDbEntity
  8
_U+30EC_U+30A4_U+30E4_U+30FC 1
370
     0
100
AcDbVertex
100
AcDb2dVertex
 10
84.82548554737002
 20
-178.1762043825393
 30
0.0
  0
VERTEX
  5
135
330
130
100
AcDbEntity
  8
_U+30EC_U+30A4_U+30E4_U+30FC 1
370
     0
100
AcDbVertex
100
AcDb2dVertex
 10
84.57382132217252
 20
-178.1762043825393
 30
0.0
  0
SEQEND
  5
136
330
130
100
AcDbEntity
  8
_U+30EC_U+30A4_U+30E4_U+30FC 1
370
     0
  0
HATCH
  5
137
330
12A
100
AcDbEntity
  8
_U+30EC_U+30A4_U+30E4_U+30FC 1
 62
   179
420
  2234388
100
AcDbHatch
 10
0.0
 20
0.0
 30
0.0
210
0.0
220
0.0
230
1.0
  2
SOLID
 70
     1
 71
     0
 91
        1
 92
        1
 93
        4
 72
     1
 10
84.57382132217252
 20
-178.1762043825393
 11
84.57382132217252
 21
-177.9243679025675
 72
     1
 10
84.57382132217252
 20
-177.9243679025675
 11
84.82548554737002
 21
-177.9243679025675
 72
     1
 10
84.82548554737002
 20
-177.9243679025675
 11
84.82548554737002
 21
-178.1762043825393
 72
     1
 10
84.82548554737002
 20
-178.1762043825393
 11
84.57382132217252
 21
-178.1762043825393
 97
        0
 75
     2
 76
     1
 98
        0
  0
SPLINE
  5
138
330
12A
100
AcDbEntity
  8
_U+30EC_U+30A4_U+30E4_U+30FC 1
370
     0
100
AcDbSpline
210
0.0
220
0.0
230
1.0
 70
    11
 71
     3
 72
    53
 73
    49
 74
     0
 42
0.0000000001
 43
0.0000000001
 12
1.0
 22
0.0
 32
0.0
 13
1.0
 23
0.0
 33
0.0
 40
0.0
 40
0.0
 40
0.0
 40
0.0
 40
1.0
 40
1.0
 40
1.0
 40
2.0
 40
2.0
 40
2.0
 40
3.0
 40
3.0
 40
3.0
 40
4.0
 40
4.0
 40
4.0
 40
5.0
 40
5.0
 40
5.0
 40
6.0
 40
6.0
 40
6.0
 40
7.0
 40
7.0
 40
7.0
 40
8.0
 40
8.0
 40
8.0
 40
9.0
 40
9.0
 40
9.0
 40
10.0
 40
10.0
 40
10.0
 40
11.0
 40
11.0
 40
11.0
 40
12.0
 40
12.0
 40
12.0
 40
13.0
 40
13.0
 40
13.0
 40
14.0
 40
14.0
 40
14.0
 40
15.0
 40
15.0
 40
15.0
 40
16.0
 40
16.0
 40
16.0
 40
16.0
 10
85.54309893694756
 20
-178.2268472861725
 30
0.0
 10
85.46472301465813
 20
-178.2268472861725
 30
0.0
 10
85.36326495261753
 20
-178.2099663182947
 30
0.0
 10
85.26163463580265
 20
-178.1465765613661
 30
0.0
 10
85.08817407812032
 20
-178.0366780153867
 30
0.0
 10
85.06698674088604
 20
-177.9054198773987
 30
0.0
 10
85.04803871571715
 20
-177.7975883887103
 30
0.0
 10
85.04803871571715
 20
-177.7975883887103
 30
0.0
 10
85.2700751197415
 20
-177.7975883887103
 30
0.0
 10
85.2700751197415
 20
-177.7975883887103
 30
0.0
 10
85.3251966475055
 20
-177.9963703982093
 30
0.0
 10
85.45214841613696
 20
-178.0259982193824
 30
0.0
 10
85.54516599423872
 20
-178.0259982193824
 30
0.0
 10
85.68469236139133
 20
-178.0259982193824
 30
0.0
 10
85.83713783661364
 20
-177.9264349598587
 30
0.0
 10
85.83713783661364
 20
-177.6938910146043
 30
0.0
 10
85.83713783661364
 20
-177.4379204200503
 30
0.0
 10
85.65730385228359
 20
-177.3679849816997
 30
0.0
 10
85.53672551029985
 20
-177.3679849816997
 30
0.0
 10
85.50503063183555
 20
-177.3679849816997
 30
0.0
 10
85.36326495261753
 20
-177.3679849816997
 30
0.0
 10
85.27438148909808
 20
-177.4971760623965
 30
0.0
 10
85.27438148909808
 20
-177.4971760623965
 30
0.0
 10
85.0988538741246
 20
-177.4782280372277
 30
0.0
 10
85.0988538741246
 20
-177.4782280372277
 30
0.0
 10
85.0988538741246
 20
-177.4782280372277
 30
0.0
 10
85.21943221610834
 20
-176.6317680765018
 30
0.0
 10
85.21943221610834
 20
-176.6317680765018
 30
0.0
 10
85.21943221610834
 20
-176.6317680765018
 30
0.0
 10
85.99785154100054
 20
-176.6317680765018
 30
0.0
 10
85.99785154100054
 20
-176.6317680765018
 30
0.0
 10
85.99785154100054
 20
-176.6317680765018
 30
0.0
 10
85.99785154100054
 20
-176.8264159714184
 30
0.0
 10
85.99785154100054
 20
-176.8264159714184
 30
0.0
 10
85.99785154100054
 20
-176.8264159714184
 30
0.0
 10
85.3822129777864
 20
-176.8264159714184
 30
0.0
 10
85.3822129777864
 20
-176.8264159714184
 30
0.0
 10
85.3822129777864
 20
-176.8264159714184
 30
0.0
 10
85.31675616356665
 20
-177.2494736970071
 30
0.0
 10
85.31675616356665
 20
-177.2494736970071
 30
0.0
 10
85.3780788632041
 20
-177.2157117612516
 30
0.0
 10
85.46058890007583
 20
-177.1754041440742
 30
0.0
 10
85.57892792999417
 20
-177.1754041440742
 30
0.0
 10
85.83283146725708
 20
-177.1754041440742
 30
0.0
 10
86.06985403664227
 20
-177.3617838098262
 30
0.0
 10
86.06985403664227
 20
-177.6749429894354
 30
0.0
 10
86.06985403664227
 20
-177.9922362836269
 30
0.0
 10
85.8455783205525
 20
-178.2268472861725
 30
0.0
 10
85.54309893694756
 20
-178.2268472861725
 30
0.0
  0
HATCH
  5
139
330
12A
100
AcDbEntity
  8
_U+30EC_U+30A4_U+30E4_U+30FC 1
 62
   179
420
  2234388
100
AcDbHatch
 10
0.0
 20
0.0
 30
0.0
210
0.0
220
0.0
230
1.0
  2
SOLID
 70
     1
 71
     0
 91
        1
 92
        1
 93
        1
 72
     4
 94
        3
 73
     0
 74
     1
 95
       53
 96
       49
 40
0.0
 40
0.0
 40
0.0
 40
0.0
 40
1.0
 40
1.0
 40
1.0
 40
2.0
 40
2.0
 40
2.0
 40
3.0
 40
3.0
 40
3.0
 40
4.0
 40
4.0
 40
4.0
 40
5.0
 40
5.0
 40
5.0
 40
6.0
 40
6.0
 40
6.0
 40
7.0
 40
7.0
 40
7.0
 40
8.0
 40
8.0
 40
8.0
 40
9.0
 40
9.0
 40
9.0
 40
10.0
 40
10.0
 40
10.0
 40
11.0
 40
11.0
 40
11.0
 40
12.0
 40
12.0
 40
12.0
 40
13.0
 40
13.0
 40
13.0
 40
14.0
 40
14.0
 40
14.0
 40
15.0
 40
15.0
 40
15.0
 40
16.0
 40
16.0
 40
16.0
 40
16.0
 10
85.54309893694756
 20
-178.2268472861725
 10
85.46472301465813
 20
-178.2268472861725
 10
85.36326495261753
 20
-178.2099663182947
 10
85.26163463580265
 20
-178.1465765613661
 10
85.08817407812032
 20
-178.0366780153867
 10
85.06698674088604
 20
-177.9054198773987
 10
85.04803871571715
 20
-177.7975883887103
 10
85.04803871571715
 20
-177.7975883887103
 10
85.2700751197415
 20
-177.7975883887103
 10
85.2700751197415
 20
-177.7975883887103
 10
85.3251966475055
 20
-177.9963703982093
 10
85.45214841613696
 20
-178.0259982193824
 10
85.54516599423872
 20
-178.0259982193824
 10
85.68469236139133
 20
-178.0259982193824
 10
85.83713783661364
 20
-177.9264349598587
 10
85.83713783661364
 20
-177.6938910146043
 10
85.83713783661364
 20
-177.4379204200503
 10
85.65730385228359
 20
-177.3679849816997
 10
85.53672551029985
 20
-177.3679849816997
 10
85.50503063183555
 20
-177.3679849816997
 10
85.36326495261753
 20
-177.3679849816997
 10
85.27438148909808
 20
-177.4971760623965
 10
85.27438148909808
 20
-177.4971760623965
 10
85.0988538741246
 20
-177.4782280372277
 10
85.0988538741246
 20
-177.4782280372277
 10
85.0988538741246
 20
-177.4782280372277
 10
85.21943221610834
 20
-176.6317680765018
 10
85.21943221610834
 20
-176.6317680765018
 10
85.21943221610834
 20
-176.6317680765018
 10
85.99785154100054
 20
-176.6317680765018
 10
85.99785154100054
 20
-176.6317680765018
 10
85.99785154100054
 20
-176.6317680765018
 10
85.99785154100054
 20
-176.8264159714184
 10
85.99785154100054
 20
-176.8264159714184
 10
85.99785154100054
 20
-176.8264159714184
 10
85.3822129777864
 20
-176.8264159714184
 10
85.3822129777864
 20
-176.8264159714184
 10
85.3822129777864
 20
-176.8264159714184
 10
85.31675616356665
 20
-177.2494736970071
 10
85.31675616356665
 20
-177.2494736970071
 10
85.3780788632041
 20
-177.2157117612516
 10
85.46058890007583
 20
-177.1754041440742
 10
85.57892792999417
 20
-177.1754041440742
 10
85.83283146725708
 20
-177.1754041440742
 10
86.06985403664227
 20
-177.3617838098262
 10
86.06985403664227
 20
-177.6749429894354
 10
86.06985403664227
 20
-177.9922362836269
 10
85.8455783205525
 20
-178.2268472861725
 10
85.54309893694756
 20
-178.2268472861725
 97
        0
 97
        0
 75
     2
 76
     1
 98
        0
  0
ENDBLK
  5
12D
330
12A
100
AcDbEntity
  8
0
100
AcDbBlockEnd
  0
BLOCK
  5
13C
330
13A
100
AcDbEntity
  8
0
100
AcDbBlockBegin
  2
block 6
 70
     0
 10
0.0
 20
0.0
 30
0.0
  3
block 6
  1

  0
SPLINE
  5
13E
330
13A
100
AcDbEntity
  8
_U+30EC_U+30A4_U+30E4_U+30FC 1
370
     0
100
AcDbSpline
210
0.0
220
0.0
230
1.0
 70
    11
 71
     3
 72
    62
 73
    58
 74
     0
 42
0.0000000001
 43
0.0000000001
 12
1.0
 22
0.0
 32
0.0
 13
1.0
 23
0.0
 33
0.0
 40
0.0
 40
0.0
 40
0.0
 40
0.0
 40
1.0
 40
1.0
 40
1.0
 40
2.0
 40
2.0
 40
2.0
 40
3.0
 40
3.0
 40
3.0
 40
4.0
 40
4.0
 40
4.0
 40
5.0
 40
5.0
 40
5.0
 40
6.0
 40
6.0
 40
6.0
 40
7.0
 40
7.0
 40
7.0
 40
8.0
 40
8.0
 40
8.0
 40
9.0
 40
9.0
 40
9.0
 40
10.0
 40
10.0
 40
10.0
 40
11.0
 40
11.0
 40
11.0
 40
12.0
 40
12.0
 40
12.0
 40
13.0
 40
13.0
 40
13.0
 40
14.0
 40
14.0
 40
14.0
 40
15.0
 40
15.0
 40
15.0
 40
16.0
 40
16.0
 40
16.0
 40
17.0
 40
17.0
 40
17.0
 40
18.0
 40
18.0
 40
18.0
 40
19.0
 40
19.0
 40
19.0
 40
19.0
 10
76.37001544314708
 20
-160.0005696214582
 30
0.0
 10
76.37001544314708
 20
-160.0846299512983
 30
0.0
 10
76.34900036068706
 20
-160.2768662793752
 30
0.0
 10
76.16296520448357
 20
-160.3871093349032
 30
0.0
 10
76.05065509166442
 20
-160.452566149123
 30
0.0
 10
75.95143634168923
 20
-160.4563557541568
 30
0.0
 10
75.86668699275208
 20
-160.4601453591905
 30
0.0
 10
75.86668699275208
 20
-160.4601453591905
 30
0.0
 10
75.86668699275208
 20
-160.2658419738224
 30
0.0
 10
75.86668699275208
 20
-160.2658419738224
 30
0.0
 10
75.94075654568495
 20
-160.2637749165313
 30
0.0
 10
76.17536754823047
 20
-160.2548176682696
 30
0.0
 10
76.17536754823047
 20
-160.004359226492
 30
0.0
 10
76.17536754823047
 20
-159.8827473558626
 30
0.0
 10
76.10577661942843
 20
-159.7483886319379
 30
0.0
 10
75.87736678875636
 20
-159.7483886319379
 30
0.0
 10
75.76092256135492
 20
-159.7483886319379
 30
0.0
 10
75.71234671501288
 20
-159.7821505676933
 30
0.0
 10
75.68065183654859
 20
-159.8100558411239
 30
0.0
 10
75.60658228361572
 20
-159.8751681457951
 30
0.0
 10
75.5938354303203
 20
-159.9781765008041
 30
0.0
 10
75.5938354303203
 20
-160.0267523471461
 30
0.0
 10
75.5938354303203
 20
-160.0432888054753
 30
0.0
 10
75.59590248761144
 20
-160.0753281934881
 30
0.0
 10
75.60003660219374
 20
-160.0997883714334
 30
0.0
 10
75.60003660219374
 20
-160.0997883714334
 30
0.0
 10
75.40538870727713
 20
-160.0997883714334
 30
0.0
 10
75.40538870727713
 20
-160.0997883714334
 30
0.0
 10
75.41193438869911
 20
-160.0660264356779
 30
0.0
 10
75.41400144599025
 20
-160.0284748948887
 30
0.0
 10
75.41400144599025
 20
-160.0229627421123
 30
0.0
 10
75.41400144599025
 20
-159.9650851379601
 30
0.0
 10
75.3926418539817
 20
-159.7893852682124
 30
0.0
 10
75.15596379414504
 20
-159.7893852682124
 30
0.0
 10
74.97819686710615
 20
-159.7893852682124
 30
0.0
 10
74.92307533934215
 20
-159.9054849860653
 30
0.0
 10
74.92307533934215
 20
-160.0026366787494
 30
0.0
 10
74.92307533934215
 20
-160.2358696431008
 30
0.0
 10
75.15596379414504
 20
-160.2434488531683
 30
0.0
 10
75.22762178023824
 20
-160.2472384582021
 30
0.0
 10
75.22762178023824
 20
-160.2472384582021
 30
0.0
 10
75.22762178023824
 20
-160.4263834234351
 30
0.0
 10
75.22762178023824
 20
-160.4263834234351
 30
0.0
 10
75.1029093236722
 20
-160.4188042133675
 30
0.0
 10
74.72636038713439
 20
-160.3946885449708
 30
0.0
 10
74.72636038713439
 20
-159.991267863648
 30
0.0
 10
74.72636038713439
 20
-159.7931748732462
 30
0.0
 10
74.8534844105401
 20
-159.5802679722577
 30
0.0
 10
75.14941811272307
 20
-159.5802679722577
 30
0.0
 10
75.33579777847508
 20
-159.5802679722577
 30
0.0
 10
75.41813556057255
 20
-159.6643283020978
 30
0.0
 10
75.47945826021
 20
-159.7521782369717
 30
0.0
 10
75.507019024092
 20
-159.6980902378533
 30
0.0
 10
75.58728974889831
 20
-159.5375487882406
 30
0.0
 10
75.86461993546094
 20
-159.5375487882406
 30
0.0
 10
76.20292831211246
 20
-159.5375487882406
 30
0.0
 10
76.37001544314708
 20
-159.7559678420054
 30
0.0
 10
76.37001544314708
 20
-160.0005696214582
 30
0.0
  0
HATCH
  5
13F
330
13A
100
AcDbEntity
  8
_U+30EC_U+30A4_U+30E4_U+30FC 1
 62
   179
420
  2234388
100
AcDbHatch
 10
0.0
 20
0.0
 30
0.0
210
0.0
220
0.0
230
1.0
  2
SOLID
 70
     1
 71
     0
 91
        1
 92
        1
 93
        1
 72
     4
 94
        3
 73
     0
 74
     1
 95
       62
 96
       58
 40
0.0
 40
0.0
 40
0.0
 40
0.0
 40
1.0
 40
1.0
 40
1.0
 40
2.0
 40
2.0
 40
2.0
 40
3.0
 40
3.0
 40
3.0
 40
4.0
 40
4.0
 40
4.0
 40
5.0
 40
5.0
 40
5.0
 40
6.0
 40
6.0
 40
6.0
 40
7.0
 40
7.0
 40
7.0
 40
8.0
 40
8.0
 40
8.0
 40
9.0
 40
9.0
 40
9.0
 40
10.0
 40
10.0
 40
10.0
 40
11.0
 40
11.0
 40
11.0
 40
12.0
 40
12.0
 40
12.0
 40
13.0
 40
13.0
 40
13.0
 40
14.0
 40
14.0
 40
14.0
 40
15.0
 40
15.0
 40
15.0
 40
16.0
 40
16.0
 40
16.0
 40
17.0
 40
17.0
 40
17.0
 40
18.0
 40
18.0
 40
18.0
 40
19.0
 40
19.0
 40
19.0
 40
19.0
 10
76.37001544314708
 20
-160.0005696214582
 10
76.37001544314708
 20
-160.0846299512983
 10
76.34900036068706
 20
-160.2768662793752
 10
76.16296520448357
 20
-160.3871093349032
 10
76.05065509166442
 20
-160.452566149123
 10
75.95143634168923
 20
-160.4563557541568
 10
75.86668699275208
 20
-160.4601453591905
 10
75.86668699275208
 20
-160.4601453591905
 10
75.86668699275208
 20
-160.2658419738224
 10
75.86668699275208
 20
-160.2658419738224
 10
75.94075654568495
 20
-160.2637749165313
 10
76.17536754823047
 20
-160.2548176682696
 10
76.17536754823047
 20
-160.004359226492
 10
76.17536754823047
 20
-159.8827473558626
 10
76.10577661942843
 20
-159.7483886319379
 10
75.87736678875636
 20
-159.7483886319379
 10
75.76092256135492
 20
-159.7483886319379
 10
75.71234671501288
 20
-159.7821505676933
 10
75.68065183654859
 20
-159.8100558411239
 10
75.60658228361572
 20
-159.8751681457951
 10
75.5938354303203
 20
-159.9781765008041
 10
75.5938354303203
 20
-160.0267523471461
 10
75.5938354303203
 20
-160.0432888054753
 10
75.59590248761144
 20
-160.0753281934881
 10
75.60003660219374
 20
-160.0997883714334
 10
75.60003660219374
 20
-160.0997883714334
 10
75.40538870727713
 20
-160.0997883714334
 10
75.40538870727713
 20
-160.0997883714334
 10
75.41193438869911
 20
-160.0660264356779
 10
75.41400144599025
 20
-160.0284748948887
 10
75.41400144599025
 20
-160.0229627421123
 10
75.41400144599025
 20
-159.9650851379601
 10
75.3926418539817
 20
-159.7893852682124
 10
75.15596379414504
 20
-159.7893852682124
 10
74.97819686710615
 20
-159.7893852682124
 10
74.92307533934215
 20
-159.9054849860653
 10
74.92307533934215
 20
-160.0026366787494
 10
74.92307533934215
 20
-160.2358696431008
 10
75.15596379414504
 20
-160.2434488531683
 10
75.22762178023824
 20
-160.2472384582021
 10
75.22762178023824
 20
-160.2472384582021
 10
75.22762178023824
 20
-160.4263834234351
 10
75.22762178023824
 20
-160.4263834234351
 10
75.1029093236722
 20
-160.4188042133675
 10
74.72636038713439
 20
-160.3946885449708
 10
74.72636038713439
 20
-159.991267863648
 10
74.72636038713439
 20
-159.7931748732462
 10
74.8534844105401
 20
-159.5802679722577
 10
75.14941811272307
 20
-159.5802679722577
 10
75.33579777847508
 20
-159.5802679722577
 10
75.41813556057255
 20
-159.6643283020978
 10
75.47945826021
 20
-159.7521782369717
 10
75.507019024092
 20
-159.6980902378533
 10
75.58728974889831
 20
-159.5375487882406
 10
75.86461993546094
 20
-159.5375487882406
 10
76.20292831211246
 20
-159.5375487882406
 10
76.37001544314708
 20
-159.7559678420054
 10
76.37001544314708
 20
-160.0005696214582
 97
        0
 97
        0
 75
     2
 76
     1
 98
        0
  0
SPLINE
  5
140
330
13A
100
AcDbEntity
  8
_U+30EC_U+30A4_U+30E4_U+30FC 1
370
     0
100
AcDbSpline
210
0.0
220
0.0
230
1.0
 70
    11
 71
     3
 72
    29
 73
    25
 74
     0
 42
0.0000000001
 43
0.0000000001
 12
1.0
 22
0.0
 32
0.0
 13
1.0
 23
0.0
 33
0.0
 40
0.0
 40
0.0
 40
0.0
 40
0.0
 40
1.0
 40
1.0
 40
1.0
 40
2.0
 40
2.0
 40
2.0
 40
3.0
 40
3.0
 40
3.0
 40
4.0
 40
4.0
 40
4.0
 40
5.0
 40
5.0
 40
5.0
 40
6.0
 40
6.0
 40
6.0
 40
7.0
 40
7.0
 40
7.0
 40
8.0
 40
8.0
 40
8.0
 40
8.0
 10
76.14160561247502
 20
-158.6022053639953
 30
0.0
 10
76.35106741797821
 20
-158.6976345089367
 30
0.0
 10
76.37001544314708
 20
-158.8505967484818
 30
0.0
 10
76.37001544314708
 20
-158.9532605939422
 30
0.0
 10
76.37001544314708
 20
-159.0951985279345
 30
0.0
 10
76.3235066540962
 20
-159.2206000035976
 30
0.0
 10
76.14160561247502
 20
-159.3046603334377
 30
0.0
 10
75.9469577175584
 20
-159.3959553637968
 30
0.0
 10
75.70993514817322
 20
-159.4128363316746
 30
0.0
 10
75.54732664126942
 20
-159.4128363316746
 30
0.0
 10
75.40332164998598
 20
-159.4128363316746
 30
0.0
 10
75.15148517001421
 20
-159.3976779115395
 30
0.0
 10
74.9527031605153
 20
-159.3046603334377
 30
0.0
 10
74.74978703643409
 20
-159.2092311884963
 30
0.0
 10
74.72636038713439
 20
-159.067293254504
 30
0.0
 10
74.72636038713439
 20
-158.9532605939422
 30
0.0
 10
74.72636038713439
 20
-158.8133897172411
 30
0.0
 10
74.77080211889411
 20
-158.6862656938354
 30
0.0
 10
74.9527031605153
 20
-158.6022053639953
 30
0.0
 10
75.14528399814077
 20
-158.5143554291214
 30
0.0
 10
75.37369382881283
 20
-158.4936848562099
 30
0.0
 10
75.54732664126942
 20
-158.4936848562099
 30
0.0
 10
75.71854788688634
 20
-158.4936848562099
 30
0.0
 10
75.94902477484955
 20
-158.5122883718303
 30
0.0
 10
76.14160561247502
 20
-158.6022053639953
 30
0.0
  0
SPLINE
  5
141
330
13A
100
AcDbEntity
  8
_U+30EC_U+30A4_U+30E4_U+30FC 1
370
     0
100
AcDbSpline
210
0.0
220
0.0
230
1.0
 70
    11
 71
     3
 72
    17
 73
    13
 74
     0
 42
0.0000000001
 43
0.0000000001
 12
1.0
 22
0.0
 32
0.0
 13
1.0
 23
0.0
 33
0.0
 40
0.0
 40
0.0
 40
0.0
 40
0.0
 40
1.0
 40
1.0
 40
1.0
 40
2.0
 40
2.0
 40
2.0
 40
3.0
 40
3.0
 40
3.0
 40
4.0
 40
4.0
 40
4.0
 40
4.0
 10
74.91894122475985
 20
-158.9532605939422
 30
0.0
 10
74.91894122475985
 20
-159.1737467049983
 30
0.0
 10
75.20247258319591
 20
-159.2150878508212
 30
0.0
 10
75.54732664126942
 20
-159.2150878508212
 30
0.0
 10
75.86668699275208
 20
-159.2150878508212
 30
0.0
 10
76.17536754823047
 20
-159.1830484628084
 30
0.0
 10
76.17536754823047
 20
-158.9532605939422
 30
0.0
 10
76.17536754823047
 20
-158.7348415401774
 30
0.0
 10
75.89424775663409
 20
-158.6917778466118
 30
0.0
 10
75.54732664126942
 20
-158.6917778466118
 30
0.0
 10
75.22762178023824
 20
-158.6917778466118
 30
0.0
 10
74.91894122475985
 20
-158.7255397823672
 30
0.0
 10
74.91894122475985
 20
-158.9532605939422
 30
0.0
  0
HATCH
  5
142
330
13A
100
AcDbEntity
  8
_U+30EC_U+30A4_U+30E4_U+30FC 1
 62
   179
420
  2234388
100
AcDbHatch
 10
0.0
 20
0.0
 30
0.0
210
0.0
220
0.0
230
1.0
  2
SOLID
 70
     1
 71
     0
 91
        2
 92
        1
 93
        1
 72
     4
 94
        3
 73
     0
 74
     1
 95
       29
 96
       25
 40
0.0
 40
0.0
 40
0.0
 40
0.0
 40
1.0
 40
1.0
 40
1.0
 40
2.0
 40
2.0
 40
2.0
 40
3.0
 40
3.0
 40
3.0
 40
4.0
 40
4.0
 40
4.0
 40
5.0
 40
5.0
 40
5.0
 40
6.0
 40
6.0
 40
6.0
 40
7.0
 40
7.0
 40
7.0
 40
8.0
 40
8.0
 40
8.0
 40
8.0
 10
76.14160561247502
 20
-158.6022053639953
 10
76.35106741797821
 20
-158.6976345089367
 10
76.37001544314708
 20
-158.8505967484818
 10
76.37001544314708
 20
-158.9532605939422
 10
76.37001544314708
 20
-159.0951985279345
 10
76.3235066540962
 20
-159.2206000035976
 10
76.14160561247502
 20
-159.3046603334377
 10
75.9469577175584
 20
-159.3959553637968
 10
75.70993514817322
 20
-159.4128363316746
 10
75.54732664126942
 20
-159.4128363316746
 10
75.40332164998598
 20
-159.4128363316746
 10
75.15148517001421
 20
-159.3976779115395
 10
74.9527031605153
 20
-159.3046603334377
 10
74.74978703643409
 20
-159.2092311884963
 10
74.72636038713439
 20
-159.067293254504
 10
74.72636038713439
 20
-158.9532605939422
 10
74.72636038713439
 20
-158.8133897172411
 10
74.77080211889411
 20
-158.6862656938354
 10
74.9527031605153
 20
-158.6022053639953
 10
75.14528399814077
 20
-158.5143554291214
 10
75.37369382881283
 20
-158.4936848562099
 10
75.54732664126942
 20
-158.4936848562099
 10
75.71854788688634
 20
-158.4936848562099
 10
75.94902477484955
 20
-158.5122883718303
 10
76.14160561247502
 20
-158.6022053639953
 97
        0
 97
        0
 92
        1
 93
        1
 72
     4
 94
        3
 73
     0
 74
     1
 95
       17
 96
       13
 40
0.0
 40
0.0
 40
0.0
 40
0.0
 40
1.0
 40
1.0
 40
1.0
 40
2.0
 40
2.0
 40
2.0
 40
3.0
 40
3.0
 40
3.0
 40
4.0
 40
4.0
 40
4.0
 40
4.0
 10
74.91894122475985
 20
-158.9532605939422
 10
74.91894122475985
 20
-159.1737467049983
 10
75.20247258319591
 20
-159.2150878508212
 10
75.54732664126942
 20
-159.2150878508212
 10
75.86668699275208
 20
-159.2150878508212
 10
76.17536754823047
 20
-159.1830484628084
 10
76.17536754823047
 20
-158.9532605939422
 10
76.17536754823047
 20
-158.7348415401774
 10
75.89424775663409
 20
-158.6917778466118
 10
75.54732664126942
 20
-158.6917778466118
 10
75.22762178023824
 20
-158.6917778466118
 10
74.91894122475985
 20
-158.7255397823672
 10
74.91894122475985
 20
-158.9532605939422
 97
        0
 97
        0
 75
     2
 76
     1
 98
        0
  0
ENDBLK
  5
13D
330
13A
100
AcDbEntity
  8
0
100
AcDbBlockEnd
  0
BLOCK
  5
145
330
143
100
AcDbEntity
  8
0
100
AcDbBlockBegin
  2
block 7
 70
     0
 10
0.0
 20
0.0
 30
0.0
  3
block 7
  1

  0
SPLINE
  5
147
330
143
100
AcDbEntity
  8
_U+30EC_U+30A4_U+30E4_U+30FC 1
370
     0
100
AcDbSpline
210
0.0
220
0.0
230
1.0
 70
    11
 71
     3
 72
    62
 73
    58
 74
     0
 42
0.0000000001
 43
0.0000000001
 12
1.0
 22
0.0
 32
0.0
 13
1.0
 23
0.0
 33
0.0
 40
0.0
 40
0.0
 40
0.0
 40
0.0
 40
1.0
 40
1.0
 40
1.0
 40
2.0
 40
2.0
 40
2.0
 40
3.0
 40
3.0
 40
3.0
 40
4.0
 40
4.0
 40
4.0
 40
5.0
 40
5.0
 40
5.0
 40
6.0
 40
6.0
 40
6.0
 40
7.0
 40
7.0
 40
7.0
 40
8.0
 40
8.0
 40
8.0
 40
9.0
 40
9.0
 40
9.0
 40
10.0
 40
10.0
 40
10.0
 40
11.0
 40
11.0
 40
11.0
 40
12.0
 40
12.0
 40
12.0
 40
13.0
 40
13.0
 40
13.0
 40
14.0
 40
14.0
 40
14.0
 40
15.0
 40
15.0
 40
15.0
 40
16.0
 40
16.0
 40
16.0
 40
17.0
 40
17.0
 40
17.0
 40
18.0
 40
18.0
 40
18.0
 40
19.0
 40
19.0
 40
19.0
 40
19.0
 10
134.3790499881066
 20
-173.7916313584618
 30
0.0
 10
134.3790499881066
 20
-173.8756916883019
 30
0.0
 10
134.3580349056466
 20
-174.0682725259274
 30
0.0
 10
134.1719997494431
 20
-174.1785155814554
 30
0.0
 10
134.059689636624
 20
-174.2439723956751
 30
0.0
 10
133.9604708866488
 20
-174.2474174911604
 30
0.0
 10
133.8757215377116
 20
-174.2512070961942
 30
0.0
 10
133.8757215377116
 20
-174.2512070961942
 30
0.0
 10
133.8757215377116
 20
-174.056903710826
 30
0.0
 10
133.8757215377116
 20
-174.056903710826
 30
0.0
 10
133.9497910906445
 20
-174.0551811630834
 30
0.0
 10
134.18440209319
 20
-174.0458794052733
 30
0.0
 10
134.18440209319
 20
-173.7954209634956
 30
0.0
 10
134.18440209319
 20
-173.6741536024148
 30
0.0
 10
134.114811164388
 20
-173.5394503689415
 30
0.0
 10
133.8864013337159
 20
-173.5394503689415
 30
0.0
 10
133.7699571063145
 20
-173.5394503689415
 30
0.0
 10
133.7213812599724
 20
-173.573212304697
 30
0.0
 10
133.6896863815082
 20
-173.6011175781275
 30
0.0
 10
133.6156168285753
 20
-173.6665743923473
 30
0.0
 10
133.6028699752798
 20
-173.7692382378077
 30
0.0
 10
133.6028699752798
 20
-173.8178140841497
 30
0.0
 10
133.6028699752798
 20
-173.8346950520275
 30
0.0
 10
133.604937032571
 20
-173.8663899304917
 30
0.0
 10
133.6090711471533
 20
-173.890850108437
 30
0.0
 10
133.6090711471533
 20
-173.890850108437
 30
0.0
 10
133.4144232522367
 20
-173.890850108437
 30
0.0
 10
133.4144232522367
 20
-173.890850108437
 30
0.0
 10
133.4209689336587
 20
-173.8570881726816
 30
0.0
 10
133.4230359909498
 20
-173.8198811414409
 30
0.0
 10
133.4230359909498
 20
-173.8140244791159
 30
0.0
 10
133.4230359909498
 20
-173.7561468749637
 30
0.0
 10
133.4016763989412
 20
-173.5807915147645
 30
0.0
 10
133.1649983391046
 20
-173.5807915147645
 30
0.0
 10
132.9872314120657
 20
-173.5807915147645
 30
0.0
 10
132.9321098843017
 20
-173.6965467230689
 30
0.0
 10
132.9321098843017
 20
-173.793698415753
 30
0.0
 10
132.9321098843017
 20
-174.0272758896529
 30
0.0
 10
133.1649983391046
 20
-174.0345105901719
 30
0.0
 10
133.2366563251978
 20
-174.0383001952057
 30
0.0
 10
133.2366563251978
 20
-174.0383001952057
 30
0.0
 10
133.2366563251978
 20
-174.2177896699872
 30
0.0
 10
133.2366563251978
 20
-174.2177896699872
 30
0.0
 10
133.1119438686318
 20
-174.2102104599197
 30
0.0
 10
132.7353949320939
 20
-174.1857502819744
 30
0.0
 10
132.7353949320939
 20
-173.7823296006517
 30
0.0
 10
132.7353949320939
 20
-173.5845811197983
 30
0.0
 10
132.8625189554997
 20
-173.3713297092613
 30
0.0
 10
133.1584526576826
 20
-173.3713297092613
 30
0.0
 10
133.3448323234346
 20
-173.3713297092613
 30
0.0
 10
133.4271701055321
 20
-173.4553900391014
 30
0.0
 10
133.4884928051696
 20
-173.5432399739753
 30
0.0
 10
133.5160535690515
 20
-173.4891519748569
 30
0.0
 10
133.5963242938579
 20
-173.3286105252442
 30
0.0
 10
133.8736544804205
 20
-173.3286105252442
 30
0.0
 10
134.211962857072
 20
-173.3286105252442
 30
0.0
 10
134.3790499881066
 20
-173.5470295790091
 30
0.0
 10
134.3790499881066
 20
-173.7916313584618
 30
0.0
  0
HATCH
  5
148
330
143
100
AcDbEntity
  8
_U+30EC_U+30A4_U+30E4_U+30FC 1
 62
   179
420
  2234388
100
AcDbHatch
 10
0.0
 20
0.0
 30
0.0
210
0.0
220
0.0
230
1.0
  2
SOLID
 70
     1
 71
     0
 91
        1
 92
        1
 93
        1
 72
     4
 94
        3
 73
     0
 74
     1
 95
       62
 96
       58
 40
0.0
 40
0.0
 40
0.0
 40
0.0
 40
1.0
 40
1.0
 40
1.0
 40
2.0
 40
2.0
 40
2.0
 40
3.0
 40
3.0
 40
3.0
 40
4.0
 40
4.0
 40
4.0
 40
5.0
 40
5.0
 40
5.0
 40
6.0
 40
6.0
 40
6.0
 40
7.0
 40
7.0
 40
7.0
 40
8.0
 40
8.0
 40
8.0
 40
9.0
 40
9.0
 40
9.0
 40
10.0
 40
10.0
 40
10.0
 40
11.0
 40
11.0
 40
11.0
 40
12.0
 40
12.0
 40
12.0
 40
13.0
 40
13.0
 40
13.0
 40
14.0
 40
14.0
 40
14.0
 40
15.0
 40
15.0
 40
15.0
 40
16.0
 40
16.0
 40
16.0
 40
17.0
 40
17.0
 40
17.0
 40
18.0
 40
18.0
 40
18.0
 40
19.0
 40
19.0
 40
19.0
 40
19.0
 10
134.3790499881066
 20
-173.7916313584618
 10
134.3790499881066
 20
-173.8756916883019
 10
134.3580349056466
 20
-174.0682725259274
 10
134.1719997494431
 20
-174.1785155814554
 10
134.059689636624
 20
-174.2439723956751
 10
133.9604708866488
 20
-174.2474174911604
 10
133.8757215377116
 20
-174.2512070961942
 10
133.8757215377116
 20
-174.2512070961942
 10
133.8757215377116
 20
-174.056903710826
 10
133.8757215377116
 20
-174.056903710826
 10
133.9497910906445
 20
-174.0551811630834
 10
134.18440209319
 20
-174.0458794052733
 10
134.18440209319
 20
-173.7954209634956
 10
134.18440209319
 20
-173.6741536024148
 10
134.114811164388
 20
-173.5394503689415
 10
133.8864013337159
 20
-173.5394503689415
 10
133.7699571063145
 20
-173.5394503689415
 10
133.7213812599724
 20
-173.573212304697
 10
133.6896863815082
 20
-173.6011175781275
 10
133.6156168285753
 20
-173.6665743923473
 10
133.6028699752798
 20
-173.7692382378077
 10
133.6028699752798
 20
-173.8178140841497
 10
133.6028699752798
 20
-173.8346950520275
 10
133.604937032571
 20
-173.8663899304917
 10
133.6090711471533
 20
-173.890850108437
 10
133.6090711471533
 20
-173.890850108437
 10
133.4144232522367
 20
-173.890850108437
 10
133.4144232522367
 20
-173.890850108437
 10
133.4209689336587
 20
-173.8570881726816
 10
133.4230359909498
 20
-173.8198811414409
 10
133.4230359909498
 20
-173.8140244791159
 10
133.4230359909498
 20
-173.7561468749637
 10
133.4016763989412
 20
-173.5807915147645
 10
133.1649983391046
 20
-173.5807915147645
 10
132.9872314120657
 20
-173.5807915147645
 10
132.9321098843017
 20
-173.6965467230689
 10
132.9321098843017
 20
-173.793698415753
 10
132.9321098843017
 20
-174.0272758896529
 10
133.1649983391046
 20
-174.0345105901719
 10
133.2366563251978
 20
-174.0383001952057
 10
133.2366563251978
 20
-174.0383001952057
 10
133.2366563251978
 20
-174.2177896699872
 10
133.2366563251978
 20
-174.2177896699872
 10
133.1119438686318
 20
-174.2102104599197
 10
132.7353949320939
 20
-174.1857502819744
 10
132.7353949320939
 20
-173.7823296006517
 10
132.7353949320939
 20
-173.5845811197983
 10
132.8625189554997
 20
-173.3713297092613
 10
133.1584526576826
 20
-173.3713297092613
 10
133.3448323234346
 20
-173.3713297092613
 10
133.4271701055321
 20
-173.4553900391014
 10
133.4884928051696
 20
-173.5432399739753
 10
133.5160535690515
 20
-173.4891519748569
 10
133.5963242938579
 20
-173.3286105252442
 10
133.8736544804205
 20
-173.3286105252442
 10
134.211962857072
 20
-173.3286105252442
 10
134.3790499881066
 20
-173.5470295790091
 10
134.3790499881066
 20
-173.7916313584618
 97
        0
 97
        0
 75
     2
 76
     1
 98
        0
  0
POLYLINE
  5
149
330
143
100
AcDbEntity
  8
_U+30EC_U+30A4_U+30E4_U+30FC 1
370
     0
100
AcDb2dPolyline
 66
     1
 10
0.0
 20
0.0
 30
0.0
  0
VERTEX
  5
14A
330
149
100
AcDbEntity
  8
_U+30EC_U+30A4_U+30E4_U+30FC 1
370
     0
100
AcDbVertex
100
AcDb2dVertex
 10
134.3284070844735
 20
-173.1329291016821
 30
0.0
  0
VERTEX
  5
14B
330
149
100
AcDbEntity
  8
_U+30EC_U+30A4_U+30E4_U+30FC 1
370
     0
100
AcDbVertex
100
AcDb2dVertex
 10
134.0765706045017
 20
-173.1329291016821
 30
0.0
  0
VERTEX
  5
14C
330
149
100
AcDbEntity
  8
_U+30EC_U+30A4_U+30E4_U+30FC 1
370
     0
100
AcDbVertex
100
AcDb2dVertex
 10
134.0765706045017
 20
-172.9107204428834
 30
0.0
  0
VERTEX
  5
14D
330
149
100
AcDbEntity
  8
_U+30EC_U+30A4_U+30E4_U+30FC 1
370
     0
100
AcDbVertex
100
AcDb2dVertex
 10
134.3284070844735
 20
-172.9107204428834
 30
0.0
  0
VERTEX
  5
14E
330
149
100
AcDbEntity
  8
_U+30EC_U+30A4_U+30E4_U+30FC 1
370
     0
100
AcDbVertex
100
AcDb2dVertex
 10
134.3284070844735
 20
-173.1329291016821
 30
0.0
  0
SEQEND
  5
14F
330
149
100
AcDbEntity
  8
_U+30EC_U+30A4_U+30E4_U+30FC 1
370
     0
  0
HATCH
  5
150
330
143
100
AcDbEntity
  8
_U+30EC_U+30A4_U+30E4_U+30FC 1
 62
   179
420
  2234388
100
AcDbHatch
 10
0.0
 20
0.0
 30
0.0
210
0.0
220
0.0
230
1.0
  2
SOLID
 70
     1
 71
     0
 91
        1
 92
        1
 93
        4
 72
     1
 10
134.3284070844735
 20
-173.1329291016821
 11
134.0765706045017
 21
-173.1329291016821
 72
     1
 10
134.0765706045017
 20
-173.1329291016821
 11
134.0765706045017
 21
-172.9107204428834
 72
     1
 10
134.0765706045017
 20
-172.9107204428834
 11
134.3284070844735
 21
-172.9107204428834
 72
     1
 10
134.3284070844735
 20
-172.9107204428834
 11
134.3284070844735
 21
-173.1329291016821
 97
        0
 75
     2
 76
     1
 98
        0
  0
SPLINE
  5
151
330
143
100
AcDbEntity
  8
_U+30EC_U+30A4_U+30E4_U+30FC 1
370
     0
100
AcDbSpline
210
0.0
220
0.0
230
1.0
 70
    11
 71
     3
 72
    53
 73
    49
 74
     0
 42
0.0000000001
 43
0.0000000001
 12
1.0
 22
0.0
 32
0.0
 13
1.0
 23
0.0
 33
0.0
 40
0.0
 40
0.0
 40
0.0
 40
0.0
 40
1.0
 40
1.0
 40
1.0
 40
2.0
 40
2.0
 40
2.0
 40
3.0
 40
3.0
 40
3.0
 40
4.0
 40
4.0
 40
4.0
 40
5.0
 40
5.0
 40
5.0
 40
6.0
 40
6.0
 40
6.0
 40
7.0
 40
7.0
 40
7.0
 40
8.0
 40
8.0
 40
8.0
 40
9.0
 40
9.0
 40
9.0
 40
10.0
 40
10.0
 40
10.0
 40
11.0
 40
11.0
 40
11.0
 40
12.0
 40
12.0
 40
12.0
 40
13.0
 40
13.0
 40
13.0
 40
14.0
 40
14.0
 40
14.0
 40
15.0
 40
15.0
 40
15.0
 40
16.0
 40
16.0
 40
16.0
 40
16.0
 10
134.3790499881066
 20
-172.277167383146
 30
0.0
 10
134.3790499881066
 20
-172.346069292851
 30
0.0
 10
134.3621690202289
 20
-172.4356417754675
 30
0.0
 10
134.2987792633003
 20
-172.5255587676325
 30
0.0
 10
134.1888807173208
 20
-172.6785210071776
 30
0.0
 10
134.0576225793328
 20
-172.6971245227979
 30
0.0
 10
133.9497910906445
 20
-172.7140054906757
 30
0.0
 10
133.9497910906445
 20
-172.7140054906757
 30
0.0
 10
133.9497910906445
 20
-172.517979557565
 30
0.0
 10
133.9497910906445
 20
-172.517979557565
 30
0.0
 10
134.1485731001434
 20
-172.4694037112229
 30
0.0
 10
134.1782009213166
 20
-172.3574381079523
 30
0.0
 10
134.1782009213166
 20
-172.2751003258549
 30
0.0
 10
134.1782009213166
 20
-172.1517659074829
 30
0.0
 10
134.0786376617928
 20
-172.0174071835582
 30
0.0
 10
133.8460937165385
 20
-172.0174071835582
 30
0.0
 10
133.5901231219844
 20
-172.0174071835582
 30
0.0
 10
133.5201876836338
 20
-172.1762260854282
 30
0.0
 10
133.5201876836338
 20
-172.2826795359224
 30
0.0
 10
133.5201876836338
 20
-172.3105848093529
 30
0.0
 10
133.5201876836338
 20
-172.4356417754675
 30
0.0
 10
133.6493787643307
 20
-172.5141899525312
 30
0.0
 10
133.6493787643307
 20
-172.5141899525312
 30
0.0
 10
133.6304307391619
 20
-172.6692192493674
 30
0.0
 10
133.6304307391619
 20
-172.6692192493674
 30
0.0
 10
133.6304307391619
 20
-172.6692192493674
 30
0.0
 10
132.783970778436
 20
-172.5627657988732
 30
0.0
 10
132.783970778436
 20
-172.5627657988732
 30
0.0
 10
132.783970778436
 20
-172.5627657988732
 30
0.0
 10
132.783970778436
 20
-171.8754692495659
 30
0.0
 10
132.783970778436
 20
-171.8754692495659
 30
0.0
 10
132.783970778436
 20
-171.8754692495659
 30
0.0
 10
132.9786186733526
 20
-171.8754692495659
 30
0.0
 10
132.9786186733526
 20
-171.8754692495659
 30
0.0
 10
132.9786186733526
 20
-171.8754692495659
 30
0.0
 10
132.9786186733526
 20
-172.4191053171383
 30
0.0
 10
132.9786186733526
 20
-172.4191053171383
 30
0.0
 10
132.9786186733526
 20
-172.4191053171383
 30
0.0
 10
133.4016763989412
 20
-172.4769829212905
 30
0.0
 10
133.4016763989412
 20
-172.4769829212905
 30
0.0
 10
133.3679144631858
 20
-172.4225504126235
 30
0.0
 10
133.3276068460084
 20
-172.3498588978848
 30
0.0
 10
133.3276068460084
 20
-172.2451279951332
 30
0.0
 10
133.3276068460084
 20
-172.0211967885919
 30
0.0
 10
133.5139865117604
 20
-171.8117349830887
 30
0.0
 10
133.8271456913696
 20
-171.8117349830887
 30
0.0
 10
134.1444389855611
 20
-171.8117349830887
 30
0.0
 10
134.3790499881066
 20
-172.0098279734906
 30
0.0
 10
134.3790499881066
 20
-172.277167383146
 30
0.0
  0
HATCH
  5
152
330
143
100
AcDbEntity
  8
_U+30EC_U+30A4_U+30E4_U+30FC 1
 62
   179
420
  2234388
100
AcDbHatch
 10
0.0
 20
0.0
 30
0.0
210
0.0
220
0.0
230
1.0
  2
SOLID
 70
     1
 71
     0
 91
        1
 92
        1
 93
        1
 72
     4
 94
        3
 73
     0
 74
     1
 95
       53
 96
       49
 40
0.0
 40
0.0
 40
0.0
 40
0.0
 40
1.0
 40
1.0
 40
1.0
 40
2.0
 40
2.0
 40
2.0
 40
3.0
 40
3.0
 40
3.0
 40
4.0
 40
4.0
 40
4.0
 40
5.0
 40
5.0
 40
5.0
 40
6.0
 40
6.0
 40
6.0
 40
7.0
 40
7.0
 40
7.0
 40
8.0
 40
8.0
 40
8.0
 40
9.0
 40
9.0
 40
9.0
 40
10.0
 40
10.0
 40
10.0
 40
11.0
 40
11.0
 40
11.0
 40
12.0
 40
12.0
 40
12.0
 40
13.0
 40
13.0
 40
13.0
 40
14.0
 40
14.0
 40
14.0
 40
15.0
 40
15.0
 40
15.0
 40
16.0
 40
16.0
 40
16.0
 40
16.0
 10
134.3790499881066
 20
-172.277167383146
 10
134.3790499881066
 20
-172.346069292851
 10
134.3621690202289
 20
-172.4356417754675
 10
134.2987792633003
 20
-172.5255587676325
 10
134.1888807173208
 20
-172.6785210071776
 10
134.0576225793328
 20
-172.6971245227979
 10
133.9497910906445
 20
-172.7140054906757
 10
133.9497910906445
 20
-172.7140054906757
 10
133.9497910906445
 20
-172.517979557565
 10
133.9497910906445
 20
-172.517979557565
 10
134.1485731001434
 20
-172.4694037112229
 10
134.1782009213166
 20
-172.3574381079523
 10
134.1782009213166
 20
-172.2751003258549
 10
134.1782009213166
 20
-172.1517659074829
 10
134.0786376617928
 20
-172.0174071835582
 10
133.8460937165385
 20
-172.0174071835582
 10
133.5901231219844
 20
-172.0174071835582
 10
133.5201876836338
 20
-172.1762260854282
 10
133.5201876836338
 20
-172.2826795359224
 10
133.5201876836338
 20
-172.3105848093529
 10
133.5201876836338
 20
-172.4356417754675
 10
133.6493787643307
 20
-172.5141899525312
 10
133.6493787643307
 20
-172.5141899525312
 10
133.6304307391619
 20
-172.6692192493674
 10
133.6304307391619
 20
-172.6692192493674
 10
133.6304307391619
 20
-172.6692192493674
 10
132.783970778436
 20
-172.5627657988732
 10
132.783970778436
 20
-172.5627657988732
 10
132.783970778436
 20
-172.5627657988732
 10
132.783970778436
 20
-171.8754692495659
 10
132.783970778436
 20
-171.8754692495659
 10
132.783970778436
 20
-171.8754692495659
 10
132.9786186733526
 20
-171.8754692495659
 10
132.9786186733526
 20
-171.8754692495659
 10
132.9786186733526
 20
-171.8754692495659
 10
132.9786186733526
 20
-172.4191053171383
 10
132.9786186733526
 20
-172.4191053171383
 10
132.9786186733526
 20
-172.4191053171383
 10
133.4016763989412
 20
-172.4769829212905
 10
133.4016763989412
 20
-172.4769829212905
 10
133.3679144631858
 20
-172.4225504126235
 10
133.3276068460084
 20
-172.3498588978848
 10
133.3276068460084
 20
-172.2451279951332
 10
133.3276068460084
 20
-172.0211967885919
 10
133.5139865117604
 20
-171.8117349830887
 10
133.8271456913696
 20
-171.8117349830887
 10
134.1444389855611
 20
-171.8117349830887
 10
134.3790499881066
 20
-172.0098279734906
 10
134.3790499881066
 20
-172.277167383146
 97
        0
 97
        0
 75
     2
 76
     1
 98
        0
  0
ENDBLK
  5
146
330
143
100
AcDbEntity
  8
0
100
AcDbBlockEnd
  0
BLOCK
  5
155
330
153
100
AcDbEntity
  8
0
100
AcDbBlockBegin
  2
block 8
 70
     0
 10
0.0
 20
0.0
 30
0.0
  3
block 8
  1

  0
SPLINE
  5
157
330
153
100
AcDbEntity
  8
_U+30EC_U+30A4_U+30E4_U+30FC 1
370
     0
100
AcDbSpline
210
0.0
220
0.0
230
1.0
 70
    11
 71
     3
 72
    26
 73
    22
 74
     0
 42
0.0000000001
 43
0.0000000001
 12
1.0
 22
0.0
 32
0.0
 13
1.0
 23
0.0
 33
0.0
 40
0.0
 40
0.0
 40
0.0
 40
0.0
 40
1.0
 40
1.0
 40
1.0
 40
2.0
 40
2.0
 40
2.0
 40
3.0
 40
3.0
 40
3.0
 40
4.0
 40
4.0
 40
4.0
 40
5.0
 40
5.0
 40
5.0
 40
6.0
 40
6.0
 40
6.0
 40
7.0
 40
7.0
 40
7.0
 40
7.0
 10
133.4016763989412
 20
-158.6276990705861
 30
0.0
 10
133.4016763989412
 20
-158.6276990705861
 30
0.0
 10
132.2975232959187
 20
-158.6276990705861
 30
0.0
 10
132.2975232959187
 20
-158.6276990705861
 30
0.0
 10
132.2975232959187
 20
-158.6276990705861
 30
0.0
 10
132.2975232959187
 20
-158.9191541486383
 30
0.0
 10
132.2975232959187
 20
-158.9191541486383
 30
0.0
 10
132.2975232959187
 20
-158.9191541486383
 30
0.0
 10
132.1493841900529
 20
-158.9191541486383
 30
0.0
 10
132.1493841900529
 20
-158.9191541486383
 30
0.0
 10
132.1345702794664
 20
-158.6259765228435
 30
0.0
 10
131.9716172630141
 20
-158.584979886569
 30
0.0
 10
131.8572400929038
 20
-158.5587971608811
 30
0.0
 10
131.8572400929038
 20
-158.5587971608811
 30
0.0
 10
131.8572400929038
 20
-158.4299505897328
 30
0.0
 10
131.8572400929038
 20
-158.4299505897328
 30
0.0
 10
131.8572400929038
 20
-158.4299505897328
 30
0.0
 10
133.4016763989412
 20
-158.4299505897328
 30
0.0
 10
133.4016763989412
 20
-158.4299505897328
 30
0.0
 10
133.4016763989412
 20
-158.4299505897328
 30
0.0
 10
133.4016763989412
 20
-158.6276990705861
 30
0.0
 10
133.4016763989412
 20
-158.6276990705861
 30
0.0
  0
HATCH
  5
158
330
153
100
AcDbEntity
  8
_U+30EC_U+30A4_U+30E4_U+30FC 1
 62
   179
420
  2234388
100
AcDbHatch
 10
0.0
 20
0.0
 30
0.0
210
0.0
220
0.0
230
1.0
  2
SOLID
 70
     1
 71
     0
 91
        1
 92
        1
 93
        1
 72
     4
 94
        3
 73
     0
 74
     1
 95
       26
 96
       22
 40
0.0
 40
0.0
 40
0.0
 40
0.0
 40
1.0
 40
1.0
 40
1.0
 40
2.0
 40
2.0
 40
2.0
 40
3.0
 40
3.0
 40
3.0
 40
4.0
 40
4.0
 40
4.0
 40
5.0
 40
5.0
 40
5.0
 40
6.0
 40
6.0
 40
6.0
 40
7.0
 40
7.0
 40
7.0
 40
7.0
 10
133.4016763989412
 20
-158.6276990705861
 10
133.4016763989412
 20
-158.6276990705861
 10
132.2975232959187
 20
-158.6276990705861
 10
132.2975232959187
 20
-158.6276990705861
 10
132.2975232959187
 20
-158.6276990705861
 10
132.2975232959187
 20
-158.9191541486383
 10
132.2975232959187
 20
-158.9191541486383
 10
132.2975232959187
 20
-158.9191541486383
 10
132.1493841900529
 20
-158.9191541486383
 10
132.1493841900529
 20
-158.9191541486383
 10
132.1345702794664
 20
-158.6259765228435
 10
131.9716172630141
 20
-158.584979886569
 10
131.8572400929038
 20
-158.5587971608811
 10
131.8572400929038
 20
-158.5587971608811
 10
131.8572400929038
 20
-158.4299505897328
 10
131.8572400929038
 20
-158.4299505897328
 10
131.8572400929038
 20
-158.4299505897328
 10
133.4016763989412
 20
-158.4299505897328
 10
133.4016763989412
 20
-158.4299505897328
 10
133.4016763989412
 20
-158.4299505897328
 10
133.4016763989412
 20
-158.6276990705861
 10
133.4016763989412
 20
-158.6276990705861
 97
        0
 97
        0
 75
     2
 76
     1
 98
        0
  0
POLYLINE
  5
159
330
153
100
AcDbEntity
  8
_U+30EC_U+30A4_U+30E4_U+30FC 1
370
     0
100
AcDb2dPolyline
 66
     1
 10
0.0
 20
0.0
 30
0.0
  0
VERTEX
  5
15A
330
159
100
AcDbEntity
  8
_U+30EC_U+30A4_U+30E4_U+30FC 1
370
     0
100
AcDbVertex
100
AcDb2dVertex
 10
133.4016763989412
 20
-157.9335123303083
 30
0.0
  0
VERTEX
  5
15B
330
159
100
AcDbEntity
  8
_U+30EC_U+30A4_U+30E4_U+30FC 1
370
     0
100
AcDbVertex
100
AcDb2dVertex
 10
133.1498399189695
 20
-157.9335123303083
 30
0.0
  0
VERTEX
  5
15C
330
159
100
AcDbEntity
  8
_U+30EC_U+30A4_U+30E4_U+30FC 1
370
     0
100
AcDbVertex
100
AcDb2dVertex
 10
133.1498399189695
 20
-157.7113036715097
 30
0.0
  0
VERTEX
  5
15D
330
159
100
AcDbEntity
  8
_U+30EC_U+30A4_U+30E4_U+30FC 1
370
     0
100
AcDbVertex
100
AcDb2dVertex
 10
133.4016763989412
 20
-157.7113036715097
 30
0.0
  0
VERTEX
  5
15E
330
159
100
AcDbEntity
  8
_U+30EC_U+30A4_U+30E4_U+30FC 1
370
     0
100
AcDbVertex
100
AcDb2dVertex
 10
133.4016763989412
 20
-157.9335123303083
 30
0.0
  0
SEQEND
  5
15F
330
159
100
AcDbEntity
  8
_U+30EC_U+30A4_U+30E4_U+30FC 1
370
     0
  0
HATCH
  5
160
330
153
100
AcDbEntity
  8
_U+30EC_U+30A4_U+30E4_U+30FC 1
 62
   179
420
  2234388
100
AcDbHatch
 10
0.0
 20
0.0
 30
0.0
210
0.0
220
0.0
230
1.0
  2
SOLID
 70
     1
 71
     0
 91
        1
 92
        1
 93
        4
 72
     1
 10
133.4016763989412
 20
-157.9335123303083
 11
133.1498399189695
 21
-157.9335123303083
 72
     1
 10
133.1498399189695
 20
-157.9335123303083
 11
133.1498399189695
 21
-157.7113036715097
 72
     1
 10
133.1498399189695
 20
-157.7113036715097
 11
133.4016763989412
 21
-157.7113036715097
 72
     1
 10
133.4016763989412
 20
-157.7113036715097
 11
133.4016763989412
 21
-157.9335123303083
 97
        0
 75
     2
 76
     1
 98
        0
  0
SPLINE
  5
161
330
153
100
AcDbEntity
  8
_U+30EC_U+30A4_U+30E4_U+30FC 1
370
     0
100
AcDbSpline
210
0.0
220
0.0
230
1.0
 70
    11
 71
     3
 72
    44
 73
    40
 74
     0
 42
0.0000000001
 43
0.0000000001
 12
1.0
 22
0.0
 32
0.0
 13
1.0
 23
0.0
 33
0.0
 40
0.0
 40
0.0
 40
0.0
 40
0.0
 40
1.0
 40
1.0
 40
1.0
 40
2.0
 40
2.0
 40
2.0
 40
3.0
 40
3.0
 40
3.0
 40
4.0
 40
4.0
 40
4.0
 40
5.0
 40
5.0
 40
5.0
 40
6.0
 40
6.0
 40
6.0
 40
7.0
 40
7.0
 40
7.0
 40
8.0
 40
8.0
 40
8.0
 40
9.0
 40
9.0
 40
9.0
 40
10.0
 40
10.0
 40
10.0
 40
11.0
 40
11.0
 40
11.0
 40
12.0
 40
12.0
 40
12.0
 40
13.0
 40
13.0
 40
13.0
 40
13.0
 10
132.8197997714826
 20
-156.9785318617971
 30
0.0
 10
132.9786186733526
 20
-157.1711126994225
 30
0.0
 10
133.0526882262855
 20
-157.2531059719715
 30
0.0
 10
133.1963487080204
 20
-157.2961696655371
 30
0.0
 10
133.1963487080204
 20
-157.2961696655371
 30
0.0
 10
133.1963487080204
 20
-156.6088731162297
 30
0.0
 10
133.1963487080204
 20
-156.6088731162297
 30
0.0
 10
133.1963487080204
 20
-156.6088731162297
 30
0.0
 10
133.4016763989412
 20
-156.6088731162297
 30
0.0
 10
133.4016763989412
 20
-156.6088731162297
 30
0.0
 10
133.4016763989412
 20
-156.6088731162297
 30
0.0
 10
133.4016763989412
 20
-157.5166557765931
 30
0.0
 10
133.4016763989412
 20
-157.5166557765931
 30
0.0
 10
133.0440754875723
 20
-157.488405993614
 30
0.0
 10
132.9658718200571
 20
-157.4305283894618
 30
0.0
 10
132.6675265510345
 20
-157.0904974650677
 30
0.0
 10
132.4687445415356
 20
-156.8644992012353
 30
0.0
 10
132.4008761604762
 20
-156.8066215970831
 30
0.0
 10
132.2634168506147
 20
-156.8066215970831
 30
0.0
 10
132.1449055659221
 20
-156.8066215970831
 30
0.0
 10
132.0139919374826
 20
-156.8703558635602
 30
0.0
 10
132.0139919374826
 20
-157.0439886760168
 30
0.0
 10
132.0139919374826
 20
-157.273776544883
 30
0.0
 10
132.2444688254458
 20
-157.281011245402
 30
0.0
 10
132.3609130528473
 20
-157.2848008504357
 30
0.0
 10
132.3609130528473
 20
-157.2848008504357
 30
0.0
 10
132.3609130528473
 20
-157.4828938408376
 30
0.0
 10
132.3609130528473
 20
-157.4828938408376
 30
0.0
 10
132.2337890294416
 20
-157.4753146307701
 30
0.0
 10
132.1218234261709
 20
-157.4660128729599
 30
0.0
 10
132.0033121414783
 20
-157.3950439059637
 30
0.0
 10
131.8424261823172
 20
-157.2978922132797
 30
0.0
 10
131.8086642465617
 20
-157.1335611586333
 30
0.0
 10
131.8086642465617
 20
-157.0308973131728
 30
0.0
 10
131.8086642465617
 20
-156.7862955337201
 30
0.0
 10
131.9926323454741
 20
-156.6030164539048
 30
0.0
 10
132.2654839079059
 20
-156.6030164539048
 30
0.0
 10
132.4942382481264
 20
-156.6030164539048
 30
0.0
 10
132.5934569981016
 20
-156.7060248089138
 30
0.0
 10
132.8197997714826
 20
-156.9785318617971
 30
0.0
  0
HATCH
  5
162
330
153
100
AcDbEntity
  8
_U+30EC_U+30A4_U+30E4_U+30FC 1
 62
   179
420
  2234388
100
AcDbHatch
 10
0.0
 20
0.0
 30
0.0
210
0.0
220
0.0
230
1.0
  2
SOLID
 70
     1
 71
     0
 91
        1
 92
        1
 93
        1
 72
     4
 94
        3
 73
     0
 74
     1
 95
       44
 96
       40
 40
0.0
 40
0.0
 40
0.0
 40
0.0
 40
1.0
 40
1.0
 40
1.0
 40
2.0
 40
2.0
 40
2.0
 40
3.0
 40
3.0
 40
3.0
 40
4.0
 40
4.0
 40
4.0
 40
5.0
 40
5.0
 40
5.0
 40
6.0
 40
6.0
 40
6.0
 40
7.0
 40
7.0
 40
7.0
 40
8.0
 40
8.0
 40
8.0
 40
9.0
 40
9.0
 40
9.0
 40
10.0
 40
10.0
 40
10.0
 40
11.0
 40
11.0
 40
11.0
 40
12.0
 40
12.0
 40
12.0
 40
13.0
 40
13.0
 40
13.0
 40
13.0
 10
132.8197997714826
 20
-156.9785318617971
 10
132.9786186733526
 20
-157.1711126994225
 10
133.0526882262855
 20
-157.2531059719715
 10
133.1963487080204
 20
-157.2961696655371
 10
133.1963487080204
 20
-157.2961696655371
 10
133.1963487080204
 20
-156.6088731162297
 10
133.1963487080204
 20
-156.6088731162297
 10
133.1963487080204
 20
-156.6088731162297
 10
133.4016763989412
 20
-156.6088731162297
 10
133.4016763989412
 20
-156.6088731162297
 10
133.4016763989412
 20
-156.6088731162297
 10
133.4016763989412
 20
-157.5166557765931
 10
133.4016763989412
 20
-157.5166557765931
 10
133.0440754875723
 20
-157.488405993614
 10
132.9658718200571
 20
-157.4305283894618
 10
132.6675265510345
 20
-157.0904974650677
 10
132.4687445415356
 20
-156.8644992012353
 10
132.4008761604762
 20
-156.8066215970831
 10
132.2634168506147
 20
-156.8066215970831
 10
132.1449055659221
 20
-156.8066215970831
 10
132.0139919374826
 20
-156.8703558635602
 10
132.0139919374826
 20
-157.0439886760168
 10
132.0139919374826
 20
-157.273776544883
 10
132.2444688254458
 20
-157.281011245402
 10
132.3609130528473
 20
-157.2848008504357
 10
132.3609130528473
 20
-157.2848008504357
 10
132.3609130528473
 20
-157.4828938408376
 10
132.3609130528473
 20
-157.4828938408376
 10
132.2337890294416
 20
-157.4753146307701
 10
132.1218234261709
 20
-157.4660128729599
 10
132.0033121414783
 20
-157.3950439059637
 10
131.8424261823172
 20
-157.2978922132797
 10
131.8086642465617
 20
-157.1335611586333
 10
131.8086642465617
 20
-157.0308973131728
 10
131.8086642465617
 20
-156.7862955337201
 10
131.9926323454741
 20
-156.6030164539048
 10
132.2654839079059
 20
-156.6030164539048
 10
132.4942382481264
 20
-156.6030164539048
 10
132.5934569981016
 20
-156.7060248089138
 10
132.8197997714826
 20
-156.9785318617971
 97
        0
 97
        0
 75
     2
 76
     1
 98
        0
  0
ENDBLK
  5
156
330
153
100
AcDbEntity
  8
0
100
AcDbBlockEnd
  0
BLOCK
  5
165
330
163
100
AcDbEntity
  8
0
100
AcDbBlockBegin
  2
block 9
 70
     0
 10
0.0
 20
0.0
 30
0.0
  3
block 9
  1

  0
SPLINE
  5
167
330
163
100
AcDbEntity
  8
_U+30EC_U+30A4_U+30E4_U+30FC 1
370
     0
100
AcDbSpline
210
0.0
220
0.0
230
1.0
 70
    11
 71
     3
 72
    26
 73
    22
 74
     0
 42
0.0000000001
 43
0.0000000001
 12
1.0
 22
0.0
 32
0.0
 13
1.0
 23
0.0
 33
0.0
 40
0.0
 40
0.0
 40
0.0
 40
0.0
 40
1.0
 40
1.0
 40
1.0
 40
2.0
 40
2.0
 40
2.0
 40
3.0
 40
3.0
 40
3.0
 40
4.0
 40
4.0
 40
4.0
 40
5.0
 40
5.0
 40
5.0
 40
6.0
 40
6.0
 40
6.0
 40
7.0
 40
7.0
 40
7.0
 40
7.0
 10
134.3266845367308
 20
-165.3859428840007
 30
0.0
 10
134.3266845367308
 20
-165.3859428840007
 30
0.0
 10
133.2225314337083
 20
-165.3859428840007
 30
0.0
 10
133.2225314337083
 20
-165.3859428840007
 30
0.0
 10
133.2225314337083
 20
-165.3859428840007
 30
0.0
 10
133.2225314337083
 20
-165.6773979620529
 30
0.0
 10
133.2225314337083
 20
-165.6773979620529
 30
0.0
 10
133.2225314337083
 20
-165.6773979620529
 30
0.0
 10
133.0743923278425
 20
-165.6773979620529
 30
0.0
 10
133.0743923278425
 20
-165.6773979620529
 30
0.0
 10
133.0595784172559
 20
-165.3842203362581
 30
0.0
 10
132.8966254008036
 20
-165.3432236999836
 30
0.0
 10
132.7822482306933
 20
-165.3170409742957
 30
0.0
 10
132.7822482306933
 20
-165.3170409742957
 30
0.0
 10
132.7822482306933
 20
-165.1881944031474
 30
0.0
 10
132.7822482306933
 20
-165.1881944031474
 30
0.0
 10
132.7822482306933
 20
-165.1881944031474
 30
0.0
 10
134.3266845367308
 20
-165.1881944031474
 30
0.0
 10
134.3266845367308
 20
-165.1881944031474
 30
0.0
 10
134.3266845367308
 20
-165.1881944031474
 30
0.0
 10
134.3266845367308
 20
-165.3859428840007
 30
0.0
 10
134.3266845367308
 20
-165.3859428840007
 30
0.0
  0
HATCH
  5
168
330
163
100
AcDbEntity
  8
_U+30EC_U+30A4_U+30E4_U+30FC 1
 62
   179
420
  2234388
100
AcDbHatch
 10
0.0
 20
0.0
 30
0.0
210
0.0
220
0.0
230
1.0
  2
SOLID
 70
     1
 71
     0
 91
        1
 92
        1
 93
        1
 72
     4
 94
        3
 73
     0
 74
     1
 95
       26
 96
       22
 40
0.0
 40
0.0
 40
0.0
 40
0.0
 40
1.0
 40
1.0
 40
1.0
 40
2.0
 40
2.0
 40
2.0
 40
3.0
 40
3.0
 40
3.0
 40
4.0
 40
4.0
 40
4.0
 40
5.0
 40
5.0
 40
5.0
 40
6.0
 40
6.0
 40
6.0
 40
7.0
 40
7.0
 40
7.0
 40
7.0
 10
134.3266845367308
 20
-165.3859428840007
 10
134.3266845367308
 20
-165.3859428840007
 10
133.2225314337083
 20
-165.3859428840007
 10
133.2225314337083
 20
-165.3859428840007
 10
133.2225314337083
 20
-165.3859428840007
 10
133.2225314337083
 20
-165.6773979620529
 10
133.2225314337083
 20
-165.6773979620529
 10
133.2225314337083
 20
-165.6773979620529
 10
133.0743923278425
 20
-165.6773979620529
 10
133.0743923278425
 20
-165.6773979620529
 10
133.0595784172559
 20
-165.3842203362581
 10
132.8966254008036
 20
-165.3432236999836
 10
132.7822482306933
 20
-165.3170409742957
 10
132.7822482306933
 20
-165.3170409742957
 10
132.7822482306933
 20
-165.1881944031474
 10
132.7822482306933
 20
-165.1881944031474
 10
132.7822482306933
 20
-165.1881944031474
 10
134.3266845367308
 20
-165.1881944031474
 10
134.3266845367308
 20
-165.1881944031474
 10
134.3266845367308
 20
-165.1881944031474
 10
134.3266845367308
 20
-165.3859428840007
 10
134.3266845367308
 20
-165.3859428840007
 97
        0
 97
        0
 75
     2
 76
     1
 98
        0
  0
SPLINE
  5
169
330
163
100
AcDbEntity
  8
_U+30EC_U+30A4_U+30E4_U+30FC 1
370
     0
100
AcDbSpline
210
0.0
220
0.0
230
1.0
 70
    11
 71
     3
 72
    62
 73
    58
 74
     0
 42
0.0000000001
 43
0.0000000001
 12
1.0
 22
0.0
 32
0.0
 13
1.0
 23
0.0
 33
0.0
 40
0.0
 40
0.0
 40
0.0
 40
0.0
 40
1.0
 40
1.0
 40
1.0
 40
2.0
 40
2.0
 40
2.0
 40
3.0
 40
3.0
 40
3.0
 40
4.0
 40
4.0
 40
4.0
 40
5.0
 40
5.0
 40
5.0
 40
6.0
 40
6.0
 40
6.0
 40
7.0
 40
7.0
 40
7.0
 40
8.0
 40
8.0
 40
8.0
 40
9.0
 40
9.0
 40
9.0
 40
10.0
 40
10.0
 40
10.0
 40
11.0
 40
11.0
 40
11.0
 40
12.0
 40
12.0
 40
12.0
 40
13.0
 40
13.0
 40
13.0
 40
14.0
 40
14.0
 40
14.0
 40
15.0
 40
15.0
 40
15.0
 40
16.0
 40
16.0
 40
16.0
 40
17.0
 40
17.0
 40
17.0
 40
18.0
 40
18.0
 40
18.0
 40
19.0
 40
19.0
 40
19.0
 40
19.0
 10
134.377327440364
 20
-164.3107285830543
 30
0.0
 10
134.377327440364
 20
-164.3947889128944
 30
0.0
 10
134.356312357904
 20
-164.5873697505198
 30
0.0
 10
134.1702772017005
 20
-164.6976128060478
 30
0.0
 10
134.0579670888814
 20
-164.7630696202676
 30
0.0
 10
133.9587483389062
 20
-164.7665147157528
 30
0.0
 10
133.873998989969
 20
-164.7703043207866
 30
0.0
 10
133.873998989969
 20
-164.7703043207866
 30
0.0
 10
133.873998989969
 20
-164.5760009354185
 30
0.0
 10
133.873998989969
 20
-164.5760009354185
 30
0.0
 10
133.9480685429019
 20
-164.5742783876759
 30
0.0
 10
134.1826795454474
 20
-164.5649766298657
 30
0.0
 10
134.1826795454474
 20
-164.314518188088
 30
0.0
 10
134.1826795454474
 20
-164.1932508270073
 30
0.0
 10
134.1130886166453
 20
-164.058547593534
 30
0.0
 10
133.8846787859733
 20
-164.058547593534
 30
0.0
 10
133.7682345585718
 20
-164.058547593534
 30
0.0
 10
133.7196587122298
 20
-164.0923095292894
 30
0.0
 10
133.6879638337655
 20
-164.1202148027199
 30
0.0
 10
133.6138942808327
 20
-164.1856716169397
 30
0.0
 10
133.6011474275372
 20
-164.2883354624001
 30
0.0
 10
133.6011474275372
 20
-164.3369113087422
 30
0.0
 10
133.6011474275372
 20
-164.3537922766199
 30
0.0
 10
133.6032144848284
 20
-164.3854871550842
 30
0.0
 10
133.6073485994107
 20
-164.4099473330295
 30
0.0
 10
133.6073485994107
 20
-164.4099473330295
 30
0.0
 10
133.4127007044941
 20
-164.4099473330295
 30
0.0
 10
133.4127007044941
 20
-164.4099473330295
 30
0.0
 10
133.419246385916
 20
-164.376185397274
 30
0.0
 10
133.4213134432072
 20
-164.3389783660333
 30
0.0
 10
133.4213134432072
 20
-164.3331217037084
 30
0.0
 10
133.4213134432072
 20
-164.2752440995562
 30
0.0
 10
133.3999538511986
 20
-164.099888739357
 30
0.0
 10
133.163275791362
 20
-164.099888739357
 30
0.0
 10
132.9855088643231
 20
-164.099888739357
 30
0.0
 10
132.9303873365591
 20
-164.2156439476614
 30
0.0
 10
132.9303873365591
 20
-164.3127956403454
 30
0.0
 10
132.9303873365591
 20
-164.5463731142454
 30
0.0
 10
133.163275791362
 20
-164.5536078147644
 30
0.0
 10
133.2349337774552
 20
-164.5573974197981
 30
0.0
 10
133.2349337774552
 20
-164.5573974197981
 30
0.0
 10
133.2349337774552
 20
-164.7368868945797
 30
0.0
 10
133.2349337774552
 20
-164.7368868945797
 30
0.0
 10
133.1102213208891
 20
-164.7293076845121
 30
0.0
 10
132.7336723843513
 20
-164.7048475065669
 30
0.0
 10
132.7336723843513
 20
-164.3014268252441
 30
0.0
 10
132.7336723843513
 20
-164.1036783443907
 30
0.0
 10
132.860796407757
 20
-163.8904269338538
 30
0.0
 10
133.15673010994
 20
-163.8904269338538
 30
0.0
 10
133.343109775692
 20
-163.8904269338538
 30
0.0
 10
133.4254475577895
 20
-163.9744872636939
 30
0.0
 10
133.4867702574269
 20
-164.0623371985677
 30
0.0
 10
133.5143310213089
 20
-164.0082491994493
 30
0.0
 10
133.5946017461152
 20
-163.8477077498367
 30
0.0
 10
133.8719319326779
 20
-163.8477077498367
 30
0.0
 10
134.2102403093294
 20
-163.8477077498367
 30
0.0
 10
134.377327440364
 20
-164.0661268036015
 30
0.0
 10
134.377327440364
 20
-164.3107285830543
 30
0.0
  0
HATCH
  5
16A
330
163
100
AcDbEntity
  8
_U+30EC_U+30A4_U+30E4_U+30FC 1
 62
   179
420
  2234388
100
AcDbHatch
 10
0.0
 20
0.0
 30
0.0
210
0.0
220
0.0
230
1.0
  2
SOLID
 70
     1
 71
     0
 91
        1
 92
        1
 93
        1
 72
     4
 94
        3
 73
     0
 74
     1
 95
       62
 96
       58
 40
0.0
 40
0.0
 40
0.0
 40
0.0
 40
1.0
 40
1.0
 40
1.0
 40
2.0
 40
2.0
 40
2.0
 40
3.0
 40
3.0
 40
3.0
 40
4.0
 40
4.0
 40
4.0
 40
5.0
 40
5.0
 40
5.0
 40
6.0
 40
6.0
 40
6.0
 40
7.0
 40
7.0
 40
7.0
 40
8.0
 40
8.0
 40
8.0
 40
9.0
 40
9.0
 40
9.0
 40
10.0
 40
10.0
 40
10.0
 40
11.0
 40
11.0
 40
11.0
 40
12.0
 40
12.0
 40
12.0
 40
13.0
 40
13.0
 40
13.0
 40
14.0
 40
14.0
 40
14.0
 40
15.0
 40
15.0
 40
15.0
 40
16.0
 40
16.0
 40
16.0
 40
17.0
 40
17.0
 40
17.0
 40
18.0
 40
18.0
 40
18.0
 40
19.0
 40
19.0
 40
19.0
 40
19.0
 10
134.377327440364
 20
-164.3107285830543
 10
134.377327440364
 20
-164.3947889128944
 10
134.356312357904
 20
-164.5873697505198
 10
134.1702772017005
 20
-164.6976128060478
 10
134.0579670888814
 20
-164.7630696202676
 10
133.9587483389062
 20
-164.7665147157528
 10
133.873998989969
 20
-164.7703043207866
 10
133.873998989969
 20
-164.7703043207866
 10
133.873998989969
 20
-164.5760009354185
 10
133.873998989969
 20
-164.5760009354185
 10
133.9480685429019
 20
-164.5742783876759
 10
134.1826795454474
 20
-164.5649766298657
 10
134.1826795454474
 20
-164.314518188088
 10
134.1826795454474
 20
-164.1932508270073
 10
134.1130886166453
 20
-164.058547593534
 10
133.8846787859733
 20
-164.058547593534
 10
133.7682345585718
 20
-164.058547593534
 10
133.7196587122298
 20
-164.0923095292894
 10
133.6879638337655
 20
-164.1202148027199
 10
133.6138942808327
 20
-164.1856716169397
 10
133.6011474275372
 20
-164.2883354624001
 10
133.6011474275372
 20
-164.3369113087422
 10
133.6011474275372
 20
-164.3537922766199
 10
133.6032144848284
 20
-164.3854871550842
 10
133.6073485994107
 20
-164.4099473330295
 10
133.6073485994107
 20
-164.4099473330295
 10
133.4127007044941
 20
-164.4099473330295
 10
133.4127007044941
 20
-164.4099473330295
 10
133.419246385916
 20
-164.376185397274
 10
133.4213134432072
 20
-164.3389783660333
 10
133.4213134432072
 20
-164.3331217037084
 10
133.4213134432072
 20
-164.2752440995562
 10
133.3999538511986
 20
-164.099888739357
 10
133.163275791362
 20
-164.099888739357
 10
132.9855088643231
 20
-164.099888739357
 10
132.9303873365591
 20
-164.2156439476614
 10
132.9303873365591
 20
-164.3127956403454
 10
132.9303873365591
 20
-164.5463731142454
 10
133.163275791362
 20
-164.5536078147644
 10
133.2349337774552
 20
-164.5573974197981
 10
133.2349337774552
 20
-164.5573974197981
 10
133.2349337774552
 20
-164.7368868945797
 10
133.2349337774552
 20
-164.7368868945797
 10
133.1102213208891
 20
-164.7293076845121
 10
132.7336723843513
 20
-164.7048475065669
 10
132.7336723843513
 20
-164.3014268252441
 10
132.7336723843513
 20
-164.1036783443907
 10
132.860796407757
 20
-163.8904269338538
 10
133.15673010994
 20
-163.8904269338538
 10
133.343109775692
 20
-163.8904269338538
 10
133.4254475577895
 20
-163.9744872636939
 10
133.4867702574269
 20
-164.0623371985677
 10
133.5143310213089
 20
-164.0082491994493
 10
133.5946017461152
 20
-163.8477077498367
 10
133.8719319326779
 20
-163.8477077498367
 10
134.2102403093294
 20
-163.8477077498367
 10
134.377327440364
 20
-164.0661268036015
 10
134.377327440364
 20
-164.3107285830543
 97
        0
 97
        0
 75
     2
 76
     1
 98
        0
  0
ENDBLK
  5
166
330
163
100
AcDbEntity
  8
0
100
AcDbBlockEnd
  0
BLOCK
  5
16D
330
16B
100
AcDbEntity
  8
0
100
AcDbBlockBegin
  2
block 10
 70
     0
 10
0.0
 20
0.0
 30
0.0
  3
block 10
  1

  0
SPLINE
  5
16F
330
16B
100
AcDbEntity
  8
_U+30EC_U+30A4_U+30E4_U+30FC 1
370
     0
100
AcDbSpline
210
0.0
220
0.0
230
1.0
 70
    11
 71
     3
 72
    62
 73
    58
 74
     0
 42
0.0000000001
 43
0.0000000001
 12
1.0
 22
0.0
 32
0.0
 13
1.0
 23
0.0
 33
0.0
 40
0.0
 40
0.0
 40
0.0
 40
0.0
 40
1.0
 40
1.0
 40
1.0
 40
2.0
 40
2.0
 40
2.0
 40
3.0
 40
3.0
 40
3.0
 40
4.0
 40
4.0
 40
4.0
 40
5.0
 40
5.0
 40
5.0
 40
6.0
 40
6.0
 40
6.0
 40
7.0
 40
7.0
 40
7.0
 40
8.0
 40
8.0
 40
8.0
 40
9.0
 40
9.0
 40
9.0
 40
10.0
 40
10.0
 40
10.0
 40
11.0
 40
11.0
 40
11.0
 40
12.0
 40
12.0
 40
12.0
 40
13.0
 40
13.0
 40
13.0
 40
14.0
 40
14.0
 40
14.0
 40
15.0
 40
15.0
 40
15.0
 40
16.0
 40
16.0
 40
16.0
 40
17.0
 40
17.0
 40
17.0
 40
18.0
 40
18.0
 40
18.0
 40
19.0
 40
19.0
 40
19.0
 40
19.0
 10
134.3793944976552
 20
-142.7864610103103
 30
0.0
 10
134.3793944976552
 20
-142.8705213401504
 30
0.0
 10
134.3583794151951
 20
-143.0631021777759
 30
0.0
 10
134.1723442589916
 20
-143.1733452333039
 30
0.0
 10
134.0600341461725
 20
-143.2388020475236
 30
0.0
 10
133.9608153961973
 20
-143.2422471430089
 30
0.0
 10
133.8760660472602
 20
-143.2460367480427
 30
0.0
 10
133.8760660472602
 20
-143.2460367480427
 30
0.0
 10
133.8760660472602
 20
-143.0517333626746
 30
0.0
 10
133.8760660472602
 20
-143.0517333626746
 30
0.0
 10
133.950135600193
 20
-143.0500108149319
 30
0.0
 10
134.1847466027385
 20
-143.0407090571218
 30
0.0
 10
134.1847466027385
 20
-142.7902506153441
 30
0.0
 10
134.1847466027385
 20
-142.6689832542633
 30
0.0
 10
134.1151556739365
 20
-142.53428002079
 30
0.0
 10
133.8867458432644
 20
-142.53428002079
 30
0.0
 10
133.770301615863
 20
-142.53428002079
 30
0.0
 10
133.721725769521
 20
-142.5680419565455
 30
0.0
 10
133.6900308910567
 20
-142.595947229976
 30
0.0
 10
133.6159613381238
 20
-142.6614040441958
 30
0.0
 10
133.6032144848284
 20
-142.7640678896562
 30
0.0
 10
133.6032144848284
 20
-142.8126437359982
 30
0.0
 10
133.6032144848284
 20
-142.829524703876
 30
0.0
 10
133.6052815421195
 20
-142.8612195823403
 30
0.0
 10
133.6094156567018
 20
-142.8856797602855
 30
0.0
 10
133.6094156567018
 20
-142.8856797602855
 30
0.0
 10
133.4147677617852
 20
-142.8856797602855
 30
0.0
 10
133.4147677617852
 20
-142.8856797602855
 30
0.0
 10
133.4213134432072
 20
-142.8519178245301
 30
0.0
 10
133.4233805004983
 20
-142.8147107932894
 30
0.0
 10
133.4233805004983
 20
-142.8088541309644
 30
0.0
 10
133.4233805004983
 20
-142.7509765268123
 30
0.0
 10
133.4020209084898
 20
-142.575621166613
 30
0.0
 10
133.1653428486531
 20
-142.575621166613
 30
0.0
 10
132.9875759216142
 20
-142.575621166613
 30
0.0
 10
132.9324543938502
 20
-142.6913763749174
 30
0.0
 10
132.9324543938502
 20
-142.7885280676015
 30
0.0
 10
132.9324543938502
 20
-143.0221055415014
 30
0.0
 10
133.1653428486531
 20
-143.0293402420205
 30
0.0
 10
133.2370008347463
 20
-143.0331298470542
 30
0.0
 10
133.2370008347463
 20
-143.0331298470542
 30
0.0
 10
133.2370008347463
 20
-143.2126193218357
 30
0.0
 10
133.2370008347463
 20
-143.2126193218357
 30
0.0
 10
133.1122883781803
 20
-143.2050401117682
 30
0.0
 10
132.7357394416425
 20
-143.1805799338229
 30
0.0
 10
132.7357394416425
 20
-142.7771592525002
 30
0.0
 10
132.7357394416425
 20
-142.5794107716468
 30
0.0
 10
132.8628634650482
 20
-142.3661593611099
 30
0.0
 10
133.1587971672311
 20
-142.3661593611099
 30
0.0
 10
133.3451768329832
 20
-142.3661593611099
 30
0.0
 10
133.4275146150806
 20
-142.45021969095
 30
0.0
 10
133.4888373147181
 20
-142.5380696258238
 30
0.0
 10
133.5163980786001
 20
-142.4839816267054
 30
0.0
 10
133.5966688034064
 20
-142.3234401770927
 30
0.0
 10
133.873998989969
 20
-142.3234401770927
 30
0.0
 10
134.2123073666205
 20
-142.3234401770927
 30
0.0
 10
134.3793944976552
 20
-142.5418592308576
 30
0.0
 10
134.3793944976552
 20
-142.7864610103103
 30
0.0
  0
HATCH
  5
170
330
16B
100
AcDbEntity
  8
_U+30EC_U+30A4_U+30E4_U+30FC 1
 62
   179
420
  2234388
100
AcDbHatch
 10
0.0
 20
0.0
 30
0.0
210
0.0
220
0.0
230
1.0
  2
SOLID
 70
     1
 71
     0
 91
        1
 92
        1
 93
        1
 72
     4
 94
        3
 73
     0
 74
     1
 95
       62
 96
       58
 40
0.0
 40
0.0
 40
0.0
 40
0.0
 40
1.0
 40
1.0
 40
1.0
 40
2.0
 40
2.0
 40
2.0
 40
3.0
 40
3.0
 40
3.0
 40
4.0
 40
4.0
 40
4.0
 40
5.0
 40
5.0
 40
5.0
 40
6.0
 40
6.0
 40
6.0
 40
7.0
 40
7.0
 40
7.0
 40
8.0
 40
8.0
 40
8.0
 40
9.0
 40
9.0
 40
9.0
 40
10.0
 40
10.0
 40
10.0
 40
11.0
 40
11.0
 40
11.0
 40
12.0
 40
12.0
 40
12.0
 40
13.0
 40
13.0
 40
13.0
 40
14.0
 40
14.0
 40
14.0
 40
15.0
 40
15.0
 40
15.0
 40
16.0
 40
16.0
 40
16.0
 40
17.0
 40
17.0
 40
17.0
 40
18.0
 40
18.0
 40
18.0
 40
19.0
 40
19.0
 40
19.0
 40
19.0
 10
134.3793944976552
 20
-142.7864610103103
 10
134.3793944976552
 20
-142.8705213401504
 10
134.3583794151951
 20
-143.0631021777759
 10
134.1723442589916
 20
-143.1733452333039
 10
134.0600341461725
 20
-143.2388020475236
 10
133.9608153961973
 20
-143.2422471430089
 10
133.8760660472602
 20
-143.2460367480427
 10
133.8760660472602
 20
-143.2460367480427
 10
133.8760660472602
 20
-143.0517333626746
 10
133.8760660472602
 20
-143.0517333626746
 10
133.950135600193
 20
-143.0500108149319
 10
134.1847466027385
 20
-143.0407090571218
 10
134.1847466027385
 20
-142.7902506153441
 10
134.1847466027385
 20
-142.6689832542633
 10
134.1151556739365
 20
-142.53428002079
 10
133.8867458432644
 20
-142.53428002079
 10
133.770301615863
 20
-142.53428002079
 10
133.721725769521
 20
-142.5680419565455
 10
133.6900308910567
 20
-142.595947229976
 10
133.6159613381238
 20
-142.6614040441958
 10
133.6032144848284
 20
-142.7640678896562
 10
133.6032144848284
 20
-142.8126437359982
 10
133.6032144848284
 20
-142.829524703876
 10
133.6052815421195
 20
-142.8612195823403
 10
133.6094156567018
 20
-142.8856797602855
 10
133.6094156567018
 20
-142.8856797602855
 10
133.4147677617852
 20
-142.8856797602855
 10
133.4147677617852
 20
-142.8856797602855
 10
133.4213134432072
 20
-142.8519178245301
 10
133.4233805004983
 20
-142.8147107932894
 10
133.4233805004983
 20
-142.8088541309644
 10
133.4233805004983
 20
-142.7509765268123
 10
133.4020209084898
 20
-142.575621166613
 10
133.1653428486531
 20
-142.575621166613
 10
132.9875759216142
 20
-142.575621166613
 10
132.9324543938502
 20
-142.6913763749174
 10
132.9324543938502
 20
-142.7885280676015
 10
132.9324543938502
 20
-143.0221055415014
 10
133.1653428486531
 20
-143.0293402420205
 10
133.2370008347463
 20
-143.0331298470542
 10
133.2370008347463
 20
-143.0331298470542
 10
133.2370008347463
 20
-143.2126193218357
 10
133.2370008347463
 20
-143.2126193218357
 10
133.1122883781803
 20
-143.2050401117682
 10
132.7357394416425
 20
-143.1805799338229
 10
132.7357394416425
 20
-142.7771592525002
 10
132.7357394416425
 20
-142.5794107716468
 10
132.8628634650482
 20
-142.3661593611099
 10
133.1587971672311
 20
-142.3661593611099
 10
133.3451768329832
 20
-142.3661593611099
 10
133.4275146150806
 20
-142.45021969095
 10
133.4888373147181
 20
-142.5380696258238
 10
133.5163980786001
 20
-142.4839816267054
 10
133.5966688034064
 20
-142.3234401770927
 10
133.873998989969
 20
-142.3234401770927
 10
134.2123073666205
 20
-142.3234401770927
 10
134.3793944976552
 20
-142.5418592308576
 10
134.3793944976552
 20
-142.7864610103103
 97
        0
 97
        0
 75
     2
 76
     1
 98
        0
  0
SPLINE
  5
171
330
16B
100
AcDbEntity
  8
_U+30EC_U+30A4_U+30E4_U+30FC 1
370
     0
100
AcDbSpline
210
0.0
220
0.0
230
1.0
 70
    11
 71
     3
 72
    44
 73
    40
 74
     0
 42
0.0000000001
 43
0.0000000001
 12
1.0
 22
0.0
 32
0.0
 13
1.0
 23
0.0
 33
0.0
 40
0.0
 40
0.0
 40
0.0
 40
0.0
 40
1.0
 40
1.0
 40
1.0
 40
2.0
 40
2.0
 40
2.0
 40
3.0
 40
3.0
 40
3.0
 40
4.0
 40
4.0
 40
4.0
 40
5.0
 40
5.0
 40
5.0
 40
6.0
 40
6.0
 40
6.0
 40
7.0
 40
7.0
 40
7.0
 40
8.0
 40
8.0
 40
8.0
 40
9.0
 40
9.0
 40
9.0
 40
10.0
 40
10.0
 40
10.0
 40
11.0
 40
11.0
 40
11.0
 40
12.0
 40
12.0
 40
12.0
 40
13.0
 40
13.0
 40
13.0
 40
13.0
 10
133.7468749665633
 20
-141.6571587102454
 30
0.0
 10
133.9056938684333
 20
-141.8497395478709
 30
0.0
 10
133.9797634213662
 20
-141.9317328204199
 30
0.0
 10
134.1234239031011
 20
-141.9747965139855
 30
0.0
 10
134.1234239031011
 20
-141.9747965139855
 30
0.0
 10
134.1234239031011
 20
-141.2874999646781
 30
0.0
 10
134.1234239031011
 20
-141.2874999646781
 30
0.0
 10
134.1234239031011
 20
-141.2874999646781
 30
0.0
 10
134.328751594022
 20
-141.2874999646781
 30
0.0
 10
134.328751594022
 20
-141.2874999646781
 30
0.0
 10
134.328751594022
 20
-141.2874999646781
 30
0.0
 10
134.328751594022
 20
-142.1952826250415
 30
0.0
 10
134.328751594022
 20
-142.1952826250415
 30
0.0
 10
133.971150682653
 20
-142.1670328420624
 30
0.0
 10
133.8929470151379
 20
-142.1091552379102
 30
0.0
 10
133.5946017461152
 20
-141.769124313516
 30
0.0
 10
133.3958197366163
 20
-141.5431260496837
 30
0.0
 10
133.3279513555569
 20
-141.4852484455315
 30
0.0
 10
133.1904920456954
 20
-141.4852484455315
 30
0.0
 10
133.0719807610028
 20
-141.4852484455315
 30
0.0
 10
132.9410671325633
 20
-141.5489827120086
 30
0.0
 10
132.9410671325633
 20
-141.7226155244652
 30
0.0
 10
132.9410671325633
 20
-141.9524033933313
 30
0.0
 10
133.1715440205266
 20
-141.9599826033989
 30
0.0
 10
133.287988247928
 20
-141.9634276988841
 30
0.0
 10
133.287988247928
 20
-141.9634276988841
 30
0.0
 10
133.287988247928
 20
-142.161520689286
 30
0.0
 10
133.287988247928
 20
-142.161520689286
 30
0.0
 10
133.1608642245223
 20
-142.1539414792185
 30
0.0
 10
133.0488986212517
 20
-142.1446397214083
 30
0.0
 10
132.9303873365591
 20
-142.0736707544121
 30
0.0
 10
132.7695013773979
 20
-141.9765190617281
 30
0.0
 10
132.7357394416425
 20
-141.8121880070817
 30
0.0
 10
132.7357394416425
 20
-141.7095241616212
 30
0.0
 10
132.7357394416425
 20
-141.4649223821685
 30
0.0
 10
132.9197075405548
 20
-141.2816433023532
 30
0.0
 10
133.1925591029866
 20
-141.2816433023532
 30
0.0
 10
133.4213134432072
 20
-141.2816433023532
 30
0.0
 10
133.5205321931824
 20
-141.3846516573622
 30
0.0
 10
133.7468749665633
 20
-141.6571587102454
 30
0.0
  0
HATCH
  5
172
330
16B
100
AcDbEntity
  8
_U+30EC_U+30A4_U+30E4_U+30FC 1
 62
   179
420
  2234388
100
AcDbHatch
 10
0.0
 20
0.0
 30
0.0
210
0.0
220
0.0
230
1.0
  2
SOLID
 70
     1
 71
     0
 91
        1
 92
        1
 93
        1
 72
     4
 94
        3
 73
     0
 74
     1
 95
       44
 96
       40
 40
0.0
 40
0.0
 40
0.0
 40
0.0
 40
1.0
 40
1.0
 40
1.0
 40
2.0
 40
2.0
 40
2.0
 40
3.0
 40
3.0
 40
3.0
 40
4.0
 40
4.0
 40
4.0
 40
5.0
 40
5.0
 40
5.0
 40
6.0
 40
6.0
 40
6.0
 40
7.0
 40
7.0
 40
7.0
 40
8.0
 40
8.0
 40
8.0
 40
9.0
 40
9.0
 40
9.0
 40
10.0
 40
10.0
 40
10.0
 40
11.0
 40
11.0
 40
11.0
 40
12.0
 40
12.0
 40
12.0
 40
13.0
 40
13.0
 40
13.0
 40
13.0
 10
133.7468749665633
 20
-141.6571587102454
 10
133.9056938684333
 20
-141.8497395478709
 10
133.9797634213662
 20
-141.9317328204199
 10
134.1234239031011
 20
-141.9747965139855
 10
134.1234239031011
 20
-141.9747965139855
 10
134.1234239031011
 20
-141.2874999646781
 10
134.1234239031011
 20
-141.2874999646781
 10
134.1234239031011
 20
-141.2874999646781
 10
134.328751594022
 20
-141.2874999646781
 10
134.328751594022
 20
-141.2874999646781
 10
134.328751594022
 20
-141.2874999646781
 10
134.328751594022
 20
-142.1952826250415
 10
134.328751594022
 20
-142.1952826250415
 10
133.971150682653
 20
-142.1670328420624
 10
133.8929470151379
 20
-142.1091552379102
 10
133.5946017461152
 20
-141.769124313516
 10
133.3958197366163
 20
-141.5431260496837
 10
133.3279513555569
 20
-141.4852484455315
 10
133.1904920456954
 20
-141.4852484455315
 10
133.0719807610028
 20
-141.4852484455315
 10
132.9410671325633
 20
-141.5489827120086
 10
132.9410671325633
 20
-141.7226155244652
 10
132.9410671325633
 20
-141.9524033933313
 10
133.1715440205266
 20
-141.9599826033989
 10
133.287988247928
 20
-141.9634276988841
 10
133.287988247928
 20
-141.9634276988841
 10
133.287988247928
 20
-142.161520689286
 10
133.287988247928
 20
-142.161520689286
 10
133.1608642245223
 20
-142.1539414792185
 10
133.0488986212517
 20
-142.1446397214083
 10
132.9303873365591
 20
-142.0736707544121
 10
132.7695013773979
 20
-141.9765190617281
 10
132.7357394416425
 20
-141.8121880070817
 10
132.7357394416425
 20
-141.7095241616212
 10
132.7357394416425
 20
-141.4649223821685
 10
132.9197075405548
 20
-141.2816433023532
 10
133.1925591029866
 20
-141.2816433023532
 10
133.4213134432072
 20
-141.2816433023532
 10
133.5205321931824
 20
-141.3846516573622
 10
133.7468749665633
 20
-141.6571587102454
 97
        0
 97
        0
 75
     2
 76
     1
 98
        0
  0
POLYLINE
  5
173
330
16B
100
AcDbEntity
  8
_U+30EC_U+30A4_U+30E4_U+30FC 1
370
     0
100
AcDb2dPolyline
 66
     1
 10
0.0
 20
0.0
 30
0.0
  0
VERTEX
  5
174
330
173
100
AcDbEntity
  8
_U+30EC_U+30A4_U+30E4_U+30FC 1
370
     0
100
AcDbVertex
100
AcDb2dVertex
 10
134.328751594022
 20
-141.0880289360822
 30
0.0
  0
VERTEX
  5
175
330
173
100
AcDbEntity
  8
_U+30EC_U+30A4_U+30E4_U+30FC 1
370
     0
100
AcDbVertex
100
AcDb2dVertex
 10
134.0769151140502
 20
-141.0880289360822
 30
0.0
  0
VERTEX
  5
176
330
173
100
AcDbEntity
  8
_U+30EC_U+30A4_U+30E4_U+30FC 1
370
     0
100
AcDbVertex
100
AcDb2dVertex
 10
134.0769151140502
 20
-140.8658202772835
 30
0.0
  0
VERTEX
  5
177
330
173
100
AcDbEntity
  8
_U+30EC_U+30A4_U+30E4_U+30FC 1
370
     0
100
AcDbVertex
100
AcDb2dVertex
 10
134.328751594022
 20
-140.8658202772835
 30
0.0
  0
VERTEX
  5
178
330
173
100
AcDbEntity
  8
_U+30EC_U+30A4_U+30E4_U+30FC 1
370
     0
100
AcDbVertex
100
AcDb2dVertex
 10
134.328751594022
 20
-141.0880289360822
 30
0.0
  0
SEQEND
  5
179
330
173
100
AcDbEntity
  8
_U+30EC_U+30A4_U+30E4_U+30FC 1
370
     0
  0
HATCH
  5
17A
330
16B
100
AcDbEntity
  8
_U+30EC_U+30A4_U+30E4_U+30FC 1
 62
   179
420
  2234388
100
AcDbHatch
 10
0.0
 20
0.0
 30
0.0
210
0.0
220
0.0
230
1.0
  2
SOLID
 70
     1
 71
     0
 91
        1
 92
        1
 93
        4
 72
     1
 10
134.328751594022
 20
-141.0880289360822
 11
134.0769151140502
 21
-141.0880289360822
 72
     1
 10
134.0769151140502
 20
-141.0880289360822
 11
134.0769151140502
 21
-140.8658202772835
 72
     1
 10
134.0769151140502
 20
-140.8658202772835
 11
134.328751594022
 21
-140.8658202772835
 72
     1
 10
134.328751594022
 20
-140.8658202772835
 11
134.328751594022
 21
-141.0880289360822
 97
        0
 75
     2
 76
     1
 98
        0
  0
SPLINE
  5
17B
330
16B
100
AcDbEntity
  8
_U+30EC_U+30A4_U+30E4_U+30FC 1
370
     0
100
AcDbSpline
210
0.0
220
0.0
230
1.0
 70
    11
 71
     3
 72
    62
 73
    58
 74
     0
 42
0.0000000001
 43
0.0000000001
 12
1.0
 22
0.0
 32
0.0
 13
1.0
 23
0.0
 33
0.0
 40
0.0
 40
0.0
 40
0.0
 40
0.0
 40
1.0
 40
1.0
 40
1.0
 40
2.0
 40
2.0
 40
2.0
 40
3.0
 40
3.0
 40
3.0
 40
4.0
 40
4.0
 40
4.0
 40
5.0
 40
5.0
 40
5.0
 40
6.0
 40
6.0
 40
6.0
 40
7.0
 40
7.0
 40
7.0
 40
8.0
 40
8.0
 40
8.0
 40
9.0
 40
9.0
 40
9.0
 40
10.0
 40
10.0
 40
10.0
 40
11.0
 40
11.0
 40
11.0
 40
12.0
 40
12.0
 40
12.0
 40
13.0
 40
13.0
 40
13.0
 40
14.0
 40
14.0
 40
14.0
 40
15.0
 40
15.0
 40
15.0
 40
16.0
 40
16.0
 40
16.0
 40
17.0
 40
17.0
 40
17.0
 40
18.0
 40
18.0
 40
18.0
 40
19.0
 40
19.0
 40
19.0
 40
19.0
 10
134.3793944976552
 20
-140.2226209501874
 30
0.0
 10
134.3793944976552
 20
-140.3066812800275
 30
0.0
 10
134.3583794151951
 20
-140.499262117653
 30
0.0
 10
134.1723442589916
 20
-140.609505173181
 30
0.0
 10
134.0600341461725
 20
-140.6749619874007
 30
0.0
 10
133.9608153961973
 20
-140.678407082886
 30
0.0
 10
133.8760660472602
 20
-140.6821966879197
 30
0.0
 10
133.8760660472602
 20
-140.6821966879197
 30
0.0
 10
133.8760660472602
 20
-140.4878933025516
 30
0.0
 10
133.8760660472602
 20
-140.4878933025516
 30
0.0
 10
133.950135600193
 20
-140.486170754809
 30
0.0
 10
134.1847466027385
 20
-140.4768689969988
 30
0.0
 10
134.1847466027385
 20
-140.2264105552212
 30
0.0
 10
134.1847466027385
 20
-140.1051431941404
 30
0.0
 10
134.1151556739365
 20
-139.9704399606671
 30
0.0
 10
133.8867458432644
 20
-139.9704399606671
 30
0.0
 10
133.770301615863
 20
-139.9704399606671
 30
0.0
 10
133.721725769521
 20
-140.0042018964226
 30
0.0
 10
133.6900308910567
 20
-140.0321071698531
 30
0.0
 10
133.6159613381238
 20
-140.0975639840728
 30
0.0
 10
133.6032144848284
 20
-140.2002278295333
 30
0.0
 10
133.6032144848284
 20
-140.2488036758753
 30
0.0
 10
133.6032144848284
 20
-140.265684643753
 30
0.0
 10
133.6052815421195
 20
-140.2973795222173
 30
0.0
 10
133.6094156567018
 20
-140.3218397001626
 30
0.0
 10
133.6094156567018
 20
-140.3218397001626
 30
0.0
 10
133.4147677617852
 20
-140.3218397001626
 30
0.0
 10
133.4147677617852
 20
-140.3218397001626
 30
0.0
 10
133.4213134432072
 20
-140.2880777644071
 30
0.0
 10
133.4233805004983
 20
-140.2508707331665
 30
0.0
 10
133.4233805004983
 20
-140.2450140708415
 30
0.0
 10
133.4233805004983
 20
-140.1871364666893
 30
0.0
 10
133.4020209084898
 20
-140.0117811064901
 30
0.0
 10
133.1653428486531
 20
-140.0117811064901
 30
0.0
 10
132.9875759216142
 20
-140.0117811064901
 30
0.0
 10
132.9324543938502
 20
-140.1275363147945
 30
0.0
 10
132.9324543938502
 20
-140.2246880074786
 30
0.0
 10
132.9324543938502
 20
-140.4582654813785
 30
0.0
 10
133.1653428486531
 20
-140.4655001818975
 30
0.0
 10
133.2370008347463
 20
-140.4692897869313
 30
0.0
 10
133.2370008347463
 20
-140.4692897869313
 30
0.0
 10
133.2370008347463
 20
-140.6487792617128
 30
0.0
 10
133.2370008347463
 20
-140.6487792617128
 30
0.0
 10
133.1122883781803
 20
-140.6412000516453
 30
0.0
 10
132.7357394416425
 20
-140.6167398737
 30
0.0
 10
132.7357394416425
 20
-140.2133191923772
 30
0.0
 10
132.7357394416425
 20
-140.0155707115239
 30
0.0
 10
132.8628634650482
 20
-139.8023193009869
 30
0.0
 10
133.1587971672311
 20
-139.8023193009869
 30
0.0
 10
133.3451768329832
 20
-139.8023193009869
 30
0.0
 10
133.4275146150806
 20
-139.886379630827
 30
0.0
 10
133.4888373147181
 20
-139.9742295657009
 30
0.0
 10
133.5163980786001
 20
-139.9201415665825
 30
0.0
 10
133.5966688034064
 20
-139.7596001169698
 30
0.0
 10
133.873998989969
 20
-139.7596001169698
 30
0.0
 10
134.2123073666205
 20
-139.7596001169698
 30
0.0
 10
134.3793944976552
 20
-139.9780191707347
 30
0.0
 10
134.3793944976552
 20
-140.2226209501874
 30
0.0
  0
HATCH
  5
17C
330
16B
100
AcDbEntity
  8
_U+30EC_U+30A4_U+30E4_U+30FC 1
 62
   179
420
  2234388
100
AcDbHatch
 10
0.0
 20
0.0
 30
0.0
210
0.0
220
0.0
230
1.0
  2
SOLID
 70
     1
 71
     0
 91
        1
 92
        1
 93
        1
 72
     4
 94
        3
 73
     0
 74
     1
 95
       62
 96
       58
 40
0.0
 40
0.0
 40
0.0
 40
0.0
 40
1.0
 40
1.0
 40
1.0
 40
2.0
 40
2.0
 40
2.0
 40
3.0
 40
3.0
 40
3.0
 40
4.0
 40
4.0
 40
4.0
 40
5.0
 40
5.0
 40
5.0
 40
6.0
 40
6.0
 40
6.0
 40
7.0
 40
7.0
 40
7.0
 40
8.0
 40
8.0
 40
8.0
 40
9.0
 40
9.0
 40
9.0
 40
10.0
 40
10.0
 40
10.0
 40
11.0
 40
11.0
 40
11.0
 40
12.0
 40
12.0
 40
12.0
 40
13.0
 40
13.0
 40
13.0
 40
14.0
 40
14.0
 40
14.0
 40
15.0
 40
15.0
 40
15.0
 40
16.0
 40
16.0
 40
16.0
 40
17.0
 40
17.0
 40
17.0
 40
18.0
 40
18.0
 40
18.0
 40
19.0
 40
19.0
 40
19.0
 40
19.0
 10
134.3793944976552
 20
-140.2226209501874
 10
134.3793944976552
 20
-140.3066812800275
 10
134.3583794151951
 20
-140.499262117653
 10
134.1723442589916
 20
-140.609505173181
 10
134.0600341461725
 20
-140.6749619874007
 10
133.9608153961973
 20
-140.678407082886
 10
133.8760660472602
 20
-140.6821966879197
 10
133.8760660472602
 20
-140.6821966879197
 10
133.8760660472602
 20
-140.4878933025516
 10
133.8760660472602
 20
-140.4878933025516
 10
133.950135600193
 20
-140.486170754809
 10
134.1847466027385
 20
-140.4768689969988
 10
134.1847466027385
 20
-140.2264105552212
 10
134.1847466027385
 20
-140.1051431941404
 10
134.1151556739365
 20
-139.9704399606671
 10
133.8867458432644
 20
-139.9704399606671
 10
133.770301615863
 20
-139.9704399606671
 10
133.721725769521
 20
-140.0042018964226
 10
133.6900308910567
 20
-140.0321071698531
 10
133.6159613381238
 20
-140.0975639840728
 10
133.6032144848284
 20
-140.2002278295333
 10
133.6032144848284
 20
-140.2488036758753
 10
133.6032144848284
 20
-140.265684643753
 10
133.6052815421195
 20
-140.2973795222173
 10
133.6094156567018
 20
-140.3218397001626
 10
133.6094156567018
 20
-140.3218397001626
 10
133.4147677617852
 20
-140.3218397001626
 10
133.4147677617852
 20
-140.3218397001626
 10
133.4213134432072
 20
-140.2880777644071
 10
133.4233805004983
 20
-140.2508707331665
 10
133.4233805004983
 20
-140.2450140708415
 10
133.4233805004983
 20
-140.1871364666893
 10
133.4020209084898
 20
-140.0117811064901
 10
133.1653428486531
 20
-140.0117811064901
 10
132.9875759216142
 20
-140.0117811064901
 10
132.9324543938502
 20
-140.1275363147945
 10
132.9324543938502
 20
-140.2246880074786
 10
132.9324543938502
 20
-140.4582654813785
 10
133.1653428486531
 20
-140.4655001818975
 10
133.2370008347463
 20
-140.4692897869313
 10
133.2370008347463
 20
-140.4692897869313
 10
133.2370008347463
 20
-140.6487792617128
 10
133.2370008347463
 20
-140.6487792617128
 10
133.1122883781803
 20
-140.6412000516453
 10
132.7357394416425
 20
-140.6167398737
 10
132.7357394416425
 20
-140.2133191923772
 10
132.7357394416425
 20
-140.0155707115239
 10
132.8628634650482
 20
-139.8023193009869
 10
133.1587971672311
 20
-139.8023193009869
 10
133.3451768329832
 20
-139.8023193009869
 10
133.4275146150806
 20
-139.886379630827
 10
133.4888373147181
 20
-139.9742295657009
 10
133.5163980786001
 20
-139.9201415665825
 10
133.5966688034064
 20
-139.7596001169698
 10
133.873998989969
 20
-139.7596001169698
 10
134.2123073666205
 20
-139.7596001169698
 10
134.3793944976552
 20
-139.9780191707347
 10
134.3793944976552
 20
-140.2226209501874
 97
        0
 97
        0
 75
     2
 76
     1
 98
        0
  0
ENDBLK
  5
16E
330
16B
100
AcDbEntity
  8
0
100
AcDbBlockEnd
  0
ENDSEC
  0
SECTION
  2
ENTITIES
  0
POLYLINE
  5
41
330
1F
100
AcDbEntity
  8
_U+30EC_U+30A4_U+30E4_U+30FC 1
370
     0
100
AcDb2dPolyline
 66
     1
 10
0.0
 20
0.0
 30
0.0
  0
VERTEX
  5
42
330
41
100
AcDbEntity
  8
_U+30EC_U+30A4_U+30E4_U+30FC 1
370
     0
100
AcDbVertex
100
AcDb2dVertex
 10
84.47334295916053
 20
-146.0142678637514
 30
0.0
  0
VERTEX
  5
43
330
41
100
AcDbEntity
  8
_U+30EC_U+30A4_U+30E4_U+30FC 1
370
     0
100
AcDbVertex
100
AcDb2dVertex
 10
82.164052391704
 20
-146.0142678637514
 30
0.0
  0
VERTEX
  5
44
330
41
100
AcDbEntity
  8
_U+30EC_U+30A4_U+30E4_U+30FC 1
370
     0
100
AcDbVertex
100
AcDb2dVertex
 10
82.164052391704
 20
-157.1380613146109
 30
0.0
  0
VERTEX
  5
45
330
41
100
AcDbEntity
  8
_U+30EC_U+30A4_U+30E4_U+30FC 1
370
     0
100
AcDbVertex
100
AcDb2dVertex
 10
97.7003887356118
 20
-157.1380613146109
 30
0.0
  0
VERTEX
  5
46
330
41
100
AcDbEntity
  8
_U+30EC_U+30A4_U+30E4_U+30FC 1
370
     0
100
AcDbVertex
100
AcDb2dVertex
 10
97.7003887356118
 20
-124.8218491136242
 30
0.0
  0
VERTEX
  5
47
330
41
100
AcDbEntity
  8
_U+30EC_U+30A4_U+30E4_U+30FC 1
370
     0
100
AcDbVertex
100
AcDb2dVertex
 10
98.90018630204362
 20
-124.8218491136242
 30
0.0
  0
VERTEX
  5
48
330
41
100
AcDbEntity
  8
_U+30EC_U+30A4_U+30E4_U+30FC 1
370
     0
100
AcDbVertex
100
AcDb2dVertex
 10
98.90018630204362
 20
-157.1384165900828
 30
0.0
  0
VERTEX
  5
49
330
41
100
AcDbEntity
  8
_U+30EC_U+30A4_U+30E4_U+30FC 1
370
     0
100
AcDbVertex
100
AcDb2dVertex
 10
130.7002801356463
 20
-157.1225368530805
 30
0.0
  0
VERTEX
  5
4A
330
41
100
AcDbEntity
  8
_U+30EC_U+30A4_U+30E4_U+30FC 1
370
     0
100
AcDbVertex
100
AcDb2dVertex
 10
130.7002801356463
 20
-158.3226896949842
 30
0.0
  0
VERTEX
  5
4B
330
41
100
AcDbEntity
  8
_U+30EC_U+30A4_U+30E4_U+30FC 1
370
     0
100
AcDbVertex
100
AcDb2dVertex
 10
82.16581800314019
 20
-158.3226896949842
 30
0.0
  0
VERTEX
  5
4C
330
41
100
AcDbEntity
  8
_U+30EC_U+30A4_U+30E4_U+30FC 1
370
     0
100
AcDbVertex
100
AcDb2dVertex
 10
82.16581800314019
 20
-173.6064359442829
 30
0.0
  0
VERTEX
  5
4D
330
41
100
AcDbEntity
  8
_U+30EC_U+30A4_U+30E4_U+30FC 1
370
     0
100
AcDbVertex
100
AcDb2dVertex
 10
87.27474388483822
 20
-173.6064359442829
 30
0.0
  0
VERTEX
  5
4E
330
41
100
AcDbEntity
  8
_U+30EC_U+30A4_U+30E4_U+30FC 1
370
     0
100
AcDbVertex
100
AcDb2dVertex
 10
87.27474388483822
 20
-171.3228974655786
 30
0.0
  0
VERTEX
  5
4F
330
41
100
AcDbEntity
  8
_U+30EC_U+30A4_U+30E4_U+30FC 1
370
     0
100
AcDbVertex
100
AcDb2dVertex
 10
88.47277583983384
 20
-171.3228974655786
 30
0.0
  0
VERTEX
  5
50
330
41
100
AcDbEntity
  8
_U+30EC_U+30A4_U+30E4_U+30FC 1
370
     0
100
AcDbVertex
100
AcDb2dVertex
 10
88.47277583983384
 20
-174.8228130327375
 30
0.0
  0
VERTEX
  5
51
330
41
100
AcDbEntity
  8
_U+30EC_U+30A4_U+30E4_U+30FC 1
370
     0
100
AcDbVertex
100
AcDb2dVertex
 10
80.97342739200165
 20
-174.8228130327375
 30
0.0
  0
VERTEX
  5
52
330
41
100
AcDbEntity
  8
_U+30EC_U+30A4_U+30E4_U+30FC 1
370
     0
100
AcDbVertex
100
AcDb2dVertex
 10
80.97342739200165
 20
-144.8225878035567
 30
0.0
  0
VERTEX
  5
53
330
41
100
AcDbEntity
  8
_U+30EC_U+30A4_U+30E4_U+30FC 1
370
     0
100
AcDbVertex
100
AcDb2dVertex
 10
84.47334295916053
 20
-144.8225878035567
 30
0.0
  0
VERTEX
  5
54
330
41
100
AcDbEntity
  8
_U+30EC_U+30A4_U+30E4_U+30FC 1
370
     0
100
AcDbVertex
100
AcDb2dVertex
 10
84.47334295916053
 20
-146.0142678637514
 30
0.0
  0
SEQEND
  5
56
330
41
100
AcDbEntity
  8
_U+30EC_U+30A4_U+30E4_U+30FC 1
370
     0
  0
HATCH
  5
55
330
1F
100
AcDbEntity
  8
_U+30EC_U+30A4_U+30E4_U+30FC 1
 62
     9
420
 13224394
100
AcDbHatch
 10
0.0
 20
0.0
 30
0.0
210
0.0
220
0.0
230
1.0
  2
SOLID
 70
     1
 71
     0
 91
        1
 92
        1
 93
       18
 72
     1
 10
84.47334295916053
 20
-146.0142678637514
 11
82.164052391704
 21
-146.0142678637514
 72
     1
 10
82.164052391704
 20
-146.0142678637514
 11
82.164052391704
 21
-157.1380613146109
 72
     1
 10
82.164052391704
 20
-157.1380613146109
 11
97.7003887356118
 21
-157.1380613146109
 72
     1
 10
97.7003887356118
 20
-157.1380613146109
 11
97.7003887356118
 21
-124.8218491136242
 72
     1
 10
97.7003887356118
 20
-124.8218491136242
 11
98.90018630204362
 21
-124.8218491136242
 72
     1
 10
98.90018630204362
 20
-124.8218491136242
 11
98.90018630204362
 21
-157.1384165900828
 72
     1
 10
98.90018630204362
 20
-157.1384165900828
 11
130.7002801356463
 21
-157.1225368530805
 72
     1
 10
130.7002801356463
 20
-157.1225368530805
 11
130.7002801356463
 21
-158.3226896949842
 72
     1
 10
130.7002801356463
 20
-158.3226896949842
 11
82.16581800314019
 21
-158.3226896949842
 72
     1
 10
82.16581800314019
 20
-158.3226896949842
 11
82.16581800314019
 21
-173.6064359442829
 72
     1
 10
82.16581800314019
 20
-173.6064359442829
 11
87.27474388483822
 21
-173.6064359442829
 72
     1
 10
87.27474388483822
 20
-173.6064359442829
 11
87.27474388483822
 21
-171.3228974655786
 72
     1
 10
87.27474388483822
 20
-171.3228974655786
 11
88.47277583983384
 21
-171.3228974655786
 72
     1
 10
88.47277583983384
 20
-171.3228974655786
 11
88.47277583983384
 21
-174.8228130327375
 72
     1
 10
88.47277583983384
 20
-174.8228130327375
 11
80.97342739200165
 21
-174.8228130327375
 72
     1
 10
80.97342739200165
 20
-174.8228130327375
 11
80.97342739200165
 21
-144.8225878035567
 72
     1
 10
80.97342739200165
 20
-144.8225878035567
 11
84.47334295916053
 21
-144.8225878035567
 72
     1
 10
84.47334295916053
 20
-144.8225878035567
 11
84.47334295916053
 21
-146.0142678637514
 97
        0
 75
     2
 76
     1
 98
        0
  0
POLYLINE
  5
57
330
1F
100
AcDbEntity
  8
_U+30EC_U+30A4_U+30E4_U+30FC 1
 62
   179
420
  2234388
370
    25
100
AcDb2dPolyline
 66
     1
 10
0.0
 20
0.0
 30
0.0
  0
VERTEX
  5
58
330
57
100
AcDbEntity
  8
_U+30EC_U+30A4_U+30E4_U+30FC 1
 62
   179
420
  2234388
370
    25
100
AcDbVertex
100
AcDb2dVertex
 10
97.70029184230128
 20
-124.8219244750879
 30
0.0
  0
VERTEX
  5
59
330
57
100
AcDbEntity
  8
_U+30EC_U+30A4_U+30E4_U+30FC 1
 62
   179
420
  2234388
370
    25
100
AcDbVertex
100
AcDb2dVertex
 10
97.70029184230128
 20
-157.1381366760746
 30
0.0
  0
SEQEND
  5
5A
330
57
100
AcDbEntity
  8
_U+30EC_U+30A4_U+30E4_U+30FC 1
 62
   179
420
  2234388
370
    25
  0
POLYLINE
  5
5B
330
1F
100
AcDbEntity
  8
_U+30EC_U+30A4_U+30E4_U+30FC 1
 62
   179
420
  2234388
370
    25
100
AcDb2dPolyline
 66
     1
 10
0.0
 20
0.0
 30
0.0
  0
VERTEX
  5
5C
330
5B
100
AcDbEntity
  8
_U+30EC_U+30A4_U+30E4_U+30FC 1
 62
   179
420
  2234388
370
    25
100
AcDbVertex
100
AcDb2dVertex
 10
98.90022936573719
 20
-124.8219244750879
 30
0.0
  0
VERTEX
  5
5D
330
5B
100
AcDbEntity
  8
_U+30EC_U+30A4_U+30E4_U+30FC 1
 62
   179
420
  2234388
370
    25
100
AcDbVertex
100
AcDb2dVertex
 10
97.70043179930536
 20
-124.8219244750879
 30
0.0
  0
SEQEND
  5
5E
330
5B
100
AcDbEntity
  8
_U+30EC_U+30A4_U+30E4_U+30FC 1
 62
   179
420
  2234388
370
    25
  0
POLYLINE
  5
5F
330
1F
100
AcDbEntity
  8
_U+30EC_U+30A4_U+30E4_U+30FC 1
 62
   179
420
  2234388
370
    25
100
AcDb2dPolyline
 66
     1
 10
0.0
 20
0.0
 30
0.0
  0
VERTEX
  5
60
330
5F
100
AcDbEntity
  8
_U+30EC_U+30A4_U+30E4_U+30FC 1
 62
   179
420
  2234388
370
    25
100
AcDbVertex
100
AcDb2dVertex
 10
98.90022936573719
 20
-124.8219244750879
 30
0.0
  0
VERTEX
  5
61
330
5F
100
AcDbEntity
  8
_U+30EC_U+30A4_U+30E4_U+30FC 1
 62
   179
420
  2234388
370
    25
100
AcDbVertex
100
AcDb2dVertex
 10
98.90022936573719
 20
-157.1384919515465
 30
0.0
  0
VERTEX
  5
62
330
5F
100
AcDbEntity
  8
_U+30EC_U+30A4_U+30E4_U+30FC 1
 62
   179
420
  2234388
370
    25
100
AcDbVertex
100
AcDb2dVertex
 10
130.7003231993399
 20
-157.1226122145442
 30
0.0
  0
VERTEX
  5
63
330
5F
100
AcDbEntity
  8
_U+30EC_U+30A4_U+30E4_U+30FC 1
 62
   179
420
  2234388
370
    25
100
AcDbVertex
100
AcDb2dVertex
 10
130.7003231993399
 20
-158.322409780976
 30
0.0
  0
VERTEX
  5
64
330
5F
100
AcDbEntity
  8
_U+30EC_U+30A4_U+30E4_U+30FC 1
 62
   179
420
  2234388
370
    25
100
AcDbVertex
100
AcDb2dVertex
 10
82.16762667826994
 20
-158.322409780976
 30
0.0
  0
SEQEND
  5
65
330
5F
100
AcDbEntity
  8
_U+30EC_U+30A4_U+30E4_U+30FC 1
 62
   179
420
  2234388
370
    25
  0
POLYLINE
  5
66
330
1F
100
AcDbEntity
  8
_U+30EC_U+30A4_U+30E4_U+30FC 1
 62
   179
420
  2234388
370
    25
100
AcDb2dPolyline
 66
     1
 10
0.0
 20
0.0
 30
0.0
  0
VERTEX
  5
67
330
66
100
AcDbEntity
  8
_U+30EC_U+30A4_U+30E4_U+30FC 1
 62
   179
420
  2234388
370
    25
100
AcDbVertex
100
AcDb2dVertex
 10
88.47292656276133
 20
-171.3229728270423
 30
0.0
  0
VERTEX
  5
68
330
66
100
AcDbEntity
  8
_U+30EC_U+30A4_U+30E4_U+30FC 1
 62
   179
420
  2234388
370
    25
100
AcDbVertex
100
AcDb2dVertex
 10
87.47314908701844
 20
-171.3229728270423
 30
0.0
  0
SEQEND
  5
69
330
66
100
AcDbEntity
  8
_U+30EC_U+30A4_U+30E4_U+30FC 1
 62
   179
420
  2234388
370
    25
  0
POLYLINE
  5
6A
330
1F
100
AcDbEntity
  8
_U+30EC_U+30A4_U+30E4_U+30FC 1
 62
   179
420
  2234388
370
    25
100
AcDb2dPolyline
 66
     1
 10
0.0
 20
0.0
 30
0.0
  0
VERTEX
  5
6B
330
6A
100
AcDbEntity
  8
_U+30EC_U+30A4_U+30E4_U+30FC 1
 62
   179
420
  2234388
370
    25
100
AcDbVertex
100
AcDb2dVertex
 10
88.47292656276133
 20
-174.8228453305076
 30
0.0
  0
VERTEX
  5
6C
330
6A
100
AcDbEntity
  8
_U+30EC_U+30A4_U+30E4_U+30FC 1
 62
   179
420
  2234388
370
    25
100
AcDbVertex
100
AcDb2dVertex
 10
80.97322283945753
 20
-174.8228453305076
 30
0.0
  0
SEQEND
  5
6D
330
6A
100
AcDbEntity
  8
_U+30EC_U+30A4_U+30E4_U+30FC 1
 62
   179
420
  2234388
370
    25
  0
POLYLINE
  5
6E
330
1F
100
AcDbEntity
  8
_U+30EC_U+30A4_U+30E4_U+30FC 1
 62
   179
420
  2234388
370
    25
100
AcDb2dPolyline
 66
     1
 10
0.0
 20
0.0
 30
0.0
  0
VERTEX
  5
6F
330
6E
100
AcDbEntity
  8
_U+30EC_U+30A4_U+30E4_U+30FC 1
 62
   179
420
  2234388
370
    25
100
AcDbVertex
100
AcDb2dVertex
 10
84.47334295916053
 20
-144.8226201013269
 30
0.0
  0
VERTEX
  5
70
330
6E
100
AcDbEntity
  8
_U+30EC_U+30A4_U+30E4_U+30FC 1
 62
   179
420
  2234388
370
    25
100
AcDbVertex
100
AcDb2dVertex
 10
84.47334295916053
 20
-145.8231081280136
 30
0.0
  0
SEQEND
  5
71
330
6E
100
AcDbEntity
  8
_U+30EC_U+30A4_U+30E4_U+30FC 1
 62
   179
420
  2234388
370
    25
  0
POLYLINE
  5
72
330
1F
100
AcDbEntity
  8
_U+30EC_U+30A4_U+30E4_U+30FC 1
 62
   179
420
  2234388
370
    25
100
AcDb2dPolyline
 66
     1
 10
0.0
 20
0.0
 30
0.0
  0
VERTEX
  5
73
330
72
100
AcDbEntity
  8
_U+30EC_U+30A4_U+30E4_U+30FC 1
 62
   179
420
  2234388
370
    25
100
AcDbVertex
100
AcDb2dVertex
 10
80.97333049869113
 20
-144.8226201013269
 30
0.0
  0
VERTEX
  5
74
330
72
100
AcDbEntity
  8
_U+30EC_U+30A4_U+30E4_U+30FC 1
 62
   179
420
  2234388
370
    25
100
AcDbVertex
100
AcDb2dVertex
 10
80.97333049869113
 20
-174.8228453305076
 30
0.0
  0
SEQEND
  5
75
330
72
100
AcDbEntity
  8
_U+30EC_U+30A4_U+30E4_U+30FC 1
 62
   179
420
  2234388
370
    25
  0
POLYLINE
  5
76
330
1F
100
AcDbEntity
  8
_U+30EC_U+30A4_U+30E4_U+30FC 1
 62
   179
420
  2234388
370
    25
100
AcDb2dPolyline
 66
     1
 10
0.0
 20
0.0
 30
0.0
  0
VERTEX
  5
77
330
76
100
AcDbEntity
  8
_U+30EC_U+30A4_U+30E4_U+30FC 1
 62
   179
420
  2234388
370
    25
100
AcDbVertex
100
AcDb2dVertex
 10
84.47334295916053
 20
-144.8226201013269
 30
0.0
  0
VERTEX
  5
78
330
76
100
AcDbEntity
  8
_U+30EC_U+30A4_U+30E4_U+30FC 1
 62
   179
420
  2234388
370
    25
100
AcDbVertex
100
AcDb2dVertex
 10
80.97342739200165
 20
-144.8226201013269
 30
0.0
  0
SEQEND
  5
79
330
76
100
AcDbEntity
  8
_U+30EC_U+30A4_U+30E4_U+30FC 1
 62
   179
420
  2234388
370
    25
  0
POLYLINE
  5
7A
330
1F
100
AcDbEntity
  8
_U+30EC_U+30A4_U+30E4_U+30FC 1
 62
   179
420
  2234388
370
    25
100
AcDb2dPolyline
 66
     1
 10
0.0
 20
0.0
 30
0.0
  0
VERTEX
  5
7B
330
7A
100
AcDbEntity
  8
_U+30EC_U+30A4_U+30E4_U+30FC 1
 62
   179
420
  2234388
370
    25
100
AcDbVertex
100
AcDb2dVertex
 10
88.47292656276133
 20
-171.3229728270423
 30
0.0
  0
VERTEX
  5
7C
330
7A
100
AcDbEntity
  8
_U+30EC_U+30A4_U+30E4_U+30FC 1
 62
   179
420
  2234388
370
    25
100
AcDbVertex
100
AcDb2dVertex
 10
88.47292656276133
 20
-174.8228883942012
 30
0.0
  0
SEQEND
  5
7D
330
7A
100
AcDbEntity
  8
_U+30EC_U+30A4_U+30E4_U+30FC 1
 62
   179
420
  2234388
370
    25
  0
POLYLINE
  5
7E
330
1F
100
AcDbEntity
  8
_U+30EC_U+30A4_U+30E4_U+30FC 1
 62
   179
420
  2234388
370
    25
100
AcDb2dPolyline
 66
     1
 10
0.0
 20
0.0
 30
0.0
  0
VERTEX
  5
7F
330
7E
100
AcDbEntity
  8
_U+30EC_U+30A4_U+30E4_U+30FC 1
 62
   179
420
  2234388
370
    25
100
AcDbVertex
100
AcDb2dVertex
 10
82.16409545539757
 20
-146.0142678637514
 30
0.0
  0
VERTEX
  5
80
330
7E
100
AcDbEntity
  8
_U+30EC_U+30A4_U+30E4_U+30FC 1
 62
   179
420
  2234388
370
    25
100
AcDbVertex
100
AcDb2dVertex
 10
82.16409545539757
 20
-157.1380613146109
 30
0.0
  0
SEQEND
  5
81
330
7E
100
AcDbEntity
  8
_U+30EC_U+30A4_U+30E4_U+30FC 1
 62
   179
420
  2234388
370
    25
  0
POLYLINE
  5
82
330
1F
100
AcDbEntity
  8
_U+30EC_U+30A4_U+30E4_U+30FC 1
 62
   179
420
  2234388
370
    25
100
AcDb2dPolyline
 66
     1
 10
0.0
 20
0.0
 30
0.0
  0
VERTEX
  5
83
330
82
100
AcDbEntity
  8
_U+30EC_U+30A4_U+30E4_U+30FC 1
 62
   179
420
  2234388
370
    25
100
AcDbVertex
100
AcDb2dVertex
 10
97.70029184230128
 20
-157.1381259101512
 30
0.0
  0
VERTEX
  5
84
330
82
100
AcDbEntity
  8
_U+30EC_U+30A4_U+30E4_U+30FC 1
 62
   179
420
  2234388
370
    25
100
AcDbVertex
100
AcDb2dVertex
 10
82.16395549839348
 20
-157.1381259101512
 30
0.0
  0
SEQEND
  5
85
330
82
100
AcDbEntity
  8
_U+30EC_U+30A4_U+30E4_U+30FC 1
 62
   179
420
  2234388
370
    25
  0
POLYLINE
  5
86
330
1F
100
AcDbEntity
  8
_U+30EC_U+30A4_U+30E4_U+30FC 1
 62
   179
420
  2234388
370
    25
100
AcDb2dPolyline
 66
     1
 10
0.0
 20
0.0
 30
0.0
  0
VERTEX
  5
87
330
86
100
AcDbEntity
  8
_U+30EC_U+30A4_U+30E4_U+30FC 1
 62
   179
420
  2234388
370
    25
100
AcDbVertex
100
AcDb2dVertex
 10
84.47334295916053
 20
-146.0142678637514
 30
0.0
  0
VERTEX
  5
88
330
86
100
AcDbEntity
  8
_U+30EC_U+30A4_U+30E4_U+30FC 1
 62
   179
420
  2234388
370
    25
100
AcDbVertex
100
AcDb2dVertex
 10
82.164052391704
 20
-146.0142678637514
 30
0.0
  0
SEQEND
  5
89
330
86
100
AcDbEntity
  8
_U+30EC_U+30A4_U+30E4_U+30FC 1
 62
   179
420
  2234388
370
    25
  0
POLYLINE
  5
8A
330
1F
100
AcDbEntity
  8
_U+30EC_U+30A4_U+30E4_U+30FC 1
 62
   179
420
  2234388
370
    25
100
AcDb2dPolyline
 66
     1
 10
0.0
 20
0.0
 30
0.0
  0
VERTEX
  5
8B
330
8A
100
AcDbEntity
  8
_U+30EC_U+30A4_U+30E4_U+30FC 1
 62
   179
420
  2234388
370
    25
100
AcDbVertex
100
AcDb2dVertex
 10
87.27475465076161
 20
-171.3229728270423
 30
0.0
  0
VERTEX
  5
8C
330
8A
100
AcDbEntity
  8
_U+30EC_U+30A4_U+30E4_U+30FC 1
 62
   179
420
  2234388
370
    25
100
AcDbVertex
100
AcDb2dVertex
 10
87.27475465076161
 20
-173.6230908277694
 30
0.0
  0
SEQEND
  5
8D
330
8A
100
AcDbEntity
  8
_U+30EC_U+30A4_U+30E4_U+30FC 1
 62
   179
420
  2234388
370
    25
  0
POLYLINE
  5
8E
330
1F
100
AcDbEntity
  8
_U+30EC_U+30A4_U+30E4_U+30FC 1
 62
   179
420
  2234388
370
    25
100
AcDb2dPolyline
 66
     1
 10
0.0
 20
0.0
 30
0.0
  0
VERTEX
  5
8F
330
8E
100
AcDbEntity
  8
_U+30EC_U+30A4_U+30E4_U+30FC 1
 62
   179
420
  2234388
370
    25
100
AcDbVertex
100
AcDb2dVertex
 10
87.27475465076161
 20
-173.6063928805893
 30
0.0
  0
VERTEX
  5
90
330
8E
100
AcDbEntity
  8
_U+30EC_U+30A4_U+30E4_U+30FC 1
 62
   179
420
  2234388
370
    25
100
AcDbVertex
100
AcDb2dVertex
 10
82.16617327861243
 20
-173.6063928805893
 30
0.0
  0
SEQEND
  5
91
330
8E
100
AcDbEntity
  8
_U+30EC_U+30A4_U+30E4_U+30FC 1
 62
   179
420
  2234388
370
    25
  0
POLYLINE
  5
92
330
1F
100
AcDbEntity
  8
_U+30EC_U+30A4_U+30E4_U+30FC 1
 62
   179
420
  2234388
370
    25
100
AcDb2dPolyline
 66
     1
 10
0.0
 20
0.0
 30
0.0
  0
VERTEX
  5
93
330
92
100
AcDbEntity
  8
_U+30EC_U+30A4_U+30E4_U+30FC 1
 62
   179
420
  2234388
370
    25
100
AcDbVertex
100
AcDb2dVertex
 10
82.16600102383816
 20
-158.3225497379801
 30
0.0
  0
VERTEX
  5
94
330
92
100
AcDbEntity
  8
_U+30EC_U+30A4_U+30E4_U+30FC 1
 62
   179
420
  2234388
370
    25
100
AcDbVertex
100
AcDb2dVertex
 10
82.16600102383816
 20
-173.6228755093015
 30
0.0
  0
SEQEND
  5
95
330
92
100
AcDbEntity
  8
_U+30EC_U+30A4_U+30E4_U+30FC 1
 62
   179
420
  2234388
370
    25
  0
SPLINE
  5
96
330
1F
100
AcDbEntity
  8
_U+30EC_U+30A4_U+30E4_U+30FC 1
 62
   179
420
  2234388
370
     9
100
AcDbSpline
210
0.0
220
0.0
230
1.0
 70
    11
 71
     3
 72
    17
 73
    13
 74
     0
 42
0.0000000001
 43
0.0000000001
 12
1.0
 22
0.0
 32
0.0
 13
1.0
 23
0.0
 33
0.0
 40
0.0
 40
0.0
 40
0.0
 40
0.0
 40
1.0
 40
1.0
 40
1.0
 40
2.0
 40
2.0
 40
2.0
 40
3.0
 40
3.0
 40
3.0
 40
4.0
 40
4.0
 40
4.0
 40
4.0
 10
97.5996735222852
 20
-120.822200914483
 30
0.0
 10
97.5996735222852
 20
-120.7671762800299
 30
0.0
 10
97.64447052951716
 20
-120.7223685068745
 30
0.0
 10
97.70020571491415
 20
-120.7223685068745
 30
0.0
 10
97.75524111529101
 20
-120.7223685068745
 30
0.0
 10
97.80004888844604
 20
-120.7671762800299
 30
0.0
 10
97.80004888844604
 20
-120.822200914483
 30
0.0
 10
97.80004888844604
 20
-120.8772363148599
 30
0.0
 10
97.75524111529101
 20
-120.9220440880149
 30
0.0
 10
97.70020571491415
 20
-120.9220440880149
 30
0.0
 10
97.64447052951716
 20
-120.9220440880149
 30
0.0
 10
97.5996735222852
 20
-120.8772363148599
 30
0.0
 10
97.5996735222852
 20
-120.822200914483
 30
0.0
  0
SPLINE
  5
97
330
1F
100
AcDbEntity
  8
_U+30EC_U+30A4_U+30E4_U+30FC 1
 62
   179
420
  2234388
370
     9
100
AcDbSpline
210
0.0
220
0.0
230
1.0
 70
    11
 71
     3
 72
    17
 73
    13
 74
     0
 42
0.0000000001
 43
0.0000000001
 12
1.0
 22
0.0
 32
0.0
 13
1.0
 23
0.0
 33
0.0
 40
0.0
 40
0.0
 40
0.0
 40
0.0
 40
1.0
 40
1.0
 40
1.0
 40
2.0
 40
2.0
 40
2.0
 40
3.0
 40
3.0
 40
3.0
 40
4.0
 40
4.0
 40
4.0
 40
4.0
 10
98.80032159666494
 20
-120.822200914483
 30
0.0
 10
98.80032159666494
 20
-120.7671762800299
 30
0.0
 10
98.84511860389658
 20
-120.7223685068745
 30
0.0
 10
98.90015400427345
 20
-120.7223685068745
 30
0.0
 10
98.95518940465031
 20
-120.7223685068745
 30
0.0
 10
98.99998641188195
 20
-120.7671762800299
 30
0.0
 10
98.99998641188195
 20
-120.822200914483
 30
0.0
 10
98.99998641188195
 20
-120.8772363148599
 30
0.0
 10
98.95518940465031
 20
-120.9220440880149
 30
0.0
 10
98.90015400427345
 20
-120.9220440880149
 30
0.0
 10
98.84511860389658
 20
-120.9220440880149
 30
0.0
 10
98.80032159666494
 20
-120.8772363148599
 30
0.0
 10
98.80032159666494
 20
-120.822200914483
 30
0.0
  0
SPLINE
  5
98
330
1F
100
AcDbEntity
  8
_U+30EC_U+30A4_U+30E4_U+30FC 1
 62
   179
420
  2234388
370
     9
100
AcDbSpline
210
0.0
220
0.0
230
1.0
 70
    11
 71
     3
 72
    17
 73
    13
 74
     0
 42
0.0000000001
 43
0.0000000001
 12
1.0
 22
0.0
 32
0.0
 13
1.0
 23
0.0
 33
0.0
 40
0.0
 40
0.0
 40
0.0
 40
0.0
 40
1.0
 40
1.0
 40
1.0
 40
2.0
 40
2.0
 40
2.0
 40
3.0
 40
3.0
 40
3.0
 40
4.0
 40
4.0
 40
4.0
 40
4.0
 10
135.0196224298953
 20
-124.8219244750879
 30
0.0
 10
135.0196224298953
 20
-124.7668998406345
 30
0.0
 10
135.0644194371269
 20
-124.7220920674794
 30
0.0
 10
135.1194548375038
 20
-124.7220920674794
 30
0.0
 10
135.1744902378806
 20
-124.7220920674794
 30
0.0
 10
135.2192872451123
 20
-124.7668998406345
 30
0.0
 10
135.2192872451123
 20
-124.8219244750879
 30
0.0
 10
135.2192872451123
 20
-124.8776704264086
 30
0.0
 10
135.1744902378806
 20
-124.9224674336403
 30
0.0
 10
135.1194548375038
 20
-124.9224674336403
 30
0.0
 10
135.0644194371269
 20
-124.9224674336403
 30
0.0
 10
135.0196224298953
 20
-124.8776704264086
 30
0.0
 10
135.0196224298953
 20
-124.8219244750879
 30
0.0
  0
SPLINE
  5
99
330
1F
100
AcDbEntity
  8
_U+30EC_U+30A4_U+30E4_U+30FC 1
 62
   179
420
  2234388
370
     9
100
AcDbSpline
210
0.0
220
0.0
230
1.0
 70
    11
 71
     3
 72
    17
 73
    13
 74
     0
 42
0.0000000001
 43
0.0000000001
 12
1.0
 22
0.0
 32
0.0
 13
1.0
 23
0.0
 33
0.0
 40
0.0
 40
0.0
 40
0.0
 40
0.0
 40
1.0
 40
1.0
 40
1.0
 40
2.0
 40
2.0
 40
2.0
 40
3.0
 40
3.0
 40
3.0
 40
4.0
 40
4.0
 40
4.0
 40
4.0
 10
76.87295632030032
 20
-144.8226201013269
 30
0.0
 10
76.87295632030032
 20
-144.7675954668734
 30
0.0
 10
76.91775332753163
 20
-144.7227876937184
 30
0.0
 10
76.9727887279085
 20
-144.7227876937184
 30
0.0
 10
77.02782412828536
 20
-144.7227876937184
 30
0.0
 10
77.07262113551701
 20
-144.7675954668734
 30
0.0
 10
77.07262113551701
 20
-144.8226201013269
 30
0.0
 10
77.07262113551701
 20
-144.8776555017038
 30
0.0
 10
77.02782412828536
 20
-144.9224632748591
 30
0.0
 10
76.9727887279085
 20
-144.9224632748591
 30
0.0
 10
76.91775332753163
 20
-144.9224632748591
 30
0.0
 10
76.87295632030032
 20
-144.8776555017038
 30
0.0
 10
76.87295632030032
 20
-144.8226201013269
 30
0.0
  0
SPLINE
  5
9A
330
1F
100
AcDbEntity
  8
_U+30EC_U+30A4_U+30E4_U+30FC 1
 62
   179
420
  2234388
370
     9
100
AcDbSpline
210
0.0
220
0.0
230
1.0
 70
    11
 71
     3
 72
    17
 73
    13
 74
     0
 42
0.0000000001
 43
0.0000000001
 12
1.0
 22
0.0
 32
0.0
 13
1.0
 23
0.0
 33
0.0
 40
0.0
 40
0.0
 40
0.0
 40
0.0
 40
1.0
 40
1.0
 40
1.0
 40
2.0
 40
2.0
 40
2.0
 40
3.0
 40
3.0
 40
3.0
 40
4.0
 40
4.0
 40
4.0
 40
4.0
 10
80.87272294459845
 20
-120.8220178937854
 30
0.0
 10
80.87272294459845
 20
-120.7669932593319
 30
0.0
 10
80.91751995183009
 20
-120.7221854861769
 30
0.0
 10
80.9732551372274
 20
-120.7221854861769
 30
0.0
 10
81.02829053760426
 20
-120.7221854861769
 30
0.0
 10
81.07309831075929
 20
-120.7669932593319
 30
0.0
 10
81.07309831075929
 20
-120.8220178937854
 30
0.0
 10
81.07309831075929
 20
-120.8770532941623
 30
0.0
 10
81.02829053760426
 20
-120.9218610673176
 30
0.0
 10
80.9732551372274
 20
-120.9218610673176
 30
0.0
 10
80.91751995183009
 20
-120.9218610673176
 30
0.0
 10
80.87272294459845
 20
-120.8770532941623
 30
0.0
 10
80.87272294459845
 20
-120.8220178937854
 30
0.0
  0
SPLINE
  5
9B
330
1F
100
AcDbEntity
  8
_U+30EC_U+30A4_U+30E4_U+30FC 1
 62
   179
420
  2234388
370
     9
100
AcDbSpline
210
0.0
220
0.0
230
1.0
 70
    11
 71
     3
 72
    17
 73
    13
 74
     0
 42
0.0000000001
 43
0.0000000001
 12
1.0
 22
0.0
 32
0.0
 13
1.0
 23
0.0
 33
0.0
 40
0.0
 40
0.0
 40
0.0
 40
0.0
 40
1.0
 40
1.0
 40
1.0
 40
2.0
 40
2.0
 40
2.0
 40
3.0
 40
3.0
 40
3.0
 40
4.0
 40
4.0
 40
4.0
 40
4.0
 10
84.37312297830994
 20
-120.8220178937854
 30
0.0
 10
84.37312297830994
 20
-120.7669932593319
 30
0.0
 10
84.41791998554157
 20
-120.7221854861769
 30
0.0
 10
84.47331066139036
 20
-120.7221854861769
 30
0.0
 10
84.52833529584383
 20
-120.7221854861769
 30
0.0
 10
84.57314306899886
 20
-120.7669932593319
 30
0.0
 10
84.57314306899886
 20
-120.8220178937854
 30
0.0
 10
84.57314306899886
 20
-120.8770532941623
 30
0.0
 10
84.52833529584383
 20
-120.9218610673176
 30
0.0
 10
84.47331066139036
 20
-120.9218610673176
 30
0.0
 10
84.41791998554157
 20
-120.9218610673176
 30
0.0
 10
84.37312297830994
 20
-120.8770532941623
 30
0.0
 10
84.37312297830994
 20
-120.8220178937854
 30
0.0
  0
SPLINE
  5
9C
330
1F
100
AcDbEntity
  8
_U+30EC_U+30A4_U+30E4_U+30FC 1
 62
   179
420
  2234388
370
     9
100
AcDbSpline
210
0.0
220
0.0
230
1.0
 70
    11
 71
     3
 72
    17
 73
    13
 74
     0
 42
0.0000000001
 43
0.0000000001
 12
1.0
 22
0.0
 32
0.0
 13
1.0
 23
0.0
 33
0.0
 40
0.0
 40
0.0
 40
0.0
 40
0.0
 40
1.0
 40
1.0
 40
1.0
 40
2.0
 40
2.0
 40
2.0
 40
3.0
 40
3.0
 40
3.0
 40
4.0
 40
4.0
 40
4.0
 40
4.0
 10
135.0196224298953
 20
-158.3225497379801
 30
0.0
 10
135.0196224298953
 20
-158.2675251035267
 30
0.0
 10
135.0644194371269
 20
-158.2227173303716
 30
0.0
 10
135.1194548375038
 20
-158.2227173303716
 30
0.0
 10
135.1744902378806
 20
-158.2227173303716
 30
0.0
 10
135.2192872451123
 20
-158.2675251035267
 30
0.0
 10
135.2192872451123
 20
-158.3225497379801
 30
0.0
 10
135.2192872451123
 20
-158.3782956893008
 30
0.0
 10
135.1744902378806
 20
-158.422392911512
 30
0.0
 10
135.1194548375038
 20
-158.422392911512
 30
0.0
 10
135.0644194371269
 20
-158.422392911512
 30
0.0
 10
135.0196224298953
 20
-158.3782956893008
 30
0.0
 10
135.0196224298953
 20
-158.3225497379801
 30
0.0
  0
SPLINE
  5
9D
330
1F
100
AcDbEntity
  8
_U+30EC_U+30A4_U+30E4_U+30FC 1
 62
   179
420
  2234388
370
     9
100
AcDbSpline
210
0.0
220
0.0
230
1.0
 70
    11
 71
     3
 72
    17
 73
    13
 74
     0
 42
0.0000000001
 43
0.0000000001
 12
1.0
 22
0.0
 32
0.0
 13
1.0
 23
0.0
 33
0.0
 40
0.0
 40
0.0
 40
0.0
 40
0.0
 40
1.0
 40
1.0
 40
1.0
 40
2.0
 40
2.0
 40
2.0
 40
3.0
 40
3.0
 40
3.0
 40
4.0
 40
4.0
 40
4.0
 40
4.0
 10
88.37301879368908
 20
-178.8226011888827
 30
0.0
 10
88.37301879368908
 20
-178.7675765544292
 30
0.0
 10
88.41781580092105
 20
-178.7227687812742
 30
0.0
 10
88.47285120129791
 20
-178.7227687812742
 30
0.0
 10
88.52788660167478
 20
-178.7227687812742
 30
0.0
 10
88.57268360890609
 20
-178.7675765544292
 30
0.0
 10
88.57268360890609
 20
-178.8226011888827
 30
0.0
 10
88.57268360890609
 20
-178.8776365892595
 30
0.0
 10
88.52788660167478
 20
-178.9224443624146
 30
0.0
 10
88.47285120129791
 20
-178.9224443624146
 30
0.0
 10
88.41781580092105
 20
-178.9224443624146
 30
0.0
 10
88.37301879368908
 20
-178.8776365892595
 30
0.0
 10
88.37301879368908
 20
-178.8226011888827
 30
0.0
  0
SPLINE
  5
9E
330
1F
100
AcDbEntity
  8
_U+30EC_U+30A4_U+30E4_U+30FC 1
 62
   179
420
  2234388
370
     9
100
AcDbSpline
210
0.0
220
0.0
230
1.0
 70
    11
 71
     3
 72
    17
 73
    13
 74
     0
 42
0.0000000001
 43
0.0000000001
 12
1.0
 22
0.0
 32
0.0
 13
1.0
 23
0.0
 33
0.0
 40
0.0
 40
0.0
 40
0.0
 40
0.0
 40
1.0
 40
1.0
 40
1.0
 40
2.0
 40
2.0
 40
2.0
 40
3.0
 40
3.0
 40
3.0
 40
4.0
 40
4.0
 40
4.0
 40
4.0
 10
135.0196224298953
 20
-174.8228453305076
 30
0.0
 10
135.0196224298953
 20
-174.7671101451103
 30
0.0
 10
135.0644194371269
 20
-174.7230129228991
 30
0.0
 10
135.1194548375038
 20
-174.7230129228991
 30
0.0
 10
135.1744902378806
 20
-174.7230129228991
 30
0.0
 10
135.2192872451123
 20
-174.7671101451103
 30
0.0
 10
135.2192872451123
 20
-174.8228453305076
 30
0.0
 10
135.2192872451123
 20
-174.8778807308845
 30
0.0
 10
135.1744902378806
 20
-174.9226885040395
 30
0.0
 10
135.1194548375038
 20
-174.9226885040395
 30
0.0
 10
135.0644194371269
 20
-174.9226885040395
 30
0.0
 10
135.0196224298953
 20
-174.8778807308845
 30
0.0
 10
135.0196224298953
 20
-174.8228453305076
 30
0.0
  0
SPLINE
  5
9F
330
1F
100
AcDbEntity
  8
_U+30EC_U+30A4_U+30E4_U+30FC 1
 62
   179
420
  2234388
370
     9
100
AcDbSpline
210
0.0
220
0.0
230
1.0
 70
    11
 71
     3
 72
    17
 73
    13
 74
     0
 42
0.0000000001
 43
0.0000000001
 12
1.0
 22
0.0
 32
0.0
 13
1.0
 23
0.0
 33
0.0
 40
0.0
 40
0.0
 40
0.0
 40
0.0
 40
1.0
 40
1.0
 40
1.0
 40
2.0
 40
2.0
 40
2.0
 40
3.0
 40
3.0
 40
3.0
 40
4.0
 40
4.0
 40
4.0
 40
4.0
 10
135.0196224298953
 20
-171.3229728270423
 30
0.0
 10
135.0196224298953
 20
-171.267237641645
 30
0.0
 10
135.0644194371269
 20
-171.2224406344134
 30
0.0
 10
135.1194548375038
 20
-171.2224406344134
 30
0.0
 10
135.1744902378806
 20
-171.2224406344134
 30
0.0
 10
135.2192872451123
 20
-171.267237641645
 30
0.0
 10
135.2192872451123
 20
-171.3229728270423
 30
0.0
 10
135.2192872451123
 20
-171.3780082274192
 30
0.0
 10
135.1744902378806
 20
-171.4228160005742
 30
0.0
 10
135.1194548375038
 20
-171.4228160005742
 30
0.0
 10
135.0644194371269
 20
-171.4228160005742
 30
0.0
 10
135.0196224298953
 20
-171.3780082274192
 30
0.0
 10
135.0196224298953
 20
-171.3229728270423
 30
0.0
  0
SPLINE
  5
A0
330
1F
100
AcDbEntity
  8
_U+30EC_U+30A4_U+30E4_U+30FC 1
 62
   179
420
  2234388
370
     9
100
AcDbSpline
210
0.0
220
0.0
230
1.0
 70
    11
 71
     3
 72
    17
 73
    13
 74
     0
 42
0.0000000001
 43
0.0000000001
 12
1.0
 22
0.0
 32
0.0
 13
1.0
 23
0.0
 33
0.0
 40
0.0
 40
0.0
 40
0.0
 40
0.0
 40
1.0
 40
1.0
 40
1.0
 40
2.0
 40
2.0
 40
2.0
 40
3.0
 40
3.0
 40
3.0
 40
4.0
 40
4.0
 40
4.0
 40
4.0
 10
76.87295632030032
 20
-174.8228453305076
 30
0.0
 10
76.87295632030032
 20
-174.7671101451103
 30
0.0
 10
76.91775332753163
 20
-174.7230129228991
 30
0.0
 10
76.9727887279085
 20
-174.7230129228991
 30
0.0
 10
77.02782412828536
 20
-174.7230129228991
 30
0.0
 10
77.07262113551701
 20
-174.7671101451103
 30
0.0
 10
77.07262113551701
 20
-174.8228453305076
 30
0.0
 10
77.07262113551701
 20
-174.8778807308845
 30
0.0
 10
77.02782412828536
 20
-174.9226885040395
 30
0.0
 10
76.9727887279085
 20
-174.9226885040395
 30
0.0
 10
76.91775332753163
 20
-174.9226885040395
 30
0.0
 10
76.87295632030032
 20
-174.8778807308845
 30
0.0
 10
76.87295632030032
 20
-174.8228453305076
 30
0.0
  0
SPLINE
  5
A1
330
1F
100
AcDbEntity
  8
_U+30EC_U+30A4_U+30E4_U+30FC 1
 62
   179
420
  2234388
370
     9
100
AcDbSpline
210
0.0
220
0.0
230
1.0
 70
    11
 71
     3
 72
    17
 73
    13
 74
     0
 42
0.0000000001
 43
0.0000000001
 12
1.0
 22
0.0
 32
0.0
 13
1.0
 23
0.0
 33
0.0
 40
0.0
 40
0.0
 40
0.0
 40
0.0
 40
1.0
 40
1.0
 40
1.0
 40
2.0
 40
2.0
 40
2.0
 40
3.0
 40
3.0
 40
3.0
 40
4.0
 40
4.0
 40
4.0
 40
4.0
 10
80.87272294459845
 20
-178.8226011888827
 30
0.0
 10
80.87272294459845
 20
-178.7675765544292
 30
0.0
 10
80.91751995183009
 20
-178.7227687812742
 30
0.0
 10
80.9732551372274
 20
-178.7227687812742
 30
0.0
 10
81.02829053760426
 20
-178.7227687812742
 30
0.0
 10
81.07309831075929
 20
-178.7675765544292
 30
0.0
 10
81.07309831075929
 20
-178.8226011888827
 30
0.0
 10
81.07309831075929
 20
-178.8776365892595
 30
0.0
 10
81.02829053760426
 20
-178.9224443624146
 30
0.0
 10
80.9732551372274
 20
-178.9224443624146
 30
0.0
 10
80.91751995183009
 20
-178.9224443624146
 30
0.0
 10
80.87272294459845
 20
-178.8776365892595
 30
0.0
 10
80.87272294459845
 20
-178.8226011888827
 30
0.0
  0
POLYLINE
  5
A2
330
1F
100
AcDbEntity
  8
_U+30EC_U+30A4_U+30E4_U+30FC 1
 62
   179
420
  2234388
370
     9
100
AcDb2dPolyline
 66
     1
 10
0.0
 20
0.0
 30
0.0
  0
VERTEX
  5
A3
330
A2
100
AcDbEntity
  8
_U+30EC_U+30A4_U+30E4_U+30FC 1
 62
   179
420
  2234388
370
     9
100
AcDbVertex
100
AcDb2dVertex
 10
98.90022936573719
 20
-120.822200914483
 30
0.0
  0
VERTEX
  5
A4
330
A2
100
AcDbEntity
  8
_U+30EC_U+30A4_U+30E4_U+30FC 1
 62
   179
420
  2234388
370
     9
100
AcDbVertex
100
AcDb2dVertex
 10
130.7003231993399
 20
-120.822200914483
 30
0.0
  0
SEQEND
  5
A5
330
A2
100
AcDbEntity
  8
_U+30EC_U+30A4_U+30E4_U+30FC 1
 62
   179
420
  2234388
370
     9
  0
POLYLINE
  5
A6
330
1F
100
AcDbEntity
  8
_U+30EC_U+30A4_U+30E4_U+30FC 1
 62
   179
420
  2234388
370
     9
100
AcDb2dPolyline
 66
     1
 10
0.0
 20
0.0
 30
0.0
  0
VERTEX
  5
A7
330
A6
100
AcDbEntity
  8
_U+30EC_U+30A4_U+30E4_U+30FC 1
 62
   179
420
  2234388
370
     9
100
AcDbVertex
100
AcDb2dVertex
 10
98.90022936573719
 20
-122.2822000833617
 30
0.0
  0
VERTEX
  5
A8
330
A6
100
AcDbEntity
  8
_U+30EC_U+30A4_U+30E4_U+30FC 1
 62
   179
420
  2234388
370
     9
100
AcDbVertex
100
AcDb2dVertex
 10
98.90022936573719
 20
-119.8222834817361
 30
0.0
  0
SEQEND
  5
A9
330
A6
100
AcDbEntity
  8
_U+30EC_U+30A4_U+30E4_U+30FC 1
 62
   179
420
  2234388
370
     9
  0
POLYLINE
  5
AA
330
1F
100
AcDbEntity
  8
_U+30EC_U+30A4_U+30E4_U+30FC 1
 62
   179
420
  2234388
370
     9
100
AcDb2dPolyline
 66
     1
 10
0.0
 20
0.0
 30
0.0
  0
VERTEX
  5
AB
330
AA
100
AcDbEntity
  8
_U+30EC_U+30A4_U+30E4_U+30FC 1
 62
   179
420
  2234388
370
     9
100
AcDbVertex
100
AcDb2dVertex
 10
130.7001832423358
 20
-155.2505580937828
 30
0.0
  0
VERTEX
  5
AC
330
AA
100
AcDbEntity
  8
_U+30EC_U+30A4_U+30E4_U+30FC 1
 62
   179
420
  2234388
370
     9
100
AcDbVertex
100
AcDb2dVertex
 10
130.7001832423358
 20
-119.8224988002039
 30
0.0
  0
SEQEND
  5
AD
330
AA
100
AcDbEntity
  8
_U+30EC_U+30A4_U+30E4_U+30FC 1
 62
   179
420
  2234388
370
     9
  0
POLYLINE
  5
AE
330
1F
100
AcDbEntity
  8
_U+30EC_U+30A4_U+30E4_U+30FC 1
 62
   179
420
  2234388
370
     9
100
AcDb2dPolyline
 66
     1
 10
0.0
 20
0.0
 30
0.0
  0
VERTEX
  5
AF
330
AE
100
AcDbEntity
  8
_U+30EC_U+30A4_U+30E4_U+30FC 1
 62
   179
420
  2234388
370
     9
100
AcDbVertex
100
AcDb2dVertex
 10
97.70029184230128
 20
-122.2822000833617
 30
0.0
  0
VERTEX
  5
B0
330
AE
100
AcDbEntity
  8
_U+30EC_U+30A4_U+30E4_U+30FC 1
 62
   179
420
  2234388
370
     9
100
AcDbVertex
100
AcDb2dVertex
 10
97.70029184230128
 20
-119.8222834817361
 30
0.0
  0
SEQEND
  5
B1
330
AE
100
AcDbEntity
  8
_U+30EC_U+30A4_U+30E4_U+30FC 1
 62
   179
420
  2234388
370
     9
  0
POLYLINE
  5
B2
330
1F
100
AcDbEntity
  8
_U+30EC_U+30A4_U+30E4_U+30FC 1
 62
   179
420
  2234388
370
     9
100
AcDb2dPolyline
 66
     1
 10
0.0
 20
0.0
 30
0.0
  0
VERTEX
  5
B3
330
B2
100
AcDbEntity
  8
_U+30EC_U+30A4_U+30E4_U+30FC 1
 62
   179
420
  2234388
370
     9
100
AcDbVertex
100
AcDb2dVertex
 10
84.47334295916053
 20
-120.8220178937854
 30
0.0
  0
VERTEX
  5
B4
330
B2
100
AcDbEntity
  8
_U+30EC_U+30A4_U+30E4_U+30FC 1
 62
   179
420
  2234388
370
     9
100
AcDbVertex
100
AcDb2dVertex
 10
80.97342739200165
 20
-120.8220178937854
 30
0.0
  0
SEQEND
  5
B5
330
B2
100
AcDbEntity
  8
_U+30EC_U+30A4_U+30E4_U+30FC 1
 62
   179
420
  2234388
370
     9
  0
POLYLINE
  5
B6
330
1F
100
AcDbEntity
  8
_U+30EC_U+30A4_U+30E4_U+30FC 1
 62
   179
420
  2234388
370
     9
100
AcDb2dPolyline
 66
     1
 10
0.0
 20
0.0
 30
0.0
  0
VERTEX
  5
B7
330
B6
100
AcDbEntity
  8
_U+30EC_U+30A4_U+30E4_U+30FC 1
 62
   179
420
  2234388
370
     9
100
AcDbVertex
100
AcDb2dVertex
 10
84.47334295916053
 20
-142.2828311140607
 30
0.0
  0
VERTEX
  5
B8
330
B6
100
AcDbEntity
  8
_U+30EC_U+30A4_U+30E4_U+30FC 1
 62
   179
420
  2234388
370
     9
100
AcDbVertex
100
AcDb2dVertex
 10
84.47334295916053
 20
-119.8221758225021
 30
0.0
  0
SEQEND
  5
B9
330
B6
100
AcDbEntity
  8
_U+30EC_U+30A4_U+30E4_U+30FC 1
 62
   179
420
  2234388
370
     9
  0
POLYLINE
  5
BA
330
1F
100
AcDbEntity
  8
_U+30EC_U+30A4_U+30E4_U+30FC 1
 62
   179
420
  2234388
370
     9
100
AcDb2dPolyline
 66
     1
 10
0.0
 20
0.0
 30
0.0
  0
VERTEX
  5
BB
330
BA
100
AcDbEntity
  8
_U+30EC_U+30A4_U+30E4_U+30FC 1
 62
   179
420
  2234388
370
     9
100
AcDbVertex
100
AcDb2dVertex
 10
80.97333049869113
 20
-142.2828311140607
 30
0.0
  0
VERTEX
  5
BC
330
BA
100
AcDbEntity
  8
_U+30EC_U+30A4_U+30E4_U+30FC 1
 62
   179
420
  2234388
370
     9
100
AcDbVertex
100
AcDb2dVertex
 10
80.97333049869113
 20
-119.8221758225021
 30
0.0
  0
SEQEND
  5
BD
330
BA
100
AcDbEntity
  8
_U+30EC_U+30A4_U+30E4_U+30FC 1
 62
   179
420
  2234388
370
     9
  0
POLYLINE
  5
BE
330
1F
100
AcDbEntity
  8
_U+30EC_U+30A4_U+30E4_U+30FC 1
 62
   179
420
  2234388
370
     9
100
AcDb2dPolyline
 66
     1
 10
0.0
 20
0.0
 30
0.0
  0
VERTEX
  5
BF
330
BE
100
AcDbEntity
  8
_U+30EC_U+30A4_U+30E4_U+30FC 1
 62
   179
420
  2234388
370
     9
100
AcDbVertex
100
AcDb2dVertex
 10
84.47334295916053
 20
-120.8220178937854
 30
0.0
  0
VERTEX
  5
C0
330
BE
100
AcDbEntity
  8
_U+30EC_U+30A4_U+30E4_U+30FC 1
 62
   179
420
  2234388
370
     9
100
AcDbVertex
100
AcDb2dVertex
 10
97.7003887356118
 20
-120.8220178937854
 30
0.0
  0
SEQEND
  5
C1
330
BE
100
AcDbEntity
  8
_U+30EC_U+30A4_U+30E4_U+30FC 1
 62
   179
420
  2234388
370
     9
  0
POLYLINE
  5
C2
330
1F
100
AcDbEntity
  8
_U+30EC_U+30A4_U+30E4_U+30FC 1
 62
   179
420
  2234388
370
     9
100
AcDb2dPolyline
 66
     1
 10
0.0
 20
0.0
 30
0.0
  0
VERTEX
  5
C3
330
C2
100
AcDbEntity
  8
_U+30EC_U+30A4_U+30E4_U+30FC 1
 62
   179
420
  2234388
370
     9
100
AcDbVertex
100
AcDb2dVertex
 10
88.47292656276133
 20
-178.8226011888827
 30
0.0
  0
VERTEX
  5
C4
330
C2
100
AcDbEntity
  8
_U+30EC_U+30A4_U+30E4_U+30FC 1
 62
   179
420
  2234388
370
     9
100
AcDbVertex
100
AcDb2dVertex
 10
80.97322283945753
 20
-178.8226011888827
 30
0.0
  0
SEQEND
  5
C5
330
C2
100
AcDbEntity
  8
_U+30EC_U+30A4_U+30E4_U+30FC 1
 62
   179
420
  2234388
370
     9
  0
POLYLINE
  5
C6
330
1F
100
AcDbEntity
  8
_U+30EC_U+30A4_U+30E4_U+30FC 1
 62
   179
420
  2234388
370
     9
100
AcDb2dPolyline
 66
     1
 10
0.0
 20
0.0
 30
0.0
  0
VERTEX
  5
C7
330
C6
100
AcDbEntity
  8
_U+30EC_U+30A4_U+30E4_U+30FC 1
 62
   179
420
  2234388
370
     9
100
AcDbVertex
100
AcDb2dVertex
 10
88.47292656276133
 20
-177.3625589563104
 30
0.0
  0
VERTEX
  5
C8
330
C6
100
AcDbEntity
  8
_U+30EC_U+30A4_U+30E4_U+30FC 1
 62
   179
420
  2234388
370
     9
100
AcDbVertex
100
AcDb2dVertex
 10
88.47292656276133
 20
-179.8224863238595
 30
0.0
  0
SEQEND
  5
C9
330
C6
100
AcDbEntity
  8
_U+30EC_U+30A4_U+30E4_U+30FC 1
 62
   179
420
  2234388
370
     9
  0
POLYLINE
  5
CA
330
1F
100
AcDbEntity
  8
_U+30EC_U+30A4_U+30E4_U+30FC 1
 62
   179
420
  2234388
370
     9
100
AcDb2dPolyline
 66
     1
 10
0.0
 20
0.0
 30
0.0
  0
VERTEX
  5
CB
330
CA
100
AcDbEntity
  8
_U+30EC_U+30A4_U+30E4_U+30FC 1
 62
   179
420
  2234388
370
     9
100
AcDbVertex
100
AcDb2dVertex
 10
80.97333049869113
 20
-177.3625589563104
 30
0.0
  0
VERTEX
  5
CC
330
CA
100
AcDbEntity
  8
_U+30EC_U+30A4_U+30E4_U+30FC 1
 62
   179
420
  2234388
370
     9
100
AcDbVertex
100
AcDb2dVertex
 10
80.97333049869113
 20
-179.8224863238595
 30
0.0
  0
SEQEND
  5
CD
330
CA
100
AcDbEntity
  8
_U+30EC_U+30A4_U+30E4_U+30FC 1
 62
   179
420
  2234388
370
     9
  0
POLYLINE
  5
CE
330
1F
100
AcDbEntity
  8
_U+30EC_U+30A4_U+30E4_U+30FC 1
 62
   179
420
  2234388
370
     9
100
AcDb2dPolyline
 66
     1
 10
0.0
 20
0.0
 30
0.0
  0
VERTEX
  5
CF
330
CE
100
AcDbEntity
  8
_U+30EC_U+30A4_U+30E4_U+30FC 1
 62
   179
420
  2234388
370
     9
100
AcDbVertex
100
AcDb2dVertex
 10
76.97286408937256
 20
-174.8228453305076
 30
0.0
  0
VERTEX
  5
D0
330
CE
100
AcDbEntity
  8
_U+30EC_U+30A4_U+30E4_U+30FC 1
 62
   179
420
  2234388
370
     9
100
AcDbVertex
100
AcDb2dVertex
 10
76.97286408937256
 20
-144.8226308672503
 30
0.0
  0
SEQEND
  5
D1
330
CE
100
AcDbEntity
  8
_U+30EC_U+30A4_U+30E4_U+30FC 1
 62
   179
420
  2234388
370
     9
  0
POLYLINE
  5
D2
330
1F
100
AcDbEntity
  8
_U+30EC_U+30A4_U+30E4_U+30FC 1
 62
   179
420
  2234388
370
     9
100
AcDb2dPolyline
 66
     1
 10
0.0
 20
0.0
 30
0.0
  0
VERTEX
  5
D3
330
D2
100
AcDbEntity
  8
_U+30EC_U+30A4_U+30E4_U+30FC 1
 62
   179
420
  2234388
370
     9
100
AcDbVertex
100
AcDb2dVertex
 10
78.43290632194451
 20
-174.8228453305076
 30
0.0
  0
VERTEX
  5
D4
330
D2
100
AcDbEntity
  8
_U+30EC_U+30A4_U+30E4_U+30FC 1
 62
   179
420
  2234388
370
     9
100
AcDbVertex
100
AcDb2dVertex
 10
75.97297895439543
 20
-174.8228453305076
 30
0.0
  0
SEQEND
  5
D5
330
D2
100
AcDbEntity
  8
_U+30EC_U+30A4_U+30E4_U+30FC 1
 62
   179
420
  2234388
370
     9
  0
POLYLINE
  5
D6
330
1F
100
AcDbEntity
  8
_U+30EC_U+30A4_U+30E4_U+30FC 1
 62
   179
420
  2234388
370
     9
100
AcDb2dPolyline
 66
     1
 10
0.0
 20
0.0
 30
0.0
  0
VERTEX
  5
D7
330
D6
100
AcDbEntity
  8
_U+30EC_U+30A4_U+30E4_U+30FC 1
 62
   179
420
  2234388
370
     9
100
AcDbVertex
100
AcDb2dVertex
 10
78.43290632194451
 20
-144.8226201013269
 30
0.0
  0
VERTEX
  5
D8
330
D6
100
AcDbEntity
  8
_U+30EC_U+30A4_U+30E4_U+30FC 1
 62
   179
420
  2234388
370
     9
100
AcDbVertex
100
AcDb2dVertex
 10
75.97297895439543
 20
-144.8226201013269
 30
0.0
  0
SEQEND
  5
D9
330
D6
100
AcDbEntity
  8
_U+30EC_U+30A4_U+30E4_U+30FC 1
 62
   179
420
  2234388
370
     9
  0
POLYLINE
  5
DA
330
1F
100
AcDbEntity
  8
_U+30EC_U+30A4_U+30E4_U+30FC 1
 62
   179
420
  2234388
370
     9
100
AcDb2dPolyline
 66
     1
 10
0.0
 20
0.0
 30
0.0
  0
VERTEX
  5
DB
330
DA
100
AcDbEntity
  8
_U+30EC_U+30A4_U+30E4_U+30FC 1
 62
   179
420
  2234388
370
     9
100
AcDbVertex
100
AcDb2dVertex
 10
135.1195301989675
 20
-171.3229728270423
 30
0.0
  0
VERTEX
  5
DC
330
DA
100
AcDbEntity
  8
_U+30EC_U+30A4_U+30E4_U+30FC 1
 62
   179
420
  2234388
370
     9
100
AcDbVertex
100
AcDb2dVertex
 10
135.1195301989675
 20
-174.8228883942012
 30
0.0
  0
SEQEND
  5
DD
330
DA
100
AcDbEntity
  8
_U+30EC_U+30A4_U+30E4_U+30FC 1
 62
   179
420
  2234388
370
     9
  0
POLYLINE
  5
DE
330
1F
100
AcDbEntity
  8
_U+30EC_U+30A4_U+30E4_U+30FC 1
 62
   179
420
  2234388
370
     9
100
AcDb2dPolyline
 66
     1
 10
0.0
 20
0.0
 30
0.0
  0
VERTEX
  5
DF
330
DE
100
AcDbEntity
  8
_U+30EC_U+30A4_U+30E4_U+30FC 1
 62
   179
420
  2234388
370
     9
100
AcDbVertex
100
AcDb2dVertex
 10
133.6594879663953
 20
-171.3229728270423
 30
0.0
  0
VERTEX
  5
E0
330
DE
100
AcDbEntity
  8
_U+30EC_U+30A4_U+30E4_U+30FC 1
 62
   179
420
  2234388
370
     9
100
AcDbVertex
100
AcDb2dVertex
 10
136.1201043530414
 20
-171.3229728270423
 30
0.0
  0
SEQEND
  5
E1
330
DE
100
AcDbEntity
  8
_U+30EC_U+30A4_U+30E4_U+30FC 1
 62
   179
420
  2234388
370
     9
  0
POLYLINE
  5
E2
330
1F
100
AcDbEntity
  8
_U+30EC_U+30A4_U+30E4_U+30FC 1
 62
   179
420
  2234388
370
     9
100
AcDb2dPolyline
 66
     1
 10
0.0
 20
0.0
 30
0.0
  0
VERTEX
  5
E3
330
E2
100
AcDbEntity
  8
_U+30EC_U+30A4_U+30E4_U+30FC 1
 62
   179
420
  2234388
370
     9
100
AcDbVertex
100
AcDb2dVertex
 10
133.6594879663953
 20
-174.8228453305076
 30
0.0
  0
VERTEX
  5
E4
330
E2
100
AcDbEntity
  8
_U+30EC_U+30A4_U+30E4_U+30FC 1
 62
   179
420
  2234388
370
     9
100
AcDbVertex
100
AcDb2dVertex
 10
136.1201043530414
 20
-174.8228453305076
 30
0.0
  0
SEQEND
  5
E5
330
E2
100
AcDbEntity
  8
_U+30EC_U+30A4_U+30E4_U+30FC 1
 62
   179
420
  2234388
370
     9
  0
POLYLINE
  5
E6
330
1F
100
AcDbEntity
  8
_U+30EC_U+30A4_U+30E4_U+30FC 1
 62
   179
420
  2234388
370
     9
100
AcDb2dPolyline
 66
     1
 10
0.0
 20
0.0
 30
0.0
  0
VERTEX
  5
E7
330
E6
100
AcDbEntity
  8
_U+30EC_U+30A4_U+30E4_U+30FC 1
 62
   179
420
  2234388
370
     9
100
AcDbVertex
100
AcDb2dVertex
 10
135.1195301989675
 20
-171.3229728270423
 30
0.0
  0
VERTEX
  5
E8
330
E6
100
AcDbEntity
  8
_U+30EC_U+30A4_U+30E4_U+30FC 1
 62
   179
420
  2234388
370
     9
100
AcDbVertex
100
AcDb2dVertex
 10
135.1195301989675
 20
-158.322409780976
 30
0.0
  0
SEQEND
  5
E9
330
E6
100
AcDbEntity
  8
_U+30EC_U+30A4_U+30E4_U+30FC 1
 62
   179
420
  2234388
370
     9
  0
POLYLINE
  5
EA
330
1F
100
AcDbEntity
  8
_U+30EC_U+30A4_U+30E4_U+30FC 1
 62
   179
420
  2234388
370
     9
100
AcDb2dPolyline
 66
     1
 10
0.0
 20
0.0
 30
0.0
  0
VERTEX
  5
EB
330
EA
100
AcDbEntity
  8
_U+30EC_U+30A4_U+30E4_U+30FC 1
 62
   179
420
  2234388
370
     9
100
AcDbVertex
100
AcDb2dVertex
 10
135.1195301989675
 20
-158.322905013452
 30
0.0
  0
VERTEX
  5
EC
330
EA
100
AcDbEntity
  8
_U+30EC_U+30A4_U+30E4_U+30FC 1
 62
   179
420
  2234388
370
     9
100
AcDbVertex
100
AcDb2dVertex
 10
135.1195301989675
 20
-157.1231182129436
 30
0.0
  0
SEQEND
  5
ED
330
EA
100
AcDbEntity
  8
_U+30EC_U+30A4_U+30E4_U+30FC 1
 62
   179
420
  2234388
370
     9
  0
POLYLINE
  5
EE
330
1F
100
AcDbEntity
  8
_U+30EC_U+30A4_U+30E4_U+30FC 1
 62
   179
420
  2234388
370
     9
100
AcDb2dPolyline
 66
     1
 10
0.0
 20
0.0
 30
0.0
  0
VERTEX
  5
EF
330
EE
100
AcDbEntity
  8
_U+30EC_U+30A4_U+30E4_U+30FC 1
 62
   179
420
  2234388
370
     9
100
AcDbVertex
100
AcDb2dVertex
 10
133.7435590621587
 20
-158.3225497379801
 30
0.0
  0
VERTEX
  5
F0
330
EE
100
AcDbEntity
  8
_U+30EC_U+30A4_U+30E4_U+30FC 1
 62
   179
420
  2234388
370
     9
100
AcDbVertex
100
AcDb2dVertex
 10
136.1198675027268
 20
-158.3225497379801
 30
0.0
  0
SEQEND
  5
F1
330
EE
100
AcDbEntity
  8
_U+30EC_U+30A4_U+30E4_U+30FC 1
 62
   179
420
  2234388
370
     9
  0
POLYLINE
  5
F2
330
1F
100
AcDbEntity
  8
_U+30EC_U+30A4_U+30E4_U+30FC 1
 62
   179
420
  2234388
370
     9
100
AcDb2dPolyline
 66
     1
 10
0.0
 20
0.0
 30
0.0
  0
VERTEX
  5
F3
330
F2
100
AcDbEntity
  8
_U+30EC_U+30A4_U+30E4_U+30FC 1
 62
   179
420
  2234388
370
     9
100
AcDbVertex
100
AcDb2dVertex
 10
133.7435590621587
 20
-157.1226445123144
 30
0.0
  0
VERTEX
  5
F4
330
F2
100
AcDbEntity
  8
_U+30EC_U+30A4_U+30E4_U+30FC 1
 62
   179
420
  2234388
370
     9
100
AcDbVertex
100
AcDb2dVertex
 10
136.1198675027268
 20
-157.1226445123144
 30
0.0
  0
SEQEND
  5
F5
330
F2
100
AcDbEntity
  8
_U+30EC_U+30A4_U+30E4_U+30FC 1
 62
   179
420
  2234388
370
     9
  0
POLYLINE
  5
F6
330
1F
100
AcDbEntity
  8
_U+30EC_U+30A4_U+30E4_U+30FC 1
 62
   179
420
  2234388
370
     9
100
AcDb2dPolyline
 66
     1
 10
0.0
 20
0.0
 30
0.0
  0
VERTEX
  5
F7
330
F6
100
AcDbEntity
  8
_U+30EC_U+30A4_U+30E4_U+30FC 1
 62
   179
420
  2234388
370
     9
100
AcDbVertex
100
AcDb2dVertex
 10
135.1195301989675
 20
-157.1226445123144
 30
0.0
  0
VERTEX
  5
F8
330
F6
100
AcDbEntity
  8
_U+30EC_U+30A4_U+30E4_U+30FC 1
 62
   179
420
  2234388
370
     9
100
AcDbVertex
100
AcDb2dVertex
 10
135.1195301989675
 20
-124.8219675387818
 30
0.0
  0
SEQEND
  5
F9
330
F6
100
AcDbEntity
  8
_U+30EC_U+30A4_U+30E4_U+30FC 1
 62
   179
420
  2234388
370
     9
  0
POLYLINE
  5
FA
330
1F
100
AcDbEntity
  8
_U+30EC_U+30A4_U+30E4_U+30FC 1
 62
   179
420
  2234388
370
     9
100
AcDb2dPolyline
 66
     1
 10
0.0
 20
0.0
 30
0.0
  0
VERTEX
  5
FB
330
FA
100
AcDbEntity
  8
_U+30EC_U+30A4_U+30E4_U+30FC 1
 62
   179
420
  2234388
370
     9
100
AcDbVertex
100
AcDb2dVertex
 10
100.9000857630783
 20
-124.8219244750879
 30
0.0
  0
VERTEX
  5
FC
330
FA
100
AcDbEntity
  8
_U+30EC_U+30A4_U+30E4_U+30FC 1
 62
   179
420
  2234388
370
     9
100
AcDbVertex
100
AcDb2dVertex
 10
136.1200074597309
 20
-124.8219244750879
 30
0.0
  0
SEQEND
  5
FD
330
FA
100
AcDbEntity
  8
_U+30EC_U+30A4_U+30E4_U+30FC 1
 62
   179
420
  2234388
370
     9
  0
INSERT
  5
FF
330
1F
100
AcDbEntity
  8
_U+30EC_U+30A4_U+30E4_U+30FC 1
100
AcDbBlockReference
  2
block 2
 10
0.0
 20
0.0
 30
0.0
  0
INSERT
  5
10F
330
1F
100
AcDbEntity
  8
_U+30EC_U+30A4_U+30E4_U+30FC 1
100
AcDbBlockReference
  2
block 3
 10
0.0
 20
0.0
 30
0.0
  0
INSERT
  5
117
330
1F
100
AcDbEntity
  8
_U+30EC_U+30A4_U+30E4_U+30FC 1
100
AcDbBlockReference
  2
block 4
 10
0.0
 20
0.0
 30
0.0
  0
INSERT
  5
12B
330
1F
100
AcDbEntity
  8
_U+30EC_U+30A4_U+30E4_U+30FC 1
100
AcDbBlockReference
  2
block 5
 10
0.0
 20
0.0
 30
0.0
  0
INSERT
  5
13B
330
1F
100
AcDbEntity
  8
_U+30EC_U+30A4_U+30E4_U+30FC 1
100
AcDbBlockReference
  2
block 6
 10
0.0
 20
0.0
 30
0.0
  0
INSERT
  5
144
330
1F
100
AcDbEntity
  8
_U+30EC_U+30A4_U+30E4_U+30FC 1
100
AcDbBlockReference
  2
block 7
 10
0.0
 20
0.0
 30
0.0
  0
INSERT
  5
154
330
1F
100
AcDbEntity
  8
_U+30EC_U+30A4_U+30E4_U+30FC 1
100
AcDbBlockReference
  2
block 8
 10
0.0
 20
0.0
 30
0.0
  0
INSERT
  5
164
330
1F
100
AcDbEntity
  8
_U+30EC_U+30A4_U+30E4_U+30FC 1
100
AcDbBlockReference
  2
block 9
 10
0.0
 20
0.0
 30
0.0
  0
INSERT
  5
16C
330
1F
100
AcDbEntity
  8
_U+30EC_U+30A4_U+30E4_U+30FC 1
100
AcDbBlockReference
  2
block 10
 10
0.0
 20
0.0
 30
0.0
  0
ENDSEC
  0
SECTION
  2
OBJECTS
  0
DICTIONARY
  5
C
330
0
100
AcDbDictionary
281
     1
  3
ACAD_GROUP
350
D
  3
ACAD_LAYOUT
350
1A
  3
ACAD_MATERIAL
350
3B
  3
ACAD_MLEADERSTYLE
350
17E
  3
ACAD_MLINESTYLE
350
17
  3
ACAD_PLOTSETTINGS
350
19
  3
ACAD_PLOTSTYLENAME
350
E
  3
ACAD_TABLESTYLE
350
17D
  3
ACAD_VISUALSTYLE
350
2A
  0
SUN
  5
3F
330
29
100
AcDbSun
 90
        1
290
     0
 63
     7
421
 16777215
 40
1.0
291
     1
 91
  2455826
 92
 54000000
292
     0
 70
     2
 71
   256
280
     1
  0
DICTIONARY
  5
D
102
{ACAD_REACTORS
330
C
102
}
330
C
100
AcDbDictionary
281
     1
  0
DICTIONARY
  5
1A
102
{ACAD_REACTORS
330
C
102
}
330
C
100
AcDbDictionary
281
     1
  3
Layout1
350
1E
  3
Layout2
350
26
  3
Model
350
22
  0
DICTIONARY
  5
3B
102
{ACAD_REACTORS
330
C
102
}
330
C
100
AcDbDictionary
281
     1
  3
ByBlock
350
3D
  3
ByLayer
350
3C
  3
Global
350
3E
  0
DICTIONARY
  5
17E
102
{ACAD_REACTORS
330
C
102
}
330
C
100
AcDbDictionary
281
     1
  0
DICTIONARY
  5
17
102
{ACAD_REACTORS
330
C
102
}
330
C
100
AcDbDictionary
281
     1
  3
Standard
350
18
  0
DICTIONARY
  5
19
102
{ACAD_REACTORS
330
C
102
}
330
C
100
AcDbDictionary
281
     1
  0
ACDBDICTIONARYWDFLT
  5
E
102
{ACAD_REACTORS
330
C
102
}
330
C
100
AcDbDictionary
281
     1
  3
Normal
350
F
100
AcDbDictionaryWithDefault
340
F
  0
DICTIONARY
  5
17D
102
{ACAD_REACTORS
330
C
102
}
330
C
100
AcDbDictionary
281
     1
  0
DICTIONARY
  5
2A
102
{ACAD_REACTORS
330
C
102
}
330
C
100
AcDbDictionary
281
     1
  3
2dWireframe
350
2F
  3
3D Hidden
350
31
  3
3dWireframe
350
30
  3
Basic
350
32
  3
Brighten
350
36
  3
ColorChange
350
3A
  3
Conceptual
350
34
  3
Dim
350
35
  3
Facepattern
350
39
  3
Flat
350
2B
  3
FlatWithEdges
350
2C
  3
Gouraud
350
2D
  3
GouraudWithEdges
350
2E
  3
Linepattern
350
38
  3
Realistic
350
33
  3
Thicken
350
37
  0
LAYOUT
  5
1E
102
{ACAD_REACTORS
330
1A
102
}
330
1A
100
AcDbPlotSettings
  1

  2
none_device
  4

  6

 40
0.0
 41
0.0
 42
0.0
 43
0.0
 44
0.0
 45
0.0
 46
0.0
 47
0.0
 48
0.0
 49
0.0
140
0.0
141
0.0
142
1.0
143
1.0
 70
   688
 72
     0
 73
     0
 74
     5
  7

 75
    16
 76
     0
 77
     2
 78
   300
147
1.0
148
0.0
149
0.0
100
AcDbLayout
  1
Layout1
 70
     1
 71
     1
 10
0.0
 20
0.0
 11
12.0
 21
9.0
 12
0.0
 22
0.0
 32
0.0
 14
1.000000000000000E+20
 24
1.000000000000000E+20
 34
1.000000000000000E+20
 15
-1.000000000000000E+20
 25
-1.000000000000000E+20
 35
-1.000000000000000E+20
146
0.0
 13
0.0
 23
0.0
 33
0.0
 16
1.0
 26
0.0
 36
0.0
 17
0.0
 27
1.0
 37
0.0
 76
     0
330
1B
  0
LAYOUT
  5
26
102
{ACAD_REACTORS
330
1A
102
}
330
1A
100
AcDbPlotSettings
  1

  2
none_device
  4

  6

 40
0.0
 41
0.0
 42
0.0
 43
0.0
 44
0.0
 45
0.0
 46
0.0
 47
0.0
 48
0.0
 49
0.0
140
0.0
141
0.0
142
1.0
143
1.0
 70
   688
 72
     0
 73
     0
 74
     5
  7

 75
    16
 76
     0
 77
     2
 78
   300
147
1.0
148
0.0
149
0.0
100
AcDbLayout
  1
Layout2
 70
     1
 71
     2
 10
0.0
 20
0.0
 11
0.0
 21
0.0
 12
0.0
 22
0.0
 32
0.0
 14
0.0
 24
0.0
 34
0.0
 15
0.0
 25
0.0
 35
0.0
146
0.0
 13
0.0
 23
0.0
 33
0.0
 16
1.0
 26
0.0
 36
0.0
 17
0.0
 27
1.0
 37
0.0
 76
     0
330
23
  0
LAYOUT
  5
22
102
{ACAD_REACTORS
330
1A
102
}
330
1A
100
AcDbPlotSettings
  1

  2
none_device
  4

  6

 40
0.0
 41
0.0
 42
0.0
 43
0.0
 44
0.0
 45
0.0
 46
0.0
 47
0.0
 48
0.0
 49
0.0
140
0.0
141
0.0
142
1.0
143
1.0
 70
  1712
 72
     0
 73
     0
 74
     0
  7

 75
     0
 76
     0
 77
     2
 78
   300
147
1.0
148
0.0
149
0.0
100
AcDbLayout
  1
Model
 70
     1
 71
     0
 10
0.0
 20
0.0
 11
12.0
 21
9.0
 12
0.0
 22
0.0
 32
0.0
 14
1.000000000000000E+20
 24
1.000000000000000E+20
 34
1.000000000000000E+20
 15
-1.000000000000000E+20
 25
-1.000000000000000E+20
 35
-1.000000000000000E+20
146
0.0
 13
0.0
 23
0.0
 33
0.0
 16
1.0
 26
0.0
 36
0.0
 17
0.0
 27
1.0
 37
0.0
 76
     0
330
1F
331
29
  0
MATERIAL
  5
3D
102
{ACAD_REACTORS
330
3B
102
}
330
3B
100
AcDbMaterial
  1
ByBlock
 72
     1
 94
      127
  0
MATERIAL
  5
3C
102
{ACAD_REACTORS
330
3B
102
}
330
3B
100
AcDbMaterial
  1
ByLayer
 72
     1
 94
      127
  0
MATERIAL
  5
3E
102
{ACAD_REACTORS
330
3B
102
}
330
3B
100
AcDbMaterial
  1
Global
 72
     1
 94
      127
  0
MLINESTYLE
  5
18
102
{ACAD_REACTORS
330
17
102
}
330
17
100
AcDbMlineStyle
  2
Standard
 70
     0
  3

 62
   256
 51
90.0
 52
90.0
 71
     2
 49
0.5
 62
   256
  6
BYLAYER
 49
-0.5
 62
   256
  6
BYLAYER
  0
ACDBPLACEHOLDER
  5
F
102
{ACAD_REACTORS
330
E
102
}
330
E
  0
VISUALSTYLE
  5
2F
102
{ACAD_REACTORS
330
2A
102
}
330
2A
100
AcDbVisualStyle
  2
2dWireframe
 70
     4
177
     2
291
     0
 71
     0
176
     1
 72
     2
176
     1
 73
     0
176
     1
 90
        0
176
     1
 40
-0.6
176
     1
 41
-30.0
176
     1
 62
     5
 63
     7
421
 16777215
176
     1
 74
     1
176
     1
 91
        4
176
     1
 64
     7
176
     1
 65
   257
176
     1
 75
     1
176
     1
175
     1
176
     1
 42
1.0
176
     1
 92
        0
176
     1
 66
   257
176
     1
 43
1.0
176
     1
 76
     1
176
     1
 77
     6
176
     1
 78
     2
176
     1
 67
     7
176
     1
 79
     5
176
     1
170
     0
176
     1
171
     0
176
     1
290
     0
176
     1
 93
        1
176
     1
 44
0.0
176
     1
173
     0
176
     1
  0
VISUALSTYLE
  5
31
102
{ACAD_REACTORS
330
2A
102
}
330
2A
100
AcDbVisualStyle
  2
3D Hidden
 70
     6
177
     2
291
     0
 71
     1
176
     1
 72
     2
176
     1
 73
     2
176
     1
 90
        0
176
     1
 40
-0.6
176
     1
 41
-30.0
176
     1
 62
     5
 63
     7
421
 16777215
176
     1
 74
     2
176
     1
 91
        2
176
     1
 64
     7
176
     1
 65
   257
176
     1
 75
     2
176
     1
175
     1
176
     1
 42
40.0
176
     1
 92
        0
176
     1
 66
   257
176
     1
 43
1.0
176
     1
 76
     1
176
     1
 77
     6
176
     1
 78
     2
176
     1
 67
     7
176
     1
 79
     3
176
     1
170
     0
176
     1
171
     0
176
     1
290
     0
176
     1
 93
        1
176
     1
 44
0.0
176
     1
173
     0
176
     1
  0
VISUALSTYLE
  5
30
102
{ACAD_REACTORS
330
2A
102
}
330
2A
100
AcDbVisualStyle
  2
3dWireframe
 70
     5
177
     2
291
     0
 71
     0
176
     1
 72
     2
176
     1
 73
     0
176
     1
 90
        0
176
     1
 40
-0.6
176
     1
 41
-30.0
176
     1
 62
     5
 63
     7
421
 16777215
176
     1
 74
     1
176
     1
 91
        4
176
     1
 64
     7
176
     1
 65
   257
176
     1
 75
     1
176
     1
175
     1
176
     1
 42
1.0
176
     1
 92
        0
176
     1
 66
   257
176
     1
 43
1.0
176
     1
 76
     1
176
     1
 77
     6
176
     1
 78
     2
176
     1
 67
     7
176
     1
 79
     5
176
     1
170
     0
176
     1
171
     0
176
     1
290
     0
176
     1
 93
        1
176
     1
 44
0.0
176
     1
173
     0
176
     1
  0
VISUALSTYLE
  5
32
102
{ACAD_REACTORS
330
2A
102
}
330
2A
100
AcDbVisualStyle
  2
Basic
 70
     7
177
     2
291
     1
 71
     1
176
     1
 72
     0
176
     1
 73
     1
176
     1
 90
        0
176
     1
 40
-0.6
176
     1
 41
-30.0
176
     1
 62
     5
 63
     7
421
 16777215
176
     1
 74
     0
176
     1
 91
        4
176
     1
 64
     7
176
     1
 65
   257
176
     1
 75
     1
176
     1
175
     1
176
     1
 42
1.0
176
     1
 92
        8
176
     1
 66
     7
176
     1
 43
1.0
176
     1
 76
     1
176
     1
 77
     6
176
     1
 78
     2
176
     1
 67
     7
176
     1
 79
     5
176
     1
170
     0
176
     1
171
     0
176
     1
290
     0
176
     1
 93
        1
176
     1
 44
0.0
176
     1
173
     0
176
     1
  0
VISUALSTYLE
  5
36
102
{ACAD_REACTORS
330
2A
102
}
330
2A
100
AcDbVisualStyle
  2
Brighten
 70
    12
177
     2
291
     1
 71
     2
176
     1
 72
     2
176
     1
 73
     0
176
     1
 90
        0
176
     1
 40
-0.6
176
     1
 41
-30.0
176
     1
 62
     5
 63
     7
421
 16777215
176
     1
 74
     1
176
     1
 91
        4
176
     1
 64
     7
176
     1
 65
   257
176
     1
 75
     1
176
     1
175
     1
176
     1
 42
1.0
176
     1
 92
        8
176
     1
 66
     7
176
     1
 43
1.0
176
     1
 76
     1
176
     1
 77
     6
176
     1
 78
     2
176
     1
 67
     7
176
     1
 79
     5
176
     1
170
     0
176
     1
171
     0
176
     1
290
     0
176
     1
 93
        1
176
     1
 44
50.0
176
     1
173
     0
176
     1
  0
VISUALSTYLE
  5
3A
102
{ACAD_REACTORS
330
2A
102
}
330
2A
100
AcDbVisualStyle
  2
ColorChange
 70
    16
177
     2
291
     1
 71
     2
176
     1
 72
     2
176
     1
 73
     3
176
     1
 90
        0
176
     1
 40
-0.6
176
     1
 41
-30.0
176
     1
 62
     5
 63
     8
421
  8421504
176
     1
 74
     1
176
     1
 91
        4
176
     1
 64
     7
176
     1
 65
   257
176
     1
 75
     1
176
     1
175
     1
176
     1
 42
1.0
176
     1
 92
        8
176
     1
 66
     8
424
  8421504
176
     1
 43
1.0
176
     1
 76
     1
176
     1
 77
     6
176
     1
 78
     2
176
     1
 67
     7
176
     1
 79
     5
176
     1
170
     0
176
     1
171
     0
176
     1
290
     0
176
     1
 93
        1
176
     1
 44
0.0
176
     1
173
     0
176
     1
  0
VISUALSTYLE
  5
34
102
{ACAD_REACTORS
330
2A
102
}
330
2A
100
AcDbVisualStyle
  2
Conceptual
 70
     9
177
     2
291
     0
 71
     3
176
     1
 72
     2
176
     1
 73
     0
176
     1
 90
        0
176
     1
 40
-0.6
176
     1
 41
-30.0
176
     1
 62
     5
 63
     7
421
 16777215
176
     1
 74
     2
176
     1
 91
        2
176
     1
 64
     7
176
     1
 65
   257
176
     1
 75
     1
176
     1
175
     1
176
     1
 42
40.0
176
     1
 92
        8
176
     1
 66
     7
176
     1
 43
1.0
176
     1
 76
     1
176
     1
 77
     6
176
     1
 78
     2
176
     1
 67
     7
176
     1
 79
     3
176
     1
170
     0
176
     1
171
     0
176
     1
290
     0
176
     1
 93
        1
176
     1
 44
0.0
176
     1
173
     0
176
     1
  0
VISUALSTYLE
  5
35
102
{ACAD_REACTORS
330
2A
102
}
330
2A
100
AcDbVisualStyle
  2
Dim
 70
    11
177
     2
291
     1
 71
     2
176
     1
 72
     2
176
     1
 73
     0
176
     1
 90
        0
176
     1
 40
-0.6
176
     1
 41
-30.0
176
     1
 62
     5
 63
     7
421
 16777215
176
     1
 74
     1
176
     1
 91
        4
176
     1
 64
     7
176
     1
 65
   257
176
     1
 75
     1
176
     1
175
     1
176
     1
 42
1.0
176
     1
 92
        8
176
     1
 66
     7
176
     1
 43
1.0
176
     1
 76
     1
176
     1
 77
     6
176
     1
 78
     2
176
     1
 67
     7
176
     1
 79
     5
176
     1
170
     0
176
     1
171
     0
176
     1
290
     0
176
     1
 93
        1
176
     1
 44
-50.0
176
     1
173
     0
176
     1
  0
VISUALSTYLE
  5
39
102
{ACAD_REACTORS
330
2A
102
}
330
2A
100
AcDbVisualStyle
  2
Facepattern
 70
    15
177
     2
291
     1
 71
     2
176
     1
 72
     2
176
     1
 73
     0
176
     1
 90
        0
176
     1
 40
-0.6
176
     1
 41
-30.0
176
     1
 62
     5
 63
     7
421
 16777215
176
     1
 74
     1
176
     1
 91
        4
176
     1
 64
     7
176
     1
 65
   257
176
     1
 75
     1
176
     1
175
     1
176
     1
 42
1.0
176
     1
 92
        8
176
     1
 66
     7
176
     1
 43
1.0
176
     1
 76
     1
176
     1
 77
     6
176
     1
 78
     2
176
     1
 67
     7
176
     1
 79
     5
176
     1
170
     0
176
     1
171
     0
176
     1
290
     0
176
     1
 93
        1
176
     1
 44
0.0
176
     1
173
     0
176
     1
  0
VISUALSTYLE
  5
2B
102
{ACAD_REACTORS
330
2A
102
}
330
2A
100
AcDbVisualStyle
  2
Flat
 70
     0
177
     2
291
     1
 71
     2
176
     1
 72
     1
176
     1
 73
     1
176
     1
 90
        2
176
     1
 40
-0.6
176
     1
 41
30.0
176
     1
 62
     5
 63
     7
421
 16777215
176
     1
 74
     0
176
     1
 91
        4
176
     1
 64
     7
176
     1
 65
   257
176
     1
 75
     1
176
     1
175
     1
176
     1
 42
1.0
176
     1
 92
        8
176
     1
 66
     7
176
     1
 43
1.0
176
     1
 76
     1
176
     1
 77
     6
176
     1
 78
     2
176
     1
 67
     7
176
     1
 79
     5
176
     1
170
     0
176
     1
171
     0
176
     1
290
     0
176
     1
 93
       13
176
     1
 44
0.0
176
     1
173
     0
176
     1
  0
VISUALSTYLE
  5
2C
102
{ACAD_REACTORS
330
2A
102
}
330
2A
100
AcDbVisualStyle
  2
FlatWithEdges
 70
     1
177
     2
291
     1
 71
     2
176
     1
 72
     1
176
     1
 73
     1
176
     1
 90
        2
176
     1
 40
-0.6
176
     1
 41
30.0
176
     1
 62
     5
 63
     7
421
 16777215
176
     1
 74
     1
176
     1
 91
        4
176
     1
 64
     7
176
     1
 65
   257
176
     1
 75
     1
176
     1
175
     1
176
     1
 42
1.0
176
     1
 92
        0
176
     1
 66
   257
176
     1
 43
1.0
176
     1
 76
     1
176
     1
 77
     6
176
     1
 78
     2
176
     1
 67
     7
176
     1
 79
     5
176
     1
170
     0
176
     1
171
     0
176
     1
290
     0
176
     1
 93
       13
176
     1
 44
0.0
176
     1
173
     0
176
     1
  0
VISUALSTYLE
  5
2D
102
{ACAD_REACTORS
330
2A
102
}
330
2A
100
AcDbVisualStyle
  2
Gouraud
 70
     2
177
     2
291
     1
 71
     2
176
     1
 72
     2
176
     1
 73
     1
176
     1
 90
        2
176
     1
 40
-0.6
176
     1
 41
30.0
176
     1
 62
     5
 63
     7
421
 16777215
176
     1
 74
     0
176
     1
 91
        4
176
     1
 64
     7
176
     1
 65
   257
176
     1
 75
     1
176
     1
175
     1
176
     1
 42
1.0
176
     1
 92
        0
176
     1
 66
     7
176
     1
 43
1.0
176
     1
 76
     1
176
     1
 77
     6
176
     1
 78
     2
176
     1
 67
     7
176
     1
 79
     5
176
     1
170
     0
176
     1
171
     0
176
     1
290
     0
176
     1
 93
       13
176
     1
 44
0.0
176
     1
173
     0
176
     1
  0
VISUALSTYLE
  5
2E
102
{ACAD_REACTORS
330
2A
102
}
330
2A
100
AcDbVisualStyle
  2
GouraudWithEdges
 70
     3
177
     2
291
     1
 71
     2
176
     1
 72
     2
176
     1
 73
     1
176
     1
 90
        2
176
     1
 40
-0.6
176
     1
 41
30.0
176
     1
 62
     5
 63
     7
421
 16777215
176
     1
 74
     1
176
     1
 91
        4
176
     1
 64
     7
176
     1
 65
   257
176
     1
 75
     1
176
     1
175
     1
176
     1
 42
1.0
176
     1
 92
        0
176
     1
 66
   257
176
     1
 43
1.0
176
     1
 76
     1
176
     1
 77
     6
176
     1
 78
     2
176
     1
 67
     7
176
     1
 79
     5
176
     1
170
     0
176
     1
171
     0
176
     1
290
     0
176
     1
 93
       13
176
     1
 44
0.0
176
     1
173
     0
176
     1
  0
VISUALSTYLE
  5
38
102
{ACAD_REACTORS
330
2A
102
}
330
2A
100
AcDbVisualStyle
  2
Linepattern
 70
    14
177
     2
291
     1
 71
     2
176
     1
 72
     2
176
     1
 73
     0
176
     1
 90
        0
176
     1
 40
-0.6
176
     1
 41
-30.0
176
     1
 62
     5
 63
     7
421
 16777215
176
     1
 74
     1
176
     1
 91
        4
176
     1
 64
     7
176
     1
 65
   257
176
     1
 75
     7
176
     1
175
     7
176
     1
 42
1.0
176
     1
 92
        8
176
     1
 66
     7
176
     1
 43
1.0
176
     1
 76
     1
176
     1
 77
     6
176
     1
 78
     2
176
     1
 67
     7
176
     1
 79
     5
176
     1
170
     0
176
     1
171
     0
176
     1
290
     0
176
     1
 93
        1
176
     1
 44
0.0
176
     1
173
     0
176
     1
  0
VISUALSTYLE
  5
33
102
{ACAD_REACTORS
330
2A
102
}
330
2A
100
AcDbVisualStyle
  2
Realistic
 70
     8
177
     2
291
     0
 71
     2
176
     1
 72
     2
176
     1
 73
     0
176
     1
 90
        0
176
     1
 40
-0.6
176
     1
 41
-30.0
176
     1
 62
     5
 63
     7
421
 16777215
176
     1
 74
     1
176
     1
 91
        0
176
     1
 64
     7
176
     1
 65
   257
176
     1
 75
     1
176
     1
175
     1
176
     1
 42
1.0
176
     1
 92
        8
176
     1
 66
     8
424
  7895160
176
     1
 43
1.0
176
     1
 76
     1
176
     1
 77
     6
176
     1
 78
     2
176
     1
 67
     7
176
     1
 79
     5
176
     1
170
     0
176
     1
171
     0
176
     1
290
     0
176
     1
 93
       13
176
     1
 44
0.0
176
     1
173
     0
176
     1
  0
VISUALSTYLE
  5
37
102
{ACAD_REACTORS
330
2A
102
}
330
2A
100
AcDbVisualStyle
  2
Thicken
 70
    13
177
     2
291
     1
 71
     2
176
     1
 72
     2
176
     1
 73
     0
176
     1
 90
        0
176
     1
 40
-0.6
176
     1
 41
-30.0
176
     1
 62
     5
 63
     7
421
 16777215
176
     1
 74
     1
176
     1
 91
        4
176
     1
 64
     7
176
     1
 65
   257
176
     1
 75
     1
176
     1
175
     1
176
     1
 42
1.0
176
     1
 92
       12
176
     1
 66
     7
176
     1
 43
1.0
176
     1
 76
     1
176
     1
 77
     6
176
     1
 78
     2
176
     1
 67
     7
176
     1
 79
     5
176
     1
170
     0
176
     1
171
     0
176
     1
290
     0
176
     1
 93
        1
176
     1
 44
0.0
176
     1
173
     0
176
     1
  0
ENDSEC
  0
EOF
