  0
SECTION
  2
HEADER
  9
$ACADVER
  1
AC1024
  9
$ACADMAINTVER
 70
     6
  9
$DWGCODEPAGE
  3
UNDEFINED
  9
$INSBASE
 10
0.0
 20
0.0
 30
0.0
  9
$EXTMIN
 10
1.000000000000000E+20
 20
1.000000000000000E+20
 30
1.000000000000000E+20
  9
$EXTMAX
 10
-1.000000000000000E+20
 20
-1.000000000000000E+20
 30
-1.000000000000000E+20
  9
$LIMMIN
 10
0.0
 20
0.0
  9
$LIMMAX
 10
12.0
 20
9.0
  9
$ORTHOMODE
 70
     0
  9
$REGENMODE
 70
     1
  9
$FILLMODE
 70
     1
  9
$QTEXTMODE
 70
     0
  9
$MIRRTEXT
 70
     1
  9
$LTSCALE
 40
1.0
  9
$ATTMODE
 70
     1
  9
$TEXTSIZE
 40
0.2
  9
$TRACEWID
 40
0.05
  9
$TEXTSTYLE
  7
Standard
  9
$CLAYER
  8
0
  9
$CELTYPE
  6
ByLayer
  9
$CECOLOR
 62
   256
  9
$CELTSCALE
 40
1.0
  9
$DISPSILH
 70
     0
  9
$DIMSCALE
 40
1.0
  9
$DIMASZ
 40
0.18
  9
$DIMEXO
 40
0.0625
  9
$DIMDLI
 40
0.38
  9
$DIMRND
 40
0.0
  9
$DIMDLE
 40
0.0
  9
$DIMEXE
 40
0.18
  9
$DIMTP
 40
0.0
  9
$DIMTM
 40
0.0
  9
$DIMTXT
 40
0.18
  9
$DIMCEN
 40
0.09
  9
$DIMTSZ
 40
0.0
  9
$DIMTOL
 70
     0
  9
$DIMLIM
 70
     0
  9
$DIMTIH
 70
     1
  9
$DIMTOH
 70
     1
  9
$DIMSE1
 70
     0
  9
$DIMSE2
 70
     0
  9
$DIMTAD
 70
     0
  9
$DIMZIN
 70
     0
  9
$DIMBLK
  1

  9
$DIMASO
 70
     1
  9
$DIMSHO
 70
     1
  9
$DIMPOST
  1

  9
$DIMAPOST
  1

  9
$DIMALT
 70
     0
  9
$DIMALTD
 70
     2
  9
$DIMALTF
 40
25.4
  9
$DIMLFAC
 40
1.0
  9
$DIMTOFL
 70
     0
  9
$DIMTVP
 40
0.0
  9
$DIMTIX
 70
     0
  9
$DIMSOXD
 70
     0
  9
$DIMSAH
 70
     0
  9
$DIMBLK1
  1

  9
$DIMBLK2
  1

  9
$DIMSTYLE
  2
Standard
  9
$DIMCLRD
 70
     0
  9
$DIMCLRE
 70
     0
  9
$DIMCLRT
 70
     0
  9
$DIMTFAC
 40
1.0
  9
$DIMGAP
 40
0.09
  9
$DIMJUST
 70
     0
  9
$DIMSD1
 70
     0
  9
$DIMSD2
 70
     0
  9
$DIMTOLJ
 70
     1
  9
$DIMTZIN
 70
     0
  9
$DIMALTZ
 70
     0
  9
$DIMALTTZ
 70
     0
  9
$DIMUPT
 70
     0
  9
$DIMDEC
 70
     4
  9
$DIMTDEC
 70
     4
  9
$DIMALTU
 70
     2
  9
$DIMALTTD
 70
     2
  9
$DIMTXSTY
  7
Standard
  9
$DIMAUNIT
 70
     0
  9
$DIMADEC
 70
     0
  9
$DIMALTRND
 40
0.0
  9
$DIMAZIN
 70
     0
  9
$DIMDSEP
 70
    46
  9
$DIMATFIT
 70
     3
  9
$DIMFRAC
 70
     0
  9
$DIMLDRBLK
  1

  9
$DIMLUNIT
 70
     2
  9
$DIMLWD
 70
    -2
  9
$DIMLWE
 70
    -2
  9
$DIMTMOVE
 70
     0
  9
$DIMFXL
 40
1.0
  9
$DIMFXLON
 70
     0
  9
$DIMJOGANG
 40
0.7853981633974483
  9
$DIMTFILL
 70
     0
  9
$DIMTFILLCLR
 70
     0
  9
$DIMARCSYM
 70
     0
  9
$DIMLTYPE
  6

  9
$DIMLTEX1
  6

  9
$DIMLTEX2
  6

  9
$DIMTXTDIRECTION
 70
     0
  9
$LUNITS
 70
     2
  9
$LUPREC
 70
     4
  9
$SKETCHINC
 40
0.1
  9
$FILLETRAD
 40
0.5
  9
$AUNITS
 70
     0
  9
$AUPREC
 70
     0
  9
$MENU
  1
.
  9
$ELEVATION
 40
0.0
  9
$PELEVATION
 40
0.0
  9
$THICKNESS
 40
0.0
  9
$LIMCHECK
 70
     0
  9
$CHAMFERA
 40
0.5
  9
$CHAMFERB
 40
0.5
  9
$CHAMFERC
 40
1.0
  9
$CHAMFERD
 40
0.0
  9
$SKPOLY
 70
     0
  9
$TDCREATE
 40
2457917.612129618
  9
$TDUCREATE
 40
2457917.23712963
  9
$TDUPDATE
 40
2457917.612129618
  9
$TDUUPDATE
 40
2457917.23712963
  9
$TDINDWG
 40
0.0000000116
  9
$TDUSRTIMER
 40
0.0000000116
  9
$USRTIMER
 70
     1
  9
$ANGBASE
 50
0.0
  9
$ANGDIR
 70
     0
  9
$PDMODE
 70
     0
  9
$PDSIZE
 40
0.0
  9
$PLINEWID
 40
0.0
  9
$SPLFRAME
 70
     0
  9
$SPLINETYPE
 70
     6
  9
$SPLINESEGS
 70
     8
  9
$HANDSEED
  5
142
  9
$SURFTAB1
 70
     6
  9
$SURFTAB2
 70
     6
  9
$SURFTYPE
 70
     6
  9
$SURFU
 70
     6
  9
$SURFV
 70
     6
  9
$UCSBASE
  2

  9
$UCSNAME
  2

  9
$UCSORG
 10
0.0
 20
0.0
 30
0.0
  9
$UCSXDIR
 10
1.0
 20
0.0
 30
0.0
  9
$UCSYDIR
 10
0.0
 20
1.0
 30
0.0
  9
$UCSORTHOREF
  2

  9
$UCSORTHOVIEW
 70
     0
  9
$UCSORGTOP
 10
0.0
 20
0.0
 30
0.0
  9
$UCSORGBOTTOM
 10
0.0
 20
0.0
 30
0.0
  9
$UCSORGLEFT
 10
0.0
 20
0.0
 30
0.0
  9
$UCSORGRIGHT
 10
0.0
 20
0.0
 30
0.0
  9
$UCSORGFRONT
 10
0.0
 20
0.0
 30
0.0
  9
$UCSORGBACK
 10
0.0
 20
0.0
 30
0.0
  9
$PUCSBASE
  2

  9
$PUCSNAME
  2

  9
$PUCSORG
 10
0.0
 20
0.0
 30
0.0
  9
$PUCSXDIR
 10
1.0
 20
0.0
 30
0.0
  9
$PUCSYDIR
 10
0.0
 20
1.0
 30
0.0
  9
$PUCSORTHOREF
  2

  9
$PUCSORTHOVIEW
 70
     0
  9
$PUCSORGTOP
 10
0.0
 20
0.0
 30
0.0
  9
$PUCSORGBOTTOM
 10
0.0
 20
0.0
 30
0.0
  9
$PUCSORGLEFT
 10
0.0
 20
0.0
 30
0.0
  9
$PUCSORGRIGHT
 10
0.0
 20
0.0
 30
0.0
  9
$PUCSORGFRONT
 10
0.0
 20
0.0
 30
0.0
  9
$PUCSORGBACK
 10
0.0
 20
0.0
 30
0.0
  9
$USERI1
 70
     0
  9
$USERI2
 70
     0
  9
$USERI3
 70
     0
  9
$USERI4
 70
     0
  9
$USERI5
 70
     0
  9
$USERR1
 40
0.0
  9
$USERR2
 40
0.0
  9
$USERR3
 40
0.0
  9
$USERR4
 40
0.0
  9
$USERR5
 40
0.0
  9
$WORLDVIEW
 70
     1
  9
$SHADEDGE
 70
     3
  9
$SHADEDIF
 70
    70
  9
$TILEMODE
 70
     1
  9
$MAXACTVP
 70
    64
  9
$PINSBASE
 10
0.0
 20
0.0
 30
0.0
  9
$PLIMCHECK
 70
     0
  9
$PEXTMIN
 10
1.000000000000000E+20
 20
1.000000000000000E+20
 30
1.000000000000000E+20
  9
$PEXTMAX
 10
-1.000000000000000E+20
 20
-1.000000000000000E+20
 30
-1.000000000000000E+20
  9
$PLIMMIN
 10
0.0
 20
0.0
  9
$PLIMMAX
 10
12.0
 20
9.0
  9
$UNITMODE
 70
     0
  9
$VISRETAIN
 70
     1
  9
$PLINEGEN
 70
     0
  9
$PSLTSCALE
 70
     1
  9
$TREEDEPTH
 70
  3020
  9
$CMLSTYLE
  2
Standard
  9
$CMLJUST
 70
     0
  9
$CMLSCALE
 40
1.0
  9
$PROXYGRAPHICS
 70
     1
  9
$MEASUREMENT
 70
     0
  9
$CELWEIGHT
370
    -1
  9
$ENDCAPS
280
     0
  9
$JOINSTYLE
280
     0
  9
$LWDISPLAY
290
     1
  9
$INSUNITS
 70
     1
  9
$HYPERLINKBASE
  1

  9
$STYLESHEET
  1

  9
$XEDIT
290
     1
  9
$CEPSNTYPE
380
     0
  9
$PSTYLEMODE
290
     1
  9
$FINGERPRINTGUID
  2
{004C5922-7371-BC1D-EB71-6B783EF11959}
  9
$VERSIONGUID
  2
{FAEB1C32-E019-11D5-929B-00C0DF256EC4}
  9
$EXTNAMES
290
     1
  9
$PSVPSCALE
 40
0.0
  9
$OLESTARTUP
290
     0
  9
$SORTENTS
280
   127
  9
$INDEXCTL
280
     0
  9
$HIDETEXT
280
     1
  9
$XCLIPFRAME
280
     2
  9
$HALOGAP
280
     0
  9
$OBSCOLOR
 70
   257
  9
$OBSLTYPE
280
     0
  9
$INTERSECTIONDISPLAY
280
     0
  9
$INTERSECTIONCOLOR
 70
   257
  9
$DIMASSOC
280
     2
  9
$PROJECTNAME
  1

  9
$CAMERADISPLAY
290
     0
  9
$LENSLENGTH
 40
50.0
  9
$CAMERAHEIGHT
 40
0.0
  9
$STEPSPERSEC
 40
2.0
  9
$STEPSIZE
 40
6.0
  9
$3DDWFPREC
 40
2.0
  9
$PSOLWIDTH
 40
0.25
  9
$PSOLHEIGHT
 40
4.0
  9
$LOFTANG1
 40
1.570796326794897
  9
$LOFTANG2
 40
1.570796326794897
  9
$LOFTMAG1
 40
0.0
  9
$LOFTMAG2
 40
0.0
  9
$LOFTPARAM
 70
     7
  9
$LOFTNORMALS
280
     1
  9
$LATITUDE
 40
37.795
  9
$LONGITUDE
 40
-122.394
  9
$NORTHDIRECTION
 40
0.0
  9
$TIMEZONE
 70
 -8000
  9
$LIGHTGLYPHDISPLAY
280
     1
  9
$TILEMODELIGHTSYNCH
280
     1
  9
$CMATERIAL
347
3C
  9
$SOLIDHIST
280
     1
  9
$SHOWHIST
280
     1
  9
$DWFFRAME
280
     2
  9
$DGNFRAME
280
     2
  9
$REALWORLDSCALE
290
     1
  9
$INTERFERECOLOR
 62
   256
  9
$CSHADOW
280
     0
  9
$SHADOWPLANELOCATION
 40
0.0
  0
ENDSEC
  0
SECTION
  2
CLASSES
  0
CLASS
  1
ACDBDICTIONARYWDFLT
  2
AcDbDictionaryWithDefault
  3
ObjectDBX Classes
 90
        0
 91
        4
280
     0
281
     0
  0
CLASS
  1
VISUALSTYLE
  2
AcDbVisualStyle
  3
ObjectDBX Classes
 90
     4095
 91
        4
280
     0
281
     0
  0
CLASS
  1
MATERIAL
  2
AcDbMaterial
  3
ObjectDBX Classes
 90
     1153
 91
        4
280
     0
281
     0
  0
CLASS
  1
SUN
  2
AcDbSun
  3
SCENEOE
 90
     1024
 91
        4
280
     0
281
     0
  0
ENDSEC
  0
SECTION
  2
TABLES
  0
TABLE
  2
VPORT
  5
8
330
0
100
AcDbSymbolTable
 70
     1
  0
VPORT
  5
29
330
8
100
AcDbSymbolTableRecord
100
AcDbViewportTableRecord
  2
*Active
 70
     0
 10
0.0
 20
0.0
 11
1.0
 21
1.0
 12
0.0
 22
0.0
 13
0.0
 23
0.0
 14
0.5
 24
0.5
 15
0.5
 25
0.5
 16
0.0
 26
0.0
 36
1.0
 17
91.00082462281999
 27
-128.4993055234307
 37
0.0
 40
256.9986110468615
 41
0.7081814508812795
 42
50.0
 43
0.0
 44
0.0
 50
0.0
 51
0.0
 71
     0
 72
   100
 73
     1
 74
     3
 75
     0
 76
     0
 77
     0
 78
     0
281
     0
 65
     1
110
0.0
120
0.0
130
0.0
111
1.0
121
0.0
131
0.0
112
0.0
122
1.0
132
0.0
 79
     0
146
0.0
 60
     3
 61
     5
292
     1
282
     1
141
0.0
142
0.0
 63
   250
361
3F
  0
ENDTAB
  0
TABLE
  2
LTYPE
  5
5
330
0
100
AcDbSymbolTable
 70
     1
  0
LTYPE
  5
14
330
5
100
AcDbSymbolTableRecord
100
AcDbLinetypeTableRecord
  2
ByBlock
 70
     0
  3

 72
    65
 73
     0
 40
0.0
  0
LTYPE
  5
15
330
5
100
AcDbSymbolTableRecord
100
AcDbLinetypeTableRecord
  2
ByLayer
 70
     0
  3

 72
    65
 73
     0
 40
0.0
  0
LTYPE
  5
16
330
5
100
AcDbSymbolTableRecord
100
AcDbLinetypeTableRecord
  2
Continuous
 70
     0
  3
Solid line
 72
    65
 73
     0
 40
0.0
  0
ENDTAB
  0
TABLE
  2
LAYER
  5
2
330
0
100
AcDbSymbolTable
 70
     2
  0
LAYER
  5
10
330
2
100
AcDbSymbolTableRecord
100
AcDbLayerTableRecord
  2
0
 70
     0
 62
     7
  6
Continuous
370
    -3
390
F
347
3E
  0
LAYER
  5
40
330
2
100
AcDbSymbolTableRecord
100
AcDbLayerTableRecord
  2
_U+30EC_U+30A4_U+30E4_U+30FC 1
 70
     0
 62
     7
  6
Continuous
370
    -3
390
F
347
3E
  0
ENDTAB
  0
TABLE
  2
STYLE
  5
3
330
0
100
AcDbSymbolTable
 70
     1
  0
STYLE
  5
11
330
3
100
AcDbSymbolTableRecord
100
AcDbTextStyleTableRecord
  2
Standard
 70
     0
 40
0.0
 41
1.0
 50
0.0
 71
     0
 42
0.2
  3
txt
  4

  0
ENDTAB
  0
TABLE
  2
VIEW
  5
6
330
0
100
AcDbSymbolTable
 70
     0
  0
ENDTAB
  0
TABLE
  2
UCS
  5
7
330
0
100
AcDbSymbolTable
 70
     0
  0
ENDTAB
  0
TABLE
  2
APPID
  5
9
330
0
100
AcDbSymbolTable
 70
     1
  0
APPID
  5
12
330
9
100
AcDbSymbolTableRecord
100
AcDbRegAppTableRecord
  2
ACAD
 70
     0
  0
ENDTAB
  0
TABLE
  2
DIMSTYLE
  5
A
330
0
100
AcDbSymbolTable
 70
     1
100
AcDbDimStyleTable
  0
DIMSTYLE
105
27
330
A
100
AcDbSymbolTableRecord
100
AcDbDimStyleTableRecord
  2
Standard
 70
     0
178
     0
340
11
  0
ENDTAB
  0
TABLE
  2
BLOCK_RECORD
  5
1
330
0
100
AcDbSymbolTable
 70
    10
  0
BLOCK_RECORD
  5
1F
330
1
100
AcDbSymbolTableRecord
100
AcDbBlockTableRecord
  2
*Model_Space
340
22
 70
     0
280
     1
281
     0
  0
BLOCK_RECORD
  5
1B
330
1
100
AcDbSymbolTableRecord
100
AcDbBlockTableRecord
  2
*Paper_Space
340
1E
 70
     0
280
     1
281
     0
  0
BLOCK_RECORD
  5
23
330
1
100
AcDbSymbolTableRecord
100
AcDbBlockTableRecord
  2
*Paper_Space0
340
26
 70
     0
280
     1
281
     0
  0
BLOCK_RECORD
  5
41
330
1
100
AcDbSymbolTableRecord
100
AcDbBlockTableRecord
  2
block 2
340
0
102
{BLKREFS
331
42
102
}
 70
     0
280
     1
281
     0
  0
BLOCK_RECORD
  5
FA
330
1
100
AcDbSymbolTableRecord
100
AcDbBlockTableRecord
  2
block 3
340
0
102
{BLKREFS
331
FB
102
}
 70
     0
280
     1
281
     0
  0
BLOCK_RECORD
  5
10A
330
1
100
AcDbSymbolTableRecord
100
AcDbBlockTableRecord
  2
block 4
340
0
102
{BLKREFS
331
10B
102
}
 70
     0
280
     1
281
     0
  0
BLOCK_RECORD
  5
113
330
1
100
AcDbSymbolTableRecord
100
AcDbBlockTableRecord
  2
block 5
340
0
102
{BLKREFS
331
114
102
}
 70
     0
280
     1
281
     0
  0
BLOCK_RECORD
  5
11C
330
1
100
AcDbSymbolTableRecord
100
AcDbBlockTableRecord
  2
block 6
340
0
102
{BLKREFS
331
11D
102
}
 70
     0
280
     1
281
     0
  0
BLOCK_RECORD
  5
122
330
1
100
AcDbSymbolTableRecord
100
AcDbBlockTableRecord
  2
block 7
340
0
102
{BLKREFS
331
123
102
}
 70
     0
280
     1
281
     0
  0
BLOCK_RECORD
  5
12A
330
1
100
AcDbSymbolTableRecord
100
AcDbBlockTableRecord
  2
block 8
340
0
102
{BLKREFS
331
12B
102
}
 70
     0
280
     1
281
     0
  0
BLOCK_RECORD
  5
130
330
1
100
AcDbSymbolTableRecord
100
AcDbBlockTableRecord
  2
block 9
340
0
102
{BLKREFS
331
131
102
}
 70
     0
280
     1
281
     0
  0
BLOCK_RECORD
  5
138
330
1
100
AcDbSymbolTableRecord
100
AcDbBlockTableRecord
  2
block 10
340
0
102
{BLKREFS
331
139
102
}
 70
     0
280
     1
281
     0
  0
ENDTAB
  0
ENDSEC
  0
SECTION
  2
BLOCKS
  0
BLOCK
  5
20
330
1F
100
AcDbEntity
  8
0
100
AcDbBlockBegin
  2
*Model_Space
 70
     0
 10
0.0
 20
0.0
 30
0.0
  3
*Model_Space
  1

  0
ENDBLK
  5
21
330
1F
100
AcDbEntity
  8
0
100
AcDbBlockEnd
  0
BLOCK
  5
1C
330
1B
100
AcDbEntity
 67
     1
  8
0
100
AcDbBlockBegin
  2
*Paper_Space
 70
     0
 10
0.0
 20
0.0
 30
0.0
  3
*Paper_Space
  1

  0
ENDBLK
  5
1D
330
1B
100
AcDbEntity
 67
     1
  8
0
100
AcDbBlockEnd
  0
BLOCK
  5
24
330
23
100
AcDbEntity
  8
0
100
AcDbBlockBegin
  2
*Paper_Space0
 70
     0
 10
0.0
 20
0.0
 30
0.0
  3
*Paper_Space0
  1

  0
ENDBLK
  5
25
330
23
100
AcDbEntity
  8
0
100
AcDbBlockEnd
  0
BLOCK
  5
43
330
41
100
AcDbEntity
  8
0
100
AcDbBlockBegin
  2
block 2
 70
     0
 10
0.0
 20
0.0
 30
0.0
  3
block 2
  1

  0
POLYLINE
  5
45
330
41
100
AcDbEntity
  8
_U+30EC_U+30A4_U+30E4_U+30FC 1
370
     0
100
AcDb2dPolyline
 66
     1
 10
0.0
 20
0.0
 30
0.0
  0
VERTEX
  5
46
330
45
100
AcDbEntity
  8
_U+30EC_U+30A4_U+30E4_U+30FC 1
370
     0
100
AcDbVertex
100
AcDb2dVertex
 10
82.78858149899844
 20
-137.7138963544604
 30
0.0
  0
VERTEX
  5
47
330
45
100
AcDbEntity
  8
_U+30EC_U+30A4_U+30E4_U+30FC 1
370
     0
100
AcDbVertex
100
AcDb2dVertex
 10
80.78850793891345
 20
-137.7138963544604
 30
0.0
  0
VERTEX
  5
48
330
45
100
AcDbEntity
  8
_U+30EC_U+30A4_U+30E4_U+30FC 1
370
     0
100
AcDbVertex
100
AcDb2dVertex
 10
80.78850793891345
 20
-147.7139821852938
 30
0.0
  0
VERTEX
  5
49
330
45
100
AcDbEntity
  8
_U+30EC_U+30A4_U+30E4_U+30FC 1
370
     0
100
AcDbVertex
100
AcDb2dVertex
 10
95.78879505622425
 20
-147.7139821852938
 30
0.0
  0
VERTEX
  5
4A
330
45
100
AcDbEntity
  8
_U+30EC_U+30A4_U+30E4_U+30FC 1
370
     0
100
AcDbVertex
100
AcDb2dVertex
 10
95.78879505622425
 20
-98.71403080865487
 30
0.0
  0
VERTEX
  5
4B
330
45
100
AcDbEntity
  8
_U+30EC_U+30A4_U+30E4_U+30FC 1
370
     0
100
AcDbVertex
100
AcDb2dVertex
 10
96.98838058117582
 20
-98.71403080865487
 30
0.0
  0
VERTEX
  5
4C
330
45
100
AcDbEntity
  8
_U+30EC_U+30A4_U+30E4_U+30FC 1
370
     0
100
AcDbVertex
100
AcDb2dVertex
 10
96.98838058117582
 20
-148.7137544072663
 30
0.0
  0
VERTEX
  5
4D
330
45
100
AcDbEntity
  8
_U+30EC_U+30A4_U+30E4_U+30FC 1
370
     0
100
AcDbVertex
100
AcDb2dVertex
 10
80.78850793891345
 20
-148.7137544072663
 30
0.0
  0
VERTEX
  5
4E
330
45
100
AcDbEntity
  8
_U+30EC_U+30A4_U+30E4_U+30FC 1
370
     0
100
AcDbVertex
100
AcDb2dVertex
 10
80.78850793891345
 20
-160.7140549598215
 30
0.0
  0
VERTEX
  5
4F
330
45
100
AcDbEntity
  8
_U+30EC_U+30A4_U+30E4_U+30FC 1
370
     0
100
AcDbVertex
100
AcDb2dVertex
 10
103.7886659632416
 20
-160.7140549598215
 30
0.0
  0
VERTEX
  5
50
330
45
100
AcDbEntity
  8
_U+30EC_U+30A4_U+30E4_U+30FC 1
370
     0
100
AcDbVertex
100
AcDb2dVertex
 10
103.7886659632416
 20
-158.7134874603219
 30
0.0
  0
VERTEX
  5
51
330
45
100
AcDbEntity
  8
_U+30EC_U+30A4_U+30E4_U+30FC 1
370
     0
100
AcDbVertex
100
AcDb2dVertex
 10
104.7884381599576
 20
-158.7134874603219
 30
0.0
  0
VERTEX
  5
52
330
45
100
AcDbEntity
  8
_U+30EC_U+30A4_U+30E4_U+30FC 1
370
     0
100
AcDbVertex
100
AcDb2dVertex
 10
104.7884381599576
 20
-161.713827181794
 30
0.0
  0
VERTEX
  5
53
330
45
100
AcDbEntity
  8
_U+30EC_U+30A4_U+30E4_U+30FC 1
370
     0
100
AcDbVertex
100
AcDb2dVertex
 10
79.78841824220564
 20
-161.713827181794
 30
0.0
  0
VERTEX
  5
54
330
45
100
AcDbEntity
  8
_U+30EC_U+30A4_U+30E4_U+30FC 1
370
     0
100
AcDbVertex
100
AcDb2dVertex
 10
79.78841824220564
 20
-136.7141241324879
 30
0.0
  0
VERTEX
  5
55
330
45
100
AcDbEntity
  8
_U+30EC_U+30A4_U+30E4_U+30FC 1
370
     0
100
AcDbVertex
100
AcDb2dVertex
 10
82.78858149899844
 20
-136.7141241324879
 30
0.0
  0
VERTEX
  5
56
330
45
100
AcDbEntity
  8
_U+30EC_U+30A4_U+30E4_U+30FC 1
370
     0
100
AcDbVertex
100
AcDb2dVertex
 10
82.78858149899844
 20
-137.7138963544604
 30
0.0
  0
SEQEND
  5
58
330
45
100
AcDbEntity
  8
_U+30EC_U+30A4_U+30E4_U+30FC 1
370
     0
  0
HATCH
  5
57
330
41
100
AcDbEntity
  8
_U+30EC_U+30A4_U+30E4_U+30FC 1
 62
   253
420
 11711154
100
AcDbHatch
 10
0.0
 20
0.0
 30
0.0
210
0.0
220
0.0
230
1.0
  2
SOLID
 70
     1
 71
     0
 91
        1
 92
        1
 93
       16
 72
     1
 10
82.78858149899844
 20
-137.7138963544604
 11
80.78850793891345
 21
-137.7138963544604
 72
     1
 10
80.78850793891345
 20
-137.7138963544604
 11
80.78850793891345
 21
-147.7139821852938
 72
     1
 10
80.78850793891345
 20
-147.7139821852938
 11
95.78879505622425
 21
-147.7139821852938
 72
     1
 10
95.78879505622425
 20
-147.7139821852938
 11
95.78879505622425
 21
-98.71403080865487
 72
     1
 10
95.78879505622425
 20
-98.71403080865487
 11
96.98838058117582
 21
-98.71403080865487
 72
     1
 10
96.98838058117582
 20
-98.71403080865487
 11
96.98838058117582
 21
-148.7137544072663
 72
     1
 10
96.98838058117582
 20
-148.7137544072663
 11
80.78850793891345
 21
-148.7137544072663
 72
     1
 10
80.78850793891345
 20
-148.7137544072663
 11
80.78850793891345
 21
-160.7140549598215
 72
     1
 10
80.78850793891345
 20
-160.7140549598215
 11
103.7886659632416
 21
-160.7140549598215
 72
     1
 10
103.7886659632416
 20
-160.7140549598215
 11
103.7886659632416
 21
-158.7134874603219
 72
     1
 10
103.7886659632416
 20
-158.7134874603219
 11
104.7884381599576
 21
-158.7134874603219
 72
     1
 10
104.7884381599576
 20
-158.7134874603219
 11
104.7884381599576
 21
-161.713827181794
 72
     1
 10
104.7884381599576
 20
-161.713827181794
 11
79.78841824220564
 21
-161.713827181794
 72
     1
 10
79.78841824220564
 20
-161.713827181794
 11
79.78841824220564
 21
-136.7141241324879
 72
     1
 10
79.78841824220564
 20
-136.7141241324879
 11
82.78858149899844
 21
-136.7141241324879
 72
     1
 10
82.78858149899844
 20
-136.7141241324879
 11
82.78858149899844
 21
-137.7138963544604
 97
        0
 75
     2
 76
     1
 98
        0
  0
POLYLINE
  5
59
330
41
100
AcDbEntity
  8
_U+30EC_U+30A4_U+30E4_U+30FC 1
 62
   179
420
  2234388
370
    25
100
AcDb2dPolyline
 66
     1
 10
0.0
 20
0.0
 30
0.0
  0
VERTEX
  5
5A
330
59
100
AcDbEntity
  8
_U+30EC_U+30A4_U+30E4_U+30FC 1
 62
   179
420
  2234388
370
    25
100
AcDbVertex
100
AcDb2dVertex
 10
95.78879505622425
 20
-98.71403080865487
 30
0.0
  0
VERTEX
  5
5B
330
59
100
AcDbEntity
  8
_U+30EC_U+30A4_U+30E4_U+30FC 1
 62
   179
420
  2234388
370
    25
100
AcDbVertex
100
AcDb2dVertex
 10
95.78879505622425
 20
-147.7139821852938
 30
0.0
  0
SEQEND
  5
5C
330
59
100
AcDbEntity
  8
_U+30EC_U+30A4_U+30E4_U+30FC 1
 62
   179
420
  2234388
370
    25
  0
POLYLINE
  5
5D
330
41
100
AcDbEntity
  8
_U+30EC_U+30A4_U+30E4_U+30FC 1
 62
   179
420
  2234388
370
    25
100
AcDb2dPolyline
 66
     1
 10
0.0
 20
0.0
 30
0.0
  0
VERTEX
  5
5E
330
5D
100
AcDbEntity
  8
_U+30EC_U+30A4_U+30E4_U+30FC 1
 62
   179
420
  2234388
370
    25
100
AcDbVertex
100
AcDb2dVertex
 10
96.98838058117582
 20
-98.71403080865487
 30
0.0
  0
VERTEX
  5
5F
330
5D
100
AcDbEntity
  8
_U+30EC_U+30A4_U+30E4_U+30FC 1
 62
   179
420
  2234388
370
    25
100
AcDbVertex
100
AcDb2dVertex
 10
95.78879505622425
 20
-98.71403080865487
 30
0.0
  0
SEQEND
  5
60
330
5D
100
AcDbEntity
  8
_U+30EC_U+30A4_U+30E4_U+30FC 1
 62
   179
420
  2234388
370
    25
  0
POLYLINE
  5
61
330
41
100
AcDbEntity
  8
_U+30EC_U+30A4_U+30E4_U+30FC 1
 62
   179
420
  2234388
370
    25
100
AcDb2dPolyline
 66
     1
 10
0.0
 20
0.0
 30
0.0
  0
VERTEX
  5
62
330
61
100
AcDbEntity
  8
_U+30EC_U+30A4_U+30E4_U+30FC 1
 62
   179
420
  2234388
370
    25
100
AcDbVertex
100
AcDb2dVertex
 10
96.98838058117582
 20
-98.71403080865487
 30
0.0
  0
VERTEX
  5
63
330
61
100
AcDbEntity
  8
_U+30EC_U+30A4_U+30E4_U+30FC 1
 62
   179
420
  2234388
370
    25
100
AcDbVertex
100
AcDb2dVertex
 10
96.98838058117582
 20
-148.7137544072663
 30
0.0
  0
SEQEND
  5
64
330
61
100
AcDbEntity
  8
_U+30EC_U+30A4_U+30E4_U+30FC 1
 62
   179
420
  2234388
370
    25
  0
POLYLINE
  5
65
330
41
100
AcDbEntity
  8
_U+30EC_U+30A4_U+30E4_U+30FC 1
 62
   179
420
  2234388
370
    25
100
AcDb2dPolyline
 66
     1
 10
0.0
 20
0.0
 30
0.0
  0
VERTEX
  5
66
330
65
100
AcDbEntity
  8
_U+30EC_U+30A4_U+30E4_U+30FC 1
 62
   179
420
  2234388
370
    25
100
AcDbVertex
100
AcDb2dVertex
 10
96.98838058117582
 20
-148.7137544072663
 30
0.0
  0
VERTEX
  5
67
330
65
100
AcDbEntity
  8
_U+30EC_U+30A4_U+30E4_U+30FC 1
 62
   179
420
  2234388
370
    25
100
AcDbVertex
100
AcDb2dVertex
 10
80.78850793891345
 20
-148.7137544072663
 30
0.0
  0
SEQEND
  5
68
330
65
100
AcDbEntity
  8
_U+30EC_U+30A4_U+30E4_U+30FC 1
 62
   179
420
  2234388
370
    25
  0
POLYLINE
  5
69
330
41
100
AcDbEntity
  8
_U+30EC_U+30A4_U+30E4_U+30FC 1
 62
   179
420
  2234388
370
    25
100
AcDb2dPolyline
 66
     1
 10
0.0
 20
0.0
 30
0.0
  0
VERTEX
  5
6A
330
69
100
AcDbEntity
  8
_U+30EC_U+30A4_U+30E4_U+30FC 1
 62
   179
420
  2234388
370
    25
100
AcDbVertex
100
AcDb2dVertex
 10
82.78858149899844
 20
-136.7141241324879
 30
0.0
  0
VERTEX
  5
6B
330
69
100
AcDbEntity
  8
_U+30EC_U+30A4_U+30E4_U+30FC 1
 62
   179
420
  2234388
370
    25
100
AcDbVertex
100
AcDb2dVertex
 10
82.78858149899844
 20
-137.7138963544604
 30
0.0
  0
SEQEND
  5
6C
330
69
100
AcDbEntity
  8
_U+30EC_U+30A4_U+30E4_U+30FC 1
 62
   179
420
  2234388
370
    25
  0
POLYLINE
  5
6D
330
41
100
AcDbEntity
  8
_U+30EC_U+30A4_U+30E4_U+30FC 1
 62
   179
420
  2234388
370
    25
100
AcDb2dPolyline
 66
     1
 10
0.0
 20
0.0
 30
0.0
  0
VERTEX
  5
6E
330
6D
100
AcDbEntity
  8
_U+30EC_U+30A4_U+30E4_U+30FC 1
 62
   179
420
  2234388
370
    25
100
AcDbVertex
100
AcDb2dVertex
 10
79.78841824220564
 20
-136.7141241324879
 30
0.0
  0
VERTEX
  5
6F
330
6D
100
AcDbEntity
  8
_U+30EC_U+30A4_U+30E4_U+30FC 1
 62
   179
420
  2234388
370
    25
100
AcDbVertex
100
AcDb2dVertex
 10
79.78841824220564
 20
-161.713827181794
 30
0.0
  0
SEQEND
  5
70
330
6D
100
AcDbEntity
  8
_U+30EC_U+30A4_U+30E4_U+30FC 1
 62
   179
420
  2234388
370
    25
  0
POLYLINE
  5
71
330
41
100
AcDbEntity
  8
_U+30EC_U+30A4_U+30E4_U+30FC 1
 62
   179
420
  2234388
370
    25
100
AcDb2dPolyline
 66
     1
 10
0.0
 20
0.0
 30
0.0
  0
VERTEX
  5
72
330
71
100
AcDbEntity
  8
_U+30EC_U+30A4_U+30E4_U+30FC 1
 62
   179
420
  2234388
370
    25
100
AcDbVertex
100
AcDb2dVertex
 10
104.7884381599576
 20
-158.7134874603219
 30
0.0
  0
VERTEX
  5
73
330
71
100
AcDbEntity
  8
_U+30EC_U+30A4_U+30E4_U+30FC 1
 62
   179
420
  2234388
370
    25
100
AcDbVertex
100
AcDb2dVertex
 10
103.7886659632416
 20
-158.7134874603219
 30
0.0
  0
SEQEND
  5
74
330
71
100
AcDbEntity
  8
_U+30EC_U+30A4_U+30E4_U+30FC 1
 62
   179
420
  2234388
370
    25
  0
POLYLINE
  5
75
330
41
100
AcDbEntity
  8
_U+30EC_U+30A4_U+30E4_U+30FC 1
 62
   179
420
  2234388
370
    25
100
AcDb2dPolyline
 66
     1
 10
0.0
 20
0.0
 30
0.0
  0
VERTEX
  5
76
330
75
100
AcDbEntity
  8
_U+30EC_U+30A4_U+30E4_U+30FC 1
 62
   179
420
  2234388
370
    25
100
AcDbVertex
100
AcDb2dVertex
 10
104.7884381599576
 20
-161.713827181794
 30
0.0
  0
VERTEX
  5
77
330
75
100
AcDbEntity
  8
_U+30EC_U+30A4_U+30E4_U+30FC 1
 62
   179
420
  2234388
370
    25
100
AcDbVertex
100
AcDb2dVertex
 10
79.78841824220564
 20
-161.713827181794
 30
0.0
  0
SEQEND
  5
78
330
75
100
AcDbEntity
  8
_U+30EC_U+30A4_U+30E4_U+30FC 1
 62
   179
420
  2234388
370
    25
  0
POLYLINE
  5
79
330
41
100
AcDbEntity
  8
_U+30EC_U+30A4_U+30E4_U+30FC 1
 62
   179
420
  2234388
370
    25
100
AcDb2dPolyline
 66
     1
 10
0.0
 20
0.0
 30
0.0
  0
VERTEX
  5
7A
330
79
100
AcDbEntity
  8
_U+30EC_U+30A4_U+30E4_U+30FC 1
 62
   179
420
  2234388
370
    25
100
AcDbVertex
100
AcDb2dVertex
 10
82.78858149899844
 20
-136.7141241324879
 30
0.0
  0
VERTEX
  5
7B
330
79
100
AcDbEntity
  8
_U+30EC_U+30A4_U+30E4_U+30FC 1
 62
   179
420
  2234388
370
    25
100
AcDbVertex
100
AcDb2dVertex
 10
79.78841824220564
 20
-136.7141241324879
 30
0.0
  0
SEQEND
  5
7C
330
79
100
AcDbEntity
  8
_U+30EC_U+30A4_U+30E4_U+30FC 1
 62
   179
420
  2234388
370
    25
  0
POLYLINE
  5
7D
330
41
100
AcDbEntity
  8
_U+30EC_U+30A4_U+30E4_U+30FC 1
 62
   179
420
  2234388
370
    25
100
AcDb2dPolyline
 66
     1
 10
0.0
 20
0.0
 30
0.0
  0
VERTEX
  5
7E
330
7D
100
AcDbEntity
  8
_U+30EC_U+30A4_U+30E4_U+30FC 1
 62
   179
420
  2234388
370
    25
100
AcDbVertex
100
AcDb2dVertex
 10
104.7884381599576
 20
-158.7134874603219
 30
0.0
  0
VERTEX
  5
7F
330
7D
100
AcDbEntity
  8
_U+30EC_U+30A4_U+30E4_U+30FC 1
 62
   179
420
  2234388
370
    25
100
AcDbVertex
100
AcDb2dVertex
 10
104.7884381599576
 20
-161.713827181794
 30
0.0
  0
SEQEND
  5
80
330
7D
100
AcDbEntity
  8
_U+30EC_U+30A4_U+30E4_U+30FC 1
 62
   179
420
  2234388
370
    25
  0
POLYLINE
  5
81
330
41
100
AcDbEntity
  8
_U+30EC_U+30A4_U+30E4_U+30FC 1
 62
   179
420
  2234388
370
    25
100
AcDb2dPolyline
 66
     1
 10
0.0
 20
0.0
 30
0.0
  0
VERTEX
  5
82
330
81
100
AcDbEntity
  8
_U+30EC_U+30A4_U+30E4_U+30FC 1
 62
   179
420
  2234388
370
    25
100
AcDbVertex
100
AcDb2dVertex
 10
95.78879505622425
 20
-147.7139821852938
 30
0.0
  0
VERTEX
  5
83
330
81
100
AcDbEntity
  8
_U+30EC_U+30A4_U+30E4_U+30FC 1
 62
   179
420
  2234388
370
    25
100
AcDbVertex
100
AcDb2dVertex
 10
80.78850793891345
 20
-147.7139821852938
 30
0.0
  0
SEQEND
  5
84
330
81
100
AcDbEntity
  8
_U+30EC_U+30A4_U+30E4_U+30FC 1
 62
   179
420
  2234388
370
    25
  0
POLYLINE
  5
85
330
41
100
AcDbEntity
  8
_U+30EC_U+30A4_U+30E4_U+30FC 1
 62
   179
420
  2234388
370
    25
100
AcDb2dPolyline
 66
     1
 10
0.0
 20
0.0
 30
0.0
  0
VERTEX
  5
86
330
85
100
AcDbEntity
  8
_U+30EC_U+30A4_U+30E4_U+30FC 1
 62
   179
420
  2234388
370
    25
100
AcDbVertex
100
AcDb2dVertex
 10
80.78850793891345
 20
-137.7138963544604
 30
0.0
  0
VERTEX
  5
87
330
85
100
AcDbEntity
  8
_U+30EC_U+30A4_U+30E4_U+30FC 1
 62
   179
420
  2234388
370
    25
100
AcDbVertex
100
AcDb2dVertex
 10
80.78850793891345
 20
-147.7139821852938
 30
0.0
  0
SEQEND
  5
88
330
85
100
AcDbEntity
  8
_U+30EC_U+30A4_U+30E4_U+30FC 1
 62
   179
420
  2234388
370
    25
  0
POLYLINE
  5
89
330
41
100
AcDbEntity
  8
_U+30EC_U+30A4_U+30E4_U+30FC 1
 62
   179
420
  2234388
370
    25
100
AcDb2dPolyline
 66
     1
 10
0.0
 20
0.0
 30
0.0
  0
VERTEX
  5
8A
330
89
100
AcDbEntity
  8
_U+30EC_U+30A4_U+30E4_U+30FC 1
 62
   179
420
  2234388
370
    25
100
AcDbVertex
100
AcDb2dVertex
 10
82.78858149899844
 20
-137.7138963544604
 30
0.0
  0
VERTEX
  5
8B
330
89
100
AcDbEntity
  8
_U+30EC_U+30A4_U+30E4_U+30FC 1
 62
   179
420
  2234388
370
    25
100
AcDbVertex
100
AcDb2dVertex
 10
80.78850793891345
 20
-137.7138963544604
 30
0.0
  0
SEQEND
  5
8C
330
89
100
AcDbEntity
  8
_U+30EC_U+30A4_U+30E4_U+30FC 1
 62
   179
420
  2234388
370
    25
  0
POLYLINE
  5
8D
330
41
100
AcDbEntity
  8
_U+30EC_U+30A4_U+30E4_U+30FC 1
 62
   179
420
  2234388
370
    25
100
AcDb2dPolyline
 66
     1
 10
0.0
 20
0.0
 30
0.0
  0
VERTEX
  5
8E
330
8D
100
AcDbEntity
  8
_U+30EC_U+30A4_U+30E4_U+30FC 1
 62
   179
420
  2234388
370
    25
100
AcDbVertex
100
AcDb2dVertex
 10
103.7886659632416
 20
-160.7140549598215
 30
0.0
  0
VERTEX
  5
8F
330
8D
100
AcDbEntity
  8
_U+30EC_U+30A4_U+30E4_U+30FC 1
 62
   179
420
  2234388
370
    25
100
AcDbVertex
100
AcDb2dVertex
 10
80.78850793891345
 20
-160.7140549598215
 30
0.0
  0
SEQEND
  5
90
330
8D
100
AcDbEntity
  8
_U+30EC_U+30A4_U+30E4_U+30FC 1
 62
   179
420
  2234388
370
    25
  0
POLYLINE
  5
91
330
41
100
AcDbEntity
  8
_U+30EC_U+30A4_U+30E4_U+30FC 1
 62
   179
420
  2234388
370
    25
100
AcDb2dPolyline
 66
     1
 10
0.0
 20
0.0
 30
0.0
  0
VERTEX
  5
92
330
91
100
AcDbEntity
  8
_U+30EC_U+30A4_U+30E4_U+30FC 1
 62
   179
420
  2234388
370
    25
100
AcDbVertex
100
AcDb2dVertex
 10
103.7886659632416
 20
-158.7134874603219
 30
0.0
  0
VERTEX
  5
93
330
91
100
AcDbEntity
  8
_U+30EC_U+30A4_U+30E4_U+30FC 1
 62
   179
420
  2234388
370
    25
100
AcDbVertex
100
AcDb2dVertex
 10
103.7886659632416
 20
-160.7140549598215
 30
0.0
  0
SEQEND
  5
94
330
91
100
AcDbEntity
  8
_U+30EC_U+30A4_U+30E4_U+30FC 1
 62
   179
420
  2234388
370
    25
  0
POLYLINE
  5
95
330
41
100
AcDbEntity
  8
_U+30EC_U+30A4_U+30E4_U+30FC 1
 62
   179
420
  2234388
370
    25
100
AcDb2dPolyline
 66
     1
 10
0.0
 20
0.0
 30
0.0
  0
VERTEX
  5
96
330
95
100
AcDbEntity
  8
_U+30EC_U+30A4_U+30E4_U+30FC 1
 62
   179
420
  2234388
370
    25
100
AcDbVertex
100
AcDb2dVertex
 10
80.78850793891345
 20
-148.7137544072663
 30
0.0
  0
VERTEX
  5
97
330
95
100
AcDbEntity
  8
_U+30EC_U+30A4_U+30E4_U+30FC 1
 62
   179
420
  2234388
370
    25
100
AcDbVertex
100
AcDb2dVertex
 10
80.78850793891345
 20
-160.7140549598215
 30
0.0
  0
SEQEND
  5
98
330
95
100
AcDbEntity
  8
_U+30EC_U+30A4_U+30E4_U+30FC 1
 62
   179
420
  2234388
370
    25
  0
SPLINE
  5
99
330
41
100
AcDbEntity
  8
_U+30EC_U+30A4_U+30E4_U+30FC 1
 62
   179
420
  2234388
370
     9
100
AcDbSpline
210
0.0
220
0.0
230
1.0
 70
    11
 71
     3
 72
    17
 73
    13
 74
     0
 42
0.0000000001
 43
0.0000000001
 12
1.0
 22
0.0
 32
0.0
 13
1.0
 23
0.0
 33
0.0
 40
0.0
 40
0.0
 40
0.0
 40
0.0
 40
1.0
 40
1.0
 40
1.0
 40
2.0
 40
2.0
 40
2.0
 40
3.0
 40
3.0
 40
3.0
 40
4.0
 40
4.0
 40
4.0
 40
4.0
 10
95.68821811434573
 20
-94.71360136521062
 30
0.0
 10
95.68821811434573
 20
-94.65846219855754
 30
0.0
 10
95.73298561320362
 20
-94.61369469856866
 30
0.0
 10
95.78879505622425
 20
-94.61369469856866
 30
0.0
 10
95.84393422148419
 20
-94.61369469856866
 30
0.0
 10
95.88870172034208
 20
-94.65846219855754
 30
0.0
 10
95.88870172034208
 20
-94.71360136521062
 30
0.0
 10
95.88870172034208
 20
-94.76870525408555
 30
0.0
 10
95.84393422148419
 20
-94.81350803185227
 30
0.0
 10
95.78879505622425
 20
-94.81350803185227
 30
0.0
 10
95.73298561320362
 20
-94.81350803185227
 30
0.0
 10
95.68821811434573
 20
-94.76870525408555
 30
0.0
 10
95.68821811434573
 20
-94.71360136521062
 30
0.0
  0
SPLINE
  5
9A
330
41
100
AcDbEntity
  8
_U+30EC_U+30A4_U+30E4_U+30FC 1
 62
   179
420
  2234388
370
     9
100
AcDbSpline
210
0.0
220
0.0
230
1.0
 70
    11
 71
     3
 72
    17
 73
    13
 74
     0
 42
0.0000000001
 43
0.0000000001
 12
1.0
 22
0.0
 32
0.0
 13
1.0
 23
0.0
 33
0.0
 40
0.0
 40
0.0
 40
0.0
 40
0.0
 40
1.0
 40
1.0
 40
1.0
 40
2.0
 40
2.0
 40
2.0
 40
3.0
 40
3.0
 40
3.0
 40
4.0
 40
4.0
 40
4.0
 40
4.0
 10
96.888473917058
 20
-94.71360136521062
 30
0.0
 10
96.888473917058
 20
-94.65846219855754
 30
0.0
 10
96.93327669369275
 20
-94.61369469856866
 30
0.0
 10
96.98838058117582
 20
-94.61369469856866
 30
0.0
 10
97.04352219796161
 20
-94.61369469856866
 30
0.0
 10
97.08828724529366
 20
-94.65846219855754
 30
0.0
 10
97.08828724529366
 20
-94.71360136521062
 30
0.0
 10
97.08828724529366
 20
-94.76870525408555
 30
0.0
 10
97.04352219796161
 20
-94.81350803185227
 30
0.0
 10
96.98838058117582
 20
-94.81350803185227
 30
0.0
 10
96.93327669369275
 20
-94.81350803185227
 30
0.0
 10
96.888473917058
 20
-94.76870525408555
 30
0.0
 10
96.888473917058
 20
-94.71360136521062
 30
0.0
  0
SPLINE
  5
9B
330
41
100
AcDbEntity
  8
_U+30EC_U+30A4_U+30E4_U+30FC 1
 62
   179
420
  2234388
370
     9
100
AcDbSpline
210
0.0
220
0.0
230
1.0
 70
    11
 71
     3
 72
    17
 73
    13
 74
     0
 42
0.0000000001
 43
0.0000000001
 12
1.0
 22
0.0
 32
0.0
 13
1.0
 23
0.0
 33
0.0
 40
0.0
 40
0.0
 40
0.0
 40
0.0
 40
1.0
 40
1.0
 40
1.0
 40
2.0
 40
2.0
 40
2.0
 40
3.0
 40
3.0
 40
3.0
 40
4.0
 40
4.0
 40
4.0
 40
4.0
 10
79.68851157808781
 20
-132.7136946890437
 30
0.0
 10
79.68851157808781
 20
-132.6585555223912
 30
0.0
 10
79.73327907694569
 20
-132.613788022402
 30
0.0
 10
79.78841824220564
 20
-132.613788022402
 30
0.0
 10
79.84387490745749
 20
-132.613788022402
 30
0.0
 10
79.88867768409226
 20
-132.6585555223912
 30
0.0
 10
79.88867768409226
 20
-132.7136946890437
 30
0.0
 10
79.88867768409226
 20
-132.7687985779192
 30
0.0
 10
79.84387490745749
 20
-132.8136013556853
 30
0.0
 10
79.78841824220564
 20
-132.8136013556853
 30
0.0
 10
79.73327907694569
 20
-132.8136013556853
 30
0.0
 10
79.68851157808781
 20
-132.7687985779192
 30
0.0
 10
79.68851157808781
 20
-132.7136946890437
 30
0.0
  0
SPLINE
  5
9C
330
41
100
AcDbEntity
  8
_U+30EC_U+30A4_U+30E4_U+30FC 1
 62
   179
420
  2234388
370
     9
100
AcDbSpline
210
0.0
220
0.0
230
1.0
 70
    11
 71
     3
 72
    17
 73
    13
 74
     0
 42
0.0000000001
 43
0.0000000001
 12
1.0
 22
0.0
 32
0.0
 13
1.0
 23
0.0
 33
0.0
 40
0.0
 40
0.0
 40
0.0
 40
0.0
 40
1.0
 40
1.0
 40
1.0
 40
2.0
 40
2.0
 40
2.0
 40
3.0
 40
3.0
 40
3.0
 40
4.0
 40
4.0
 40
4.0
 40
4.0
 10
82.6886748348806
 20
-132.7136946890437
 30
0.0
 10
82.6886748348806
 20
-132.6585555223912
 30
0.0
 10
82.73344442376124
 20
-132.613788022402
 30
0.0
 10
82.78858149899844
 20
-132.613788022402
 30
0.0
 10
82.84368538648151
 20
-132.613788022402
 30
0.0
 10
82.88848816311626
 20
-132.6585555223912
 30
0.0
 10
82.88848816311626
 20
-132.7136946890437
 30
0.0
 10
82.88848816311626
 20
-132.7687985779192
 30
0.0
 10
82.84368538648151
 20
-132.8136013556853
 30
0.0
 10
82.78858149899844
 20
-132.8136013556853
 30
0.0
 10
82.73344442376124
 20
-132.8136013556853
 30
0.0
 10
82.6886748348806
 20
-132.7687985779192
 30
0.0
 10
82.6886748348806
 20
-132.7136946890437
 30
0.0
  0
SPLINE
  5
9D
330
41
100
AcDbEntity
  8
_U+30EC_U+30A4_U+30E4_U+30FC 1
 62
   179
420
  2234388
370
     9
100
AcDbSpline
210
0.0
220
0.0
230
1.0
 70
    11
 71
     3
 72
    17
 73
    13
 74
     0
 42
0.0000000001
 43
0.0000000001
 12
1.0
 22
0.0
 32
0.0
 13
1.0
 23
0.0
 33
0.0
 40
0.0
 40
0.0
 40
0.0
 40
0.0
 40
1.0
 40
1.0
 40
1.0
 40
2.0
 40
2.0
 40
2.0
 40
3.0
 40
3.0
 40
3.0
 40
4.0
 40
4.0
 40
4.0
 40
4.0
 10
95.68821811434573
 20
-134.7135566329883
 30
0.0
 10
95.68821811434573
 20
-134.6584527441134
 30
0.0
 10
95.73298561320362
 20
-134.6136499663467
 30
0.0
 10
95.78879505622425
 20
-134.6136499663467
 30
0.0
 10
95.84393422148419
 20
-134.6136499663467
 30
0.0
 10
95.88870172034208
 20
-134.6584527441134
 30
0.0
 10
95.88870172034208
 20
-134.7135566329883
 30
0.0
 10
95.88870172034208
 20
-134.7686957996414
 30
0.0
 10
95.84393422148419
 20
-134.81346329963
 30
0.0
 10
95.78879505622425
 20
-134.81346329963
 30
0.0
 10
95.73298561320362
 20
-134.81346329963
 30
0.0
 10
95.68821811434573
 20
-134.7686957996414
 30
0.0
 10
95.68821811434573
 20
-134.7135566329883
 30
0.0
  0
SPLINE
  5
9E
330
41
100
AcDbEntity
  8
_U+30EC_U+30A4_U+30E4_U+30FC 1
 62
   179
420
  2234388
370
     9
100
AcDbSpline
210
0.0
220
0.0
230
1.0
 70
    11
 71
     3
 72
    17
 73
    13
 74
     0
 42
0.0000000001
 43
0.0000000001
 12
1.0
 22
0.0
 32
0.0
 13
1.0
 23
0.0
 33
0.0
 40
0.0
 40
0.0
 40
0.0
 40
0.0
 40
1.0
 40
1.0
 40
1.0
 40
2.0
 40
2.0
 40
2.0
 40
3.0
 40
3.0
 40
3.0
 40
4.0
 40
4.0
 40
4.0
 40
4.0
 10
75.68839973569472
 20
-161.713827181794
 30
0.0
 10
75.68839973569472
 20
-161.6586880151409
 30
0.0
 10
75.73320251232948
 20
-161.6139205151524
 30
0.0
 10
75.78866109216389
 20
-161.6139205151524
 30
0.0
 10
75.84376306506441
 20
-161.6139205151524
 30
0.0
 10
75.88856584169916
 20
-161.6586880151409
 30
0.0
 10
75.88856584169916
 20
-161.713827181794
 30
0.0
 10
75.88856584169916
 20
-161.7689310706689
 30
0.0
 10
75.84376306506441
 20
-161.8137338484356
 30
0.0
 10
75.78866109216389
 20
-161.8137338484356
 30
0.0
 10
75.73320251232948
 20
-161.8137338484356
 30
0.0
 10
75.68839973569472
 20
-161.7689310706689
 30
0.0
 10
75.68839973569472
 20
-161.713827181794
 30
0.0
  0
SPLINE
  5
9F
330
41
100
AcDbEntity
  8
_U+30EC_U+30A4_U+30E4_U+30FC 1
 62
   179
420
  2234388
370
     9
100
AcDbSpline
210
0.0
220
0.0
230
1.0
 70
    11
 71
     3
 72
    17
 73
    13
 74
     0
 42
0.0000000001
 43
0.0000000001
 12
1.0
 22
0.0
 32
0.0
 13
1.0
 23
0.0
 33
0.0
 40
0.0
 40
0.0
 40
0.0
 40
0.0
 40
1.0
 40
1.0
 40
1.0
 40
2.0
 40
2.0
 40
2.0
 40
3.0
 40
3.0
 40
3.0
 40
4.0
 40
4.0
 40
4.0
 40
4.0
 10
75.68839973569472
 20
-136.7141241324879
 30
0.0
 10
75.68839973569472
 20
-136.659020243613
 30
0.0
 10
75.73320251232948
 20
-136.6142174658463
 30
0.0
 10
75.78866109216389
 20
-136.6142174658463
 30
0.0
 10
75.84376306506441
 20
-136.6142174658463
 30
0.0
 10
75.88856584169916
 20
-136.659020243613
 30
0.0
 10
75.88856584169916
 20
-136.7141241324879
 30
0.0
 10
75.88856584169916
 20
-136.769263299141
 30
0.0
 10
75.84376306506441
 20
-136.8140307991295
 30
0.0
 10
75.78866109216389
 20
-136.8140307991295
 30
0.0
 10
75.73320251232948
 20
-136.8140307991295
 30
0.0
 10
75.68839973569472
 20
-136.769263299141
 30
0.0
 10
75.68839973569472
 20
-136.7141241324879
 30
0.0
  0
SPLINE
  5
A0
330
41
100
AcDbEntity
  8
_U+30EC_U+30A4_U+30E4_U+30FC 1
 62
   179
420
  2234388
370
     9
100
AcDbSpline
210
0.0
220
0.0
230
1.0
 70
    11
 71
     3
 72
    17
 73
    13
 74
     0
 42
0.0000000001
 43
0.0000000001
 12
1.0
 22
0.0
 32
0.0
 13
1.0
 23
0.0
 33
0.0
 40
0.0
 40
0.0
 40
0.0
 40
0.0
 40
1.0
 40
1.0
 40
1.0
 40
2.0
 40
2.0
 40
2.0
 40
3.0
 40
3.0
 40
3.0
 40
4.0
 40
4.0
 40
4.0
 40
4.0
 10
79.68851157808781
 20
-165.7142566252382
 30
0.0
 10
79.68851157808781
 20
-165.6584471808078
 30
0.0
 10
79.73327907694569
 20
-165.6136796808186
 30
0.0
 10
79.78841824220564
 20
-165.6136796808186
 30
0.0
 10
79.84387490745749
 20
-165.6136796808186
 30
0.0
 10
79.88867768409226
 20
-165.6584471808078
 30
0.0
 10
79.88867768409226
 20
-165.7142566252382
 30
0.0
 10
79.88867768409226
 20
-165.7693957918907
 30
0.0
 10
79.84387490745749
 20
-165.8141632918799
 30
0.0
 10
79.78841824220564
 20
-165.8141632918799
 30
0.0
 10
79.73327907694569
 20
-165.8141632918799
 30
0.0
 10
79.68851157808781
 20
-165.7693957918907
 30
0.0
 10
79.68851157808781
 20
-165.7142566252382
 30
0.0
  0
SPLINE
  5
A1
330
41
100
AcDbEntity
  8
_U+30EC_U+30A4_U+30E4_U+30FC 1
 62
   179
420
  2234388
370
     9
100
AcDbSpline
210
0.0
220
0.0
230
1.0
 70
    11
 71
     3
 72
    17
 73
    13
 74
     0
 42
0.0000000001
 43
0.0000000001
 12
1.0
 22
0.0
 32
0.0
 13
1.0
 23
0.0
 33
0.0
 40
0.0
 40
0.0
 40
0.0
 40
0.0
 40
1.0
 40
1.0
 40
1.0
 40
2.0
 40
2.0
 40
2.0
 40
3.0
 40
3.0
 40
3.0
 40
4.0
 40
4.0
 40
4.0
 40
4.0
 10
108.6886433382328
 20
-161.713827181794
 30
0.0
 10
108.6886433382328
 20
-161.6586880151409
 30
0.0
 10
108.7330580593219
 20
-161.6139205151524
 30
0.0
 10
108.7885527505808
 20
-161.6139205151524
 30
0.0
 10
108.8440066676025
 20
-161.6139205151524
 30
0.0
 10
108.8887741664604
 20
-161.6586880151409
 30
0.0
 10
108.8887741664604
 20
-161.713827181794
 30
0.0
 10
108.8887741664604
 20
-161.7689310706689
 30
0.0
 10
108.8440066676025
 20
-161.8137338484356
 30
0.0
 10
108.7885527505808
 20
-161.8137338484356
 30
0.0
 10
108.7330580593219
 20
-161.8137338484356
 30
0.0
 10
108.6886433382328
 20
-161.7689310706689
 30
0.0
 10
108.6886433382328
 20
-161.713827181794
 30
0.0
  0
SPLINE
  5
A2
330
41
100
AcDbEntity
  8
_U+30EC_U+30A4_U+30E4_U+30FC 1
 62
   179
420
  2234388
370
     9
100
AcDbSpline
210
0.0
220
0.0
230
1.0
 70
    11
 71
     3
 72
    17
 73
    13
 74
     0
 42
0.0000000001
 43
0.0000000001
 12
1.0
 22
0.0
 32
0.0
 13
1.0
 23
0.0
 33
0.0
 40
0.0
 40
0.0
 40
0.0
 40
0.0
 40
1.0
 40
1.0
 40
1.0
 40
2.0
 40
2.0
 40
2.0
 40
3.0
 40
3.0
 40
3.0
 40
4.0
 40
4.0
 40
4.0
 40
4.0
 10
108.6886433382328
 20
-158.7134874603219
 30
0.0
 10
108.6886433382328
 20
-158.6583482936688
 30
0.0
 10
108.7330580593219
 20
-158.6135807936803
 30
0.0
 10
108.7885527505808
 20
-158.6135807936803
 30
0.0
 10
108.8440066676025
 20
-158.6135807936803
 30
0.0
 10
108.8887741664604
 20
-158.6583482936688
 30
0.0
 10
108.8887741664604
 20
-158.7134874603219
 30
0.0
 10
108.8887741664604
 20
-158.7692969047523
 30
0.0
 10
108.8440066676025
 20
-158.8140644047409
 30
0.0
 10
108.7885527505808
 20
-158.8140644047409
 30
0.0
 10
108.7330580593219
 20
-158.8140644047409
 30
0.0
 10
108.6886433382328
 20
-158.7692969047523
 30
0.0
 10
108.6886433382328
 20
-158.7134874603219
 30
0.0
  0
SPLINE
  5
A3
330
41
100
AcDbEntity
  8
_U+30EC_U+30A4_U+30E4_U+30FC 1
 62
   179
420
  2234388
370
     9
100
AcDbSpline
210
0.0
220
0.0
230
1.0
 70
    11
 71
     3
 72
    17
 73
    13
 74
     0
 42
0.0000000001
 43
0.0000000001
 12
1.0
 22
0.0
 32
0.0
 13
1.0
 23
0.0
 33
0.0
 40
0.0
 40
0.0
 40
0.0
 40
0.0
 40
1.0
 40
1.0
 40
1.0
 40
2.0
 40
2.0
 40
2.0
 40
3.0
 40
3.0
 40
3.0
 40
4.0
 40
4.0
 40
4.0
 40
4.0
 10
104.6885314958397
 20
-165.7142566252382
 30
0.0
 10
104.6885314958397
 20
-165.6584471808078
 30
0.0
 10
104.7332989946976
 20
-165.6136796808186
 30
0.0
 10
104.7884381599576
 20
-165.6136796808186
 30
0.0
 10
104.8435420474406
 20
-165.6136796808186
 30
0.0
 10
104.8883448240754
 20
-165.6584471808078
 30
0.0
 10
104.8883448240754
 20
-165.7142566252382
 30
0.0
 10
104.8883448240754
 20
-165.7693957918907
 30
0.0
 10
104.8435420474406
 20
-165.8141632918799
 30
0.0
 10
104.7884381599576
 20
-165.8141632918799
 30
0.0
 10
104.7332989946976
 20
-165.8141632918799
 30
0.0
 10
104.6885314958397
 20
-165.7693957918907
 30
0.0
 10
104.6885314958397
 20
-165.7142566252382
 30
0.0
  0
SPLINE
  5
A4
330
41
100
AcDbEntity
  8
_U+30EC_U+30A4_U+30E4_U+30FC 1
 62
   179
420
  2234388
370
     9
100
AcDbSpline
210
0.0
220
0.0
230
1.0
 70
    11
 71
     3
 72
    17
 73
    13
 74
     0
 42
0.0000000001
 43
0.0000000001
 12
1.0
 22
0.0
 32
0.0
 13
1.0
 23
0.0
 33
0.0
 40
0.0
 40
0.0
 40
0.0
 40
0.0
 40
1.0
 40
1.0
 40
1.0
 40
2.0
 40
2.0
 40
2.0
 40
3.0
 40
3.0
 40
3.0
 40
4.0
 40
4.0
 40
4.0
 40
4.0
 10
108.6886433382328
 20
-148.7137544072663
 30
0.0
 10
108.6886433382328
 20
-148.6586152406132
 30
0.0
 10
108.7330580593219
 20
-148.613847740624
 30
0.0
 10
108.7885527505808
 20
-148.613847740624
 30
0.0
 10
108.8440066676025
 20
-148.613847740624
 30
0.0
 10
108.8887741664604
 20
-148.6586152406132
 30
0.0
 10
108.8887741664604
 20
-148.7137544072663
 30
0.0
 10
108.8887741664604
 20
-148.7688582961412
 30
0.0
 10
108.8440066676025
 20
-148.813661073908
 30
0.0
 10
108.7885527505808
 20
-148.813661073908
 30
0.0
 10
108.7330580593219
 20
-148.813661073908
 30
0.0
 10
108.6886433382328
 20
-148.7688582961412
 30
0.0
 10
108.6886433382328
 20
-148.7137544072663
 30
0.0
  0
SPLINE
  5
A5
330
41
100
AcDbEntity
  8
_U+30EC_U+30A4_U+30E4_U+30FC 1
 62
   179
420
  2234388
370
     9
100
AcDbSpline
210
0.0
220
0.0
230
1.0
 70
    11
 71
     3
 72
    17
 73
    13
 74
     0
 42
0.0000000001
 43
0.0000000001
 12
1.0
 22
0.0
 32
0.0
 13
1.0
 23
0.0
 33
0.0
 40
0.0
 40
0.0
 40
0.0
 40
0.0
 40
1.0
 40
1.0
 40
1.0
 40
2.0
 40
2.0
 40
2.0
 40
3.0
 40
3.0
 40
3.0
 40
4.0
 40
4.0
 40
4.0
 40
4.0
 10
108.6886433382328
 20
-98.71403080865487
 30
0.0
 10
108.6886433382328
 20
-98.65892691977963
 30
0.0
 10
108.7330580593219
 20
-98.61412414201324
 30
0.0
 10
108.7885527505808
 20
-98.61412414201324
 30
0.0
 10
108.8440066676025
 20
-98.61412414201324
 30
0.0
 10
108.8887741664604
 20
-98.65892691977963
 30
0.0
 10
108.8887741664604
 20
-98.71403080865487
 30
0.0
 10
108.8887741664604
 20
-98.76916997530763
 30
0.0
 10
108.8440066676025
 20
-98.81393747529651
 30
0.0
 10
108.7885527505808
 20
-98.81393747529651
 30
0.0
 10
108.7330580593219
 20
-98.81393747529651
 30
0.0
 10
108.6886433382328
 20
-98.76916997530763
 30
0.0
 10
108.6886433382328
 20
-98.71403080865487
 30
0.0
  0
POLYLINE
  5
A6
330
41
100
AcDbEntity
  8
_U+30EC_U+30A4_U+30E4_U+30FC 1
 62
   179
420
  2234388
370
     9
100
AcDb2dPolyline
 66
     1
 10
0.0
 20
0.0
 30
0.0
  0
VERTEX
  5
A7
330
A6
100
AcDbEntity
  8
_U+30EC_U+30A4_U+30E4_U+30FC 1
 62
   179
420
  2234388
370
     9
100
AcDbVertex
100
AcDb2dVertex
 10
96.98838058117582
 20
-94.71360136521062
 30
0.0
  0
VERTEX
  5
A8
330
A6
100
AcDbEntity
  8
_U+30EC_U+30A4_U+30E4_U+30FC 1
 62
   179
420
  2234388
370
     9
100
AcDbVertex
100
AcDb2dVertex
 10
102.2462888633274
 20
-94.71360136521062
 30
0.0
  0
SEQEND
  5
A9
330
A6
100
AcDbEntity
  8
_U+30EC_U+30A4_U+30E4_U+30FC 1
 62
   179
420
  2234388
370
     9
  0
POLYLINE
  5
AA
330
41
100
AcDbEntity
  8
_U+30EC_U+30A4_U+30E4_U+30FC 1
 62
   179
420
  2234388
370
     9
100
AcDb2dPolyline
 66
     1
 10
0.0
 20
0.0
 30
0.0
  0
VERTEX
  5
AB
330
AA
100
AcDbEntity
  8
_U+30EC_U+30A4_U+30E4_U+30FC 1
 62
   179
420
  2234388
370
     9
100
AcDbVertex
100
AcDb2dVertex
 10
96.98838058117582
 20
-94.71360136521062
 30
0.0
  0
VERTEX
  5
AC
330
AA
100
AcDbEntity
  8
_U+30EC_U+30A4_U+30E4_U+30FC 1
 62
   179
420
  2234388
370
     9
100
AcDbVertex
100
AcDb2dVertex
 10
94.78835258174766
 20
-94.71360136521062
 30
0.0
  0
SEQEND
  5
AD
330
AA
100
AcDbEntity
  8
_U+30EC_U+30A4_U+30E4_U+30FC 1
 62
   179
420
  2234388
370
     9
  0
POLYLINE
  5
AE
330
41
100
AcDbEntity
  8
_U+30EC_U+30A4_U+30E4_U+30FC 1
 62
   179
420
  2234388
370
     9
100
AcDb2dPolyline
 66
     1
 10
0.0
 20
0.0
 30
0.0
  0
VERTEX
  5
AF
330
AE
100
AcDbEntity
  8
_U+30EC_U+30A4_U+30E4_U+30FC 1
 62
   179
420
  2234388
370
     9
100
AcDbVertex
100
AcDb2dVertex
 10
96.98838058117582
 20
-96.17364275373433
 30
0.0
  0
VERTEX
  5
B0
330
AE
100
AcDbEntity
  8
_U+30EC_U+30A4_U+30E4_U+30FC 1
 62
   179
420
  2234388
370
     9
100
AcDbVertex
100
AcDb2dVertex
 10
96.98838058117582
 20
-93.71382914323809
 30
0.0
  0
SEQEND
  5
B1
330
AE
100
AcDbEntity
  8
_U+30EC_U+30A4_U+30E4_U+30FC 1
 62
   179
420
  2234388
370
     9
  0
POLYLINE
  5
B2
330
41
100
AcDbEntity
  8
_U+30EC_U+30A4_U+30E4_U+30FC 1
 62
   179
420
  2234388
370
     9
100
AcDb2dPolyline
 66
     1
 10
0.0
 20
0.0
 30
0.0
  0
VERTEX
  5
B3
330
B2
100
AcDbEntity
  8
_U+30EC_U+30A4_U+30E4_U+30FC 1
 62
   179
420
  2234388
370
     9
100
AcDbVertex
100
AcDb2dVertex
 10
95.78879505622425
 20
-96.17364275373433
 30
0.0
  0
VERTEX
  5
B4
330
B2
100
AcDbEntity
  8
_U+30EC_U+30A4_U+30E4_U+30FC 1
 62
   179
420
  2234388
370
     9
100
AcDbVertex
100
AcDb2dVertex
 10
95.78879505622425
 20
-93.71382914323809
 30
0.0
  0
SEQEND
  5
B5
330
B2
100
AcDbEntity
  8
_U+30EC_U+30A4_U+30E4_U+30FC 1
 62
   179
420
  2234388
370
     9
  0
POLYLINE
  5
B6
330
41
100
AcDbEntity
  8
_U+30EC_U+30A4_U+30E4_U+30FC 1
 62
   179
420
  2234388
370
     9
100
AcDb2dPolyline
 66
     1
 10
0.0
 20
0.0
 30
0.0
  0
VERTEX
  5
B7
330
B6
100
AcDbEntity
  8
_U+30EC_U+30A4_U+30E4_U+30FC 1
 62
   179
420
  2234388
370
     9
100
AcDbVertex
100
AcDb2dVertex
 10
108.7885527505808
 20
-148.7137544072663
 30
0.0
  0
VERTEX
  5
B8
330
B6
100
AcDbEntity
  8
_U+30EC_U+30A4_U+30E4_U+30FC 1
 62
   179
420
  2234388
370
     9
100
AcDbVertex
100
AcDb2dVertex
 10
108.7885527505808
 20
-98.71403080865487
 30
0.0
  0
SEQEND
  5
B9
330
B6
100
AcDbEntity
  8
_U+30EC_U+30A4_U+30E4_U+30FC 1
 62
   179
420
  2234388
370
     9
  0
POLYLINE
  5
BA
330
41
100
AcDbEntity
  8
_U+30EC_U+30A4_U+30E4_U+30FC 1
 62
   179
420
  2234388
370
     9
100
AcDb2dPolyline
 66
     1
 10
0.0
 20
0.0
 30
0.0
  0
VERTEX
  5
BB
330
BA
100
AcDbEntity
  8
_U+30EC_U+30A4_U+30E4_U+30FC 1
 62
   179
420
  2234388
370
     9
100
AcDbVertex
100
AcDb2dVertex
 10
99.52845107192879
 20
-148.7137544072663
 30
0.0
  0
VERTEX
  5
BC
330
BA
100
AcDbEntity
  8
_U+30EC_U+30A4_U+30E4_U+30FC 1
 62
   179
420
  2234388
370
     9
100
AcDbVertex
100
AcDb2dVertex
 10
109.7886396990585
 20
-148.7137544072663
 30
0.0
  0
SEQEND
  5
BD
330
BA
100
AcDbEntity
  8
_U+30EC_U+30A4_U+30E4_U+30FC 1
 62
   179
420
  2234388
370
     9
  0
POLYLINE
  5
BE
330
41
100
AcDbEntity
  8
_U+30EC_U+30A4_U+30E4_U+30FC 1
 62
   179
420
  2234388
370
     9
100
AcDb2dPolyline
 66
     1
 10
0.0
 20
0.0
 30
0.0
  0
VERTEX
  5
BF
330
BE
100
AcDbEntity
  8
_U+30EC_U+30A4_U+30E4_U+30FC 1
 62
   179
420
  2234388
370
     9
100
AcDbVertex
100
AcDb2dVertex
 10
99.52845107192879
 20
-98.71403080865487
 30
0.0
  0
VERTEX
  5
C0
330
BE
100
AcDbEntity
  8
_U+30EC_U+30A4_U+30E4_U+30FC 1
 62
   179
420
  2234388
370
     9
100
AcDbVertex
100
AcDb2dVertex
 10
109.7886396990585
 20
-98.71403080865487
 30
0.0
  0
SEQEND
  5
C1
330
BE
100
AcDbEntity
  8
_U+30EC_U+30A4_U+30E4_U+30FC 1
 62
   179
420
  2234388
370
     9
  0
POLYLINE
  5
C2
330
41
100
AcDbEntity
  8
_U+30EC_U+30A4_U+30E4_U+30FC 1
 62
   179
420
  2234388
370
     9
100
AcDb2dPolyline
 66
     1
 10
0.0
 20
0.0
 30
0.0
  0
VERTEX
  5
C3
330
C2
100
AcDbEntity
  8
_U+30EC_U+30A4_U+30E4_U+30FC 1
 62
   179
420
  2234388
370
     9
100
AcDbVertex
100
AcDb2dVertex
 10
108.7885527505808
 20
-158.7134874603219
 30
0.0
  0
VERTEX
  5
C4
330
C2
100
AcDbEntity
  8
_U+30EC_U+30A4_U+30E4_U+30FC 1
 62
   179
420
  2234388
370
     9
100
AcDbVertex
100
AcDb2dVertex
 10
108.7885527505808
 20
-148.7137544072663
 30
0.0
  0
SEQEND
  5
C5
330
C2
100
AcDbEntity
  8
_U+30EC_U+30A4_U+30E4_U+30FC 1
 62
   179
420
  2234388
370
     9
  0
POLYLINE
  5
C6
330
41
100
AcDbEntity
  8
_U+30EC_U+30A4_U+30E4_U+30FC 1
 62
   179
420
  2234388
370
     9
100
AcDb2dPolyline
 66
     1
 10
0.0
 20
0.0
 30
0.0
  0
VERTEX
  5
C7
330
C6
100
AcDbEntity
  8
_U+30EC_U+30A4_U+30E4_U+30FC 1
 62
   179
420
  2234388
370
     9
100
AcDbVertex
100
AcDb2dVertex
 10
107.3285086507105
 20
-158.7134874603219
 30
0.0
  0
VERTEX
  5
C8
330
C6
100
AcDbEntity
  8
_U+30EC_U+30A4_U+30E4_U+30FC 1
 62
   179
420
  2234388
370
     9
100
AcDbVertex
100
AcDb2dVertex
 10
109.7886396990585
 20
-158.7134874603219
 30
0.0
  0
SEQEND
  5
C9
330
C6
100
AcDbEntity
  8
_U+30EC_U+30A4_U+30E4_U+30FC 1
 62
   179
420
  2234388
370
     9
  0
POLYLINE
  5
CA
330
41
100
AcDbEntity
  8
_U+30EC_U+30A4_U+30E4_U+30FC 1
 62
   179
420
  2234388
370
     9
100
AcDb2dPolyline
 66
     1
 10
0.0
 20
0.0
 30
0.0
  0
VERTEX
  5
CB
330
CA
100
AcDbEntity
  8
_U+30EC_U+30A4_U+30E4_U+30FC 1
 62
   179
420
  2234388
370
     9
100
AcDbVertex
100
AcDb2dVertex
 10
108.7885527505808
 20
-158.7134874603219
 30
0.0
  0
VERTEX
  5
CC
330
CA
100
AcDbEntity
  8
_U+30EC_U+30A4_U+30E4_U+30FC 1
 62
   179
420
  2234388
370
     9
100
AcDbVertex
100
AcDb2dVertex
 10
108.7885527505808
 20
-161.713827181794
 30
0.0
  0
SEQEND
  5
CD
330
CA
100
AcDbEntity
  8
_U+30EC_U+30A4_U+30E4_U+30FC 1
 62
   179
420
  2234388
370
     9
  0
POLYLINE
  5
CE
330
41
100
AcDbEntity
  8
_U+30EC_U+30A4_U+30E4_U+30FC 1
 62
   179
420
  2234388
370
     9
100
AcDb2dPolyline
 66
     1
 10
0.0
 20
0.0
 30
0.0
  0
VERTEX
  5
CF
330
CE
100
AcDbEntity
  8
_U+30EC_U+30A4_U+30E4_U+30FC 1
 62
   179
420
  2234388
370
     9
100
AcDbVertex
100
AcDb2dVertex
 10
107.3285086507105
 20
-161.713827181794
 30
0.0
  0
VERTEX
  5
D0
330
CE
100
AcDbEntity
  8
_U+30EC_U+30A4_U+30E4_U+30FC 1
 62
   179
420
  2234388
370
     9
100
AcDbVertex
100
AcDb2dVertex
 10
109.7886396990585
 20
-161.713827181794
 30
0.0
  0
SEQEND
  5
D1
330
CE
100
AcDbEntity
  8
_U+30EC_U+30A4_U+30E4_U+30FC 1
 62
   179
420
  2234388
370
     9
  0
POLYLINE
  5
D2
330
41
100
AcDbEntity
  8
_U+30EC_U+30A4_U+30E4_U+30FC 1
 62
   179
420
  2234388
370
     9
100
AcDb2dPolyline
 66
     1
 10
0.0
 20
0.0
 30
0.0
  0
VERTEX
  5
D3
330
D2
100
AcDbEntity
  8
_U+30EC_U+30A4_U+30E4_U+30FC 1
 62
   179
420
  2234388
370
     9
100
AcDbVertex
100
AcDb2dVertex
 10
75.78866109216389
 20
-136.7141241324879
 30
0.0
  0
VERTEX
  5
D4
330
D2
100
AcDbEntity
  8
_U+30EC_U+30A4_U+30E4_U+30FC 1
 62
   179
420
  2234388
370
     9
100
AcDbVertex
100
AcDb2dVertex
 10
75.78866109216389
 20
-161.713827181794
 30
0.0
  0
SEQEND
  5
D5
330
D2
100
AcDbEntity
  8
_U+30EC_U+30A4_U+30E4_U+30FC 1
 62
   179
420
  2234388
370
     9
  0
POLYLINE
  5
D6
330
41
100
AcDbEntity
  8
_U+30EC_U+30A4_U+30E4_U+30FC 1
 62
   179
420
  2234388
370
     9
100
AcDb2dPolyline
 66
     1
 10
0.0
 20
0.0
 30
0.0
  0
VERTEX
  5
D7
330
D6
100
AcDbEntity
  8
_U+30EC_U+30A4_U+30E4_U+30FC 1
 62
   179
420
  2234388
370
     9
100
AcDbVertex
100
AcDb2dVertex
 10
77.24870052922147
 20
-136.7141241324879
 30
0.0
  0
VERTEX
  5
D8
330
D6
100
AcDbEntity
  8
_U+30EC_U+30A4_U+30E4_U+30FC 1
 62
   179
420
  2234388
370
     9
100
AcDbVertex
100
AcDb2dVertex
 10
74.7885360924139
 20
-136.7141241324879
 30
0.0
  0
SEQEND
  5
D9
330
D6
100
AcDbEntity
  8
_U+30EC_U+30A4_U+30E4_U+30FC 1
 62
   179
420
  2234388
370
     9
  0
POLYLINE
  5
DA
330
41
100
AcDbEntity
  8
_U+30EC_U+30A4_U+30E4_U+30FC 1
 62
   179
420
  2234388
370
     9
100
AcDb2dPolyline
 66
     1
 10
0.0
 20
0.0
 30
0.0
  0
VERTEX
  5
DB
330
DA
100
AcDbEntity
  8
_U+30EC_U+30A4_U+30E4_U+30FC 1
 62
   179
420
  2234388
370
     9
100
AcDbVertex
100
AcDb2dVertex
 10
77.24870052922147
 20
-161.713827181794
 30
0.0
  0
VERTEX
  5
DC
330
DA
100
AcDbEntity
  8
_U+30EC_U+30A4_U+30E4_U+30FC 1
 62
   179
420
  2234388
370
     9
100
AcDbVertex
100
AcDb2dVertex
 10
74.7885360924139
 20
-161.713827181794
 30
0.0
  0
SEQEND
  5
DD
330
DA
100
AcDbEntity
  8
_U+30EC_U+30A4_U+30E4_U+30FC 1
 62
   179
420
  2234388
370
     9
  0
POLYLINE
  5
DE
330
41
100
AcDbEntity
  8
_U+30EC_U+30A4_U+30E4_U+30FC 1
 62
   179
420
  2234388
370
     9
100
AcDb2dPolyline
 66
     1
 10
0.0
 20
0.0
 30
0.0
  0
VERTEX
  5
DF
330
DE
100
AcDbEntity
  8
_U+30EC_U+30A4_U+30E4_U+30FC 1
 62
   179
420
  2234388
370
     9
100
AcDbVertex
100
AcDb2dVertex
 10
82.78858149899844
 20
-132.7136946890437
 30
0.0
  0
VERTEX
  5
E0
330
DE
100
AcDbEntity
  8
_U+30EC_U+30A4_U+30E4_U+30FC 1
 62
   179
420
  2234388
370
     9
100
AcDbVertex
100
AcDb2dVertex
 10
79.78841824220564
 20
-132.7136946890437
 30
0.0
  0
SEQEND
  5
E1
330
DE
100
AcDbEntity
  8
_U+30EC_U+30A4_U+30E4_U+30FC 1
 62
   179
420
  2234388
370
     9
  0
POLYLINE
  5
E2
330
41
100
AcDbEntity
  8
_U+30EC_U+30A4_U+30E4_U+30FC 1
 62
   179
420
  2234388
370
     9
100
AcDb2dPolyline
 66
     1
 10
0.0
 20
0.0
 30
0.0
  0
VERTEX
  5
E3
330
E2
100
AcDbEntity
  8
_U+30EC_U+30A4_U+30E4_U+30FC 1
 62
   179
420
  2234388
370
     9
100
AcDbVertex
100
AcDb2dVertex
 10
82.78858149899844
 20
-134.1737360775674
 30
0.0
  0
VERTEX
  5
E4
330
E2
100
AcDbEntity
  8
_U+30EC_U+30A4_U+30E4_U+30FC 1
 62
   179
420
  2234388
370
     9
100
AcDbVertex
100
AcDb2dVertex
 10
82.78858149899844
 20
-131.7139224670718
 30
0.0
  0
SEQEND
  5
E5
330
E2
100
AcDbEntity
  8
_U+30EC_U+30A4_U+30E4_U+30FC 1
 62
   179
420
  2234388
370
     9
  0
POLYLINE
  5
E6
330
41
100
AcDbEntity
  8
_U+30EC_U+30A4_U+30E4_U+30FC 1
 62
   179
420
  2234388
370
     9
100
AcDb2dPolyline
 66
     1
 10
0.0
 20
0.0
 30
0.0
  0
VERTEX
  5
E7
330
E6
100
AcDbEntity
  8
_U+30EC_U+30A4_U+30E4_U+30FC 1
 62
   179
420
  2234388
370
     9
100
AcDbVertex
100
AcDb2dVertex
 10
79.78841824220564
 20
-134.1737360775674
 30
0.0
  0
VERTEX
  5
E8
330
E6
100
AcDbEntity
  8
_U+30EC_U+30A4_U+30E4_U+30FC 1
 62
   179
420
  2234388
370
     9
100
AcDbVertex
100
AcDb2dVertex
 10
79.78841824220564
 20
-131.7139224670718
 30
0.0
  0
SEQEND
  5
E9
330
E6
100
AcDbEntity
  8
_U+30EC_U+30A4_U+30E4_U+30FC 1
 62
   179
420
  2234388
370
     9
  0
POLYLINE
  5
EA
330
41
100
AcDbEntity
  8
_U+30EC_U+30A4_U+30E4_U+30FC 1
 62
   179
420
  2234388
370
     9
100
AcDb2dPolyline
 66
     1
 10
0.0
 20
0.0
 30
0.0
  0
VERTEX
  5
EB
330
EA
100
AcDbEntity
  8
_U+30EC_U+30A4_U+30E4_U+30FC 1
 62
   179
420
  2234388
370
     9
100
AcDbVertex
100
AcDb2dVertex
 10
82.78858149899844
 20
-132.7136946890437
 30
0.0
  0
VERTEX
  5
EC
330
EA
100
AcDbEntity
  8
_U+30EC_U+30A4_U+30E4_U+30FC 1
 62
   179
420
  2234388
370
     9
100
AcDbVertex
100
AcDb2dVertex
 10
95.78879505622425
 20
-132.7136946890437
 30
0.0
  0
SEQEND
  5
ED
330
EA
100
AcDbEntity
  8
_U+30EC_U+30A4_U+30E4_U+30FC 1
 62
   179
420
  2234388
370
     9
  0
POLYLINE
  5
EE
330
41
100
AcDbEntity
  8
_U+30EC_U+30A4_U+30E4_U+30FC 1
 62
   179
420
  2234388
370
     9
100
AcDb2dPolyline
 66
     1
 10
0.0
 20
0.0
 30
0.0
  0
VERTEX
  5
EF
330
EE
100
AcDbEntity
  8
_U+30EC_U+30A4_U+30E4_U+30FC 1
 62
   179
420
  2234388
370
     9
100
AcDbVertex
100
AcDb2dVertex
 10
104.7884381599576
 20
-165.7142566252382
 30
0.0
  0
VERTEX
  5
F0
330
EE
100
AcDbEntity
  8
_U+30EC_U+30A4_U+30E4_U+30FC 1
 62
   179
420
  2234388
370
     9
100
AcDbVertex
100
AcDb2dVertex
 10
79.78841824220564
 20
-165.7142566252382
 30
0.0
  0
SEQEND
  5
F1
330
EE
100
AcDbEntity
  8
_U+30EC_U+30A4_U+30E4_U+30FC 1
 62
   179
420
  2234388
370
     9
  0
POLYLINE
  5
F2
330
41
100
AcDbEntity
  8
_U+30EC_U+30A4_U+30E4_U+30FC 1
 62
   179
420
  2234388
370
     9
100
AcDb2dPolyline
 66
     1
 10
0.0
 20
0.0
 30
0.0
  0
VERTEX
  5
F3
330
F2
100
AcDbEntity
  8
_U+30EC_U+30A4_U+30E4_U+30FC 1
 62
   179
420
  2234388
370
     9
100
AcDbVertex
100
AcDb2dVertex
 10
104.7884381599576
 20
-164.2542152367145
 30
0.0
  0
VERTEX
  5
F4
330
F2
100
AcDbEntity
  8
_U+30EC_U+30A4_U+30E4_U+30FC 1
 62
   179
420
  2234388
370
     9
100
AcDbVertex
100
AcDb2dVertex
 10
104.7884381599576
 20
-166.7140288472102
 30
0.0
  0
SEQEND
  5
F5
330
F2
100
AcDbEntity
  8
_U+30EC_U+30A4_U+30E4_U+30FC 1
 62
   179
420
  2234388
370
     9
  0
POLYLINE
  5
F6
330
41
100
AcDbEntity
  8
_U+30EC_U+30A4_U+30E4_U+30FC 1
 62
   179
420
  2234388
370
     9
100
AcDb2dPolyline
 66
     1
 10
0.0
 20
0.0
 30
0.0
  0
VERTEX
  5
F7
330
F6
100
AcDbEntity
  8
_U+30EC_U+30A4_U+30E4_U+30FC 1
 62
   179
420
  2234388
370
     9
100
AcDbVertex
100
AcDb2dVertex
 10
79.78841824220564
 20
-164.2542152367145
 30
0.0
  0
VERTEX
  5
F8
330
F6
100
AcDbEntity
  8
_U+30EC_U+30A4_U+30E4_U+30FC 1
 62
   179
420
  2234388
370
     9
100
AcDbVertex
100
AcDb2dVertex
 10
79.78841824220564
 20
-166.7140288472102
 30
0.0
  0
SEQEND
  5
F9
330
F6
100
AcDbEntity
  8
_U+30EC_U+30A4_U+30E4_U+30FC 1
 62
   179
420
  2234388
370
     9
  0
INSERT
  5
FB
330
41
100
AcDbEntity
  8
_U+30EC_U+30A4_U+30E4_U+30FC 1
100
AcDbBlockReference
  2
block 3
 10
0.0
 20
0.0
 30
0.0
  0
INSERT
  5
10B
330
41
100
AcDbEntity
  8
_U+30EC_U+30A4_U+30E4_U+30FC 1
100
AcDbBlockReference
  2
block 4
 10
0.0
 20
0.0
 30
0.0
  0
INSERT
  5
114
330
41
100
AcDbEntity
  8
_U+30EC_U+30A4_U+30E4_U+30FC 1
100
AcDbBlockReference
  2
block 5
 10
0.0
 20
0.0
 30
0.0
  0
INSERT
  5
11D
330
41
100
AcDbEntity
  8
_U+30EC_U+30A4_U+30E4_U+30FC 1
100
AcDbBlockReference
  2
block 6
 10
0.0
 20
0.0
 30
0.0
  0
INSERT
  5
123
330
41
100
AcDbEntity
  8
_U+30EC_U+30A4_U+30E4_U+30FC 1
100
AcDbBlockReference
  2
block 7
 10
0.0
 20
0.0
 30
0.0
  0
INSERT
  5
12B
330
41
100
AcDbEntity
  8
_U+30EC_U+30A4_U+30E4_U+30FC 1
100
AcDbBlockReference
  2
block 8
 10
0.0
 20
0.0
 30
0.0
  0
INSERT
  5
131
330
41
100
AcDbEntity
  8
_U+30EC_U+30A4_U+30E4_U+30FC 1
100
AcDbBlockReference
  2
block 9
 10
0.0
 20
0.0
 30
0.0
  0
INSERT
  5
139
330
41
100
AcDbEntity
  8
_U+30EC_U+30A4_U+30E4_U+30FC 1
100
AcDbBlockReference
  2
block 10
 10
0.0
 20
0.0
 30
0.0
  0
ENDBLK
  5
44
330
41
100
AcDbEntity
  8
0
100
AcDbBlockEnd
  0
BLOCK
  5
FC
330
FA
100
AcDbEntity
  8
0
100
AcDbBlockBegin
  2
block 3
 70
     0
 10
0.0
 20
0.0
 30
0.0
  3
block 3
  1

  0
SPLINE
  5
FE
330
FA
100
AcDbEntity
  8
_U+30EC_U+30A4_U+30E4_U+30FC 1
370
     0
100
AcDbSpline
210
0.0
220
0.0
230
1.0
 70
    11
 71
     3
 72
    26
 73
    22
 74
     0
 42
0.0000000001
 43
0.0000000001
 12
1.0
 22
0.0
 32
0.0
 13
1.0
 23
0.0
 33
0.0
 40
0.0
 40
0.0
 40
0.0
 40
0.0
 40
1.0
 40
1.0
 40
1.0
 40
2.0
 40
2.0
 40
2.0
 40
3.0
 40
3.0
 40
3.0
 40
4.0
 40
4.0
 40
4.0
 40
5.0
 40
5.0
 40
5.0
 40
6.0
 40
6.0
 40
6.0
 40
7.0
 40
7.0
 40
7.0
 40
7.0
 10
95.3147677713102
 20
-93.3620876502706
 30
0.0
 10
95.3147677713102
 20
-93.3620876502706
 30
0.0
 10
95.3147677713102
 20
-92.25776229247376
 30
0.0
 10
95.3147677713102
 20
-92.25776229247376
 30
0.0
 10
95.3147677713102
 20
-92.25776229247376
 30
0.0
 10
94.98472762382326
 20
-92.25776229247376
 30
0.0
 10
94.98472762382326
 20
-92.25776229247376
 30
0.0
 10
94.98472762382326
 20
-92.25776229247376
 30
0.0
 10
94.98472762382326
 20
-92.10979544138227
 30
0.0
 10
94.98472762382326
 20
-92.10979544138227
 30
0.0
 10
95.31683482860136
 20
-92.0949815307957
 30
0.0
 10
95.36334361765222
 20
-91.93202851434339
 30
0.0
 10
95.39297143882537
 20
-91.81782359900735
 30
0.0
 10
95.39297143882537
 20
-91.81782359900735
 30
0.0
 10
95.53904348739997
 20
-91.81782359900735
 30
0.0
 10
95.53904348739997
 20
-91.81782359900735
 30
0.0
 10
95.53904348739997
 20
-91.81782359900735
 30
0.0
 10
95.53904348739997
 20
-93.3620876502706
 30
0.0
 10
95.53904348739997
 20
-93.3620876502706
 30
0.0
 10
95.53904348739997
 20
-93.3620876502706
 30
0.0
 10
95.3147677713102
 20
-93.3620876502706
 30
0.0
 10
95.3147677713102
 20
-93.3620876502706
 30
0.0
  0
HATCH
  5
FF
330
FA
100
AcDbEntity
  8
_U+30EC_U+30A4_U+30E4_U+30FC 1
 62
   179
420
  2234388
100
AcDbHatch
 10
0.0
 20
0.0
 30
0.0
210
0.0
220
0.0
230
1.0
  2
SOLID
 70
     1
 71
     0
 91
        1
 92
        1
 93
        1
 72
     4
 94
        3
 73
     0
 74
     1
 95
       26
 96
       22
 40
0.0
 40
0.0
 40
0.0
 40
0.0
 40
1.0
 40
1.0
 40
1.0
 40
2.0
 40
2.0
 40
2.0
 40
3.0
 40
3.0
 40
3.0
 40
4.0
 40
4.0
 40
4.0
 40
5.0
 40
5.0
 40
5.0
 40
6.0
 40
6.0
 40
6.0
 40
7.0
 40
7.0
 40
7.0
 40
7.0
 10
95.3147677713102
 20
-93.3620876502706
 10
95.3147677713102
 20
-93.3620876502706
 10
95.3147677713102
 20
-92.25776229247376
 10
95.3147677713102
 20
-92.25776229247376
 10
95.3147677713102
 20
-92.25776229247376
 10
94.98472762382326
 20
-92.25776229247376
 10
94.98472762382326
 20
-92.25776229247376
 10
94.98472762382326
 20
-92.25776229247376
 10
94.98472762382326
 20
-92.10979544138227
 10
94.98472762382326
 20
-92.10979544138227
 10
95.31683482860136
 20
-92.0949815307957
 10
95.36334361765222
 20
-91.93202851434339
 10
95.39297143882537
 20
-91.81782359900735
 10
95.39297143882537
 20
-91.81782359900735
 10
95.53904348739997
 20
-91.81782359900735
 10
95.53904348739997
 20
-91.81782359900735
 10
95.53904348739997
 20
-91.81782359900735
 10
95.53904348739997
 20
-93.3620876502706
 10
95.53904348739997
 20
-93.3620876502706
 10
95.53904348739997
 20
-93.3620876502706
 10
95.3147677713102
 20
-93.3620876502706
 10
95.3147677713102
 20
-93.3620876502706
 97
        0
 97
        0
 75
     2
 76
     1
 98
        0
  0
POLYLINE
  5
100
330
FA
100
AcDbEntity
  8
_U+30EC_U+30A4_U+30E4_U+30FC 1
370
     0
100
AcDb2dPolyline
 66
     1
 10
0.0
 20
0.0
 30
0.0
  0
VERTEX
  5
101
330
100
100
AcDbEntity
  8
_U+30EC_U+30A4_U+30E4_U+30FC 1
370
     0
100
AcDbVertex
100
AcDb2dVertex
 10
96.10024954194716
 20
-93.3620876502706
 30
0.0
  0
VERTEX
  5
102
330
100
100
AcDbEntity
  8
_U+30EC_U+30A4_U+30E4_U+30FC 1
370
     0
100
AcDbVertex
100
AcDb2dVertex
 10
96.10024954194716
 20
-93.1104234250731
 30
0.0
  0
VERTEX
  5
103
330
100
100
AcDbEntity
  8
_U+30EC_U+30A4_U+30E4_U+30FC 1
370
     0
100
AcDbVertex
100
AcDb2dVertex
 10
96.3517415123704
 20
-93.1104234250731
 30
0.0
  0
VERTEX
  5
104
330
100
100
AcDbEntity
  8
_U+30EC_U+30A4_U+30E4_U+30FC 1
370
     0
100
AcDbVertex
100
AcDb2dVertex
 10
96.3517415123704
 20
-93.3620876502706
 30
0.0
  0
VERTEX
  5
105
330
100
100
AcDbEntity
  8
_U+30EC_U+30A4_U+30E4_U+30FC 1
370
     0
100
AcDbVertex
100
AcDb2dVertex
 10
96.10024954194716
 20
-93.3620876502706
 30
0.0
  0
SEQEND
  5
106
330
100
100
AcDbEntity
  8
_U+30EC_U+30A4_U+30E4_U+30FC 1
370
     0
  0
HATCH
  5
107
330
FA
100
AcDbEntity
  8
_U+30EC_U+30A4_U+30E4_U+30FC 1
 62
   179
420
  2234388
100
AcDbHatch
 10
0.0
 20
0.0
 30
0.0
210
0.0
220
0.0
230
1.0
  2
SOLID
 70
     1
 71
     0
 91
        1
 92
        1
 93
        4
 72
     1
 10
96.10024954194716
 20
-93.3620876502706
 11
96.10024954194716
 21
-93.1104234250731
 72
     1
 10
96.10024954194716
 20
-93.1104234250731
 11
96.3517415123704
 21
-93.1104234250731
 72
     1
 10
96.3517415123704
 20
-93.1104234250731
 11
96.3517415123704
 21
-93.3620876502706
 72
     1
 10
96.3517415123704
 20
-93.3620876502706
 11
96.10024954194716
 21
-93.3620876502706
 97
        0
 75
     2
 76
     1
 98
        0
  0
SPLINE
  5
108
330
FA
100
AcDbEntity
  8
_U+30EC_U+30A4_U+30E4_U+30FC 1
370
     0
100
AcDbSpline
210
0.0
220
0.0
230
1.0
 70
    11
 71
     3
 72
    44
 73
    40
 74
     0
 42
0.0000000001
 43
0.0000000001
 12
1.0
 22
0.0
 32
0.0
 13
1.0
 23
0.0
 33
0.0
 40
0.0
 40
0.0
 40
0.0
 40
0.0
 40
1.0
 40
1.0
 40
1.0
 40
2.0
 40
2.0
 40
2.0
 40
3.0
 40
3.0
 40
3.0
 40
4.0
 40
4.0
 40
4.0
 40
5.0
 40
5.0
 40
5.0
 40
6.0
 40
6.0
 40
6.0
 40
7.0
 40
7.0
 40
7.0
 40
8.0
 40
8.0
 40
8.0
 40
9.0
 40
9.0
 40
9.0
 40
10.0
 40
10.0
 40
10.0
 40
11.0
 40
11.0
 40
11.0
 40
12.0
 40
12.0
 40
12.0
 40
13.0
 40
13.0
 40
13.0
 40
13.0
 10
97.18132050521857
 20
-92.78038327758615
 30
0.0
 10
96.96359047055077
 20
-92.93902992468192
 30
0.0
 10
96.8702283829005
 20
-93.01309947761479
 30
0.0
 10
96.82165253655847
 20
-93.15693221412397
 30
0.0
 10
96.82165253655847
 20
-93.15693221412397
 30
0.0
 10
97.60024411622494
 20
-93.15693221412397
 30
0.0
 10
97.60024411622494
 20
-93.15693221412397
 30
0.0
 10
97.60024411622494
 20
-93.15693221412397
 30
0.0
 10
97.60024411622494
 20
-93.3620876502706
 30
0.0
 10
97.60024411622494
 20
-93.3620876502706
 30
0.0
 10
97.60024411622494
 20
-93.3620876502706
 30
0.0
 10
96.57222762342639
 20
-93.3620876502706
 30
0.0
 10
96.57222762342639
 20
-93.3620876502706
 30
0.0
 10
96.6039225018907
 20
-93.00448673890166
 30
0.0
 10
96.66937931611044
 20
-92.9262830713865
 30
0.0
 10
97.05454099136136
 20
-92.62793780236386
 30
0.0
 10
97.31051158591544
 20
-92.42915579286493
 30
0.0
 10
97.37596840013518
 20
-92.36145966657978
 30
0.0
 10
97.37596840013518
 20
-92.2240003567183
 30
0.0
 10
97.37596840013518
 20
-92.10548907202572
 30
0.0
 10
97.30396590449345
 20
-91.97440318881196
 30
0.0
 10
97.1072509522857
 20
-91.97440318881196
 30
0.0
 10
96.84714624314933
 20
-91.97440318881196
 30
0.0
 10
96.8385335044362
 20
-92.20488007677517
 30
0.0
 10
96.8343993898539
 20
-92.32132430417661
 30
0.0
 10
96.8343993898539
 20
-92.32132430417661
 30
0.0
 10
96.61012367376414
 20
-92.32132430417661
 30
0.0
 10
96.61012367376414
 20
-92.32132430417661
 30
0.0
 10
96.61873641247726
 20
-92.19437253554516
 30
0.0
 10
96.62907169893302
 20
-92.08223467750028
 30
0.0
 10
96.70968693328786
 20
-91.96372339280768
 30
0.0
 10
96.81958547926733
 20
-91.80300968842079
 30
0.0
 10
97.00562063547082
 20
-91.76907549789107
 30
0.0
 10
97.12206486287226
 20
-91.76907549789107
 30
0.0
 10
97.39939504943487
 20
-91.76907549789107
 30
0.0
 10
97.6064452880984
 20
-91.95321585157767
 30
0.0
 10
97.6064452880984
 20
-92.22606741400946
 30
0.0
 10
97.6064452880984
 20
-92.45447724468153
 30
0.0
 10
97.49034557024548
 20
-92.55404050420525
 30
0.0
 10
97.18132050521857
 20
-92.78038327758615
 30
0.0
  0
HATCH
  5
109
330
FA
100
AcDbEntity
  8
_U+30EC_U+30A4_U+30E4_U+30FC 1
 62
   179
420
  2234388
100
AcDbHatch
 10
0.0
 20
0.0
 30
0.0
210
0.0
220
0.0
230
1.0
  2
SOLID
 70
     1
 71
     0
 91
        1
 92
        1
 93
        1
 72
     4
 94
        3
 73
     0
 74
     1
 95
       44
 96
       40
 40
0.0
 40
0.0
 40
0.0
 40
0.0
 40
1.0
 40
1.0
 40
1.0
 40
2.0
 40
2.0
 40
2.0
 40
3.0
 40
3.0
 40
3.0
 40
4.0
 40
4.0
 40
4.0
 40
5.0
 40
5.0
 40
5.0
 40
6.0
 40
6.0
 40
6.0
 40
7.0
 40
7.0
 40
7.0
 40
8.0
 40
8.0
 40
8.0
 40
9.0
 40
9.0
 40
9.0
 40
10.0
 40
10.0
 40
10.0
 40
11.0
 40
11.0
 40
11.0
 40
12.0
 40
12.0
 40
12.0
 40
13.0
 40
13.0
 40
13.0
 40
13.0
 10
97.18132050521857
 20
-92.78038327758615
 10
96.96359047055077
 20
-92.93902992468192
 10
96.8702283829005
 20
-93.01309947761479
 10
96.82165253655847
 20
-93.15693221412397
 10
96.82165253655847
 20
-93.15693221412397
 10
97.60024411622494
 20
-93.15693221412397
 10
97.60024411622494
 20
-93.15693221412397
 10
97.60024411622494
 20
-93.15693221412397
 10
97.60024411622494
 20
-93.3620876502706
 10
97.60024411622494
 20
-93.3620876502706
 10
97.60024411622494
 20
-93.3620876502706
 10
96.57222762342639
 20
-93.3620876502706
 10
96.57222762342639
 20
-93.3620876502706
 10
96.6039225018907
 20
-93.00448673890166
 10
96.66937931611044
 20
-92.9262830713865
 10
97.05454099136136
 20
-92.62793780236386
 10
97.31051158591544
 20
-92.42915579286493
 10
97.37596840013518
 20
-92.36145966657978
 10
97.37596840013518
 20
-92.2240003567183
 10
97.37596840013518
 20
-92.10548907202572
 10
97.30396590449345
 20
-91.97440318881196
 10
97.1072509522857
 20
-91.97440318881196
 10
96.84714624314933
 20
-91.97440318881196
 10
96.8385335044362
 20
-92.20488007677517
 10
96.8343993898539
 20
-92.32132430417661
 10
96.8343993898539
 20
-92.32132430417661
 10
96.61012367376414
 20
-92.32132430417661
 10
96.61012367376414
 20
-92.32132430417661
 10
96.61873641247726
 20
-92.19437253554516
 10
96.62907169893302
 20
-92.08223467750028
 10
96.70968693328786
 20
-91.96372339280768
 10
96.81958547926733
 20
-91.80300968842079
 10
97.00562063547082
 20
-91.76907549789107
 10
97.12206486287226
 20
-91.76907549789107
 10
97.39939504943487
 20
-91.76907549789107
 10
97.6064452880984
 20
-91.95321585157767
 10
97.6064452880984
 20
-92.22606741400946
 10
97.6064452880984
 20
-92.45447724468153
 10
97.49034557024548
 20
-92.55404050420525
 10
97.18132050521857
 20
-92.78038327758615
 97
        0
 97
        0
 75
     2
 76
     1
 98
        0
  0
ENDBLK
  5
FD
330
FA
100
AcDbEntity
  8
0
100
AcDbBlockEnd
  0
BLOCK
  5
10C
330
10A
100
AcDbEntity
  8
0
100
AcDbBlockBegin
  2
block 4
 70
     0
 10
0.0
 20
0.0
 30
0.0
  3
block 4
  1

  0
SPLINE
  5
10E
330
10A
100
AcDbEntity
  8
_U+30EC_U+30A4_U+30E4_U+30FC 1
370
     0
100
AcDbSpline
210
0.0
220
0.0
230
1.0
 70
    11
 71
     3
 72
    53
 73
    49
 74
     0
 42
0.0000000001
 43
0.0000000001
 12
1.0
 22
0.0
 32
0.0
 13
1.0
 23
0.0
 33
0.0
 40
0.0
 40
0.0
 40
0.0
 40
0.0
 40
1.0
 40
1.0
 40
1.0
 40
2.0
 40
2.0
 40
2.0
 40
3.0
 40
3.0
 40
3.0
 40
4.0
 40
4.0
 40
4.0
 40
5.0
 40
5.0
 40
5.0
 40
6.0
 40
6.0
 40
6.0
 40
7.0
 40
7.0
 40
7.0
 40
8.0
 40
8.0
 40
8.0
 40
9.0
 40
9.0
 40
9.0
 40
10.0
 40
10.0
 40
10.0
 40
11.0
 40
11.0
 40
11.0
 40
12.0
 40
12.0
 40
12.0
 40
13.0
 40
13.0
 40
13.0
 40
14.0
 40
14.0
 40
14.0
 40
15.0
 40
15.0
 40
15.0
 40
16.0
 40
16.0
 40
16.0
 40
16.0
 10
108.0412950033716
 20
-124.4213459975405
 30
0.0
 10
108.0412950033716
 20
-124.4995496650557
 30
0.0
 10
108.0244140354939
 20
-124.6011799818705
 30
0.0
 10
107.9610242785653
 20
-124.7028102986854
 30
0.0
 10
107.8511257325858
 20
-124.8760986015935
 30
0.0
 10
107.7198675945978
 20
-124.897458193602
 30
0.0
 10
107.6120361059095
 20
-124.9164062187709
 30
0.0
 10
107.6120361059095
 20
-124.9164062187709
 30
0.0
 10
107.6120361059095
 20
-124.6941975599723
 30
0.0
 10
107.6120361059095
 20
-124.6941975599723
 30
0.0
 10
107.8108181154084
 20
-124.6394205417568
 30
0.0
 10
107.8404459365816
 20
-124.5122965183511
 30
0.0
 10
107.8404459365816
 20
-124.4192789402494
 30
0.0
 10
107.8404459365816
 20
-124.2797525730967
 30
0.0
 10
107.7408826770578
 20
-124.1274793526487
 30
0.0
 10
107.5083387318035
 20
-124.1274793526487
 30
0.0
 10
107.2523681372494
 20
-124.1274793526487
 30
0.0
 10
107.1824326988988
 20
-124.3073133369787
 30
0.0
 10
107.1824326988988
 20
-124.4278916789625
 30
0.0
 10
107.1824326988988
 20
-124.4595865574268
 30
0.0
 10
107.1824326988988
 20
-124.6011799818705
 30
0.0
 10
107.3116237795957
 20
-124.69006344539
 30
0.0
 10
107.3116237795957
 20
-124.69006344539
 30
0.0
 10
107.2926757544268
 20
-124.8657633151377
 30
0.0
 10
107.2926757544268
 20
-124.8657633151377
 30
0.0
 10
107.2926757544268
 20
-124.8657633151377
 30
0.0
 10
106.446215793701
 20
-124.745184973154
 30
0.0
 10
106.446215793701
 20
-124.745184973154
 30
0.0
 10
106.446215793701
 20
-124.745184973154
 30
0.0
 10
106.446215793701
 20
-123.9665933934875
 30
0.0
 10
106.446215793701
 20
-123.9665933934875
 30
0.0
 10
106.446215793701
 20
-123.9665933934875
 30
0.0
 10
106.6408636886176
 20
-123.9665933934875
 30
0.0
 10
106.6408636886176
 20
-123.9665933934875
 30
0.0
 10
106.6408636886176
 20
-123.9665933934875
 30
0.0
 10
106.6408636886176
 20
-124.5822319567017
 30
0.0
 10
106.6408636886176
 20
-124.5822319567017
 30
0.0
 10
106.6408636886176
 20
-124.5822319567017
 30
0.0
 10
107.0639214142062
 20
-124.6476887709214
 30
0.0
 10
107.0639214142062
 20
-124.6476887709214
 30
0.0
 10
107.0301594784508
 20
-124.586366071284
 30
0.0
 10
106.9898518612734
 20
-124.5040282891865
 30
0.0
 10
106.9898518612734
 20
-124.3855170044939
 30
0.0
 10
106.9898518612734
 20
-124.131613467231
 30
0.0
 10
107.1762315270254
 20
-123.8945908978458
 30
0.0
 10
107.4893907066346
 20
-123.8945908978458
 30
0.0
 10
107.8066840008261
 20
-123.8945908978458
 30
0.0
 10
108.0412950033716
 20
-124.1188666139356
 30
0.0
 10
108.0412950033716
 20
-124.4213459975405
 30
0.0
  0
HATCH
  5
10F
330
10A
100
AcDbEntity
  8
_U+30EC_U+30A4_U+30E4_U+30FC 1
 62
   179
420
  2234388
100
AcDbHatch
 10
0.0
 20
0.0
 30
0.0
210
0.0
220
0.0
230
1.0
  2
SOLID
 70
     1
 71
     0
 91
        1
 92
        1
 93
        1
 72
     4
 94
        3
 73
     0
 74
     1
 95
       53
 96
       49
 40
0.0
 40
0.0
 40
0.0
 40
0.0
 40
1.0
 40
1.0
 40
1.0
 40
2.0
 40
2.0
 40
2.0
 40
3.0
 40
3.0
 40
3.0
 40
4.0
 40
4.0
 40
4.0
 40
5.0
 40
5.0
 40
5.0
 40
6.0
 40
6.0
 40
6.0
 40
7.0
 40
7.0
 40
7.0
 40
8.0
 40
8.0
 40
8.0
 40
9.0
 40
9.0
 40
9.0
 40
10.0
 40
10.0
 40
10.0
 40
11.0
 40
11.0
 40
11.0
 40
12.0
 40
12.0
 40
12.0
 40
13.0
 40
13.0
 40
13.0
 40
14.0
 40
14.0
 40
14.0
 40
15.0
 40
15.0
 40
15.0
 40
16.0
 40
16.0
 40
16.0
 40
16.0
 10
108.0412950033716
 20
-124.4213459975405
 10
108.0412950033716
 20
-124.4995496650557
 10
108.0244140354939
 20
-124.6011799818705
 10
107.9610242785653
 20
-124.7028102986854
 10
107.8511257325858
 20
-124.8760986015935
 10
107.7198675945978
 20
-124.897458193602
 10
107.6120361059095
 20
-124.9164062187709
 10
107.6120361059095
 20
-124.9164062187709
 10
107.6120361059095
 20
-124.6941975599723
 10
107.6120361059095
 20
-124.6941975599723
 10
107.8108181154084
 20
-124.6394205417568
 10
107.8404459365816
 20
-124.5122965183511
 10
107.8404459365816
 20
-124.4192789402494
 10
107.8404459365816
 20
-124.2797525730967
 10
107.7408826770578
 20
-124.1274793526487
 10
107.5083387318035
 20
-124.1274793526487
 10
107.2523681372494
 20
-124.1274793526487
 10
107.1824326988988
 20
-124.3073133369787
 10
107.1824326988988
 20
-124.4278916789625
 10
107.1824326988988
 20
-124.4595865574268
 10
107.1824326988988
 20
-124.6011799818705
 10
107.3116237795957
 20
-124.69006344539
 10
107.3116237795957
 20
-124.69006344539
 10
107.2926757544268
 20
-124.8657633151377
 10
107.2926757544268
 20
-124.8657633151377
 10
107.2926757544268
 20
-124.8657633151377
 10
106.446215793701
 20
-124.745184973154
 10
106.446215793701
 20
-124.745184973154
 10
106.446215793701
 20
-124.745184973154
 10
106.446215793701
 20
-123.9665933934875
 10
106.446215793701
 20
-123.9665933934875
 10
106.446215793701
 20
-123.9665933934875
 10
106.6408636886176
 20
-123.9665933934875
 10
106.6408636886176
 20
-123.9665933934875
 10
106.6408636886176
 20
-123.9665933934875
 10
106.6408636886176
 20
-124.5822319567017
 10
106.6408636886176
 20
-124.5822319567017
 10
106.6408636886176
 20
-124.5822319567017
 10
107.0639214142062
 20
-124.6476887709214
 10
107.0639214142062
 20
-124.6476887709214
 10
107.0301594784508
 20
-124.586366071284
 10
106.9898518612734
 20
-124.5040282891865
 10
106.9898518612734
 20
-124.3855170044939
 10
106.9898518612734
 20
-124.131613467231
 10
107.1762315270254
 20
-123.8945908978458
 10
107.4893907066346
 20
-123.8945908978458
 10
107.8066840008261
 20
-123.8945908978458
 10
108.0412950033716
 20
-124.1188666139356
 10
108.0412950033716
 20
-124.4213459975405
 97
        0
 97
        0
 75
     2
 76
     1
 98
        0
  0
SPLINE
  5
110
330
10A
100
AcDbEntity
  8
_U+30EC_U+30A4_U+30E4_U+30FC 1
370
     0
100
AcDbSpline
210
0.0
220
0.0
230
1.0
 70
    11
 71
     3
 72
    29
 73
    25
 74
     0
 42
0.0000000001
 43
0.0000000001
 12
1.0
 22
0.0
 32
0.0
 13
1.0
 23
0.0
 33
0.0
 40
0.0
 40
0.0
 40
0.0
 40
0.0
 40
1.0
 40
1.0
 40
1.0
 40
2.0
 40
2.0
 40
2.0
 40
3.0
 40
3.0
 40
3.0
 40
4.0
 40
4.0
 40
4.0
 40
5.0
 40
5.0
 40
5.0
 40
6.0
 40
6.0
 40
6.0
 40
7.0
 40
7.0
 40
7.0
 40
8.0
 40
8.0
 40
8.0
 40
8.0
 10
107.8128851726996
 20
-122.8276448260639
 30
0.0
 10
108.0223469782027
 20
-122.9358208243008
 30
0.0
 10
108.0412950033716
 20
-123.1091091272088
 30
0.0
 10
108.0412950033716
 20
-123.2255533546103
 30
0.0
 10
108.0412950033716
 20
-123.3864393137714
 30
0.0
 10
107.9947862143208
 20
-123.5280327382152
 30
0.0
 10
107.8128851726996
 20
-123.6231173736081
 30
0.0
 10
107.6182372777829
 20
-123.7268147477141
 30
0.0
 10
107.3812147083978
 20
-123.745762772883
 30
0.0
 10
107.218606201494
 20
-123.745762772883
 30
0.0
 10
107.0746012102105
 20
-123.745762772883
 30
0.0
 10
106.8227647302388
 20
-123.7288818050053
 30
0.0
 10
106.6239827207398
 20
-123.6231173736081
 30
0.0
 10
106.4210665966586
 20
-123.5152858849198
 30
0.0
 10
106.3976399473589
 20
-123.3543999257586
 30
0.0
 10
106.3976399473589
 20
-123.2255533546103
 30
0.0
 10
106.3976399473589
 20
-123.0667344527403
 30
0.0
 10
106.4420816791187
 20
-122.9230739710054
 30
0.0
 10
106.6239827207398
 20
-122.8276448260639
 30
0.0
 10
106.8165635583653
 20
-122.7284260760887
 30
0.0
 10
107.0449733890374
 20
-122.704999426789
 30
0.0
 10
107.218606201494
 20
-122.704999426789
 30
0.0
 10
107.3898274471109
 20
-122.704999426789
 30
0.0
 10
107.6203043350741
 20
-122.7263590187976
 30
0.0
 10
107.8128851726996
 20
-122.8276448260639
 30
0.0
  0
SPLINE
  5
111
330
10A
100
AcDbEntity
  8
_U+30EC_U+30A4_U+30E4_U+30FC 1
370
     0
100
AcDbSpline
210
0.0
220
0.0
230
1.0
 70
    11
 71
     3
 72
    17
 73
    13
 74
     0
 42
0.0000000001
 43
0.0000000001
 12
1.0
 22
0.0
 32
0.0
 13
1.0
 23
0.0
 33
0.0
 40
0.0
 40
0.0
 40
0.0
 40
0.0
 40
1.0
 40
1.0
 40
1.0
 40
2.0
 40
2.0
 40
2.0
 40
3.0
 40
3.0
 40
3.0
 40
4.0
 40
4.0
 40
4.0
 40
4.0
 10
106.5902207849844
 20
-123.2255533546103
 30
0.0
 10
106.5902207849844
 20
-123.4749782677424
 30
0.0
 10
106.8737521434205
 20
-123.5218315663418
 30
0.0
 10
107.218606201494
 20
-123.5218315663418
 30
0.0
 10
107.5379665529766
 20
-123.5218315663418
 30
0.0
 10
107.846647108455
 20
-123.4856580637466
 30
0.0
 10
107.846647108455
 20
-123.2255533546103
 30
0.0
 10
107.846647108455
 20
-122.9778509892208
 30
0.0
 10
107.5655273168586
 20
-122.9292751428788
 30
0.0
 10
107.218606201494
 20
-122.9292751428788
 30
0.0
 10
106.8989013404628
 20
-122.9292751428788
 30
0.0
 10
106.5902207849844
 20
-122.9675157027651
 30
0.0
 10
106.5902207849844
 20
-123.2255533546103
 30
0.0
  0
HATCH
  5
112
330
10A
100
AcDbEntity
  8
_U+30EC_U+30A4_U+30E4_U+30FC 1
 62
   179
420
  2234388
100
AcDbHatch
 10
0.0
 20
0.0
 30
0.0
210
0.0
220
0.0
230
1.0
  2
SOLID
 70
     1
 71
     0
 91
        2
 92
        1
 93
        1
 72
     4
 94
        3
 73
     0
 74
     1
 95
       29
 96
       25
 40
0.0
 40
0.0
 40
0.0
 40
0.0
 40
1.0
 40
1.0
 40
1.0
 40
2.0
 40
2.0
 40
2.0
 40
3.0
 40
3.0
 40
3.0
 40
4.0
 40
4.0
 40
4.0
 40
5.0
 40
5.0
 40
5.0
 40
6.0
 40
6.0
 40
6.0
 40
7.0
 40
7.0
 40
7.0
 40
8.0
 40
8.0
 40
8.0
 40
8.0
 10
107.8128851726996
 20
-122.8276448260639
 10
108.0223469782027
 20
-122.9358208243008
 10
108.0412950033716
 20
-123.1091091272088
 10
108.0412950033716
 20
-123.2255533546103
 10
108.0412950033716
 20
-123.3864393137714
 10
107.9947862143208
 20
-123.5280327382152
 10
107.8128851726996
 20
-123.6231173736081
 10
107.6182372777829
 20
-123.7268147477141
 10
107.3812147083978
 20
-123.745762772883
 10
107.218606201494
 20
-123.745762772883
 10
107.0746012102105
 20
-123.745762772883
 10
106.8227647302388
 20
-123.7288818050053
 10
106.6239827207398
 20
-123.6231173736081
 10
106.4210665966586
 20
-123.5152858849198
 10
106.3976399473589
 20
-123.3543999257586
 10
106.3976399473589
 20
-123.2255533546103
 10
106.3976399473589
 20
-123.0667344527403
 10
106.4420816791187
 20
-122.9230739710054
 10
106.6239827207398
 20
-122.8276448260639
 10
106.8165635583653
 20
-122.7284260760887
 10
107.0449733890374
 20
-122.704999426789
 10
107.218606201494
 20
-122.704999426789
 10
107.3898274471109
 20
-122.704999426789
 10
107.6203043350741
 20
-122.7263590187976
 10
107.8128851726996
 20
-122.8276448260639
 97
        0
 97
        0
 92
        1
 93
        1
 72
     4
 94
        3
 73
     0
 74
     1
 95
       17
 96
       13
 40
0.0
 40
0.0
 40
0.0
 40
0.0
 40
1.0
 40
1.0
 40
1.0
 40
2.0
 40
2.0
 40
2.0
 40
3.0
 40
3.0
 40
3.0
 40
4.0
 40
4.0
 40
4.0
 40
4.0
 10
106.5902207849844
 20
-123.2255533546103
 10
106.5902207849844
 20
-123.4749782677424
 10
106.8737521434205
 20
-123.5218315663418
 10
107.218606201494
 20
-123.5218315663418
 10
107.5379665529766
 20
-123.5218315663418
 10
107.846647108455
 20
-123.4856580637466
 10
107.846647108455
 20
-123.2255533546103
 10
107.846647108455
 20
-122.9778509892208
 10
107.5655273168586
 20
-122.9292751428788
 10
107.218606201494
 20
-122.9292751428788
 10
106.8989013404628
 20
-122.9292751428788
 10
106.5902207849844
 20
-122.9675157027651
 10
106.5902207849844
 20
-123.2255533546103
 97
        0
 97
        0
 75
     2
 76
     1
 98
        0
  0
ENDBLK
  5
10D
330
10A
100
AcDbEntity
  8
0
100
AcDbBlockEnd
  0
BLOCK
  5
115
330
113
100
AcDbEntity
  8
0
100
AcDbBlockBegin
  2
block 5
 70
     0
 10
0.0
 20
0.0
 30
0.0
  3
block 5
  1

  0
SPLINE
  5
117
330
113
100
AcDbEntity
  8
_U+30EC_U+30A4_U+30E4_U+30FC 1
370
     0
100
AcDbSpline
210
0.0
220
0.0
230
1.0
 70
    11
 71
     3
 72
    26
 73
    22
 74
     0
 42
0.0000000001
 43
0.0000000001
 12
1.0
 22
0.0
 32
0.0
 13
1.0
 23
0.0
 33
0.0
 40
0.0
 40
0.0
 40
0.0
 40
0.0
 40
1.0
 40
1.0
 40
1.0
 40
2.0
 40
2.0
 40
2.0
 40
3.0
 40
3.0
 40
3.0
 40
4.0
 40
4.0
 40
4.0
 40
5.0
 40
5.0
 40
5.0
 40
6.0
 40
6.0
 40
6.0
 40
7.0
 40
7.0
 40
7.0
 40
7.0
 10
107.9906520997385
 20
-154.3513020447455
 30
0.0
 10
107.9906520997385
 20
-154.3513020447455
 30
0.0
 10
106.8864989967159
 20
-154.3513020447455
 30
0.0
 10
106.8864989967159
 20
-154.3513020447455
 30
0.0
 10
106.8864989967159
 20
-154.3513020447455
 30
0.0
 10
106.8864989967159
 20
-154.6813421922324
 30
0.0
 10
106.8864989967159
 20
-154.6813421922324
 30
0.0
 10
106.8864989967159
 20
-154.6813421922324
 30
0.0
 10
106.7383598908501
 20
-154.6813421922324
 30
0.0
 10
106.7383598908501
 20
-154.6813421922324
 30
0.0
 10
106.7235459802636
 20
-154.3492349874544
 30
0.0
 10
106.5605929638112
 20
-154.3027261984035
 30
0.0
 10
106.446215793701
 20
-154.2730983772304
 30
0.0
 10
106.446215793701
 20
-154.2730983772304
 30
0.0
 10
106.446215793701
 20
-154.1270263286557
 30
0.0
 10
106.446215793701
 20
-154.1270263286557
 30
0.0
 10
106.446215793701
 20
-154.1270263286557
 30
0.0
 10
107.9906520997385
 20
-154.1270263286557
 30
0.0
 10
107.9906520997385
 20
-154.1270263286557
 30
0.0
 10
107.9906520997385
 20
-154.1270263286557
 30
0.0
 10
107.9906520997385
 20
-154.3513020447455
 30
0.0
 10
107.9906520997385
 20
-154.3513020447455
 30
0.0
  0
HATCH
  5
118
330
113
100
AcDbEntity
  8
_U+30EC_U+30A4_U+30E4_U+30FC 1
 62
   179
420
  2234388
100
AcDbHatch
 10
0.0
 20
0.0
 30
0.0
210
0.0
220
0.0
230
1.0
  2
SOLID
 70
     1
 71
     0
 91
        1
 92
        1
 93
        1
 72
     4
 94
        3
 73
     0
 74
     1
 95
       26
 96
       22
 40
0.0
 40
0.0
 40
0.0
 40
0.0
 40
1.0
 40
1.0
 40
1.0
 40
2.0
 40
2.0
 40
2.0
 40
3.0
 40
3.0
 40
3.0
 40
4.0
 40
4.0
 40
4.0
 40
5.0
 40
5.0
 40
5.0
 40
6.0
 40
6.0
 40
6.0
 40
7.0
 40
7.0
 40
7.0
 40
7.0
 10
107.9906520997385
 20
-154.3513020447455
 10
107.9906520997385
 20
-154.3513020447455
 10
106.8864989967159
 20
-154.3513020447455
 10
106.8864989967159
 20
-154.3513020447455
 10
106.8864989967159
 20
-154.3513020447455
 10
106.8864989967159
 20
-154.6813421922324
 10
106.8864989967159
 20
-154.6813421922324
 10
106.8864989967159
 20
-154.6813421922324
 10
106.7383598908501
 20
-154.6813421922324
 10
106.7383598908501
 20
-154.6813421922324
 10
106.7235459802636
 20
-154.3492349874544
 10
106.5605929638112
 20
-154.3027261984035
 10
106.446215793701
 20
-154.2730983772304
 10
106.446215793701
 20
-154.2730983772304
 10
106.446215793701
 20
-154.1270263286557
 10
106.446215793701
 20
-154.1270263286557
 10
106.446215793701
 20
-154.1270263286557
 10
107.9906520997385
 20
-154.1270263286557
 10
107.9906520997385
 20
-154.1270263286557
 10
107.9906520997385
 20
-154.1270263286557
 10
107.9906520997385
 20
-154.3513020447455
 10
107.9906520997385
 20
-154.3513020447455
 97
        0
 97
        0
 75
     2
 76
     1
 98
        0
  0
SPLINE
  5
119
330
113
100
AcDbEntity
  8
_U+30EC_U+30A4_U+30E4_U+30FC 1
370
     0
100
AcDbSpline
210
0.0
220
0.0
230
1.0
 70
    11
 71
     3
 72
    29
 73
    25
 74
     0
 42
0.0000000001
 43
0.0000000001
 12
1.0
 22
0.0
 32
0.0
 13
1.0
 23
0.0
 33
0.0
 40
0.0
 40
0.0
 40
0.0
 40
0.0
 40
1.0
 40
1.0
 40
1.0
 40
2.0
 40
2.0
 40
2.0
 40
3.0
 40
3.0
 40
3.0
 40
4.0
 40
4.0
 40
4.0
 40
5.0
 40
5.0
 40
5.0
 40
6.0
 40
6.0
 40
6.0
 40
7.0
 40
7.0
 40
7.0
 40
8.0
 40
8.0
 40
8.0
 40
8.0
 10
107.8128851726996
 20
-152.7279730520958
 30
0.0
 10
108.0223469782027
 20
-152.8361490503326
 30
0.0
 10
108.0412950033716
 20
-153.0094373532407
 30
0.0
 10
108.0412950033716
 20
-153.1258815806422
 30
0.0
 10
108.0412950033716
 20
-153.2867675398033
 30
0.0
 10
107.9947862143208
 20
-153.4283609642471
 30
0.0
 10
107.8128851726996
 20
-153.52344559964
 30
0.0
 10
107.6182372777829
 20
-153.627142973746
 30
0.0
 10
107.3812147083978
 20
-153.6464355084634
 30
0.0
 10
107.218606201494
 20
-153.6464355084634
 30
0.0
 10
107.0746012102105
 20
-153.6464355084634
 30
0.0
 10
106.8227647302388
 20
-153.6292100310372
 30
0.0
 10
106.6239827207398
 20
-153.52344559964
 30
0.0
 10
106.4210665966586
 20
-153.4156141109517
 30
0.0
 10
106.3976399473589
 20
-153.2547281517905
 30
0.0
 10
106.3976399473589
 20
-153.1258815806422
 30
0.0
 10
106.3976399473589
 20
-152.9670626787721
 30
0.0
 10
106.4420816791187
 20
-152.8234021970372
 30
0.0
 10
106.6239827207398
 20
-152.7279730520958
 30
0.0
 10
106.8165635583653
 20
-152.6287543021206
 30
0.0
 10
107.0449733890374
 20
-152.6053276528209
 30
0.0
 10
107.218606201494
 20
-152.6053276528209
 30
0.0
 10
107.3898274471109
 20
-152.6053276528209
 30
0.0
 10
107.6203043350741
 20
-152.6266872448294
 30
0.0
 10
107.8128851726996
 20
-152.7279730520958
 30
0.0
  0
SPLINE
  5
11A
330
113
100
AcDbEntity
  8
_U+30EC_U+30A4_U+30E4_U+30FC 1
370
     0
100
AcDbSpline
210
0.0
220
0.0
230
1.0
 70
    11
 71
     3
 72
    17
 73
    13
 74
     0
 42
0.0000000001
 43
0.0000000001
 12
1.0
 22
0.0
 32
0.0
 13
1.0
 23
0.0
 33
0.0
 40
0.0
 40
0.0
 40
0.0
 40
0.0
 40
1.0
 40
1.0
 40
1.0
 40
2.0
 40
2.0
 40
2.0
 40
3.0
 40
3.0
 40
3.0
 40
4.0
 40
4.0
 40
4.0
 40
4.0
 10
106.5902207849844
 20
-153.1258815806422
 30
0.0
 10
106.5902207849844
 20
-153.3756510033228
 30
0.0
 10
106.8737521434205
 20
-153.4221597923736
 30
0.0
 10
107.218606201494
 20
-153.4221597923736
 30
0.0
 10
107.5379665529766
 20
-153.4221597923736
 30
0.0
 10
107.846647108455
 20
-153.3859862897785
 30
0.0
 10
107.846647108455
 20
-153.1258815806422
 30
0.0
 10
107.846647108455
 20
-152.8781792152527
 30
0.0
 10
107.5655273168586
 20
-152.8296033689107
 30
0.0
 10
107.218606201494
 20
-152.8296033689107
 30
0.0
 10
106.8989013404628
 20
-152.8296033689107
 30
0.0
 10
106.5902207849844
 20
-152.8678439287969
 30
0.0
 10
106.5902207849844
 20
-153.1258815806422
 30
0.0
  0
HATCH
  5
11B
330
113
100
AcDbEntity
  8
_U+30EC_U+30A4_U+30E4_U+30FC 1
 62
   179
420
  2234388
100
AcDbHatch
 10
0.0
 20
0.0
 30
0.0
210
0.0
220
0.0
230
1.0
  2
SOLID
 70
     1
 71
     0
 91
        2
 92
        1
 93
        1
 72
     4
 94
        3
 73
     0
 74
     1
 95
       29
 96
       25
 40
0.0
 40
0.0
 40
0.0
 40
0.0
 40
1.0
 40
1.0
 40
1.0
 40
2.0
 40
2.0
 40
2.0
 40
3.0
 40
3.0
 40
3.0
 40
4.0
 40
4.0
 40
4.0
 40
5.0
 40
5.0
 40
5.0
 40
6.0
 40
6.0
 40
6.0
 40
7.0
 40
7.0
 40
7.0
 40
8.0
 40
8.0
 40
8.0
 40
8.0
 10
107.8128851726996
 20
-152.7279730520958
 10
108.0223469782027
 20
-152.8361490503326
 10
108.0412950033716
 20
-153.0094373532407
 10
108.0412950033716
 20
-153.1258815806422
 10
108.0412950033716
 20
-153.2867675398033
 10
107.9947862143208
 20
-153.4283609642471
 10
107.8128851726996
 20
-153.52344559964
 10
107.6182372777829
 20
-153.627142973746
 10
107.3812147083978
 20
-153.6464355084634
 10
107.218606201494
 20
-153.6464355084634
 10
107.0746012102105
 20
-153.6464355084634
 10
106.8227647302388
 20
-153.6292100310372
 10
106.6239827207398
 20
-153.52344559964
 10
106.4210665966586
 20
-153.4156141109517
 10
106.3976399473589
 20
-153.2547281517905
 10
106.3976399473589
 20
-153.1258815806422
 10
106.3976399473589
 20
-152.9670626787721
 10
106.4420816791187
 20
-152.8234021970372
 10
106.6239827207398
 20
-152.7279730520958
 10
106.8165635583653
 20
-152.6287543021206
 10
107.0449733890374
 20
-152.6053276528209
 10
107.218606201494
 20
-152.6053276528209
 10
107.3898274471109
 20
-152.6053276528209
 10
107.6203043350741
 20
-152.6266872448294
 10
107.8128851726996
 20
-152.7279730520958
 97
        0
 97
        0
 92
        1
 93
        1
 72
     4
 94
        3
 73
     0
 74
     1
 95
       17
 96
       13
 40
0.0
 40
0.0
 40
0.0
 40
0.0
 40
1.0
 40
1.0
 40
1.0
 40
2.0
 40
2.0
 40
2.0
 40
3.0
 40
3.0
 40
3.0
 40
4.0
 40
4.0
 40
4.0
 40
4.0
 10
106.5902207849844
 20
-153.1258815806422
 10
106.5902207849844
 20
-153.3756510033228
 10
106.8737521434205
 20
-153.4221597923736
 10
107.218606201494
 20
-153.4221597923736
 10
107.5379665529766
 20
-153.4221597923736
 10
107.846647108455
 20
-153.3859862897785
 10
107.846647108455
 20
-153.1258815806422
 10
107.846647108455
 20
-152.8781792152527
 10
107.5655273168586
 20
-152.8296033689107
 10
107.218606201494
 20
-152.8296033689107
 10
106.8989013404628
 20
-152.8296033689107
 10
106.5902207849844
 20
-152.8678439287969
 10
106.5902207849844
 20
-153.1258815806422
 97
        0
 97
        0
 75
     2
 76
     1
 98
        0
  0
ENDBLK
  5
116
330
113
100
AcDbEntity
  8
0
100
AcDbBlockEnd
  0
BLOCK
  5
11E
330
11C
100
AcDbEntity
  8
0
100
AcDbBlockBegin
  2
block 6
 70
     0
 10
0.0
 20
0.0
 30
0.0
  3
block 6
  1

  0
SPLINE
  5
120
330
11C
100
AcDbEntity
  8
_U+30EC_U+30A4_U+30E4_U+30FC 1
370
     0
100
AcDbSpline
210
0.0
220
0.0
230
1.0
 70
    11
 71
     3
 72
    62
 73
    58
 74
     0
 42
0.0000000001
 43
0.0000000001
 12
1.0
 22
0.0
 32
0.0
 13
1.0
 23
0.0
 33
0.0
 40
0.0
 40
0.0
 40
0.0
 40
0.0
 40
1.0
 40
1.0
 40
1.0
 40
2.0
 40
2.0
 40
2.0
 40
3.0
 40
3.0
 40
3.0
 40
4.0
 40
4.0
 40
4.0
 40
5.0
 40
5.0
 40
5.0
 40
6.0
 40
6.0
 40
6.0
 40
7.0
 40
7.0
 40
7.0
 40
8.0
 40
8.0
 40
8.0
 40
9.0
 40
9.0
 40
9.0
 40
10.0
 40
10.0
 40
10.0
 40
11.0
 40
11.0
 40
11.0
 40
12.0
 40
12.0
 40
12.0
 40
13.0
 40
13.0
 40
13.0
 40
14.0
 40
14.0
 40
14.0
 40
15.0
 40
15.0
 40
15.0
 40
16.0
 40
16.0
 40
16.0
 40
17.0
 40
17.0
 40
17.0
 40
18.0
 40
18.0
 40
18.0
 40
19.0
 40
19.0
 40
19.0
 40
19.0
 10
108.0412950033716
 20
-160.2217447516112
 30
0.0
 10
108.0412950033716
 20
-160.3171738965526
 30
0.0
 10
108.0202799209116
 20
-160.5349039312204
 30
0.0
 10
107.8342447647081
 20
-160.659960897335
 30
0.0
 10
107.721934651889
 20
-160.7336859407194
 30
0.0
 10
107.6227159019138
 20
-160.7381645648502
 30
0.0
 10
107.5379665529766
 20
-160.7422986794325
 30
0.0
 10
107.5379665529766
 20
-160.7422986794325
 30
0.0
 10
107.5379665529766
 20
-160.522157077925
 30
0.0
 10
107.5379665529766
 20
-160.522157077925
 30
0.0
 10
107.6120361059095
 20
-160.5200900206339
 30
0.0
 10
107.846647108455
 20
-160.5097547341781
 30
0.0
 10
107.846647108455
 20
-160.2262233757421
 30
0.0
 10
107.846647108455
 20
-160.0887640658806
 30
0.0
 10
107.777056179653
 20
-159.936146335884
 30
0.0
 10
107.5486463489809
 20
-159.936146335884
 30
0.0
 10
107.4322021215795
 20
-159.936146335884
 30
0.0
 10
107.3836262752374
 20
-159.9743868957703
 30
0.0
 10
107.3519313967731
 20
-160.0060817742346
 30
0.0
 10
107.2778618438403
 20
-160.0801513271675
 30
0.0
 10
107.2651149905448
 20
-160.1965955545689
 30
0.0
 10
107.2651149905448
 20
-160.2513725727844
 30
0.0
 10
107.2651149905448
 20
-160.2706651075018
 30
0.0
 10
107.267182047836
 20
-160.3064941005484
 30
0.0
 10
107.2713161624183
 20
-160.3340548644304
 30
0.0
 10
107.2713161624183
 20
-160.3340548644304
 30
0.0
 10
107.0766682675017
 20
-160.3340548644304
 30
0.0
 10
107.0766682675017
 20
-160.3340548644304
 30
0.0
 10
107.0832139489236
 20
-160.2958143045441
 30
0.0
 10
107.0852810062148
 20
-160.2537841396241
 30
0.0
 10
107.0852810062148
 20
-160.2472384582021
 30
0.0
 10
107.0852810062148
 20
-160.1817816439823
 30
0.0
 10
107.0639214142062
 20
-159.9829996344834
 30
0.0
 10
106.8272433543696
 20
-159.9829996344834
 30
0.0
 10
106.6494764273307
 20
-159.9829996344834
 30
0.0
 10
106.5943548995667
 20
-160.1139132629229
 30
0.0
 10
106.5943548995667
 20
-160.2241563184509
 30
0.0
 10
106.5943548995667
 20
-160.4883951421696
 30
0.0
 10
106.8272433543696
 20
-160.4970078808827
 30
0.0
 10
106.8989013404628
 20
-160.501141995465
 30
0.0
 10
106.8989013404628
 20
-160.501141995465
 30
0.0
 10
106.8989013404628
 20
-160.7044026290947
 30
0.0
 10
106.8989013404628
 20
-160.7044026290947
 30
0.0
 10
106.7741888838967
 20
-160.6957898903816
 30
0.0
 10
106.3976399473589
 20
-160.6682291264996
 30
0.0
 10
106.3976399473589
 20
-160.2114094651555
 30
0.0
 10
106.3976399473589
 20
-159.9871337490657
 30
0.0
 10
106.5247639707647
 20
-159.7459770650982
 30
0.0
 10
106.8206976729476
 20
-159.7459770650982
 30
0.0
 10
107.0070773386996
 20
-159.7459770650982
 30
0.0
 10
107.0894151207971
 20
-159.8410617004911
 30
0.0
 10
107.1507378204345
 20
-159.9406249600148
 30
0.0
 10
107.1782985843165
 20
-159.8793022603774
 30
0.0
 10
107.2585693091229
 20
-159.6974012187562
 30
0.0
 10
107.5358994956855
 20
-159.6974012187562
 30
0.0
 10
107.874207872337
 20
-159.6974012187562
 30
0.0
 10
108.0412950033716
 20
-159.9447590745972
 30
0.0
 10
108.0412950033716
 20
-160.2217447516112
 30
0.0
  0
HATCH
  5
121
330
11C
100
AcDbEntity
  8
_U+30EC_U+30A4_U+30E4_U+30FC 1
 62
   179
420
  2234388
100
AcDbHatch
 10
0.0
 20
0.0
 30
0.0
210
0.0
220
0.0
230
1.0
  2
SOLID
 70
     1
 71
     0
 91
        1
 92
        1
 93
        1
 72
     4
 94
        3
 73
     0
 74
     1
 95
       62
 96
       58
 40
0.0
 40
0.0
 40
0.0
 40
0.0
 40
1.0
 40
1.0
 40
1.0
 40
2.0
 40
2.0
 40
2.0
 40
3.0
 40
3.0
 40
3.0
 40
4.0
 40
4.0
 40
4.0
 40
5.0
 40
5.0
 40
5.0
 40
6.0
 40
6.0
 40
6.0
 40
7.0
 40
7.0
 40
7.0
 40
8.0
 40
8.0
 40
8.0
 40
9.0
 40
9.0
 40
9.0
 40
10.0
 40
10.0
 40
10.0
 40
11.0
 40
11.0
 40
11.0
 40
12.0
 40
12.0
 40
12.0
 40
13.0
 40
13.0
 40
13.0
 40
14.0
 40
14.0
 40
14.0
 40
15.0
 40
15.0
 40
15.0
 40
16.0
 40
16.0
 40
16.0
 40
17.0
 40
17.0
 40
17.0
 40
18.0
 40
18.0
 40
18.0
 40
19.0
 40
19.0
 40
19.0
 40
19.0
 10
108.0412950033716
 20
-160.2217447516112
 10
108.0412950033716
 20
-160.3171738965526
 10
108.0202799209116
 20
-160.5349039312204
 10
107.8342447647081
 20
-160.659960897335
 10
107.721934651889
 20
-160.7336859407194
 10
107.6227159019138
 20
-160.7381645648502
 10
107.5379665529766
 20
-160.7422986794325
 10
107.5379665529766
 20
-160.7422986794325
 10
107.5379665529766
 20
-160.522157077925
 10
107.5379665529766
 20
-160.522157077925
 10
107.6120361059095
 20
-160.5200900206339
 10
107.846647108455
 20
-160.5097547341781
 10
107.846647108455
 20
-160.2262233757421
 10
107.846647108455
 20
-160.0887640658806
 10
107.777056179653
 20
-159.936146335884
 10
107.5486463489809
 20
-159.936146335884
 10
107.4322021215795
 20
-159.936146335884
 10
107.3836262752374
 20
-159.9743868957703
 10
107.3519313967731
 20
-160.0060817742346
 10
107.2778618438403
 20
-160.0801513271675
 10
107.2651149905448
 20
-160.1965955545689
 10
107.2651149905448
 20
-160.2513725727844
 10
107.2651149905448
 20
-160.2706651075018
 10
107.267182047836
 20
-160.3064941005484
 10
107.2713161624183
 20
-160.3340548644304
 10
107.2713161624183
 20
-160.3340548644304
 10
107.0766682675017
 20
-160.3340548644304
 10
107.0766682675017
 20
-160.3340548644304
 10
107.0832139489236
 20
-160.2958143045441
 10
107.0852810062148
 20
-160.2537841396241
 10
107.0852810062148
 20
-160.2472384582021
 10
107.0852810062148
 20
-160.1817816439823
 10
107.0639214142062
 20
-159.9829996344834
 10
106.8272433543696
 20
-159.9829996344834
 10
106.6494764273307
 20
-159.9829996344834
 10
106.5943548995667
 20
-160.1139132629229
 10
106.5943548995667
 20
-160.2241563184509
 10
106.5943548995667
 20
-160.4883951421696
 10
106.8272433543696
 20
-160.4970078808827
 10
106.8989013404628
 20
-160.501141995465
 10
106.8989013404628
 20
-160.501141995465
 10
106.8989013404628
 20
-160.7044026290947
 10
106.8989013404628
 20
-160.7044026290947
 10
106.7741888838967
 20
-160.6957898903816
 10
106.3976399473589
 20
-160.6682291264996
 10
106.3976399473589
 20
-160.2114094651555
 10
106.3976399473589
 20
-159.9871337490657
 10
106.5247639707647
 20
-159.7459770650982
 10
106.8206976729476
 20
-159.7459770650982
 10
107.0070773386996
 20
-159.7459770650982
 10
107.0894151207971
 20
-159.8410617004911
 10
107.1507378204345
 20
-159.9406249600148
 10
107.1782985843165
 20
-159.8793022603774
 10
107.2585693091229
 20
-159.6974012187562
 10
107.5358994956855
 20
-159.6974012187562
 10
107.874207872337
 20
-159.6974012187562
 10
108.0412950033716
 20
-159.9447590745972
 10
108.0412950033716
 20
-160.2217447516112
 97
        0
 97
        0
 75
     2
 76
     1
 98
        0
  0
ENDBLK
  5
11F
330
11C
100
AcDbEntity
  8
0
100
AcDbBlockEnd
  0
BLOCK
  5
124
330
122
100
AcDbEntity
  8
0
100
AcDbBlockBegin
  2
block 7
 70
     0
 10
0.0
 20
0.0
 30
0.0
  3
block 7
  1

  0
SPLINE
  5
126
330
122
100
AcDbEntity
  8
_U+30EC_U+30A4_U+30E4_U+30FC 1
370
     0
100
AcDbSpline
210
0.0
220
0.0
230
1.0
 70
    11
 71
     3
 72
    44
 73
    40
 74
     0
 42
0.0000000001
 43
0.0000000001
 12
1.0
 22
0.0
 32
0.0
 13
1.0
 23
0.0
 33
0.0
 40
0.0
 40
0.0
 40
0.0
 40
0.0
 40
1.0
 40
1.0
 40
1.0
 40
2.0
 40
2.0
 40
2.0
 40
3.0
 40
3.0
 40
3.0
 40
4.0
 40
4.0
 40
4.0
 40
5.0
 40
5.0
 40
5.0
 40
6.0
 40
6.0
 40
6.0
 40
7.0
 40
7.0
 40
7.0
 40
8.0
 40
8.0
 40
8.0
 40
9.0
 40
9.0
 40
9.0
 40
10.0
 40
10.0
 40
10.0
 40
11.0
 40
11.0
 40
11.0
 40
12.0
 40
12.0
 40
12.0
 40
13.0
 40
13.0
 40
13.0
 40
13.0
 10
74.55668943448583
 20
-149.7097248974684
 30
0.0
 10
74.71550833635585
 20
-149.9274549321362
 30
0.0
 10
74.78957788928872
 20
-150.0204725102379
 30
0.0
 10
74.93323837102363
 20
-150.0693928661285
 30
0.0
 10
74.93323837102363
 20
-150.0693928661285
 30
0.0
 10
74.93323837102363
 20
-149.290801286462
 30
0.0
 10
74.93323837102363
 20
-149.290801286462
 30
0.0
 10
74.93323837102363
 20
-149.290801286462
 30
0.0
 10
75.13856606194453
 20
-149.290801286462
 30
0.0
 10
75.13856606194453
 20
-149.290801286462
 30
0.0
 10
75.13856606194453
 20
-149.290801286462
 30
0.0
 10
75.13856606194453
 20
-150.3188177792606
 30
0.0
 10
75.13856606194453
 20
-150.3188177792606
 30
0.0
 10
74.7809651505756
 20
-150.2871229007963
 30
0.0
 10
74.70276148306043
 20
-150.2216660865765
 30
0.0
 10
74.4044162140378
 20
-149.8365044113256
 30
0.0
 10
74.20563420453887
 20
-149.5805338167715
 30
0.0
 10
74.13776582347946
 20
-149.5150770025518
 30
0.0
 10
74.00030651361799
 20
-149.5150770025518
 30
0.0
 10
73.88179522892538
 20
-149.5150770025518
 30
0.0
 10
73.7508816004859
 20
-149.5870794981935
 30
0.0
 10
73.7508816004859
 20
-149.7837944504013
 30
0.0
 10
73.7508816004859
 20
-150.0438991595376
 30
0.0
 10
73.9813584884491
 20
-150.0525118982508
 30
0.0
 10
74.09780271585055
 20
-150.0566460128331
 30
0.0
 10
74.09780271585055
 20
-150.0566460128331
 30
0.0
 10
74.09780271585055
 20
-150.2809217289228
 30
0.0
 10
74.09780271585055
 20
-150.2809217289228
 30
0.0
 10
73.97067869244484
 20
-150.2723089902097
 30
0.0
 10
73.85871308917422
 20
-150.2616291942054
 30
0.0
 10
73.74020180448161
 20
-150.1813584693991
 30
0.0
 10
73.57931584532045
 20
-150.0714599234196
 30
0.0
 10
73.545553909565
 20
-149.8850802576676
 30
0.0
 10
73.545553909565
 20
-149.7689805398147
 30
0.0
 10
73.545553909565
 20
-149.4916503532521
 30
0.0
 10
73.72952200847735
 20
-149.28425560504
 30
0.0
 10
74.00237357090913
 20
-149.28425560504
 30
0.0
 10
74.23112791112972
 20
-149.28425560504
 30
0.0
 10
74.33034666110491
 20
-149.4006998324415
 30
0.0
 10
74.55668943448583
 20
-149.7097248974684
 30
0.0
  0
HATCH
  5
127
330
122
100
AcDbEntity
  8
_U+30EC_U+30A4_U+30E4_U+30FC 1
 62
   179
420
  2234388
100
AcDbHatch
 10
0.0
 20
0.0
 30
0.0
210
0.0
220
0.0
230
1.0
  2
SOLID
 70
     1
 71
     0
 91
        1
 92
        1
 93
        1
 72
     4
 94
        3
 73
     0
 74
     1
 95
       44
 96
       40
 40
0.0
 40
0.0
 40
0.0
 40
0.0
 40
1.0
 40
1.0
 40
1.0
 40
2.0
 40
2.0
 40
2.0
 40
3.0
 40
3.0
 40
3.0
 40
4.0
 40
4.0
 40
4.0
 40
5.0
 40
5.0
 40
5.0
 40
6.0
 40
6.0
 40
6.0
 40
7.0
 40
7.0
 40
7.0
 40
8.0
 40
8.0
 40
8.0
 40
9.0
 40
9.0
 40
9.0
 40
10.0
 40
10.0
 40
10.0
 40
11.0
 40
11.0
 40
11.0
 40
12.0
 40
12.0
 40
12.0
 40
13.0
 40
13.0
 40
13.0
 40
13.0
 10
74.55668943448583
 20
-149.7097248974684
 10
74.71550833635585
 20
-149.9274549321362
 10
74.78957788928872
 20
-150.0204725102379
 10
74.93323837102363
 20
-150.0693928661285
 10
74.93323837102363
 20
-150.0693928661285
 10
74.93323837102363
 20
-149.290801286462
 10
74.93323837102363
 20
-149.290801286462
 10
74.93323837102363
 20
-149.290801286462
 10
75.13856606194453
 20
-149.290801286462
 10
75.13856606194453
 20
-149.290801286462
 10
75.13856606194453
 20
-149.290801286462
 10
75.13856606194453
 20
-150.3188177792606
 10
75.13856606194453
 20
-150.3188177792606
 10
74.7809651505756
 20
-150.2871229007963
 10
74.70276148306043
 20
-150.2216660865765
 10
74.4044162140378
 20
-149.8365044113256
 10
74.20563420453887
 20
-149.5805338167715
 10
74.13776582347946
 20
-149.5150770025518
 10
74.00030651361799
 20
-149.5150770025518
 10
73.88179522892538
 20
-149.5150770025518
 10
73.7508816004859
 20
-149.5870794981935
 10
73.7508816004859
 20
-149.7837944504013
 10
73.7508816004859
 20
-150.0438991595376
 10
73.9813584884491
 20
-150.0525118982508
 10
74.09780271585055
 20
-150.0566460128331
 10
74.09780271585055
 20
-150.0566460128331
 10
74.09780271585055
 20
-150.2809217289228
 10
74.09780271585055
 20
-150.2809217289228
 10
73.97067869244484
 20
-150.2723089902097
 10
73.85871308917422
 20
-150.2616291942054
 10
73.74020180448161
 20
-150.1813584693991
 10
73.57931584532045
 20
-150.0714599234196
 10
73.545553909565
 20
-149.8850802576676
 10
73.545553909565
 20
-149.7689805398147
 10
73.545553909565
 20
-149.4916503532521
 10
73.72952200847735
 20
-149.28425560504
 10
74.00237357090913
 20
-149.28425560504
 10
74.23112791112972
 20
-149.28425560504
 10
74.33034666110491
 20
-149.4006998324415
 10
74.55668943448583
 20
-149.7097248974684
 97
        0
 97
        0
 75
     2
 76
     1
 98
        0
  0
SPLINE
  5
128
330
122
100
AcDbEntity
  8
_U+30EC_U+30A4_U+30E4_U+30FC 1
370
     0
100
AcDbSpline
210
0.0
220
0.0
230
1.0
 70
    11
 71
     3
 72
    53
 73
    49
 74
     0
 42
0.0000000001
 43
0.0000000001
 12
1.0
 22
0.0
 32
0.0
 13
1.0
 23
0.0
 33
0.0
 40
0.0
 40
0.0
 40
0.0
 40
0.0
 40
1.0
 40
1.0
 40
1.0
 40
2.0
 40
2.0
 40
2.0
 40
3.0
 40
3.0
 40
3.0
 40
4.0
 40
4.0
 40
4.0
 40
5.0
 40
5.0
 40
5.0
 40
6.0
 40
6.0
 40
6.0
 40
7.0
 40
7.0
 40
7.0
 40
8.0
 40
8.0
 40
8.0
 40
9.0
 40
9.0
 40
9.0
 40
10.0
 40
10.0
 40
10.0
 40
11.0
 40
11.0
 40
11.0
 40
12.0
 40
12.0
 40
12.0
 40
13.0
 40
13.0
 40
13.0
 40
14.0
 40
14.0
 40
14.0
 40
15.0
 40
15.0
 40
15.0
 40
16.0
 40
16.0
 40
16.0
 40
16.0
 10
75.1892089655777
 20
-148.6448458829777
 30
0.0
 10
75.1892089655777
 20
-148.7230495504928
 30
0.0
 10
75.17232799769998
 20
-148.8246798673077
 30
0.0
 10
75.10893824077138
 20
-148.9263101841226
 30
0.0
 10
74.9990396947919
 20
-149.0995984870307
 30
0.0
 10
74.86778155680389
 20
-149.1209580790392
 30
0.0
 10
74.75995006811557
 20
-149.1399061042081
 30
0.0
 10
74.75995006811557
 20
-149.1399061042081
 30
0.0
 10
74.75995006811557
 20
-148.9176974454095
 30
0.0
 10
74.75995006811557
 20
-148.9176974454095
 30
0.0
 10
74.95873207761448
 20
-148.862920427194
 30
0.0
 10
74.98835989878764
 20
-148.7357964037883
 30
0.0
 10
74.98835989878764
 20
-148.6427788256865
 30
0.0
 10
74.98835989878764
 20
-148.5032524585339
 30
0.0
 10
74.88879663926392
 20
-148.3509792380859
 30
0.0
 10
74.65625269400955
 20
-148.3509792380859
 30
0.0
 10
74.4002820994555
 20
-148.3509792380859
 30
0.0
 10
74.33034666110491
 20
-148.5308132224159
 30
0.0
 10
74.33034666110491
 20
-148.6513915643997
 30
0.0
 10
74.33034666110491
 20
-148.683086442864
 30
0.0
 10
74.33034666110491
 20
-148.8246798673077
 30
0.0
 10
74.45953774180178
 20
-148.9135633308272
 30
0.0
 10
74.45953774180178
 20
-148.9135633308272
 30
0.0
 10
74.44058971663291
 20
-149.0892632005749
 30
0.0
 10
74.44058971663291
 20
-149.0892632005749
 30
0.0
 10
74.44058971663291
 20
-149.0892632005749
 30
0.0
 10
73.59412975590703
 20
-148.9686848585912
 30
0.0
 10
73.59412975590703
 20
-148.9686848585912
 30
0.0
 10
73.59412975590703
 20
-148.9686848585912
 30
0.0
 10
73.59412975590703
 20
-148.1900932789247
 30
0.0
 10
73.59412975590703
 20
-148.1900932789247
 30
0.0
 10
73.59412975590703
 20
-148.1900932789247
 30
0.0
 10
73.78877765082365
 20
-148.1900932789247
 30
0.0
 10
73.78877765082365
 20
-148.1900932789247
 30
0.0
 10
73.78877765082365
 20
-148.1900932789247
 30
0.0
 10
73.78877765082365
 20
-148.8057318421388
 30
0.0
 10
73.78877765082365
 20
-148.8057318421388
 30
0.0
 10
73.78877765082365
 20
-148.8057318421388
 30
0.0
 10
74.21183537641232
 20
-148.8711886563586
 30
0.0
 10
74.21183537641232
 20
-148.8711886563586
 30
0.0
 10
74.17807344065687
 20
-148.8098659567212
 30
0.0
 10
74.13776582347946
 20
-148.7275281746237
 30
0.0
 10
74.13776582347946
 20
-148.6090168899311
 30
0.0
 10
74.13776582347946
 20
-148.3551133526682
 30
0.0
 10
74.32414548923147
 20
-148.118090783283
 30
0.0
 10
74.63730466884067
 20
-148.118090783283
 30
0.0
 10
74.95459796303219
 20
-148.118090783283
 30
0.0
 10
75.1892089655777
 20
-148.3423664993728
 30
0.0
 10
75.1892089655777
 20
-148.6448458829777
 30
0.0
  0
HATCH
  5
129
330
122
100
AcDbEntity
  8
_U+30EC_U+30A4_U+30E4_U+30FC 1
 62
   179
420
  2234388
100
AcDbHatch
 10
0.0
 20
0.0
 30
0.0
210
0.0
220
0.0
230
1.0
  2
SOLID
 70
     1
 71
     0
 91
        1
 92
        1
 93
        1
 72
     4
 94
        3
 73
     0
 74
     1
 95
       53
 96
       49
 40
0.0
 40
0.0
 40
0.0
 40
0.0
 40
1.0
 40
1.0
 40
1.0
 40
2.0
 40
2.0
 40
2.0
 40
3.0
 40
3.0
 40
3.0
 40
4.0
 40
4.0
 40
4.0
 40
5.0
 40
5.0
 40
5.0
 40
6.0
 40
6.0
 40
6.0
 40
7.0
 40
7.0
 40
7.0
 40
8.0
 40
8.0
 40
8.0
 40
9.0
 40
9.0
 40
9.0
 40
10.0
 40
10.0
 40
10.0
 40
11.0
 40
11.0
 40
11.0
 40
12.0
 40
12.0
 40
12.0
 40
13.0
 40
13.0
 40
13.0
 40
14.0
 40
14.0
 40
14.0
 40
15.0
 40
15.0
 40
15.0
 40
16.0
 40
16.0
 40
16.0
 40
16.0
 10
75.1892089655777
 20
-148.6448458829777
 10
75.1892089655777
 20
-148.7230495504928
 10
75.17232799769998
 20
-148.8246798673077
 10
75.10893824077138
 20
-148.9263101841226
 10
74.9990396947919
 20
-149.0995984870307
 10
74.86778155680389
 20
-149.1209580790392
 10
74.75995006811557
 20
-149.1399061042081
 10
74.75995006811557
 20
-149.1399061042081
 10
74.75995006811557
 20
-148.9176974454095
 10
74.75995006811557
 20
-148.9176974454095
 10
74.95873207761448
 20
-148.862920427194
 10
74.98835989878764
 20
-148.7357964037883
 10
74.98835989878764
 20
-148.6427788256865
 10
74.98835989878764
 20
-148.5032524585339
 10
74.88879663926392
 20
-148.3509792380859
 10
74.65625269400955
 20
-148.3509792380859
 10
74.4002820994555
 20
-148.3509792380859
 10
74.33034666110491
 20
-148.5308132224159
 10
74.33034666110491
 20
-148.6513915643997
 10
74.33034666110491
 20
-148.683086442864
 10
74.33034666110491
 20
-148.8246798673077
 10
74.45953774180178
 20
-148.9135633308272
 10
74.45953774180178
 20
-148.9135633308272
 10
74.44058971663291
 20
-149.0892632005749
 10
74.44058971663291
 20
-149.0892632005749
 10
74.44058971663291
 20
-149.0892632005749
 10
73.59412975590703
 20
-148.9686848585912
 10
73.59412975590703
 20
-148.9686848585912
 10
73.59412975590703
 20
-148.9686848585912
 10
73.59412975590703
 20
-148.1900932789247
 10
73.59412975590703
 20
-148.1900932789247
 10
73.59412975590703
 20
-148.1900932789247
 10
73.78877765082365
 20
-148.1900932789247
 10
73.78877765082365
 20
-148.1900932789247
 10
73.78877765082365
 20
-148.1900932789247
 10
73.78877765082365
 20
-148.8057318421388
 10
73.78877765082365
 20
-148.8057318421388
 10
73.78877765082365
 20
-148.8057318421388
 10
74.21183537641232
 20
-148.8711886563586
 10
74.21183537641232
 20
-148.8711886563586
 10
74.17807344065687
 20
-148.8098659567212
 10
74.13776582347946
 20
-148.7275281746237
 10
74.13776582347946
 20
-148.6090168899311
 10
74.13776582347946
 20
-148.3551133526682
 10
74.32414548923147
 20
-148.118090783283
 10
74.63730466884067
 20
-148.118090783283
 10
74.95459796303219
 20
-148.118090783283
 10
75.1892089655777
 20
-148.3423664993728
 10
75.1892089655777
 20
-148.6448458829777
 97
        0
 97
        0
 75
     2
 76
     1
 98
        0
  0
ENDBLK
  5
125
330
122
100
AcDbEntity
  8
0
100
AcDbBlockEnd
  0
BLOCK
  5
12C
330
12A
100
AcDbEntity
  8
0
100
AcDbBlockBegin
  2
block 8
 70
     0
 10
0.0
 20
0.0
 30
0.0
  3
block 8
  1

  0
SPLINE
  5
12E
330
12A
100
AcDbEntity
  8
_U+30EC_U+30A4_U+30E4_U+30FC 1
370
     0
100
AcDbSpline
210
0.0
220
0.0
230
1.0
 70
    11
 71
     3
 72
    62
 73
    58
 74
     0
 42
0.0000000001
 43
0.0000000001
 12
1.0
 22
0.0
 32
0.0
 13
1.0
 23
0.0
 33
0.0
 40
0.0
 40
0.0
 40
0.0
 40
0.0
 40
1.0
 40
1.0
 40
1.0
 40
2.0
 40
2.0
 40
2.0
 40
3.0
 40
3.0
 40
3.0
 40
4.0
 40
4.0
 40
4.0
 40
5.0
 40
5.0
 40
5.0
 40
6.0
 40
6.0
 40
6.0
 40
7.0
 40
7.0
 40
7.0
 40
8.0
 40
8.0
 40
8.0
 40
9.0
 40
9.0
 40
9.0
 40
10.0
 40
10.0
 40
10.0
 40
11.0
 40
11.0
 40
11.0
 40
12.0
 40
12.0
 40
12.0
 40
13.0
 40
13.0
 40
13.0
 40
14.0
 40
14.0
 40
14.0
 40
15.0
 40
15.0
 40
15.0
 40
16.0
 40
16.0
 40
16.0
 40
17.0
 40
17.0
 40
17.0
 40
18.0
 40
18.0
 40
18.0
 40
19.0
 40
19.0
 40
19.0
 40
19.0
 10
81.28013778349941
 20
-132.4711561083753
 30
0.0
 10
81.18470863855799
 20
-132.4711561083753
 30
0.0
 10
80.9669786038902
 20
-132.4501410259153
 30
0.0
 10
80.84192163777564
 20
-132.2637613601632
 30
0.0
 10
80.76785208484276
 20
-132.1517957568926
 30
0.0
 10
80.76371797026046
 20
-132.0522324973689
 30
0.0
 10
80.75958385567816
 20
-131.9678276579803
 30
0.0
 10
80.75958385567816
 20
-131.9678276579803
 30
0.0
 10
80.97972545718562
 20
-131.9678276579803
 30
0.0
 10
80.97972545718562
 20
-131.9678276579803
 30
0.0
 10
80.98179251447678
 20
-132.0418972109131
 30
0.0
 10
80.99212780093252
 20
-132.2765082134587
 30
0.0
 10
81.27565915936859
 20
-132.2765082134587
 30
0.0
 10
81.41311846923006
 20
-132.2765082134587
 30
0.0
 10
81.56573619922662
 20
-132.2069172846566
 30
0.0
 10
81.56573619922662
 20
-131.978162944436
 30
0.0
 10
81.56573619922662
 20
-131.8620632265831
 30
0.0
 10
81.52749563934036
 20
-131.8131428706926
 30
0.0
 10
81.49580076087605
 20
-131.7814479922283
 30
0.0
 10
81.42173120794318
 20
-131.7073784392954
 30
0.0
 10
81.30528698054174
 20
-131.6949760955485
 30
0.0
 10
81.25050996232626
 20
-131.6949760955485
 30
0.0
 10
81.23121742760887
 20
-131.6949760955485
 30
0.0
 10
81.19538843456226
 20
-131.6970431528396
 30
0.0
 10
81.16782767068027
 20
-131.7011772674219
 30
0.0
 10
81.16782767068027
 20
-131.7011772674219
 30
0.0
 10
81.16782767068027
 20
-131.5065293725053
 30
0.0
 10
81.16782767068027
 20
-131.5065293725053
 30
0.0
 10
81.20606823056654
 20
-131.5127305443788
 30
0.0
 10
81.2480983954866
 20
-131.5151421112184
 30
0.0
 10
81.25464407690856
 20
-131.5151421112184
 30
0.0
 10
81.3201008911283
 20
-131.5151421112184
 30
0.0
 10
81.51888290062723
 20
-131.4937825192099
 30
0.0
 10
81.51888290062723
 20
-131.2567599498247
 30
0.0
 10
81.51888290062723
 20
-131.0793375323343
 30
0.0
 10
81.38796927218773
 20
-131.0242160045703
 30
0.0
 10
81.27772621665974
 20
-131.0242160045703
 30
0.0
 10
81.01348739294107
 20
-131.0242160045703
 30
0.0
 10
81.00487465422795
 20
-131.2567599498247
 30
0.0
 10
81.00074053964565
 20
-131.3287624454664
 30
0.0
 10
81.00074053964565
 20
-131.3287624454664
 30
0.0
 10
80.79747990601591
 20
-131.3287624454664
 30
0.0
 10
80.79747990601591
 20
-131.3287624454664
 30
0.0
 10
80.80609264472903
 20
-131.2040499889004
 30
0.0
 10
80.83365340861104
 20
-130.8275010523626
 30
0.0
 10
81.29047306995517
 20
-130.8275010523626
 30
0.0
 10
81.51474878604493
 20
-130.8275010523626
 30
0.0
 10
81.75590547001242
 20
-130.9542805662198
 30
0.0
 10
81.75590547001242
 20
-131.2505587779513
 30
0.0
 10
81.75590547001242
 20
-131.4365939341548
 30
0.0
 10
81.66082083461951
 20
-131.5192762258008
 30
0.0
 10
81.5612575750958
 20
-131.5805989254382
 30
0.0
 10
81.62258027473325
 20
-131.6081596893202
 30
0.0
 10
81.80448131635444
 20
-131.6884304141265
 30
0.0
 10
81.80448131635444
 20
-131.9657606006891
 30
0.0
 10
81.80448131635444
 20
-132.3040689773406
 30
0.0
 10
81.5571234605135
 20
-132.4711561083753
 30
0.0
 10
81.28013778349941
 20
-132.4711561083753
 30
0.0
  0
HATCH
  5
12F
330
12A
100
AcDbEntity
  8
_U+30EC_U+30A4_U+30E4_U+30FC 1
 62
   179
420
  2234388
100
AcDbHatch
 10
0.0
 20
0.0
 30
0.0
210
0.0
220
0.0
230
1.0
  2
SOLID
 70
     1
 71
     0
 91
        1
 92
        1
 93
        1
 72
     4
 94
        3
 73
     0
 74
     1
 95
       62
 96
       58
 40
0.0
 40
0.0
 40
0.0
 40
0.0
 40
1.0
 40
1.0
 40
1.0
 40
2.0
 40
2.0
 40
2.0
 40
3.0
 40
3.0
 40
3.0
 40
4.0
 40
4.0
 40
4.0
 40
5.0
 40
5.0
 40
5.0
 40
6.0
 40
6.0
 40
6.0
 40
7.0
 40
7.0
 40
7.0
 40
8.0
 40
8.0
 40
8.0
 40
9.0
 40
9.0
 40
9.0
 40
10.0
 40
10.0
 40
10.0
 40
11.0
 40
11.0
 40
11.0
 40
12.0
 40
12.0
 40
12.0
 40
13.0
 40
13.0
 40
13.0
 40
14.0
 40
14.0
 40
14.0
 40
15.0
 40
15.0
 40
15.0
 40
16.0
 40
16.0
 40
16.0
 40
17.0
 40
17.0
 40
17.0
 40
18.0
 40
18.0
 40
18.0
 40
19.0
 40
19.0
 40
19.0
 40
19.0
 10
81.28013778349941
 20
-132.4711561083753
 10
81.18470863855799
 20
-132.4711561083753
 10
80.9669786038902
 20
-132.4501410259153
 10
80.84192163777564
 20
-132.2637613601632
 10
80.76785208484276
 20
-132.1517957568926
 10
80.76371797026046
 20
-132.0522324973689
 10
80.75958385567816
 20
-131.9678276579803
 10
80.75958385567816
 20
-131.9678276579803
 10
80.97972545718562
 20
-131.9678276579803
 10
80.97972545718562
 20
-131.9678276579803
 10
80.98179251447678
 20
-132.0418972109131
 10
80.99212780093252
 20
-132.2765082134587
 10
81.27565915936859
 20
-132.2765082134587
 10
81.41311846923006
 20
-132.2765082134587
 10
81.56573619922662
 20
-132.2069172846566
 10
81.56573619922662
 20
-131.978162944436
 10
81.56573619922662
 20
-131.8620632265831
 10
81.52749563934036
 20
-131.8131428706926
 10
81.49580076087605
 20
-131.7814479922283
 10
81.42173120794318
 20
-131.7073784392954
 10
81.30528698054174
 20
-131.6949760955485
 10
81.25050996232626
 20
-131.6949760955485
 10
81.23121742760887
 20
-131.6949760955485
 10
81.19538843456226
 20
-131.6970431528396
 10
81.16782767068027
 20
-131.7011772674219
 10
81.16782767068027
 20
-131.7011772674219
 10
81.16782767068027
 20
-131.5065293725053
 10
81.16782767068027
 20
-131.5065293725053
 10
81.20606823056654
 20
-131.5127305443788
 10
81.2480983954866
 20
-131.5151421112184
 10
81.25464407690856
 20
-131.5151421112184
 10
81.3201008911283
 20
-131.5151421112184
 10
81.51888290062723
 20
-131.4937825192099
 10
81.51888290062723
 20
-131.2567599498247
 10
81.51888290062723
 20
-131.0793375323343
 10
81.38796927218773
 20
-131.0242160045703
 10
81.27772621665974
 20
-131.0242160045703
 10
81.01348739294107
 20
-131.0242160045703
 10
81.00487465422795
 20
-131.2567599498247
 10
81.00074053964565
 20
-131.3287624454664
 10
81.00074053964565
 20
-131.3287624454664
 10
80.79747990601591
 20
-131.3287624454664
 10
80.79747990601591
 20
-131.3287624454664
 10
80.80609264472903
 20
-131.2040499889004
 10
80.83365340861104
 20
-130.8275010523626
 10
81.29047306995517
 20
-130.8275010523626
 10
81.51474878604493
 20
-130.8275010523626
 10
81.75590547001242
 20
-130.9542805662198
 10
81.75590547001242
 20
-131.2505587779513
 10
81.75590547001242
 20
-131.4365939341548
 10
81.66082083461951
 20
-131.5192762258008
 10
81.5612575750958
 20
-131.5805989254382
 10
81.62258027473325
 20
-131.6081596893202
 10
81.80448131635444
 20
-131.6884304141265
 10
81.80448131635444
 20
-131.9657606006891
 10
81.80448131635444
 20
-132.3040689773406
 10
81.5571234605135
 20
-132.4711561083753
 10
81.28013778349941
 20
-132.4711561083753
 97
        0
 97
        0
 75
     2
 76
     1
 98
        0
  0
ENDBLK
  5
12D
330
12A
100
AcDbEntity
  8
0
100
AcDbBlockEnd
  0
BLOCK
  5
132
330
130
100
AcDbEntity
  8
0
100
AcDbBlockBegin
  2
block 9
 70
     0
 10
0.0
 20
0.0
 30
0.0
  3
block 9
  1

  0
SPLINE
  5
134
330
130
100
AcDbEntity
  8
_U+30EC_U+30A4_U+30E4_U+30FC 1
370
     0
100
AcDbSpline
210
0.0
220
0.0
230
1.0
 70
    11
 71
     3
 72
    26
 73
    22
 74
     0
 42
0.0000000001
 43
0.0000000001
 12
1.0
 22
0.0
 32
0.0
 13
1.0
 23
0.0
 33
0.0
 40
0.0
 40
0.0
 40
0.0
 40
0.0
 40
1.0
 40
1.0
 40
1.0
 40
2.0
 40
2.0
 40
2.0
 40
3.0
 40
3.0
 40
3.0
 40
4.0
 40
4.0
 40
4.0
 40
5.0
 40
5.0
 40
5.0
 40
6.0
 40
6.0
 40
6.0
 40
7.0
 40
7.0
 40
7.0
 40
7.0
 10
88.55152856944198
 20
-132.4205132047421
 30
0.0
 10
88.55152856944198
 20
-132.4205132047421
 30
0.0
 10
88.55152856944198
 20
-131.316015592171
 30
0.0
 10
88.55152856944198
 20
-131.316015592171
 30
0.0
 10
88.55152856944198
 20
-131.316015592171
 30
0.0
 10
88.22148842195504
 20
-131.316015592171
 30
0.0
 10
88.22148842195504
 20
-131.316015592171
 30
0.0
 10
88.22148842195504
 20
-131.316015592171
 30
0.0
 10
88.22148842195504
 20
-131.1682209958538
 30
0.0
 10
88.22148842195504
 20
-131.1682209958538
 30
0.0
 10
88.55359562673313
 20
-131.1534070852672
 30
0.0
 10
88.600104415784
 20
-130.9904540688149
 30
0.0
 10
88.62973223695715
 20
-130.8760768987046
 30
0.0
 10
88.62973223695715
 20
-130.8760768987046
 30
0.0
 10
88.77580428553175
 20
-130.8760768987046
 30
0.0
 10
88.77580428553175
 20
-130.8760768987046
 30
0.0
 10
88.77580428553175
 20
-130.8760768987046
 30
0.0
 10
88.77580428553175
 20
-132.4205132047421
 30
0.0
 10
88.77580428553175
 20
-132.4205132047421
 30
0.0
 10
88.77580428553175
 20
-132.4205132047421
 30
0.0
 10
88.55152856944198
 20
-132.4205132047421
 30
0.0
 10
88.55152856944198
 20
-132.4205132047421
 30
0.0
  0
HATCH
  5
135
330
130
100
AcDbEntity
  8
_U+30EC_U+30A4_U+30E4_U+30FC 1
 62
   179
420
  2234388
100
AcDbHatch
 10
0.0
 20
0.0
 30
0.0
210
0.0
220
0.0
230
1.0
  2
SOLID
 70
     1
 71
     0
 91
        1
 92
        1
 93
        1
 72
     4
 94
        3
 73
     0
 74
     1
 95
       26
 96
       22
 40
0.0
 40
0.0
 40
0.0
 40
0.0
 40
1.0
 40
1.0
 40
1.0
 40
2.0
 40
2.0
 40
2.0
 40
3.0
 40
3.0
 40
3.0
 40
4.0
 40
4.0
 40
4.0
 40
5.0
 40
5.0
 40
5.0
 40
6.0
 40
6.0
 40
6.0
 40
7.0
 40
7.0
 40
7.0
 40
7.0
 10
88.55152856944198
 20
-132.4205132047421
 10
88.55152856944198
 20
-132.4205132047421
 10
88.55152856944198
 20
-131.316015592171
 10
88.55152856944198
 20
-131.316015592171
 10
88.55152856944198
 20
-131.316015592171
 10
88.22148842195504
 20
-131.316015592171
 10
88.22148842195504
 20
-131.316015592171
 10
88.22148842195504
 20
-131.316015592171
 10
88.22148842195504
 20
-131.1682209958538
 10
88.22148842195504
 20
-131.1682209958538
 10
88.55359562673313
 20
-131.1534070852672
 10
88.600104415784
 20
-130.9904540688149
 10
88.62973223695715
 20
-130.8760768987046
 10
88.62973223695715
 20
-130.8760768987046
 10
88.77580428553175
 20
-130.8760768987046
 10
88.77580428553175
 20
-130.8760768987046
 10
88.77580428553175
 20
-130.8760768987046
 10
88.77580428553175
 20
-132.4205132047421
 10
88.77580428553175
 20
-132.4205132047421
 10
88.77580428553175
 20
-132.4205132047421
 10
88.55152856944198
 20
-132.4205132047421
 10
88.55152856944198
 20
-132.4205132047421
 97
        0
 97
        0
 75
     2
 76
     1
 98
        0
  0
SPLINE
  5
136
330
130
100
AcDbEntity
  8
_U+30EC_U+30A4_U+30E4_U+30FC 1
370
     0
100
AcDbSpline
210
0.0
220
0.0
230
1.0
 70
    11
 71
     3
 72
    62
 73
    58
 74
     0
 42
0.0000000001
 43
0.0000000001
 12
1.0
 22
0.0
 32
0.0
 13
1.0
 23
0.0
 33
0.0
 40
0.0
 40
0.0
 40
0.0
 40
0.0
 40
1.0
 40
1.0
 40
1.0
 40
2.0
 40
2.0
 40
2.0
 40
3.0
 40
3.0
 40
3.0
 40
4.0
 40
4.0
 40
4.0
 40
5.0
 40
5.0
 40
5.0
 40
6.0
 40
6.0
 40
6.0
 40
7.0
 40
7.0
 40
7.0
 40
8.0
 40
8.0
 40
8.0
 40
9.0
 40
9.0
 40
9.0
 40
10.0
 40
10.0
 40
10.0
 40
11.0
 40
11.0
 40
11.0
 40
12.0
 40
12.0
 40
12.0
 40
13.0
 40
13.0
 40
13.0
 40
14.0
 40
14.0
 40
14.0
 40
15.0
 40
15.0
 40
15.0
 40
16.0
 40
16.0
 40
16.0
 40
17.0
 40
17.0
 40
17.0
 40
18.0
 40
18.0
 40
18.0
 40
19.0
 40
19.0
 40
19.0
 40
19.0
 10
89.76868080438075
 20
-132.4711561083753
 30
0.0
 10
89.67325165943933
 20
-132.4711561083753
 30
0.0
 10
89.45552162477154
 20
-132.4501410259153
 30
0.0
 10
89.33046465865696
 20
-132.2637613601632
 30
0.0
 10
89.2563951057241
 20
-132.1517957568926
 30
0.0
 10
89.2522609911418
 20
-132.0522324973689
 30
0.0
 10
89.2481268765595
 20
-131.9678276579803
 30
0.0
 10
89.2481268765595
 20
-131.9678276579803
 30
0.0
 10
89.46826847806696
 20
-131.9678276579803
 30
0.0
 10
89.46826847806696
 20
-131.9678276579803
 30
0.0
 10
89.47033553535812
 20
-132.0418972109131
 30
0.0
 10
89.48067082181386
 20
-132.2765082134587
 30
0.0
 10
89.76420218024992
 20
-132.2765082134587
 30
0.0
 10
89.9016614901114
 20
-132.2765082134587
 30
0.0
 10
90.05427922010796
 20
-132.2069172846566
 30
0.0
 10
90.05427922010796
 20
-131.978162944436
 30
0.0
 10
90.05427922010796
 20
-131.8620632265831
 30
0.0
 10
90.0160386602217
 20
-131.8131428706926
 30
0.0
 10
89.98434378175739
 20
-131.7814479922283
 30
0.0
 10
89.91027422882452
 20
-131.7073784392954
 30
0.0
 10
89.79383000142307
 20
-131.6949760955485
 30
0.0
 10
89.7390529832076
 20
-131.6949760955485
 30
0.0
 10
89.7197604484902
 20
-131.6949760955485
 30
0.0
 10
89.6839314554436
 20
-131.6970431528396
 30
0.0
 10
89.6563706915616
 20
-131.7011772674219
 30
0.0
 10
89.6563706915616
 20
-131.7011772674219
 30
0.0
 10
89.6563706915616
 20
-131.5065293725053
 30
0.0
 10
89.6563706915616
 20
-131.5065293725053
 30
0.0
 10
89.69461125144788
 20
-131.5127305443788
 30
0.0
 10
89.73664141636793
 20
-131.5151421112184
 30
0.0
 10
89.7431870977899
 20
-131.5151421112184
 30
0.0
 10
89.80864391200964
 20
-131.5151421112184
 30
0.0
 10
90.00742592150857
 20
-131.4937825192099
 30
0.0
 10
90.00742592150857
 20
-131.2567599498247
 30
0.0
 10
90.00742592150857
 20
-131.0793375323343
 30
0.0
 10
89.87651229306907
 20
-131.0242160045703
 30
0.0
 10
89.76626923754108
 20
-131.0242160045703
 30
0.0
 10
89.50203041382241
 20
-131.0242160045703
 30
0.0
 10
89.49341767510928
 20
-131.2567599498247
 30
0.0
 10
89.48928356052699
 20
-131.3287624454664
 30
0.0
 10
89.48928356052699
 20
-131.3287624454664
 30
0.0
 10
89.28602292689725
 20
-131.3287624454664
 30
0.0
 10
89.28602292689725
 20
-131.3287624454664
 30
0.0
 10
89.29463566561037
 20
-131.2040499889004
 30
0.0
 10
89.32219642949237
 20
-130.8275010523626
 30
0.0
 10
89.7790160908365
 20
-130.8275010523626
 30
0.0
 10
90.00329180692627
 20
-130.8275010523626
 30
0.0
 10
90.24444849089376
 20
-130.9542805662198
 30
0.0
 10
90.24444849089376
 20
-131.2505587779513
 30
0.0
 10
90.24444849089376
 20
-131.4365939341548
 30
0.0
 10
90.14936385550085
 20
-131.5192762258008
 30
0.0
 10
90.04980059597713
 20
-131.5805989254382
 30
0.0
 10
90.11112329561459
 20
-131.6081596893202
 30
0.0
 10
90.29302433723578
 20
-131.6884304141265
 30
0.0
 10
90.29302433723578
 20
-131.9657606006891
 30
0.0
 10
90.29302433723578
 20
-132.3040689773406
 30
0.0
 10
90.04566648139483
 20
-132.4711561083753
 30
0.0
 10
89.76868080438075
 20
-132.4711561083753
 30
0.0
  0
HATCH
  5
137
330
130
100
AcDbEntity
  8
_U+30EC_U+30A4_U+30E4_U+30FC 1
 62
   179
420
  2234388
100
AcDbHatch
 10
0.0
 20
0.0
 30
0.0
210
0.0
220
0.0
230
1.0
  2
SOLID
 70
     1
 71
     0
 91
        1
 92
        1
 93
        1
 72
     4
 94
        3
 73
     0
 74
     1
 95
       62
 96
       58
 40
0.0
 40
0.0
 40
0.0
 40
0.0
 40
1.0
 40
1.0
 40
1.0
 40
2.0
 40
2.0
 40
2.0
 40
3.0
 40
3.0
 40
3.0
 40
4.0
 40
4.0
 40
4.0
 40
5.0
 40
5.0
 40
5.0
 40
6.0
 40
6.0
 40
6.0
 40
7.0
 40
7.0
 40
7.0
 40
8.0
 40
8.0
 40
8.0
 40
9.0
 40
9.0
 40
9.0
 40
10.0
 40
10.0
 40
10.0
 40
11.0
 40
11.0
 40
11.0
 40
12.0
 40
12.0
 40
12.0
 40
13.0
 40
13.0
 40
13.0
 40
14.0
 40
14.0
 40
14.0
 40
15.0
 40
15.0
 40
15.0
 40
16.0
 40
16.0
 40
16.0
 40
17.0
 40
17.0
 40
17.0
 40
18.0
 40
18.0
 40
18.0
 40
19.0
 40
19.0
 40
19.0
 40
19.0
 10
89.76868080438075
 20
-132.4711561083753
 10
89.67325165943933
 20
-132.4711561083753
 10
89.45552162477154
 20
-132.4501410259153
 10
89.33046465865696
 20
-132.2637613601632
 10
89.2563951057241
 20
-132.1517957568926
 10
89.2522609911418
 20
-132.0522324973689
 10
89.2481268765595
 20
-131.9678276579803
 10
89.2481268765595
 20
-131.9678276579803
 10
89.46826847806696
 20
-131.9678276579803
 10
89.46826847806696
 20
-131.9678276579803
 10
89.47033553535812
 20
-132.0418972109131
 10
89.48067082181386
 20
-132.2765082134587
 10
89.76420218024992
 20
-132.2765082134587
 10
89.9016614901114
 20
-132.2765082134587
 10
90.05427922010796
 20
-132.2069172846566
 10
90.05427922010796
 20
-131.978162944436
 10
90.05427922010796
 20
-131.8620632265831
 10
90.0160386602217
 20
-131.8131428706926
 10
89.98434378175739
 20
-131.7814479922283
 10
89.91027422882452
 20
-131.7073784392954
 10
89.79383000142307
 20
-131.6949760955485
 10
89.7390529832076
 20
-131.6949760955485
 10
89.7197604484902
 20
-131.6949760955485
 10
89.6839314554436
 20
-131.6970431528396
 10
89.6563706915616
 20
-131.7011772674219
 10
89.6563706915616
 20
-131.7011772674219
 10
89.6563706915616
 20
-131.5065293725053
 10
89.6563706915616
 20
-131.5065293725053
 10
89.69461125144788
 20
-131.5127305443788
 10
89.73664141636793
 20
-131.5151421112184
 10
89.7431870977899
 20
-131.5151421112184
 10
89.80864391200964
 20
-131.5151421112184
 10
90.00742592150857
 20
-131.4937825192099
 10
90.00742592150857
 20
-131.2567599498247
 10
90.00742592150857
 20
-131.0793375323343
 10
89.87651229306907
 20
-131.0242160045703
 10
89.76626923754108
 20
-131.0242160045703
 10
89.50203041382241
 20
-131.0242160045703
 10
89.49341767510928
 20
-131.2567599498247
 10
89.48928356052699
 20
-131.3287624454664
 10
89.48928356052699
 20
-131.3287624454664
 10
89.28602292689725
 20
-131.3287624454664
 10
89.28602292689725
 20
-131.3287624454664
 10
89.29463566561037
 20
-131.2040499889004
 10
89.32219642949237
 20
-130.8275010523626
 10
89.7790160908365
 20
-130.8275010523626
 10
90.00329180692627
 20
-130.8275010523626
 10
90.24444849089376
 20
-130.9542805662198
 10
90.24444849089376
 20
-131.2505587779513
 10
90.24444849089376
 20
-131.4365939341548
 10
90.14936385550085
 20
-131.5192762258008
 10
90.04980059597713
 20
-131.5805989254382
 10
90.11112329561459
 20
-131.6081596893202
 10
90.29302433723578
 20
-131.6884304141265
 10
90.29302433723578
 20
-131.9657606006891
 10
90.29302433723578
 20
-132.3040689773406
 10
90.04566648139483
 20
-132.4711561083753
 10
89.76868080438075
 20
-132.4711561083753
 97
        0
 97
        0
 75
     2
 76
     1
 98
        0
  0
ENDBLK
  5
133
330
130
100
AcDbEntity
  8
0
100
AcDbBlockEnd
  0
BLOCK
  5
13A
330
138
100
AcDbEntity
  8
0
100
AcDbBlockBegin
  2
block 10
 70
     0
 10
0.0
 20
0.0
 30
0.0
  3
block 10
  1

  0
SPLINE
  5
13C
330
138
100
AcDbEntity
  8
_U+30EC_U+30A4_U+30E4_U+30FC 1
370
     0
100
AcDbSpline
210
0.0
220
0.0
230
1.0
 70
    11
 71
     3
 72
    44
 73
    40
 74
     0
 42
0.0000000001
 43
0.0000000001
 12
1.0
 22
0.0
 32
0.0
 13
1.0
 23
0.0
 33
0.0
 40
0.0
 40
0.0
 40
0.0
 40
0.0
 40
1.0
 40
1.0
 40
1.0
 40
2.0
 40
2.0
 40
2.0
 40
3.0
 40
3.0
 40
3.0
 40
4.0
 40
4.0
 40
4.0
 40
5.0
 40
5.0
 40
5.0
 40
6.0
 40
6.0
 40
6.0
 40
7.0
 40
7.0
 40
7.0
 40
8.0
 40
8.0
 40
8.0
 40
9.0
 40
9.0
 40
9.0
 40
10.0
 40
10.0
 40
10.0
 40
11.0
 40
11.0
 40
11.0
 40
12.0
 40
12.0
 40
12.0
 40
13.0
 40
13.0
 40
13.0
 40
13.0
 10
91.79319116628781
 20
-164.486428452802
 30
0.0
 10
91.57546113162003
 20
-164.645247354672
 30
0.0
 10
91.48244355351828
 20
-164.7193169076049
 30
0.0
 10
91.43352319762774
 20
-164.8629773893398
 30
0.0
 10
91.43352319762774
 20
-164.8629773893398
 30
0.0
 10
92.2121147772942
 20
-164.8629773893398
 30
0.0
 10
92.2121147772942
 20
-164.8629773893398
 30
0.0
 10
92.2121147772942
 20
-164.8629773893398
 30
0.0
 10
92.2121147772942
 20
-165.0683050802607
 30
0.0
 10
92.2121147772942
 20
-165.0683050802607
 30
0.0
 10
92.2121147772942
 20
-165.0683050802607
 30
0.0
 10
91.18392602972138
 20
-165.0683050802607
 30
0.0
 10
91.18392602972138
 20
-165.0683050802607
 30
0.0
 10
91.21562090818568
 20
-164.7107041688918
 30
0.0
 10
91.28107772240543
 20
-164.6325005013766
 30
0.0
 10
91.66641165243063
 20
-164.334155232354
 30
0.0
 10
91.92238224698468
 20
-164.1353732228551
 30
0.0
 10
91.98783906120444
 20
-164.0675048417956
 30
0.0
 10
91.98783906120444
 20
-163.9300455319342
 30
0.0
 10
91.98783906120444
 20
-163.8115342472416
 30
0.0
 10
91.91583656556271
 20
-163.6806206188021
 30
0.0
 10
91.71912161335494
 20
-163.6806206188021
 30
0.0
 10
91.45901690421859
 20
-163.6806206188021
 30
0.0
 10
91.45074867505399
 20
-163.9110975067653
 30
0.0
 10
91.44627005092316
 20
-164.0275417341667
 30
0.0
 10
91.44627005092316
 20
-164.0275417341667
 30
0.0
 10
91.22182208005913
 20
-164.0275417341667
 30
0.0
 10
91.22182208005913
 20
-164.0275417341667
 30
0.0
 10
91.23043481877225
 20
-163.900417710761
 30
0.0
 10
91.24111461477654
 20
-163.7884521074904
 30
0.0
 10
91.32138533958285
 20
-163.6699408227978
 30
0.0
 10
91.43145614033658
 20
-163.5090548636366
 30
0.0
 10
91.6178358060886
 20
-163.4752929278812
 30
0.0
 10
91.73393552394153
 20
-163.4752929278812
 30
0.0
 10
92.01126571050413
 20
-163.4752929278812
 30
0.0
 10
92.21866045871617
 20
-163.6592610267935
 30
0.0
 10
92.21866045871617
 20
-163.9321125892253
 30
0.0
 10
92.21866045871617
 20
-164.1608669294459
 30
0.0
 10
92.10221623131473
 20
-164.2600856794211
 30
0.0
 10
91.79319116628781
 20
-164.486428452802
 30
0.0
  0
HATCH
  5
13D
330
138
100
AcDbEntity
  8
_U+30EC_U+30A4_U+30E4_U+30FC 1
 62
   179
420
  2234388
100
AcDbHatch
 10
0.0
 20
0.0
 30
0.0
210
0.0
220
0.0
230
1.0
  2
SOLID
 70
     1
 71
     0
 91
        1
 92
        1
 93
        1
 72
     4
 94
        3
 73
     0
 74
     1
 95
       44
 96
       40
 40
0.0
 40
0.0
 40
0.0
 40
0.0
 40
1.0
 40
1.0
 40
1.0
 40
2.0
 40
2.0
 40
2.0
 40
3.0
 40
3.0
 40
3.0
 40
4.0
 40
4.0
 40
4.0
 40
5.0
 40
5.0
 40
5.0
 40
6.0
 40
6.0
 40
6.0
 40
7.0
 40
7.0
 40
7.0
 40
8.0
 40
8.0
 40
8.0
 40
9.0
 40
9.0
 40
9.0
 40
10.0
 40
10.0
 40
10.0
 40
11.0
 40
11.0
 40
11.0
 40
12.0
 40
12.0
 40
12.0
 40
13.0
 40
13.0
 40
13.0
 40
13.0
 10
91.79319116628781
 20
-164.486428452802
 10
91.57546113162003
 20
-164.645247354672
 10
91.48244355351828
 20
-164.7193169076049
 10
91.43352319762774
 20
-164.8629773893398
 10
91.43352319762774
 20
-164.8629773893398
 10
92.2121147772942
 20
-164.8629773893398
 10
92.2121147772942
 20
-164.8629773893398
 10
92.2121147772942
 20
-164.8629773893398
 10
92.2121147772942
 20
-165.0683050802607
 10
92.2121147772942
 20
-165.0683050802607
 10
92.2121147772942
 20
-165.0683050802607
 10
91.18392602972138
 20
-165.0683050802607
 10
91.18392602972138
 20
-165.0683050802607
 10
91.21562090818568
 20
-164.7107041688918
 10
91.28107772240543
 20
-164.6325005013766
 10
91.66641165243063
 20
-164.334155232354
 10
91.92238224698468
 20
-164.1353732228551
 10
91.98783906120444
 20
-164.0675048417956
 10
91.98783906120444
 20
-163.9300455319342
 10
91.98783906120444
 20
-163.8115342472416
 10
91.91583656556271
 20
-163.6806206188021
 10
91.71912161335494
 20
-163.6806206188021
 10
91.45901690421859
 20
-163.6806206188021
 10
91.45074867505399
 20
-163.9110975067653
 10
91.44627005092316
 20
-164.0275417341667
 10
91.44627005092316
 20
-164.0275417341667
 10
91.22182208005913
 20
-164.0275417341667
 10
91.22182208005913
 20
-164.0275417341667
 10
91.23043481877225
 20
-163.900417710761
 10
91.24111461477654
 20
-163.7884521074904
 10
91.32138533958285
 20
-163.6699408227978
 10
91.43145614033658
 20
-163.5090548636366
 10
91.6178358060886
 20
-163.4752929278812
 10
91.73393552394153
 20
-163.4752929278812
 10
92.01126571050413
 20
-163.4752929278812
 10
92.21866045871617
 20
-163.6592610267935
 10
92.21866045871617
 20
-163.9321125892253
 10
92.21866045871617
 20
-164.1608669294459
 10
92.10221623131473
 20
-164.2600856794211
 10
91.79319116628781
 20
-164.486428452802
 97
        0
 97
        0
 75
     2
 76
     1
 98
        0
  0
SPLINE
  5
13E
330
138
100
AcDbEntity
  8
_U+30EC_U+30A4_U+30E4_U+30FC 1
370
     0
100
AcDbSpline
210
0.0
220
0.0
230
1.0
 70
    11
 71
     3
 72
    53
 73
    49
 74
     0
 42
0.0000000001
 43
0.0000000001
 12
1.0
 22
0.0
 32
0.0
 13
1.0
 23
0.0
 33
0.0
 40
0.0
 40
0.0
 40
0.0
 40
0.0
 40
1.0
 40
1.0
 40
1.0
 40
2.0
 40
2.0
 40
2.0
 40
3.0
 40
3.0
 40
3.0
 40
4.0
 40
4.0
 40
4.0
 40
5.0
 40
5.0
 40
5.0
 40
6.0
 40
6.0
 40
6.0
 40
7.0
 40
7.0
 40
7.0
 40
8.0
 40
8.0
 40
8.0
 40
9.0
 40
9.0
 40
9.0
 40
10.0
 40
10.0
 40
10.0
 40
11.0
 40
11.0
 40
11.0
 40
12.0
 40
12.0
 40
12.0
 40
13.0
 40
13.0
 40
13.0
 40
14.0
 40
14.0
 40
14.0
 40
15.0
 40
15.0
 40
15.0
 40
16.0
 40
16.0
 40
16.0
 40
16.0
 10
92.85807018077854
 20
-165.1189479838939
 30
0.0
 10
92.77986651326337
 20
-165.1189479838939
 30
0.0
 10
92.6782361964485
 20
-165.1020670160162
 30
0.0
 10
92.57660587963363
 20
-165.0386772590876
 30
0.0
 10
92.40331757672557
 20
-164.9287787131081
 30
0.0
 10
92.38195798471702
 20
-164.7975205751201
 30
0.0
 10
92.36300995954814
 20
-164.6896890864317
 30
0.0
 10
92.36300995954814
 20
-164.6896890864317
 30
0.0
 10
92.58521861834676
 20
-164.6896890864317
 30
0.0
 10
92.58521861834676
 20
-164.6896890864317
 30
0.0
 10
92.63999563656223
 20
-164.8884710959307
 30
0.0
 10
92.76711965996795
 20
-164.9180989171038
 30
0.0
 10
92.8601372380697
 20
-164.9180989171038
 30
0.0
 10
92.99966360522231
 20
-164.9180989171038
 30
0.0
 10
93.15193682567035
 20
-164.8185356575801
 30
0.0
 10
93.15193682567035
 20
-164.5859917123257
 30
0.0
 10
93.15193682567035
 20
-164.3300211177717
 30
0.0
 10
92.97210284134032
 20
-164.2600856794211
 30
0.0
 10
92.85152449935657
 20
-164.2600856794211
 30
0.0
 10
92.81982962089226
 20
-164.2600856794211
 30
0.0
 10
92.6782361964485
 20
-164.2600856794211
 30
0.0
 10
92.58935273292906
 20
-164.389276760118
 30
0.0
 10
92.58935273292906
 20
-164.389276760118
 30
0.0
 10
92.41365286318131
 20
-164.3703287349491
 30
0.0
 10
92.41365286318131
 20
-164.3703287349491
 30
0.0
 10
92.41365286318131
 20
-164.3703287349491
 30
0.0
 10
92.53423120516506
 20
-163.5238687742232
 30
0.0
 10
92.53423120516506
 20
-163.5238687742232
 30
0.0
 10
92.53423120516506
 20
-163.5238687742232
 30
0.0
 10
93.31282278483152
 20
-163.5238687742232
 30
0.0
 10
93.31282278483152
 20
-163.5238687742232
 30
0.0
 10
93.31282278483152
 20
-163.5238687742232
 30
0.0
 10
93.31282278483152
 20
-163.7185166691398
 30
0.0
 10
93.31282278483152
 20
-163.7185166691398
 30
0.0
 10
93.31282278483152
 20
-163.7185166691398
 30
0.0
 10
92.69718422161738
 20
-163.7185166691398
 30
0.0
 10
92.69718422161738
 20
-163.7185166691398
 30
0.0
 10
92.69718422161738
 20
-163.7185166691398
 30
0.0
 10
92.63172740739763
 20
-164.1415743947285
 30
0.0
 10
92.63172740739763
 20
-164.1415743947285
 30
0.0
 10
92.69305010703508
 20
-164.1078124589731
 30
0.0
 10
92.77538788913255
 20
-164.0675048417956
 30
0.0
 10
92.89389917382515
 20
-164.0675048417956
 30
0.0
 10
93.14780271108805
 20
-164.0675048417956
 30
0.0
 10
93.38482528047324
 20
-164.2538845075476
 30
0.0
 10
93.38482528047324
 20
-164.5670436871569
 30
0.0
 10
93.38482528047324
 20
-164.8843369813484
 30
0.0
 10
93.16054956438347
 20
-165.1189479838939
 30
0.0
 10
92.85807018077854
 20
-165.1189479838939
 30
0.0
  0
HATCH
  5
13F
330
138
100
AcDbEntity
  8
_U+30EC_U+30A4_U+30E4_U+30FC 1
 62
   179
420
  2234388
100
AcDbHatch
 10
0.0
 20
0.0
 30
0.0
210
0.0
220
0.0
230
1.0
  2
SOLID
 70
     1
 71
     0
 91
        1
 92
        1
 93
        1
 72
     4
 94
        3
 73
     0
 74
     1
 95
       53
 96
       49
 40
0.0
 40
0.0
 40
0.0
 40
0.0
 40
1.0
 40
1.0
 40
1.0
 40
2.0
 40
2.0
 40
2.0
 40
3.0
 40
3.0
 40
3.0
 40
4.0
 40
4.0
 40
4.0
 40
5.0
 40
5.0
 40
5.0
 40
6.0
 40
6.0
 40
6.0
 40
7.0
 40
7.0
 40
7.0
 40
8.0
 40
8.0
 40
8.0
 40
9.0
 40
9.0
 40
9.0
 40
10.0
 40
10.0
 40
10.0
 40
11.0
 40
11.0
 40
11.0
 40
12.0
 40
12.0
 40
12.0
 40
13.0
 40
13.0
 40
13.0
 40
14.0
 40
14.0
 40
14.0
 40
15.0
 40
15.0
 40
15.0
 40
16.0
 40
16.0
 40
16.0
 40
16.0
 10
92.85807018077854
 20
-165.1189479838939
 10
92.77986651326337
 20
-165.1189479838939
 10
92.6782361964485
 20
-165.1020670160162
 10
92.57660587963363
 20
-165.0386772590876
 10
92.40331757672557
 20
-164.9287787131081
 10
92.38195798471702
 20
-164.7975205751201
 10
92.36300995954814
 20
-164.6896890864317
 10
92.36300995954814
 20
-164.6896890864317
 10
92.58521861834676
 20
-164.6896890864317
 10
92.58521861834676
 20
-164.6896890864317
 10
92.63999563656223
 20
-164.8884710959307
 10
92.76711965996795
 20
-164.9180989171038
 10
92.8601372380697
 20
-164.9180989171038
 10
92.99966360522231
 20
-164.9180989171038
 10
93.15193682567035
 20
-164.8185356575801
 10
93.15193682567035
 20
-164.5859917123257
 10
93.15193682567035
 20
-164.3300211177717
 10
92.97210284134032
 20
-164.2600856794211
 10
92.85152449935657
 20
-164.2600856794211
 10
92.81982962089226
 20
-164.2600856794211
 10
92.6782361964485
 20
-164.2600856794211
 10
92.58935273292906
 20
-164.389276760118
 10
92.58935273292906
 20
-164.389276760118
 10
92.41365286318131
 20
-164.3703287349491
 10
92.41365286318131
 20
-164.3703287349491
 10
92.41365286318131
 20
-164.3703287349491
 10
92.53423120516506
 20
-163.5238687742232
 10
92.53423120516506
 20
-163.5238687742232
 10
92.53423120516506
 20
-163.5238687742232
 10
93.31282278483152
 20
-163.5238687742232
 10
93.31282278483152
 20
-163.5238687742232
 10
93.31282278483152
 20
-163.5238687742232
 10
93.31282278483152
 20
-163.7185166691398
 10
93.31282278483152
 20
-163.7185166691398
 10
93.31282278483152
 20
-163.7185166691398
 10
92.69718422161738
 20
-163.7185166691398
 10
92.69718422161738
 20
-163.7185166691398
 10
92.69718422161738
 20
-163.7185166691398
 10
92.63172740739763
 20
-164.1415743947285
 10
92.63172740739763
 20
-164.1415743947285
 10
92.69305010703508
 20
-164.1078124589731
 10
92.77538788913255
 20
-164.0675048417956
 10
92.89389917382515
 20
-164.0675048417956
 10
93.14780271108805
 20
-164.0675048417956
 10
93.38482528047324
 20
-164.2538845075476
 10
93.38482528047324
 20
-164.5670436871569
 10
93.38482528047324
 20
-164.8843369813484
 10
93.16054956438347
 20
-165.1189479838939
 10
92.85807018077854
 20
-165.1189479838939
 97
        0
 97
        0
 75
     2
 76
     1
 98
        0
  0
ENDBLK
  5
13B
330
138
100
AcDbEntity
  8
0
100
AcDbBlockEnd
  0
ENDSEC
  0
SECTION
  2
ENTITIES
  0
INSERT
  5
42
330
1F
100
AcDbEntity
  8
_U+30EC_U+30A4_U+30E4_U+30FC 1
100
AcDbBlockReference
  2
block 2
 10
0.0
 20
0.0
 30
0.0
  0
ENDSEC
  0
SECTION
  2
OBJECTS
  0
DICTIONARY
  5
C
330
0
100
AcDbDictionary
281
     1
  3
ACAD_GROUP
350
D
  3
ACAD_LAYOUT
350
1A
  3
ACAD_MATERIAL
350
3B
  3
ACAD_MLEADERSTYLE
350
141
  3
ACAD_MLINESTYLE
350
17
  3
ACAD_PLOTSETTINGS
350
19
  3
ACAD_PLOTSTYLENAME
350
E
  3
ACAD_TABLESTYLE
350
140
  3
ACAD_VISUALSTYLE
350
2A
  0
SUN
  5
3F
330
29
100
AcDbSun
 90
        1
290
     0
 63
     7
421
 16777215
 40
1.0
291
     1
 91
  2455826
 92
 54000000
292
     0
 70
     2
 71
   256
280
     1
  0
DICTIONARY
  5
D
102
{ACAD_REACTORS
330
C
102
}
330
C
100
AcDbDictionary
281
     1
  0
DICTIONARY
  5
1A
102
{ACAD_REACTORS
330
C
102
}
330
C
100
AcDbDictionary
281
     1
  3
Layout1
350
1E
  3
Layout2
350
26
  3
Model
350
22
  0
DICTIONARY
  5
3B
102
{ACAD_REACTORS
330
C
102
}
330
C
100
AcDbDictionary
281
     1
  3
ByBlock
350
3D
  3
ByLayer
350
3C
  3
Global
350
3E
  0
DICTIONARY
  5
141
102
{ACAD_REACTORS
330
C
102
}
330
C
100
AcDbDictionary
281
     1
  0
DICTIONARY
  5
17
102
{ACAD_REACTORS
330
C
102
}
330
C
100
AcDbDictionary
281
     1
  3
Standard
350
18
  0
DICTIONARY
  5
19
102
{ACAD_REACTORS
330
C
102
}
330
C
100
AcDbDictionary
281
     1
  0
ACDBDICTIONARYWDFLT
  5
E
102
{ACAD_REACTORS
330
C
102
}
330
C
100
AcDbDictionary
281
     1
  3
Normal
350
F
100
AcDbDictionaryWithDefault
340
F
  0
DICTIONARY
  5
140
102
{ACAD_REACTORS
330
C
102
}
330
C
100
AcDbDictionary
281
     1
  0
DICTIONARY
  5
2A
102
{ACAD_REACTORS
330
C
102
}
330
C
100
AcDbDictionary
281
     1
  3
2dWireframe
350
2F
  3
3D Hidden
350
31
  3
3dWireframe
350
30
  3
Basic
350
32
  3
Brighten
350
36
  3
ColorChange
350
3A
  3
Conceptual
350
34
  3
Dim
350
35
  3
Facepattern
350
39
  3
Flat
350
2B
  3
FlatWithEdges
350
2C
  3
Gouraud
350
2D
  3
GouraudWithEdges
350
2E
  3
Linepattern
350
38
  3
Realistic
350
33
  3
Thicken
350
37
  0
LAYOUT
  5
1E
102
{ACAD_REACTORS
330
1A
102
}
330
1A
100
AcDbPlotSettings
  1

  2
none_device
  4

  6

 40
0.0
 41
0.0
 42
0.0
 43
0.0
 44
0.0
 45
0.0
 46
0.0
 47
0.0
 48
0.0
 49
0.0
140
0.0
141
0.0
142
1.0
143
1.0
 70
   688
 72
     0
 73
     0
 74
     5
  7

 75
    16
 76
     0
 77
     2
 78
   300
147
1.0
148
0.0
149
0.0
100
AcDbLayout
  1
Layout1
 70
     1
 71
     1
 10
0.0
 20
0.0
 11
12.0
 21
9.0
 12
0.0
 22
0.0
 32
0.0
 14
1.000000000000000E+20
 24
1.000000000000000E+20
 34
1.000000000000000E+20
 15
-1.000000000000000E+20
 25
-1.000000000000000E+20
 35
-1.000000000000000E+20
146
0.0
 13
0.0
 23
0.0
 33
0.0
 16
1.0
 26
0.0
 36
0.0
 17
0.0
 27
1.0
 37
0.0
 76
     0
330
1B
  0
LAYOUT
  5
26
102
{ACAD_REACTORS
330
1A
102
}
330
1A
100
AcDbPlotSettings
  1

  2
none_device
  4

  6

 40
0.0
 41
0.0
 42
0.0
 43
0.0
 44
0.0
 45
0.0
 46
0.0
 47
0.0
 48
0.0
 49
0.0
140
0.0
141
0.0
142
1.0
143
1.0
 70
   688
 72
     0
 73
     0
 74
     5
  7

 75
    16
 76
     0
 77
     2
 78
   300
147
1.0
148
0.0
149
0.0
100
AcDbLayout
  1
Layout2
 70
     1
 71
     2
 10
0.0
 20
0.0
 11
0.0
 21
0.0
 12
0.0
 22
0.0
 32
0.0
 14
0.0
 24
0.0
 34
0.0
 15
0.0
 25
0.0
 35
0.0
146
0.0
 13
0.0
 23
0.0
 33
0.0
 16
1.0
 26
0.0
 36
0.0
 17
0.0
 27
1.0
 37
0.0
 76
     0
330
23
  0
LAYOUT
  5
22
102
{ACAD_REACTORS
330
1A
102
}
330
1A
100
AcDbPlotSettings
  1

  2
none_device
  4

  6

 40
0.0
 41
0.0
 42
0.0
 43
0.0
 44
0.0
 45
0.0
 46
0.0
 47
0.0
 48
0.0
 49
0.0
140
0.0
141
0.0
142
1.0
143
1.0
 70
  1712
 72
     0
 73
     0
 74
     0
  7

 75
     0
 76
     0
 77
     2
 78
   300
147
1.0
148
0.0
149
0.0
100
AcDbLayout
  1
Model
 70
     1
 71
     0
 10
0.0
 20
0.0
 11
12.0
 21
9.0
 12
0.0
 22
0.0
 32
0.0
 14
1.000000000000000E+20
 24
1.000000000000000E+20
 34
1.000000000000000E+20
 15
-1.000000000000000E+20
 25
-1.000000000000000E+20
 35
-1.000000000000000E+20
146
0.0
 13
0.0
 23
0.0
 33
0.0
 16
1.0
 26
0.0
 36
0.0
 17
0.0
 27
1.0
 37
0.0
 76
     0
330
1F
331
29
  0
MATERIAL
  5
3D
102
{ACAD_REACTORS
330
3B
102
}
330
3B
100
AcDbMaterial
  1
ByBlock
 72
     1
 94
      127
  0
MATERIAL
  5
3C
102
{ACAD_REACTORS
330
3B
102
}
330
3B
100
AcDbMaterial
  1
ByLayer
 72
     1
 94
      127
  0
MATERIAL
  5
3E
102
{ACAD_REACTORS
330
3B
102
}
330
3B
100
AcDbMaterial
  1
Global
 72
     1
 94
      127
  0
MLINESTYLE
  5
18
102
{ACAD_REACTORS
330
17
102
}
330
17
100
AcDbMlineStyle
  2
Standard
 70
     0
  3

 62
   256
 51
90.0
 52
90.0
 71
     2
 49
0.5
 62
   256
  6
BYLAYER
 49
-0.5
 62
   256
  6
BYLAYER
  0
ACDBPLACEHOLDER
  5
F
102
{ACAD_REACTORS
330
E
102
}
330
E
  0
VISUALSTYLE
  5
2F
102
{ACAD_REACTORS
330
2A
102
}
330
2A
100
AcDbVisualStyle
  2
2dWireframe
 70
     4
177
     2
291
     0
 71
     0
176
     1
 72
     2
176
     1
 73
     0
176
     1
 90
        0
176
     1
 40
-0.6
176
     1
 41
-30.0
176
     1
 62
     5
 63
     7
421
 16777215
176
     1
 74
     1
176
     1
 91
        4
176
     1
 64
     7
176
     1
 65
   257
176
     1
 75
     1
176
     1
175
     1
176
     1
 42
1.0
176
     1
 92
        0
176
     1
 66
   257
176
     1
 43
1.0
176
     1
 76
     1
176
     1
 77
     6
176
     1
 78
     2
176
     1
 67
     7
176
     1
 79
     5
176
     1
170
     0
176
     1
171
     0
176
     1
290
     0
176
     1
 93
        1
176
     1
 44
0.0
176
     1
173
     0
176
     1
  0
VISUALSTYLE
  5
31
102
{ACAD_REACTORS
330
2A
102
}
330
2A
100
AcDbVisualStyle
  2
3D Hidden
 70
     6
177
     2
291
     0
 71
     1
176
     1
 72
     2
176
     1
 73
     2
176
     1
 90
        0
176
     1
 40
-0.6
176
     1
 41
-30.0
176
     1
 62
     5
 63
     7
421
 16777215
176
     1
 74
     2
176
     1
 91
        2
176
     1
 64
     7
176
     1
 65
   257
176
     1
 75
     2
176
     1
175
     1
176
     1
 42
40.0
176
     1
 92
        0
176
     1
 66
   257
176
     1
 43
1.0
176
     1
 76
     1
176
     1
 77
     6
176
     1
 78
     2
176
     1
 67
     7
176
     1
 79
     3
176
     1
170
     0
176
     1
171
     0
176
     1
290
     0
176
     1
 93
        1
176
     1
 44
0.0
176
     1
173
     0
176
     1
  0
VISUALSTYLE
  5
30
102
{ACAD_REACTORS
330
2A
102
}
330
2A
100
AcDbVisualStyle
  2
3dWireframe
 70
     5
177
     2
291
     0
 71
     0
176
     1
 72
     2
176
     1
 73
     0
176
     1
 90
        0
176
     1
 40
-0.6
176
     1
 41
-30.0
176
     1
 62
     5
 63
     7
421
 16777215
176
     1
 74
     1
176
     1
 91
        4
176
     1
 64
     7
176
     1
 65
   257
176
     1
 75
     1
176
     1
175
     1
176
     1
 42
1.0
176
     1
 92
        0
176
     1
 66
   257
176
     1
 43
1.0
176
     1
 76
     1
176
     1
 77
     6
176
     1
 78
     2
176
     1
 67
     7
176
     1
 79
     5
176
     1
170
     0
176
     1
171
     0
176
     1
290
     0
176
     1
 93
        1
176
     1
 44
0.0
176
     1
173
     0
176
     1
  0
VISUALSTYLE
  5
32
102
{ACAD_REACTORS
330
2A
102
}
330
2A
100
AcDbVisualStyle
  2
Basic
 70
     7
177
     2
291
     1
 71
     1
176
     1
 72
     0
176
     1
 73
     1
176
     1
 90
        0
176
     1
 40
-0.6
176
     1
 41
-30.0
176
     1
 62
     5
 63
     7
421
 16777215
176
     1
 74
     0
176
     1
 91
        4
176
     1
 64
     7
176
     1
 65
   257
176
     1
 75
     1
176
     1
175
     1
176
     1
 42
1.0
176
     1
 92
        8
176
     1
 66
     7
176
     1
 43
1.0
176
     1
 76
     1
176
     1
 77
     6
176
     1
 78
     2
176
     1
 67
     7
176
     1
 79
     5
176
     1
170
     0
176
     1
171
     0
176
     1
290
     0
176
     1
 93
        1
176
     1
 44
0.0
176
     1
173
     0
176
     1
  0
VISUALSTYLE
  5
36
102
{ACAD_REACTORS
330
2A
102
}
330
2A
100
AcDbVisualStyle
  2
Brighten
 70
    12
177
     2
291
     1
 71
     2
176
     1
 72
     2
176
     1
 73
     0
176
     1
 90
        0
176
     1
 40
-0.6
176
     1
 41
-30.0
176
     1
 62
     5
 63
     7
421
 16777215
176
     1
 74
     1
176
     1
 91
        4
176
     1
 64
     7
176
     1
 65
   257
176
     1
 75
     1
176
     1
175
     1
176
     1
 42
1.0
176
     1
 92
        8
176
     1
 66
     7
176
     1
 43
1.0
176
     1
 76
     1
176
     1
 77
     6
176
     1
 78
     2
176
     1
 67
     7
176
     1
 79
     5
176
     1
170
     0
176
     1
171
     0
176
     1
290
     0
176
     1
 93
        1
176
     1
 44
50.0
176
     1
173
     0
176
     1
  0
VISUALSTYLE
  5
3A
102
{ACAD_REACTORS
330
2A
102
}
330
2A
100
AcDbVisualStyle
  2
ColorChange
 70
    16
177
     2
291
     1
 71
     2
176
     1
 72
     2
176
     1
 73
     3
176
     1
 90
        0
176
     1
 40
-0.6
176
     1
 41
-30.0
176
     1
 62
     5
 63
     8
421
  8421504
176
     1
 74
     1
176
     1
 91
        4
176
     1
 64
     7
176
     1
 65
   257
176
     1
 75
     1
176
     1
175
     1
176
     1
 42
1.0
176
     1
 92
        8
176
     1
 66
     8
424
  8421504
176
     1
 43
1.0
176
     1
 76
     1
176
     1
 77
     6
176
     1
 78
     2
176
     1
 67
     7
176
     1
 79
     5
176
     1
170
     0
176
     1
171
     0
176
     1
290
     0
176
     1
 93
        1
176
     1
 44
0.0
176
     1
173
     0
176
     1
  0
VISUALSTYLE
  5
34
102
{ACAD_REACTORS
330
2A
102
}
330
2A
100
AcDbVisualStyle
  2
Conceptual
 70
     9
177
     2
291
     0
 71
     3
176
     1
 72
     2
176
     1
 73
     0
176
     1
 90
        0
176
     1
 40
-0.6
176
     1
 41
-30.0
176
     1
 62
     5
 63
     7
421
 16777215
176
     1
 74
     2
176
     1
 91
        2
176
     1
 64
     7
176
     1
 65
   257
176
     1
 75
     1
176
     1
175
     1
176
     1
 42
40.0
176
     1
 92
        8
176
     1
 66
     7
176
     1
 43
1.0
176
     1
 76
     1
176
     1
 77
     6
176
     1
 78
     2
176
     1
 67
     7
176
     1
 79
     3
176
     1
170
     0
176
     1
171
     0
176
     1
290
     0
176
     1
 93
        1
176
     1
 44
0.0
176
     1
173
     0
176
     1
  0
VISUALSTYLE
  5
35
102
{ACAD_REACTORS
330
2A
102
}
330
2A
100
AcDbVisualStyle
  2
Dim
 70
    11
177
     2
291
     1
 71
     2
176
     1
 72
     2
176
     1
 73
     0
176
     1
 90
        0
176
     1
 40
-0.6
176
     1
 41
-30.0
176
     1
 62
     5
 63
     7
421
 16777215
176
     1
 74
     1
176
     1
 91
        4
176
     1
 64
     7
176
     1
 65
   257
176
     1
 75
     1
176
     1
175
     1
176
     1
 42
1.0
176
     1
 92
        8
176
     1
 66
     7
176
     1
 43
1.0
176
     1
 76
     1
176
     1
 77
     6
176
     1
 78
     2
176
     1
 67
     7
176
     1
 79
     5
176
     1
170
     0
176
     1
171
     0
176
     1
290
     0
176
     1
 93
        1
176
     1
 44
-50.0
176
     1
173
     0
176
     1
  0
VISUALSTYLE
  5
39
102
{ACAD_REACTORS
330
2A
102
}
330
2A
100
AcDbVisualStyle
  2
Facepattern
 70
    15
177
     2
291
     1
 71
     2
176
     1
 72
     2
176
     1
 73
     0
176
     1
 90
        0
176
     1
 40
-0.6
176
     1
 41
-30.0
176
     1
 62
     5
 63
     7
421
 16777215
176
     1
 74
     1
176
     1
 91
        4
176
     1
 64
     7
176
     1
 65
   257
176
     1
 75
     1
176
     1
175
     1
176
     1
 42
1.0
176
     1
 92
        8
176
     1
 66
     7
176
     1
 43
1.0
176
     1
 76
     1
176
     1
 77
     6
176
     1
 78
     2
176
     1
 67
     7
176
     1
 79
     5
176
     1
170
     0
176
     1
171
     0
176
     1
290
     0
176
     1
 93
        1
176
     1
 44
0.0
176
     1
173
     0
176
     1
  0
VISUALSTYLE
  5
2B
102
{ACAD_REACTORS
330
2A
102
}
330
2A
100
AcDbVisualStyle
  2
Flat
 70
     0
177
     2
291
     1
 71
     2
176
     1
 72
     1
176
     1
 73
     1
176
     1
 90
        2
176
     1
 40
-0.6
176
     1
 41
30.0
176
     1
 62
     5
 63
     7
421
 16777215
176
     1
 74
     0
176
     1
 91
        4
176
     1
 64
     7
176
     1
 65
   257
176
     1
 75
     1
176
     1
175
     1
176
     1
 42
1.0
176
     1
 92
        8
176
     1
 66
     7
176
     1
 43
1.0
176
     1
 76
     1
176
     1
 77
     6
176
     1
 78
     2
176
     1
 67
     7
176
     1
 79
     5
176
     1
170
     0
176
     1
171
     0
176
     1
290
     0
176
     1
 93
       13
176
     1
 44
0.0
176
     1
173
     0
176
     1
  0
VISUALSTYLE
  5
2C
102
{ACAD_REACTORS
330
2A
102
}
330
2A
100
AcDbVisualStyle
  2
FlatWithEdges
 70
     1
177
     2
291
     1
 71
     2
176
     1
 72
     1
176
     1
 73
     1
176
     1
 90
        2
176
     1
 40
-0.6
176
     1
 41
30.0
176
     1
 62
     5
 63
     7
421
 16777215
176
     1
 74
     1
176
     1
 91
        4
176
     1
 64
     7
176
     1
 65
   257
176
     1
 75
     1
176
     1
175
     1
176
     1
 42
1.0
176
     1
 92
        0
176
     1
 66
   257
176
     1
 43
1.0
176
     1
 76
     1
176
     1
 77
     6
176
     1
 78
     2
176
     1
 67
     7
176
     1
 79
     5
176
     1
170
     0
176
     1
171
     0
176
     1
290
     0
176
     1
 93
       13
176
     1
 44
0.0
176
     1
173
     0
176
     1
  0
VISUALSTYLE
  5
2D
102
{ACAD_REACTORS
330
2A
102
}
330
2A
100
AcDbVisualStyle
  2
Gouraud
 70
     2
177
     2
291
     1
 71
     2
176
     1
 72
     2
176
     1
 73
     1
176
     1
 90
        2
176
     1
 40
-0.6
176
     1
 41
30.0
176
     1
 62
     5
 63
     7
421
 16777215
176
     1
 74
     0
176
     1
 91
        4
176
     1
 64
     7
176
     1
 65
   257
176
     1
 75
     1
176
     1
175
     1
176
     1
 42
1.0
176
     1
 92
        0
176
     1
 66
     7
176
     1
 43
1.0
176
     1
 76
     1
176
     1
 77
     6
176
     1
 78
     2
176
     1
 67
     7
176
     1
 79
     5
176
     1
170
     0
176
     1
171
     0
176
     1
290
     0
176
     1
 93
       13
176
     1
 44
0.0
176
     1
173
     0
176
     1
  0
VISUALSTYLE
  5
2E
102
{ACAD_REACTORS
330
2A
102
}
330
2A
100
AcDbVisualStyle
  2
GouraudWithEdges
 70
     3
177
     2
291
     1
 71
     2
176
     1
 72
     2
176
     1
 73
     1
176
     1
 90
        2
176
     1
 40
-0.6
176
     1
 41
30.0
176
     1
 62
     5
 63
     7
421
 16777215
176
     1
 74
     1
176
     1
 91
        4
176
     1
 64
     7
176
     1
 65
   257
176
     1
 75
     1
176
     1
175
     1
176
     1
 42
1.0
176
     1
 92
        0
176
     1
 66
   257
176
     1
 43
1.0
176
     1
 76
     1
176
     1
 77
     6
176
     1
 78
     2
176
     1
 67
     7
176
     1
 79
     5
176
     1
170
     0
176
     1
171
     0
176
     1
290
     0
176
     1
 93
       13
176
     1
 44
0.0
176
     1
173
     0
176
     1
  0
VISUALSTYLE
  5
38
102
{ACAD_REACTORS
330
2A
102
}
330
2A
100
AcDbVisualStyle
  2
Linepattern
 70
    14
177
     2
291
     1
 71
     2
176
     1
 72
     2
176
     1
 73
     0
176
     1
 90
        0
176
     1
 40
-0.6
176
     1
 41
-30.0
176
     1
 62
     5
 63
     7
421
 16777215
176
     1
 74
     1
176
     1
 91
        4
176
     1
 64
     7
176
     1
 65
   257
176
     1
 75
     7
176
     1
175
     7
176
     1
 42
1.0
176
     1
 92
        8
176
     1
 66
     7
176
     1
 43
1.0
176
     1
 76
     1
176
     1
 77
     6
176
     1
 78
     2
176
     1
 67
     7
176
     1
 79
     5
176
     1
170
     0
176
     1
171
     0
176
     1
290
     0
176
     1
 93
        1
176
     1
 44
0.0
176
     1
173
     0
176
     1
  0
VISUALSTYLE
  5
33
102
{ACAD_REACTORS
330
2A
102
}
330
2A
100
AcDbVisualStyle
  2
Realistic
 70
     8
177
     2
291
     0
 71
     2
176
     1
 72
     2
176
     1
 73
     0
176
     1
 90
        0
176
     1
 40
-0.6
176
     1
 41
-30.0
176
     1
 62
     5
 63
     7
421
 16777215
176
     1
 74
     1
176
     1
 91
        0
176
     1
 64
     7
176
     1
 65
   257
176
     1
 75
     1
176
     1
175
     1
176
     1
 42
1.0
176
     1
 92
        8
176
     1
 66
     8
424
  7895160
176
     1
 43
1.0
176
     1
 76
     1
176
     1
 77
     6
176
     1
 78
     2
176
     1
 67
     7
176
     1
 79
     5
176
     1
170
     0
176
     1
171
     0
176
     1
290
     0
176
     1
 93
       13
176
     1
 44
0.0
176
     1
173
     0
176
     1
  0
VISUALSTYLE
  5
37
102
{ACAD_REACTORS
330
2A
102
}
330
2A
100
AcDbVisualStyle
  2
Thicken
 70
    13
177
     2
291
     1
 71
     2
176
     1
 72
     2
176
     1
 73
     0
176
     1
 90
        0
176
     1
 40
-0.6
176
     1
 41
-30.0
176
     1
 62
     5
 63
     7
421
 16777215
176
     1
 74
     1
176
     1
 91
        4
176
     1
 64
     7
176
     1
 65
   257
176
     1
 75
     1
176
     1
175
     1
176
     1
 42
1.0
176
     1
 92
       12
176
     1
 66
     7
176
     1
 43
1.0
176
     1
 76
     1
176
     1
 77
     6
176
     1
 78
     2
176
     1
 67
     7
176
     1
 79
     5
176
     1
170
     0
176
     1
171
     0
176
     1
290
     0
176
     1
 93
        1
176
     1
 44
0.0
176
     1
173
     0
176
     1
  0
ENDSEC
  0
EOF
