  0
SECTION
  2
HEADER
  9
$ACADVER
  1
AC1024
  9
$ACADMAINTVER
 70
     6
  9
$DWGCODEPAGE
  3
UNDEFINED
  9
$INSBASE
 10
0.0
 20
0.0
 30
0.0
  9
$EXTMIN
 10
1.000000000000000E+20
 20
1.000000000000000E+20
 30
1.000000000000000E+20
  9
$EXTMAX
 10
-1.000000000000000E+20
 20
-1.000000000000000E+20
 30
-1.000000000000000E+20
  9
$LIMMIN
 10
0.0
 20
0.0
  9
$LIMMAX
 10
12.0
 20
9.0
  9
$ORTHOMODE
 70
     0
  9
$REGENMODE
 70
     1
  9
$FILLMODE
 70
     1
  9
$QTEXTMODE
 70
     0
  9
$MIRRTEXT
 70
     1
  9
$LTSCALE
 40
1.0
  9
$ATTMODE
 70
     1
  9
$TEXTSIZE
 40
0.2
  9
$TRACEWID
 40
0.05
  9
$TEXTSTYLE
  7
Standard
  9
$CLAYER
  8
0
  9
$CELTYPE
  6
ByLayer
  9
$CECOLOR
 62
   256
  9
$CELTSCALE
 40
1.0
  9
$DISPSILH
 70
     0
  9
$DIMSCALE
 40
1.0
  9
$DIMASZ
 40
0.18
  9
$DIMEXO
 40
0.0625
  9
$DIMDLI
 40
0.38
  9
$DIMRND
 40
0.0
  9
$DIMDLE
 40
0.0
  9
$DIMEXE
 40
0.18
  9
$DIMTP
 40
0.0
  9
$DIMTM
 40
0.0
  9
$DIMTXT
 40
0.18
  9
$DIMCEN
 40
0.09
  9
$DIMTSZ
 40
0.0
  9
$DIMTOL
 70
     0
  9
$DIMLIM
 70
     0
  9
$DIMTIH
 70
     1
  9
$DIMTOH
 70
     1
  9
$DIMSE1
 70
     0
  9
$DIMSE2
 70
     0
  9
$DIMTAD
 70
     0
  9
$DIMZIN
 70
     0
  9
$DIMBLK
  1

  9
$DIMASO
 70
     1
  9
$DIMSHO
 70
     1
  9
$DIMPOST
  1

  9
$DIMAPOST
  1

  9
$DIMALT
 70
     0
  9
$DIMALTD
 70
     2
  9
$DIMALTF
 40
25.4
  9
$DIMLFAC
 40
1.0
  9
$DIMTOFL
 70
     0
  9
$DIMTVP
 40
0.0
  9
$DIMTIX
 70
     0
  9
$DIMSOXD
 70
     0
  9
$DIMSAH
 70
     0
  9
$DIMBLK1
  1

  9
$DIMBLK2
  1

  9
$DIMSTYLE
  2
Standard
  9
$DIMCLRD
 70
     0
  9
$DIMCLRE
 70
     0
  9
$DIMCLRT
 70
     0
  9
$DIMTFAC
 40
1.0
  9
$DIMGAP
 40
0.09
  9
$DIMJUST
 70
     0
  9
$DIMSD1
 70
     0
  9
$DIMSD2
 70
     0
  9
$DIMTOLJ
 70
     1
  9
$DIMTZIN
 70
     0
  9
$DIMALTZ
 70
     0
  9
$DIMALTTZ
 70
     0
  9
$DIMUPT
 70
     0
  9
$DIMDEC
 70
     4
  9
$DIMTDEC
 70
     4
  9
$DIMALTU
 70
     2
  9
$DIMALTTD
 70
     2
  9
$DIMTXSTY
  7
Standard
  9
$DIMAUNIT
 70
     0
  9
$DIMADEC
 70
     0
  9
$DIMALTRND
 40
0.0
  9
$DIMAZIN
 70
     0
  9
$DIMDSEP
 70
    46
  9
$DIMATFIT
 70
     3
  9
$DIMFRAC
 70
     0
  9
$DIMLDRBLK
  1

  9
$DIMLUNIT
 70
     2
  9
$DIMLWD
 70
    -2
  9
$DIMLWE
 70
    -2
  9
$DIMTMOVE
 70
     0
  9
$DIMFXL
 40
1.0
  9
$DIMFXLON
 70
     0
  9
$DIMJOGANG
 40
0.7853981633974483
  9
$DIMTFILL
 70
     0
  9
$DIMTFILLCLR
 70
     0
  9
$DIMARCSYM
 70
     0
  9
$DIMLTYPE
  6

  9
$DIMLTEX1
  6

  9
$DIMLTEX2
  6

  9
$DIMTXTDIRECTION
 70
     0
  9
$LUNITS
 70
     2
  9
$LUPREC
 70
     4
  9
$SKETCHINC
 40
0.1
  9
$FILLETRAD
 40
0.5
  9
$AUNITS
 70
     0
  9
$AUPREC
 70
     0
  9
$MENU
  1
.
  9
$ELEVATION
 40
0.0
  9
$PELEVATION
 40
0.0
  9
$THICKNESS
 40
0.0
  9
$LIMCHECK
 70
     0
  9
$CHAMFERA
 40
0.5
  9
$CHAMFERB
 40
0.5
  9
$CHAMFERC
 40
1.0
  9
$CHAMFERD
 40
0.0
  9
$SKPOLY
 70
     0
  9
$TDCREATE
 40
2457917.612037025
  9
$TDUCREATE
 40
2457917.237037037
  9
$TDUPDATE
 40
2457917.612037025
  9
$TDUUPDATE
 40
2457917.237037037
  9
$TDINDWG
 40
0.0000000116
  9
$TDUSRTIMER
 40
0.0000000116
  9
$USRTIMER
 70
     1
  9
$ANGBASE
 50
0.0
  9
$ANGDIR
 70
     0
  9
$PDMODE
 70
     0
  9
$PDSIZE
 40
0.0
  9
$PLINEWID
 40
0.0
  9
$SPLFRAME
 70
     0
  9
$SPLINETYPE
 70
     6
  9
$SPLINESEGS
 70
     8
  9
$HANDSEED
  5
D2
  9
$SURFTAB1
 70
     6
  9
$SURFTAB2
 70
     6
  9
$SURFTYPE
 70
     6
  9
$SURFU
 70
     6
  9
$SURFV
 70
     6
  9
$UCSBASE
  2

  9
$UCSNAME
  2

  9
$UCSORG
 10
0.0
 20
0.0
 30
0.0
  9
$UCSXDIR
 10
1.0
 20
0.0
 30
0.0
  9
$UCSYDIR
 10
0.0
 20
1.0
 30
0.0
  9
$UCSORTHOREF
  2

  9
$UCSORTHOVIEW
 70
     0
  9
$UCSORGTOP
 10
0.0
 20
0.0
 30
0.0
  9
$UCSORGBOTTOM
 10
0.0
 20
0.0
 30
0.0
  9
$UCSORGLEFT
 10
0.0
 20
0.0
 30
0.0
  9
$UCSORGRIGHT
 10
0.0
 20
0.0
 30
0.0
  9
$UCSORGFRONT
 10
0.0
 20
0.0
 30
0.0
  9
$UCSORGBACK
 10
0.0
 20
0.0
 30
0.0
  9
$PUCSBASE
  2

  9
$PUCSNAME
  2

  9
$PUCSORG
 10
0.0
 20
0.0
 30
0.0
  9
$PUCSXDIR
 10
1.0
 20
0.0
 30
0.0
  9
$PUCSYDIR
 10
0.0
 20
1.0
 30
0.0
  9
$PUCSORTHOREF
  2

  9
$PUCSORTHOVIEW
 70
     0
  9
$PUCSORGTOP
 10
0.0
 20
0.0
 30
0.0
  9
$PUCSORGBOTTOM
 10
0.0
 20
0.0
 30
0.0
  9
$PUCSORGLEFT
 10
0.0
 20
0.0
 30
0.0
  9
$PUCSORGRIGHT
 10
0.0
 20
0.0
 30
0.0
  9
$PUCSORGFRONT
 10
0.0
 20
0.0
 30
0.0
  9
$PUCSORGBACK
 10
0.0
 20
0.0
 30
0.0
  9
$USERI1
 70
     0
  9
$USERI2
 70
     0
  9
$USERI3
 70
     0
  9
$USERI4
 70
     0
  9
$USERI5
 70
     0
  9
$USERR1
 40
0.0
  9
$USERR2
 40
0.0
  9
$USERR3
 40
0.0
  9
$USERR4
 40
0.0
  9
$USERR5
 40
0.0
  9
$WORLDVIEW
 70
     1
  9
$SHADEDGE
 70
     3
  9
$SHADEDIF
 70
    70
  9
$TILEMODE
 70
     1
  9
$MAXACTVP
 70
    64
  9
$PINSBASE
 10
0.0
 20
0.0
 30
0.0
  9
$PLIMCHECK
 70
     0
  9
$PEXTMIN
 10
1.000000000000000E+20
 20
1.000000000000000E+20
 30
1.000000000000000E+20
  9
$PEXTMAX
 10
-1.000000000000000E+20
 20
-1.000000000000000E+20
 30
-1.000000000000000E+20
  9
$PLIMMIN
 10
0.0
 20
0.0
  9
$PLIMMAX
 10
12.0
 20
9.0
  9
$UNITMODE
 70
     0
  9
$VISRETAIN
 70
     1
  9
$PLINEGEN
 70
     0
  9
$PSLTSCALE
 70
     1
  9
$TREEDEPTH
 70
  3020
  9
$CMLSTYLE
  2
Standard
  9
$CMLJUST
 70
     0
  9
$CMLSCALE
 40
1.0
  9
$PROXYGRAPHICS
 70
     1
  9
$MEASUREMENT
 70
     0
  9
$CELWEIGHT
370
    -1
  9
$ENDCAPS
280
     0
  9
$JOINSTYLE
280
     0
  9
$LWDISPLAY
290
     1
  9
$INSUNITS
 70
     1
  9
$HYPERLINKBASE
  1

  9
$STYLESHEET
  1

  9
$XEDIT
290
     1
  9
$CEPSNTYPE
380
     0
  9
$PSTYLEMODE
290
     1
  9
$FINGERPRINTGUID
  2
{E0585BA9-272A-79BB-1AB1-CB763963592B}
  9
$VERSIONGUID
  2
{FAEB1C32-E019-11D5-929B-00C0DF256EC4}
  9
$EXTNAMES
290
     1
  9
$PSVPSCALE
 40
0.0
  9
$OLESTARTUP
290
     0
  9
$SORTENTS
280
   127
  9
$INDEXCTL
280
     0
  9
$HIDETEXT
280
     1
  9
$XCLIPFRAME
280
     2
  9
$HALOGAP
280
     0
  9
$OBSCOLOR
 70
   257
  9
$OBSLTYPE
280
     0
  9
$INTERSECTIONDISPLAY
280
     0
  9
$INTERSECTIONCOLOR
 70
   257
  9
$DIMASSOC
280
     2
  9
$PROJECTNAME
  1

  9
$CAMERADISPLAY
290
     0
  9
$LENSLENGTH
 40
50.0
  9
$CAMERAHEIGHT
 40
0.0
  9
$STEPSPERSEC
 40
2.0
  9
$STEPSIZE
 40
6.0
  9
$3DDWFPREC
 40
2.0
  9
$PSOLWIDTH
 40
0.25
  9
$PSOLHEIGHT
 40
4.0
  9
$LOFTANG1
 40
1.570796326794897
  9
$LOFTANG2
 40
1.570796326794897
  9
$LOFTMAG1
 40
0.0
  9
$LOFTMAG2
 40
0.0
  9
$LOFTPARAM
 70
     7
  9
$LOFTNORMALS
280
     1
  9
$LATITUDE
 40
37.795
  9
$LONGITUDE
 40
-122.394
  9
$NORTHDIRECTION
 40
0.0
  9
$TIMEZONE
 70
 -8000
  9
$LIGHTGLYPHDISPLAY
280
     1
  9
$TILEMODELIGHTSYNCH
280
     1
  9
$CMATERIAL
347
3C
  9
$SOLIDHIST
280
     1
  9
$SHOWHIST
280
     1
  9
$DWFFRAME
280
     2
  9
$DGNFRAME
280
     2
  9
$REALWORLDSCALE
290
     1
  9
$INTERFERECOLOR
 62
   256
  9
$CSHADOW
280
     0
  9
$SHADOWPLANELOCATION
 40
0.0
  0
ENDSEC
  0
SECTION
  2
CLASSES
  0
CLASS
  1
ACDBDICTIONARYWDFLT
  2
AcDbDictionaryWithDefault
  3
ObjectDBX Classes
 90
        0
 91
        4
280
     0
281
     0
  0
CLASS
  1
VISUALSTYLE
  2
AcDbVisualStyle
  3
ObjectDBX Classes
 90
     4095
 91
        4
280
     0
281
     0
  0
CLASS
  1
MATERIAL
  2
AcDbMaterial
  3
ObjectDBX Classes
 90
     1153
 91
        4
280
     0
281
     0
  0
CLASS
  1
SUN
  2
AcDbSun
  3
SCENEOE
 90
     1024
 91
        4
280
     0
281
     0
  0
ENDSEC
  0
SECTION
  2
TABLES
  0
TABLE
  2
VPORT
  5
8
330
0
100
AcDbSymbolTable
 70
     1
  0
VPORT
  5
29
330
8
100
AcDbSymbolTableRecord
100
AcDbViewportTableRecord
  2
*Active
 70
     0
 10
0.0
 20
0.0
 11
1.0
 21
1.0
 12
0.0
 22
0.0
 13
0.0
 23
0.0
 14
0.5
 24
0.5
 15
0.5
 25
0.5
 16
0.0
 26
0.0
 36
1.0
 17
91.00082462281999
 27
-128.4993055234307
 37
0.0
 40
256.9986110468615
 41
0.7081814508812795
 42
50.0
 43
0.0
 44
0.0
 50
0.0
 51
0.0
 71
     0
 72
   100
 73
     1
 74
     3
 75
     0
 76
     0
 77
     0
 78
     0
281
     0
 65
     1
110
0.0
120
0.0
130
0.0
111
1.0
121
0.0
131
0.0
112
0.0
122
1.0
132
0.0
 79
     0
146
0.0
 60
     3
 61
     5
292
     1
282
     1
141
0.0
142
0.0
 63
   250
361
3F
  0
ENDTAB
  0
TABLE
  2
LTYPE
  5
5
330
0
100
AcDbSymbolTable
 70
     1
  0
LTYPE
  5
14
330
5
100
AcDbSymbolTableRecord
100
AcDbLinetypeTableRecord
  2
ByBlock
 70
     0
  3

 72
    65
 73
     0
 40
0.0
  0
LTYPE
  5
15
330
5
100
AcDbSymbolTableRecord
100
AcDbLinetypeTableRecord
  2
ByLayer
 70
     0
  3

 72
    65
 73
     0
 40
0.0
  0
LTYPE
  5
16
330
5
100
AcDbSymbolTableRecord
100
AcDbLinetypeTableRecord
  2
Continuous
 70
     0
  3
Solid line
 72
    65
 73
     0
 40
0.0
  0
ENDTAB
  0
TABLE
  2
LAYER
  5
2
330
0
100
AcDbSymbolTable
 70
     2
  0
LAYER
  5
10
330
2
100
AcDbSymbolTableRecord
100
AcDbLayerTableRecord
  2
0
 70
     0
 62
     7
  6
Continuous
370
    -3
390
F
347
3E
  0
LAYER
  5
40
330
2
100
AcDbSymbolTableRecord
100
AcDbLayerTableRecord
  2
_U+30EC_U+30A4_U+30E4_U+30FC 1
 70
     0
 62
     7
  6
Continuous
370
    -3
390
F
347
3E
  0
ENDTAB
  0
TABLE
  2
STYLE
  5
3
330
0
100
AcDbSymbolTable
 70
     1
  0
STYLE
  5
11
330
3
100
AcDbSymbolTableRecord
100
AcDbTextStyleTableRecord
  2
Standard
 70
     0
 40
0.0
 41
1.0
 50
0.0
 71
     0
 42
0.2
  3
txt
  4

  0
ENDTAB
  0
TABLE
  2
VIEW
  5
6
330
0
100
AcDbSymbolTable
 70
     0
  0
ENDTAB
  0
TABLE
  2
UCS
  5
7
330
0
100
AcDbSymbolTable
 70
     0
  0
ENDTAB
  0
TABLE
  2
APPID
  5
9
330
0
100
AcDbSymbolTable
 70
     1
  0
APPID
  5
12
330
9
100
AcDbSymbolTableRecord
100
AcDbRegAppTableRecord
  2
ACAD
 70
     0
  0
ENDTAB
  0
TABLE
  2
DIMSTYLE
  5
A
330
0
100
AcDbSymbolTable
 70
     1
100
AcDbDimStyleTable
  0
DIMSTYLE
105
27
330
A
100
AcDbSymbolTableRecord
100
AcDbDimStyleTableRecord
  2
Standard
 70
     0
178
     0
340
11
  0
ENDTAB
  0
TABLE
  2
BLOCK_RECORD
  5
1
330
0
100
AcDbSymbolTable
 70
     6
  0
BLOCK_RECORD
  5
1F
330
1
100
AcDbSymbolTableRecord
100
AcDbBlockTableRecord
  2
*Model_Space
340
22
 70
     0
280
     1
281
     0
  0
BLOCK_RECORD
  5
1B
330
1
100
AcDbSymbolTableRecord
100
AcDbBlockTableRecord
  2
*Paper_Space
340
1E
 70
     0
280
     1
281
     0
  0
BLOCK_RECORD
  5
23
330
1
100
AcDbSymbolTableRecord
100
AcDbBlockTableRecord
  2
*Paper_Space0
340
26
 70
     0
280
     1
281
     0
  0
BLOCK_RECORD
  5
41
330
1
100
AcDbSymbolTableRecord
100
AcDbBlockTableRecord
  2
block 2
340
0
102
{BLKREFS
331
42
102
}
 70
     0
280
     1
281
     0
  0
BLOCK_RECORD
  5
88
330
1
100
AcDbSymbolTableRecord
100
AcDbBlockTableRecord
  2
block 3
340
0
102
{BLKREFS
331
89
102
}
 70
     0
280
     1
281
     0
  0
BLOCK_RECORD
  5
A4
330
1
100
AcDbSymbolTableRecord
100
AcDbBlockTableRecord
  2
block 4
340
0
102
{BLKREFS
331
A5
102
}
 70
     0
280
     1
281
     0
  0
BLOCK_RECORD
  5
B6
330
1
100
AcDbSymbolTableRecord
100
AcDbBlockTableRecord
  2
block 5
340
0
102
{BLKREFS
331
B7
102
}
 70
     0
280
     1
281
     0
  0
BLOCK_RECORD
  5
C8
330
1
100
AcDbSymbolTableRecord
100
AcDbBlockTableRecord
  2
block 6
340
0
102
{BLKREFS
331
C9
102
}
 70
     0
280
     1
281
     0
  0
ENDTAB
  0
ENDSEC
  0
SECTION
  2
BLOCKS
  0
BLOCK
  5
20
330
1F
100
AcDbEntity
  8
0
100
AcDbBlockBegin
  2
*Model_Space
 70
     0
 10
0.0
 20
0.0
 30
0.0
  3
*Model_Space
  1

  0
ENDBLK
  5
21
330
1F
100
AcDbEntity
  8
0
100
AcDbBlockEnd
  0
BLOCK
  5
1C
330
1B
100
AcDbEntity
 67
     1
  8
0
100
AcDbBlockBegin
  2
*Paper_Space
 70
     0
 10
0.0
 20
0.0
 30
0.0
  3
*Paper_Space
  1

  0
ENDBLK
  5
1D
330
1B
100
AcDbEntity
 67
     1
  8
0
100
AcDbBlockEnd
  0
BLOCK
  5
24
330
23
100
AcDbEntity
  8
0
100
AcDbBlockBegin
  2
*Paper_Space0
 70
     0
 10
0.0
 20
0.0
 30
0.0
  3
*Paper_Space0
  1

  0
ENDBLK
  5
25
330
23
100
AcDbEntity
  8
0
100
AcDbBlockEnd
  0
BLOCK
  5
43
330
41
100
AcDbEntity
  8
0
100
AcDbBlockBegin
  2
block 2
 70
     0
 10
0.0
 20
0.0
 30
0.0
  3
block 2
  1

  0
POLYLINE
  5
45
330
41
100
AcDbEntity
  8
_U+30EC_U+30A4_U+30E4_U+30FC 1
370
     0
100
AcDb2dPolyline
 66
     1
 10
0.0
 20
0.0
 30
0.0
  0
VERTEX
  5
46
330
45
100
AcDbEntity
  8
_U+30EC_U+30A4_U+30E4_U+30FC 1
370
     0
100
AcDbVertex
100
AcDb2dVertex
 10
150.8090389303186
 20
-148.7867794072475
 30
0.0
  0
VERTEX
  5
47
330
45
100
AcDbEntity
  8
_U+30EC_U+30A4_U+30E4_U+30FC 1
370
     0
100
AcDbVertex
100
AcDb2dVertex
 10
28.79996638168898
 20
-148.7867794072475
 30
0.0
  0
VERTEX
  5
48
330
45
100
AcDbEntity
  8
_U+30EC_U+30A4_U+30E4_U+30FC 1
370
     0
100
AcDbVertex
100
AcDb2dVertex
 10
28.79996638168898
 20
-110.2907863613162
 30
0.0
  0
VERTEX
  5
49
330
45
100
AcDbEntity
  8
_U+30EC_U+30A4_U+30E4_U+30FC 1
370
     0
100
AcDbVertex
100
AcDb2dVertex
 10
27.30581138206234
 20
-110.2907863613162
 30
0.0
  0
VERTEX
  5
4A
330
45
100
AcDbEntity
  8
_U+30EC_U+30A4_U+30E4_U+30FC 1
370
     0
100
AcDbVertex
100
AcDb2dVertex
 10
27.30581138206234
 20
-150.2915882957604
 30
0.0
  0
VERTEX
  5
4B
330
45
100
AcDbEntity
  8
_U+30EC_U+30A4_U+30E4_U+30FC 1
370
     0
100
AcDbVertex
100
AcDb2dVertex
 10
152.3055927810273
 20
-150.2915882957604
 30
0.0
  0
VERTEX
  5
4C
330
45
100
AcDbEntity
  8
_U+30EC_U+30A4_U+30E4_U+30FC 1
370
     0
100
AcDbVertex
100
AcDb2dVertex
 10
152.3055927810273
 20
-147.2909310742881
 30
0.0
  0
VERTEX
  5
4D
330
45
100
AcDbEntity
  8
_U+30EC_U+30A4_U+30E4_U+30FC 1
370
     0
100
AcDbVertex
100
AcDb2dVertex
 10
150.8090389303186
 20
-147.2909310742881
 30
0.0
  0
VERTEX
  5
4E
330
45
100
AcDbEntity
  8
_U+30EC_U+30A4_U+30E4_U+30FC 1
370
     0
100
AcDbVertex
100
AcDb2dVertex
 10
150.8090389303186
 20
-148.7867794072475
 30
0.0
  0
SEQEND
  5
50
330
45
100
AcDbEntity
  8
_U+30EC_U+30A4_U+30E4_U+30FC 1
370
     0
  0
HATCH
  5
4F
330
41
100
AcDbEntity
  8
_U+30EC_U+30A4_U+30E4_U+30FC 1
 62
   253
420
 11711154
100
AcDbHatch
 10
0.0
 20
0.0
 30
0.0
210
0.0
220
0.0
230
1.0
  2
SOLID
 70
     1
 71
     0
 91
        1
 92
        1
 93
        8
 72
     1
 10
150.8090389303186
 20
-148.7867794072475
 11
28.79996638168898
 21
-148.7867794072475
 72
     1
 10
28.79996638168898
 20
-148.7867794072475
 11
28.79996638168898
 21
-110.2907863613162
 72
     1
 10
28.79996638168898
 20
-110.2907863613162
 11
27.30581138206234
 21
-110.2907863613162
 72
     1
 10
27.30581138206234
 20
-110.2907863613162
 11
27.30581138206234
 21
-150.2915882957604
 72
     1
 10
27.30581138206234
 20
-150.2915882957604
 11
152.3055927810273
 21
-150.2915882957604
 72
     1
 10
152.3055927810273
 20
-150.2915882957604
 11
152.3055927810273
 21
-147.2909310742881
 72
     1
 10
152.3055927810273
 20
-147.2909310742881
 11
150.8090389303186
 21
-147.2909310742881
 72
     1
 10
150.8090389303186
 20
-147.2909310742881
 11
150.8090389303186
 21
-148.7867794072475
 97
        0
 75
     2
 76
     1
 98
        0
  0
POLYLINE
  5
51
330
41
100
AcDbEntity
  8
_U+30EC_U+30A4_U+30E4_U+30FC 1
 62
     7
420
 16777215
370
    25
100
AcDb2dPolyline
 66
     1
 10
0.0
 20
0.0
 30
0.0
  0
VERTEX
  5
52
330
51
100
AcDbEntity
  8
_U+30EC_U+30A4_U+30E4_U+30FC 1
 62
     7
420
 16777215
370
    25
100
AcDbVertex
100
AcDb2dVertex
 10
27.30581138206234
 20
-150.2915882957604
 30
0.0
  0
VERTEX
  5
53
330
51
100
AcDbEntity
  8
_U+30EC_U+30A4_U+30E4_U+30FC 1
 62
     7
420
 16777215
370
    25
100
AcDbVertex
100
AcDb2dVertex
 10
152.3049225032666
 20
-150.2915882957604
 30
0.0
  0
SEQEND
  5
54
330
51
100
AcDbEntity
  8
_U+30EC_U+30A4_U+30E4_U+30FC 1
 62
     7
420
 16777215
370
    25
  0
POLYLINE
  5
55
330
41
100
AcDbEntity
  8
_U+30EC_U+30A4_U+30E4_U+30FC 1
 62
     7
420
 16777215
370
    25
100
AcDb2dPolyline
 66
     1
 10
0.0
 20
0.0
 30
0.0
  0
VERTEX
  5
56
330
55
100
AcDbEntity
  8
_U+30EC_U+30A4_U+30E4_U+30FC 1
 62
     7
420
 16777215
370
    25
100
AcDbVertex
100
AcDb2dVertex
 10
27.30581138206234
 20
-110.2907863613162
 30
0.0
  0
VERTEX
  5
57
330
55
100
AcDbEntity
  8
_U+30EC_U+30A4_U+30E4_U+30FC 1
 62
     7
420
 16777215
370
    25
100
AcDbVertex
100
AcDb2dVertex
 10
28.79996638168898
 20
-110.2907863613162
 30
0.0
  0
SEQEND
  5
58
330
55
100
AcDbEntity
  8
_U+30EC_U+30A4_U+30E4_U+30FC 1
 62
     7
420
 16777215
370
    25
  0
POLYLINE
  5
59
330
41
100
AcDbEntity
  8
_U+30EC_U+30A4_U+30E4_U+30FC 1
 62
     7
420
 16777215
370
    25
100
AcDb2dPolyline
 66
     1
 10
0.0
 20
0.0
 30
0.0
  0
VERTEX
  5
5A
330
59
100
AcDbEntity
  8
_U+30EC_U+30A4_U+30E4_U+30FC 1
 62
     7
420
 16777215
370
    25
100
AcDbVertex
100
AcDb2dVertex
 10
152.3049225032666
 20
-150.2915882957604
 30
0.0
  0
VERTEX
  5
5B
330
59
100
AcDbEntity
  8
_U+30EC_U+30A4_U+30E4_U+30FC 1
 62
     7
420
 16777215
370
    25
100
AcDbVertex
100
AcDb2dVertex
 10
152.3049225032666
 20
-147.2909310742881
 30
0.0
  0
SEQEND
  5
5C
330
59
100
AcDbEntity
  8
_U+30EC_U+30A4_U+30E4_U+30FC 1
 62
     7
420
 16777215
370
    25
  0
POLYLINE
  5
5D
330
41
100
AcDbEntity
  8
_U+30EC_U+30A4_U+30E4_U+30FC 1
 62
     7
420
 16777215
370
    25
100
AcDb2dPolyline
 66
     1
 10
0.0
 20
0.0
 30
0.0
  0
VERTEX
  5
5E
330
5D
100
AcDbEntity
  8
_U+30EC_U+30A4_U+30E4_U+30FC 1
 62
     7
420
 16777215
370
    25
100
AcDbVertex
100
AcDb2dVertex
 10
27.30581138206234
 20
-150.2915882957604
 30
0.0
  0
VERTEX
  5
5F
330
5D
100
AcDbEntity
  8
_U+30EC_U+30A4_U+30E4_U+30FC 1
 62
     7
420
 16777215
370
    25
100
AcDbVertex
100
AcDb2dVertex
 10
27.30581138206234
 20
-110.2907863613162
 30
0.0
  0
SEQEND
  5
60
330
5D
100
AcDbEntity
  8
_U+30EC_U+30A4_U+30E4_U+30FC 1
 62
     7
420
 16777215
370
    25
  0
POLYLINE
  5
61
330
41
100
AcDbEntity
  8
_U+30EC_U+30A4_U+30E4_U+30FC 1
 62
     7
420
 16777215
370
    25
100
AcDb2dPolyline
 66
     1
 10
0.0
 20
0.0
 30
0.0
  0
VERTEX
  5
62
330
61
100
AcDbEntity
  8
_U+30EC_U+30A4_U+30E4_U+30FC 1
 62
     7
420
 16777215
370
    25
100
AcDbVertex
100
AcDb2dVertex
 10
28.79996638168898
 20
-148.5539107961949
 30
0.0
  0
VERTEX
  5
63
330
61
100
AcDbEntity
  8
_U+30EC_U+30A4_U+30E4_U+30FC 1
 62
     7
420
 16777215
370
    25
100
AcDbVertex
100
AcDb2dVertex
 10
28.79996638168898
 20
-110.2907863613162
 30
0.0
  0
SEQEND
  5
64
330
61
100
AcDbEntity
  8
_U+30EC_U+30A4_U+30E4_U+30FC 1
 62
     7
420
 16777215
370
    25
  0
POLYLINE
  5
65
330
41
100
AcDbEntity
  8
_U+30EC_U+30A4_U+30E4_U+30FC 1
 62
     7
420
 16777215
370
    25
100
AcDb2dPolyline
 66
     1
 10
0.0
 20
0.0
 30
0.0
  0
VERTEX
  5
66
330
65
100
AcDbEntity
  8
_U+30EC_U+30A4_U+30E4_U+30FC 1
 62
     7
420
 16777215
370
    25
100
AcDbVertex
100
AcDb2dVertex
 10
150.8090389303186
 20
-147.2909310742881
 30
0.0
  0
VERTEX
  5
67
330
65
100
AcDbEntity
  8
_U+30EC_U+30A4_U+30E4_U+30FC 1
 62
     7
420
 16777215
370
    25
100
AcDbVertex
100
AcDb2dVertex
 10
152.3049225032666
 20
-147.2909310742881
 30
0.0
  0
SEQEND
  5
68
330
65
100
AcDbEntity
  8
_U+30EC_U+30A4_U+30E4_U+30FC 1
 62
     7
420
 16777215
370
    25
  0
POLYLINE
  5
69
330
41
100
AcDbEntity
  8
_U+30EC_U+30A4_U+30E4_U+30FC 1
 62
     7
420
 16777215
370
    25
100
AcDb2dPolyline
 66
     1
 10
0.0
 20
0.0
 30
0.0
  0
VERTEX
  5
6A
330
69
100
AcDbEntity
  8
_U+30EC_U+30A4_U+30E4_U+30FC 1
 62
     7
420
 16777215
370
    25
100
AcDbVertex
100
AcDb2dVertex
 10
150.8090389303186
 20
-148.7867794072475
 30
0.0
  0
VERTEX
  5
6B
330
69
100
AcDbEntity
  8
_U+30EC_U+30A4_U+30E4_U+30FC 1
 62
     7
420
 16777215
370
    25
100
AcDbVertex
100
AcDb2dVertex
 10
150.8090389303186
 20
-147.2909310742881
 30
0.0
  0
SEQEND
  5
6C
330
69
100
AcDbEntity
  8
_U+30EC_U+30A4_U+30E4_U+30FC 1
 62
     7
420
 16777215
370
    25
  0
POLYLINE
  5
6D
330
41
100
AcDbEntity
  8
_U+30EC_U+30A4_U+30E4_U+30FC 1
 62
     7
420
 16777215
370
    25
100
AcDb2dPolyline
 66
     1
 10
0.0
 20
0.0
 30
0.0
  0
VERTEX
  5
6E
330
6D
100
AcDbEntity
  8
_U+30EC_U+30A4_U+30E4_U+30FC 1
 62
     7
420
 16777215
370
    25
100
AcDbVertex
100
AcDb2dVertex
 10
28.79996638168898
 20
-148.7867794072475
 30
0.0
  0
VERTEX
  5
6F
330
6D
100
AcDbEntity
  8
_U+30EC_U+30A4_U+30E4_U+30FC 1
 62
     7
420
 16777215
370
    25
100
AcDbVertex
100
AcDb2dVertex
 10
150.8090389303186
 20
-148.7867794072475
 30
0.0
  0
SEQEND
  5
70
330
6D
100
AcDbEntity
  8
_U+30EC_U+30A4_U+30E4_U+30FC 1
 62
     7
420
 16777215
370
    25
  0
SPLINE
  5
71
330
41
100
AcDbEntity
  8
_U+30EC_U+30A4_U+30E4_U+30FC 1
 62
     7
420
 16777215
370
     9
100
AcDbSpline
210
0.0
220
0.0
230
1.0
 70
    11
 71
     3
 72
    17
 73
    13
 74
     0
 42
0.0000000001
 43
0.0000000001
 12
1.0
 22
0.0
 32
0.0
 13
1.0
 23
0.0
 33
0.0
 40
0.0
 40
0.0
 40
0.0
 40
0.0
 40
1.0
 40
1.0
 40
1.0
 40
2.0
 40
2.0
 40
2.0
 40
3.0
 40
3.0
 40
3.0
 40
4.0
 40
4.0
 40
4.0
 40
4.0
 10
28.89987304833062
 20
-106.5742019178008
 30
0.0
 10
28.89987304833062
 20
-106.519062751148
 30
0.0
 10
28.85507027056389
 20
-106.4742952511591
 30
0.0
 10
28.79996638168898
 20
-106.4742952511591
 30
0.0
 10
28.7448272150359
 20
-106.4742952511591
 30
0.0
 10
28.70005971504734
 20
-106.519062751148
 30
0.0
 10
28.70005971504734
 20
-106.5742019178008
 30
0.0
 10
28.70005971504734
 20
-106.629305806676
 30
0.0
 10
28.7448272150359
 20
-106.6741085844427
 30
0.0
 10
28.79996638168898
 20
-106.6741085844427
 30
0.0
 10
28.85507027056389
 20
-106.6741085844427
 30
0.0
 10
28.89987304833062
 20
-106.629305806676
 30
0.0
 10
28.89987304833062
 20
-106.5742019178008
 30
0.0
  0
SPLINE
  5
72
330
41
100
AcDbEntity
  8
_U+30EC_U+30A4_U+30E4_U+30FC 1
 62
     7
420
 16777215
370
     9
100
AcDbSpline
210
0.0
220
0.0
230
1.0
 70
    11
 71
     3
 72
    17
 73
    13
 74
     0
 42
0.0000000001
 43
0.0000000001
 12
1.0
 22
0.0
 32
0.0
 13
1.0
 23
0.0
 33
0.0
 40
0.0
 40
0.0
 40
0.0
 40
0.0
 40
1.0
 40
1.0
 40
1.0
 40
2.0
 40
2.0
 40
2.0
 40
3.0
 40
3.0
 40
3.0
 40
4.0
 40
4.0
 40
4.0
 40
4.0
 10
27.40607082648174
 20
-106.5742019178008
 30
0.0
 10
27.40607082648174
 20
-106.519062751148
 30
0.0
 10
27.36130332649287
 20
-106.4742952511591
 30
0.0
 10
27.30581138206234
 20
-106.4742952511591
 30
0.0
 10
27.25070749318743
 20
-106.4742952511591
 30
0.0
 10
27.20590471542071
 20
-106.519062751148
 30
0.0
 10
27.20590471542071
 20
-106.5742019178008
 30
0.0
 10
27.20590471542071
 20
-106.629305806676
 30
0.0
 10
27.25070749318743
 20
-106.6741085844427
 30
0.0
 10
27.30581138206234
 20
-106.6741085844427
 30
0.0
 10
27.36130332649287
 20
-106.6741085844427
 30
0.0
 10
27.40607082648174
 20
-106.629305806676
 30
0.0
 10
27.40607082648174
 20
-106.5742019178008
 30
0.0
  0
SPLINE
  5
73
330
41
100
AcDbEntity
  8
_U+30EC_U+30A4_U+30E4_U+30FC 1
 62
     7
420
 16777215
370
     9
100
AcDbSpline
210
0.0
220
0.0
230
1.0
 70
    11
 71
     3
 72
    17
 73
    13
 74
     0
 42
0.0000000001
 43
0.0000000001
 12
1.0
 22
0.0
 32
0.0
 13
1.0
 23
0.0
 33
0.0
 40
0.0
 40
0.0
 40
0.0
 40
0.0
 40
1.0
 40
1.0
 40
1.0
 40
2.0
 40
2.0
 40
2.0
 40
3.0
 40
3.0
 40
3.0
 40
4.0
 40
4.0
 40
4.0
 40
4.0
 10
152.4048291673844
 20
-154.2917002392051
 30
0.0
 10
152.4048291673844
 20
-154.2365963503295
 30
0.0
 10
152.3600263907497
 20
-154.1917935725635
 30
0.0
 10
152.3049225032666
 20
-154.1917935725635
 30
0.0
 10
152.2497833380067
 20
-154.1917935725635
 30
0.0
 10
152.2050158391488
 20
-154.2365963503295
 30
0.0
 10
152.2050158391488
 20
-154.2917002392051
 30
0.0
 10
152.2050158391488
 20
-154.3468394058575
 30
0.0
 10
152.2497833380067
 20
-154.3916069058467
 30
0.0
 10
152.3049225032666
 20
-154.3916069058467
 30
0.0
 10
152.3600263907497
 20
-154.3916069058467
 30
0.0
 10
152.4048291673844
 20
-154.3468394058575
 30
0.0
 10
152.4048291673844
 20
-154.2917002392051
 30
0.0
  0
SPLINE
  5
74
330
41
100
AcDbEntity
  8
_U+30EC_U+30A4_U+30E4_U+30FC 1
 62
     7
420
 16777215
370
     9
100
AcDbSpline
210
0.0
220
0.0
230
1.0
 70
    11
 71
     3
 72
    17
 73
    13
 74
     0
 42
0.0000000001
 43
0.0000000001
 12
1.0
 22
0.0
 32
0.0
 13
1.0
 23
0.0
 33
0.0
 40
0.0
 40
0.0
 40
0.0
 40
0.0
 40
1.0
 40
1.0
 40
1.0
 40
2.0
 40
2.0
 40
2.0
 40
3.0
 40
3.0
 40
3.0
 40
4.0
 40
4.0
 40
4.0
 40
4.0
 10
27.40607082648174
 20
-154.2917002392051
 30
0.0
 10
27.40607082648174
 20
-154.2365963503295
 30
0.0
 10
27.36130332649287
 20
-154.1917935725635
 30
0.0
 10
27.30581138206234
 20
-154.1917935725635
 30
0.0
 10
27.25070749318743
 20
-154.1917935725635
 30
0.0
 10
27.20590471542071
 20
-154.2365963503295
 30
0.0
 10
27.20590471542071
 20
-154.2917002392051
 30
0.0
 10
27.20590471542071
 20
-154.3468394058575
 30
0.0
 10
27.25070749318743
 20
-154.3916069058467
 30
0.0
 10
27.30581138206234
 20
-154.3916069058467
 30
0.0
 10
27.36130332649287
 20
-154.3916069058467
 30
0.0
 10
27.40607082648174
 20
-154.3468394058575
 30
0.0
 10
27.40607082648174
 20
-154.2917002392051
 30
0.0
  0
SPLINE
  5
75
330
41
100
AcDbEntity
  8
_U+30EC_U+30A4_U+30E4_U+30FC 1
 62
     7
420
 16777215
370
     9
100
AcDbSpline
210
0.0
220
0.0
230
1.0
 70
    11
 71
     3
 72
    17
 73
    13
 74
     0
 42
0.0000000001
 43
0.0000000001
 12
1.0
 22
0.0
 32
0.0
 13
1.0
 23
0.0
 33
0.0
 40
0.0
 40
0.0
 40
0.0
 40
0.0
 40
1.0
 40
1.0
 40
1.0
 40
2.0
 40
2.0
 40
2.0
 40
3.0
 40
3.0
 40
3.0
 40
4.0
 40
4.0
 40
4.0
 40
4.0
 10
156.6553779478328
 20
-110.2907863613162
 30
0.0
 10
156.6553779478328
 20
-110.2356471946634
 30
0.0
 10
156.610575171198
 20
-110.1908796946745
 30
0.0
 10
156.5547657281774
 20
-110.1908796946745
 30
0.0
 10
156.4996618406943
 20
-110.1908796946745
 30
0.0
 10
156.4548590640596
 20
-110.2356471946634
 30
0.0
 10
156.4548590640596
 20
-110.2907863613162
 30
0.0
 10
156.4548590640596
 20
-110.3458902501914
 30
0.0
 10
156.4996618406943
 20
-110.3906930279578
 30
0.0
 10
156.5547657281774
 20
-110.3906930279578
 30
0.0
 10
156.610575171198
 20
-110.3906930279578
 30
0.0
 10
156.6553779478328
 20
-110.3458902501914
 30
0.0
 10
156.6553779478328
 20
-110.2907863613162
 30
0.0
  0
SPLINE
  5
76
330
41
100
AcDbEntity
  8
_U+30EC_U+30A4_U+30E4_U+30FC 1
 62
     7
420
 16777215
370
     9
100
AcDbSpline
210
0.0
220
0.0
230
1.0
 70
    11
 71
     3
 72
    17
 73
    13
 74
     0
 42
0.0000000001
 43
0.0000000001
 12
1.0
 22
0.0
 32
0.0
 13
1.0
 23
0.0
 33
0.0
 40
0.0
 40
0.0
 40
0.0
 40
0.0
 40
1.0
 40
1.0
 40
1.0
 40
2.0
 40
2.0
 40
2.0
 40
3.0
 40
3.0
 40
3.0
 40
4.0
 40
4.0
 40
4.0
 40
4.0
 10
156.6553779478328
 20
-147.2916013520661
 30
0.0
 10
156.6553779478328
 20
-147.2364974631912
 30
0.0
 10
156.610575171198
 20
-147.1916946854245
 30
0.0
 10
156.5547657281774
 20
-147.1916946854245
 30
0.0
 10
156.4996618406943
 20
-147.1916946854245
 30
0.0
 10
156.4548590640596
 20
-147.2364974631912
 30
0.0
 10
156.4548590640596
 20
-147.2916013520661
 30
0.0
 10
156.4548590640596
 20
-147.3467405187192
 30
0.0
 10
156.4996618406943
 20
-147.3915080187078
 30
0.0
 10
156.5547657281774
 20
-147.3915080187078
 30
0.0
 10
156.610575171198
 20
-147.3915080187078
 30
0.0
 10
156.6553779478328
 20
-147.3467405187192
 30
0.0
 10
156.6553779478328
 20
-147.2916013520661
 30
0.0
  0
SPLINE
  5
77
330
41
100
AcDbEntity
  8
_U+30EC_U+30A4_U+30E4_U+30FC 1
 62
     7
420
 16777215
370
     9
100
AcDbSpline
210
0.0
220
0.0
230
1.0
 70
    11
 71
     3
 72
    17
 73
    13
 74
     0
 42
0.0000000001
 43
0.0000000001
 12
1.0
 22
0.0
 32
0.0
 13
1.0
 23
0.0
 33
0.0
 40
0.0
 40
0.0
 40
0.0
 40
0.0
 40
1.0
 40
1.0
 40
1.0
 40
2.0
 40
2.0
 40
2.0
 40
3.0
 40
3.0
 40
3.0
 40
4.0
 40
4.0
 40
4.0
 40
4.0
 10
156.6553779478328
 20
-150.2915882957604
 30
0.0
 10
156.6553779478328
 20
-150.2364844068856
 30
0.0
 10
156.610575171198
 20
-150.1916816291188
 30
0.0
 10
156.5547657281774
 20
-150.1916816291188
 30
0.0
 10
156.4996618406943
 20
-150.1916816291188
 30
0.0
 10
156.4548590640596
 20
-150.2364844068856
 30
0.0
 10
156.4548590640596
 20
-150.2915882957604
 30
0.0
 10
156.4548590640596
 20
-150.3467274624135
 30
0.0
 10
156.4996618406943
 20
-150.3914949624021
 30
0.0
 10
156.5547657281774
 20
-150.3914949624021
 30
0.0
 10
156.610575171198
 20
-150.3914949624021
 30
0.0
 10
156.6553779478328
 20
-150.3467274624135
 30
0.0
 10
156.6553779478328
 20
-150.2915882957604
 30
0.0
  0
POLYLINE
  5
78
330
41
100
AcDbEntity
  8
_U+30EC_U+30A4_U+30E4_U+30FC 1
 62
     7
420
 16777215
370
     9
100
AcDb2dPolyline
 66
     1
 10
0.0
 20
0.0
 30
0.0
  0
VERTEX
  5
79
330
78
100
AcDbEntity
  8
_U+30EC_U+30A4_U+30E4_U+30FC 1
 62
     7
420
 16777215
370
     9
100
AcDbVertex
100
AcDb2dVertex
 10
28.30593638181233
 20
-106.5742019178008
 30
0.0
  0
VERTEX
  5
7A
330
78
100
AcDbEntity
  8
_U+30EC_U+30A4_U+30E4_U+30FC 1
 62
     7
420
 16777215
370
     9
100
AcDbVertex
100
AcDb2dVertex
 10
32.07624888086975
 20
-106.5742019178008
 30
0.0
  0
SEQEND
  5
7B
330
78
100
AcDbEntity
  8
_U+30EC_U+30A4_U+30E4_U+30FC 1
 62
     7
420
 16777215
370
     9
  0
POLYLINE
  5
7C
330
41
100
AcDbEntity
  8
_U+30EC_U+30A4_U+30E4_U+30FC 1
 62
     7
420
 16777215
370
     9
100
AcDb2dPolyline
 66
     1
 10
0.0
 20
0.0
 30
0.0
  0
VERTEX
  5
7D
330
7C
100
AcDbEntity
  8
_U+30EC_U+30A4_U+30E4_U+30FC 1
 62
     7
420
 16777215
370
     9
100
AcDbVertex
100
AcDb2dVertex
 10
26.30607443786797
 20
-106.5742019178008
 30
0.0
  0
VERTEX
  5
7E
330
7C
100
AcDbEntity
  8
_U+30EC_U+30A4_U+30E4_U+30FC 1
 62
     7
420
 16777215
370
     9
100
AcDbVertex
100
AcDb2dVertex
 10
28.30593638181233
 20
-106.5742019178008
 30
0.0
  0
SEQEND
  5
7F
330
7C
100
AcDbEntity
  8
_U+30EC_U+30A4_U+30E4_U+30FC 1
 62
     7
420
 16777215
370
     9
  0
POLYLINE
  5
80
330
41
100
AcDbEntity
  8
_U+30EC_U+30A4_U+30E4_U+30FC 1
 62
     7
420
 16777215
370
     9
100
AcDb2dPolyline
 66
     1
 10
0.0
 20
0.0
 30
0.0
  0
VERTEX
  5
81
330
80
100
AcDbEntity
  8
_U+30EC_U+30A4_U+30E4_U+30FC 1
 62
     7
420
 16777215
370
     9
100
AcDbVertex
100
AcDb2dVertex
 10
27.30581138206234
 20
-108.0342433063248
 30
0.0
  0
VERTEX
  5
82
330
80
100
AcDbEntity
  8
_U+30EC_U+30A4_U+30E4_U+30FC 1
 62
     7
420
 16777215
370
     9
100
AcDbVertex
100
AcDb2dVertex
 10
27.30581138206234
 20
-105.5744296958286
 30
0.0
  0
SEQEND
  5
83
330
80
100
AcDbEntity
  8
_U+30EC_U+30A4_U+30E4_U+30FC 1
 62
     7
420
 16777215
370
     9
  0
POLYLINE
  5
84
330
41
100
AcDbEntity
  8
_U+30EC_U+30A4_U+30E4_U+30FC 1
 62
     7
420
 16777215
370
     9
100
AcDb2dPolyline
 66
     1
 10
0.0
 20
0.0
 30
0.0
  0
VERTEX
  5
85
330
84
100
AcDbEntity
  8
_U+30EC_U+30A4_U+30E4_U+30FC 1
 62
     7
420
 16777215
370
     9
100
AcDbVertex
100
AcDb2dVertex
 10
28.79996638168898
 20
-108.0342433063248
 30
0.0
  0
VERTEX
  5
86
330
84
100
AcDbEntity
  8
_U+30EC_U+30A4_U+30E4_U+30FC 1
 62
     7
420
 16777215
370
     9
100
AcDbVertex
100
AcDb2dVertex
 10
28.79996638168898
 20
-105.5744296958286
 30
0.0
  0
SEQEND
  5
87
330
84
100
AcDbEntity
  8
_U+30EC_U+30A4_U+30E4_U+30FC 1
 62
     7
420
 16777215
370
     9
  0
INSERT
  5
89
330
41
100
AcDbEntity
  8
_U+30EC_U+30A4_U+30E4_U+30FC 1
100
AcDbBlockReference
  2
block 3
 10
0.0
 20
0.0
 30
0.0
  0
POLYLINE
  5
98
330
41
100
AcDbEntity
  8
_U+30EC_U+30A4_U+30E4_U+30FC 1
 62
     7
420
 16777215
370
     9
100
AcDb2dPolyline
 66
     1
 10
0.0
 20
0.0
 30
0.0
  0
VERTEX
  5
99
330
98
100
AcDbEntity
  8
_U+30EC_U+30A4_U+30E4_U+30FC 1
 62
     7
420
 16777215
370
     9
100
AcDbVertex
100
AcDb2dVertex
 10
156.5547657281774
 20
-150.2915882957604
 30
0.0
  0
VERTEX
  5
9A
330
98
100
AcDbEntity
  8
_U+30EC_U+30A4_U+30E4_U+30FC 1
 62
     7
420
 16777215
370
     9
100
AcDbVertex
100
AcDb2dVertex
 10
156.5547657281774
 20
-147.2916013520661
 30
0.0
  0
SEQEND
  5
9B
330
98
100
AcDbEntity
  8
_U+30EC_U+30A4_U+30E4_U+30FC 1
 62
     7
420
 16777215
370
     9
  0
POLYLINE
  5
9C
330
41
100
AcDbEntity
  8
_U+30EC_U+30A4_U+30E4_U+30FC 1
 62
     7
420
 16777215
370
     9
100
AcDb2dPolyline
 66
     1
 10
0.0
 20
0.0
 30
0.0
  0
VERTEX
  5
9D
330
9C
100
AcDbEntity
  8
_U+30EC_U+30A4_U+30E4_U+30FC 1
 62
     7
420
 16777215
370
     9
100
AcDbVertex
100
AcDb2dVertex
 10
155.0947596543141
 20
-150.2915882957604
 30
0.0
  0
VERTEX
  5
9E
330
9C
100
AcDbEntity
  8
_U+30EC_U+30A4_U+30E4_U+30FC 1
 62
     7
420
 16777215
370
     9
100
AcDbVertex
100
AcDb2dVertex
 10
157.5552434804309
 20
-150.2915882957604
 30
0.0
  0
SEQEND
  5
9F
330
9C
100
AcDbEntity
  8
_U+30EC_U+30A4_U+30E4_U+30FC 1
 62
     7
420
 16777215
370
     9
  0
POLYLINE
  5
A0
330
41
100
AcDbEntity
  8
_U+30EC_U+30A4_U+30E4_U+30FC 1
 62
     7
420
 16777215
370
     9
100
AcDb2dPolyline
 66
     1
 10
0.0
 20
0.0
 30
0.0
  0
VERTEX
  5
A1
330
A0
100
AcDbEntity
  8
_U+30EC_U+30A4_U+30E4_U+30FC 1
 62
     7
420
 16777215
370
     9
100
AcDbVertex
100
AcDb2dVertex
 10
155.0947596543141
 20
-147.2916013520661
 30
0.0
  0
VERTEX
  5
A2
330
A0
100
AcDbEntity
  8
_U+30EC_U+30A4_U+30E4_U+30FC 1
 62
     7
420
 16777215
370
     9
100
AcDbVertex
100
AcDb2dVertex
 10
157.5552434804309
 20
-147.2916013520661
 30
0.0
  0
SEQEND
  5
A3
330
A0
100
AcDbEntity
  8
_U+30EC_U+30A4_U+30E4_U+30FC 1
 62
     7
420
 16777215
370
     9
  0
INSERT
  5
A5
330
41
100
AcDbEntity
  8
_U+30EC_U+30A4_U+30E4_U+30FC 1
100
AcDbBlockReference
  2
block 4
 10
0.0
 20
0.0
 30
0.0
  0
POLYLINE
  5
AA
330
41
100
AcDbEntity
  8
_U+30EC_U+30A4_U+30E4_U+30FC 1
 62
     7
420
 16777215
370
     9
100
AcDb2dPolyline
 66
     1
 10
0.0
 20
0.0
 30
0.0
  0
VERTEX
  5
AB
330
AA
100
AcDbEntity
  8
_U+30EC_U+30A4_U+30E4_U+30FC 1
 62
     7
420
 16777215
370
     9
100
AcDbVertex
100
AcDb2dVertex
 10
27.30581138206234
 20
-154.2917002392051
 30
0.0
  0
VERTEX
  5
AC
330
AA
100
AcDbEntity
  8
_U+30EC_U+30A4_U+30E4_U+30FC 1
 62
     7
420
 16777215
370
     9
100
AcDbVertex
100
AcDb2dVertex
 10
152.3049225032666
 20
-154.2917002392051
 30
0.0
  0
SEQEND
  5
AD
330
AA
100
AcDbEntity
  8
_U+30EC_U+30A4_U+30E4_U+30FC 1
 62
     7
420
 16777215
370
     9
  0
POLYLINE
  5
AE
330
41
100
AcDbEntity
  8
_U+30EC_U+30A4_U+30E4_U+30FC 1
 62
     7
420
 16777215
370
     9
100
AcDb2dPolyline
 66
     1
 10
0.0
 20
0.0
 30
0.0
  0
VERTEX
  5
AF
330
AE
100
AcDbEntity
  8
_U+30EC_U+30A4_U+30E4_U+30FC 1
 62
     7
420
 16777215
370
     9
100
AcDbVertex
100
AcDb2dVertex
 10
27.30581138206234
 20
-152.8313413506812
 30
0.0
  0
VERTEX
  5
B0
330
AE
100
AcDbEntity
  8
_U+30EC_U+30A4_U+30E4_U+30FC 1
 62
     7
420
 16777215
370
     9
100
AcDbVertex
100
AcDb2dVertex
 10
27.30581138206234
 20
-155.2918252389548
 30
0.0
  0
SEQEND
  5
B1
330
AE
100
AcDbEntity
  8
_U+30EC_U+30A4_U+30E4_U+30FC 1
 62
     7
420
 16777215
370
     9
  0
POLYLINE
  5
B2
330
41
100
AcDbEntity
  8
_U+30EC_U+30A4_U+30E4_U+30FC 1
 62
     7
420
 16777215
370
     9
100
AcDb2dPolyline
 66
     1
 10
0.0
 20
0.0
 30
0.0
  0
VERTEX
  5
B3
330
B2
100
AcDbEntity
  8
_U+30EC_U+30A4_U+30E4_U+30FC 1
 62
     7
420
 16777215
370
     9
100
AcDbVertex
100
AcDb2dVertex
 10
152.3049225032666
 20
-152.8313413506812
 30
0.0
  0
VERTEX
  5
B4
330
B2
100
AcDbEntity
  8
_U+30EC_U+30A4_U+30E4_U+30FC 1
 62
     7
420
 16777215
370
     9
100
AcDbVertex
100
AcDb2dVertex
 10
152.3049225032666
 20
-155.2918252389548
 30
0.0
  0
SEQEND
  5
B5
330
B2
100
AcDbEntity
  8
_U+30EC_U+30A4_U+30E4_U+30FC 1
 62
     7
420
 16777215
370
     9
  0
INSERT
  5
B7
330
41
100
AcDbEntity
  8
_U+30EC_U+30A4_U+30E4_U+30FC 1
100
AcDbBlockReference
  2
block 5
 10
0.0
 20
0.0
 30
0.0
  0
POLYLINE
  5
C0
330
41
100
AcDbEntity
  8
_U+30EC_U+30A4_U+30E4_U+30FC 1
 62
     7
420
 16777215
370
     9
100
AcDb2dPolyline
 66
     1
 10
0.0
 20
0.0
 30
0.0
  0
VERTEX
  5
C1
330
C0
100
AcDbEntity
  8
_U+30EC_U+30A4_U+30E4_U+30FC 1
 62
     7
420
 16777215
370
     9
100
AcDbVertex
100
AcDb2dVertex
 10
156.5547657281774
 20
-110.2914566390939
 30
0.0
  0
VERTEX
  5
C2
330
C0
100
AcDbEntity
  8
_U+30EC_U+30A4_U+30E4_U+30FC 1
 62
     7
420
 16777215
370
     9
100
AcDbVertex
100
AcDb2dVertex
 10
156.5547657281774
 20
-147.2916013520661
 30
0.0
  0
SEQEND
  5
C3
330
C0
100
AcDbEntity
  8
_U+30EC_U+30A4_U+30E4_U+30FC 1
 62
     7
420
 16777215
370
     9
  0
POLYLINE
  5
C4
330
41
100
AcDbEntity
  8
_U+30EC_U+30A4_U+30E4_U+30FC 1
 62
     7
420
 16777215
370
     9
100
AcDb2dPolyline
 66
     1
 10
0.0
 20
0.0
 30
0.0
  0
VERTEX
  5
C5
330
C4
100
AcDbEntity
  8
_U+30EC_U+30A4_U+30E4_U+30FC 1
 62
     7
420
 16777215
370
     9
100
AcDbVertex
100
AcDb2dVertex
 10
31.09594999222592
 20
-110.2907863613162
 30
0.0
  0
VERTEX
  5
C6
330
C4
100
AcDbEntity
  8
_U+30EC_U+30A4_U+30E4_U+30FC 1
 62
     7
420
 16777215
370
     9
100
AcDbVertex
100
AcDb2dVertex
 10
157.5552434804309
 20
-110.2907863613162
 30
0.0
  0
SEQEND
  5
C7
330
C4
100
AcDbEntity
  8
_U+30EC_U+30A4_U+30E4_U+30FC 1
 62
     7
420
 16777215
370
     9
  0
INSERT
  5
C9
330
41
100
AcDbEntity
  8
_U+30EC_U+30A4_U+30E4_U+30FC 1
100
AcDbBlockReference
  2
block 6
 10
0.0
 20
0.0
 30
0.0
  0
ENDBLK
  5
44
330
41
100
AcDbEntity
  8
0
100
AcDbBlockEnd
  0
BLOCK
  5
8A
330
88
100
AcDbEntity
  8
0
100
AcDbBlockBegin
  2
block 3
 70
     0
 10
0.0
 20
0.0
 30
0.0
  3
block 3
  1

  0
SPLINE
  5
8C
330
88
100
AcDbEntity
  8
_U+30EC_U+30A4_U+30E4_U+30FC 1
370
     0
100
AcDbSpline
210
0.0
220
0.0
230
1.0
 70
    11
 71
     3
 72
    26
 73
    22
 74
     0
 42
0.0000000001
 43
0.0000000001
 12
1.0
 22
0.0
 32
0.0
 13
1.0
 23
0.0
 33
0.0
 40
0.0
 40
0.0
 40
0.0
 40
0.0
 40
1.0
 40
1.0
 40
1.0
 40
2.0
 40
2.0
 40
2.0
 40
3.0
 40
3.0
 40
3.0
 40
4.0
 40
4.0
 40
4.0
 40
5.0
 40
5.0
 40
5.0
 40
6.0
 40
6.0
 40
6.0
 40
7.0
 40
7.0
 40
7.0
 40
7.0
 10
26.99869655358019
 20
-104.9582790536216
 30
0.0
 10
26.99869655358019
 20
-104.9582790536216
 30
0.0
 10
26.99869655358019
 20
-103.8539536958247
 30
0.0
 10
26.99869655358019
 20
-103.8539536958247
 30
0.0
 10
26.99869655358019
 20
-103.8539536958247
 30
0.0
 10
26.66865640609326
 20
-103.8539536958247
 30
0.0
 10
26.66865640609326
 20
-103.8539536958247
 30
0.0
 10
26.66865640609326
 20
-103.8539536958247
 30
0.0
 10
26.66865640609326
 20
-103.7059868447332
 30
0.0
 10
26.66865640609326
 20
-103.7059868447332
 30
0.0
 10
27.00076361087134
 20
-103.6911729341466
 30
0.0
 10
27.04727239992221
 20
-103.5282199176943
 30
0.0
 10
27.07690022109536
 20
-103.4140150023583
 30
0.0
 10
27.07690022109536
 20
-103.4140150023583
 30
0.0
 10
27.22297226966995
 20
-103.4140150023583
 30
0.0
 10
27.22297226966995
 20
-103.4140150023583
 30
0.0
 10
27.22297226966995
 20
-103.4140150023583
 30
0.0
 10
27.22297226966995
 20
-104.9582790536216
 30
0.0
 10
27.22297226966995
 20
-104.9582790536216
 30
0.0
 10
27.22297226966995
 20
-104.9582790536216
 30
0.0
 10
26.99869655358019
 20
-104.9582790536216
 30
0.0
 10
26.99869655358019
 20
-104.9582790536216
 30
0.0
  0
HATCH
  5
8D
330
88
100
AcDbEntity
  8
_U+30EC_U+30A4_U+30E4_U+30FC 1
 62
     7
420
 16777215
100
AcDbHatch
 10
0.0
 20
0.0
 30
0.0
210
0.0
220
0.0
230
1.0
  2
SOLID
 70
     1
 71
     0
 91
        1
 92
        1
 93
        1
 72
     4
 94
        3
 73
     0
 74
     1
 95
       26
 96
       22
 40
0.0
 40
0.0
 40
0.0
 40
0.0
 40
1.0
 40
1.0
 40
1.0
 40
2.0
 40
2.0
 40
2.0
 40
3.0
 40
3.0
 40
3.0
 40
4.0
 40
4.0
 40
4.0
 40
5.0
 40
5.0
 40
5.0
 40
6.0
 40
6.0
 40
6.0
 40
7.0
 40
7.0
 40
7.0
 40
7.0
 10
26.99869655358019
 20
-104.9582790536216
 10
26.99869655358019
 20
-104.9582790536216
 10
26.99869655358019
 20
-103.8539536958247
 10
26.99869655358019
 20
-103.8539536958247
 10
26.99869655358019
 20
-103.8539536958247
 10
26.66865640609326
 20
-103.8539536958247
 10
26.66865640609326
 20
-103.8539536958247
 10
26.66865640609326
 20
-103.8539536958247
 10
26.66865640609326
 20
-103.7059868447332
 10
26.66865640609326
 20
-103.7059868447332
 10
27.00076361087134
 20
-103.6911729341466
 10
27.04727239992221
 20
-103.5282199176943
 10
27.07690022109536
 20
-103.4140150023583
 10
27.07690022109536
 20
-103.4140150023583
 10
27.22297226966995
 20
-103.4140150023583
 10
27.22297226966995
 20
-103.4140150023583
 10
27.22297226966995
 20
-103.4140150023583
 10
27.22297226966995
 20
-104.9582790536216
 10
27.22297226966995
 20
-104.9582790536216
 10
27.22297226966995
 20
-104.9582790536216
 10
26.99869655358019
 20
-104.9582790536216
 10
26.99869655358019
 20
-104.9582790536216
 97
        0
 97
        0
 75
     2
 76
     1
 98
        0
  0
POLYLINE
  5
8E
330
88
100
AcDbEntity
  8
_U+30EC_U+30A4_U+30E4_U+30FC 1
370
     0
100
AcDb2dPolyline
 66
     1
 10
0.0
 20
0.0
 30
0.0
  0
VERTEX
  5
8F
330
8E
100
AcDbEntity
  8
_U+30EC_U+30A4_U+30E4_U+30FC 1
370
     0
100
AcDbVertex
100
AcDb2dVertex
 10
27.78417832421715
 20
-104.9582790536216
 30
0.0
  0
VERTEX
  5
90
330
8E
100
AcDbEntity
  8
_U+30EC_U+30A4_U+30E4_U+30FC 1
370
     0
100
AcDbVertex
100
AcDb2dVertex
 10
27.78417832421715
 20
-104.7066148284241
 30
0.0
  0
VERTEX
  5
91
330
8E
100
AcDbEntity
  8
_U+30EC_U+30A4_U+30E4_U+30FC 1
370
     0
100
AcDbVertex
100
AcDb2dVertex
 10
28.03584254941465
 20
-104.7066148284241
 30
0.0
  0
VERTEX
  5
92
330
8E
100
AcDbEntity
  8
_U+30EC_U+30A4_U+30E4_U+30FC 1
370
     0
100
AcDbVertex
100
AcDb2dVertex
 10
28.03584254941465
 20
-104.9582790536216
 30
0.0
  0
VERTEX
  5
93
330
8E
100
AcDbEntity
  8
_U+30EC_U+30A4_U+30E4_U+30FC 1
370
     0
100
AcDbVertex
100
AcDb2dVertex
 10
27.78417832421715
 20
-104.9582790536216
 30
0.0
  0
SEQEND
  5
94
330
8E
100
AcDbEntity
  8
_U+30EC_U+30A4_U+30E4_U+30FC 1
370
     0
  0
HATCH
  5
95
330
88
100
AcDbEntity
  8
_U+30EC_U+30A4_U+30E4_U+30FC 1
 62
     7
420
 16777215
100
AcDbHatch
 10
0.0
 20
0.0
 30
0.0
210
0.0
220
0.0
230
1.0
  2
SOLID
 70
     1
 71
     0
 91
        1
 92
        1
 93
        4
 72
     1
 10
27.78417832421715
 20
-104.9582790536216
 11
27.78417832421715
 21
-104.7066148284241
 72
     1
 10
27.78417832421715
 20
-104.7066148284241
 11
28.03584254941465
 21
-104.7066148284241
 72
     1
 10
28.03584254941465
 20
-104.7066148284241
 11
28.03584254941465
 21
-104.9582790536216
 72
     1
 10
28.03584254941465
 20
-104.9582790536216
 11
27.78417832421715
 21
-104.9582790536216
 97
        0
 75
     2
 76
     1
 98
        0
  0
SPLINE
  5
96
330
88
100
AcDbEntity
  8
_U+30EC_U+30A4_U+30E4_U+30FC 1
370
     0
100
AcDbSpline
210
0.0
220
0.0
230
1.0
 70
    11
 71
     3
 72
    53
 73
    49
 74
     0
 42
0.0000000001
 43
0.0000000001
 12
1.0
 22
0.0
 32
0.0
 13
1.0
 23
0.0
 33
0.0
 40
0.0
 40
0.0
 40
0.0
 40
0.0
 40
1.0
 40
1.0
 40
1.0
 40
2.0
 40
2.0
 40
2.0
 40
3.0
 40
3.0
 40
3.0
 40
4.0
 40
4.0
 40
4.0
 40
5.0
 40
5.0
 40
5.0
 40
6.0
 40
6.0
 40
6.0
 40
7.0
 40
7.0
 40
7.0
 40
8.0
 40
8.0
 40
8.0
 40
9.0
 40
9.0
 40
9.0
 40
10.0
 40
10.0
 40
10.0
 40
11.0
 40
11.0
 40
11.0
 40
12.0
 40
12.0
 40
12.0
 40
13.0
 40
13.0
 40
13.0
 40
14.0
 40
14.0
 40
14.0
 40
15.0
 40
15.0
 40
15.0
 40
16.0
 40
16.0
 40
16.0
 40
16.0
 10
28.75328368421793
 20
-105.009094212029
 30
0.0
 10
28.6749077619285
 20
-105.009094212029
 30
0.0
 10
28.57344969988789
 20
-104.992040989377
 30
0.0
 10
28.47181938307302
 20
-104.9286512324484
 30
0.0
 10
28.29835882539069
 20
-104.8185804316947
 30
0.0
 10
28.2771714881564
 20
-104.6874945484809
 30
0.0
 10
28.25822346298753
 20
-104.5796630597926
 30
0.0
 10
28.25822346298753
 20
-104.5796630597926
 30
0.0
 10
28.48025986701188
 20
-104.5796630597926
 30
0.0
 10
28.48025986701188
 20
-104.5796630597926
 30
0.0
 10
28.53538139477588
 20
-104.7784450692915
 30
0.0
 10
28.66233316340734
 20
-104.8080728904647
 30
0.0
 10
28.75535074150908
 20
-104.8080728904647
 30
0.0
 10
28.8948771086617
 20
-104.8080728904647
 30
0.0
 10
29.04715032910974
 20
-104.7086818857152
 30
0.0
 10
29.04715032910974
 20
-104.4759656856866
 30
0.0
 10
29.04715032910974
 20
-104.2199950911325
 30
0.0
 10
28.86748859955396
 20
-104.1502319075562
 30
0.0
 10
28.74691025757022
 20
-104.1502319075562
 30
0.0
 10
28.71521537910592
 20
-104.1502319075562
 30
0.0
 10
28.57344969988789
 20
-104.1502319075562
 30
0.0
 10
28.48456623636844
 20
-104.2792507334788
 30
0.0
 10
28.48456623636844
 20
-104.2792507334788
 30
0.0
 10
28.30903862139496
 20
-104.2601304535357
 30
0.0
 10
28.30903862139496
 20
-104.2601304535357
 30
0.0
 10
28.30903862139496
 20
-104.2601304535357
 30
0.0
 10
28.42961696337871
 20
-103.4140150023583
 30
0.0
 10
28.42961696337871
 20
-103.4140150023583
 30
0.0
 10
28.42961696337871
 20
-103.4140150023583
 30
0.0
 10
29.20803628827091
 20
-103.4140150023583
 30
0.0
 10
29.20803628827091
 20
-103.4140150023583
 30
0.0
 10
29.20803628827091
 20
-103.4140150023583
 30
0.0
 10
29.20803628827091
 20
-103.6086628972749
 30
0.0
 10
29.20803628827091
 20
-103.6086628972749
 30
0.0
 10
29.20803628827091
 20
-103.6086628972749
 30
0.0
 10
28.59239772505676
 20
-103.6086628972749
 30
0.0
 10
28.59239772505676
 20
-103.6086628972749
 30
0.0
 10
28.59239772505676
 20
-103.6086628972749
 30
0.0
 10
28.52694091083702
 20
-104.0317206228636
 30
0.0
 10
28.52694091083702
 20
-104.0317206228636
 30
0.0
 10
28.58826361047446
 20
-103.9977864323339
 30
0.0
 10
28.6707736473462
 20
-103.9576510699307
 30
0.0
 10
28.78911267726453
 20
-103.9576510699307
 30
0.0
 10
29.04301621452744
 20
-103.9576510699307
 30
0.0
 10
29.28003878391263
 20
-104.1438584809085
 30
0.0
 10
29.28003878391263
 20
-104.4568454057434
 30
0.0
 10
29.28003878391263
 20
-104.7743109547092
 30
0.0
 10
29.05576306782287
 20
-105.009094212029
 30
0.0
 10
28.75328368421793
 20
-105.009094212029
 30
0.0
  0
HATCH
  5
97
330
88
100
AcDbEntity
  8
_U+30EC_U+30A4_U+30E4_U+30FC 1
 62
     7
420
 16777215
100
AcDbHatch
 10
0.0
 20
0.0
 30
0.0
210
0.0
220
0.0
230
1.0
  2
SOLID
 70
     1
 71
     0
 91
        1
 92
        1
 93
        1
 72
     4
 94
        3
 73
     0
 74
     1
 95
       53
 96
       49
 40
0.0
 40
0.0
 40
0.0
 40
0.0
 40
1.0
 40
1.0
 40
1.0
 40
2.0
 40
2.0
 40
2.0
 40
3.0
 40
3.0
 40
3.0
 40
4.0
 40
4.0
 40
4.0
 40
5.0
 40
5.0
 40
5.0
 40
6.0
 40
6.0
 40
6.0
 40
7.0
 40
7.0
 40
7.0
 40
8.0
 40
8.0
 40
8.0
 40
9.0
 40
9.0
 40
9.0
 40
10.0
 40
10.0
 40
10.0
 40
11.0
 40
11.0
 40
11.0
 40
12.0
 40
12.0
 40
12.0
 40
13.0
 40
13.0
 40
13.0
 40
14.0
 40
14.0
 40
14.0
 40
15.0
 40
15.0
 40
15.0
 40
16.0
 40
16.0
 40
16.0
 40
16.0
 10
28.75328368421793
 20
-105.009094212029
 10
28.6749077619285
 20
-105.009094212029
 10
28.57344969988789
 20
-104.992040989377
 10
28.47181938307302
 20
-104.9286512324484
 10
28.29835882539069
 20
-104.8185804316947
 10
28.2771714881564
 20
-104.6874945484809
 10
28.25822346298753
 20
-104.5796630597926
 10
28.25822346298753
 20
-104.5796630597926
 10
28.48025986701188
 20
-104.5796630597926
 10
28.48025986701188
 20
-104.5796630597926
 10
28.53538139477588
 20
-104.7784450692915
 10
28.66233316340734
 20
-104.8080728904647
 10
28.75535074150908
 20
-104.8080728904647
 10
28.8948771086617
 20
-104.8080728904647
 10
29.04715032910974
 20
-104.7086818857152
 10
29.04715032910974
 20
-104.4759656856866
 10
29.04715032910974
 20
-104.2199950911325
 10
28.86748859955396
 20
-104.1502319075562
 10
28.74691025757022
 20
-104.1502319075562
 10
28.71521537910592
 20
-104.1502319075562
 10
28.57344969988789
 20
-104.1502319075562
 10
28.48456623636844
 20
-104.2792507334788
 10
28.48456623636844
 20
-104.2792507334788
 10
28.30903862139496
 20
-104.2601304535357
 10
28.30903862139496
 20
-104.2601304535357
 10
28.30903862139496
 20
-104.2601304535357
 10
28.42961696337871
 20
-103.4140150023583
 10
28.42961696337871
 20
-103.4140150023583
 10
28.42961696337871
 20
-103.4140150023583
 10
29.20803628827091
 20
-103.4140150023583
 10
29.20803628827091
 20
-103.4140150023583
 10
29.20803628827091
 20
-103.4140150023583
 10
29.20803628827091
 20
-103.6086628972749
 10
29.20803628827091
 20
-103.6086628972749
 10
29.20803628827091
 20
-103.6086628972749
 10
28.59239772505676
 20
-103.6086628972749
 10
28.59239772505676
 20
-103.6086628972749
 10
28.59239772505676
 20
-103.6086628972749
 10
28.52694091083702
 20
-104.0317206228636
 10
28.52694091083702
 20
-104.0317206228636
 10
28.58826361047446
 20
-103.9977864323339
 10
28.6707736473462
 20
-103.9576510699307
 10
28.78911267726453
 20
-103.9576510699307
 10
29.04301621452744
 20
-103.9576510699307
 10
29.28003878391263
 20
-104.1438584809085
 10
29.28003878391263
 20
-104.4568454057434
 10
29.28003878391263
 20
-104.7743109547092
 10
29.05576306782287
 20
-105.009094212029
 10
28.75328368421793
 20
-105.009094212029
 97
        0
 97
        0
 75
     2
 76
     1
 98
        0
  0
ENDBLK
  5
8B
330
88
100
AcDbEntity
  8
0
100
AcDbBlockEnd
  0
BLOCK
  5
A6
330
A4
100
AcDbEntity
  8
0
100
AcDbBlockBegin
  2
block 4
 70
     0
 10
0.0
 20
0.0
 30
0.0
  3
block 4
  1

  0
SPLINE
  5
A8
330
A4
100
AcDbEntity
  8
_U+30EC_U+30A4_U+30E4_U+30FC 1
370
     0
100
AcDbSpline
210
0.0
220
0.0
230
1.0
 70
    11
 71
     3
 72
    62
 73
    58
 74
     0
 42
0.0000000001
 43
0.0000000001
 12
1.0
 22
0.0
 32
0.0
 13
1.0
 23
0.0
 33
0.0
 40
0.0
 40
0.0
 40
0.0
 40
0.0
 40
1.0
 40
1.0
 40
1.0
 40
2.0
 40
2.0
 40
2.0
 40
3.0
 40
3.0
 40
3.0
 40
4.0
 40
4.0
 40
4.0
 40
5.0
 40
5.0
 40
5.0
 40
6.0
 40
6.0
 40
6.0
 40
7.0
 40
7.0
 40
7.0
 40
8.0
 40
8.0
 40
8.0
 40
9.0
 40
9.0
 40
9.0
 40
10.0
 40
10.0
 40
10.0
 40
11.0
 40
11.0
 40
11.0
 40
12.0
 40
12.0
 40
12.0
 40
13.0
 40
13.0
 40
13.0
 40
14.0
 40
14.0
 40
14.0
 40
15.0
 40
15.0
 40
15.0
 40
16.0
 40
16.0
 40
16.0
 40
17.0
 40
17.0
 40
17.0
 40
18.0
 40
18.0
 40
18.0
 40
19.0
 40
19.0
 40
19.0
 40
19.0
 10
154.9552272833098
 20
-148.7988416511683
 30
0.0
 10
154.9552272833098
 20
-148.8942707961098
 30
0.0
 10
154.9342122008498
 20
-149.1120008307776
 30
0.0
 10
154.7481770446463
 20
-149.2370577968921
 30
0.0
 10
154.6358669318271
 20
-149.311127349825
 30
0.0
 10
154.5366481818519
 20
-149.3152614644073
 30
0.0
 10
154.4518988329148
 20
-149.3193955789896
 30
0.0
 10
154.4518988329148
 20
-149.3193955789896
 30
0.0
 10
154.4518988329148
 20
-149.0992539774821
 30
0.0
 10
154.4518988329148
 20
-149.0992539774821
 30
0.0
 10
154.5259683858477
 20
-149.097186920191
 30
0.0
 10
154.7605793883932
 20
-149.0868516337353
 30
0.0
 10
154.7605793883932
 20
-148.8033202752992
 30
0.0
 10
154.7605793883932
 20
-148.6658609654377
 30
0.0
 10
154.6909884595912
 20
-148.5132432354411
 30
0.0
 10
154.4625786289191
 20
-148.5132432354411
 30
0.0
 10
154.3461344015176
 20
-148.5132432354411
 30
0.0
 10
154.2975585551756
 20
-148.5514837953274
 30
0.0
 10
154.2658636767113
 20
-148.5831786737917
 30
0.0
 10
154.1917941237784
 20
-148.6572482267246
 30
0.0
 10
154.179047270483
 20
-148.773692454126
 30
0.0
 10
154.179047270483
 20
-148.8284694723415
 30
0.0
 10
154.179047270483
 20
-148.8477620070589
 30
0.0
 10
154.1811143277742
 20
-148.8835910001055
 30
0.0
 10
154.1852484423565
 20
-148.9111517639875
 30
0.0
 10
154.1852484423565
 20
-148.9111517639875
 30
0.0
 10
153.9906005474399
 20
-148.9111517639875
 30
0.0
 10
153.9906005474399
 20
-148.9111517639875
 30
0.0
 10
153.9971462288618
 20
-148.8729112041012
 30
0.0
 10
153.999213286153
 20
-148.8308810391812
 30
0.0
 10
153.999213286153
 20
-148.8243353577592
 30
0.0
 10
153.999213286153
 20
-148.7588785435395
 30
0.0
 10
153.9778536941444
 20
-148.5600965340405
 30
0.0
 10
153.7411756343078
 20
-148.5600965340405
 30
0.0
 10
153.5634087072689
 20
-148.5600965340405
 30
0.0
 10
153.5082871795049
 20
-148.69101016248
 30
0.0
 10
153.5082871795049
 20
-148.801253218008
 30
0.0
 10
153.5082871795049
 20
-149.0654920417267
 30
0.0
 10
153.7411756343078
 20
-149.0741047804398
 30
0.0
 10
153.812833620401
 20
-149.0782388950221
 30
0.0
 10
153.812833620401
 20
-149.0782388950221
 30
0.0
 10
153.812833620401
 20
-149.2814995286519
 30
0.0
 10
153.812833620401
 20
-149.2814995286519
 30
0.0
 10
153.6881211638349
 20
-149.2728867899387
 30
0.0
 10
153.3115722272971
 20
-149.2453260260567
 30
0.0
 10
153.3115722272971
 20
-148.7885063647126
 30
0.0
 10
153.3115722272971
 20
-148.5642306486228
 30
0.0
 10
153.4386962507028
 20
-148.3230739646554
 30
0.0
 10
153.7346299528858
 20
-148.3230739646554
 30
0.0
 10
153.9210096186378
 20
-148.3230739646554
 30
0.0
 10
154.0033474007353
 20
-148.4181586000483
 30
0.0
 10
154.0646701003727
 20
-148.517721859572
 30
0.0
 10
154.0922308642547
 20
-148.4563991599345
 30
0.0
 10
154.1725015890611
 20
-148.2744981183133
 30
0.0
 10
154.4498317756237
 20
-148.2744981183133
 30
0.0
 10
154.7881401522752
 20
-148.2744981183133
 30
0.0
 10
154.9552272833098
 20
-148.5218559741543
 30
0.0
 10
154.9552272833098
 20
-148.7988416511683
 30
0.0
  0
HATCH
  5
A9
330
A4
100
AcDbEntity
  8
_U+30EC_U+30A4_U+30E4_U+30FC 1
 62
     7
420
 16777215
100
AcDbHatch
 10
0.0
 20
0.0
 30
0.0
210
0.0
220
0.0
230
1.0
  2
SOLID
 70
     1
 71
     0
 91
        1
 92
        1
 93
        1
 72
     4
 94
        3
 73
     0
 74
     1
 95
       62
 96
       58
 40
0.0
 40
0.0
 40
0.0
 40
0.0
 40
1.0
 40
1.0
 40
1.0
 40
2.0
 40
2.0
 40
2.0
 40
3.0
 40
3.0
 40
3.0
 40
4.0
 40
4.0
 40
4.0
 40
5.0
 40
5.0
 40
5.0
 40
6.0
 40
6.0
 40
6.0
 40
7.0
 40
7.0
 40
7.0
 40
8.0
 40
8.0
 40
8.0
 40
9.0
 40
9.0
 40
9.0
 40
10.0
 40
10.0
 40
10.0
 40
11.0
 40
11.0
 40
11.0
 40
12.0
 40
12.0
 40
12.0
 40
13.0
 40
13.0
 40
13.0
 40
14.0
 40
14.0
 40
14.0
 40
15.0
 40
15.0
 40
15.0
 40
16.0
 40
16.0
 40
16.0
 40
17.0
 40
17.0
 40
17.0
 40
18.0
 40
18.0
 40
18.0
 40
19.0
 40
19.0
 40
19.0
 40
19.0
 10
154.9552272833098
 20
-148.7988416511683
 10
154.9552272833098
 20
-148.8942707961098
 10
154.9342122008498
 20
-149.1120008307776
 10
154.7481770446463
 20
-149.2370577968921
 10
154.6358669318271
 20
-149.311127349825
 10
154.5366481818519
 20
-149.3152614644073
 10
154.4518988329148
 20
-149.3193955789896
 10
154.4518988329148
 20
-149.3193955789896
 10
154.4518988329148
 20
-149.0992539774821
 10
154.4518988329148
 20
-149.0992539774821
 10
154.5259683858477
 20
-149.097186920191
 10
154.7605793883932
 20
-149.0868516337353
 10
154.7605793883932
 20
-148.8033202752992
 10
154.7605793883932
 20
-148.6658609654377
 10
154.6909884595912
 20
-148.5132432354411
 10
154.4625786289191
 20
-148.5132432354411
 10
154.3461344015176
 20
-148.5132432354411
 10
154.2975585551756
 20
-148.5514837953274
 10
154.2658636767113
 20
-148.5831786737917
 10
154.1917941237784
 20
-148.6572482267246
 10
154.179047270483
 20
-148.773692454126
 10
154.179047270483
 20
-148.8284694723415
 10
154.179047270483
 20
-148.8477620070589
 10
154.1811143277742
 20
-148.8835910001055
 10
154.1852484423565
 20
-148.9111517639875
 10
154.1852484423565
 20
-148.9111517639875
 10
153.9906005474399
 20
-148.9111517639875
 10
153.9906005474399
 20
-148.9111517639875
 10
153.9971462288618
 20
-148.8729112041012
 10
153.999213286153
 20
-148.8308810391812
 10
153.999213286153
 20
-148.8243353577592
 10
153.999213286153
 20
-148.7588785435395
 10
153.9778536941444
 20
-148.5600965340405
 10
153.7411756343078
 20
-148.5600965340405
 10
153.5634087072689
 20
-148.5600965340405
 10
153.5082871795049
 20
-148.69101016248
 10
153.5082871795049
 20
-148.801253218008
 10
153.5082871795049
 20
-149.0654920417267
 10
153.7411756343078
 20
-149.0741047804398
 10
153.812833620401
 20
-149.0782388950221
 10
153.812833620401
 20
-149.0782388950221
 10
153.812833620401
 20
-149.2814995286519
 10
153.812833620401
 20
-149.2814995286519
 10
153.6881211638349
 20
-149.2728867899387
 10
153.3115722272971
 20
-149.2453260260567
 10
153.3115722272971
 20
-148.7885063647126
 10
153.3115722272971
 20
-148.5642306486228
 10
153.4386962507028
 20
-148.3230739646554
 10
153.7346299528858
 20
-148.3230739646554
 10
153.9210096186378
 20
-148.3230739646554
 10
154.0033474007353
 20
-148.4181586000483
 10
154.0646701003727
 20
-148.517721859572
 10
154.0922308642547
 20
-148.4563991599345
 10
154.1725015890611
 20
-148.2744981183133
 10
154.4498317756237
 20
-148.2744981183133
 10
154.7881401522752
 20
-148.2744981183133
 10
154.9552272833098
 20
-148.5218559741543
 10
154.9552272833098
 20
-148.7988416511683
 97
        0
 97
        0
 75
     2
 76
     1
 98
        0
  0
ENDBLK
  5
A7
330
A4
100
AcDbEntity
  8
0
100
AcDbBlockEnd
  0
BLOCK
  5
B8
330
B6
100
AcDbEntity
  8
0
100
AcDbBlockBegin
  2
block 5
 70
     0
 10
0.0
 20
0.0
 30
0.0
  3
block 5
  1

  0
SPLINE
  5
BA
330
B6
100
AcDbEntity
  8
_U+30EC_U+30A4_U+30E4_U+30FC 1
370
     0
100
AcDbSpline
210
0.0
220
0.0
230
1.0
 70
    11
 71
     3
 72
    26
 73
    22
 74
     0
 42
0.0000000001
 43
0.0000000001
 12
1.0
 22
0.0
 32
0.0
 13
1.0
 23
0.0
 33
0.0
 40
0.0
 40
0.0
 40
0.0
 40
0.0
 40
1.0
 40
1.0
 40
1.0
 40
2.0
 40
2.0
 40
2.0
 40
3.0
 40
3.0
 40
3.0
 40
4.0
 40
4.0
 40
4.0
 40
5.0
 40
5.0
 40
5.0
 40
6.0
 40
6.0
 40
6.0
 40
7.0
 40
7.0
 40
7.0
 40
7.0
 10
88.58012286196956
 20
-153.6460909989149
 30
0.0
 10
88.58012286196956
 20
-153.6460909989149
 30
0.0
 10
88.58012286196956
 20
-152.5419378958923
 30
0.0
 10
88.58012286196956
 20
-152.5419378958923
 30
0.0
 10
88.58012286196956
 20
-152.5419378958923
 30
0.0
 10
88.25008271448262
 20
-152.5419378958923
 30
0.0
 10
88.25008271448262
 20
-152.5419378958923
 30
0.0
 10
88.25008271448262
 20
-152.5419378958923
 30
0.0
 10
88.25008271448262
 20
-152.3937987900266
 30
0.0
 10
88.25008271448262
 20
-152.3937987900266
 30
0.0
 10
88.58218991926071
 20
-152.37898487944
 30
0.0
 10
88.62869870831157
 20
-152.2160318629877
 30
0.0
 10
88.65832652948473
 20
-152.1016546928774
 30
0.0
 10
88.65832652948473
 20
-152.1016546928774
 30
0.0
 10
88.80439857805932
 20
-152.1016546928774
 30
0.0
 10
88.80439857805932
 20
-152.1016546928774
 30
0.0
 10
88.80439857805932
 20
-152.1016546928774
 30
0.0
 10
88.80439857805932
 20
-153.6460909989149
 30
0.0
 10
88.80439857805932
 20
-153.6460909989149
 30
0.0
 10
88.80439857805932
 20
-153.6460909989149
 30
0.0
 10
88.58012286196956
 20
-153.6460909989149
 30
0.0
 10
88.58012286196956
 20
-153.6460909989149
 30
0.0
  0
HATCH
  5
BB
330
B6
100
AcDbEntity
  8
_U+30EC_U+30A4_U+30E4_U+30FC 1
 62
     7
420
 16777215
100
AcDbHatch
 10
0.0
 20
0.0
 30
0.0
210
0.0
220
0.0
230
1.0
  2
SOLID
 70
     1
 71
     0
 91
        1
 92
        1
 93
        1
 72
     4
 94
        3
 73
     0
 74
     1
 95
       26
 96
       22
 40
0.0
 40
0.0
 40
0.0
 40
0.0
 40
1.0
 40
1.0
 40
1.0
 40
2.0
 40
2.0
 40
2.0
 40
3.0
 40
3.0
 40
3.0
 40
4.0
 40
4.0
 40
4.0
 40
5.0
 40
5.0
 40
5.0
 40
6.0
 40
6.0
 40
6.0
 40
7.0
 40
7.0
 40
7.0
 40
7.0
 10
88.58012286196956
 20
-153.6460909989149
 10
88.58012286196956
 20
-153.6460909989149
 10
88.58012286196956
 20
-152.5419378958923
 10
88.58012286196956
 20
-152.5419378958923
 10
88.58012286196956
 20
-152.5419378958923
 10
88.25008271448262
 20
-152.5419378958923
 10
88.25008271448262
 20
-152.5419378958923
 10
88.25008271448262
 20
-152.5419378958923
 10
88.25008271448262
 20
-152.3937987900266
 10
88.25008271448262
 20
-152.3937987900266
 10
88.58218991926071
 20
-152.37898487944
 10
88.62869870831157
 20
-152.2160318629877
 10
88.65832652948473
 20
-152.1016546928774
 10
88.65832652948473
 20
-152.1016546928774
 10
88.80439857805932
 20
-152.1016546928774
 10
88.80439857805932
 20
-152.1016546928774
 10
88.80439857805932
 20
-152.1016546928774
 10
88.80439857805932
 20
-153.6460909989149
 10
88.80439857805932
 20
-153.6460909989149
 10
88.80439857805932
 20
-153.6460909989149
 10
88.58012286196956
 20
-153.6460909989149
 10
88.58012286196956
 20
-153.6460909989149
 97
        0
 97
        0
 75
     2
 76
     1
 98
        0
  0
SPLINE
  5
BC
330
B6
100
AcDbEntity
  8
_U+30EC_U+30A4_U+30E4_U+30FC 1
370
     0
100
AcDbSpline
210
0.0
220
0.0
230
1.0
 70
    11
 71
     3
 72
    44
 73
    40
 74
     0
 42
0.0000000001
 43
0.0000000001
 12
1.0
 22
0.0
 32
0.0
 13
1.0
 23
0.0
 33
0.0
 40
0.0
 40
0.0
 40
0.0
 40
0.0
 40
1.0
 40
1.0
 40
1.0
 40
2.0
 40
2.0
 40
2.0
 40
3.0
 40
3.0
 40
3.0
 40
4.0
 40
4.0
 40
4.0
 40
5.0
 40
5.0
 40
5.0
 40
6.0
 40
6.0
 40
6.0
 40
7.0
 40
7.0
 40
7.0
 40
8.0
 40
8.0
 40
8.0
 40
9.0
 40
9.0
 40
9.0
 40
10.0
 40
10.0
 40
10.0
 40
11.0
 40
11.0
 40
11.0
 40
12.0
 40
12.0
 40
12.0
 40
13.0
 40
13.0
 40
13.0
 40
13.0
 10
89.89856090417467
 20
-153.0642143714562
 30
0.0
 10
89.68083086950688
 20
-153.2230332733262
 30
0.0
 10
89.58781329140514
 20
-153.2971028262591
 30
0.0
 10
89.53889293551458
 20
-153.440763307994
 30
0.0
 10
89.53889293551458
 20
-153.440763307994
 30
0.0
 10
90.31748451518105
 20
-153.440763307994
 30
0.0
 10
90.31748451518105
 20
-153.440763307994
 30
0.0
 10
90.31748451518105
 20
-153.440763307994
 30
0.0
 10
90.31748451518105
 20
-153.6460909989149
 30
0.0
 10
90.31748451518105
 20
-153.6460909989149
 30
0.0
 10
90.31748451518105
 20
-153.6460909989149
 30
0.0
 10
89.2894680223825
 20
-153.6460909989149
 30
0.0
 10
89.2894680223825
 20
-153.6460909989149
 30
0.0
 10
89.3211629008468
 20
-153.2884900875459
 30
0.0
 10
89.38661971506654
 20
-153.2102864200308
 30
0.0
 10
89.77178139031747
 20
-152.9119411510081
 30
0.0
 10
90.02775198487154
 20
-152.7131591415092
 30
0.0
 10
90.09320879909129
 20
-152.6452907604498
 30
0.0
 10
90.09320879909129
 20
-152.5078314505883
 30
0.0
 10
90.09320879909129
 20
-152.3893201658957
 30
0.0
 10
90.02120630344956
 20
-152.2584065374562
 30
0.0
 10
89.8244913512418
 20
-152.2584065374562
 30
0.0
 10
89.56438664210543
 20
-152.2584065374562
 30
0.0
 10
89.55611841294083
 20
-152.4888834254195
 30
0.0
 10
89.55163978881001
 20
-152.6053276528209
 30
0.0
 10
89.55163978881001
 20
-152.6053276528209
 30
0.0
 10
89.32736407272024
 20
-152.6053276528209
 30
0.0
 10
89.32736407272024
 20
-152.6053276528209
 30
0.0
 10
89.33597681143337
 20
-152.4782036294152
 30
0.0
 10
89.34665660743765
 20
-152.3662380261446
 30
0.0
 10
89.42692733224396
 20
-152.247726741452
 30
0.0
 10
89.53682587822344
 20
-152.0868407822908
 30
0.0
 10
89.72320554397545
 20
-152.0530788465354
 30
0.0
 10
89.83930526182837
 20
-152.0530788465354
 30
0.0
 10
90.11663544839098
 20
-152.0530788465354
 30
0.0
 10
90.32403019660302
 20
-152.2370469454477
 30
0.0
 10
90.32403019660302
 20
-152.5098985078795
 30
0.0
 10
90.32403019660302
 20
-152.7386528481001
 30
0.0
 10
90.20758596920157
 20
-152.8378715980753
 30
0.0
 10
89.89856090417467
 20
-153.0642143714562
 30
0.0
  0
HATCH
  5
BD
330
B6
100
AcDbEntity
  8
_U+30EC_U+30A4_U+30E4_U+30FC 1
 62
     7
420
 16777215
100
AcDbHatch
 10
0.0
 20
0.0
 30
0.0
210
0.0
220
0.0
230
1.0
  2
SOLID
 70
     1
 71
     0
 91
        1
 92
        1
 93
        1
 72
     4
 94
        3
 73
     0
 74
     1
 95
       44
 96
       40
 40
0.0
 40
0.0
 40
0.0
 40
0.0
 40
1.0
 40
1.0
 40
1.0
 40
2.0
 40
2.0
 40
2.0
 40
3.0
 40
3.0
 40
3.0
 40
4.0
 40
4.0
 40
4.0
 40
5.0
 40
5.0
 40
5.0
 40
6.0
 40
6.0
 40
6.0
 40
7.0
 40
7.0
 40
7.0
 40
8.0
 40
8.0
 40
8.0
 40
9.0
 40
9.0
 40
9.0
 40
10.0
 40
10.0
 40
10.0
 40
11.0
 40
11.0
 40
11.0
 40
12.0
 40
12.0
 40
12.0
 40
13.0
 40
13.0
 40
13.0
 40
13.0
 10
89.89856090417467
 20
-153.0642143714562
 10
89.68083086950688
 20
-153.2230332733262
 10
89.58781329140514
 20
-153.2971028262591
 10
89.53889293551458
 20
-153.440763307994
 10
89.53889293551458
 20
-153.440763307994
 10
90.31748451518105
 20
-153.440763307994
 10
90.31748451518105
 20
-153.440763307994
 10
90.31748451518105
 20
-153.440763307994
 10
90.31748451518105
 20
-153.6460909989149
 10
90.31748451518105
 20
-153.6460909989149
 10
90.31748451518105
 20
-153.6460909989149
 10
89.2894680223825
 20
-153.6460909989149
 10
89.2894680223825
 20
-153.6460909989149
 10
89.3211629008468
 20
-153.2884900875459
 10
89.38661971506654
 20
-153.2102864200308
 10
89.77178139031747
 20
-152.9119411510081
 10
90.02775198487154
 20
-152.7131591415092
 10
90.09320879909129
 20
-152.6452907604498
 10
90.09320879909129
 20
-152.5078314505883
 10
90.09320879909129
 20
-152.3893201658957
 10
90.02120630344956
 20
-152.2584065374562
 10
89.8244913512418
 20
-152.2584065374562
 10
89.56438664210543
 20
-152.2584065374562
 10
89.55611841294083
 20
-152.4888834254195
 10
89.55163978881001
 20
-152.6053276528209
 10
89.55163978881001
 20
-152.6053276528209
 10
89.32736407272024
 20
-152.6053276528209
 10
89.32736407272024
 20
-152.6053276528209
 10
89.33597681143337
 20
-152.4782036294152
 10
89.34665660743765
 20
-152.3662380261446
 10
89.42692733224396
 20
-152.247726741452
 10
89.53682587822344
 20
-152.0868407822908
 10
89.72320554397545
 20
-152.0530788465354
 10
89.83930526182837
 20
-152.0530788465354
 10
90.11663544839098
 20
-152.0530788465354
 10
90.32403019660302
 20
-152.2370469454477
 10
90.32403019660302
 20
-152.5098985078795
 10
90.32403019660302
 20
-152.7386528481001
 10
90.20758596920157
 20
-152.8378715980753
 10
89.89856090417467
 20
-153.0642143714562
 97
        0
 97
        0
 75
     2
 76
     1
 98
        0
  0
SPLINE
  5
BE
330
B6
100
AcDbEntity
  8
_U+30EC_U+30A4_U+30E4_U+30FC 1
370
     0
100
AcDbSpline
210
0.0
220
0.0
230
1.0
 70
    11
 71
     3
 72
    53
 73
    49
 74
     0
 42
0.0000000001
 43
0.0000000001
 12
1.0
 22
0.0
 32
0.0
 13
1.0
 23
0.0
 33
0.0
 40
0.0
 40
0.0
 40
0.0
 40
0.0
 40
1.0
 40
1.0
 40
1.0
 40
2.0
 40
2.0
 40
2.0
 40
3.0
 40
3.0
 40
3.0
 40
4.0
 40
4.0
 40
4.0
 40
5.0
 40
5.0
 40
5.0
 40
6.0
 40
6.0
 40
6.0
 40
7.0
 40
7.0
 40
7.0
 40
8.0
 40
8.0
 40
8.0
 40
9.0
 40
9.0
 40
9.0
 40
10.0
 40
10.0
 40
10.0
 40
11.0
 40
11.0
 40
11.0
 40
12.0
 40
12.0
 40
12.0
 40
13.0
 40
13.0
 40
13.0
 40
14.0
 40
14.0
 40
14.0
 40
15.0
 40
15.0
 40
15.0
 40
16.0
 40
16.0
 40
16.0
 40
16.0
 10
90.9634399186654
 20
-153.696733902548
 30
0.0
 10
90.88523625115022
 20
-153.696733902548
 30
0.0
 10
90.78360593433536
 20
-153.6798529346703
 30
0.0
 10
90.68197561752048
 20
-153.6164631777417
 30
0.0
 10
90.50868731461242
 20
-153.5065646317622
 30
0.0
 10
90.48732772260387
 20
-153.3753064937742
 30
0.0
 10
90.468379697435
 20
-153.2674750050859
 30
0.0
 10
90.468379697435
 20
-153.2674750050859
 30
0.0
 10
90.6905883562336
 20
-153.2674750050859
 30
0.0
 10
90.6905883562336
 20
-153.2674750050859
 30
0.0
 10
90.74536537444908
 20
-153.4662570145848
 30
0.0
 10
90.87248939785479
 20
-153.495884835758
 30
0.0
 10
90.96550697595654
 20
-153.495884835758
 30
0.0
 10
91.10503334310916
 20
-153.495884835758
 30
0.0
 10
91.25730656355721
 20
-153.3963215762343
 30
0.0
 10
91.25730656355721
 20
-153.1637776309799
 30
0.0
 10
91.25730656355721
 20
-152.9078070364258
 30
0.0
 10
91.07747257922716
 20
-152.8378715980753
 30
0.0
 10
90.95689423724342
 20
-152.8378715980753
 30
0.0
 10
90.92519935877912
 20
-152.8378715980753
 30
0.0
 10
90.78360593433536
 20
-152.8378715980753
 30
0.0
 10
90.6947224708159
 20
-152.9670626787721
 30
0.0
 10
90.6947224708159
 20
-152.9670626787721
 30
0.0
 10
90.51902260106816
 20
-152.9481146536033
 30
0.0
 10
90.51902260106816
 20
-152.9481146536033
 30
0.0
 10
90.51902260106816
 20
-152.9481146536033
 30
0.0
 10
90.6396009430519
 20
-152.1016546928774
 30
0.0
 10
90.6396009430519
 20
-152.1016546928774
 30
0.0
 10
90.6396009430519
 20
-152.1016546928774
 30
0.0
 10
91.41836477749264
 20
-152.1016546928774
 30
0.0
 10
91.41836477749264
 20
-152.1016546928774
 30
0.0
 10
91.41836477749264
 20
-152.1016546928774
 30
0.0
 10
91.41836477749264
 20
-152.296302587794
 30
0.0
 10
91.41836477749264
 20
-152.296302587794
 30
0.0
 10
91.41836477749264
 20
-152.296302587794
 30
0.0
 10
90.80255395950422
 20
-152.296302587794
 30
0.0
 10
90.80255395950422
 20
-152.296302587794
 30
0.0
 10
90.80255395950422
 20
-152.296302587794
 30
0.0
 10
90.73709714528448
 20
-152.7193603133827
 30
0.0
 10
90.73709714528448
 20
-152.7193603133827
 30
0.0
 10
90.79841984492192
 20
-152.6855983776272
 30
0.0
 10
90.88075762701939
 20
-152.6452907604498
 30
0.0
 10
90.999268911712
 20
-152.6452907604498
 30
0.0
 10
91.25317244897491
 20
-152.6452907604498
 30
0.0
 10
91.49036727313435
 20
-152.8316704262018
 30
0.0
 10
91.49036727313435
 20
-153.144829605811
 30
0.0
 10
91.49036727313435
 20
-153.4621229000025
 30
0.0
 10
91.26591930227033
 20
-153.696733902548
 30
0.0
 10
90.9634399186654
 20
-153.696733902548
 30
0.0
  0
HATCH
  5
BF
330
B6
100
AcDbEntity
  8
_U+30EC_U+30A4_U+30E4_U+30FC 1
 62
     7
420
 16777215
100
AcDbHatch
 10
0.0
 20
0.0
 30
0.0
210
0.0
220
0.0
230
1.0
  2
SOLID
 70
     1
 71
     0
 91
        1
 92
        1
 93
        1
 72
     4
 94
        3
 73
     0
 74
     1
 95
       53
 96
       49
 40
0.0
 40
0.0
 40
0.0
 40
0.0
 40
1.0
 40
1.0
 40
1.0
 40
2.0
 40
2.0
 40
2.0
 40
3.0
 40
3.0
 40
3.0
 40
4.0
 40
4.0
 40
4.0
 40
5.0
 40
5.0
 40
5.0
 40
6.0
 40
6.0
 40
6.0
 40
7.0
 40
7.0
 40
7.0
 40
8.0
 40
8.0
 40
8.0
 40
9.0
 40
9.0
 40
9.0
 40
10.0
 40
10.0
 40
10.0
 40
11.0
 40
11.0
 40
11.0
 40
12.0
 40
12.0
 40
12.0
 40
13.0
 40
13.0
 40
13.0
 40
14.0
 40
14.0
 40
14.0
 40
15.0
 40
15.0
 40
15.0
 40
16.0
 40
16.0
 40
16.0
 40
16.0
 10
90.9634399186654
 20
-153.696733902548
 10
90.88523625115022
 20
-153.696733902548
 10
90.78360593433536
 20
-153.6798529346703
 10
90.68197561752048
 20
-153.6164631777417
 10
90.50868731461242
 20
-153.5065646317622
 10
90.48732772260387
 20
-153.3753064937742
 10
90.468379697435
 20
-153.2674750050859
 10
90.468379697435
 20
-153.2674750050859
 10
90.6905883562336
 20
-153.2674750050859
 10
90.6905883562336
 20
-153.2674750050859
 10
90.74536537444908
 20
-153.4662570145848
 10
90.87248939785479
 20
-153.495884835758
 10
90.96550697595654
 20
-153.495884835758
 10
91.10503334310916
 20
-153.495884835758
 10
91.25730656355721
 20
-153.3963215762343
 10
91.25730656355721
 20
-153.1637776309799
 10
91.25730656355721
 20
-152.9078070364258
 10
91.07747257922716
 20
-152.8378715980753
 10
90.95689423724342
 20
-152.8378715980753
 10
90.92519935877912
 20
-152.8378715980753
 10
90.78360593433536
 20
-152.8378715980753
 10
90.6947224708159
 20
-152.9670626787721
 10
90.6947224708159
 20
-152.9670626787721
 10
90.51902260106816
 20
-152.9481146536033
 10
90.51902260106816
 20
-152.9481146536033
 10
90.51902260106816
 20
-152.9481146536033
 10
90.6396009430519
 20
-152.1016546928774
 10
90.6396009430519
 20
-152.1016546928774
 10
90.6396009430519
 20
-152.1016546928774
 10
91.41836477749264
 20
-152.1016546928774
 10
91.41836477749264
 20
-152.1016546928774
 10
91.41836477749264
 20
-152.1016546928774
 10
91.41836477749264
 20
-152.296302587794
 10
91.41836477749264
 20
-152.296302587794
 10
91.41836477749264
 20
-152.296302587794
 10
90.80255395950422
 20
-152.296302587794
 10
90.80255395950422
 20
-152.296302587794
 10
90.80255395950422
 20
-152.296302587794
 10
90.73709714528448
 20
-152.7193603133827
 10
90.73709714528448
 20
-152.7193603133827
 10
90.79841984492192
 20
-152.6855983776272
 10
90.88075762701939
 20
-152.6452907604498
 10
90.999268911712
 20
-152.6452907604498
 10
91.25317244897491
 20
-152.6452907604498
 10
91.49036727313435
 20
-152.8316704262018
 10
91.49036727313435
 20
-153.144829605811
 10
91.49036727313435
 20
-153.4621229000025
 10
91.26591930227033
 20
-153.696733902548
 10
90.9634399186654
 20
-153.696733902548
 97
        0
 97
        0
 75
     2
 76
     1
 98
        0
  0
ENDBLK
  5
B9
330
B6
100
AcDbEntity
  8
0
100
AcDbBlockEnd
  0
BLOCK
  5
CA
330
C8
100
AcDbEntity
  8
0
100
AcDbBlockBegin
  2
block 6
 70
     0
 10
0.0
 20
0.0
 30
0.0
  3
block 6
  1

  0
SPLINE
  5
CC
330
C8
100
AcDbEntity
  8
_U+30EC_U+30A4_U+30E4_U+30FC 1
370
     0
100
AcDbSpline
210
0.0
220
0.0
230
1.0
 70
    11
 71
     3
 72
    62
 73
    58
 74
     0
 42
0.0000000001
 43
0.0000000001
 12
1.0
 22
0.0
 32
0.0
 13
1.0
 23
0.0
 33
0.0
 40
0.0
 40
0.0
 40
0.0
 40
0.0
 40
1.0
 40
1.0
 40
1.0
 40
2.0
 40
2.0
 40
2.0
 40
3.0
 40
3.0
 40
3.0
 40
4.0
 40
4.0
 40
4.0
 40
5.0
 40
5.0
 40
5.0
 40
6.0
 40
6.0
 40
6.0
 40
7.0
 40
7.0
 40
7.0
 40
8.0
 40
8.0
 40
8.0
 40
9.0
 40
9.0
 40
9.0
 40
10.0
 40
10.0
 40
10.0
 40
11.0
 40
11.0
 40
11.0
 40
12.0
 40
12.0
 40
12.0
 40
13.0
 40
13.0
 40
13.0
 40
14.0
 40
14.0
 40
14.0
 40
15.0
 40
15.0
 40
15.0
 40
16.0
 40
16.0
 40
16.0
 40
17.0
 40
17.0
 40
17.0
 40
18.0
 40
18.0
 40
18.0
 40
19.0
 40
19.0
 40
19.0
 40
19.0
 10
154.9541937546642
 20
-129.2878878800044
 30
0.0
 10
154.9541937546642
 20
-129.3833170249459
 30
0.0
 10
154.9331786722042
 20
-129.6010470596136
 30
0.0
 10
154.7471435160007
 20
-129.7261040257282
 30
0.0
 10
154.6348334031816
 20
-129.8001735786611
 30
0.0
 10
154.5356146532064
 20
-129.8043076932434
 30
0.0
 10
154.4508653042692
 20
-129.8084418078257
 30
0.0
 10
154.4508653042692
 20
-129.8084418078257
 30
0.0
 10
154.4508653042692
 20
-129.5883002063182
 30
0.0
 10
154.4508653042692
 20
-129.5883002063182
 30
0.0
 10
154.5249348572021
 20
-129.5862331490271
 30
0.0
 10
154.7595458597476
 20
-129.5758978625713
 30
0.0
 10
154.7595458597476
 20
-129.2923665041353
 30
0.0
 10
154.7595458597476
 20
-129.1549071942738
 30
0.0
 10
154.6899549309456
 20
-129.0022894642772
 30
0.0
 10
154.4615451002735
 20
-129.0022894642772
 30
0.0
 10
154.3451008728721
 20
-129.0022894642772
 30
0.0
 10
154.29652502653
 20
-129.0405300241635
 30
0.0
 10
154.2648301480658
 20
-129.0722249026278
 30
0.0
 10
154.1907605951329
 20
-129.1462944555606
 30
0.0
 10
154.1780137418374
 20
-129.2627386829621
 30
0.0
 10
154.1780137418374
 20
-129.3175157011776
 30
0.0
 10
154.1780137418374
 20
-129.336808235895
 30
0.0
 10
154.1800807991286
 20
-129.3726372289416
 30
0.0
 10
154.1842149137109
 20
-129.4001979928236
 30
0.0
 10
154.1842149137109
 20
-129.4001979928236
 30
0.0
 10
153.9895670187943
 20
-129.4001979928236
 30
0.0
 10
153.9895670187943
 20
-129.4001979928236
 30
0.0
 10
153.9961127002163
 20
-129.3619574329373
 30
0.0
 10
153.9981797575074
 20
-129.3199272680172
 30
0.0
 10
153.9981797575074
 20
-129.3133815865953
 30
0.0
 10
153.9981797575074
 20
-129.2479247723755
 30
0.0
 10
153.9768201654989
 20
-129.0491427628766
 30
0.0
 10
153.7401421056622
 20
-129.0491427628766
 30
0.0
 10
153.5623751786233
 20
-129.0491427628766
 30
0.0
 10
153.5072536508593
 20
-129.1800563913161
 30
0.0
 10
153.5072536508593
 20
-129.2902994468441
 30
0.0
 10
153.5072536508593
 20
-129.5545382705628
 30
0.0
 10
153.7401421056622
 20
-129.5631510092759
 30
0.0
 10
153.8118000917554
 20
-129.5672851238582
 30
0.0
 10
153.8118000917554
 20
-129.5672851238582
 30
0.0
 10
153.8118000917554
 20
-129.7705457574879
 30
0.0
 10
153.8118000917554
 20
-129.7705457574879
 30
0.0
 10
153.6870876351894
 20
-129.7619330187748
 30
0.0
 10
153.3105386986515
 20
-129.7343722548928
 30
0.0
 10
153.3105386986515
 20
-129.2775525935487
 30
0.0
 10
153.3105386986515
 20
-129.0532768774589
 30
0.0
 10
153.4376627220573
 20
-128.8121201934914
 30
0.0
 10
153.7335964242402
 20
-128.8121201934914
 30
0.0
 10
153.9199760899922
 20
-128.8121201934914
 30
0.0
 10
154.0023138720897
 20
-128.9072048288843
 30
0.0
 10
154.0636365717272
 20
-129.006768088408
 30
0.0
 10
154.0911973356091
 20
-128.9454453887706
 30
0.0
 10
154.1714680604155
 20
-128.7635443471494
 30
0.0
 10
154.4487982469781
 20
-128.7635443471494
 30
0.0
 10
154.7871066236296
 20
-128.7635443471494
 30
0.0
 10
154.9541937546642
 20
-129.0109022029903
 30
0.0
 10
154.9541937546642
 20
-129.2878878800044
 30
0.0
  0
HATCH
  5
CD
330
C8
100
AcDbEntity
  8
_U+30EC_U+30A4_U+30E4_U+30FC 1
 62
     7
420
 16777215
100
AcDbHatch
 10
0.0
 20
0.0
 30
0.0
210
0.0
220
0.0
230
1.0
  2
SOLID
 70
     1
 71
     0
 91
        1
 92
        1
 93
        1
 72
     4
 94
        3
 73
     0
 74
     1
 95
       62
 96
       58
 40
0.0
 40
0.0
 40
0.0
 40
0.0
 40
1.0
 40
1.0
 40
1.0
 40
2.0
 40
2.0
 40
2.0
 40
3.0
 40
3.0
 40
3.0
 40
4.0
 40
4.0
 40
4.0
 40
5.0
 40
5.0
 40
5.0
 40
6.0
 40
6.0
 40
6.0
 40
7.0
 40
7.0
 40
7.0
 40
8.0
 40
8.0
 40
8.0
 40
9.0
 40
9.0
 40
9.0
 40
10.0
 40
10.0
 40
10.0
 40
11.0
 40
11.0
 40
11.0
 40
12.0
 40
12.0
 40
12.0
 40
13.0
 40
13.0
 40
13.0
 40
14.0
 40
14.0
 40
14.0
 40
15.0
 40
15.0
 40
15.0
 40
16.0
 40
16.0
 40
16.0
 40
17.0
 40
17.0
 40
17.0
 40
18.0
 40
18.0
 40
18.0
 40
19.0
 40
19.0
 40
19.0
 40
19.0
 10
154.9541937546642
 20
-129.2878878800044
 10
154.9541937546642
 20
-129.3833170249459
 10
154.9331786722042
 20
-129.6010470596136
 10
154.7471435160007
 20
-129.7261040257282
 10
154.6348334031816
 20
-129.8001735786611
 10
154.5356146532064
 20
-129.8043076932434
 10
154.4508653042692
 20
-129.8084418078257
 10
154.4508653042692
 20
-129.8084418078257
 10
154.4508653042692
 20
-129.5883002063182
 10
154.4508653042692
 20
-129.5883002063182
 10
154.5249348572021
 20
-129.5862331490271
 10
154.7595458597476
 20
-129.5758978625713
 10
154.7595458597476
 20
-129.2923665041353
 10
154.7595458597476
 20
-129.1549071942738
 10
154.6899549309456
 20
-129.0022894642772
 10
154.4615451002735
 20
-129.0022894642772
 10
154.3451008728721
 20
-129.0022894642772
 10
154.29652502653
 20
-129.0405300241635
 10
154.2648301480658
 20
-129.0722249026278
 10
154.1907605951329
 20
-129.1462944555606
 10
154.1780137418374
 20
-129.2627386829621
 10
154.1780137418374
 20
-129.3175157011776
 10
154.1780137418374
 20
-129.336808235895
 10
154.1800807991286
 20
-129.3726372289416
 10
154.1842149137109
 20
-129.4001979928236
 10
154.1842149137109
 20
-129.4001979928236
 10
153.9895670187943
 20
-129.4001979928236
 10
153.9895670187943
 20
-129.4001979928236
 10
153.9961127002163
 20
-129.3619574329373
 10
153.9981797575074
 20
-129.3199272680172
 10
153.9981797575074
 20
-129.3133815865953
 10
153.9981797575074
 20
-129.2479247723755
 10
153.9768201654989
 20
-129.0491427628766
 10
153.7401421056622
 20
-129.0491427628766
 10
153.5623751786233
 20
-129.0491427628766
 10
153.5072536508593
 20
-129.1800563913161
 10
153.5072536508593
 20
-129.2902994468441
 10
153.5072536508593
 20
-129.5545382705628
 10
153.7401421056622
 20
-129.5631510092759
 10
153.8118000917554
 20
-129.5672851238582
 10
153.8118000917554
 20
-129.5672851238582
 10
153.8118000917554
 20
-129.7705457574879
 10
153.8118000917554
 20
-129.7705457574879
 10
153.6870876351894
 20
-129.7619330187748
 10
153.3105386986515
 20
-129.7343722548928
 10
153.3105386986515
 20
-129.2775525935487
 10
153.3105386986515
 20
-129.0532768774589
 10
153.4376627220573
 20
-128.8121201934914
 10
153.7335964242402
 20
-128.8121201934914
 10
153.9199760899922
 20
-128.8121201934914
 10
154.0023138720897
 20
-128.9072048288843
 10
154.0636365717272
 20
-129.006768088408
 10
154.0911973356091
 20
-128.9454453887706
 10
154.1714680604155
 20
-128.7635443471494
 10
154.4487982469781
 20
-128.7635443471494
 10
154.7871066236296
 20
-128.7635443471494
 10
154.9541937546642
 20
-129.0109022029903
 10
154.9541937546642
 20
-129.2878878800044
 97
        0
 97
        0
 75
     2
 76
     1
 98
        0
  0
SPLINE
  5
CE
330
C8
100
AcDbEntity
  8
_U+30EC_U+30A4_U+30E4_U+30FC 1
370
     0
100
AcDbSpline
210
0.0
220
0.0
230
1.0
 70
    11
 71
     3
 72
    26
 73
    22
 74
     0
 42
0.0000000001
 43
0.0000000001
 12
1.0
 22
0.0
 32
0.0
 13
1.0
 23
0.0
 33
0.0
 40
0.0
 40
0.0
 40
0.0
 40
0.0
 40
1.0
 40
1.0
 40
1.0
 40
2.0
 40
2.0
 40
2.0
 40
3.0
 40
3.0
 40
3.0
 40
4.0
 40
4.0
 40
4.0
 40
5.0
 40
5.0
 40
5.0
 40
6.0
 40
6.0
 40
6.0
 40
7.0
 40
7.0
 40
7.0
 40
7.0
 10
154.9035508510311
 20
-128.1916584965979
 30
0.0
 10
154.9035508510311
 20
-128.1916584965979
 30
0.0
 10
154.9035508510311
 20
-128.4286810659831
 30
0.0
 10
154.9035508510311
 20
-128.4286810659831
 30
0.0
 10
154.5945257860041
 20
-128.4031873593923
 30
0.0
 10
154.0763834250226
 20
-128.2106065217668
 30
0.0
 10
153.5706434077879
 20
-127.8044297640558
 30
0.0
 10
153.5706434077879
 20
-127.8044297640558
 30
0.0
 10
153.5706434077879
 20
-128.6422769860686
 30
0.0
 10
153.5706434077879
 20
-128.6422769860686
 30
0.0
 10
153.5706434077879
 20
-128.6422769860686
 30
0.0
 10
153.3591145449936
 20
-128.6422769860686
 30
0.0
 10
153.3591145449936
 20
-128.6422769860686
 30
0.0
 10
153.3591145449936
 20
-128.6422769860686
 30
0.0
 10
153.3591145449936
 20
-127.5674071946707
 30
0.0
 10
153.3591145449936
 20
-127.5674071946707
 30
0.0
 10
153.3591145449936
 20
-127.5674071946707
 30
0.0
 10
153.5706434077879
 20
-127.5674071946707
 30
0.0
 10
153.5706434077879
 20
-127.5674071946707
 30
0.0
 10
153.8607204476459
 20
-127.8912461702841
 30
0.0
 10
154.4529323615604
 20
-128.1578965608425
 30
0.0
 10
154.9035508510311
 20
-128.1916584965979
 30
0.0
  0
HATCH
  5
CF
330
C8
100
AcDbEntity
  8
_U+30EC_U+30A4_U+30E4_U+30FC 1
 62
     7
420
 16777215
100
AcDbHatch
 10
0.0
 20
0.0
 30
0.0
210
0.0
220
0.0
230
1.0
  2
SOLID
 70
     1
 71
     0
 91
        1
 92
        1
 93
        1
 72
     4
 94
        3
 73
     0
 74
     1
 95
       26
 96
       22
 40
0.0
 40
0.0
 40
0.0
 40
0.0
 40
1.0
 40
1.0
 40
1.0
 40
2.0
 40
2.0
 40
2.0
 40
3.0
 40
3.0
 40
3.0
 40
4.0
 40
4.0
 40
4.0
 40
5.0
 40
5.0
 40
5.0
 40
6.0
 40
6.0
 40
6.0
 40
7.0
 40
7.0
 40
7.0
 40
7.0
 10
154.9035508510311
 20
-128.1916584965979
 10
154.9035508510311
 20
-128.1916584965979
 10
154.9035508510311
 20
-128.4286810659831
 10
154.9035508510311
 20
-128.4286810659831
 10
154.5945257860041
 20
-128.4031873593923
 10
154.0763834250226
 20
-128.2106065217668
 10
153.5706434077879
 20
-127.8044297640558
 10
153.5706434077879
 20
-127.8044297640558
 10
153.5706434077879
 20
-128.6422769860686
 10
153.5706434077879
 20
-128.6422769860686
 10
153.5706434077879
 20
-128.6422769860686
 10
153.3591145449936
 20
-128.6422769860686
 10
153.3591145449936
 20
-128.6422769860686
 10
153.3591145449936
 20
-128.6422769860686
 10
153.3591145449936
 20
-127.5674071946707
 10
153.3591145449936
 20
-127.5674071946707
 10
153.3591145449936
 20
-127.5674071946707
 10
153.5706434077879
 20
-127.5674071946707
 10
153.5706434077879
 20
-127.5674071946707
 10
153.8607204476459
 20
-127.8912461702841
 10
154.4529323615604
 20
-128.1578965608425
 10
154.9035508510311
 20
-128.1916584965979
 97
        0
 97
        0
 75
     2
 76
     1
 98
        0
  0
ENDBLK
  5
CB
330
C8
100
AcDbEntity
  8
0
100
AcDbBlockEnd
  0
ENDSEC
  0
SECTION
  2
ENTITIES
  0
INSERT
  5
42
330
1F
100
AcDbEntity
  8
_U+30EC_U+30A4_U+30E4_U+30FC 1
100
AcDbBlockReference
  2
block 2
 10
0.0
 20
0.0
 30
0.0
  0
ENDSEC
  0
SECTION
  2
OBJECTS
  0
DICTIONARY
  5
C
330
0
100
AcDbDictionary
281
     1
  3
ACAD_GROUP
350
D
  3
ACAD_LAYOUT
350
1A
  3
ACAD_MATERIAL
350
3B
  3
ACAD_MLEADERSTYLE
350
D1
  3
ACAD_MLINESTYLE
350
17
  3
ACAD_PLOTSETTINGS
350
19
  3
ACAD_PLOTSTYLENAME
350
E
  3
ACAD_TABLESTYLE
350
D0
  3
ACAD_VISUALSTYLE
350
2A
  0
SUN
  5
3F
330
29
100
AcDbSun
 90
        1
290
     0
 63
     7
421
 16777215
 40
1.0
291
     1
 91
  2455826
 92
 54000000
292
     0
 70
     2
 71
   256
280
     1
  0
DICTIONARY
  5
D
102
{ACAD_REACTORS
330
C
102
}
330
C
100
AcDbDictionary
281
     1
  0
DICTIONARY
  5
1A
102
{ACAD_REACTORS
330
C
102
}
330
C
100
AcDbDictionary
281
     1
  3
Layout1
350
1E
  3
Layout2
350
26
  3
Model
350
22
  0
DICTIONARY
  5
3B
102
{ACAD_REACTORS
330
C
102
}
330
C
100
AcDbDictionary
281
     1
  3
ByBlock
350
3D
  3
ByLayer
350
3C
  3
Global
350
3E
  0
DICTIONARY
  5
D1
102
{ACAD_REACTORS
330
C
102
}
330
C
100
AcDbDictionary
281
     1
  0
DICTIONARY
  5
17
102
{ACAD_REACTORS
330
C
102
}
330
C
100
AcDbDictionary
281
     1
  3
Standard
350
18
  0
DICTIONARY
  5
19
102
{ACAD_REACTORS
330
C
102
}
330
C
100
AcDbDictionary
281
     1
  0
ACDBDICTIONARYWDFLT
  5
E
102
{ACAD_REACTORS
330
C
102
}
330
C
100
AcDbDictionary
281
     1
  3
Normal
350
F
100
AcDbDictionaryWithDefault
340
F
  0
DICTIONARY
  5
D0
102
{ACAD_REACTORS
330
C
102
}
330
C
100
AcDbDictionary
281
     1
  0
DICTIONARY
  5
2A
102
{ACAD_REACTORS
330
C
102
}
330
C
100
AcDbDictionary
281
     1
  3
2dWireframe
350
2F
  3
3D Hidden
350
31
  3
3dWireframe
350
30
  3
Basic
350
32
  3
Brighten
350
36
  3
ColorChange
350
3A
  3
Conceptual
350
34
  3
Dim
350
35
  3
Facepattern
350
39
  3
Flat
350
2B
  3
FlatWithEdges
350
2C
  3
Gouraud
350
2D
  3
GouraudWithEdges
350
2E
  3
Linepattern
350
38
  3
Realistic
350
33
  3
Thicken
350
37
  0
LAYOUT
  5
1E
102
{ACAD_REACTORS
330
1A
102
}
330
1A
100
AcDbPlotSettings
  1

  2
none_device
  4

  6

 40
0.0
 41
0.0
 42
0.0
 43
0.0
 44
0.0
 45
0.0
 46
0.0
 47
0.0
 48
0.0
 49
0.0
140
0.0
141
0.0
142
1.0
143
1.0
 70
   688
 72
     0
 73
     0
 74
     5
  7

 75
    16
 76
     0
 77
     2
 78
   300
147
1.0
148
0.0
149
0.0
100
AcDbLayout
  1
Layout1
 70
     1
 71
     1
 10
0.0
 20
0.0
 11
12.0
 21
9.0
 12
0.0
 22
0.0
 32
0.0
 14
1.000000000000000E+20
 24
1.000000000000000E+20
 34
1.000000000000000E+20
 15
-1.000000000000000E+20
 25
-1.000000000000000E+20
 35
-1.000000000000000E+20
146
0.0
 13
0.0
 23
0.0
 33
0.0
 16
1.0
 26
0.0
 36
0.0
 17
0.0
 27
1.0
 37
0.0
 76
     0
330
1B
  0
LAYOUT
  5
26
102
{ACAD_REACTORS
330
1A
102
}
330
1A
100
AcDbPlotSettings
  1

  2
none_device
  4

  6

 40
0.0
 41
0.0
 42
0.0
 43
0.0
 44
0.0
 45
0.0
 46
0.0
 47
0.0
 48
0.0
 49
0.0
140
0.0
141
0.0
142
1.0
143
1.0
 70
   688
 72
     0
 73
     0
 74
     5
  7

 75
    16
 76
     0
 77
     2
 78
   300
147
1.0
148
0.0
149
0.0
100
AcDbLayout
  1
Layout2
 70
     1
 71
     2
 10
0.0
 20
0.0
 11
0.0
 21
0.0
 12
0.0
 22
0.0
 32
0.0
 14
0.0
 24
0.0
 34
0.0
 15
0.0
 25
0.0
 35
0.0
146
0.0
 13
0.0
 23
0.0
 33
0.0
 16
1.0
 26
0.0
 36
0.0
 17
0.0
 27
1.0
 37
0.0
 76
     0
330
23
  0
LAYOUT
  5
22
102
{ACAD_REACTORS
330
1A
102
}
330
1A
100
AcDbPlotSettings
  1

  2
none_device
  4

  6

 40
0.0
 41
0.0
 42
0.0
 43
0.0
 44
0.0
 45
0.0
 46
0.0
 47
0.0
 48
0.0
 49
0.0
140
0.0
141
0.0
142
1.0
143
1.0
 70
  1712
 72
     0
 73
     0
 74
     0
  7

 75
     0
 76
     0
 77
     2
 78
   300
147
1.0
148
0.0
149
0.0
100
AcDbLayout
  1
Model
 70
     1
 71
     0
 10
0.0
 20
0.0
 11
12.0
 21
9.0
 12
0.0
 22
0.0
 32
0.0
 14
1.000000000000000E+20
 24
1.000000000000000E+20
 34
1.000000000000000E+20
 15
-1.000000000000000E+20
 25
-1.000000000000000E+20
 35
-1.000000000000000E+20
146
0.0
 13
0.0
 23
0.0
 33
0.0
 16
1.0
 26
0.0
 36
0.0
 17
0.0
 27
1.0
 37
0.0
 76
     0
330
1F
331
29
  0
MATERIAL
  5
3D
102
{ACAD_REACTORS
330
3B
102
}
330
3B
100
AcDbMaterial
  1
ByBlock
 72
     1
 94
      127
  0
MATERIAL
  5
3C
102
{ACAD_REACTORS
330
3B
102
}
330
3B
100
AcDbMaterial
  1
ByLayer
 72
     1
 94
      127
  0
MATERIAL
  5
3E
102
{ACAD_REACTORS
330
3B
102
}
330
3B
100
AcDbMaterial
  1
Global
 72
     1
 94
      127
  0
MLINESTYLE
  5
18
102
{ACAD_REACTORS
330
17
102
}
330
17
100
AcDbMlineStyle
  2
Standard
 70
     0
  3

 62
   256
 51
90.0
 52
90.0
 71
     2
 49
0.5
 62
   256
  6
BYLAYER
 49
-0.5
 62
   256
  6
BYLAYER
  0
ACDBPLACEHOLDER
  5
F
102
{ACAD_REACTORS
330
E
102
}
330
E
  0
VISUALSTYLE
  5
2F
102
{ACAD_REACTORS
330
2A
102
}
330
2A
100
AcDbVisualStyle
  2
2dWireframe
 70
     4
177
     2
291
     0
 71
     0
176
     1
 72
     2
176
     1
 73
     0
176
     1
 90
        0
176
     1
 40
-0.6
176
     1
 41
-30.0
176
     1
 62
     5
 63
     7
421
 16777215
176
     1
 74
     1
176
     1
 91
        4
176
     1
 64
     7
176
     1
 65
   257
176
     1
 75
     1
176
     1
175
     1
176
     1
 42
1.0
176
     1
 92
        0
176
     1
 66
   257
176
     1
 43
1.0
176
     1
 76
     1
176
     1
 77
     6
176
     1
 78
     2
176
     1
 67
     7
176
     1
 79
     5
176
     1
170
     0
176
     1
171
     0
176
     1
290
     0
176
     1
 93
        1
176
     1
 44
0.0
176
     1
173
     0
176
     1
  0
VISUALSTYLE
  5
31
102
{ACAD_REACTORS
330
2A
102
}
330
2A
100
AcDbVisualStyle
  2
3D Hidden
 70
     6
177
     2
291
     0
 71
     1
176
     1
 72
     2
176
     1
 73
     2
176
     1
 90
        0
176
     1
 40
-0.6
176
     1
 41
-30.0
176
     1
 62
     5
 63
     7
421
 16777215
176
     1
 74
     2
176
     1
 91
        2
176
     1
 64
     7
176
     1
 65
   257
176
     1
 75
     2
176
     1
175
     1
176
     1
 42
40.0
176
     1
 92
        0
176
     1
 66
   257
176
     1
 43
1.0
176
     1
 76
     1
176
     1
 77
     6
176
     1
 78
     2
176
     1
 67
     7
176
     1
 79
     3
176
     1
170
     0
176
     1
171
     0
176
     1
290
     0
176
     1
 93
        1
176
     1
 44
0.0
176
     1
173
     0
176
     1
  0
VISUALSTYLE
  5
30
102
{ACAD_REACTORS
330
2A
102
}
330
2A
100
AcDbVisualStyle
  2
3dWireframe
 70
     5
177
     2
291
     0
 71
     0
176
     1
 72
     2
176
     1
 73
     0
176
     1
 90
        0
176
     1
 40
-0.6
176
     1
 41
-30.0
176
     1
 62
     5
 63
     7
421
 16777215
176
     1
 74
     1
176
     1
 91
        4
176
     1
 64
     7
176
     1
 65
   257
176
     1
 75
     1
176
     1
175
     1
176
     1
 42
1.0
176
     1
 92
        0
176
     1
 66
   257
176
     1
 43
1.0
176
     1
 76
     1
176
     1
 77
     6
176
     1
 78
     2
176
     1
 67
     7
176
     1
 79
     5
176
     1
170
     0
176
     1
171
     0
176
     1
290
     0
176
     1
 93
        1
176
     1
 44
0.0
176
     1
173
     0
176
     1
  0
VISUALSTYLE
  5
32
102
{ACAD_REACTORS
330
2A
102
}
330
2A
100
AcDbVisualStyle
  2
Basic
 70
     7
177
     2
291
     1
 71
     1
176
     1
 72
     0
176
     1
 73
     1
176
     1
 90
        0
176
     1
 40
-0.6
176
     1
 41
-30.0
176
     1
 62
     5
 63
     7
421
 16777215
176
     1
 74
     0
176
     1
 91
        4
176
     1
 64
     7
176
     1
 65
   257
176
     1
 75
     1
176
     1
175
     1
176
     1
 42
1.0
176
     1
 92
        8
176
     1
 66
     7
176
     1
 43
1.0
176
     1
 76
     1
176
     1
 77
     6
176
     1
 78
     2
176
     1
 67
     7
176
     1
 79
     5
176
     1
170
     0
176
     1
171
     0
176
     1
290
     0
176
     1
 93
        1
176
     1
 44
0.0
176
     1
173
     0
176
     1
  0
VISUALSTYLE
  5
36
102
{ACAD_REACTORS
330
2A
102
}
330
2A
100
AcDbVisualStyle
  2
Brighten
 70
    12
177
     2
291
     1
 71
     2
176
     1
 72
     2
176
     1
 73
     0
176
     1
 90
        0
176
     1
 40
-0.6
176
     1
 41
-30.0
176
     1
 62
     5
 63
     7
421
 16777215
176
     1
 74
     1
176
     1
 91
        4
176
     1
 64
     7
176
     1
 65
   257
176
     1
 75
     1
176
     1
175
     1
176
     1
 42
1.0
176
     1
 92
        8
176
     1
 66
     7
176
     1
 43
1.0
176
     1
 76
     1
176
     1
 77
     6
176
     1
 78
     2
176
     1
 67
     7
176
     1
 79
     5
176
     1
170
     0
176
     1
171
     0
176
     1
290
     0
176
     1
 93
        1
176
     1
 44
50.0
176
     1
173
     0
176
     1
  0
VISUALSTYLE
  5
3A
102
{ACAD_REACTORS
330
2A
102
}
330
2A
100
AcDbVisualStyle
  2
ColorChange
 70
    16
177
     2
291
     1
 71
     2
176
     1
 72
     2
176
     1
 73
     3
176
     1
 90
        0
176
     1
 40
-0.6
176
     1
 41
-30.0
176
     1
 62
     5
 63
     8
421
  8421504
176
     1
 74
     1
176
     1
 91
        4
176
     1
 64
     7
176
     1
 65
   257
176
     1
 75
     1
176
     1
175
     1
176
     1
 42
1.0
176
     1
 92
        8
176
     1
 66
     8
424
  8421504
176
     1
 43
1.0
176
     1
 76
     1
176
     1
 77
     6
176
     1
 78
     2
176
     1
 67
     7
176
     1
 79
     5
176
     1
170
     0
176
     1
171
     0
176
     1
290
     0
176
     1
 93
        1
176
     1
 44
0.0
176
     1
173
     0
176
     1
  0
VISUALSTYLE
  5
34
102
{ACAD_REACTORS
330
2A
102
}
330
2A
100
AcDbVisualStyle
  2
Conceptual
 70
     9
177
     2
291
     0
 71
     3
176
     1
 72
     2
176
     1
 73
     0
176
     1
 90
        0
176
     1
 40
-0.6
176
     1
 41
-30.0
176
     1
 62
     5
 63
     7
421
 16777215
176
     1
 74
     2
176
     1
 91
        2
176
     1
 64
     7
176
     1
 65
   257
176
     1
 75
     1
176
     1
175
     1
176
     1
 42
40.0
176
     1
 92
        8
176
     1
 66
     7
176
     1
 43
1.0
176
     1
 76
     1
176
     1
 77
     6
176
     1
 78
     2
176
     1
 67
     7
176
     1
 79
     3
176
     1
170
     0
176
     1
171
     0
176
     1
290
     0
176
     1
 93
        1
176
     1
 44
0.0
176
     1
173
     0
176
     1
  0
VISUALSTYLE
  5
35
102
{ACAD_REACTORS
330
2A
102
}
330
2A
100
AcDbVisualStyle
  2
Dim
 70
    11
177
     2
291
     1
 71
     2
176
     1
 72
     2
176
     1
 73
     0
176
     1
 90
        0
176
     1
 40
-0.6
176
     1
 41
-30.0
176
     1
 62
     5
 63
     7
421
 16777215
176
     1
 74
     1
176
     1
 91
        4
176
     1
 64
     7
176
     1
 65
   257
176
     1
 75
     1
176
     1
175
     1
176
     1
 42
1.0
176
     1
 92
        8
176
     1
 66
     7
176
     1
 43
1.0
176
     1
 76
     1
176
     1
 77
     6
176
     1
 78
     2
176
     1
 67
     7
176
     1
 79
     5
176
     1
170
     0
176
     1
171
     0
176
     1
290
     0
176
     1
 93
        1
176
     1
 44
-50.0
176
     1
173
     0
176
     1
  0
VISUALSTYLE
  5
39
102
{ACAD_REACTORS
330
2A
102
}
330
2A
100
AcDbVisualStyle
  2
Facepattern
 70
    15
177
     2
291
     1
 71
     2
176
     1
 72
     2
176
     1
 73
     0
176
     1
 90
        0
176
     1
 40
-0.6
176
     1
 41
-30.0
176
     1
 62
     5
 63
     7
421
 16777215
176
     1
 74
     1
176
     1
 91
        4
176
     1
 64
     7
176
     1
 65
   257
176
     1
 75
     1
176
     1
175
     1
176
     1
 42
1.0
176
     1
 92
        8
176
     1
 66
     7
176
     1
 43
1.0
176
     1
 76
     1
176
     1
 77
     6
176
     1
 78
     2
176
     1
 67
     7
176
     1
 79
     5
176
     1
170
     0
176
     1
171
     0
176
     1
290
     0
176
     1
 93
        1
176
     1
 44
0.0
176
     1
173
     0
176
     1
  0
VISUALSTYLE
  5
2B
102
{ACAD_REACTORS
330
2A
102
}
330
2A
100
AcDbVisualStyle
  2
Flat
 70
     0
177
     2
291
     1
 71
     2
176
     1
 72
     1
176
     1
 73
     1
176
     1
 90
        2
176
     1
 40
-0.6
176
     1
 41
30.0
176
     1
 62
     5
 63
     7
421
 16777215
176
     1
 74
     0
176
     1
 91
        4
176
     1
 64
     7
176
     1
 65
   257
176
     1
 75
     1
176
     1
175
     1
176
     1
 42
1.0
176
     1
 92
        8
176
     1
 66
     7
176
     1
 43
1.0
176
     1
 76
     1
176
     1
 77
     6
176
     1
 78
     2
176
     1
 67
     7
176
     1
 79
     5
176
     1
170
     0
176
     1
171
     0
176
     1
290
     0
176
     1
 93
       13
176
     1
 44
0.0
176
     1
173
     0
176
     1
  0
VISUALSTYLE
  5
2C
102
{ACAD_REACTORS
330
2A
102
}
330
2A
100
AcDbVisualStyle
  2
FlatWithEdges
 70
     1
177
     2
291
     1
 71
     2
176
     1
 72
     1
176
     1
 73
     1
176
     1
 90
        2
176
     1
 40
-0.6
176
     1
 41
30.0
176
     1
 62
     5
 63
     7
421
 16777215
176
     1
 74
     1
176
     1
 91
        4
176
     1
 64
     7
176
     1
 65
   257
176
     1
 75
     1
176
     1
175
     1
176
     1
 42
1.0
176
     1
 92
        0
176
     1
 66
   257
176
     1
 43
1.0
176
     1
 76
     1
176
     1
 77
     6
176
     1
 78
     2
176
     1
 67
     7
176
     1
 79
     5
176
     1
170
     0
176
     1
171
     0
176
     1
290
     0
176
     1
 93
       13
176
     1
 44
0.0
176
     1
173
     0
176
     1
  0
VISUALSTYLE
  5
2D
102
{ACAD_REACTORS
330
2A
102
}
330
2A
100
AcDbVisualStyle
  2
Gouraud
 70
     2
177
     2
291
     1
 71
     2
176
     1
 72
     2
176
     1
 73
     1
176
     1
 90
        2
176
     1
 40
-0.6
176
     1
 41
30.0
176
     1
 62
     5
 63
     7
421
 16777215
176
     1
 74
     0
176
     1
 91
        4
176
     1
 64
     7
176
     1
 65
   257
176
     1
 75
     1
176
     1
175
     1
176
     1
 42
1.0
176
     1
 92
        0
176
     1
 66
     7
176
     1
 43
1.0
176
     1
 76
     1
176
     1
 77
     6
176
     1
 78
     2
176
     1
 67
     7
176
     1
 79
     5
176
     1
170
     0
176
     1
171
     0
176
     1
290
     0
176
     1
 93
       13
176
     1
 44
0.0
176
     1
173
     0
176
     1
  0
VISUALSTYLE
  5
2E
102
{ACAD_REACTORS
330
2A
102
}
330
2A
100
AcDbVisualStyle
  2
GouraudWithEdges
 70
     3
177
     2
291
     1
 71
     2
176
     1
 72
     2
176
     1
 73
     1
176
     1
 90
        2
176
     1
 40
-0.6
176
     1
 41
30.0
176
     1
 62
     5
 63
     7
421
 16777215
176
     1
 74
     1
176
     1
 91
        4
176
     1
 64
     7
176
     1
 65
   257
176
     1
 75
     1
176
     1
175
     1
176
     1
 42
1.0
176
     1
 92
        0
176
     1
 66
   257
176
     1
 43
1.0
176
     1
 76
     1
176
     1
 77
     6
176
     1
 78
     2
176
     1
 67
     7
176
     1
 79
     5
176
     1
170
     0
176
     1
171
     0
176
     1
290
     0
176
     1
 93
       13
176
     1
 44
0.0
176
     1
173
     0
176
     1
  0
VISUALSTYLE
  5
38
102
{ACAD_REACTORS
330
2A
102
}
330
2A
100
AcDbVisualStyle
  2
Linepattern
 70
    14
177
     2
291
     1
 71
     2
176
     1
 72
     2
176
     1
 73
     0
176
     1
 90
        0
176
     1
 40
-0.6
176
     1
 41
-30.0
176
     1
 62
     5
 63
     7
421
 16777215
176
     1
 74
     1
176
     1
 91
        4
176
     1
 64
     7
176
     1
 65
   257
176
     1
 75
     7
176
     1
175
     7
176
     1
 42
1.0
176
     1
 92
        8
176
     1
 66
     7
176
     1
 43
1.0
176
     1
 76
     1
176
     1
 77
     6
176
     1
 78
     2
176
     1
 67
     7
176
     1
 79
     5
176
     1
170
     0
176
     1
171
     0
176
     1
290
     0
176
     1
 93
        1
176
     1
 44
0.0
176
     1
173
     0
176
     1
  0
VISUALSTYLE
  5
33
102
{ACAD_REACTORS
330
2A
102
}
330
2A
100
AcDbVisualStyle
  2
Realistic
 70
     8
177
     2
291
     0
 71
     2
176
     1
 72
     2
176
     1
 73
     0
176
     1
 90
        0
176
     1
 40
-0.6
176
     1
 41
-30.0
176
     1
 62
     5
 63
     7
421
 16777215
176
     1
 74
     1
176
     1
 91
        0
176
     1
 64
     7
176
     1
 65
   257
176
     1
 75
     1
176
     1
175
     1
176
     1
 42
1.0
176
     1
 92
        8
176
     1
 66
     8
424
  7895160
176
     1
 43
1.0
176
     1
 76
     1
176
     1
 77
     6
176
     1
 78
     2
176
     1
 67
     7
176
     1
 79
     5
176
     1
170
     0
176
     1
171
     0
176
     1
290
     0
176
     1
 93
       13
176
     1
 44
0.0
176
     1
173
     0
176
     1
  0
VISUALSTYLE
  5
37
102
{ACAD_REACTORS
330
2A
102
}
330
2A
100
AcDbVisualStyle
  2
Thicken
 70
    13
177
     2
291
     1
 71
     2
176
     1
 72
     2
176
     1
 73
     0
176
     1
 90
        0
176
     1
 40
-0.6
176
     1
 41
-30.0
176
     1
 62
     5
 63
     7
421
 16777215
176
     1
 74
     1
176
     1
 91
        4
176
     1
 64
     7
176
     1
 65
   257
176
     1
 75
     1
176
     1
175
     1
176
     1
 42
1.0
176
     1
 92
       12
176
     1
 66
     7
176
     1
 43
1.0
176
     1
 76
     1
176
     1
 77
     6
176
     1
 78
     2
176
     1
 67
     7
176
     1
 79
     5
176
     1
170
     0
176
     1
171
     0
176
     1
290
     0
176
     1
 93
        1
176
     1
 44
0.0
176
     1
173
     0
176
     1
  0
ENDSEC
  0
EOF
