  0
SECTION
  2
HEADER
  9
$ACADVER
  1
AC1024
  9
$ACADMAINTVER
 70
     6
  9
$DWGCODEPAGE
  3
UNDEFINED
  9
$INSBASE
 10
0.0
 20
0.0
 30
0.0
  9
$EXTMIN
 10
1.000000000000000E+20
 20
1.000000000000000E+20
 30
1.000000000000000E+20
  9
$EXTMAX
 10
-1.000000000000000E+20
 20
-1.000000000000000E+20
 30
-1.000000000000000E+20
  9
$LIMMIN
 10
0.0
 20
0.0
  9
$LIMMAX
 10
12.0
 20
9.0
  9
$ORTHOMODE
 70
     0
  9
$REGENMODE
 70
     1
  9
$FILLMODE
 70
     1
  9
$QTEXTMODE
 70
     0
  9
$MIRRTEXT
 70
     1
  9
$LTSCALE
 40
1.0
  9
$ATTMODE
 70
     1
  9
$TEXTSIZE
 40
0.2
  9
$TRACEWID
 40
0.05
  9
$TEXTSTYLE
  7
Standard
  9
$CLAYER
  8
0
  9
$CELTYPE
  6
ByLayer
  9
$CECOLOR
 62
   256
  9
$CELTSCALE
 40
1.0
  9
$DISPSILH
 70
     0
  9
$DIMSCALE
 40
1.0
  9
$DIMASZ
 40
0.18
  9
$DIMEXO
 40
0.0625
  9
$DIMDLI
 40
0.38
  9
$DIMRND
 40
0.0
  9
$DIMDLE
 40
0.0
  9
$DIMEXE
 40
0.18
  9
$DIMTP
 40
0.0
  9
$DIMTM
 40
0.0
  9
$DIMTXT
 40
0.18
  9
$DIMCEN
 40
0.09
  9
$DIMTSZ
 40
0.0
  9
$DIMTOL
 70
     0
  9
$DIMLIM
 70
     0
  9
$DIMTIH
 70
     1
  9
$DIMTOH
 70
     1
  9
$DIMSE1
 70
     0
  9
$DIMSE2
 70
     0
  9
$DIMTAD
 70
     0
  9
$DIMZIN
 70
     0
  9
$DIMBLK
  1

  9
$DIMASO
 70
     1
  9
$DIMSHO
 70
     1
  9
$DIMPOST
  1

  9
$DIMAPOST
  1

  9
$DIMALT
 70
     0
  9
$DIMALTD
 70
     2
  9
$DIMALTF
 40
25.4
  9
$DIMLFAC
 40
1.0
  9
$DIMTOFL
 70
     0
  9
$DIMTVP
 40
0.0
  9
$DIMTIX
 70
     0
  9
$DIMSOXD
 70
     0
  9
$DIMSAH
 70
     0
  9
$DIMBLK1
  1

  9
$DIMBLK2
  1

  9
$DIMSTYLE
  2
Standard
  9
$DIMCLRD
 70
     0
  9
$DIMCLRE
 70
     0
  9
$DIMCLRT
 70
     0
  9
$DIMTFAC
 40
1.0
  9
$DIMGAP
 40
0.09
  9
$DIMJUST
 70
     0
  9
$DIMSD1
 70
     0
  9
$DIMSD2
 70
     0
  9
$DIMTOLJ
 70
     1
  9
$DIMTZIN
 70
     0
  9
$DIMALTZ
 70
     0
  9
$DIMALTTZ
 70
     0
  9
$DIMUPT
 70
     0
  9
$DIMDEC
 70
     4
  9
$DIMTDEC
 70
     4
  9
$DIMALTU
 70
     2
  9
$DIMALTTD
 70
     2
  9
$DIMTXSTY
  7
Standard
  9
$DIMAUNIT
 70
     0
  9
$DIMADEC
 70
     0
  9
$DIMALTRND
 40
0.0
  9
$DIMAZIN
 70
     0
  9
$DIMDSEP
 70
    46
  9
$DIMATFIT
 70
     3
  9
$DIMFRAC
 70
     0
  9
$DIMLDRBLK
  1

  9
$DIMLUNIT
 70
     2
  9
$DIMLWD
 70
    -2
  9
$DIMLWE
 70
    -2
  9
$DIMTMOVE
 70
     0
  9
$DIMFXL
 40
1.0
  9
$DIMFXLON
 70
     0
  9
$DIMJOGANG
 40
0.7853981633974483
  9
$DIMTFILL
 70
     0
  9
$DIMTFILLCLR
 70
     0
  9
$DIMARCSYM
 70
     0
  9
$DIMLTYPE
  6

  9
$DIMLTEX1
  6

  9
$DIMLTEX2
  6

  9
$DIMTXTDIRECTION
 70
     0
  9
$LUNITS
 70
     2
  9
$LUPREC
 70
     4
  9
$SKETCHINC
 40
0.1
  9
$FILLETRAD
 40
0.5
  9
$AUNITS
 70
     0
  9
$AUPREC
 70
     0
  9
$MENU
  1
.
  9
$ELEVATION
 40
0.0
  9
$PELEVATION
 40
0.0
  9
$THICKNESS
 40
0.0
  9
$LIMCHECK
 70
     0
  9
$CHAMFERA
 40
0.5
  9
$CHAMFERB
 40
0.5
  9
$CHAMFERC
 40
1.0
  9
$CHAMFERD
 40
0.0
  9
$SKPOLY
 70
     0
  9
$TDCREATE
 40
2457917.611956007
  9
$TDUCREATE
 40
2457917.236956018
  9
$TDUPDATE
 40
2457917.611956007
  9
$TDUUPDATE
 40
2457917.236956018
  9
$TDINDWG
 40
0.0000000116
  9
$TDUSRTIMER
 40
0.0000000116
  9
$USRTIMER
 70
     1
  9
$ANGBASE
 50
0.0
  9
$ANGDIR
 70
     0
  9
$PDMODE
 70
     0
  9
$PDSIZE
 40
0.0
  9
$PLINEWID
 40
0.0
  9
$SPLFRAME
 70
     0
  9
$SPLINETYPE
 70
     6
  9
$SPLINESEGS
 70
     8
  9
$HANDSEED
  5
E7
  9
$SURFTAB1
 70
     6
  9
$SURFTAB2
 70
     6
  9
$SURFTYPE
 70
     6
  9
$SURFU
 70
     6
  9
$SURFV
 70
     6
  9
$UCSBASE
  2

  9
$UCSNAME
  2

  9
$UCSORG
 10
0.0
 20
0.0
 30
0.0
  9
$UCSXDIR
 10
1.0
 20
0.0
 30
0.0
  9
$UCSYDIR
 10
0.0
 20
1.0
 30
0.0
  9
$UCSORTHOREF
  2

  9
$UCSORTHOVIEW
 70
     0
  9
$UCSORGTOP
 10
0.0
 20
0.0
 30
0.0
  9
$UCSORGBOTTOM
 10
0.0
 20
0.0
 30
0.0
  9
$UCSORGLEFT
 10
0.0
 20
0.0
 30
0.0
  9
$UCSORGRIGHT
 10
0.0
 20
0.0
 30
0.0
  9
$UCSORGFRONT
 10
0.0
 20
0.0
 30
0.0
  9
$UCSORGBACK
 10
0.0
 20
0.0
 30
0.0
  9
$PUCSBASE
  2

  9
$PUCSNAME
  2

  9
$PUCSORG
 10
0.0
 20
0.0
 30
0.0
  9
$PUCSXDIR
 10
1.0
 20
0.0
 30
0.0
  9
$PUCSYDIR
 10
0.0
 20
1.0
 30
0.0
  9
$PUCSORTHOREF
  2

  9
$PUCSORTHOVIEW
 70
     0
  9
$PUCSORGTOP
 10
0.0
 20
0.0
 30
0.0
  9
$PUCSORGBOTTOM
 10
0.0
 20
0.0
 30
0.0
  9
$PUCSORGLEFT
 10
0.0
 20
0.0
 30
0.0
  9
$PUCSORGRIGHT
 10
0.0
 20
0.0
 30
0.0
  9
$PUCSORGFRONT
 10
0.0
 20
0.0
 30
0.0
  9
$PUCSORGBACK
 10
0.0
 20
0.0
 30
0.0
  9
$USERI1
 70
     0
  9
$USERI2
 70
     0
  9
$USERI3
 70
     0
  9
$USERI4
 70
     0
  9
$USERI5
 70
     0
  9
$USERR1
 40
0.0
  9
$USERR2
 40
0.0
  9
$USERR3
 40
0.0
  9
$USERR4
 40
0.0
  9
$USERR5
 40
0.0
  9
$WORLDVIEW
 70
     1
  9
$SHADEDGE
 70
     3
  9
$SHADEDIF
 70
    70
  9
$TILEMODE
 70
     1
  9
$MAXACTVP
 70
    64
  9
$PINSBASE
 10
0.0
 20
0.0
 30
0.0
  9
$PLIMCHECK
 70
     0
  9
$PEXTMIN
 10
1.000000000000000E+20
 20
1.000000000000000E+20
 30
1.000000000000000E+20
  9
$PEXTMAX
 10
-1.000000000000000E+20
 20
-1.000000000000000E+20
 30
-1.000000000000000E+20
  9
$PLIMMIN
 10
0.0
 20
0.0
  9
$PLIMMAX
 10
12.0
 20
9.0
  9
$UNITMODE
 70
     0
  9
$VISRETAIN
 70
     1
  9
$PLINEGEN
 70
     0
  9
$PSLTSCALE
 70
     1
  9
$TREEDEPTH
 70
  3020
  9
$CMLSTYLE
  2
Standard
  9
$CMLJUST
 70
     0
  9
$CMLSCALE
 40
1.0
  9
$PROXYGRAPHICS
 70
     1
  9
$MEASUREMENT
 70
     0
  9
$CELWEIGHT
370
    -1
  9
$ENDCAPS
280
     0
  9
$JOINSTYLE
280
     0
  9
$LWDISPLAY
290
     1
  9
$INSUNITS
 70
     1
  9
$HYPERLINKBASE
  1

  9
$STYLESHEET
  1

  9
$XEDIT
290
     1
  9
$CEPSNTYPE
380
     0
  9
$PSTYLEMODE
290
     1
  9
$FINGERPRINTGUID
  2
{840BF993-F5D2-B369-1F0D-19E932F3C11B}
  9
$VERSIONGUID
  2
{FAEB1C32-E019-11D5-929B-00C0DF256EC4}
  9
$EXTNAMES
290
     1
  9
$PSVPSCALE
 40
0.0
  9
$OLESTARTUP
290
     0
  9
$SORTENTS
280
   127
  9
$INDEXCTL
280
     0
  9
$HIDETEXT
280
     1
  9
$XCLIPFRAME
280
     2
  9
$HALOGAP
280
     0
  9
$OBSCOLOR
 70
   257
  9
$OBSLTYPE
280
     0
  9
$INTERSECTIONDISPLAY
280
     0
  9
$INTERSECTIONCOLOR
 70
   257
  9
$DIMASSOC
280
     2
  9
$PROJECTNAME
  1

  9
$CAMERADISPLAY
290
     0
  9
$LENSLENGTH
 40
50.0
  9
$CAMERAHEIGHT
 40
0.0
  9
$STEPSPERSEC
 40
2.0
  9
$STEPSIZE
 40
6.0
  9
$3DDWFPREC
 40
2.0
  9
$PSOLWIDTH
 40
0.25
  9
$PSOLHEIGHT
 40
4.0
  9
$LOFTANG1
 40
1.570796326794897
  9
$LOFTANG2
 40
1.570796326794897
  9
$LOFTMAG1
 40
0.0
  9
$LOFTMAG2
 40
0.0
  9
$LOFTPARAM
 70
     7
  9
$LOFTNORMALS
280
     1
  9
$LATITUDE
 40
37.795
  9
$LONGITUDE
 40
-122.394
  9
$NORTHDIRECTION
 40
0.0
  9
$TIMEZONE
 70
 -8000
  9
$LIGHTGLYPHDISPLAY
280
     1
  9
$TILEMODELIGHTSYNCH
280
     1
  9
$CMATERIAL
347
3C
  9
$SOLIDHIST
280
     1
  9
$SHOWHIST
280
     1
  9
$DWFFRAME
280
     2
  9
$DGNFRAME
280
     2
  9
$REALWORLDSCALE
290
     1
  9
$INTERFERECOLOR
 62
   256
  9
$CSHADOW
280
     0
  9
$SHADOWPLANELOCATION
 40
0.0
  0
ENDSEC
  0
SECTION
  2
CLASSES
  0
CLASS
  1
ACDBDICTIONARYWDFLT
  2
AcDbDictionaryWithDefault
  3
ObjectDBX Classes
 90
        0
 91
        4
280
     0
281
     0
  0
CLASS
  1
VISUALSTYLE
  2
AcDbVisualStyle
  3
ObjectDBX Classes
 90
     4095
 91
        4
280
     0
281
     0
  0
CLASS
  1
MATERIAL
  2
AcDbMaterial
  3
ObjectDBX Classes
 90
     1153
 91
        4
280
     0
281
     0
  0
CLASS
  1
SUN
  2
AcDbSun
  3
SCENEOE
 90
     1024
 91
        4
280
     0
281
     0
  0
ENDSEC
  0
SECTION
  2
TABLES
  0
TABLE
  2
VPORT
  5
8
330
0
100
AcDbSymbolTable
 70
     1
  0
VPORT
  5
29
330
8
100
AcDbSymbolTableRecord
100
AcDbViewportTableRecord
  2
*Active
 70
     0
 10
0.0
 20
0.0
 11
1.0
 21
1.0
 12
0.0
 22
0.0
 13
0.0
 23
0.0
 14
0.5
 24
0.5
 15
0.5
 25
0.5
 16
0.0
 26
0.0
 36
1.0
 17
91.00082462281999
 27
-128.4993055234307
 37
0.0
 40
256.9986110468615
 41
0.7081814508812795
 42
50.0
 43
0.0
 44
0.0
 50
0.0
 51
0.0
 71
     0
 72
   100
 73
     1
 74
     3
 75
     0
 76
     0
 77
     0
 78
     0
281
     0
 65
     1
110
0.0
120
0.0
130
0.0
111
1.0
121
0.0
131
0.0
112
0.0
122
1.0
132
0.0
 79
     0
146
0.0
 60
     3
 61
     5
292
     1
282
     1
141
0.0
142
0.0
 63
   250
361
3F
  0
ENDTAB
  0
TABLE
  2
LTYPE
  5
5
330
0
100
AcDbSymbolTable
 70
     1
  0
LTYPE
  5
14
330
5
100
AcDbSymbolTableRecord
100
AcDbLinetypeTableRecord
  2
ByBlock
 70
     0
  3

 72
    65
 73
     0
 40
0.0
  0
LTYPE
  5
15
330
5
100
AcDbSymbolTableRecord
100
AcDbLinetypeTableRecord
  2
ByLayer
 70
     0
  3

 72
    65
 73
     0
 40
0.0
  0
LTYPE
  5
16
330
5
100
AcDbSymbolTableRecord
100
AcDbLinetypeTableRecord
  2
Continuous
 70
     0
  3
Solid line
 72
    65
 73
     0
 40
0.0
  0
ENDTAB
  0
TABLE
  2
LAYER
  5
2
330
0
100
AcDbSymbolTable
 70
     2
  0
LAYER
  5
10
330
2
100
AcDbSymbolTableRecord
100
AcDbLayerTableRecord
  2
0
 70
     0
 62
     7
  6
Continuous
370
    -3
390
F
347
3E
  0
LAYER
  5
40
330
2
100
AcDbSymbolTableRecord
100
AcDbLayerTableRecord
  2
_U+30EC_U+30A4_U+30E4_U+30FC 1
 70
     0
 62
     7
  6
Continuous
370
    -3
390
F
347
3E
  0
ENDTAB
  0
TABLE
  2
STYLE
  5
3
330
0
100
AcDbSymbolTable
 70
     1
  0
STYLE
  5
11
330
3
100
AcDbSymbolTableRecord
100
AcDbTextStyleTableRecord
  2
Standard
 70
     0
 40
0.0
 41
1.0
 50
0.0
 71
     0
 42
0.2
  3
txt
  4

  0
ENDTAB
  0
TABLE
  2
VIEW
  5
6
330
0
100
AcDbSymbolTable
 70
     0
  0
ENDTAB
  0
TABLE
  2
UCS
  5
7
330
0
100
AcDbSymbolTable
 70
     0
  0
ENDTAB
  0
TABLE
  2
APPID
  5
9
330
0
100
AcDbSymbolTable
 70
     1
  0
APPID
  5
12
330
9
100
AcDbSymbolTableRecord
100
AcDbRegAppTableRecord
  2
ACAD
 70
     0
  0
ENDTAB
  0
TABLE
  2
DIMSTYLE
  5
A
330
0
100
AcDbSymbolTable
 70
     1
100
AcDbDimStyleTable
  0
DIMSTYLE
105
27
330
A
100
AcDbSymbolTableRecord
100
AcDbDimStyleTableRecord
  2
Standard
 70
     0
178
     0
340
11
  0
ENDTAB
  0
TABLE
  2
BLOCK_RECORD
  5
1
330
0
100
AcDbSymbolTable
 70
     6
  0
BLOCK_RECORD
  5
1F
330
1
100
AcDbSymbolTableRecord
100
AcDbBlockTableRecord
  2
*Model_Space
340
22
 70
     0
280
     1
281
     0
  0
BLOCK_RECORD
  5
1B
330
1
100
AcDbSymbolTableRecord
100
AcDbBlockTableRecord
  2
*Paper_Space
340
1E
 70
     0
280
     1
281
     0
  0
BLOCK_RECORD
  5
23
330
1
100
AcDbSymbolTableRecord
100
AcDbBlockTableRecord
  2
*Paper_Space0
340
26
 70
     0
280
     1
281
     0
  0
BLOCK_RECORD
  5
41
330
1
100
AcDbSymbolTableRecord
100
AcDbBlockTableRecord
  2
block 2
340
0
102
{BLKREFS
331
42
102
}
 70
     0
280
     1
281
     0
  0
BLOCK_RECORD
  5
88
330
1
100
AcDbSymbolTableRecord
100
AcDbBlockTableRecord
  2
block 3
340
0
102
{BLKREFS
331
89
102
}
 70
     0
280
     1
281
     0
  0
BLOCK_RECORD
  5
B7
330
1
100
AcDbSymbolTableRecord
100
AcDbBlockTableRecord
  2
block 4
340
0
102
{BLKREFS
331
B8
102
}
 70
     0
280
     1
281
     0
  0
BLOCK_RECORD
  5
C9
330
1
100
AcDbSymbolTableRecord
100
AcDbBlockTableRecord
  2
block 5
340
0
102
{BLKREFS
331
CA
102
}
 70
     0
280
     1
281
     0
  0
BLOCK_RECORD
  5
DD
330
1
100
AcDbSymbolTableRecord
100
AcDbBlockTableRecord
  2
block 6
340
0
102
{BLKREFS
331
DE
102
}
 70
     0
280
     1
281
     0
  0
ENDTAB
  0
ENDSEC
  0
SECTION
  2
BLOCKS
  0
BLOCK
  5
20
330
1F
100
AcDbEntity
  8
0
100
AcDbBlockBegin
  2
*Model_Space
 70
     0
 10
0.0
 20
0.0
 30
0.0
  3
*Model_Space
  1

  0
ENDBLK
  5
21
330
1F
100
AcDbEntity
  8
0
100
AcDbBlockEnd
  0
BLOCK
  5
1C
330
1B
100
AcDbEntity
 67
     1
  8
0
100
AcDbBlockBegin
  2
*Paper_Space
 70
     0
 10
0.0
 20
0.0
 30
0.0
  3
*Paper_Space
  1

  0
ENDBLK
  5
1D
330
1B
100
AcDbEntity
 67
     1
  8
0
100
AcDbBlockEnd
  0
BLOCK
  5
24
330
23
100
AcDbEntity
  8
0
100
AcDbBlockBegin
  2
*Paper_Space0
 70
     0
 10
0.0
 20
0.0
 30
0.0
  3
*Paper_Space0
  1

  0
ENDBLK
  5
25
330
23
100
AcDbEntity
  8
0
100
AcDbBlockEnd
  0
BLOCK
  5
43
330
41
100
AcDbEntity
  8
0
100
AcDbBlockBegin
  2
block 2
 70
     0
 10
0.0
 20
0.0
 30
0.0
  3
block 2
  1

  0
POLYLINE
  5
45
330
41
100
AcDbEntity
  8
_U+30EC_U+30A4_U+30E4_U+30FC 1
370
     0
100
AcDb2dPolyline
 66
     1
 10
0.0
 20
0.0
 30
0.0
  0
VERTEX
  5
46
330
45
100
AcDbEntity
  8
_U+30EC_U+30A4_U+30E4_U+30FC 1
370
     0
100
AcDbVertex
100
AcDb2dVertex
 10
138.1924359188617
 20
-143.6077546863204
 30
0.0
  0
VERTEX
  5
47
330
45
100
AcDbEntity
  8
_U+30EC_U+30A4_U+30E4_U+30FC 1
370
     0
100
AcDbVertex
100
AcDb2dVertex
 10
40.97164534361514
 20
-143.6077546863204
 30
0.0
  0
VERTEX
  5
48
330
45
100
AcDbEntity
  8
_U+30EC_U+30A4_U+30E4_U+30FC 1
370
     0
100
AcDbVertex
100
AcDb2dVertex
 10
40.97164534361514
 20
-114.9962421934733
 30
0.0
  0
VERTEX
  5
49
330
45
100
AcDbEntity
  8
_U+30EC_U+30A4_U+30E4_U+30FC 1
370
     0
100
AcDbVertex
100
AcDb2dVertex
 10
39.5776087125133
 20
-114.9962421934733
 30
0.0
  0
VERTEX
  5
4A
330
45
100
AcDbEntity
  8
_U+30EC_U+30A4_U+30E4_U+30FC 1
370
     0
100
AcDbVertex
100
AcDb2dVertex
 10
39.5776087125133
 20
-145.0126921859692
 30
0.0
  0
VERTEX
  5
4B
330
45
100
AcDbEntity
  8
_U+30EC_U+30A4_U+30E4_U+30FC 1
370
     0
100
AcDbVertex
100
AcDb2dVertex
 10
139.5887303276837
 20
-145.0126921859692
 30
0.0
  0
VERTEX
  5
4C
330
45
100
AcDbEntity
  8
_U+30EC_U+30A4_U+30E4_U+30FC 1
370
     0
100
AcDbVertex
100
AcDb2dVertex
 10
139.5887303276837
 20
-142.0119996867194
 30
0.0
  0
VERTEX
  5
4D
330
45
100
AcDbEntity
  8
_U+30EC_U+30A4_U+30E4_U+30FC 1
370
     0
100
AcDbVertex
100
AcDb2dVertex
 10
138.1924359188617
 20
-142.0119996867194
 30
0.0
  0
VERTEX
  5
4E
330
45
100
AcDbEntity
  8
_U+30EC_U+30A4_U+30E4_U+30FC 1
370
     0
100
AcDbVertex
100
AcDb2dVertex
 10
138.1924359188617
 20
-143.6077546863204
 30
0.0
  0
SEQEND
  5
50
330
45
100
AcDbEntity
  8
_U+30EC_U+30A4_U+30E4_U+30FC 1
370
     0
  0
HATCH
  5
4F
330
41
100
AcDbEntity
  8
_U+30EC_U+30A4_U+30E4_U+30FC 1
 62
   253
420
 11711154
100
AcDbHatch
 10
0.0
 20
0.0
 30
0.0
210
0.0
220
0.0
230
1.0
  2
SOLID
 70
     1
 71
     0
 91
        1
 92
        1
 93
        8
 72
     1
 10
138.1924359188617
 20
-143.6077546863204
 11
40.97164534361514
 21
-143.6077546863204
 72
     1
 10
40.97164534361514
 20
-143.6077546863204
 11
40.97164534361514
 21
-114.9962421934733
 72
     1
 10
40.97164534361514
 20
-114.9962421934733
 11
39.5776087125133
 21
-114.9962421934733
 72
     1
 10
39.5776087125133
 20
-114.9962421934733
 11
39.5776087125133
 21
-145.0126921859692
 72
     1
 10
39.5776087125133
 20
-145.0126921859692
 11
139.5887303276837
 21
-145.0126921859692
 72
     1
 10
139.5887303276837
 20
-145.0126921859692
 11
139.5887303276837
 21
-142.0119996867194
 72
     1
 10
139.5887303276837
 20
-142.0119996867194
 11
138.1924359188617
 21
-142.0119996867194
 72
     1
 10
138.1924359188617
 20
-142.0119996867194
 11
138.1924359188617
 21
-143.6077546863204
 97
        0
 75
     2
 76
     1
 98
        0
  0
POLYLINE
  5
51
330
41
100
AcDbEntity
  8
_U+30EC_U+30A4_U+30E4_U+30FC 1
 62
     7
420
 16777215
370
    25
100
AcDb2dPolyline
 66
     1
 10
0.0
 20
0.0
 30
0.0
  0
VERTEX
  5
52
330
51
100
AcDbEntity
  8
_U+30EC_U+30A4_U+30E4_U+30FC 1
 62
     7
420
 16777215
370
    25
100
AcDbVertex
100
AcDb2dVertex
 10
39.5776087125133
 20
-145.0126921859692
 30
0.0
  0
VERTEX
  5
53
330
51
100
AcDbEntity
  8
_U+30EC_U+30A4_U+30E4_U+30FC 1
 62
     7
420
 16777215
370
    25
100
AcDbVertex
100
AcDb2dVertex
 10
139.5883775499149
 20
-145.0126921859692
 30
0.0
  0
SEQEND
  5
54
330
51
100
AcDbEntity
  8
_U+30EC_U+30A4_U+30E4_U+30FC 1
 62
     7
420
 16777215
370
    25
  0
POLYLINE
  5
55
330
41
100
AcDbEntity
  8
_U+30EC_U+30A4_U+30E4_U+30FC 1
 62
     7
420
 16777215
370
    25
100
AcDb2dPolyline
 66
     1
 10
0.0
 20
0.0
 30
0.0
  0
VERTEX
  5
56
330
55
100
AcDbEntity
  8
_U+30EC_U+30A4_U+30E4_U+30FC 1
 62
     7
420
 16777215
370
    25
100
AcDbVertex
100
AcDb2dVertex
 10
39.5776087125133
 20
-114.8977113601645
 30
0.0
  0
VERTEX
  5
57
330
55
100
AcDbEntity
  8
_U+30EC_U+30A4_U+30E4_U+30FC 1
 62
     7
420
 16777215
370
    25
100
AcDbVertex
100
AcDb2dVertex
 10
40.97164534361514
 20
-114.8977113601645
 30
0.0
  0
SEQEND
  5
58
330
55
100
AcDbEntity
  8
_U+30EC_U+30A4_U+30E4_U+30FC 1
 62
     7
420
 16777215
370
    25
  0
POLYLINE
  5
59
330
41
100
AcDbEntity
  8
_U+30EC_U+30A4_U+30E4_U+30FC 1
 62
     7
420
 16777215
370
    25
100
AcDb2dPolyline
 66
     1
 10
0.0
 20
0.0
 30
0.0
  0
VERTEX
  5
5A
330
59
100
AcDbEntity
  8
_U+30EC_U+30A4_U+30E4_U+30FC 1
 62
     7
420
 16777215
370
    25
100
AcDbVertex
100
AcDb2dVertex
 10
139.5883775499149
 20
-145.0126921859692
 30
0.0
  0
VERTEX
  5
5B
330
59
100
AcDbEntity
  8
_U+30EC_U+30A4_U+30E4_U+30FC 1
 62
     7
420
 16777215
370
    25
100
AcDbVertex
100
AcDb2dVertex
 10
139.5883775499149
 20
-142.0119996867194
 30
0.0
  0
SEQEND
  5
5C
330
59
100
AcDbEntity
  8
_U+30EC_U+30A4_U+30E4_U+30FC 1
 62
     7
420
 16777215
370
    25
  0
POLYLINE
  5
5D
330
41
100
AcDbEntity
  8
_U+30EC_U+30A4_U+30E4_U+30FC 1
 62
     7
420
 16777215
370
    25
100
AcDb2dPolyline
 66
     1
 10
0.0
 20
0.0
 30
0.0
  0
VERTEX
  5
5E
330
5D
100
AcDbEntity
  8
_U+30EC_U+30A4_U+30E4_U+30FC 1
 62
     7
420
 16777215
370
    25
100
AcDbVertex
100
AcDb2dVertex
 10
39.5776087125133
 20
-145.0126921859692
 30
0.0
  0
VERTEX
  5
5F
330
5D
100
AcDbEntity
  8
_U+30EC_U+30A4_U+30E4_U+30FC 1
 62
     7
420
 16777215
370
    25
100
AcDbVertex
100
AcDb2dVertex
 10
39.5776087125133
 20
-114.9962421934733
 30
0.0
  0
SEQEND
  5
60
330
5D
100
AcDbEntity
  8
_U+30EC_U+30A4_U+30E4_U+30FC 1
 62
     7
420
 16777215
370
    25
  0
POLYLINE
  5
61
330
41
100
AcDbEntity
  8
_U+30EC_U+30A4_U+30E4_U+30FC 1
 62
     7
420
 16777215
370
    25
100
AcDb2dPolyline
 66
     1
 10
0.0
 20
0.0
 30
0.0
  0
VERTEX
  5
62
330
61
100
AcDbEntity
  8
_U+30EC_U+30A4_U+30E4_U+30FC 1
 62
     7
420
 16777215
370
    25
100
AcDbVertex
100
AcDb2dVertex
 10
40.97164534361514
 20
-143.6077546863204
 30
0.0
  0
VERTEX
  5
63
330
61
100
AcDbEntity
  8
_U+30EC_U+30A4_U+30E4_U+30FC 1
 62
     7
420
 16777215
370
    25
100
AcDbVertex
100
AcDb2dVertex
 10
40.97164534361514
 20
-114.9962421934733
 30
0.0
  0
SEQEND
  5
64
330
61
100
AcDbEntity
  8
_U+30EC_U+30A4_U+30E4_U+30FC 1
 62
     7
420
 16777215
370
    25
  0
POLYLINE
  5
65
330
41
100
AcDbEntity
  8
_U+30EC_U+30A4_U+30E4_U+30FC 1
 62
     7
420
 16777215
370
    25
100
AcDb2dPolyline
 66
     1
 10
0.0
 20
0.0
 30
0.0
  0
VERTEX
  5
66
330
65
100
AcDbEntity
  8
_U+30EC_U+30A4_U+30E4_U+30FC 1
 62
     7
420
 16777215
370
    25
100
AcDbVertex
100
AcDb2dVertex
 10
138.1924359188617
 20
-142.0119996867194
 30
0.0
  0
VERTEX
  5
67
330
65
100
AcDbEntity
  8
_U+30EC_U+30A4_U+30E4_U+30FC 1
 62
     7
420
 16777215
370
    25
100
AcDbVertex
100
AcDb2dVertex
 10
139.5883775499149
 20
-142.0119996867194
 30
0.0
  0
SEQEND
  5
68
330
65
100
AcDbEntity
  8
_U+30EC_U+30A4_U+30E4_U+30FC 1
 62
     7
420
 16777215
370
    25
  0
POLYLINE
  5
69
330
41
100
AcDbEntity
  8
_U+30EC_U+30A4_U+30E4_U+30FC 1
 62
     7
420
 16777215
370
    25
100
AcDb2dPolyline
 66
     1
 10
0.0
 20
0.0
 30
0.0
  0
VERTEX
  5
6A
330
69
100
AcDbEntity
  8
_U+30EC_U+30A4_U+30E4_U+30FC 1
 62
     7
420
 16777215
370
    25
100
AcDbVertex
100
AcDb2dVertex
 10
138.1924359188617
 20
-143.6077546863204
 30
0.0
  0
VERTEX
  5
6B
330
69
100
AcDbEntity
  8
_U+30EC_U+30A4_U+30E4_U+30FC 1
 62
     7
420
 16777215
370
    25
100
AcDbVertex
100
AcDb2dVertex
 10
138.1924359188617
 20
-142.0119996867194
 30
0.0
  0
SEQEND
  5
6C
330
69
100
AcDbEntity
  8
_U+30EC_U+30A4_U+30E4_U+30FC 1
 62
     7
420
 16777215
370
    25
  0
POLYLINE
  5
6D
330
41
100
AcDbEntity
  8
_U+30EC_U+30A4_U+30E4_U+30FC 1
 62
     7
420
 16777215
370
    25
100
AcDb2dPolyline
 66
     1
 10
0.0
 20
0.0
 30
0.0
  0
VERTEX
  5
6E
330
6D
100
AcDbEntity
  8
_U+30EC_U+30A4_U+30E4_U+30FC 1
 62
     7
420
 16777215
370
    25
100
AcDbVertex
100
AcDb2dVertex
 10
40.97164534361514
 20
-143.6077546863204
 30
0.0
  0
VERTEX
  5
6F
330
6D
100
AcDbEntity
  8
_U+30EC_U+30A4_U+30E4_U+30FC 1
 62
     7
420
 16777215
370
    25
100
AcDbVertex
100
AcDb2dVertex
 10
138.1924359188617
 20
-143.6077546863204
 30
0.0
  0
SEQEND
  5
70
330
6D
100
AcDbEntity
  8
_U+30EC_U+30A4_U+30E4_U+30FC 1
 62
     7
420
 16777215
370
    25
  0
SPLINE
  5
71
330
41
100
AcDbEntity
  8
_U+30EC_U+30A4_U+30E4_U+30FC 1
 62
     7
420
 16777215
370
     9
100
AcDbSpline
210
0.0
220
0.0
230
1.0
 70
    11
 71
     3
 72
    17
 73
    13
 74
     0
 42
0.0000000001
 43
0.0000000001
 12
1.0
 22
0.0
 32
0.0
 13
1.0
 23
0.0
 33
0.0
 40
0.0
 40
0.0
 40
0.0
 40
0.0
 40
1.0
 40
1.0
 40
1.0
 40
2.0
 40
2.0
 40
2.0
 40
3.0
 40
3.0
 40
3.0
 40
4.0
 40
4.0
 40
4.0
 40
4.0
 10
40.86383645747668
 20
-111.2955327499539
 30
0.0
 10
40.86383645747668
 20
-111.2403935833012
 30
0.0
 10
40.81903368084191
 20
-111.1956260833123
 30
0.0
 10
40.76392979335884
 20
-111.1956260833123
 30
0.0
 10
40.70879165648962
 20
-111.1956260833123
 30
0.0
 10
40.66402312924101
 20
-111.2403935833012
 30
0.0
 10
40.66402312924101
 20
-111.2955327499539
 30
0.0
 10
40.66402312924101
 20
-111.3506366388292
 30
0.0
 10
40.70879165648962
 20
-111.3954394165956
 30
0.0
 10
40.76392979335884
 20
-111.3954394165956
 30
0.0
 10
40.81903368084191
 20
-111.3954394165956
 30
0.0
 10
40.86383645747668
 20
-111.3506366388292
 30
0.0
 10
40.86383645747668
 20
-111.2955327499539
 30
0.0
  0
SPLINE
  5
72
330
41
100
AcDbEntity
  8
_U+30EC_U+30A4_U+30E4_U+30FC 1
 62
     7
420
 16777215
370
     9
100
AcDbSpline
210
0.0
220
0.0
230
1.0
 70
    11
 71
     3
 72
    17
 73
    13
 74
     0
 42
0.0000000001
 43
0.0000000001
 12
1.0
 22
0.0
 32
0.0
 13
1.0
 23
0.0
 33
0.0
 40
0.0
 40
0.0
 40
0.0
 40
0.0
 40
1.0
 40
1.0
 40
1.0
 40
2.0
 40
2.0
 40
2.0
 40
3.0
 40
3.0
 40
3.0
 40
4.0
 40
4.0
 40
4.0
 40
4.0
 10
39.67786815439992
 20
-111.2955327499539
 30
0.0
 10
39.67786815439992
 20
-111.2403935833012
 30
0.0
 10
39.63306537776516
 20
-111.1956260833123
 30
0.0
 10
39.5776087125133
 20
-111.1956260833123
 30
0.0
 10
39.52246954725336
 20
-111.1956260833123
 30
0.0
 10
39.47770204839547
 20
-111.2403935833012
 30
0.0
 10
39.47770204839547
 20
-111.2955327499539
 30
0.0
 10
39.47770204839547
 20
-111.3506366388292
 30
0.0
 10
39.52246954725336
 20
-111.3954394165956
 30
0.0
 10
39.5776087125133
 20
-111.3954394165956
 30
0.0
 10
39.63306537776516
 20
-111.3954394165956
 30
0.0
 10
39.67786815439992
 20
-111.3506366388292
 30
0.0
 10
39.67786815439992
 20
-111.2955327499539
 30
0.0
  0
SPLINE
  5
73
330
41
100
AcDbEntity
  8
_U+30EC_U+30A4_U+30E4_U+30FC 1
 62
     7
420
 16777215
370
     9
100
AcDbSpline
210
0.0
220
0.0
230
1.0
 70
    11
 71
     3
 72
    17
 73
    13
 74
     0
 42
0.0000000001
 43
0.0000000001
 12
1.0
 22
0.0
 32
0.0
 13
1.0
 23
0.0
 33
0.0
 40
0.0
 40
0.0
 40
0.0
 40
0.0
 40
1.0
 40
1.0
 40
1.0
 40
2.0
 40
2.0
 40
2.0
 40
3.0
 40
3.0
 40
3.0
 40
4.0
 40
4.0
 40
4.0
 40
4.0
 10
139.6882842140328
 20
-149.0127688516357
 30
0.0
 10
139.6882842140328
 20
-148.9576649627608
 30
0.0
 10
139.643481437398
 20
-148.9128621849941
 30
0.0
 10
139.5883775499149
 20
-148.9128621849941
 30
0.0
 10
139.5329208846631
 20
-148.9128621849941
 30
0.0
 10
139.4881181080283
 20
-148.9576649627608
 30
0.0
 10
139.4881181080283
 20
-149.0127688516357
 30
0.0
 10
139.4881181080283
 20
-149.0679080182888
 30
0.0
 10
139.5329208846631
 20
-149.1126755182773
 30
0.0
 10
139.5883775499149
 20
-149.1126755182773
 30
0.0
 10
139.643481437398
 20
-149.1126755182773
 30
0.0
 10
139.6882842140328
 20
-149.0679080182888
 30
0.0
 10
139.6882842140328
 20
-149.0127688516357
 30
0.0
  0
SPLINE
  5
74
330
41
100
AcDbEntity
  8
_U+30EC_U+30A4_U+30E4_U+30FC 1
 62
     7
420
 16777215
370
     9
100
AcDbSpline
210
0.0
220
0.0
230
1.0
 70
    11
 71
     3
 72
    17
 73
    13
 74
     0
 42
0.0000000001
 43
0.0000000001
 12
1.0
 22
0.0
 32
0.0
 13
1.0
 23
0.0
 33
0.0
 40
0.0
 40
0.0
 40
0.0
 40
0.0
 40
1.0
 40
1.0
 40
1.0
 40
2.0
 40
2.0
 40
2.0
 40
3.0
 40
3.0
 40
3.0
 40
4.0
 40
4.0
 40
4.0
 40
4.0
 10
39.67786815439992
 20
-149.0127688516357
 30
0.0
 10
39.67786815439992
 20
-148.9576649627608
 30
0.0
 10
39.63306537776516
 20
-148.9128621849941
 30
0.0
 10
39.5776087125133
 20
-148.9128621849941
 30
0.0
 10
39.52246954725336
 20
-148.9128621849941
 30
0.0
 10
39.47770204839547
 20
-148.9576649627608
 30
0.0
 10
39.47770204839547
 20
-149.0127688516357
 30
0.0
 10
39.47770204839547
 20
-149.0679080182888
 30
0.0
 10
39.52246954725336
 20
-149.1126755182773
 30
0.0
 10
39.5776087125133
 20
-149.1126755182773
 30
0.0
 10
39.63306537776516
 20
-149.1126755182773
 30
0.0
 10
39.67786815439992
 20
-149.0679080182888
 30
0.0
 10
39.67786815439992
 20
-149.0127688516357
 30
0.0
  0
SPLINE
  5
75
330
41
100
AcDbEntity
  8
_U+30EC_U+30A4_U+30E4_U+30FC 1
 62
     7
420
 16777215
370
     9
100
AcDbSpline
210
0.0
220
0.0
230
1.0
 70
    11
 71
     3
 72
    17
 73
    13
 74
     0
 42
0.0000000001
 43
0.0000000001
 12
1.0
 22
0.0
 32
0.0
 13
1.0
 23
0.0
 33
0.0
 40
0.0
 40
0.0
 40
0.0
 40
0.0
 40
1.0
 40
1.0
 40
1.0
 40
2.0
 40
2.0
 40
2.0
 40
3.0
 40
3.0
 40
3.0
 40
4.0
 40
4.0
 40
4.0
 40
4.0
 10
143.9384802167123
 20
-115.0121171934693
 30
0.0
 10
143.9384802167123
 20
-114.9569780268162
 30
0.0
 10
143.8937127178544
 20
-114.9122105268274
 30
0.0
 10
143.8382560526026
 20
-114.9122105268274
 30
0.0
 10
143.7831168873426
 20
-114.9122105268274
 30
0.0
 10
143.7383493884847
 20
-114.9569780268162
 30
0.0
 10
143.7383493884847
 20
-115.0121171934693
 30
0.0
 10
143.7383493884847
 20
-115.0672210823442
 30
0.0
 10
143.7831168873426
 20
-115.112023860111
 30
0.0
 10
143.8382560526026
 20
-115.112023860111
 30
0.0
 10
143.8937127178544
 20
-115.112023860111
 30
0.0
 10
143.9384802167123
 20
-115.0672210823442
 30
0.0
 10
143.9384802167123
 20
-115.0121171934693
 30
0.0
  0
SPLINE
  5
76
330
41
100
AcDbEntity
  8
_U+30EC_U+30A4_U+30E4_U+30FC 1
 62
     7
420
 16777215
370
     9
100
AcDbSpline
210
0.0
220
0.0
230
1.0
 70
    11
 71
     3
 72
    17
 73
    13
 74
     0
 42
0.0000000001
 43
0.0000000001
 12
1.0
 22
0.0
 32
0.0
 13
1.0
 23
0.0
 33
0.0
 40
0.0
 40
0.0
 40
0.0
 40
0.0
 40
1.0
 40
1.0
 40
1.0
 40
2.0
 40
2.0
 40
2.0
 40
3.0
 40
3.0
 40
3.0
 40
4.0
 40
4.0
 40
4.0
 40
4.0
 10
143.9384802167123
 20
-142.0119996867194
 30
0.0
 10
143.9384802167123
 20
-141.9568957978438
 30
0.0
 10
143.8937127178544
 20
-141.9120930200777
 30
0.0
 10
143.8382560526026
 20
-141.9120930200777
 30
0.0
 10
143.7831168873426
 20
-141.9120930200777
 30
0.0
 10
143.7383493884847
 20
-141.9568957978438
 30
0.0
 10
143.7383493884847
 20
-142.0119996867194
 30
0.0
 10
143.7383493884847
 20
-142.0674563533721
 30
0.0
 10
143.7831168873426
 20
-142.1122591311388
 30
0.0
 10
143.8382560526026
 20
-142.1122591311388
 30
0.0
 10
143.8937127178544
 20
-142.1122591311388
 30
0.0
 10
143.9384802167123
 20
-142.0674563533721
 30
0.0
 10
143.9384802167123
 20
-142.0119996867194
 30
0.0
  0
SPLINE
  5
77
330
41
100
AcDbEntity
  8
_U+30EC_U+30A4_U+30E4_U+30FC 1
 62
     7
420
 16777215
370
     9
100
AcDbSpline
210
0.0
220
0.0
230
1.0
 70
    11
 71
     3
 72
    17
 73
    13
 74
     0
 42
0.0000000001
 43
0.0000000001
 12
1.0
 22
0.0
 32
0.0
 13
1.0
 23
0.0
 33
0.0
 40
0.0
 40
0.0
 40
0.0
 40
0.0
 40
1.0
 40
1.0
 40
1.0
 40
2.0
 40
2.0
 40
2.0
 40
3.0
 40
3.0
 40
3.0
 40
4.0
 40
4.0
 40
4.0
 40
4.0
 10
143.9384802167123
 20
-145.0126921859692
 30
0.0
 10
143.9384802167123
 20
-144.9575530193162
 30
0.0
 10
143.8937127178544
 20
-144.9127855193276
 30
0.0
 10
143.8382560526026
 20
-144.9127855193276
 30
0.0
 10
143.7831168873426
 20
-144.9127855193276
 30
0.0
 10
143.7383493884847
 20
-144.9575530193162
 30
0.0
 10
143.7383493884847
 20
-145.0126921859692
 30
0.0
 10
143.7383493884847
 20
-145.0681488526219
 30
0.0
 10
143.7831168873426
 20
-145.1129516303886
 30
0.0
 10
143.8382560526026
 20
-145.1129516303886
 30
0.0
 10
143.8937127178544
 20
-145.1129516303886
 30
0.0
 10
143.9384802167123
 20
-145.0681488526219
 30
0.0
 10
143.9384802167123
 20
-145.0126921859692
 30
0.0
  0
POLYLINE
  5
78
330
41
100
AcDbEntity
  8
_U+30EC_U+30A4_U+30E4_U+30FC 1
 62
     7
420
 16777215
370
     9
100
AcDb2dPolyline
 66
     1
 10
0.0
 20
0.0
 30
0.0
  0
VERTEX
  5
79
330
78
100
AcDbEntity
  8
_U+30EC_U+30A4_U+30E4_U+30FC 1
 62
     7
420
 16777215
370
     9
100
AcDbVertex
100
AcDb2dVertex
 10
40.57769840922111
 20
-111.2955327499539
 30
0.0
  0
VERTEX
  5
7A
330
78
100
AcDbEntity
  8
_U+30EC_U+30A4_U+30E4_U+30FC 1
 62
     7
420
 16777215
370
     9
100
AcDbVertex
100
AcDb2dVertex
 10
44.34801081303243
 20
-111.2955327499539
 30
0.0
  0
SEQEND
  5
7B
330
78
100
AcDbEntity
  8
_U+30EC_U+30A4_U+30E4_U+30FC 1
 62
     7
420
 16777215
370
     9
  0
POLYLINE
  5
7C
330
41
100
AcDbEntity
  8
_U+30EC_U+30A4_U+30E4_U+30FC 1
 62
     7
420
 16777215
370
     9
100
AcDb2dPolyline
 66
     1
 10
0.0
 20
0.0
 30
0.0
  0
VERTEX
  5
7D
330
7C
100
AcDbEntity
  8
_U+30EC_U+30A4_U+30E4_U+30FC 1
 62
     7
420
 16777215
370
     9
100
AcDbVertex
100
AcDb2dVertex
 10
38.57783651579739
 20
-111.2955327499539
 30
0.0
  0
VERTEX
  5
7E
330
7C
100
AcDbEntity
  8
_U+30EC_U+30A4_U+30E4_U+30FC 1
 62
     7
420
 16777215
370
     9
100
AcDbVertex
100
AcDb2dVertex
 10
40.57769840922111
 20
-111.2955327499539
 30
0.0
  0
SEQEND
  5
7F
330
7C
100
AcDbEntity
  8
_U+30EC_U+30A4_U+30E4_U+30FC 1
 62
     7
420
 16777215
370
     9
  0
POLYLINE
  5
80
330
41
100
AcDbEntity
  8
_U+30EC_U+30A4_U+30E4_U+30FC 1
 62
     7
420
 16777215
370
     9
100
AcDb2dPolyline
 66
     1
 10
0.0
 20
0.0
 30
0.0
  0
VERTEX
  5
81
330
80
100
AcDbEntity
  8
_U+30EC_U+30A4_U+30E4_U+30FC 1
 62
     7
420
 16777215
370
     9
100
AcDbVertex
100
AcDb2dVertex
 10
39.5776087125133
 20
-112.7555741384776
 30
0.0
  0
VERTEX
  5
82
330
80
100
AcDbEntity
  8
_U+30EC_U+30A4_U+30E4_U+30FC 1
 62
     7
420
 16777215
370
     9
100
AcDbVertex
100
AcDb2dVertex
 10
39.5776087125133
 20
-110.2957605279817
 30
0.0
  0
SEQEND
  5
83
330
80
100
AcDbEntity
  8
_U+30EC_U+30A4_U+30E4_U+30FC 1
 62
     7
420
 16777215
370
     9
  0
POLYLINE
  5
84
330
41
100
AcDbEntity
  8
_U+30EC_U+30A4_U+30E4_U+30FC 1
 62
     7
420
 16777215
370
     9
100
AcDb2dPolyline
 66
     1
 10
0.0
 20
0.0
 30
0.0
  0
VERTEX
  5
85
330
84
100
AcDbEntity
  8
_U+30EC_U+30A4_U+30E4_U+30FC 1
 62
     7
420
 16777215
370
     9
100
AcDbVertex
100
AcDb2dVertex
 10
40.76392979335884
 20
-112.7555741384776
 30
0.0
  0
VERTEX
  5
86
330
84
100
AcDbEntity
  8
_U+30EC_U+30A4_U+30E4_U+30FC 1
 62
     7
420
 16777215
370
     9
100
AcDbVertex
100
AcDb2dVertex
 10
40.76392979335884
 20
-110.2957605279817
 30
0.0
  0
SEQEND
  5
87
330
84
100
AcDbEntity
  8
_U+30EC_U+30A4_U+30E4_U+30FC 1
 62
     7
420
 16777215
370
     9
  0
INSERT
  5
89
330
41
100
AcDbEntity
  8
_U+30EC_U+30A4_U+30E4_U+30FC 1
100
AcDbBlockReference
  2
block 3
 10
0.0
 20
0.0
 30
0.0
  0
POLYLINE
  5
AB
330
41
100
AcDbEntity
  8
_U+30EC_U+30A4_U+30E4_U+30FC 1
 62
     7
420
 16777215
370
     9
100
AcDb2dPolyline
 66
     1
 10
0.0
 20
0.0
 30
0.0
  0
VERTEX
  5
AC
330
AB
100
AcDbEntity
  8
_U+30EC_U+30A4_U+30E4_U+30FC 1
 62
     7
420
 16777215
370
     9
100
AcDbVertex
100
AcDb2dVertex
 10
143.8382560526026
 20
-145.0126921859692
 30
0.0
  0
VERTEX
  5
AD
330
AB
100
AcDbEntity
  8
_U+30EC_U+30A4_U+30E4_U+30FC 1
 62
     7
420
 16777215
370
     9
100
AcDbVertex
100
AcDb2dVertex
 10
143.8382560526026
 20
-141.8152907978796
 30
0.0
  0
SEQEND
  5
AE
330
AB
100
AcDbEntity
  8
_U+30EC_U+30A4_U+30E4_U+30FC 1
 62
     7
420
 16777215
370
     9
  0
POLYLINE
  5
AF
330
41
100
AcDbEntity
  8
_U+30EC_U+30A4_U+30E4_U+30FC 1
 62
     7
420
 16777215
370
     9
100
AcDb2dPolyline
 66
     1
 10
0.0
 20
0.0
 30
0.0
  0
VERTEX
  5
B0
330
AF
100
AcDbEntity
  8
_U+30EC_U+30A4_U+30E4_U+30FC 1
 62
     7
420
 16777215
370
     9
100
AcDbVertex
100
AcDb2dVertex
 10
142.3782147009625
 20
-145.0126921859692
 30
0.0
  0
VERTEX
  5
B1
330
AF
100
AcDbEntity
  8
_U+30EC_U+30A4_U+30E4_U+30FC 1
 62
     7
420
 16777215
370
     9
100
AcDbVertex
100
AcDb2dVertex
 10
144.8383457493104
 20
-145.0126921859692
 30
0.0
  0
SEQEND
  5
B2
330
AF
100
AcDbEntity
  8
_U+30EC_U+30A4_U+30E4_U+30FC 1
 62
     7
420
 16777215
370
     9
  0
POLYLINE
  5
B3
330
41
100
AcDbEntity
  8
_U+30EC_U+30A4_U+30E4_U+30FC 1
 62
     7
420
 16777215
370
     9
100
AcDb2dPolyline
 66
     1
 10
0.0
 20
0.0
 30
0.0
  0
VERTEX
  5
B4
330
B3
100
AcDbEntity
  8
_U+30EC_U+30A4_U+30E4_U+30FC 1
 62
     7
420
 16777215
370
     9
100
AcDbVertex
100
AcDb2dVertex
 10
142.3782147009625
 20
-142.0119996867194
 30
0.0
  0
VERTEX
  5
B5
330
B3
100
AcDbEntity
  8
_U+30EC_U+30A4_U+30E4_U+30FC 1
 62
     7
420
 16777215
370
     9
100
AcDbVertex
100
AcDb2dVertex
 10
144.8383457493104
 20
-142.0119996867194
 30
0.0
  0
SEQEND
  5
B6
330
B3
100
AcDbEntity
  8
_U+30EC_U+30A4_U+30E4_U+30FC 1
 62
     7
420
 16777215
370
     9
  0
INSERT
  5
B8
330
41
100
AcDbEntity
  8
_U+30EC_U+30A4_U+30E4_U+30FC 1
100
AcDbBlockReference
  2
block 4
 10
0.0
 20
0.0
 30
0.0
  0
POLYLINE
  5
BD
330
41
100
AcDbEntity
  8
_U+30EC_U+30A4_U+30E4_U+30FC 1
 62
     7
420
 16777215
370
     9
100
AcDb2dPolyline
 66
     1
 10
0.0
 20
0.0
 30
0.0
  0
VERTEX
  5
BE
330
BD
100
AcDbEntity
  8
_U+30EC_U+30A4_U+30E4_U+30FC 1
 62
     7
420
 16777215
370
     9
100
AcDbVertex
100
AcDb2dVertex
 10
39.5776087125133
 20
-149.0127688516357
 30
0.0
  0
VERTEX
  5
BF
330
BD
100
AcDbEntity
  8
_U+30EC_U+30A4_U+30E4_U+30FC 1
 62
     7
420
 16777215
370
     9
100
AcDbVertex
100
AcDb2dVertex
 10
139.577688383521
 20
-149.0127688516357
 30
0.0
  0
SEQEND
  5
C0
330
BD
100
AcDbEntity
  8
_U+30EC_U+30A4_U+30E4_U+30FC 1
 62
     7
420
 16777215
370
     9
  0
POLYLINE
  5
C1
330
41
100
AcDbEntity
  8
_U+30EC_U+30A4_U+30E4_U+30FC 1
 62
     7
420
 16777215
370
     9
100
AcDb2dPolyline
 66
     1
 10
0.0
 20
0.0
 30
0.0
  0
VERTEX
  5
C2
330
C1
100
AcDbEntity
  8
_U+30EC_U+30A4_U+30E4_U+30FC 1
 62
     7
420
 16777215
370
     9
100
AcDbVertex
100
AcDb2dVertex
 10
39.5776087125133
 20
-147.5527627408895
 30
0.0
  0
VERTEX
  5
C3
330
C1
100
AcDbEntity
  8
_U+30EC_U+30A4_U+30E4_U+30FC 1
 62
     7
420
 16777215
370
     9
100
AcDbVertex
100
AcDb2dVertex
 10
39.5776087125133
 20
-150.0128938513854
 30
0.0
  0
SEQEND
  5
C4
330
C1
100
AcDbEntity
  8
_U+30EC_U+30A4_U+30E4_U+30FC 1
 62
     7
420
 16777215
370
     9
  0
POLYLINE
  5
C5
330
41
100
AcDbEntity
  8
_U+30EC_U+30A4_U+30E4_U+30FC 1
 62
     7
420
 16777215
370
     9
100
AcDb2dPolyline
 66
     1
 10
0.0
 20
0.0
 30
0.0
  0
VERTEX
  5
C6
330
C5
100
AcDbEntity
  8
_U+30EC_U+30A4_U+30E4_U+30FC 1
 62
     7
420
 16777215
370
     9
100
AcDbVertex
100
AcDb2dVertex
 10
139.5883775499149
 20
-147.5527627408895
 30
0.0
  0
VERTEX
  5
C7
330
C5
100
AcDbEntity
  8
_U+30EC_U+30A4_U+30E4_U+30FC 1
 62
     7
420
 16777215
370
     9
100
AcDbVertex
100
AcDb2dVertex
 10
139.5883775499149
 20
-150.0128938513854
 30
0.0
  0
SEQEND
  5
C8
330
C5
100
AcDbEntity
  8
_U+30EC_U+30A4_U+30E4_U+30FC 1
 62
     7
420
 16777215
370
     9
  0
INSERT
  5
CA
330
41
100
AcDbEntity
  8
_U+30EC_U+30A4_U+30E4_U+30FC 1
100
AcDbBlockReference
  2
block 5
 10
0.0
 20
0.0
 30
0.0
  0
POLYLINE
  5
D5
330
41
100
AcDbEntity
  8
_U+30EC_U+30A4_U+30E4_U+30FC 1
 62
     7
420
 16777215
370
     9
100
AcDb2dPolyline
 66
     1
 10
0.0
 20
0.0
 30
0.0
  0
VERTEX
  5
D6
330
D5
100
AcDbEntity
  8
_U+30EC_U+30A4_U+30E4_U+30FC 1
 62
     7
420
 16777215
370
     9
100
AcDbVertex
100
AcDb2dVertex
 10
143.8382560526026
 20
-115.0121171934693
 30
0.0
  0
VERTEX
  5
D7
330
D5
100
AcDbEntity
  8
_U+30EC_U+30A4_U+30E4_U+30FC 1
 62
     7
420
 16777215
370
     9
100
AcDbVertex
100
AcDb2dVertex
 10
143.8382560526026
 20
-141.8152907978796
 30
0.0
  0
SEQEND
  5
D8
330
D5
100
AcDbEntity
  8
_U+30EC_U+30A4_U+30E4_U+30FC 1
 62
     7
420
 16777215
370
     9
  0
POLYLINE
  5
D9
330
41
100
AcDbEntity
  8
_U+30EC_U+30A4_U+30E4_U+30FC 1
 62
     7
420
 16777215
370
     9
100
AcDb2dPolyline
 66
     1
 10
0.0
 20
0.0
 30
0.0
  0
VERTEX
  5
DA
330
D9
100
AcDbEntity
  8
_U+30EC_U+30A4_U+30E4_U+30FC 1
 62
     7
420
 16777215
370
     9
100
AcDbVertex
100
AcDb2dVertex
 10
43.36771194915305
 20
-115.0121171934693
 30
0.0
  0
VERTEX
  5
DB
330
D9
100
AcDbEntity
  8
_U+30EC_U+30A4_U+30E4_U+30FC 1
 62
     7
420
 16777215
370
     9
100
AcDbVertex
100
AcDb2dVertex
 10
144.8383457493104
 20
-115.0121171934693
 30
0.0
  0
SEQEND
  5
DC
330
D9
100
AcDbEntity
  8
_U+30EC_U+30A4_U+30E4_U+30FC 1
 62
     7
420
 16777215
370
     9
  0
INSERT
  5
DE
330
41
100
AcDbEntity
  8
_U+30EC_U+30A4_U+30E4_U+30FC 1
100
AcDbBlockReference
  2
block 6
 10
0.0
 20
0.0
 30
0.0
  0
ENDBLK
  5
44
330
41
100
AcDbEntity
  8
0
100
AcDbBlockEnd
  0
BLOCK
  5
8A
330
88
100
AcDbEntity
  8
0
100
AcDbBlockBegin
  2
block 3
 70
     0
 10
0.0
 20
0.0
 30
0.0
  3
block 3
  1

  0
SPLINE
  5
8C
330
88
100
AcDbEntity
  8
_U+30EC_U+30A4_U+30E4_U+30FC 1
370
     0
100
AcDbSpline
210
0.0
220
0.0
230
1.0
 70
    11
 71
     3
 72
    26
 73
    22
 74
     0
 42
0.0000000001
 43
0.0000000001
 12
1.0
 22
0.0
 32
0.0
 13
1.0
 23
0.0
 33
0.0
 40
0.0
 40
0.0
 40
0.0
 40
0.0
 40
1.0
 40
1.0
 40
1.0
 40
2.0
 40
2.0
 40
2.0
 40
3.0
 40
3.0
 40
3.0
 40
4.0
 40
4.0
 40
4.0
 40
5.0
 40
5.0
 40
5.0
 40
6.0
 40
6.0
 40
6.0
 40
7.0
 40
7.0
 40
7.0
 40
7.0
 10
39.27081569113716
 20
-109.680126925705
 30
0.0
 10
39.27081569113716
 20
-109.680126925705
 30
0.0
 10
39.27081569113716
 20
-108.5758015679081
 30
0.0
 10
39.27081569113716
 20
-108.5758015679081
 30
0.0
 10
39.27081569113716
 20
-108.5758015679081
 30
0.0
 10
38.94077554365023
 20
-108.5758015679081
 30
0.0
 10
38.94077554365023
 20
-108.5758015679081
 30
0.0
 10
38.94077554365023
 20
-108.5758015679081
 30
0.0
 10
38.94077554365023
 20
-108.4278347168167
 30
0.0
 10
38.94077554365023
 20
-108.4278347168167
 30
0.0
 10
39.27288274842831
 20
-108.4130208062301
 30
0.0
 10
39.31939153747918
 20
-108.2500677897778
 30
0.0
 10
39.34901935865233
 20
-108.1358628744417
 30
0.0
 10
39.34901935865233
 20
-108.1358628744417
 30
0.0
 10
39.49509140722692
 20
-108.1358628744417
 30
0.0
 10
39.49509140722692
 20
-108.1358628744417
 30
0.0
 10
39.49509140722692
 20
-108.1358628744417
 30
0.0
 10
39.49509140722692
 20
-109.680126925705
 30
0.0
 10
39.49509140722692
 20
-109.680126925705
 30
0.0
 10
39.49509140722692
 20
-109.680126925705
 30
0.0
 10
39.27081569113716
 20
-109.680126925705
 30
0.0
 10
39.27081569113716
 20
-109.680126925705
 30
0.0
  0
HATCH
  5
8D
330
88
100
AcDbEntity
  8
_U+30EC_U+30A4_U+30E4_U+30FC 1
 62
     7
420
 16777215
100
AcDbHatch
 10
0.0
 20
0.0
 30
0.0
210
0.0
220
0.0
230
1.0
  2
SOLID
 70
     1
 71
     0
 91
        1
 92
        1
 93
        1
 72
     4
 94
        3
 73
     0
 74
     1
 95
       26
 96
       22
 40
0.0
 40
0.0
 40
0.0
 40
0.0
 40
1.0
 40
1.0
 40
1.0
 40
2.0
 40
2.0
 40
2.0
 40
3.0
 40
3.0
 40
3.0
 40
4.0
 40
4.0
 40
4.0
 40
5.0
 40
5.0
 40
5.0
 40
6.0
 40
6.0
 40
6.0
 40
7.0
 40
7.0
 40
7.0
 40
7.0
 10
39.27081569113716
 20
-109.680126925705
 10
39.27081569113716
 20
-109.680126925705
 10
39.27081569113716
 20
-108.5758015679081
 10
39.27081569113716
 20
-108.5758015679081
 10
39.27081569113716
 20
-108.5758015679081
 10
38.94077554365023
 20
-108.5758015679081
 10
38.94077554365023
 20
-108.5758015679081
 10
38.94077554365023
 20
-108.5758015679081
 10
38.94077554365023
 20
-108.4278347168167
 10
38.94077554365023
 20
-108.4278347168167
 10
39.27288274842831
 20
-108.4130208062301
 10
39.31939153747918
 20
-108.2500677897778
 10
39.34901935865233
 20
-108.1358628744417
 10
39.34901935865233
 20
-108.1358628744417
 10
39.49509140722692
 20
-108.1358628744417
 10
39.49509140722692
 20
-108.1358628744417
 10
39.49509140722692
 20
-108.1358628744417
 10
39.49509140722692
 20
-109.680126925705
 10
39.49509140722692
 20
-109.680126925705
 10
39.49509140722692
 20
-109.680126925705
 10
39.27081569113716
 20
-109.680126925705
 10
39.27081569113716
 20
-109.680126925705
 97
        0
 97
        0
 75
     2
 76
     1
 98
        0
  0
POLYLINE
  5
8E
330
88
100
AcDbEntity
  8
_U+30EC_U+30A4_U+30E4_U+30FC 1
370
     0
100
AcDb2dPolyline
 66
     1
 10
0.0
 20
0.0
 30
0.0
  0
VERTEX
  5
8F
330
8E
100
AcDbEntity
  8
_U+30EC_U+30A4_U+30E4_U+30FC 1
370
     0
100
AcDbVertex
100
AcDb2dVertex
 10
40.05629746177412
 20
-109.680126925705
 30
0.0
  0
VERTEX
  5
90
330
8E
100
AcDbEntity
  8
_U+30EC_U+30A4_U+30E4_U+30FC 1
370
     0
100
AcDbVertex
100
AcDb2dVertex
 10
40.05629746177412
 20
-109.4284627005075
 30
0.0
  0
VERTEX
  5
91
330
8E
100
AcDbEntity
  8
_U+30EC_U+30A4_U+30E4_U+30FC 1
370
     0
100
AcDbVertex
100
AcDb2dVertex
 10
40.30796168697162
 20
-109.4284627005075
 30
0.0
  0
VERTEX
  5
92
330
8E
100
AcDbEntity
  8
_U+30EC_U+30A4_U+30E4_U+30FC 1
370
     0
100
AcDbVertex
100
AcDb2dVertex
 10
40.30796168697162
 20
-109.680126925705
 30
0.0
  0
VERTEX
  5
93
330
8E
100
AcDbEntity
  8
_U+30EC_U+30A4_U+30E4_U+30FC 1
370
     0
100
AcDbVertex
100
AcDb2dVertex
 10
40.05629746177412
 20
-109.680126925705
 30
0.0
  0
SEQEND
  5
94
330
8E
100
AcDbEntity
  8
_U+30EC_U+30A4_U+30E4_U+30FC 1
370
     0
  0
HATCH
  5
95
330
88
100
AcDbEntity
  8
_U+30EC_U+30A4_U+30E4_U+30FC 1
 62
     7
420
 16777215
100
AcDbHatch
 10
0.0
 20
0.0
 30
0.0
210
0.0
220
0.0
230
1.0
  2
SOLID
 70
     1
 71
     0
 91
        1
 92
        1
 93
        4
 72
     1
 10
40.05629746177412
 20
-109.680126925705
 11
40.05629746177412
 21
-109.4284627005075
 72
     1
 10
40.05629746177412
 20
-109.4284627005075
 11
40.30796168697162
 21
-109.4284627005075
 72
     1
 10
40.30796168697162
 20
-109.4284627005075
 11
40.30796168697162
 21
-109.680126925705
 72
     1
 10
40.30796168697162
 20
-109.680126925705
 11
40.05629746177412
 21
-109.680126925705
 97
        0
 75
     2
 76
     1
 98
        0
  0
POLYLINE
  5
96
330
88
100
AcDbEntity
  8
_U+30EC_U+30A4_U+30E4_U+30FC 1
370
     0
100
AcDb2dPolyline
 66
     1
 10
0.0
 20
0.0
 30
0.0
  0
VERTEX
  5
97
330
96
100
AcDbEntity
  8
_U+30EC_U+30A4_U+30E4_U+30FC 1
370
     0
100
AcDbVertex
100
AcDb2dVertex
 10
41.37663030649612
 20
-109.3332058103403
 30
0.0
  0
VERTEX
  5
98
330
96
100
AcDbEntity
  8
_U+30EC_U+30A4_U+30E4_U+30FC 1
370
     0
100
AcDbVertex
100
AcDb2dVertex
 10
41.37663030649612
 20
-109.680126925705
 30
0.0
  0
VERTEX
  5
99
330
96
100
AcDbEntity
  8
_U+30EC_U+30A4_U+30E4_U+30FC 1
370
     0
100
AcDbVertex
100
AcDb2dVertex
 10
41.15855576227981
 20
-109.680126925705
 30
0.0
  0
VERTEX
  5
9A
330
96
100
AcDbEntity
  8
_U+30EC_U+30A4_U+30E4_U+30FC 1
370
     0
100
AcDbVertex
100
AcDb2dVertex
 10
41.15855576227981
 20
-109.3332058103403
 30
0.0
  0
VERTEX
  5
9B
330
96
100
AcDbEntity
  8
_U+30EC_U+30A4_U+30E4_U+30FC 1
370
     0
100
AcDbVertex
100
AcDb2dVertex
 10
40.5027818366625
 20
-109.3332058103403
 30
0.0
  0
VERTEX
  5
9C
330
96
100
AcDbEntity
  8
_U+30EC_U+30A4_U+30E4_U+30FC 1
370
     0
100
AcDbVertex
100
AcDb2dVertex
 10
40.5027818366625
 20
-109.1089300942506
 30
0.0
  0
VERTEX
  5
9D
330
96
100
AcDbEntity
  8
_U+30EC_U+30A4_U+30E4_U+30FC 1
370
     0
100
AcDbVertex
100
AcDb2dVertex
 10
41.18181015680524
 20
-108.1358628744417
 30
0.0
  0
VERTEX
  5
9E
330
96
100
AcDbEntity
  8
_U+30EC_U+30A4_U+30E4_U+30FC 1
370
     0
100
AcDbVertex
100
AcDb2dVertex
 10
41.37663030649612
 20
-108.1358628744417
 30
0.0
  0
VERTEX
  5
9F
330
96
100
AcDbEntity
  8
_U+30EC_U+30A4_U+30E4_U+30FC 1
370
     0
100
AcDbVertex
100
AcDb2dVertex
 10
41.37663030649612
 20
-109.1342515460671
 30
0.0
  0
VERTEX
  5
A0
330
96
100
AcDbEntity
  8
_U+30EC_U+30A4_U+30E4_U+30FC 1
370
     0
100
AcDbVertex
100
AcDb2dVertex
 10
41.58368054515964
 20
-109.1342515460671
 30
0.0
  0
VERTEX
  5
A1
330
96
100
AcDbEntity
  8
_U+30EC_U+30A4_U+30E4_U+30FC 1
370
     0
100
AcDbVertex
100
AcDb2dVertex
 10
41.58368054515964
 20
-109.3332058103403
 30
0.0
  0
VERTEX
  5
A2
330
96
100
AcDbEntity
  8
_U+30EC_U+30A4_U+30E4_U+30FC 1
370
     0
100
AcDbVertex
100
AcDb2dVertex
 10
41.37663030649612
 20
-109.3332058103403
 30
0.0
  0
SEQEND
  5
A3
330
96
100
AcDbEntity
  8
_U+30EC_U+30A4_U+30E4_U+30FC 1
370
     0
  0
POLYLINE
  5
A4
330
88
100
AcDbEntity
  8
_U+30EC_U+30A4_U+30E4_U+30FC 1
370
     0
100
AcDb2dPolyline
 66
     1
 10
0.0
 20
0.0
 30
0.0
  0
VERTEX
  5
A5
330
A4
100
AcDbEntity
  8
_U+30EC_U+30A4_U+30E4_U+30FC 1
370
     0
100
AcDbVertex
100
AcDb2dVertex
 10
41.15855576227981
 20
-108.4784776204498
 30
0.0
  0
VERTEX
  5
A6
330
A4
100
AcDbEntity
  8
_U+30EC_U+30A4_U+30E4_U+30FC 1
370
     0
100
AcDbVertex
100
AcDb2dVertex
 10
40.70173610093568
 20
-109.1342515460671
 30
0.0
  0
VERTEX
  5
A7
330
A4
100
AcDbEntity
  8
_U+30EC_U+30A4_U+30E4_U+30FC 1
370
     0
100
AcDbVertex
100
AcDb2dVertex
 10
41.15855576227981
 20
-109.1342515460671
 30
0.0
  0
VERTEX
  5
A8
330
A4
100
AcDbEntity
  8
_U+30EC_U+30A4_U+30E4_U+30FC 1
370
     0
100
AcDbVertex
100
AcDb2dVertex
 10
41.15855576227981
 20
-108.4784776204498
 30
0.0
  0
SEQEND
  5
A9
330
A4
100
AcDbEntity
  8
_U+30EC_U+30A4_U+30E4_U+30FC 1
370
     0
  0
HATCH
  5
AA
330
88
100
AcDbEntity
  8
_U+30EC_U+30A4_U+30E4_U+30FC 1
 62
     7
420
 16777215
100
AcDbHatch
 10
0.0
 20
0.0
 30
0.0
210
0.0
220
0.0
230
1.0
  2
SOLID
 70
     1
 71
     0
 91
        2
 92
        1
 93
       11
 72
     1
 10
41.37663030649612
 20
-109.3332058103403
 11
41.37663030649612
 21
-109.680126925705
 72
     1
 10
41.37663030649612
 20
-109.680126925705
 11
41.15855576227981
 21
-109.680126925705
 72
     1
 10
41.15855576227981
 20
-109.680126925705
 11
41.15855576227981
 21
-109.3332058103403
 72
     1
 10
41.15855576227981
 20
-109.3332058103403
 11
40.5027818366625
 21
-109.3332058103403
 72
     1
 10
40.5027818366625
 20
-109.3332058103403
 11
40.5027818366625
 21
-109.1089300942506
 72
     1
 10
40.5027818366625
 20
-109.1089300942506
 11
41.18181015680524
 21
-108.1358628744417
 72
     1
 10
41.18181015680524
 20
-108.1358628744417
 11
41.37663030649612
 21
-108.1358628744417
 72
     1
 10
41.37663030649612
 20
-108.1358628744417
 11
41.37663030649612
 21
-109.1342515460671
 72
     1
 10
41.37663030649612
 20
-109.1342515460671
 11
41.58368054515964
 21
-109.1342515460671
 72
     1
 10
41.58368054515964
 20
-109.1342515460671
 11
41.58368054515964
 21
-109.3332058103403
 72
     1
 10
41.58368054515964
 20
-109.3332058103403
 11
41.37663030649612
 21
-109.3332058103403
 97
        0
 92
        1
 93
        3
 72
     1
 10
41.15855576227981
 20
-108.4784776204498
 11
40.70173610093568
 21
-109.1342515460671
 72
     1
 10
40.70173610093568
 20
-109.1342515460671
 11
41.15855576227981
 21
-109.1342515460671
 72
     1
 10
41.15855576227981
 20
-109.1342515460671
 11
41.15855576227981
 21
-108.4784776204498
 97
        0
 75
     2
 76
     1
 98
        0
  0
ENDBLK
  5
8B
330
88
100
AcDbEntity
  8
0
100
AcDbBlockEnd
  0
BLOCK
  5
B9
330
B7
100
AcDbEntity
  8
0
100
AcDbBlockBegin
  2
block 4
 70
     0
 10
0.0
 20
0.0
 30
0.0
  3
block 4
  1

  0
SPLINE
  5
BB
330
B7
100
AcDbEntity
  8
_U+30EC_U+30A4_U+30E4_U+30FC 1
370
     0
100
AcDbSpline
210
0.0
220
0.0
230
1.0
 70
    11
 71
     3
 72
    62
 73
    58
 74
     0
 42
0.0000000001
 43
0.0000000001
 12
1.0
 22
0.0
 32
0.0
 13
1.0
 23
0.0
 33
0.0
 40
0.0
 40
0.0
 40
0.0
 40
0.0
 40
1.0
 40
1.0
 40
1.0
 40
2.0
 40
2.0
 40
2.0
 40
3.0
 40
3.0
 40
3.0
 40
4.0
 40
4.0
 40
4.0
 40
5.0
 40
5.0
 40
5.0
 40
6.0
 40
6.0
 40
6.0
 40
7.0
 40
7.0
 40
7.0
 40
8.0
 40
8.0
 40
8.0
 40
9.0
 40
9.0
 40
9.0
 40
10.0
 40
10.0
 40
10.0
 40
11.0
 40
11.0
 40
11.0
 40
12.0
 40
12.0
 40
12.0
 40
13.0
 40
13.0
 40
13.0
 40
14.0
 40
14.0
 40
14.0
 40
15.0
 40
15.0
 40
15.0
 40
16.0
 40
16.0
 40
16.0
 40
17.0
 40
17.0
 40
17.0
 40
18.0
 40
18.0
 40
18.0
 40
19.0
 40
19.0
 40
19.0
 40
19.0
 10
142.2380018090586
 20
-143.5202663486685
 30
0.0
 10
142.2380018090586
 20
-143.61569549361
 30
0.0
 10
142.2169867265985
 20
-143.8334255282778
 30
0.0
 10
142.030951570395
 20
-143.9584824943923
 30
0.0
 10
141.9186414575759
 20
-144.0325520473252
 30
0.0
 10
141.8194227076007
 20
-144.0366861619075
 30
0.0
 10
141.7346733586636
 20
-144.0408202764898
 30
0.0
 10
141.7346733586636
 20
-144.0408202764898
 30
0.0
 10
141.7346733586636
 20
-143.8206786749823
 30
0.0
 10
141.7346733586636
 20
-143.8206786749823
 30
0.0
 10
141.8087429115964
 20
-143.8186116176912
 30
0.0
 10
142.0433539141419
 20
-143.8082763312354
 30
0.0
 10
142.0433539141419
 20
-143.5247449727994
 30
0.0
 10
142.0433539141419
 20
-143.3872856629379
 30
0.0
 10
141.9737629853399
 20
-143.2346679329413
 30
0.0
 10
141.7453531546678
 20
-143.2346679329413
 30
0.0
 10
141.6289089272664
 20
-143.2346679329413
 30
0.0
 10
141.5803330809244
 20
-143.2729084928276
 30
0.0
 10
141.5486382024601
 20
-143.3046033712919
 30
0.0
 10
141.4745686495272
 20
-143.3786729242248
 30
0.0
 10
141.4618217962318
 20
-143.4951171516262
 30
0.0
 10
141.4618217962318
 20
-143.5498941698417
 30
0.0
 10
141.4618217962318
 20
-143.5691867045591
 30
0.0
 10
141.4638888535229
 20
-143.6050156976057
 30
0.0
 10
141.4680229681052
 20
-143.6325764614877
 30
0.0
 10
141.4680229681052
 20
-143.6325764614877
 30
0.0
 10
141.2733750731886
 20
-143.6325764614877
 30
0.0
 10
141.2733750731886
 20
-143.6325764614877
 30
0.0
 10
141.2799207546106
 20
-143.5943359016014
 30
0.0
 10
141.2819878119017
 20
-143.5523057366814
 30
0.0
 10
141.2819878119017
 20
-143.5457600552594
 30
0.0
 10
141.2819878119017
 20
-143.4803032410396
 30
0.0
 10
141.2606282198932
 20
-143.2815212315408
 30
0.0
 10
141.0239501600565
 20
-143.2815212315408
 30
0.0
 10
140.8461832330176
 20
-143.2815212315408
 30
0.0
 10
140.7910617052536
 20
-143.4124348599802
 30
0.0
 10
140.7910617052536
 20
-143.5226779155082
 30
0.0
 10
140.7910617052536
 20
-143.7869167392269
 30
0.0
 10
141.0239501600565
 20
-143.79552947794
 30
0.0
 10
141.0956081461497
 20
-143.7996635925223
 30
0.0
 10
141.0956081461497
 20
-143.7996635925223
 30
0.0
 10
141.0956081461497
 20
-144.0029242261521
 30
0.0
 10
141.0956081461497
 20
-144.0029242261521
 30
0.0
 10
140.9708956895837
 20
-143.9943114874389
 30
0.0
 10
140.5943467530459
 20
-143.9667507235569
 30
0.0
 10
140.5943467530459
 20
-143.5099310622128
 30
0.0
 10
140.5943467530459
 20
-143.285655346123
 30
0.0
 10
140.7214707764516
 20
-143.0444986621555
 30
0.0
 10
141.0174044786345
 20
-143.0444986621555
 30
0.0
 10
141.2037841443866
 20
-143.0444986621555
 30
0.0
 10
141.286121926484
 20
-143.1395832975485
 30
0.0
 10
141.3474446261215
 20
-143.2391465570722
 30
0.0
 10
141.3750053900035
 20
-143.1778238574347
 30
0.0
 10
141.4552761148098
 20
-142.9959228158135
 30
0.0
 10
141.7326063013724
 20
-142.9959228158135
 30
0.0
 10
142.0709146780239
 20
-142.9959228158135
 30
0.0
 10
142.2380018090586
 20
-143.2432806716545
 30
0.0
 10
142.2380018090586
 20
-143.5202663486685
 30
0.0
  0
HATCH
  5
BC
330
B7
100
AcDbEntity
  8
_U+30EC_U+30A4_U+30E4_U+30FC 1
 62
     7
420
 16777215
100
AcDbHatch
 10
0.0
 20
0.0
 30
0.0
210
0.0
220
0.0
230
1.0
  2
SOLID
 70
     1
 71
     0
 91
        1
 92
        1
 93
        1
 72
     4
 94
        3
 73
     0
 74
     1
 95
       62
 96
       58
 40
0.0
 40
0.0
 40
0.0
 40
0.0
 40
1.0
 40
1.0
 40
1.0
 40
2.0
 40
2.0
 40
2.0
 40
3.0
 40
3.0
 40
3.0
 40
4.0
 40
4.0
 40
4.0
 40
5.0
 40
5.0
 40
5.0
 40
6.0
 40
6.0
 40
6.0
 40
7.0
 40
7.0
 40
7.0
 40
8.0
 40
8.0
 40
8.0
 40
9.0
 40
9.0
 40
9.0
 40
10.0
 40
10.0
 40
10.0
 40
11.0
 40
11.0
 40
11.0
 40
12.0
 40
12.0
 40
12.0
 40
13.0
 40
13.0
 40
13.0
 40
14.0
 40
14.0
 40
14.0
 40
15.0
 40
15.0
 40
15.0
 40
16.0
 40
16.0
 40
16.0
 40
17.0
 40
17.0
 40
17.0
 40
18.0
 40
18.0
 40
18.0
 40
19.0
 40
19.0
 40
19.0
 40
19.0
 10
142.2380018090586
 20
-143.5202663486685
 10
142.2380018090586
 20
-143.61569549361
 10
142.2169867265985
 20
-143.8334255282778
 10
142.030951570395
 20
-143.9584824943923
 10
141.9186414575759
 20
-144.0325520473252
 10
141.8194227076007
 20
-144.0366861619075
 10
141.7346733586636
 20
-144.0408202764898
 10
141.7346733586636
 20
-144.0408202764898
 10
141.7346733586636
 20
-143.8206786749823
 10
141.7346733586636
 20
-143.8206786749823
 10
141.8087429115964
 20
-143.8186116176912
 10
142.0433539141419
 20
-143.8082763312354
 10
142.0433539141419
 20
-143.5247449727994
 10
142.0433539141419
 20
-143.3872856629379
 10
141.9737629853399
 20
-143.2346679329413
 10
141.7453531546678
 20
-143.2346679329413
 10
141.6289089272664
 20
-143.2346679329413
 10
141.5803330809244
 20
-143.2729084928276
 10
141.5486382024601
 20
-143.3046033712919
 10
141.4745686495272
 20
-143.3786729242248
 10
141.4618217962318
 20
-143.4951171516262
 10
141.4618217962318
 20
-143.5498941698417
 10
141.4618217962318
 20
-143.5691867045591
 10
141.4638888535229
 20
-143.6050156976057
 10
141.4680229681052
 20
-143.6325764614877
 10
141.4680229681052
 20
-143.6325764614877
 10
141.2733750731886
 20
-143.6325764614877
 10
141.2733750731886
 20
-143.6325764614877
 10
141.2799207546106
 20
-143.5943359016014
 10
141.2819878119017
 20
-143.5523057366814
 10
141.2819878119017
 20
-143.5457600552594
 10
141.2819878119017
 20
-143.4803032410396
 10
141.2606282198932
 20
-143.2815212315408
 10
141.0239501600565
 20
-143.2815212315408
 10
140.8461832330176
 20
-143.2815212315408
 10
140.7910617052536
 20
-143.4124348599802
 10
140.7910617052536
 20
-143.5226779155082
 10
140.7910617052536
 20
-143.7869167392269
 10
141.0239501600565
 20
-143.79552947794
 10
141.0956081461497
 20
-143.7996635925223
 10
141.0956081461497
 20
-143.7996635925223
 10
141.0956081461497
 20
-144.0029242261521
 10
141.0956081461497
 20
-144.0029242261521
 10
140.9708956895837
 20
-143.9943114874389
 10
140.5943467530459
 20
-143.9667507235569
 10
140.5943467530459
 20
-143.5099310622128
 10
140.5943467530459
 20
-143.285655346123
 10
140.7214707764516
 20
-143.0444986621555
 10
141.0174044786345
 20
-143.0444986621555
 10
141.2037841443866
 20
-143.0444986621555
 10
141.286121926484
 20
-143.1395832975485
 10
141.3474446261215
 20
-143.2391465570722
 10
141.3750053900035
 20
-143.1778238574347
 10
141.4552761148098
 20
-142.9959228158135
 10
141.7326063013724
 20
-142.9959228158135
 10
142.0709146780239
 20
-142.9959228158135
 10
142.2380018090586
 20
-143.2432806716545
 10
142.2380018090586
 20
-143.5202663486685
 97
        0
 97
        0
 75
     2
 76
     1
 98
        0
  0
ENDBLK
  5
BA
330
B7
100
AcDbEntity
  8
0
100
AcDbBlockEnd
  0
BLOCK
  5
CB
330
C9
100
AcDbEntity
  8
0
100
AcDbBlockBegin
  2
block 5
 70
     0
 10
0.0
 20
0.0
 30
0.0
  3
block 5
  1

  0
SPLINE
  5
CD
330
C9
100
AcDbEntity
  8
_U+30EC_U+30A4_U+30E4_U+30FC 1
370
     0
100
AcDbSpline
210
0.0
220
0.0
230
1.0
 70
    11
 71
     3
 72
    26
 73
    22
 74
     0
 42
0.0000000001
 43
0.0000000001
 12
1.0
 22
0.0
 32
0.0
 13
1.0
 23
0.0
 33
0.0
 40
0.0
 40
0.0
 40
0.0
 40
0.0
 40
1.0
 40
1.0
 40
1.0
 40
2.0
 40
2.0
 40
2.0
 40
3.0
 40
3.0
 40
3.0
 40
4.0
 40
4.0
 40
4.0
 40
5.0
 40
5.0
 40
5.0
 40
6.0
 40
6.0
 40
6.0
 40
7.0
 40
7.0
 40
7.0
 40
7.0
 10
88.35619165542832
 20
-148.3671711868666
 30
0.0
 10
88.35619165542832
 20
-148.3671711868666
 30
0.0
 10
88.35619165542832
 20
-147.263018083844
 30
0.0
 10
88.35619165542832
 20
-147.263018083844
 30
0.0
 10
88.35619165542832
 20
-147.263018083844
 30
0.0
 10
88.02615150794138
 20
-147.263018083844
 30
0.0
 10
88.02615150794138
 20
-147.263018083844
 30
0.0
 10
88.02615150794138
 20
-147.263018083844
 30
0.0
 10
88.02615150794138
 20
-147.1148789779782
 30
0.0
 10
88.02615150794138
 20
-147.1148789779782
 30
0.0
 10
88.35825871271946
 20
-147.1000650673917
 30
0.0
 10
88.40476750177034
 20
-146.9371120509393
 30
0.0
 10
88.43439532294349
 20
-146.822734880829
 30
0.0
 10
88.43439532294349
 20
-146.822734880829
 30
0.0
 10
88.58046737151808
 20
-146.822734880829
 30
0.0
 10
88.58046737151808
 20
-146.822734880829
 30
0.0
 10
88.58046737151808
 20
-146.822734880829
 30
0.0
 10
88.58046737151808
 20
-148.3671711868666
 30
0.0
 10
88.58046737151808
 20
-148.3671711868666
 30
0.0
 10
88.58046737151808
 20
-148.3671711868666
 30
0.0
 10
88.35619165542832
 20
-148.3671711868666
 30
0.0
 10
88.35619165542832
 20
-148.3671711868666
 30
0.0
  0
HATCH
  5
CE
330
C9
100
AcDbEntity
  8
_U+30EC_U+30A4_U+30E4_U+30FC 1
 62
     7
420
 16777215
100
AcDbHatch
 10
0.0
 20
0.0
 30
0.0
210
0.0
220
0.0
230
1.0
  2
SOLID
 70
     1
 71
     0
 91
        1
 92
        1
 93
        1
 72
     4
 94
        3
 73
     0
 74
     1
 95
       26
 96
       22
 40
0.0
 40
0.0
 40
0.0
 40
0.0
 40
1.0
 40
1.0
 40
1.0
 40
2.0
 40
2.0
 40
2.0
 40
3.0
 40
3.0
 40
3.0
 40
4.0
 40
4.0
 40
4.0
 40
5.0
 40
5.0
 40
5.0
 40
6.0
 40
6.0
 40
6.0
 40
7.0
 40
7.0
 40
7.0
 40
7.0
 10
88.35619165542832
 20
-148.3671711868666
 10
88.35619165542832
 20
-148.3671711868666
 10
88.35619165542832
 20
-147.263018083844
 10
88.35619165542832
 20
-147.263018083844
 10
88.35619165542832
 20
-147.263018083844
 10
88.02615150794138
 20
-147.263018083844
 10
88.02615150794138
 20
-147.263018083844
 10
88.02615150794138
 20
-147.263018083844
 10
88.02615150794138
 20
-147.1148789779782
 10
88.02615150794138
 20
-147.1148789779782
 10
88.35825871271946
 20
-147.1000650673917
 10
88.40476750177034
 20
-146.9371120509393
 10
88.43439532294349
 20
-146.822734880829
 10
88.43439532294349
 20
-146.822734880829
 10
88.58046737151808
 20
-146.822734880829
 10
88.58046737151808
 20
-146.822734880829
 10
88.58046737151808
 20
-146.822734880829
 10
88.58046737151808
 20
-148.3671711868666
 10
88.58046737151808
 20
-148.3671711868666
 10
88.58046737151808
 20
-148.3671711868666
 10
88.35619165542832
 20
-148.3671711868666
 10
88.35619165542832
 20
-148.3671711868666
 97
        0
 97
        0
 75
     2
 76
     1
 98
        0
  0
SPLINE
  5
CF
330
C9
100
AcDbEntity
  8
_U+30EC_U+30A4_U+30E4_U+30FC 1
370
     0
100
AcDbSpline
210
0.0
220
0.0
230
1.0
 70
    11
 71
     3
 72
    29
 73
    25
 74
     0
 42
0.0000000001
 43
0.0000000001
 12
1.0
 22
0.0
 32
0.0
 13
1.0
 23
0.0
 33
0.0
 40
0.0
 40
0.0
 40
0.0
 40
0.0
 40
1.0
 40
1.0
 40
1.0
 40
2.0
 40
2.0
 40
2.0
 40
3.0
 40
3.0
 40
3.0
 40
4.0
 40
4.0
 40
4.0
 40
5.0
 40
5.0
 40
5.0
 40
6.0
 40
6.0
 40
6.0
 40
7.0
 40
7.0
 40
7.0
 40
8.0
 40
8.0
 40
8.0
 40
8.0
 10
89.97952064807804
 20
-148.1894042598277
 30
0.0
 10
89.87134464984119
 20
-148.3988660653309
 30
0.0
 10
89.69805634693313
 20
-148.4178140904997
 30
0.0
 10
89.58161211953168
 20
-148.4178140904997
 30
0.0
 10
89.42072616037052
 20
-148.4178140904997
 30
0.0
 10
89.27913273592675
 20
-148.3713053014488
 30
0.0
 10
89.18404810053386
 20
-148.1894042598277
 30
0.0
 10
89.08035072642784
 20
-147.994756364911
 30
0.0
 10
89.06140270125896
 20
-147.7577337955258
 30
0.0
 10
89.06140270125896
 20
-147.5951252886221
 30
0.0
 10
89.06140270125896
 20
-147.4511202973386
 30
0.0
 10
89.07828366913668
 20
-147.1992838173668
 30
0.0
 10
89.18404810053386
 20
-147.0005018078679
 30
0.0
 10
89.29187958922218
 20
-146.7975856837867
 30
0.0
 10
89.45276554838334
 20
-146.774159034487
 30
0.0
 10
89.58161211953168
 20
-146.774159034487
 30
0.0
 10
89.7404310214017
 20
-146.774159034487
 30
0.0
 10
89.88409150313662
 20
-146.8186007662467
 30
0.0
 10
89.97952064807804
 20
-147.0005018078679
 30
0.0
 10
90.07873939805323
 20
-147.1930826454934
 30
0.0
 10
90.10216604735294
 20
-147.4214924761655
 30
0.0
 10
90.10216604735294
 20
-147.5951252886221
 30
0.0
 10
90.10216604735294
 20
-147.766346534239
 30
0.0
 10
90.08080645534439
 20
-147.9968234222022
 30
0.0
 10
89.97952064807804
 20
-148.1894042598277
 30
0.0
  0
SPLINE
  5
D0
330
C9
100
AcDbEntity
  8
_U+30EC_U+30A4_U+30E4_U+30FC 1
370
     0
100
AcDbSpline
210
0.0
220
0.0
230
1.0
 70
    11
 71
     3
 72
    17
 73
    13
 74
     0
 42
0.0000000001
 43
0.0000000001
 12
1.0
 22
0.0
 32
0.0
 13
1.0
 23
0.0
 33
0.0
 40
0.0
 40
0.0
 40
0.0
 40
0.0
 40
1.0
 40
1.0
 40
1.0
 40
2.0
 40
2.0
 40
2.0
 40
3.0
 40
3.0
 40
3.0
 40
4.0
 40
4.0
 40
4.0
 40
4.0
 10
89.58161211953168
 20
-146.9667398721125
 30
0.0
 10
89.3321872063996
 20
-146.9667398721125
 30
0.0
 10
89.2853339078002
 20
-147.2502712305485
 30
0.0
 10
89.2853339078002
 20
-147.5951252886221
 30
0.0
 10
89.2853339078002
 20
-147.9144856401047
 30
0.0
 10
89.32150741039533
 20
-148.2231661955831
 30
0.0
 10
89.58161211953168
 20
-148.2231661955831
 30
0.0
 10
89.82931448492114
 20
-148.2231661955831
 30
0.0
 10
89.87789033126317
 20
-147.9420464039867
 30
0.0
 10
89.87789033126317
 20
-147.5951252886221
 30
0.0
 10
89.87789033126317
 20
-147.2754204275909
 30
0.0
 10
89.8396497713769
 20
-146.9667398721125
 30
0.0
 10
89.58161211953168
 20
-146.9667398721125
 30
0.0
  0
HATCH
  5
D1
330
C9
100
AcDbEntity
  8
_U+30EC_U+30A4_U+30E4_U+30FC 1
 62
     7
420
 16777215
100
AcDbHatch
 10
0.0
 20
0.0
 30
0.0
210
0.0
220
0.0
230
1.0
  2
SOLID
 70
     1
 71
     0
 91
        2
 92
        1
 93
        1
 72
     4
 94
        3
 73
     0
 74
     1
 95
       29
 96
       25
 40
0.0
 40
0.0
 40
0.0
 40
0.0
 40
1.0
 40
1.0
 40
1.0
 40
2.0
 40
2.0
 40
2.0
 40
3.0
 40
3.0
 40
3.0
 40
4.0
 40
4.0
 40
4.0
 40
5.0
 40
5.0
 40
5.0
 40
6.0
 40
6.0
 40
6.0
 40
7.0
 40
7.0
 40
7.0
 40
8.0
 40
8.0
 40
8.0
 40
8.0
 10
89.97952064807804
 20
-148.1894042598277
 10
89.87134464984119
 20
-148.3988660653309
 10
89.69805634693313
 20
-148.4178140904997
 10
89.58161211953168
 20
-148.4178140904997
 10
89.42072616037052
 20
-148.4178140904997
 10
89.27913273592675
 20
-148.3713053014488
 10
89.18404810053386
 20
-148.1894042598277
 10
89.08035072642784
 20
-147.994756364911
 10
89.06140270125896
 20
-147.7577337955258
 10
89.06140270125896
 20
-147.5951252886221
 10
89.06140270125896
 20
-147.4511202973386
 10
89.07828366913668
 20
-147.1992838173668
 10
89.18404810053386
 20
-147.0005018078679
 10
89.29187958922218
 20
-146.7975856837867
 10
89.45276554838334
 20
-146.774159034487
 10
89.58161211953168
 20
-146.774159034487
 10
89.7404310214017
 20
-146.774159034487
 10
89.88409150313662
 20
-146.8186007662467
 10
89.97952064807804
 20
-147.0005018078679
 10
90.07873939805323
 20
-147.1930826454934
 10
90.10216604735294
 20
-147.4214924761655
 10
90.10216604735294
 20
-147.5951252886221
 10
90.10216604735294
 20
-147.766346534239
 10
90.08080645534439
 20
-147.9968234222022
 10
89.97952064807804
 20
-148.1894042598277
 97
        0
 97
        0
 92
        1
 93
        1
 72
     4
 94
        3
 73
     0
 74
     1
 95
       17
 96
       13
 40
0.0
 40
0.0
 40
0.0
 40
0.0
 40
1.0
 40
1.0
 40
1.0
 40
2.0
 40
2.0
 40
2.0
 40
3.0
 40
3.0
 40
3.0
 40
4.0
 40
4.0
 40
4.0
 40
4.0
 10
89.58161211953168
 20
-146.9667398721125
 10
89.3321872063996
 20
-146.9667398721125
 10
89.2853339078002
 20
-147.2502712305485
 10
89.2853339078002
 20
-147.5951252886221
 10
89.2853339078002
 20
-147.9144856401047
 10
89.32150741039533
 20
-148.2231661955831
 10
89.58161211953168
 20
-148.2231661955831
 10
89.82931448492114
 20
-148.2231661955831
 10
89.87789033126317
 20
-147.9420464039867
 10
89.87789033126317
 20
-147.5951252886221
 10
89.87789033126317
 20
-147.2754204275909
 10
89.8396497713769
 20
-146.9667398721125
 10
89.58161211953168
 20
-146.9667398721125
 97
        0
 97
        0
 75
     2
 76
     1
 98
        0
  0
SPLINE
  5
D2
330
C9
100
AcDbEntity
  8
_U+30EC_U+30A4_U+30E4_U+30FC 1
370
     0
100
AcDbSpline
210
0.0
220
0.0
230
1.0
 70
    11
 71
     3
 72
    29
 73
    25
 74
     0
 42
0.0000000001
 43
0.0000000001
 12
1.0
 22
0.0
 32
0.0
 13
1.0
 23
0.0
 33
0.0
 40
0.0
 40
0.0
 40
0.0
 40
0.0
 40
1.0
 40
1.0
 40
1.0
 40
2.0
 40
2.0
 40
2.0
 40
3.0
 40
3.0
 40
3.0
 40
4.0
 40
4.0
 40
4.0
 40
5.0
 40
5.0
 40
5.0
 40
6.0
 40
6.0
 40
6.0
 40
7.0
 40
7.0
 40
7.0
 40
8.0
 40
8.0
 40
8.0
 40
8.0
 10
91.15636526583938
 20
-148.1894042598277
 30
0.0
 10
91.04818926760254
 20
-148.3988660653309
 30
0.0
 10
90.87490096469448
 20
-148.4178140904997
 30
0.0
 10
90.75845673729303
 20
-148.4178140904997
 30
0.0
 10
90.59757077813187
 20
-148.4178140904997
 30
0.0
 10
90.4559773536881
 20
-148.3713053014488
 30
0.0
 10
90.3608927182952
 20
-148.1894042598277
 30
0.0
 10
90.25719534418917
 20
-147.994756364911
 30
0.0
 10
90.2382473190203
 20
-147.7577337955258
 30
0.0
 10
90.2382473190203
 20
-147.5951252886221
 30
0.0
 10
90.2382473190203
 20
-147.4511202973386
 30
0.0
 10
90.25512828689803
 20
-147.1992838173668
 30
0.0
 10
90.3608927182952
 20
-147.0005018078679
 30
0.0
 10
90.46872420698352
 20
-146.7975856837867
 30
0.0
 10
90.62961016614469
 20
-146.774159034487
 30
0.0
 10
90.75845673729303
 20
-146.774159034487
 30
0.0
 10
90.91727563916305
 20
-146.774159034487
 30
0.0
 10
91.06093612089796
 20
-146.8186007662467
 30
0.0
 10
91.15636526583938
 20
-147.0005018078679
 30
0.0
 10
91.25558401581458
 20
-147.1930826454934
 30
0.0
 10
91.27901066511428
 20
-147.4214924761655
 30
0.0
 10
91.27901066511428
 20
-147.5951252886221
 30
0.0
 10
91.27901066511428
 20
-147.766346534239
 30
0.0
 10
91.25765107310573
 20
-147.9968234222022
 30
0.0
 10
91.15636526583938
 20
-148.1894042598277
 30
0.0
  0
SPLINE
  5
D3
330
C9
100
AcDbEntity
  8
_U+30EC_U+30A4_U+30E4_U+30FC 1
370
     0
100
AcDbSpline
210
0.0
220
0.0
230
1.0
 70
    11
 71
     3
 72
    17
 73
    13
 74
     0
 42
0.0000000001
 43
0.0000000001
 12
1.0
 22
0.0
 32
0.0
 13
1.0
 23
0.0
 33
0.0
 40
0.0
 40
0.0
 40
0.0
 40
0.0
 40
1.0
 40
1.0
 40
1.0
 40
2.0
 40
2.0
 40
2.0
 40
3.0
 40
3.0
 40
3.0
 40
4.0
 40
4.0
 40
4.0
 40
4.0
 10
90.75845673729303
 20
-146.9667398721125
 30
0.0
 10
90.50903182416094
 20
-146.9667398721125
 30
0.0
 10
90.46217852556154
 20
-147.2502712305485
 30
0.0
 10
90.46217852556154
 20
-147.5951252886221
 30
0.0
 10
90.46217852556154
 20
-147.9144856401047
 30
0.0
 10
90.49835202815666
 20
-148.2231661955831
 30
0.0
 10
90.75845673729303
 20
-148.2231661955831
 30
0.0
 10
91.00615910268249
 20
-148.2231661955831
 30
0.0
 10
91.05473494902452
 20
-147.9420464039867
 30
0.0
 10
91.05473494902452
 20
-147.5951252886221
 30
0.0
 10
91.05473494902452
 20
-147.2754204275909
 30
0.0
 10
91.01649438913824
 20
-146.9667398721125
 30
0.0
 10
90.75845673729303
 20
-146.9667398721125
 30
0.0
  0
HATCH
  5
D4
330
C9
100
AcDbEntity
  8
_U+30EC_U+30A4_U+30E4_U+30FC 1
 62
     7
420
 16777215
100
AcDbHatch
 10
0.0
 20
0.0
 30
0.0
210
0.0
220
0.0
230
1.0
  2
SOLID
 70
     1
 71
     0
 91
        2
 92
        1
 93
        1
 72
     4
 94
        3
 73
     0
 74
     1
 95
       29
 96
       25
 40
0.0
 40
0.0
 40
0.0
 40
0.0
 40
1.0
 40
1.0
 40
1.0
 40
2.0
 40
2.0
 40
2.0
 40
3.0
 40
3.0
 40
3.0
 40
4.0
 40
4.0
 40
4.0
 40
5.0
 40
5.0
 40
5.0
 40
6.0
 40
6.0
 40
6.0
 40
7.0
 40
7.0
 40
7.0
 40
8.0
 40
8.0
 40
8.0
 40
8.0
 10
91.15636526583938
 20
-148.1894042598277
 10
91.04818926760254
 20
-148.3988660653309
 10
90.87490096469448
 20
-148.4178140904997
 10
90.75845673729303
 20
-148.4178140904997
 10
90.59757077813187
 20
-148.4178140904997
 10
90.4559773536881
 20
-148.3713053014488
 10
90.3608927182952
 20
-148.1894042598277
 10
90.25719534418917
 20
-147.994756364911
 10
90.2382473190203
 20
-147.7577337955258
 10
90.2382473190203
 20
-147.5951252886221
 10
90.2382473190203
 20
-147.4511202973386
 10
90.25512828689803
 20
-147.1992838173668
 10
90.3608927182952
 20
-147.0005018078679
 10
90.46872420698352
 20
-146.7975856837867
 10
90.62961016614469
 20
-146.774159034487
 10
90.75845673729303
 20
-146.774159034487
 10
90.91727563916305
 20
-146.774159034487
 10
91.06093612089796
 20
-146.8186007662467
 10
91.15636526583938
 20
-147.0005018078679
 10
91.25558401581458
 20
-147.1930826454934
 10
91.27901066511428
 20
-147.4214924761655
 10
91.27901066511428
 20
-147.5951252886221
 10
91.27901066511428
 20
-147.766346534239
 10
91.25765107310573
 20
-147.9968234222022
 10
91.15636526583938
 20
-148.1894042598277
 97
        0
 97
        0
 92
        1
 93
        1
 72
     4
 94
        3
 73
     0
 74
     1
 95
       17
 96
       13
 40
0.0
 40
0.0
 40
0.0
 40
0.0
 40
1.0
 40
1.0
 40
1.0
 40
2.0
 40
2.0
 40
2.0
 40
3.0
 40
3.0
 40
3.0
 40
4.0
 40
4.0
 40
4.0
 40
4.0
 10
90.75845673729303
 20
-146.9667398721125
 10
90.50903182416094
 20
-146.9667398721125
 10
90.46217852556154
 20
-147.2502712305485
 10
90.46217852556154
 20
-147.5951252886221
 10
90.46217852556154
 20
-147.9144856401047
 10
90.49835202815666
 20
-148.2231661955831
 10
90.75845673729303
 20
-148.2231661955831
 10
91.00615910268249
 20
-148.2231661955831
 10
91.05473494902452
 20
-147.9420464039867
 10
91.05473494902452
 20
-147.5951252886221
 10
91.05473494902452
 20
-147.2754204275909
 10
91.01649438913824
 20
-146.9667398721125
 10
90.75845673729303
 20
-146.9667398721125
 97
        0
 97
        0
 75
     2
 76
     1
 98
        0
  0
ENDBLK
  5
CC
330
C9
100
AcDbEntity
  8
0
100
AcDbBlockEnd
  0
BLOCK
  5
DF
330
DD
100
AcDbEntity
  8
0
100
AcDbBlockBegin
  2
block 6
 70
     0
 10
0.0
 20
0.0
 30
0.0
  3
block 6
  1

  0
SPLINE
  5
E1
330
DD
100
AcDbEntity
  8
_U+30EC_U+30A4_U+30E4_U+30FC 1
370
     0
100
AcDbSpline
210
0.0
220
0.0
230
1.0
 70
    11
 71
     3
 72
    44
 73
    40
 74
     0
 42
0.0000000001
 43
0.0000000001
 12
1.0
 22
0.0
 32
0.0
 13
1.0
 23
0.0
 33
0.0
 40
0.0
 40
0.0
 40
0.0
 40
0.0
 40
1.0
 40
1.0
 40
1.0
 40
2.0
 40
2.0
 40
2.0
 40
3.0
 40
3.0
 40
3.0
 40
4.0
 40
4.0
 40
4.0
 40
5.0
 40
5.0
 40
5.0
 40
6.0
 40
6.0
 40
6.0
 40
7.0
 40
7.0
 40
7.0
 40
8.0
 40
8.0
 40
8.0
 40
9.0
 40
9.0
 40
9.0
 40
10.0
 40
10.0
 40
10.0
 40
11.0
 40
11.0
 40
11.0
 40
12.0
 40
12.0
 40
12.0
 40
13.0
 40
13.0
 40
13.0
 40
13.0
 10
141.6044487493211
 20
-128.5933566301781
 30
0.0
 10
141.7632676511911
 20
-128.8110866648458
 30
0.0
 10
141.837337204124
 20
-128.9041042429476
 30
0.0
 10
141.9809976858589
 20
-128.9530245988381
 30
0.0
 10
141.9809976858589
 20
-128.9530245988381
 30
0.0
 10
141.9809976858589
 20
-128.1744330191717
 30
0.0
 10
141.9809976858589
 20
-128.1744330191717
 30
0.0
 10
141.9809976858589
 20
-128.1744330191717
 30
0.0
 10
142.1863253767798
 20
-128.1744330191717
 30
0.0
 10
142.1863253767798
 20
-128.1744330191717
 30
0.0
 10
142.1863253767798
 20
-128.1744330191717
 30
0.0
 10
142.1863253767798
 20
-129.2024495119702
 30
0.0
 10
142.1863253767798
 20
-129.2024495119702
 30
0.0
 10
141.8287244654109
 20
-129.1707546335059
 30
0.0
 10
141.7505207978957
 20
-129.1052978192862
 30
0.0
 10
141.4521755288731
 20
-128.7201361440353
 30
0.0
 10
141.2533935193742
 20
-128.4641655494812
 30
0.0
 10
141.1855251383147
 20
-128.3987087352614
 30
0.0
 10
141.0480658284533
 20
-128.3987087352614
 30
0.0
 10
140.9295545437607
 20
-128.3987087352614
 30
0.0
 10
140.7986409153212
 20
-128.4707112309032
 30
0.0
 10
140.7986409153212
 20
-128.6674261831109
 30
0.0
 10
140.7986409153212
 20
-128.9275308922473
 30
0.0
 10
141.0291178032844
 20
-128.9361436309604
 30
0.0
 10
141.1455620306859
 20
-128.9402777455427
 30
0.0
 10
141.1455620306859
 20
-128.9402777455427
 30
0.0
 10
141.1455620306859
 20
-129.1645534616325
 30
0.0
 10
141.1455620306859
 20
-129.1645534616325
 30
0.0
 10
141.0184380072801
 20
-129.1559407229194
 30
0.0
 10
140.9064724040095
 20
-129.1452609269151
 30
0.0
 10
140.7879611193169
 20
-129.0649902021088
 30
0.0
 10
140.6270751601557
 20
-128.9550916561293
 30
0.0
 10
140.5933132244003
 20
-128.7687119903773
 30
0.0
 10
140.5933132244003
 20
-128.6526122725244
 30
0.0
 10
140.5933132244003
 20
-128.3752820859617
 30
0.0
 10
140.7772813233126
 20
-128.1678873377497
 30
0.0
 10
141.0501328857444
 20
-128.1678873377497
 30
0.0
 10
141.278887225965
 20
-128.1678873377497
 30
0.0
 10
141.3781059759402
 20
-128.2843315651511
 30
0.0
 10
141.6044487493211
 20
-128.5933566301781
 30
0.0
  0
HATCH
  5
E2
330
DD
100
AcDbEntity
  8
_U+30EC_U+30A4_U+30E4_U+30FC 1
 62
     7
420
 16777215
100
AcDbHatch
 10
0.0
 20
0.0
 30
0.0
210
0.0
220
0.0
230
1.0
  2
SOLID
 70
     1
 71
     0
 91
        1
 92
        1
 93
        1
 72
     4
 94
        3
 73
     0
 74
     1
 95
       44
 96
       40
 40
0.0
 40
0.0
 40
0.0
 40
0.0
 40
1.0
 40
1.0
 40
1.0
 40
2.0
 40
2.0
 40
2.0
 40
3.0
 40
3.0
 40
3.0
 40
4.0
 40
4.0
 40
4.0
 40
5.0
 40
5.0
 40
5.0
 40
6.0
 40
6.0
 40
6.0
 40
7.0
 40
7.0
 40
7.0
 40
8.0
 40
8.0
 40
8.0
 40
9.0
 40
9.0
 40
9.0
 40
10.0
 40
10.0
 40
10.0
 40
11.0
 40
11.0
 40
11.0
 40
12.0
 40
12.0
 40
12.0
 40
13.0
 40
13.0
 40
13.0
 40
13.0
 10
141.6044487493211
 20
-128.5933566301781
 10
141.7632676511911
 20
-128.8110866648458
 10
141.837337204124
 20
-128.9041042429476
 10
141.9809976858589
 20
-128.9530245988381
 10
141.9809976858589
 20
-128.9530245988381
 10
141.9809976858589
 20
-128.1744330191717
 10
141.9809976858589
 20
-128.1744330191717
 10
141.9809976858589
 20
-128.1744330191717
 10
142.1863253767798
 20
-128.1744330191717
 10
142.1863253767798
 20
-128.1744330191717
 10
142.1863253767798
 20
-128.1744330191717
 10
142.1863253767798
 20
-129.2024495119702
 10
142.1863253767798
 20
-129.2024495119702
 10
141.8287244654109
 20
-129.1707546335059
 10
141.7505207978957
 20
-129.1052978192862
 10
141.4521755288731
 20
-128.7201361440353
 10
141.2533935193742
 20
-128.4641655494812
 10
141.1855251383147
 20
-128.3987087352614
 10
141.0480658284533
 20
-128.3987087352614
 10
140.9295545437607
 20
-128.3987087352614
 10
140.7986409153212
 20
-128.4707112309032
 10
140.7986409153212
 20
-128.6674261831109
 10
140.7986409153212
 20
-128.9275308922473
 10
141.0291178032844
 20
-128.9361436309604
 10
141.1455620306859
 20
-128.9402777455427
 10
141.1455620306859
 20
-128.9402777455427
 10
141.1455620306859
 20
-129.1645534616325
 10
141.1455620306859
 20
-129.1645534616325
 10
141.0184380072801
 20
-129.1559407229194
 10
140.9064724040095
 20
-129.1452609269151
 10
140.7879611193169
 20
-129.0649902021088
 10
140.6270751601557
 20
-128.9550916561293
 10
140.5933132244003
 20
-128.7687119903773
 10
140.5933132244003
 20
-128.6526122725244
 10
140.5933132244003
 20
-128.3752820859617
 10
140.7772813233126
 20
-128.1678873377497
 10
141.0501328857444
 20
-128.1678873377497
 10
141.278887225965
 20
-128.1678873377497
 10
141.3781059759402
 20
-128.2843315651511
 10
141.6044487493211
 20
-128.5933566301781
 97
        0
 97
        0
 75
     2
 76
     1
 98
        0
  0
SPLINE
  5
E3
330
DD
100
AcDbEntity
  8
_U+30EC_U+30A4_U+30E4_U+30FC 1
370
     0
100
AcDbSpline
210
0.0
220
0.0
230
1.0
 70
    11
 71
     3
 72
    26
 73
    22
 74
     0
 42
0.0000000001
 43
0.0000000001
 12
1.0
 22
0.0
 32
0.0
 13
1.0
 23
0.0
 33
0.0
 40
0.0
 40
0.0
 40
0.0
 40
0.0
 40
1.0
 40
1.0
 40
1.0
 40
2.0
 40
2.0
 40
2.0
 40
3.0
 40
3.0
 40
3.0
 40
4.0
 40
4.0
 40
4.0
 40
5.0
 40
5.0
 40
5.0
 40
6.0
 40
6.0
 40
6.0
 40
7.0
 40
7.0
 40
7.0
 40
7.0
 10
142.1863253767798
 20
-127.5984130540379
 30
0.0
 10
142.1863253767798
 20
-127.5984130540379
 30
0.0
 10
142.1863253767798
 20
-127.8354356234231
 30
0.0
 10
142.1863253767798
 20
-127.8354356234231
 30
0.0
 10
141.8773003117529
 20
-127.8099419168322
 30
0.0
 10
141.3591579507713
 20
-127.6173610792068
 30
0.0
 10
140.8534179335367
 20
-127.2111843214958
 30
0.0
 10
140.8534179335367
 20
-127.2111843214958
 30
0.0
 10
140.8534179335367
 20
-128.0490315435086
 30
0.0
 10
140.8534179335367
 20
-128.0490315435086
 30
0.0
 10
140.8534179335367
 20
-128.0490315435086
 30
0.0
 10
140.6418890707423
 20
-128.0490315435086
 30
0.0
 10
140.6418890707423
 20
-128.0490315435086
 30
0.0
 10
140.6418890707423
 20
-128.0490315435086
 30
0.0
 10
140.6418890707423
 20
-126.9741617521106
 30
0.0
 10
140.6418890707423
 20
-126.9741617521106
 30
0.0
 10
140.6418890707423
 20
-126.9741617521106
 30
0.0
 10
140.8534179335367
 20
-126.9741617521106
 30
0.0
 10
140.8534179335367
 20
-126.9741617521106
 30
0.0
 10
141.1434949733947
 20
-127.2980007277241
 30
0.0
 10
141.7357068873091
 20
-127.5646511182825
 30
0.0
 10
142.1863253767798
 20
-127.5984130540379
 30
0.0
  0
HATCH
  5
E4
330
DD
100
AcDbEntity
  8
_U+30EC_U+30A4_U+30E4_U+30FC 1
 62
     7
420
 16777215
100
AcDbHatch
 10
0.0
 20
0.0
 30
0.0
210
0.0
220
0.0
230
1.0
  2
SOLID
 70
     1
 71
     0
 91
        1
 92
        1
 93
        1
 72
     4
 94
        3
 73
     0
 74
     1
 95
       26
 96
       22
 40
0.0
 40
0.0
 40
0.0
 40
0.0
 40
1.0
 40
1.0
 40
1.0
 40
2.0
 40
2.0
 40
2.0
 40
3.0
 40
3.0
 40
3.0
 40
4.0
 40
4.0
 40
4.0
 40
5.0
 40
5.0
 40
5.0
 40
6.0
 40
6.0
 40
6.0
 40
7.0
 40
7.0
 40
7.0
 40
7.0
 10
142.1863253767798
 20
-127.5984130540379
 10
142.1863253767798
 20
-127.5984130540379
 10
142.1863253767798
 20
-127.8354356234231
 10
142.1863253767798
 20
-127.8354356234231
 10
141.8773003117529
 20
-127.8099419168322
 10
141.3591579507713
 20
-127.6173610792068
 10
140.8534179335367
 20
-127.2111843214958
 10
140.8534179335367
 20
-127.2111843214958
 10
140.8534179335367
 20
-128.0490315435086
 10
140.8534179335367
 20
-128.0490315435086
 10
140.8534179335367
 20
-128.0490315435086
 10
140.6418890707423
 20
-128.0490315435086
 10
140.6418890707423
 20
-128.0490315435086
 10
140.6418890707423
 20
-128.0490315435086
 10
140.6418890707423
 20
-126.9741617521106
 10
140.6418890707423
 20
-126.9741617521106
 10
140.6418890707423
 20
-126.9741617521106
 10
140.8534179335367
 20
-126.9741617521106
 10
140.8534179335367
 20
-126.9741617521106
 10
141.1434949733947
 20
-127.2980007277241
 10
141.7357068873091
 20
-127.5646511182825
 10
142.1863253767798
 20
-127.5984130540379
 97
        0
 97
        0
 75
     2
 76
     1
 98
        0
  0
ENDBLK
  5
E0
330
DD
100
AcDbEntity
  8
0
100
AcDbBlockEnd
  0
ENDSEC
  0
SECTION
  2
ENTITIES
  0
INSERT
  5
42
330
1F
100
AcDbEntity
  8
_U+30EC_U+30A4_U+30E4_U+30FC 1
100
AcDbBlockReference
  2
block 2
 10
0.0
 20
0.0
 30
0.0
  0
ENDSEC
  0
SECTION
  2
OBJECTS
  0
DICTIONARY
  5
C
330
0
100
AcDbDictionary
281
     1
  3
ACAD_GROUP
350
D
  3
ACAD_LAYOUT
350
1A
  3
ACAD_MATERIAL
350
3B
  3
ACAD_MLEADERSTYLE
350
E6
  3
ACAD_MLINESTYLE
350
17
  3
ACAD_PLOTSETTINGS
350
19
  3
ACAD_PLOTSTYLENAME
350
E
  3
ACAD_TABLESTYLE
350
E5
  3
ACAD_VISUALSTYLE
350
2A
  0
SUN
  5
3F
330
29
100
AcDbSun
 90
        1
290
     0
 63
     7
421
 16777215
 40
1.0
291
     1
 91
  2455826
 92
 54000000
292
     0
 70
     2
 71
   256
280
     1
  0
DICTIONARY
  5
D
102
{ACAD_REACTORS
330
C
102
}
330
C
100
AcDbDictionary
281
     1
  0
DICTIONARY
  5
1A
102
{ACAD_REACTORS
330
C
102
}
330
C
100
AcDbDictionary
281
     1
  3
Layout1
350
1E
  3
Layout2
350
26
  3
Model
350
22
  0
DICTIONARY
  5
3B
102
{ACAD_REACTORS
330
C
102
}
330
C
100
AcDbDictionary
281
     1
  3
ByBlock
350
3D
  3
ByLayer
350
3C
  3
Global
350
3E
  0
DICTIONARY
  5
E6
102
{ACAD_REACTORS
330
C
102
}
330
C
100
AcDbDictionary
281
     1
  0
DICTIONARY
  5
17
102
{ACAD_REACTORS
330
C
102
}
330
C
100
AcDbDictionary
281
     1
  3
Standard
350
18
  0
DICTIONARY
  5
19
102
{ACAD_REACTORS
330
C
102
}
330
C
100
AcDbDictionary
281
     1
  0
ACDBDICTIONARYWDFLT
  5
E
102
{ACAD_REACTORS
330
C
102
}
330
C
100
AcDbDictionary
281
     1
  3
Normal
350
F
100
AcDbDictionaryWithDefault
340
F
  0
DICTIONARY
  5
E5
102
{ACAD_REACTORS
330
C
102
}
330
C
100
AcDbDictionary
281
     1
  0
DICTIONARY
  5
2A
102
{ACAD_REACTORS
330
C
102
}
330
C
100
AcDbDictionary
281
     1
  3
2dWireframe
350
2F
  3
3D Hidden
350
31
  3
3dWireframe
350
30
  3
Basic
350
32
  3
Brighten
350
36
  3
ColorChange
350
3A
  3
Conceptual
350
34
  3
Dim
350
35
  3
Facepattern
350
39
  3
Flat
350
2B
  3
FlatWithEdges
350
2C
  3
Gouraud
350
2D
  3
GouraudWithEdges
350
2E
  3
Linepattern
350
38
  3
Realistic
350
33
  3
Thicken
350
37
  0
LAYOUT
  5
1E
102
{ACAD_REACTORS
330
1A
102
}
330
1A
100
AcDbPlotSettings
  1

  2
none_device
  4

  6

 40
0.0
 41
0.0
 42
0.0
 43
0.0
 44
0.0
 45
0.0
 46
0.0
 47
0.0
 48
0.0
 49
0.0
140
0.0
141
0.0
142
1.0
143
1.0
 70
   688
 72
     0
 73
     0
 74
     5
  7

 75
    16
 76
     0
 77
     2
 78
   300
147
1.0
148
0.0
149
0.0
100
AcDbLayout
  1
Layout1
 70
     1
 71
     1
 10
0.0
 20
0.0
 11
12.0
 21
9.0
 12
0.0
 22
0.0
 32
0.0
 14
1.000000000000000E+20
 24
1.000000000000000E+20
 34
1.000000000000000E+20
 15
-1.000000000000000E+20
 25
-1.000000000000000E+20
 35
-1.000000000000000E+20
146
0.0
 13
0.0
 23
0.0
 33
0.0
 16
1.0
 26
0.0
 36
0.0
 17
0.0
 27
1.0
 37
0.0
 76
     0
330
1B
  0
LAYOUT
  5
26
102
{ACAD_REACTORS
330
1A
102
}
330
1A
100
AcDbPlotSettings
  1

  2
none_device
  4

  6

 40
0.0
 41
0.0
 42
0.0
 43
0.0
 44
0.0
 45
0.0
 46
0.0
 47
0.0
 48
0.0
 49
0.0
140
0.0
141
0.0
142
1.0
143
1.0
 70
   688
 72
     0
 73
     0
 74
     5
  7

 75
    16
 76
     0
 77
     2
 78
   300
147
1.0
148
0.0
149
0.0
100
AcDbLayout
  1
Layout2
 70
     1
 71
     2
 10
0.0
 20
0.0
 11
0.0
 21
0.0
 12
0.0
 22
0.0
 32
0.0
 14
0.0
 24
0.0
 34
0.0
 15
0.0
 25
0.0
 35
0.0
146
0.0
 13
0.0
 23
0.0
 33
0.0
 16
1.0
 26
0.0
 36
0.0
 17
0.0
 27
1.0
 37
0.0
 76
     0
330
23
  0
LAYOUT
  5
22
102
{ACAD_REACTORS
330
1A
102
}
330
1A
100
AcDbPlotSettings
  1

  2
none_device
  4

  6

 40
0.0
 41
0.0
 42
0.0
 43
0.0
 44
0.0
 45
0.0
 46
0.0
 47
0.0
 48
0.0
 49
0.0
140
0.0
141
0.0
142
1.0
143
1.0
 70
  1712
 72
     0
 73
     0
 74
     0
  7

 75
     0
 76
     0
 77
     2
 78
   300
147
1.0
148
0.0
149
0.0
100
AcDbLayout
  1
Model
 70
     1
 71
     0
 10
0.0
 20
0.0
 11
12.0
 21
9.0
 12
0.0
 22
0.0
 32
0.0
 14
1.000000000000000E+20
 24
1.000000000000000E+20
 34
1.000000000000000E+20
 15
-1.000000000000000E+20
 25
-1.000000000000000E+20
 35
-1.000000000000000E+20
146
0.0
 13
0.0
 23
0.0
 33
0.0
 16
1.0
 26
0.0
 36
0.0
 17
0.0
 27
1.0
 37
0.0
 76
     0
330
1F
331
29
  0
MATERIAL
  5
3D
102
{ACAD_REACTORS
330
3B
102
}
330
3B
100
AcDbMaterial
  1
ByBlock
 72
     1
 94
      127
  0
MATERIAL
  5
3C
102
{ACAD_REACTORS
330
3B
102
}
330
3B
100
AcDbMaterial
  1
ByLayer
 72
     1
 94
      127
  0
MATERIAL
  5
3E
102
{ACAD_REACTORS
330
3B
102
}
330
3B
100
AcDbMaterial
  1
Global
 72
     1
 94
      127
  0
MLINESTYLE
  5
18
102
{ACAD_REACTORS
330
17
102
}
330
17
100
AcDbMlineStyle
  2
Standard
 70
     0
  3

 62
   256
 51
90.0
 52
90.0
 71
     2
 49
0.5
 62
   256
  6
BYLAYER
 49
-0.5
 62
   256
  6
BYLAYER
  0
ACDBPLACEHOLDER
  5
F
102
{ACAD_REACTORS
330
E
102
}
330
E
  0
VISUALSTYLE
  5
2F
102
{ACAD_REACTORS
330
2A
102
}
330
2A
100
AcDbVisualStyle
  2
2dWireframe
 70
     4
177
     2
291
     0
 71
     0
176
     1
 72
     2
176
     1
 73
     0
176
     1
 90
        0
176
     1
 40
-0.6
176
     1
 41
-30.0
176
     1
 62
     5
 63
     7
421
 16777215
176
     1
 74
     1
176
     1
 91
        4
176
     1
 64
     7
176
     1
 65
   257
176
     1
 75
     1
176
     1
175
     1
176
     1
 42
1.0
176
     1
 92
        0
176
     1
 66
   257
176
     1
 43
1.0
176
     1
 76
     1
176
     1
 77
     6
176
     1
 78
     2
176
     1
 67
     7
176
     1
 79
     5
176
     1
170
     0
176
     1
171
     0
176
     1
290
     0
176
     1
 93
        1
176
     1
 44
0.0
176
     1
173
     0
176
     1
  0
VISUALSTYLE
  5
31
102
{ACAD_REACTORS
330
2A
102
}
330
2A
100
AcDbVisualStyle
  2
3D Hidden
 70
     6
177
     2
291
     0
 71
     1
176
     1
 72
     2
176
     1
 73
     2
176
     1
 90
        0
176
     1
 40
-0.6
176
     1
 41
-30.0
176
     1
 62
     5
 63
     7
421
 16777215
176
     1
 74
     2
176
     1
 91
        2
176
     1
 64
     7
176
     1
 65
   257
176
     1
 75
     2
176
     1
175
     1
176
     1
 42
40.0
176
     1
 92
        0
176
     1
 66
   257
176
     1
 43
1.0
176
     1
 76
     1
176
     1
 77
     6
176
     1
 78
     2
176
     1
 67
     7
176
     1
 79
     3
176
     1
170
     0
176
     1
171
     0
176
     1
290
     0
176
     1
 93
        1
176
     1
 44
0.0
176
     1
173
     0
176
     1
  0
VISUALSTYLE
  5
30
102
{ACAD_REACTORS
330
2A
102
}
330
2A
100
AcDbVisualStyle
  2
3dWireframe
 70
     5
177
     2
291
     0
 71
     0
176
     1
 72
     2
176
     1
 73
     0
176
     1
 90
        0
176
     1
 40
-0.6
176
     1
 41
-30.0
176
     1
 62
     5
 63
     7
421
 16777215
176
     1
 74
     1
176
     1
 91
        4
176
     1
 64
     7
176
     1
 65
   257
176
     1
 75
     1
176
     1
175
     1
176
     1
 42
1.0
176
     1
 92
        0
176
     1
 66
   257
176
     1
 43
1.0
176
     1
 76
     1
176
     1
 77
     6
176
     1
 78
     2
176
     1
 67
     7
176
     1
 79
     5
176
     1
170
     0
176
     1
171
     0
176
     1
290
     0
176
     1
 93
        1
176
     1
 44
0.0
176
     1
173
     0
176
     1
  0
VISUALSTYLE
  5
32
102
{ACAD_REACTORS
330
2A
102
}
330
2A
100
AcDbVisualStyle
  2
Basic
 70
     7
177
     2
291
     1
 71
     1
176
     1
 72
     0
176
     1
 73
     1
176
     1
 90
        0
176
     1
 40
-0.6
176
     1
 41
-30.0
176
     1
 62
     5
 63
     7
421
 16777215
176
     1
 74
     0
176
     1
 91
        4
176
     1
 64
     7
176
     1
 65
   257
176
     1
 75
     1
176
     1
175
     1
176
     1
 42
1.0
176
     1
 92
        8
176
     1
 66
     7
176
     1
 43
1.0
176
     1
 76
     1
176
     1
 77
     6
176
     1
 78
     2
176
     1
 67
     7
176
     1
 79
     5
176
     1
170
     0
176
     1
171
     0
176
     1
290
     0
176
     1
 93
        1
176
     1
 44
0.0
176
     1
173
     0
176
     1
  0
VISUALSTYLE
  5
36
102
{ACAD_REACTORS
330
2A
102
}
330
2A
100
AcDbVisualStyle
  2
Brighten
 70
    12
177
     2
291
     1
 71
     2
176
     1
 72
     2
176
     1
 73
     0
176
     1
 90
        0
176
     1
 40
-0.6
176
     1
 41
-30.0
176
     1
 62
     5
 63
     7
421
 16777215
176
     1
 74
     1
176
     1
 91
        4
176
     1
 64
     7
176
     1
 65
   257
176
     1
 75
     1
176
     1
175
     1
176
     1
 42
1.0
176
     1
 92
        8
176
     1
 66
     7
176
     1
 43
1.0
176
     1
 76
     1
176
     1
 77
     6
176
     1
 78
     2
176
     1
 67
     7
176
     1
 79
     5
176
     1
170
     0
176
     1
171
     0
176
     1
290
     0
176
     1
 93
        1
176
     1
 44
50.0
176
     1
173
     0
176
     1
  0
VISUALSTYLE
  5
3A
102
{ACAD_REACTORS
330
2A
102
}
330
2A
100
AcDbVisualStyle
  2
ColorChange
 70
    16
177
     2
291
     1
 71
     2
176
     1
 72
     2
176
     1
 73
     3
176
     1
 90
        0
176
     1
 40
-0.6
176
     1
 41
-30.0
176
     1
 62
     5
 63
     8
421
  8421504
176
     1
 74
     1
176
     1
 91
        4
176
     1
 64
     7
176
     1
 65
   257
176
     1
 75
     1
176
     1
175
     1
176
     1
 42
1.0
176
     1
 92
        8
176
     1
 66
     8
424
  8421504
176
     1
 43
1.0
176
     1
 76
     1
176
     1
 77
     6
176
     1
 78
     2
176
     1
 67
     7
176
     1
 79
     5
176
     1
170
     0
176
     1
171
     0
176
     1
290
     0
176
     1
 93
        1
176
     1
 44
0.0
176
     1
173
     0
176
     1
  0
VISUALSTYLE
  5
34
102
{ACAD_REACTORS
330
2A
102
}
330
2A
100
AcDbVisualStyle
  2
Conceptual
 70
     9
177
     2
291
     0
 71
     3
176
     1
 72
     2
176
     1
 73
     0
176
     1
 90
        0
176
     1
 40
-0.6
176
     1
 41
-30.0
176
     1
 62
     5
 63
     7
421
 16777215
176
     1
 74
     2
176
     1
 91
        2
176
     1
 64
     7
176
     1
 65
   257
176
     1
 75
     1
176
     1
175
     1
176
     1
 42
40.0
176
     1
 92
        8
176
     1
 66
     7
176
     1
 43
1.0
176
     1
 76
     1
176
     1
 77
     6
176
     1
 78
     2
176
     1
 67
     7
176
     1
 79
     3
176
     1
170
     0
176
     1
171
     0
176
     1
290
     0
176
     1
 93
        1
176
     1
 44
0.0
176
     1
173
     0
176
     1
  0
VISUALSTYLE
  5
35
102
{ACAD_REACTORS
330
2A
102
}
330
2A
100
AcDbVisualStyle
  2
Dim
 70
    11
177
     2
291
     1
 71
     2
176
     1
 72
     2
176
     1
 73
     0
176
     1
 90
        0
176
     1
 40
-0.6
176
     1
 41
-30.0
176
     1
 62
     5
 63
     7
421
 16777215
176
     1
 74
     1
176
     1
 91
        4
176
     1
 64
     7
176
     1
 65
   257
176
     1
 75
     1
176
     1
175
     1
176
     1
 42
1.0
176
     1
 92
        8
176
     1
 66
     7
176
     1
 43
1.0
176
     1
 76
     1
176
     1
 77
     6
176
     1
 78
     2
176
     1
 67
     7
176
     1
 79
     5
176
     1
170
     0
176
     1
171
     0
176
     1
290
     0
176
     1
 93
        1
176
     1
 44
-50.0
176
     1
173
     0
176
     1
  0
VISUALSTYLE
  5
39
102
{ACAD_REACTORS
330
2A
102
}
330
2A
100
AcDbVisualStyle
  2
Facepattern
 70
    15
177
     2
291
     1
 71
     2
176
     1
 72
     2
176
     1
 73
     0
176
     1
 90
        0
176
     1
 40
-0.6
176
     1
 41
-30.0
176
     1
 62
     5
 63
     7
421
 16777215
176
     1
 74
     1
176
     1
 91
        4
176
     1
 64
     7
176
     1
 65
   257
176
     1
 75
     1
176
     1
175
     1
176
     1
 42
1.0
176
     1
 92
        8
176
     1
 66
     7
176
     1
 43
1.0
176
     1
 76
     1
176
     1
 77
     6
176
     1
 78
     2
176
     1
 67
     7
176
     1
 79
     5
176
     1
170
     0
176
     1
171
     0
176
     1
290
     0
176
     1
 93
        1
176
     1
 44
0.0
176
     1
173
     0
176
     1
  0
VISUALSTYLE
  5
2B
102
{ACAD_REACTORS
330
2A
102
}
330
2A
100
AcDbVisualStyle
  2
Flat
 70
     0
177
     2
291
     1
 71
     2
176
     1
 72
     1
176
     1
 73
     1
176
     1
 90
        2
176
     1
 40
-0.6
176
     1
 41
30.0
176
     1
 62
     5
 63
     7
421
 16777215
176
     1
 74
     0
176
     1
 91
        4
176
     1
 64
     7
176
     1
 65
   257
176
     1
 75
     1
176
     1
175
     1
176
     1
 42
1.0
176
     1
 92
        8
176
     1
 66
     7
176
     1
 43
1.0
176
     1
 76
     1
176
     1
 77
     6
176
     1
 78
     2
176
     1
 67
     7
176
     1
 79
     5
176
     1
170
     0
176
     1
171
     0
176
     1
290
     0
176
     1
 93
       13
176
     1
 44
0.0
176
     1
173
     0
176
     1
  0
VISUALSTYLE
  5
2C
102
{ACAD_REACTORS
330
2A
102
}
330
2A
100
AcDbVisualStyle
  2
FlatWithEdges
 70
     1
177
     2
291
     1
 71
     2
176
     1
 72
     1
176
     1
 73
     1
176
     1
 90
        2
176
     1
 40
-0.6
176
     1
 41
30.0
176
     1
 62
     5
 63
     7
421
 16777215
176
     1
 74
     1
176
     1
 91
        4
176
     1
 64
     7
176
     1
 65
   257
176
     1
 75
     1
176
     1
175
     1
176
     1
 42
1.0
176
     1
 92
        0
176
     1
 66
   257
176
     1
 43
1.0
176
     1
 76
     1
176
     1
 77
     6
176
     1
 78
     2
176
     1
 67
     7
176
     1
 79
     5
176
     1
170
     0
176
     1
171
     0
176
     1
290
     0
176
     1
 93
       13
176
     1
 44
0.0
176
     1
173
     0
176
     1
  0
VISUALSTYLE
  5
2D
102
{ACAD_REACTORS
330
2A
102
}
330
2A
100
AcDbVisualStyle
  2
Gouraud
 70
     2
177
     2
291
     1
 71
     2
176
     1
 72
     2
176
     1
 73
     1
176
     1
 90
        2
176
     1
 40
-0.6
176
     1
 41
30.0
176
     1
 62
     5
 63
     7
421
 16777215
176
     1
 74
     0
176
     1
 91
        4
176
     1
 64
     7
176
     1
 65
   257
176
     1
 75
     1
176
     1
175
     1
176
     1
 42
1.0
176
     1
 92
        0
176
     1
 66
     7
176
     1
 43
1.0
176
     1
 76
     1
176
     1
 77
     6
176
     1
 78
     2
176
     1
 67
     7
176
     1
 79
     5
176
     1
170
     0
176
     1
171
     0
176
     1
290
     0
176
     1
 93
       13
176
     1
 44
0.0
176
     1
173
     0
176
     1
  0
VISUALSTYLE
  5
2E
102
{ACAD_REACTORS
330
2A
102
}
330
2A
100
AcDbVisualStyle
  2
GouraudWithEdges
 70
     3
177
     2
291
     1
 71
     2
176
     1
 72
     2
176
     1
 73
     1
176
     1
 90
        2
176
     1
 40
-0.6
176
     1
 41
30.0
176
     1
 62
     5
 63
     7
421
 16777215
176
     1
 74
     1
176
     1
 91
        4
176
     1
 64
     7
176
     1
 65
   257
176
     1
 75
     1
176
     1
175
     1
176
     1
 42
1.0
176
     1
 92
        0
176
     1
 66
   257
176
     1
 43
1.0
176
     1
 76
     1
176
     1
 77
     6
176
     1
 78
     2
176
     1
 67
     7
176
     1
 79
     5
176
     1
170
     0
176
     1
171
     0
176
     1
290
     0
176
     1
 93
       13
176
     1
 44
0.0
176
     1
173
     0
176
     1
  0
VISUALSTYLE
  5
38
102
{ACAD_REACTORS
330
2A
102
}
330
2A
100
AcDbVisualStyle
  2
Linepattern
 70
    14
177
     2
291
     1
 71
     2
176
     1
 72
     2
176
     1
 73
     0
176
     1
 90
        0
176
     1
 40
-0.6
176
     1
 41
-30.0
176
     1
 62
     5
 63
     7
421
 16777215
176
     1
 74
     1
176
     1
 91
        4
176
     1
 64
     7
176
     1
 65
   257
176
     1
 75
     7
176
     1
175
     7
176
     1
 42
1.0
176
     1
 92
        8
176
     1
 66
     7
176
     1
 43
1.0
176
     1
 76
     1
176
     1
 77
     6
176
     1
 78
     2
176
     1
 67
     7
176
     1
 79
     5
176
     1
170
     0
176
     1
171
     0
176
     1
290
     0
176
     1
 93
        1
176
     1
 44
0.0
176
     1
173
     0
176
     1
  0
VISUALSTYLE
  5
33
102
{ACAD_REACTORS
330
2A
102
}
330
2A
100
AcDbVisualStyle
  2
Realistic
 70
     8
177
     2
291
     0
 71
     2
176
     1
 72
     2
176
     1
 73
     0
176
     1
 90
        0
176
     1
 40
-0.6
176
     1
 41
-30.0
176
     1
 62
     5
 63
     7
421
 16777215
176
     1
 74
     1
176
     1
 91
        0
176
     1
 64
     7
176
     1
 65
   257
176
     1
 75
     1
176
     1
175
     1
176
     1
 42
1.0
176
     1
 92
        8
176
     1
 66
     8
424
  7895160
176
     1
 43
1.0
176
     1
 76
     1
176
     1
 77
     6
176
     1
 78
     2
176
     1
 67
     7
176
     1
 79
     5
176
     1
170
     0
176
     1
171
     0
176
     1
290
     0
176
     1
 93
       13
176
     1
 44
0.0
176
     1
173
     0
176
     1
  0
VISUALSTYLE
  5
37
102
{ACAD_REACTORS
330
2A
102
}
330
2A
100
AcDbVisualStyle
  2
Thicken
 70
    13
177
     2
291
     1
 71
     2
176
     1
 72
     2
176
     1
 73
     0
176
     1
 90
        0
176
     1
 40
-0.6
176
     1
 41
-30.0
176
     1
 62
     5
 63
     7
421
 16777215
176
     1
 74
     1
176
     1
 91
        4
176
     1
 64
     7
176
     1
 65
   257
176
     1
 75
     1
176
     1
175
     1
176
     1
 42
1.0
176
     1
 92
       12
176
     1
 66
     7
176
     1
 43
1.0
176
     1
 76
     1
176
     1
 77
     6
176
     1
 78
     2
176
     1
 67
     7
176
     1
 79
     5
176
     1
170
     0
176
     1
171
     0
176
     1
290
     0
176
     1
 93
        1
176
     1
 44
0.0
176
     1
173
     0
176
     1
  0
ENDSEC
  0
EOF
