  0
SECTION
  2
HEADER
  9
$ACADVER
  1
AC1024
  9
$ACADMAINTVER
 70
     6
  9
$DWGCODEPAGE
  3
UNDEFINED
  9
$INSBASE
 10
0.0
 20
0.0
 30
0.0
  9
$EXTMIN
 10
1.000000000000000E+20
 20
1.000000000000000E+20
 30
1.000000000000000E+20
  9
$EXTMAX
 10
-1.000000000000000E+20
 20
-1.000000000000000E+20
 30
-1.000000000000000E+20
  9
$LIMMIN
 10
0.0
 20
0.0
  9
$LIMMAX
 10
12.0
 20
9.0
  9
$ORTHOMODE
 70
     0
  9
$REGENMODE
 70
     1
  9
$FILLMODE
 70
     1
  9
$QTEXTMODE
 70
     0
  9
$MIRRTEXT
 70
     1
  9
$LTSCALE
 40
1.0
  9
$ATTMODE
 70
     1
  9
$TEXTSIZE
 40
0.2
  9
$TRACEWID
 40
0.05
  9
$TEXTSTYLE
  7
Standard
  9
$CLAYER
  8
0
  9
$CELTYPE
  6
ByLayer
  9
$CECOLOR
 62
   256
  9
$CELTSCALE
 40
1.0
  9
$DISPSILH
 70
     0
  9
$DIMSCALE
 40
1.0
  9
$DIMASZ
 40
0.18
  9
$DIMEXO
 40
0.0625
  9
$DIMDLI
 40
0.38
  9
$DIMRND
 40
0.0
  9
$DIMDLE
 40
0.0
  9
$DIMEXE
 40
0.18
  9
$DIMTP
 40
0.0
  9
$DIMTM
 40
0.0
  9
$DIMTXT
 40
0.18
  9
$DIMCEN
 40
0.09
  9
$DIMTSZ
 40
0.0
  9
$DIMTOL
 70
     0
  9
$DIMLIM
 70
     0
  9
$DIMTIH
 70
     1
  9
$DIMTOH
 70
     1
  9
$DIMSE1
 70
     0
  9
$DIMSE2
 70
     0
  9
$DIMTAD
 70
     0
  9
$DIMZIN
 70
     0
  9
$DIMBLK
  1

  9
$DIMASO
 70
     1
  9
$DIMSHO
 70
     1
  9
$DIMPOST
  1

  9
$DIMAPOST
  1

  9
$DIMALT
 70
     0
  9
$DIMALTD
 70
     2
  9
$DIMALTF
 40
25.4
  9
$DIMLFAC
 40
1.0
  9
$DIMTOFL
 70
     0
  9
$DIMTVP
 40
0.0
  9
$DIMTIX
 70
     0
  9
$DIMSOXD
 70
     0
  9
$DIMSAH
 70
     0
  9
$DIMBLK1
  1

  9
$DIMBLK2
  1

  9
$DIMSTYLE
  2
Standard
  9
$DIMCLRD
 70
     0
  9
$DIMCLRE
 70
     0
  9
$DIMCLRT
 70
     0
  9
$DIMTFAC
 40
1.0
  9
$DIMGAP
 40
0.09
  9
$DIMJUST
 70
     0
  9
$DIMSD1
 70
     0
  9
$DIMSD2
 70
     0
  9
$DIMTOLJ
 70
     1
  9
$DIMTZIN
 70
     0
  9
$DIMALTZ
 70
     0
  9
$DIMALTTZ
 70
     0
  9
$DIMUPT
 70
     0
  9
$DIMDEC
 70
     4
  9
$DIMTDEC
 70
     4
  9
$DIMALTU
 70
     2
  9
$DIMALTTD
 70
     2
  9
$DIMTXSTY
  7
Standard
  9
$DIMAUNIT
 70
     0
  9
$DIMADEC
 70
     0
  9
$DIMALTRND
 40
0.0
  9
$DIMAZIN
 70
     0
  9
$DIMDSEP
 70
    46
  9
$DIMATFIT
 70
     3
  9
$DIMFRAC
 70
     0
  9
$DIMLDRBLK
  1

  9
$DIMLUNIT
 70
     2
  9
$DIMLWD
 70
    -2
  9
$DIMLWE
 70
    -2
  9
$DIMTMOVE
 70
     0
  9
$DIMFXL
 40
1.0
  9
$DIMFXLON
 70
     0
  9
$DIMJOGANG
 40
0.7853981633974483
  9
$DIMTFILL
 70
     0
  9
$DIMTFILLCLR
 70
     0
  9
$DIMARCSYM
 70
     0
  9
$DIMLTYPE
  6

  9
$DIMLTEX1
  6

  9
$DIMLTEX2
  6

  9
$DIMTXTDIRECTION
 70
     0
  9
$LUNITS
 70
     2
  9
$LUPREC
 70
     4
  9
$SKETCHINC
 40
0.1
  9
$FILLETRAD
 40
0.5
  9
$AUNITS
 70
     0
  9
$AUPREC
 70
     0
  9
$MENU
  1
.
  9
$ELEVATION
 40
0.0
  9
$PELEVATION
 40
0.0
  9
$THICKNESS
 40
0.0
  9
$LIMCHECK
 70
     0
  9
$CHAMFERA
 40
0.5
  9
$CHAMFERB
 40
0.5
  9
$CHAMFERC
 40
1.0
  9
$CHAMFERD
 40
0.0
  9
$SKPOLY
 70
     0
  9
$TDCREATE
 40
2457917.611863426
  9
$TDUCREATE
 40
2457917.236863426
  9
$TDUPDATE
 40
2457917.611863426
  9
$TDUUPDATE
 40
2457917.236863426
  9
$TDINDWG
 40
0.0000000116
  9
$TDUSRTIMER
 40
0.0000000116
  9
$USRTIMER
 70
     1
  9
$ANGBASE
 50
0.0
  9
$ANGDIR
 70
     0
  9
$PDMODE
 70
     0
  9
$PDSIZE
 40
0.0
  9
$PLINEWID
 40
0.0
  9
$SPLFRAME
 70
     0
  9
$SPLINETYPE
 70
     6
  9
$SPLINESEGS
 70
     8
  9
$HANDSEED
  5
E5
  9
$SURFTAB1
 70
     6
  9
$SURFTAB2
 70
     6
  9
$SURFTYPE
 70
     6
  9
$SURFU
 70
     6
  9
$SURFV
 70
     6
  9
$UCSBASE
  2

  9
$UCSNAME
  2

  9
$UCSORG
 10
0.0
 20
0.0
 30
0.0
  9
$UCSXDIR
 10
1.0
 20
0.0
 30
0.0
  9
$UCSYDIR
 10
0.0
 20
1.0
 30
0.0
  9
$UCSORTHOREF
  2

  9
$UCSORTHOVIEW
 70
     0
  9
$UCSORGTOP
 10
0.0
 20
0.0
 30
0.0
  9
$UCSORGBOTTOM
 10
0.0
 20
0.0
 30
0.0
  9
$UCSORGLEFT
 10
0.0
 20
0.0
 30
0.0
  9
$UCSORGRIGHT
 10
0.0
 20
0.0
 30
0.0
  9
$UCSORGFRONT
 10
0.0
 20
0.0
 30
0.0
  9
$UCSORGBACK
 10
0.0
 20
0.0
 30
0.0
  9
$PUCSBASE
  2

  9
$PUCSNAME
  2

  9
$PUCSORG
 10
0.0
 20
0.0
 30
0.0
  9
$PUCSXDIR
 10
1.0
 20
0.0
 30
0.0
  9
$PUCSYDIR
 10
0.0
 20
1.0
 30
0.0
  9
$PUCSORTHOREF
  2

  9
$PUCSORTHOVIEW
 70
     0
  9
$PUCSORGTOP
 10
0.0
 20
0.0
 30
0.0
  9
$PUCSORGBOTTOM
 10
0.0
 20
0.0
 30
0.0
  9
$PUCSORGLEFT
 10
0.0
 20
0.0
 30
0.0
  9
$PUCSORGRIGHT
 10
0.0
 20
0.0
 30
0.0
  9
$PUCSORGFRONT
 10
0.0
 20
0.0
 30
0.0
  9
$PUCSORGBACK
 10
0.0
 20
0.0
 30
0.0
  9
$USERI1
 70
     0
  9
$USERI2
 70
     0
  9
$USERI3
 70
     0
  9
$USERI4
 70
     0
  9
$USERI5
 70
     0
  9
$USERR1
 40
0.0
  9
$USERR2
 40
0.0
  9
$USERR3
 40
0.0
  9
$USERR4
 40
0.0
  9
$USERR5
 40
0.0
  9
$WORLDVIEW
 70
     1
  9
$SHADEDGE
 70
     3
  9
$SHADEDIF
 70
    70
  9
$TILEMODE
 70
     1
  9
$MAXACTVP
 70
    64
  9
$PINSBASE
 10
0.0
 20
0.0
 30
0.0
  9
$PLIMCHECK
 70
     0
  9
$PEXTMIN
 10
1.000000000000000E+20
 20
1.000000000000000E+20
 30
1.000000000000000E+20
  9
$PEXTMAX
 10
-1.000000000000000E+20
 20
-1.000000000000000E+20
 30
-1.000000000000000E+20
  9
$PLIMMIN
 10
0.0
 20
0.0
  9
$PLIMMAX
 10
12.0
 20
9.0
  9
$UNITMODE
 70
     0
  9
$VISRETAIN
 70
     1
  9
$PLINEGEN
 70
     0
  9
$PSLTSCALE
 70
     1
  9
$TREEDEPTH
 70
  3020
  9
$CMLSTYLE
  2
Standard
  9
$CMLJUST
 70
     0
  9
$CMLSCALE
 40
1.0
  9
$PROXYGRAPHICS
 70
     1
  9
$MEASUREMENT
 70
     0
  9
$CELWEIGHT
370
    -1
  9
$ENDCAPS
280
     0
  9
$JOINSTYLE
280
     0
  9
$LWDISPLAY
290
     1
  9
$INSUNITS
 70
     1
  9
$HYPERLINKBASE
  1

  9
$STYLESHEET
  1

  9
$XEDIT
290
     1
  9
$CEPSNTYPE
380
     0
  9
$PSTYLEMODE
290
     1
  9
$FINGERPRINTGUID
  2
{D8F9BB02-758D-33E6-7AC8-44C369B97966}
  9
$VERSIONGUID
  2
{FAEB1C32-E019-11D5-929B-00C0DF256EC4}
  9
$EXTNAMES
290
     1
  9
$PSVPSCALE
 40
0.0
  9
$OLESTARTUP
290
     0
  9
$SORTENTS
280
   127
  9
$INDEXCTL
280
     0
  9
$HIDETEXT
280
     1
  9
$XCLIPFRAME
280
     2
  9
$HALOGAP
280
     0
  9
$OBSCOLOR
 70
   257
  9
$OBSLTYPE
280
     0
  9
$INTERSECTIONDISPLAY
280
     0
  9
$INTERSECTIONCOLOR
 70
   257
  9
$DIMASSOC
280
     2
  9
$PROJECTNAME
  1

  9
$CAMERADISPLAY
290
     0
  9
$LENSLENGTH
 40
50.0
  9
$CAMERAHEIGHT
 40
0.0
  9
$STEPSPERSEC
 40
2.0
  9
$STEPSIZE
 40
6.0
  9
$3DDWFPREC
 40
2.0
  9
$PSOLWIDTH
 40
0.25
  9
$PSOLHEIGHT
 40
4.0
  9
$LOFTANG1
 40
1.570796326794897
  9
$LOFTANG2
 40
1.570796326794897
  9
$LOFTMAG1
 40
0.0
  9
$LOFTMAG2
 40
0.0
  9
$LOFTPARAM
 70
     7
  9
$LOFTNORMALS
280
     1
  9
$LATITUDE
 40
37.795
  9
$LONGITUDE
 40
-122.394
  9
$NORTHDIRECTION
 40
0.0
  9
$TIMEZONE
 70
 -8000
  9
$LIGHTGLYPHDISPLAY
280
     1
  9
$TILEMODELIGHTSYNCH
280
     1
  9
$CMATERIAL
347
3C
  9
$SOLIDHIST
280
     1
  9
$SHOWHIST
280
     1
  9
$DWFFRAME
280
     2
  9
$DGNFRAME
280
     2
  9
$REALWORLDSCALE
290
     1
  9
$INTERFERECOLOR
 62
   256
  9
$CSHADOW
280
     0
  9
$SHADOWPLANELOCATION
 40
0.0
  0
ENDSEC
  0
SECTION
  2
CLASSES
  0
CLASS
  1
ACDBDICTIONARYWDFLT
  2
AcDbDictionaryWithDefault
  3
ObjectDBX Classes
 90
        0
 91
        4
280
     0
281
     0
  0
CLASS
  1
VISUALSTYLE
  2
AcDbVisualStyle
  3
ObjectDBX Classes
 90
     4095
 91
        4
280
     0
281
     0
  0
CLASS
  1
MATERIAL
  2
AcDbMaterial
  3
ObjectDBX Classes
 90
     1153
 91
        4
280
     0
281
     0
  0
CLASS
  1
SUN
  2
AcDbSun
  3
SCENEOE
 90
     1024
 91
        4
280
     0
281
     0
  0
ENDSEC
  0
SECTION
  2
TABLES
  0
TABLE
  2
VPORT
  5
8
330
0
100
AcDbSymbolTable
 70
     1
  0
VPORT
  5
29
330
8
100
AcDbSymbolTableRecord
100
AcDbViewportTableRecord
  2
*Active
 70
     0
 10
0.0
 20
0.0
 11
1.0
 21
1.0
 12
0.0
 22
0.0
 13
0.0
 23
0.0
 14
0.5
 24
0.5
 15
0.5
 25
0.5
 16
0.0
 26
0.0
 36
1.0
 17
91.00082462281999
 27
-128.4993055234307
 37
0.0
 40
256.9986110468615
 41
0.7081814508812795
 42
50.0
 43
0.0
 44
0.0
 50
0.0
 51
0.0
 71
     0
 72
   100
 73
     1
 74
     3
 75
     0
 76
     0
 77
     0
 78
     0
281
     0
 65
     1
110
0.0
120
0.0
130
0.0
111
1.0
121
0.0
131
0.0
112
0.0
122
1.0
132
0.0
 79
     0
146
0.0
 60
     3
 61
     5
292
     1
282
     1
141
0.0
142
0.0
 63
   250
361
3F
  0
ENDTAB
  0
TABLE
  2
LTYPE
  5
5
330
0
100
AcDbSymbolTable
 70
     1
  0
LTYPE
  5
14
330
5
100
AcDbSymbolTableRecord
100
AcDbLinetypeTableRecord
  2
ByBlock
 70
     0
  3

 72
    65
 73
     0
 40
0.0
  0
LTYPE
  5
15
330
5
100
AcDbSymbolTableRecord
100
AcDbLinetypeTableRecord
  2
ByLayer
 70
     0
  3

 72
    65
 73
     0
 40
0.0
  0
LTYPE
  5
16
330
5
100
AcDbSymbolTableRecord
100
AcDbLinetypeTableRecord
  2
Continuous
 70
     0
  3
Solid line
 72
    65
 73
     0
 40
0.0
  0
ENDTAB
  0
TABLE
  2
LAYER
  5
2
330
0
100
AcDbSymbolTable
 70
     2
  0
LAYER
  5
10
330
2
100
AcDbSymbolTableRecord
100
AcDbLayerTableRecord
  2
0
 70
     0
 62
     7
  6
Continuous
370
    -3
390
F
347
3E
  0
LAYER
  5
40
330
2
100
AcDbSymbolTableRecord
100
AcDbLayerTableRecord
  2
_U+30EC_U+30A4_U+30E4_U+30FC 1
 70
     0
 62
     7
  6
Continuous
370
    -3
390
F
347
3E
  0
ENDTAB
  0
TABLE
  2
STYLE
  5
3
330
0
100
AcDbSymbolTable
 70
     1
  0
STYLE
  5
11
330
3
100
AcDbSymbolTableRecord
100
AcDbTextStyleTableRecord
  2
Standard
 70
     0
 40
0.0
 41
1.0
 50
0.0
 71
     0
 42
0.2
  3
txt
  4

  0
ENDTAB
  0
TABLE
  2
VIEW
  5
6
330
0
100
AcDbSymbolTable
 70
     0
  0
ENDTAB
  0
TABLE
  2
UCS
  5
7
330
0
100
AcDbSymbolTable
 70
     0
  0
ENDTAB
  0
TABLE
  2
APPID
  5
9
330
0
100
AcDbSymbolTable
 70
     1
  0
APPID
  5
12
330
9
100
AcDbSymbolTableRecord
100
AcDbRegAppTableRecord
  2
ACAD
 70
     0
  0
ENDTAB
  0
TABLE
  2
DIMSTYLE
  5
A
330
0
100
AcDbSymbolTable
 70
     1
100
AcDbDimStyleTable
  0
DIMSTYLE
105
27
330
A
100
AcDbSymbolTableRecord
100
AcDbDimStyleTableRecord
  2
Standard
 70
     0
178
     0
340
11
  0
ENDTAB
  0
TABLE
  2
BLOCK_RECORD
  5
1
330
0
100
AcDbSymbolTable
 70
     6
  0
BLOCK_RECORD
  5
1F
330
1
100
AcDbSymbolTableRecord
100
AcDbBlockTableRecord
  2
*Model_Space
340
22
 70
     0
280
     1
281
     0
  0
BLOCK_RECORD
  5
1B
330
1
100
AcDbSymbolTableRecord
100
AcDbBlockTableRecord
  2
*Paper_Space
340
1E
 70
     0
280
     1
281
     0
  0
BLOCK_RECORD
  5
23
330
1
100
AcDbSymbolTableRecord
100
AcDbBlockTableRecord
  2
*Paper_Space0
340
26
 70
     0
280
     1
281
     0
  0
BLOCK_RECORD
  5
41
330
1
100
AcDbSymbolTableRecord
100
AcDbBlockTableRecord
  2
block 2
340
0
102
{BLKREFS
331
42
102
}
 70
     0
280
     1
281
     0
  0
BLOCK_RECORD
  5
56
330
1
100
AcDbSymbolTableRecord
100
AcDbBlockTableRecord
  2
block 3
340
0
102
{BLKREFS
331
57
102
}
 70
     0
280
     1
281
     0
  0
BLOCK_RECORD
  5
6F
330
1
100
AcDbSymbolTableRecord
100
AcDbBlockTableRecord
  2
block 4
340
0
102
{BLKREFS
331
70
102
}
 70
     0
280
     1
281
     0
  0
BLOCK_RECORD
  5
A5
330
1
100
AcDbSymbolTableRecord
100
AcDbBlockTableRecord
  2
block 5
340
0
102
{BLKREFS
331
A6
102
}
 70
     0
280
     1
281
     0
  0
BLOCK_RECORD
  5
AB
330
1
100
AcDbSymbolTableRecord
100
AcDbBlockTableRecord
  2
block 6
340
0
102
{BLKREFS
331
AC
102
}
 70
     0
280
     1
281
     0
  0
ENDTAB
  0
ENDSEC
  0
SECTION
  2
BLOCKS
  0
BLOCK
  5
20
330
1F
100
AcDbEntity
  8
0
100
AcDbBlockBegin
  2
*Model_Space
 70
     0
 10
0.0
 20
0.0
 30
0.0
  3
*Model_Space
  1

  0
ENDBLK
  5
21
330
1F
100
AcDbEntity
  8
0
100
AcDbBlockEnd
  0
BLOCK
  5
1C
330
1B
100
AcDbEntity
 67
     1
  8
0
100
AcDbBlockBegin
  2
*Paper_Space
 70
     0
 10
0.0
 20
0.0
 30
0.0
  3
*Paper_Space
  1

  0
ENDBLK
  5
1D
330
1B
100
AcDbEntity
 67
     1
  8
0
100
AcDbBlockEnd
  0
BLOCK
  5
24
330
23
100
AcDbEntity
  8
0
100
AcDbBlockBegin
  2
*Paper_Space0
 70
     0
 10
0.0
 20
0.0
 30
0.0
  3
*Paper_Space0
  1

  0
ENDBLK
  5
25
330
23
100
AcDbEntity
  8
0
100
AcDbBlockEnd
  0
BLOCK
  5
43
330
41
100
AcDbEntity
  8
0
100
AcDbBlockBegin
  2
block 2
 70
     0
 10
0.0
 20
0.0
 30
0.0
  3
block 2
  1

  0
SPLINE
  5
45
330
41
100
AcDbEntity
  8
_U+30EC_U+30A4_U+30E4_U+30FC 1
370
     0
100
AcDbSpline
210
0.0
220
0.0
230
1.0
 70
    11
 71
     3
 72
    26
 73
    22
 74
     0
 42
0.0000000001
 43
0.0000000001
 12
1.0
 22
0.0
 32
0.0
 13
1.0
 23
0.0
 33
0.0
 40
0.0
 40
0.0
 40
0.0
 40
0.0
 40
1.0
 40
1.0
 40
1.0
 40
2.0
 40
2.0
 40
2.0
 40
3.0
 40
3.0
 40
3.0
 40
4.0
 40
4.0
 40
4.0
 40
5.0
 40
5.0
 40
5.0
 40
6.0
 40
6.0
 40
6.0
 40
7.0
 40
7.0
 40
7.0
 40
7.0
 10
85.02392304732041
 20
-142.3995767873168
 30
0.0
 10
85.02392304732041
 20
-142.3995767873168
 30
0.0
 10
85.02392304732041
 20
-141.2954236842942
 30
0.0
 10
85.02392304732041
 20
-141.2954236842942
 30
0.0
 10
85.02392304732041
 20
-141.2954236842942
 30
0.0
 10
84.69388289983348
 20
-141.2954236842942
 30
0.0
 10
84.69388289983348
 20
-141.2954236842942
 30
0.0
 10
84.69388289983348
 20
-141.2954236842942
 30
0.0
 10
84.69388289983348
 20
-141.1472845784285
 30
0.0
 10
84.69388289983348
 20
-141.1472845784285
 30
0.0
 10
85.02599010461157
 20
-141.1324706678419
 30
0.0
 10
85.07249889366244
 20
-140.9695176513896
 30
0.0
 10
85.10212671483558
 20
-140.8551404812793
 30
0.0
 10
85.10212671483558
 20
-140.8551404812793
 30
0.0
 10
85.24819876341017
 20
-140.8551404812793
 30
0.0
 10
85.24819876341017
 20
-140.8551404812793
 30
0.0
 10
85.24819876341017
 20
-140.8551404812793
 30
0.0
 10
85.24819876341017
 20
-142.3995767873168
 30
0.0
 10
85.24819876341017
 20
-142.3995767873168
 30
0.0
 10
85.24819876341017
 20
-142.3995767873168
 30
0.0
 10
85.02392304732041
 20
-142.3995767873168
 30
0.0
 10
85.02392304732041
 20
-142.3995767873168
 30
0.0
  0
HATCH
  5
46
330
41
100
AcDbEntity
  8
_U+30EC_U+30A4_U+30E4_U+30FC 1
 62
   179
420
  2234388
100
AcDbHatch
 10
0.0
 20
0.0
 30
0.0
210
0.0
220
0.0
230
1.0
  2
SOLID
 70
     1
 71
     0
 91
        1
 92
        1
 93
        1
 72
     4
 94
        3
 73
     0
 74
     1
 95
       26
 96
       22
 40
0.0
 40
0.0
 40
0.0
 40
0.0
 40
1.0
 40
1.0
 40
1.0
 40
2.0
 40
2.0
 40
2.0
 40
3.0
 40
3.0
 40
3.0
 40
4.0
 40
4.0
 40
4.0
 40
5.0
 40
5.0
 40
5.0
 40
6.0
 40
6.0
 40
6.0
 40
7.0
 40
7.0
 40
7.0
 40
7.0
 10
85.02392304732041
 20
-142.3995767873168
 10
85.02392304732041
 20
-142.3995767873168
 10
85.02392304732041
 20
-141.2954236842942
 10
85.02392304732041
 20
-141.2954236842942
 10
85.02392304732041
 20
-141.2954236842942
 10
84.69388289983348
 20
-141.2954236842942
 10
84.69388289983348
 20
-141.2954236842942
 10
84.69388289983348
 20
-141.2954236842942
 10
84.69388289983348
 20
-141.1472845784285
 10
84.69388289983348
 20
-141.1472845784285
 10
85.02599010461157
 20
-141.1324706678419
 10
85.07249889366244
 20
-140.9695176513896
 10
85.10212671483558
 20
-140.8551404812793
 10
85.10212671483558
 20
-140.8551404812793
 10
85.24819876341017
 20
-140.8551404812793
 10
85.24819876341017
 20
-140.8551404812793
 10
85.24819876341017
 20
-140.8551404812793
 10
85.24819876341017
 20
-142.3995767873168
 10
85.24819876341017
 20
-142.3995767873168
 10
85.24819876341017
 20
-142.3995767873168
 10
85.02392304732041
 20
-142.3995767873168
 10
85.02392304732041
 20
-142.3995767873168
 97
        0
 97
        0
 75
     2
 76
     1
 98
        0
  0
SPLINE
  5
47
330
41
100
AcDbEntity
  8
_U+30EC_U+30A4_U+30E4_U+30FC 1
370
     0
100
AcDbSpline
210
0.0
220
0.0
230
1.0
 70
    11
 71
     3
 72
    29
 73
    25
 74
     0
 42
0.0000000001
 43
0.0000000001
 12
1.0
 22
0.0
 32
0.0
 13
1.0
 23
0.0
 33
0.0
 40
0.0
 40
0.0
 40
0.0
 40
0.0
 40
1.0
 40
1.0
 40
1.0
 40
2.0
 40
2.0
 40
2.0
 40
3.0
 40
3.0
 40
3.0
 40
4.0
 40
4.0
 40
4.0
 40
5.0
 40
5.0
 40
5.0
 40
6.0
 40
6.0
 40
6.0
 40
7.0
 40
7.0
 40
7.0
 40
8.0
 40
8.0
 40
8.0
 40
8.0
 10
86.64725203997014
 20
-142.2218098602779
 30
0.0
 10
86.5390760417333
 20
-142.4312716657811
 30
0.0
 10
86.36578773882522
 20
-142.45021969095
 30
0.0
 10
86.24934351142377
 20
-142.45021969095
 30
0.0
 10
86.08862980703688
 20
-142.45021969095
 30
0.0
 10
85.94686412781884
 20
-142.4037109018991
 30
0.0
 10
85.85160723765169
 20
-142.2218098602779
 30
0.0
 10
85.74808211831993
 20
-142.0271619653613
 30
0.0
 10
85.72896183837679
 20
-141.7904839055246
 30
0.0
 10
85.72896183837679
 20
-141.6275308890723
 30
0.0
 10
85.72896183837679
 20
-141.4835258977888
 30
0.0
 10
85.74584280625452
 20
-141.2316894178171
 30
0.0
 10
85.85160723765169
 20
-141.0329074083182
 30
0.0
 10
85.95961098111427
 20
-140.8299912842369
 30
0.0
 10
86.12032468550117
 20
-140.8065646349372
 30
0.0
 10
86.24934351142377
 20
-140.8065646349372
 30
0.0
 10
86.4081624132938
 20
-140.8065646349372
 30
0.0
 10
86.55182289502872
 20
-140.851006366697
 30
0.0
 10
86.64725203997014
 20
-141.0329074083182
 30
0.0
 10
86.74647078994533
 20
-141.2254882459436
 30
0.0
 10
86.76989743924503
 20
-141.4538980766157
 30
0.0
 10
86.76989743924503
 20
-141.6275308890723
 30
0.0
 10
86.76989743924503
 20
-141.7987521346892
 30
0.0
 10
86.74853784723648
 20
-142.0292290226524
 30
0.0
 10
86.64725203997014
 20
-142.2218098602779
 30
0.0
  0
SPLINE
  5
48
330
41
100
AcDbEntity
  8
_U+30EC_U+30A4_U+30E4_U+30FC 1
370
     0
100
AcDbSpline
210
0.0
220
0.0
230
1.0
 70
    11
 71
     3
 72
    17
 73
    13
 74
     0
 42
0.0000000001
 43
0.0000000001
 12
1.0
 22
0.0
 32
0.0
 13
1.0
 23
0.0
 33
0.0
 40
0.0
 40
0.0
 40
0.0
 40
0.0
 40
1.0
 40
1.0
 40
1.0
 40
2.0
 40
2.0
 40
2.0
 40
3.0
 40
3.0
 40
3.0
 40
4.0
 40
4.0
 40
4.0
 40
4.0
 10
86.24934351142377
 20
-140.9991454725627
 30
0.0
 10
85.99974634351743
 20
-140.9991454725627
 30
0.0
 10
85.95323755446655
 20
-141.2826768309988
 30
0.0
 10
85.95323755446655
 20
-141.6275308890723
 30
0.0
 10
85.95323755446655
 20
-141.9468912405549
 30
0.0
 10
85.98923880228742
 20
-142.2555717960333
 30
0.0
 10
86.24934351142377
 20
-142.2555717960333
 30
0.0
 10
86.49704587681325
 20
-142.2555717960333
 30
0.0
 10
86.54562172315526
 20
-141.974452004437
 30
0.0
 10
86.54562172315526
 20
-141.6275308890723
 30
0.0
 10
86.54562172315526
 20
-141.3078260280411
 30
0.0
 10
86.50738116326899
 20
-140.9991454725627
 30
0.0
 10
86.24934351142377
 20
-140.9991454725627
 30
0.0
  0
HATCH
  5
49
330
41
100
AcDbEntity
  8
_U+30EC_U+30A4_U+30E4_U+30FC 1
 62
   179
420
  2234388
100
AcDbHatch
 10
0.0
 20
0.0
 30
0.0
210
0.0
220
0.0
230
1.0
  2
SOLID
 70
     1
 71
     0
 91
        2
 92
        1
 93
        1
 72
     4
 94
        3
 73
     0
 74
     1
 95
       29
 96
       25
 40
0.0
 40
0.0
 40
0.0
 40
0.0
 40
1.0
 40
1.0
 40
1.0
 40
2.0
 40
2.0
 40
2.0
 40
3.0
 40
3.0
 40
3.0
 40
4.0
 40
4.0
 40
4.0
 40
5.0
 40
5.0
 40
5.0
 40
6.0
 40
6.0
 40
6.0
 40
7.0
 40
7.0
 40
7.0
 40
8.0
 40
8.0
 40
8.0
 40
8.0
 10
86.64725203997014
 20
-142.2218098602779
 10
86.5390760417333
 20
-142.4312716657811
 10
86.36578773882522
 20
-142.45021969095
 10
86.24934351142377
 20
-142.45021969095
 10
86.08862980703688
 20
-142.45021969095
 10
85.94686412781884
 20
-142.4037109018991
 10
85.85160723765169
 20
-142.2218098602779
 10
85.74808211831993
 20
-142.0271619653613
 10
85.72896183837679
 20
-141.7904839055246
 10
85.72896183837679
 20
-141.6275308890723
 10
85.72896183837679
 20
-141.4835258977888
 10
85.74584280625452
 20
-141.2316894178171
 10
85.85160723765169
 20
-141.0329074083182
 10
85.95961098111427
 20
-140.8299912842369
 10
86.12032468550117
 20
-140.8065646349372
 10
86.24934351142377
 20
-140.8065646349372
 10
86.4081624132938
 20
-140.8065646349372
 10
86.55182289502872
 20
-140.851006366697
 10
86.64725203997014
 20
-141.0329074083182
 10
86.74647078994533
 20
-141.2254882459436
 10
86.76989743924503
 20
-141.4538980766157
 10
86.76989743924503
 20
-141.6275308890723
 10
86.76989743924503
 20
-141.7987521346892
 10
86.74853784723648
 20
-142.0292290226524
 10
86.64725203997014
 20
-142.2218098602779
 97
        0
 97
        0
 92
        1
 93
        1
 72
     4
 94
        3
 73
     0
 74
     1
 95
       17
 96
       13
 40
0.0
 40
0.0
 40
0.0
 40
0.0
 40
1.0
 40
1.0
 40
1.0
 40
2.0
 40
2.0
 40
2.0
 40
3.0
 40
3.0
 40
3.0
 40
4.0
 40
4.0
 40
4.0
 40
4.0
 10
86.24934351142377
 20
-140.9991454725627
 10
85.99974634351743
 20
-140.9991454725627
 10
85.95323755446655
 20
-141.2826768309988
 10
85.95323755446655
 20
-141.6275308890723
 10
85.95323755446655
 20
-141.9468912405549
 10
85.98923880228742
 20
-142.2555717960333
 10
86.24934351142377
 20
-142.2555717960333
 10
86.49704587681325
 20
-142.2555717960333
 10
86.54562172315526
 20
-141.974452004437
 10
86.54562172315526
 20
-141.6275308890723
 10
86.54562172315526
 20
-141.3078260280411
 10
86.50738116326899
 20
-140.9991454725627
 10
86.24934351142377
 20
-140.9991454725627
 97
        0
 97
        0
 75
     2
 76
     1
 98
        0
  0
ENDBLK
  5
44
330
41
100
AcDbEntity
  8
0
100
AcDbBlockEnd
  0
BLOCK
  5
58
330
56
100
AcDbEntity
  8
0
100
AcDbBlockBegin
  2
block 3
 70
     0
 10
0.0
 20
0.0
 30
0.0
  3
block 3
  1

  0
SPLINE
  5
5A
330
56
100
AcDbEntity
  8
_U+30EC_U+30A4_U+30E4_U+30FC 1
370
     0
100
AcDbSpline
210
0.0
220
0.0
230
1.0
 70
    11
 71
     3
 72
    26
 73
    22
 74
     0
 42
0.0000000001
 43
0.0000000001
 12
1.0
 22
0.0
 32
0.0
 13
1.0
 23
0.0
 33
0.0
 40
0.0
 40
0.0
 40
0.0
 40
0.0
 40
1.0
 40
1.0
 40
1.0
 40
2.0
 40
2.0
 40
2.0
 40
3.0
 40
3.0
 40
3.0
 40
4.0
 40
4.0
 40
4.0
 40
5.0
 40
5.0
 40
5.0
 40
6.0
 40
6.0
 40
6.0
 40
7.0
 40
7.0
 40
7.0
 40
7.0
 10
95.06430932953253
 20
-142.3995767873168
 30
0.0
 10
95.06430932953253
 20
-142.3995767873168
 30
0.0
 10
95.06430932953253
 20
-141.2954236842942
 30
0.0
 10
95.06430932953253
 20
-141.2954236842942
 30
0.0
 10
95.06430932953253
 20
-141.2954236842942
 30
0.0
 10
94.73426918204561
 20
-141.2954236842942
 30
0.0
 10
94.73426918204561
 20
-141.2954236842942
 30
0.0
 10
94.73426918204561
 20
-141.2954236842942
 30
0.0
 10
94.73426918204561
 20
-141.1472845784285
 30
0.0
 10
94.73426918204561
 20
-141.1472845784285
 30
0.0
 10
95.06637638682369
 20
-141.1324706678419
 30
0.0
 10
95.11288517587457
 20
-140.9695176513896
 30
0.0
 10
95.1425129970477
 20
-140.8551404812793
 30
0.0
 10
95.1425129970477
 20
-140.8551404812793
 30
0.0
 10
95.2885850456223
 20
-140.8551404812793
 30
0.0
 10
95.2885850456223
 20
-140.8551404812793
 30
0.0
 10
95.2885850456223
 20
-140.8551404812793
 30
0.0
 10
95.2885850456223
 20
-142.3995767873168
 30
0.0
 10
95.2885850456223
 20
-142.3995767873168
 30
0.0
 10
95.2885850456223
 20
-142.3995767873168
 30
0.0
 10
95.06430932953253
 20
-142.3995767873168
 30
0.0
 10
95.06430932953253
 20
-142.3995767873168
 30
0.0
  0
HATCH
  5
5B
330
56
100
AcDbEntity
  8
_U+30EC_U+30A4_U+30E4_U+30FC 1
 62
   179
420
  2234388
100
AcDbHatch
 10
0.0
 20
0.0
 30
0.0
210
0.0
220
0.0
230
1.0
  2
SOLID
 70
     1
 71
     0
 91
        1
 92
        1
 93
        1
 72
     4
 94
        3
 73
     0
 74
     1
 95
       26
 96
       22
 40
0.0
 40
0.0
 40
0.0
 40
0.0
 40
1.0
 40
1.0
 40
1.0
 40
2.0
 40
2.0
 40
2.0
 40
3.0
 40
3.0
 40
3.0
 40
4.0
 40
4.0
 40
4.0
 40
5.0
 40
5.0
 40
5.0
 40
6.0
 40
6.0
 40
6.0
 40
7.0
 40
7.0
 40
7.0
 40
7.0
 10
95.06430932953253
 20
-142.3995767873168
 10
95.06430932953253
 20
-142.3995767873168
 10
95.06430932953253
 20
-141.2954236842942
 10
95.06430932953253
 20
-141.2954236842942
 10
95.06430932953253
 20
-141.2954236842942
 10
94.73426918204561
 20
-141.2954236842942
 10
94.73426918204561
 20
-141.2954236842942
 10
94.73426918204561
 20
-141.2954236842942
 10
94.73426918204561
 20
-141.1472845784285
 10
94.73426918204561
 20
-141.1472845784285
 10
95.06637638682369
 20
-141.1324706678419
 10
95.11288517587457
 20
-140.9695176513896
 10
95.1425129970477
 20
-140.8551404812793
 10
95.1425129970477
 20
-140.8551404812793
 10
95.2885850456223
 20
-140.8551404812793
 10
95.2885850456223
 20
-140.8551404812793
 10
95.2885850456223
 20
-140.8551404812793
 10
95.2885850456223
 20
-142.3995767873168
 10
95.2885850456223
 20
-142.3995767873168
 10
95.2885850456223
 20
-142.3995767873168
 10
95.06430932953253
 20
-142.3995767873168
 10
95.06430932953253
 20
-142.3995767873168
 97
        0
 97
        0
 75
     2
 76
     1
 98
        0
  0
SPLINE
  5
5C
330
56
100
AcDbEntity
  8
_U+30EC_U+30A4_U+30E4_U+30FC 1
370
     0
100
AcDbSpline
210
0.0
220
0.0
230
1.0
 70
    11
 71
     3
 72
    29
 73
    25
 74
     0
 42
0.0000000001
 43
0.0000000001
 12
1.0
 22
0.0
 32
0.0
 13
1.0
 23
0.0
 33
0.0
 40
0.0
 40
0.0
 40
0.0
 40
0.0
 40
1.0
 40
1.0
 40
1.0
 40
2.0
 40
2.0
 40
2.0
 40
3.0
 40
3.0
 40
3.0
 40
4.0
 40
4.0
 40
4.0
 40
5.0
 40
5.0
 40
5.0
 40
6.0
 40
6.0
 40
6.0
 40
7.0
 40
7.0
 40
7.0
 40
8.0
 40
8.0
 40
8.0
 40
8.0
 10
96.68763832218227
 20
-142.2218098602779
 30
0.0
 10
96.57980683349395
 20
-142.4312716657811
 30
0.0
 10
96.40617402103734
 20
-142.45021969095
 30
0.0
 10
96.2897297936359
 20
-142.45021969095
 30
0.0
 10
96.12918834402326
 20
-142.45021969095
 30
0.0
 10
95.98725041003097
 20
-142.4037109018991
 30
0.0
 10
95.89216577463807
 20
-142.2218098602779
 30
0.0
 10
95.78846840053205
 20
-142.0271619653613
 30
0.0
 10
95.76952037536319
 20
-141.7904839055246
 30
0.0
 10
95.76952037536319
 20
-141.6275308890723
 30
0.0
 10
95.76952037536319
 20
-141.4835258977888
 30
0.0
 10
95.78640134324091
 20
-141.2316894178171
 30
0.0
 10
95.89216577463807
 20
-141.0329074083182
 30
0.0
 10
95.99999726332639
 20
-140.8299912842369
 30
0.0
 10
96.16088322248756
 20
-140.8065646349372
 30
0.0
 10
96.2897297936359
 20
-140.8065646349372
 30
0.0
 10
96.44854869550592
 20
-140.8065646349372
 30
0.0
 10
96.59220917724085
 20
-140.851006366697
 30
0.0
 10
96.68763832218227
 20
-141.0329074083182
 30
0.0
 10
96.78685707215746
 20
-141.2254882459436
 30
0.0
 10
96.81028372145715
 20
-141.4538980766157
 30
0.0
 10
96.81028372145715
 20
-141.6275308890723
 30
0.0
 10
96.81028372145715
 20
-141.7987521346892
 30
0.0
 10
96.78926863899713
 20
-142.0292290226524
 30
0.0
 10
96.68763832218227
 20
-142.2218098602779
 30
0.0
  0
SPLINE
  5
5D
330
56
100
AcDbEntity
  8
_U+30EC_U+30A4_U+30E4_U+30FC 1
370
     0
100
AcDbSpline
210
0.0
220
0.0
230
1.0
 70
    11
 71
     3
 72
    17
 73
    13
 74
     0
 42
0.0000000001
 43
0.0000000001
 12
1.0
 22
0.0
 32
0.0
 13
1.0
 23
0.0
 33
0.0
 40
0.0
 40
0.0
 40
0.0
 40
0.0
 40
1.0
 40
1.0
 40
1.0
 40
2.0
 40
2.0
 40
2.0
 40
3.0
 40
3.0
 40
3.0
 40
4.0
 40
4.0
 40
4.0
 40
4.0
 10
96.2897297936359
 20
-140.9991454725627
 30
0.0
 10
96.04030488050381
 20
-140.9991454725627
 30
0.0
 10
95.99379609145295
 20
-141.2826768309988
 30
0.0
 10
95.99379609145295
 20
-141.6275308890723
 30
0.0
 10
95.99379609145295
 20
-141.9468912405549
 30
0.0
 10
96.02962508449954
 20
-142.2555717960333
 30
0.0
 10
96.2897297936359
 20
-142.2555717960333
 30
0.0
 10
96.53743215902537
 20
-142.2555717960333
 30
0.0
 10
96.58600800536739
 20
-141.974452004437
 30
0.0
 10
96.58600800536739
 20
-141.6275308890723
 30
0.0
 10
96.58600800536739
 20
-141.3078260280411
 30
0.0
 10
96.54811195502964
 20
-140.9991454725627
 30
0.0
 10
96.2897297936359
 20
-140.9991454725627
 30
0.0
  0
HATCH
  5
5E
330
56
100
AcDbEntity
  8
_U+30EC_U+30A4_U+30E4_U+30FC 1
 62
   179
420
  2234388
100
AcDbHatch
 10
0.0
 20
0.0
 30
0.0
210
0.0
220
0.0
230
1.0
  2
SOLID
 70
     1
 71
     0
 91
        2
 92
        1
 93
        1
 72
     4
 94
        3
 73
     0
 74
     1
 95
       29
 96
       25
 40
0.0
 40
0.0
 40
0.0
 40
0.0
 40
1.0
 40
1.0
 40
1.0
 40
2.0
 40
2.0
 40
2.0
 40
3.0
 40
3.0
 40
3.0
 40
4.0
 40
4.0
 40
4.0
 40
5.0
 40
5.0
 40
5.0
 40
6.0
 40
6.0
 40
6.0
 40
7.0
 40
7.0
 40
7.0
 40
8.0
 40
8.0
 40
8.0
 40
8.0
 10
96.68763832218227
 20
-142.2218098602779
 10
96.57980683349395
 20
-142.4312716657811
 10
96.40617402103734
 20
-142.45021969095
 10
96.2897297936359
 20
-142.45021969095
 10
96.12918834402326
 20
-142.45021969095
 10
95.98725041003097
 20
-142.4037109018991
 10
95.89216577463807
 20
-142.2218098602779
 10
95.78846840053205
 20
-142.0271619653613
 10
95.76952037536319
 20
-141.7904839055246
 10
95.76952037536319
 20
-141.6275308890723
 10
95.76952037536319
 20
-141.4835258977888
 10
95.78640134324091
 20
-141.2316894178171
 10
95.89216577463807
 20
-141.0329074083182
 10
95.99999726332639
 20
-140.8299912842369
 10
96.16088322248756
 20
-140.8065646349372
 10
96.2897297936359
 20
-140.8065646349372
 10
96.44854869550592
 20
-140.8065646349372
 10
96.59220917724085
 20
-140.851006366697
 10
96.68763832218227
 20
-141.0329074083182
 10
96.78685707215746
 20
-141.2254882459436
 10
96.81028372145715
 20
-141.4538980766157
 10
96.81028372145715
 20
-141.6275308890723
 10
96.81028372145715
 20
-141.7987521346892
 10
96.78926863899713
 20
-142.0292290226524
 10
96.68763832218227
 20
-142.2218098602779
 97
        0
 97
        0
 92
        1
 93
        1
 72
     4
 94
        3
 73
     0
 74
     1
 95
       17
 96
       13
 40
0.0
 40
0.0
 40
0.0
 40
0.0
 40
1.0
 40
1.0
 40
1.0
 40
2.0
 40
2.0
 40
2.0
 40
3.0
 40
3.0
 40
3.0
 40
4.0
 40
4.0
 40
4.0
 40
4.0
 10
96.2897297936359
 20
-140.9991454725627
 10
96.04030488050381
 20
-140.9991454725627
 10
95.99379609145295
 20
-141.2826768309988
 10
95.99379609145295
 20
-141.6275308890723
 10
95.99379609145295
 20
-141.9468912405549
 10
96.02962508449954
 20
-142.2555717960333
 10
96.2897297936359
 20
-142.2555717960333
 10
96.53743215902537
 20
-142.2555717960333
 10
96.58600800536739
 20
-141.974452004437
 10
96.58600800536739
 20
-141.6275308890723
 10
96.58600800536739
 20
-141.3078260280411
 10
96.54811195502964
 20
-140.9991454725627
 10
96.2897297936359
 20
-140.9991454725627
 97
        0
 97
        0
 75
     2
 76
     1
 98
        0
  0
ENDBLK
  5
59
330
56
100
AcDbEntity
  8
0
100
AcDbBlockEnd
  0
BLOCK
  5
71
330
6F
100
AcDbEntity
  8
0
100
AcDbBlockBegin
  2
block 4
 70
     0
 10
0.0
 20
0.0
 30
0.0
  3
block 4
  1

  0
SPLINE
  5
73
330
6F
100
AcDbEntity
  8
_U+30EC_U+30A4_U+30E4_U+30FC 1
370
     0
100
AcDbSpline
210
0.0
220
0.0
230
1.0
 70
    11
 71
     3
 72
    26
 73
    22
 74
     0
 42
0.0000000001
 43
0.0000000001
 12
1.0
 22
0.0
 32
0.0
 13
1.0
 23
0.0
 33
0.0
 40
0.0
 40
0.0
 40
0.0
 40
0.0
 40
1.0
 40
1.0
 40
1.0
 40
2.0
 40
2.0
 40
2.0
 40
3.0
 40
3.0
 40
3.0
 40
4.0
 40
4.0
 40
4.0
 40
5.0
 40
5.0
 40
5.0
 40
6.0
 40
6.0
 40
6.0
 40
7.0
 40
7.0
 40
7.0
 40
7.0
 10
78.77710365869115
 20
-142.3995767873168
 30
0.0
 10
78.77710365869115
 20
-142.3995767873168
 30
0.0
 10
78.77710365869115
 20
-141.2954236842942
 30
0.0
 10
78.77710365869115
 20
-141.2954236842942
 30
0.0
 10
78.77710365869115
 20
-141.2954236842942
 30
0.0
 10
78.4470635112042
 20
-141.2954236842942
 30
0.0
 10
78.4470635112042
 20
-141.2954236842942
 30
0.0
 10
78.4470635112042
 20
-141.2954236842942
 30
0.0
 10
78.4470635112042
 20
-141.1472845784285
 30
0.0
 10
78.4470635112042
 20
-141.1472845784285
 30
0.0
 10
78.77917071598229
 20
-141.1324706678419
 30
0.0
 10
78.82567950503316
 20
-140.9695176513896
 30
0.0
 10
78.85530732620632
 20
-140.8551404812793
 30
0.0
 10
78.85530732620632
 20
-140.8551404812793
 30
0.0
 10
79.00137937478091
 20
-140.8551404812793
 30
0.0
 10
79.00137937478091
 20
-140.8551404812793
 30
0.0
 10
79.00137937478091
 20
-140.8551404812793
 30
0.0
 10
79.00137937478091
 20
-142.3995767873168
 30
0.0
 10
79.00137937478091
 20
-142.3995767873168
 30
0.0
 10
79.00137937478091
 20
-142.3995767873168
 30
0.0
 10
78.77710365869115
 20
-142.3995767873168
 30
0.0
 10
78.77710365869115
 20
-142.3995767873168
 30
0.0
  0
HATCH
  5
74
330
6F
100
AcDbEntity
  8
_U+30EC_U+30A4_U+30E4_U+30FC 1
 62
   179
420
  2234388
100
AcDbHatch
 10
0.0
 20
0.0
 30
0.0
210
0.0
220
0.0
230
1.0
  2
SOLID
 70
     1
 71
     0
 91
        1
 92
        1
 93
        1
 72
     4
 94
        3
 73
     0
 74
     1
 95
       26
 96
       22
 40
0.0
 40
0.0
 40
0.0
 40
0.0
 40
1.0
 40
1.0
 40
1.0
 40
2.0
 40
2.0
 40
2.0
 40
3.0
 40
3.0
 40
3.0
 40
4.0
 40
4.0
 40
4.0
 40
5.0
 40
5.0
 40
5.0
 40
6.0
 40
6.0
 40
6.0
 40
7.0
 40
7.0
 40
7.0
 40
7.0
 10
78.77710365869115
 20
-142.3995767873168
 10
78.77710365869115
 20
-142.3995767873168
 10
78.77710365869115
 20
-141.2954236842942
 10
78.77710365869115
 20
-141.2954236842942
 10
78.77710365869115
 20
-141.2954236842942
 10
78.4470635112042
 20
-141.2954236842942
 10
78.4470635112042
 20
-141.2954236842942
 10
78.4470635112042
 20
-141.2954236842942
 10
78.4470635112042
 20
-141.1472845784285
 10
78.4470635112042
 20
-141.1472845784285
 10
78.77917071598229
 20
-141.1324706678419
 10
78.82567950503316
 20
-140.9695176513896
 10
78.85530732620632
 20
-140.8551404812793
 10
78.85530732620632
 20
-140.8551404812793
 10
79.00137937478091
 20
-140.8551404812793
 10
79.00137937478091
 20
-140.8551404812793
 10
79.00137937478091
 20
-140.8551404812793
 10
79.00137937478091
 20
-142.3995767873168
 10
79.00137937478091
 20
-142.3995767873168
 10
79.00137937478091
 20
-142.3995767873168
 10
78.77710365869115
 20
-142.3995767873168
 10
78.77710365869115
 20
-142.3995767873168
 97
        0
 97
        0
 75
     2
 76
     1
 98
        0
  0
ENDBLK
  5
72
330
6F
100
AcDbEntity
  8
0
100
AcDbBlockEnd
  0
BLOCK
  5
A7
330
A5
100
AcDbEntity
  8
0
100
AcDbBlockBegin
  2
block 5
 70
     0
 10
0.0
 20
0.0
 30
0.0
  3
block 5
  1

  0
SPLINE
  5
A9
330
A5
100
AcDbEntity
  8
_U+30EC_U+30A4_U+30E4_U+30FC 1
370
     0
100
AcDbSpline
210
0.0
220
0.0
230
1.0
 70
    11
 71
     3
 72
    62
 73
    58
 74
     0
 42
0.0000000001
 43
0.0000000001
 12
1.0
 22
0.0
 32
0.0
 13
1.0
 23
0.0
 33
0.0
 40
0.0
 40
0.0
 40
0.0
 40
0.0
 40
1.0
 40
1.0
 40
1.0
 40
2.0
 40
2.0
 40
2.0
 40
3.0
 40
3.0
 40
3.0
 40
4.0
 40
4.0
 40
4.0
 40
5.0
 40
5.0
 40
5.0
 40
6.0
 40
6.0
 40
6.0
 40
7.0
 40
7.0
 40
7.0
 40
8.0
 40
8.0
 40
8.0
 40
9.0
 40
9.0
 40
9.0
 40
10.0
 40
10.0
 40
10.0
 40
11.0
 40
11.0
 40
11.0
 40
12.0
 40
12.0
 40
12.0
 40
13.0
 40
13.0
 40
13.0
 40
14.0
 40
14.0
 40
14.0
 40
15.0
 40
15.0
 40
15.0
 40
16.0
 40
16.0
 40
16.0
 40
17.0
 40
17.0
 40
17.0
 40
18.0
 40
18.0
 40
18.0
 40
19.0
 40
19.0
 40
19.0
 40
19.0
 10
108.8619167479581
 20
-115.5485025752795
 30
0.0
 10
108.8619167479581
 20
-115.643931720221
 30
0.0
 10
108.8409016654981
 20
-115.8616617548888
 30
0.0
 10
108.6548665092946
 20
-115.9867187210033
 30
0.0
 10
108.5425563964755
 20
-116.0604437643877
 30
0.0
 10
108.4433376465003
 20
-116.0649223885185
 30
0.0
 10
108.3585882975631
 20
-116.0690565031008
 30
0.0
 10
108.3585882975631
 20
-116.0690565031008
 30
0.0
 10
108.3585882975631
 20
-115.8489149015933
 30
0.0
 10
108.3585882975631
 20
-115.8489149015933
 30
0.0
 10
108.432657850496
 20
-115.8468478443022
 30
0.0
 10
108.6672688530415
 20
-115.8365125578464
 30
0.0
 10
108.6672688530415
 20
-115.5529811994104
 30
0.0
 10
108.6672688530415
 20
-115.4155218895489
 30
0.0
 10
108.5976779242395
 20
-115.2629041595523
 30
0.0
 10
108.3692680935674
 20
-115.2629041595523
 30
0.0
 10
108.252823866166
 20
-115.2629041595523
 30
0.0
 10
108.2042480198239
 20
-115.3011447194386
 30
0.0
 10
108.1725531413596
 20
-115.3328395979029
 30
0.0
 10
108.0984835884268
 20
-115.4069091508358
 30
0.0
 10
108.0857367351313
 20
-115.5233533782372
 30
0.0
 10
108.0857367351313
 20
-115.5781303964527
 30
0.0
 10
108.0857367351313
 20
-115.5974229311701
 30
0.0
 10
108.0878037924225
 20
-115.6332519242167
 30
0.0
 10
108.0919379070048
 20
-115.6608126880987
 30
0.0
 10
108.0919379070048
 20
-115.6608126880987
 30
0.0
 10
107.8972900120882
 20
-115.6608126880987
 30
0.0
 10
107.8972900120882
 20
-115.6608126880987
 30
0.0
 10
107.9038356935102
 20
-115.6225721282124
 30
0.0
 10
107.9059027508013
 20
-115.5805419632924
 30
0.0
 10
107.9059027508013
 20
-115.5739962818704
 30
0.0
 10
107.9059027508013
 20
-115.5085394676506
 30
0.0
 10
107.8845431587928
 20
-115.3097574581517
 30
0.0
 10
107.6478650989561
 20
-115.3097574581517
 30
0.0
 10
107.4700981719172
 20
-115.3097574581517
 30
0.0
 10
107.4149766441532
 20
-115.4406710865912
 30
0.0
 10
107.4149766441532
 20
-115.5509141421192
 30
0.0
 10
107.4149766441532
 20
-115.8151529658379
 30
0.0
 10
107.6478650989561
 20
-115.823765704551
 30
0.0
 10
107.7195230850493
 20
-115.8278998191333
 30
0.0
 10
107.7195230850493
 20
-115.8278998191333
 30
0.0
 10
107.7195230850493
 20
-116.031160452763
 30
0.0
 10
107.7195230850493
 20
-116.031160452763
 30
0.0
 10
107.5948106284832
 20
-116.0225477140499
 30
0.0
 10
107.2182616919454
 20
-115.9949869501679
 30
0.0
 10
107.2182616919454
 20
-115.5381672888238
 30
0.0
 10
107.2182616919454
 20
-115.313891572734
 30
0.0
 10
107.3453857153512
 20
-115.0727348887665
 30
0.0
 10
107.6413194175341
 20
-115.0727348887665
 30
0.0
 10
107.8276990832861
 20
-115.0727348887665
 30
0.0
 10
107.9100368653836
 20
-115.1678195241594
 30
0.0
 10
107.9713595650211
 20
-115.2673827836832
 30
0.0
 10
107.9989203289031
 20
-115.2060600840457
 30
0.0
 10
108.0791910537094
 20
-115.0241590424245
 30
0.0
 10
108.356521240272
 20
-115.0241590424245
 30
0.0
 10
108.6948296169235
 20
-115.0241590424245
 30
0.0
 10
108.8619167479581
 20
-115.2715168982655
 30
0.0
 10
108.8619167479581
 20
-115.5485025752795
 30
0.0
  0
HATCH
  5
AA
330
A5
100
AcDbEntity
  8
_U+30EC_U+30A4_U+30E4_U+30FC 1
 62
   179
420
  2234388
100
AcDbHatch
 10
0.0
 20
0.0
 30
0.0
210
0.0
220
0.0
230
1.0
  2
SOLID
 70
     1
 71
     0
 91
        1
 92
        1
 93
        1
 72
     4
 94
        3
 73
     0
 74
     1
 95
       62
 96
       58
 40
0.0
 40
0.0
 40
0.0
 40
0.0
 40
1.0
 40
1.0
 40
1.0
 40
2.0
 40
2.0
 40
2.0
 40
3.0
 40
3.0
 40
3.0
 40
4.0
 40
4.0
 40
4.0
 40
5.0
 40
5.0
 40
5.0
 40
6.0
 40
6.0
 40
6.0
 40
7.0
 40
7.0
 40
7.0
 40
8.0
 40
8.0
 40
8.0
 40
9.0
 40
9.0
 40
9.0
 40
10.0
 40
10.0
 40
10.0
 40
11.0
 40
11.0
 40
11.0
 40
12.0
 40
12.0
 40
12.0
 40
13.0
 40
13.0
 40
13.0
 40
14.0
 40
14.0
 40
14.0
 40
15.0
 40
15.0
 40
15.0
 40
16.0
 40
16.0
 40
16.0
 40
17.0
 40
17.0
 40
17.0
 40
18.0
 40
18.0
 40
18.0
 40
19.0
 40
19.0
 40
19.0
 40
19.0
 10
108.8619167479581
 20
-115.5485025752795
 10
108.8619167479581
 20
-115.643931720221
 10
108.8409016654981
 20
-115.8616617548888
 10
108.6548665092946
 20
-115.9867187210033
 10
108.5425563964755
 20
-116.0604437643877
 10
108.4433376465003
 20
-116.0649223885185
 10
108.3585882975631
 20
-116.0690565031008
 10
108.3585882975631
 20
-116.0690565031008
 10
108.3585882975631
 20
-115.8489149015933
 10
108.3585882975631
 20
-115.8489149015933
 10
108.432657850496
 20
-115.8468478443022
 10
108.6672688530415
 20
-115.8365125578464
 10
108.6672688530415
 20
-115.5529811994104
 10
108.6672688530415
 20
-115.4155218895489
 10
108.5976779242395
 20
-115.2629041595523
 10
108.3692680935674
 20
-115.2629041595523
 10
108.252823866166
 20
-115.2629041595523
 10
108.2042480198239
 20
-115.3011447194386
 10
108.1725531413596
 20
-115.3328395979029
 10
108.0984835884268
 20
-115.4069091508358
 10
108.0857367351313
 20
-115.5233533782372
 10
108.0857367351313
 20
-115.5781303964527
 10
108.0857367351313
 20
-115.5974229311701
 10
108.0878037924225
 20
-115.6332519242167
 10
108.0919379070048
 20
-115.6608126880987
 10
108.0919379070048
 20
-115.6608126880987
 10
107.8972900120882
 20
-115.6608126880987
 10
107.8972900120882
 20
-115.6608126880987
 10
107.9038356935102
 20
-115.6225721282124
 10
107.9059027508013
 20
-115.5805419632924
 10
107.9059027508013
 20
-115.5739962818704
 10
107.9059027508013
 20
-115.5085394676506
 10
107.8845431587928
 20
-115.3097574581517
 10
107.6478650989561
 20
-115.3097574581517
 10
107.4700981719172
 20
-115.3097574581517
 10
107.4149766441532
 20
-115.4406710865912
 10
107.4149766441532
 20
-115.5509141421192
 10
107.4149766441532
 20
-115.8151529658379
 10
107.6478650989561
 20
-115.823765704551
 10
107.7195230850493
 20
-115.8278998191333
 10
107.7195230850493
 20
-115.8278998191333
 10
107.7195230850493
 20
-116.031160452763
 10
107.7195230850493
 20
-116.031160452763
 10
107.5948106284832
 20
-116.0225477140499
 10
107.2182616919454
 20
-115.9949869501679
 10
107.2182616919454
 20
-115.5381672888238
 10
107.2182616919454
 20
-115.313891572734
 10
107.3453857153512
 20
-115.0727348887665
 10
107.6413194175341
 20
-115.0727348887665
 10
107.8276990832861
 20
-115.0727348887665
 10
107.9100368653836
 20
-115.1678195241594
 10
107.9713595650211
 20
-115.2673827836832
 10
107.9989203289031
 20
-115.2060600840457
 10
108.0791910537094
 20
-115.0241590424245
 10
108.356521240272
 20
-115.0241590424245
 10
108.6948296169235
 20
-115.0241590424245
 10
108.8619167479581
 20
-115.2715168982655
 10
108.8619167479581
 20
-115.5485025752795
 97
        0
 97
        0
 75
     2
 76
     1
 98
        0
  0
ENDBLK
  5
A8
330
A5
100
AcDbEntity
  8
0
100
AcDbBlockEnd
  0
BLOCK
  5
AD
330
AB
100
AcDbEntity
  8
0
100
AcDbBlockBegin
  2
block 6
 70
     0
 10
0.0
 20
0.0
 30
0.0
  3
block 6
  1

  0
SPLINE
  5
AF
330
AB
100
AcDbEntity
  8
_U+30EC_U+30A4_U+30E4_U+30FC 1
370
     0
100
AcDbSpline
210
0.0
220
0.0
230
1.0
 70
    11
 71
     3
 72
    44
 73
    40
 74
     0
 42
0.0000000001
 43
0.0000000001
 12
1.0
 22
0.0
 32
0.0
 13
1.0
 23
0.0
 33
0.0
 40
0.0
 40
0.0
 40
0.0
 40
0.0
 40
1.0
 40
1.0
 40
1.0
 40
2.0
 40
2.0
 40
2.0
 40
3.0
 40
3.0
 40
3.0
 40
4.0
 40
4.0
 40
4.0
 40
5.0
 40
5.0
 40
5.0
 40
6.0
 40
6.0
 40
6.0
 40
7.0
 40
7.0
 40
7.0
 40
8.0
 40
8.0
 40
8.0
 40
9.0
 40
9.0
 40
9.0
 40
10.0
 40
10.0
 40
10.0
 40
11.0
 40
11.0
 40
11.0
 40
12.0
 40
12.0
 40
12.0
 40
13.0
 40
13.0
 40
13.0
 40
13.0
 10
74.44885794579751
 20
-127.0416856236215
 30
0.0
 10
74.60767684766753
 20
-127.2594156582893
 30
0.0
 10
74.6817464006004
 20
-127.3524332363911
 30
0.0
 10
74.82540688233532
 20
-127.4013535922816
 30
0.0
 10
74.82540688233532
 20
-127.4013535922816
 30
0.0
 10
74.82540688233532
 20
-126.6227620126152
 30
0.0
 10
74.82540688233532
 20
-126.6227620126152
 30
0.0
 10
74.82540688233532
 20
-126.6227620126152
 30
0.0
 10
75.03073457325621
 20
-126.6227620126152
 30
0.0
 10
75.03073457325621
 20
-126.6227620126152
 30
0.0
 10
75.03073457325621
 20
-126.6227620126152
 30
0.0
 10
75.03073457325621
 20
-127.6507785054137
 30
0.0
 10
75.03073457325621
 20
-127.6507785054137
 30
0.0
 10
74.67313366188728
 20
-127.6190836269494
 30
0.0
 10
74.59492999437211
 20
-127.5536268127297
 30
0.0
 10
74.29658472534946
 20
-127.1684651374787
 30
0.0
 10
74.09780271585055
 20
-126.9124945429247
 30
0.0
 10
74.02993433479114
 20
-126.8470377287049
 30
0.0
 10
73.89247502492967
 20
-126.8470377287049
 30
0.0
 10
73.77396374023706
 20
-126.8470377287049
 30
0.0
 10
73.64305011179758
 20
-126.9190402243466
 30
0.0
 10
73.64305011179758
 20
-127.1157551765544
 30
0.0
 10
73.64305011179758
 20
-127.3758598856908
 30
0.0
 10
73.87352699976078
 20
-127.3844726244039
 30
0.0
 10
73.98997122716223
 20
-127.3886067389862
 30
0.0
 10
73.98997122716223
 20
-127.3886067389862
 30
0.0
 10
73.98997122716223
 20
-127.6128824550759
 30
0.0
 10
73.98997122716223
 20
-127.6128824550759
 30
0.0
 10
73.86284720375652
 20
-127.6042697163628
 30
0.0
 10
73.7508816004859
 20
-127.5935899203586
 30
0.0
 10
73.6323703157933
 20
-127.5133191955522
 30
0.0
 10
73.47148435663213
 20
-127.4034206495728
 30
0.0
 10
73.43772242087668
 20
-127.2170409838208
 30
0.0
 10
73.43772242087668
 20
-127.1009412659678
 30
0.0
 10
73.43772242087668
 20
-126.8236110794052
 30
0.0
 10
73.62169051978903
 20
-126.6162163311932
 30
0.0
 10
73.89454208222081
 20
-126.6162163311932
 30
0.0
 10
74.1232964224414
 20
-126.6162163311932
 30
0.0
 10
74.22251517241659
 20
-126.7326605585946
 30
0.0
 10
74.44885794579751
 20
-127.0416856236215
 30
0.0
  0
HATCH
  5
B0
330
AB
100
AcDbEntity
  8
_U+30EC_U+30A4_U+30E4_U+30FC 1
 62
   179
420
  2234388
100
AcDbHatch
 10
0.0
 20
0.0
 30
0.0
210
0.0
220
0.0
230
1.0
  2
SOLID
 70
     1
 71
     0
 91
        1
 92
        1
 93
        1
 72
     4
 94
        3
 73
     0
 74
     1
 95
       44
 96
       40
 40
0.0
 40
0.0
 40
0.0
 40
0.0
 40
1.0
 40
1.0
 40
1.0
 40
2.0
 40
2.0
 40
2.0
 40
3.0
 40
3.0
 40
3.0
 40
4.0
 40
4.0
 40
4.0
 40
5.0
 40
5.0
 40
5.0
 40
6.0
 40
6.0
 40
6.0
 40
7.0
 40
7.0
 40
7.0
 40
8.0
 40
8.0
 40
8.0
 40
9.0
 40
9.0
 40
9.0
 40
10.0
 40
10.0
 40
10.0
 40
11.0
 40
11.0
 40
11.0
 40
12.0
 40
12.0
 40
12.0
 40
13.0
 40
13.0
 40
13.0
 40
13.0
 10
74.44885794579751
 20
-127.0416856236215
 10
74.60767684766753
 20
-127.2594156582893
 10
74.6817464006004
 20
-127.3524332363911
 10
74.82540688233532
 20
-127.4013535922816
 10
74.82540688233532
 20
-127.4013535922816
 10
74.82540688233532
 20
-126.6227620126152
 10
74.82540688233532
 20
-126.6227620126152
 10
74.82540688233532
 20
-126.6227620126152
 10
75.03073457325621
 20
-126.6227620126152
 10
75.03073457325621
 20
-126.6227620126152
 10
75.03073457325621
 20
-126.6227620126152
 10
75.03073457325621
 20
-127.6507785054137
 10
75.03073457325621
 20
-127.6507785054137
 10
74.67313366188728
 20
-127.6190836269494
 10
74.59492999437211
 20
-127.5536268127297
 10
74.29658472534946
 20
-127.1684651374787
 10
74.09780271585055
 20
-126.9124945429247
 10
74.02993433479114
 20
-126.8470377287049
 10
73.89247502492967
 20
-126.8470377287049
 10
73.77396374023706
 20
-126.8470377287049
 10
73.64305011179758
 20
-126.9190402243466
 10
73.64305011179758
 20
-127.1157551765544
 10
73.64305011179758
 20
-127.3758598856908
 10
73.87352699976078
 20
-127.3844726244039
 10
73.98997122716223
 20
-127.3886067389862
 10
73.98997122716223
 20
-127.3886067389862
 10
73.98997122716223
 20
-127.6128824550759
 10
73.98997122716223
 20
-127.6128824550759
 10
73.86284720375652
 20
-127.6042697163628
 10
73.7508816004859
 20
-127.5935899203586
 10
73.6323703157933
 20
-127.5133191955522
 10
73.47148435663213
 20
-127.4034206495728
 10
73.43772242087668
 20
-127.2170409838208
 10
73.43772242087668
 20
-127.1009412659678
 10
73.43772242087668
 20
-126.8236110794052
 10
73.62169051978903
 20
-126.6162163311932
 10
73.89454208222081
 20
-126.6162163311932
 10
74.1232964224414
 20
-126.6162163311932
 10
74.22251517241659
 20
-126.7326605585946
 10
74.44885794579751
 20
-127.0416856236215
 97
        0
 97
        0
 75
     2
 76
     1
 98
        0
  0
SPLINE
  5
B1
330
AB
100
AcDbEntity
  8
_U+30EC_U+30A4_U+30E4_U+30FC 1
370
     0
100
AcDbSpline
210
0.0
220
0.0
230
1.0
 70
    11
 71
     3
 72
    53
 73
    49
 74
     0
 42
0.0000000001
 43
0.0000000001
 12
1.0
 22
0.0
 32
0.0
 13
1.0
 23
0.0
 33
0.0
 40
0.0
 40
0.0
 40
0.0
 40
0.0
 40
1.0
 40
1.0
 40
1.0
 40
2.0
 40
2.0
 40
2.0
 40
3.0
 40
3.0
 40
3.0
 40
4.0
 40
4.0
 40
4.0
 40
5.0
 40
5.0
 40
5.0
 40
6.0
 40
6.0
 40
6.0
 40
7.0
 40
7.0
 40
7.0
 40
8.0
 40
8.0
 40
8.0
 40
9.0
 40
9.0
 40
9.0
 40
10.0
 40
10.0
 40
10.0
 40
11.0
 40
11.0
 40
11.0
 40
12.0
 40
12.0
 40
12.0
 40
13.0
 40
13.0
 40
13.0
 40
14.0
 40
14.0
 40
14.0
 40
15.0
 40
15.0
 40
15.0
 40
16.0
 40
16.0
 40
16.0
 40
16.0
 10
75.08137747688939
 20
-125.9768066091308
 30
0.0
 10
75.08137747688939
 20
-126.055010276646
 30
0.0
 10
75.06449650901166
 20
-126.1566405934608
 30
0.0
 10
75.00110675208306
 20
-126.2582709102757
 30
0.0
 10
74.89120820610358
 20
-126.4315592131838
 30
0.0
 10
74.75995006811557
 20
-126.4529188051923
 30
0.0
 10
74.65211857942725
 20
-126.4718668303612
 30
0.0
 10
74.65211857942725
 20
-126.4718668303612
 30
0.0
 10
74.65211857942725
 20
-126.2496581715626
 30
0.0
 10
74.65211857942725
 20
-126.2496581715626
 30
0.0
 10
74.85090058892617
 20
-126.1948811533471
 30
0.0
 10
74.88052841009932
 20
-126.0677571299414
 30
0.0
 10
74.88052841009932
 20
-125.9747395518396
 30
0.0
 10
74.88052841009932
 20
-125.835213184687
 30
0.0
 10
74.7809651505756
 20
-125.682939964239
 30
0.0
 10
74.54842120532123
 20
-125.682939964239
 30
0.0
 10
74.29245061076716
 20
-125.682939964239
 30
0.0
 10
74.22251517241659
 20
-125.862773948569
 30
0.0
 10
74.22251517241659
 20
-125.9833522905528
 30
0.0
 10
74.22251517241659
 20
-126.0150471690171
 30
0.0
 10
74.22251517241659
 20
-126.1566405934608
 30
0.0
 10
74.35170625311346
 20
-126.2455240569803
 30
0.0
 10
74.35170625311346
 20
-126.2455240569803
 30
0.0
 10
74.3327582279446
 20
-126.421223926728
 30
0.0
 10
74.3327582279446
 20
-126.421223926728
 30
0.0
 10
74.3327582279446
 20
-126.421223926728
 30
0.0
 10
73.4862982672187
 20
-126.3006455847443
 30
0.0
 10
73.4862982672187
 20
-126.3006455847443
 30
0.0
 10
73.4862982672187
 20
-126.3006455847443
 30
0.0
 10
73.4862982672187
 20
-125.5220540050778
 30
0.0
 10
73.4862982672187
 20
-125.5220540050778
 30
0.0
 10
73.4862982672187
 20
-125.5220540050778
 30
0.0
 10
73.68094616213533
 20
-125.5220540050778
 30
0.0
 10
73.68094616213533
 20
-125.5220540050778
 30
0.0
 10
73.68094616213533
 20
-125.5220540050778
 30
0.0
 10
73.68094616213533
 20
-126.137692568292
 30
0.0
 10
73.68094616213533
 20
-126.137692568292
 30
0.0
 10
73.68094616213533
 20
-126.137692568292
 30
0.0
 10
74.104003887724
 20
-126.2031493825117
 30
0.0
 10
74.104003887724
 20
-126.2031493825117
 30
0.0
 10
74.07024195196855
 20
-126.1418266828743
 30
0.0
 10
74.02993433479114
 20
-126.0594889007768
 30
0.0
 10
74.02993433479114
 20
-125.9409776160842
 30
0.0
 10
74.02993433479114
 20
-125.6870740788213
 30
0.0
 10
74.21631400054315
 20
-125.4500515094361
 30
0.0
 10
74.52947318015235
 20
-125.4500515094361
 30
0.0
 10
74.84676647434387
 20
-125.4500515094361
 30
0.0
 10
75.08137747688939
 20
-125.6743272255259
 30
0.0
 10
75.08137747688939
 20
-125.9768066091308
 30
0.0
  0
HATCH
  5
B2
330
AB
100
AcDbEntity
  8
_U+30EC_U+30A4_U+30E4_U+30FC 1
 62
   179
420
  2234388
100
AcDbHatch
 10
0.0
 20
0.0
 30
0.0
210
0.0
220
0.0
230
1.0
  2
SOLID
 70
     1
 71
     0
 91
        1
 92
        1
 93
        1
 72
     4
 94
        3
 73
     0
 74
     1
 95
       53
 96
       49
 40
0.0
 40
0.0
 40
0.0
 40
0.0
 40
1.0
 40
1.0
 40
1.0
 40
2.0
 40
2.0
 40
2.0
 40
3.0
 40
3.0
 40
3.0
 40
4.0
 40
4.0
 40
4.0
 40
5.0
 40
5.0
 40
5.0
 40
6.0
 40
6.0
 40
6.0
 40
7.0
 40
7.0
 40
7.0
 40
8.0
 40
8.0
 40
8.0
 40
9.0
 40
9.0
 40
9.0
 40
10.0
 40
10.0
 40
10.0
 40
11.0
 40
11.0
 40
11.0
 40
12.0
 40
12.0
 40
12.0
 40
13.0
 40
13.0
 40
13.0
 40
14.0
 40
14.0
 40
14.0
 40
15.0
 40
15.0
 40
15.0
 40
16.0
 40
16.0
 40
16.0
 40
16.0
 10
75.08137747688939
 20
-125.9768066091308
 10
75.08137747688939
 20
-126.055010276646
 10
75.06449650901166
 20
-126.1566405934608
 10
75.00110675208306
 20
-126.2582709102757
 10
74.89120820610358
 20
-126.4315592131838
 10
74.75995006811557
 20
-126.4529188051923
 10
74.65211857942725
 20
-126.4718668303612
 10
74.65211857942725
 20
-126.4718668303612
 10
74.65211857942725
 20
-126.2496581715626
 10
74.65211857942725
 20
-126.2496581715626
 10
74.85090058892617
 20
-126.1948811533471
 10
74.88052841009932
 20
-126.0677571299414
 10
74.88052841009932
 20
-125.9747395518396
 10
74.88052841009932
 20
-125.835213184687
 10
74.7809651505756
 20
-125.682939964239
 10
74.54842120532123
 20
-125.682939964239
 10
74.29245061076716
 20
-125.682939964239
 10
74.22251517241659
 20
-125.862773948569
 10
74.22251517241659
 20
-125.9833522905528
 10
74.22251517241659
 20
-126.0150471690171
 10
74.22251517241659
 20
-126.1566405934608
 10
74.35170625311346
 20
-126.2455240569803
 10
74.35170625311346
 20
-126.2455240569803
 10
74.3327582279446
 20
-126.421223926728
 10
74.3327582279446
 20
-126.421223926728
 10
74.3327582279446
 20
-126.421223926728
 10
73.4862982672187
 20
-126.3006455847443
 10
73.4862982672187
 20
-126.3006455847443
 10
73.4862982672187
 20
-126.3006455847443
 10
73.4862982672187
 20
-125.5220540050778
 10
73.4862982672187
 20
-125.5220540050778
 10
73.4862982672187
 20
-125.5220540050778
 10
73.68094616213533
 20
-125.5220540050778
 10
73.68094616213533
 20
-125.5220540050778
 10
73.68094616213533
 20
-125.5220540050778
 10
73.68094616213533
 20
-126.137692568292
 10
73.68094616213533
 20
-126.137692568292
 10
73.68094616213533
 20
-126.137692568292
 10
74.104003887724
 20
-126.2031493825117
 10
74.104003887724
 20
-126.2031493825117
 10
74.07024195196855
 20
-126.1418266828743
 10
74.02993433479114
 20
-126.0594889007768
 10
74.02993433479114
 20
-125.9409776160842
 10
74.02993433479114
 20
-125.6870740788213
 10
74.21631400054315
 20
-125.4500515094361
 10
74.52947318015235
 20
-125.4500515094361
 10
74.84676647434387
 20
-125.4500515094361
 10
75.08137747688939
 20
-125.6743272255259
 10
75.08137747688939
 20
-125.9768066091308
 97
        0
 97
        0
 75
     2
 76
     1
 98
        0
  0
ENDBLK
  5
AE
330
AB
100
AcDbEntity
  8
0
100
AcDbBlockEnd
  0
ENDSEC
  0
SECTION
  2
ENTITIES
  0
INSERT
  5
42
330
1F
100
AcDbEntity
  8
_U+30EC_U+30A4_U+30E4_U+30FC 1
100
AcDbBlockReference
  2
block 2
 10
0.0
 20
0.0
 30
0.0
  0
POLYLINE
  5
4A
330
1F
100
AcDbEntity
  8
_U+30EC_U+30A4_U+30E4_U+30FC 1
 62
   179
420
  2234388
370
     9
100
AcDb2dPolyline
 66
     1
 10
0.0
 20
0.0
 30
0.0
  0
VERTEX
  5
4B
330
4A
100
AcDbEntity
  8
_U+30EC_U+30A4_U+30E4_U+30FC 1
 62
   179
420
  2234388
370
     9
100
AcDbVertex
100
AcDb2dVertex
 10
74.67624503929471
 20
-114.0461058048219
 30
0.0
  0
VERTEX
  5
4C
330
4A
100
AcDbEntity
  8
_U+30EC_U+30A4_U+30E4_U+30FC 1
 62
   179
420
  2234388
370
     9
100
AcDbVertex
100
AcDb2dVertex
 10
77.17634580884517
 20
-114.0461058048219
 30
0.0
  0
SEQEND
  5
4D
330
4A
100
AcDbEntity
  8
_U+30EC_U+30A4_U+30E4_U+30FC 1
 62
   179
420
  2234388
370
     9
  0
POLYLINE
  5
4E
330
1F
100
AcDbEntity
  8
_U+30EC_U+30A4_U+30E4_U+30FC 1
 62
   179
420
  2234388
370
     9
100
AcDb2dPolyline
 66
     1
 10
0.0
 20
0.0
 30
0.0
  0
VERTEX
  5
4F
330
4E
100
AcDbEntity
  8
_U+30EC_U+30A4_U+30E4_U+30FC 1
 62
   179
420
  2234388
370
     9
100
AcDbVertex
100
AcDb2dVertex
 10
104.636496774945
 20
-117.0460927485163
 30
0.0
  0
VERTEX
  5
50
330
4E
100
AcDbEntity
  8
_U+30EC_U+30A4_U+30E4_U+30FC 1
 62
   179
420
  2234388
370
     9
100
AcDbVertex
100
AcDb2dVertex
 10
104.636496774945
 20
-114.0461058048219
 30
0.0
  0
SEQEND
  5
51
330
4E
100
AcDbEntity
  8
_U+30EC_U+30A4_U+30E4_U+30FC 1
 62
   179
420
  2234388
370
     9
  0
POLYLINE
  5
52
330
1F
100
AcDbEntity
  8
_U+30EC_U+30A4_U+30E4_U+30FC 1
 62
   179
420
  2234388
370
     9
100
AcDb2dPolyline
 66
     1
 10
0.0
 20
0.0
 30
0.0
  0
VERTEX
  5
53
330
52
100
AcDbEntity
  8
_U+30EC_U+30A4_U+30E4_U+30FC 1
 62
   179
420
  2234388
370
     9
100
AcDbVertex
100
AcDb2dVertex
 10
103.1764907010818
 20
-117.0460927485163
 30
0.0
  0
VERTEX
  5
54
330
52
100
AcDbEntity
  8
_U+30EC_U+30A4_U+30E4_U+30FC 1
 62
   179
420
  2234388
370
     9
100
AcDbVertex
100
AcDb2dVertex
 10
105.6369745271985
 20
-117.0460927485163
 30
0.0
  0
SEQEND
  5
55
330
52
100
AcDbEntity
  8
_U+30EC_U+30A4_U+30E4_U+30FC 1
 62
   179
420
  2234388
370
     9
  0
INSERT
  5
57
330
1F
100
AcDbEntity
  8
_U+30EC_U+30A4_U+30E4_U+30FC 1
100
AcDbBlockReference
  2
block 3
 10
0.0
 20
0.0
 30
0.0
  0
POLYLINE
  5
5F
330
1F
100
AcDbEntity
  8
_U+30EC_U+30A4_U+30E4_U+30FC 1
 62
   179
420
  2234388
370
     9
100
AcDb2dPolyline
 66
     1
 10
0.0
 20
0.0
 30
0.0
  0
VERTEX
  5
60
330
5F
100
AcDbEntity
  8
_U+30EC_U+30A4_U+30E4_U+30FC 1
 62
   179
420
  2234388
370
     9
100
AcDbVertex
100
AcDb2dVertex
 10
79.67644657839561
 20
-143.0455327420161
 30
0.0
  0
VERTEX
  5
61
330
5F
100
AcDbEntity
  8
_U+30EC_U+30A4_U+30E4_U+30FC 1
 62
   179
420
  2234388
370
     9
100
AcDbVertex
100
AcDb2dVertex
 10
80.67621877511152
 20
-143.0455327420161
 30
0.0
  0
SEQEND
  5
62
330
5F
100
AcDbEntity
  8
_U+30EC_U+30A4_U+30E4_U+30FC 1
 62
   179
420
  2234388
370
     9
  0
POLYLINE
  5
63
330
1F
100
AcDbEntity
  8
_U+30EC_U+30A4_U+30E4_U+30FC 1
 62
   179
420
  2234388
370
     9
100
AcDb2dPolyline
 66
     1
 10
0.0
 20
0.0
 30
0.0
  0
VERTEX
  5
64
330
63
100
AcDbEntity
  8
_U+30EC_U+30A4_U+30E4_U+30FC 1
 62
   179
420
  2234388
370
     9
100
AcDbVertex
100
AcDb2dVertex
 10
80.67621877511152
 20
-143.0455327420161
 30
0.0
  0
VERTEX
  5
65
330
63
100
AcDbEntity
  8
_U+30EC_U+30A4_U+30E4_U+30FC 1
 62
   179
420
  2234388
370
     9
100
AcDbVertex
100
AcDb2dVertex
 10
90.67630435332141
 20
-143.0455327420161
 30
0.0
  0
SEQEND
  5
66
330
63
100
AcDbEntity
  8
_U+30EC_U+30A4_U+30E4_U+30FC 1
 62
   179
420
  2234388
370
     9
  0
POLYLINE
  5
67
330
1F
100
AcDbEntity
  8
_U+30EC_U+30A4_U+30E4_U+30FC 1
 62
   179
420
  2234388
370
     9
100
AcDb2dPolyline
 66
     1
 10
0.0
 20
0.0
 30
0.0
  0
VERTEX
  5
68
330
67
100
AcDbEntity
  8
_U+30EC_U+30A4_U+30E4_U+30FC 1
 62
   179
420
  2234388
370
     9
100
AcDbVertex
100
AcDb2dVertex
 10
80.67621877511152
 20
-141.5854913534924
 30
0.0
  0
VERTEX
  5
69
330
67
100
AcDbEntity
  8
_U+30EC_U+30A4_U+30E4_U+30FC 1
 62
   179
420
  2234388
370
     9
100
AcDbVertex
100
AcDb2dVertex
 10
80.67621877511152
 20
-144.0456577417664
 30
0.0
  0
SEQEND
  5
6A
330
67
100
AcDbEntity
  8
_U+30EC_U+30A4_U+30E4_U+30FC 1
 62
   179
420
  2234388
370
     9
  0
POLYLINE
  5
6B
330
1F
100
AcDbEntity
  8
_U+30EC_U+30A4_U+30E4_U+30FC 1
 62
   179
420
  2234388
370
     9
100
AcDb2dPolyline
 66
     1
 10
0.0
 20
0.0
 30
0.0
  0
VERTEX
  5
6C
330
6B
100
AcDbEntity
  8
_U+30EC_U+30A4_U+30E4_U+30FC 1
 62
   179
420
  2234388
370
     9
100
AcDbVertex
100
AcDb2dVertex
 10
90.67630435332141
 20
-143.0455327420161
 30
0.0
  0
VERTEX
  5
6D
330
6B
100
AcDbEntity
  8
_U+30EC_U+30A4_U+30E4_U+30FC 1
 62
   179
420
  2234388
370
     9
100
AcDbVertex
100
AcDb2dVertex
 10
100.6763546537544
 20
-143.0455327420161
 30
0.0
  0
SEQEND
  5
6E
330
6B
100
AcDbEntity
  8
_U+30EC_U+30A4_U+30E4_U+30FC 1
 62
   179
420
  2234388
370
     9
  0
INSERT
  5
70
330
1F
100
AcDbEntity
  8
_U+30EC_U+30A4_U+30E4_U+30FC 1
100
AcDbBlockReference
  2
block 4
 10
0.0
 20
0.0
 30
0.0
  0
POLYLINE
  5
75
330
1F
100
AcDbEntity
  8
_U+30EC_U+30A4_U+30E4_U+30FC 1
370
     0
100
AcDb2dPolyline
 66
     1
 10
0.0
 20
0.0
 30
0.0
  0
VERTEX
  5
76
330
75
100
AcDbEntity
  8
_U+30EC_U+30A4_U+30E4_U+30FC 1
370
     0
100
AcDbVertex
100
AcDb2dVertex
 10
80.67621877511152
 20
-139.0461263541276
 30
0.0
  0
VERTEX
  5
77
330
75
100
AcDbEntity
  8
_U+30EC_U+30A4_U+30E4_U+30FC 1
370
     0
100
AcDbVertex
100
AcDb2dVertex
 10
79.67644657839561
 20
-139.0461263541276
 30
0.0
  0
VERTEX
  5
78
330
75
100
AcDbEntity
  8
_U+30EC_U+30A4_U+30E4_U+30FC 1
370
     0
100
AcDbVertex
100
AcDb2dVertex
 10
79.67644657839561
 20
-114.0461058048219
 30
0.0
  0
VERTEX
  5
79
330
75
100
AcDbEntity
  8
_U+30EC_U+30A4_U+30E4_U+30FC 1
370
     0
100
AcDbVertex
100
AcDb2dVertex
 10
93.56742400178503
 20
-114.0461058048219
 30
0.0
  0
VERTEX
  5
7A
330
75
100
AcDbEntity
  8
_U+30EC_U+30A4_U+30E4_U+30FC 1
370
     0
100
AcDbVertex
100
AcDb2dVertex
 10
92.48877069597043
 20
-116.0459677487663
 30
0.0
  0
VERTEX
  5
7B
330
75
100
AcDbEntity
  8
_U+30EC_U+30A4_U+30E4_U+30FC 1
370
     0
100
AcDbVertex
100
AcDb2dVertex
 10
99.67626495704663
 20
-116.0459677487663
 30
0.0
  0
VERTEX
  5
7C
330
75
100
AcDbEntity
  8
_U+30EC_U+30A4_U+30E4_U+30FC 1
370
     0
100
AcDbVertex
100
AcDb2dVertex
 10
99.67626495704663
 20
-115.076710804564
 30
0.0
  0
VERTEX
  5
7D
330
75
100
AcDbEntity
  8
_U+30EC_U+30A4_U+30E4_U+30FC 1
370
     0
100
AcDbVertex
100
AcDb2dVertex
 10
100.6763546537544
 20
-114.0459294159331
 30
0.0
  0
VERTEX
  5
7E
330
75
100
AcDbEntity
  8
_U+30EC_U+30A4_U+30E4_U+30FC 1
370
     0
100
AcDbVertex
100
AcDb2dVertex
 10
100.6763546537544
 20
-117.0459163596274
 30
0.0
  0
VERTEX
  5
7F
330
75
100
AcDbEntity
  8
_U+30EC_U+30A4_U+30E4_U+30FC 1
370
     0
100
AcDbVertex
100
AcDb2dVertex
 10
90.67595157555265
 20
-117.055899970736
 30
0.0
  0
VERTEX
  5
80
330
75
100
AcDbEntity
  8
_U+30EC_U+30A4_U+30E4_U+30FC 1
370
     0
100
AcDbVertex
100
AcDb2dVertex
 10
91.84452793462866
 20
-115.0460191379052
 30
0.0
  0
VERTEX
  5
81
330
75
100
AcDbEntity
  8
_U+30EC_U+30A4_U+30E4_U+30FC 1
370
     0
100
AcDbVertex
100
AcDb2dVertex
 10
80.67621877511152
 20
-115.0460191379052
 30
0.0
  0
VERTEX
  5
82
330
75
100
AcDbEntity
  8
_U+30EC_U+30A4_U+30E4_U+30FC 1
370
     0
100
AcDbVertex
100
AcDb2dVertex
 10
80.67621877511152
 20
-139.0461263541276
 30
0.0
  0
SEQEND
  5
84
330
75
100
AcDbEntity
  8
_U+30EC_U+30A4_U+30E4_U+30FC 1
370
     0
  0
HATCH
  5
83
330
1F
100
AcDbEntity
  8
_U+30EC_U+30A4_U+30E4_U+30FC 1
 62
     9
420
 13224394
100
AcDbHatch
 10
0.0
 20
0.0
 30
0.0
210
0.0
220
0.0
230
1.0
  2
SOLID
 70
     1
 71
     0
 91
        1
 92
        1
 93
       12
 72
     1
 10
80.67621877511152
 20
-139.0461263541276
 11
79.67644657839561
 21
-139.0461263541276
 72
     1
 10
79.67644657839561
 20
-139.0461263541276
 11
79.67644657839561
 21
-114.0461058048219
 72
     1
 10
79.67644657839561
 20
-114.0461058048219
 11
93.56742400178503
 21
-114.0461058048219
 72
     1
 10
93.56742400178503
 20
-114.0461058048219
 11
92.48877069597043
 21
-116.0459677487663
 72
     1
 10
92.48877069597043
 20
-116.0459677487663
 11
99.67626495704661
 21
-116.0459677487663
 72
     1
 10
99.67626495704663
 20
-116.0459677487663
 11
99.67626495704663
 21
-115.076710804564
 72
     1
 10
99.67626495704663
 20
-115.076710804564
 11
100.6763546537544
 21
-114.0459294159331
 72
     1
 10
100.6763546537544
 20
-114.0459294159331
 11
100.6763546537544
 21
-117.0459163596274
 72
     1
 10
100.6763546537544
 20
-117.0459163596274
 11
90.67595157555263
 21
-117.055899970736
 72
     1
 10
90.67595157555265
 20
-117.055899970736
 11
91.84452793462867
 21
-115.0460191379052
 72
     1
 10
91.84452793462866
 20
-115.0460191379052
 11
80.67621877511152
 21
-115.0460191379052
 72
     1
 10
80.67621877511152
 20
-115.0460191379052
 11
80.67621877511152
 21
-139.0461263541276
 97
        0
 75
     2
 76
     1
 98
        0
  0
SPLINE
  5
85
330
1F
100
AcDbEntity
  8
_U+30EC_U+30A4_U+30E4_U+30FC 1
 62
   179
420
  2234388
370
    25
100
AcDbSpline
210
0.0
220
0.0
230
1.0
 70
    11
 71
     3
 72
    17
 73
    13
 74
     0
 42
0.0000000001
 43
0.0000000001
 12
1.0
 22
0.0
 32
0.0
 13
1.0
 23
0.0
 33
0.0
 40
0.0
 40
0.0
 40
0.0
 40
0.0
 40
1.0
 40
1.0
 40
1.0
 40
2.0
 40
2.0
 40
2.0
 40
3.0
 40
3.0
 40
3.0
 40
4.0
 40
4.0
 40
4.0
 40
4.0
 10
104.7367562168316
 20
-117.0460927485163
 30
0.0
 10
104.7367562168316
 20
-116.9909535818635
 30
0.0
 10
104.6919534401969
 20
-116.9461860818746
 30
0.0
 10
104.6368495527138
 20
-116.9461860818746
 30
0.0
 10
104.5817103874538
 20
-116.9461860818746
 30
0.0
 10
104.536942888596
 20
-116.9909535818635
 30
0.0
 10
104.536942888596
 20
-117.0460927485163
 30
0.0
 10
104.536942888596
 20
-117.101549415169
 30
0.0
 10
104.5817103874538
 20
-117.1463521929357
 30
0.0
 10
104.6368495527138
 20
-117.1463521929357
 30
0.0
 10
104.6919534401969
 20
-117.1463521929357
 30
0.0
 10
104.7367562168316
 20
-117.101549415169
 30
0.0
 10
104.7367562168316
 20
-117.0460927485163
 30
0.0
  0
SPLINE
  5
86
330
1F
100
AcDbEntity
  8
_U+30EC_U+30A4_U+30E4_U+30FC 1
 62
   179
420
  2234388
370
    25
100
AcDbSpline
210
0.0
220
0.0
230
1.0
 70
    11
 71
     3
 72
    17
 73
    13
 74
     0
 42
0.0000000001
 43
0.0000000001
 12
1.0
 22
0.0
 32
0.0
 13
1.0
 23
0.0
 33
0.0
 40
0.0
 40
0.0
 40
0.0
 40
0.0
 40
1.0
 40
1.0
 40
1.0
 40
2.0
 40
2.0
 40
2.0
 40
3.0
 40
3.0
 40
3.0
 40
4.0
 40
4.0
 40
4.0
 40
4.0
 10
75.77659417788914
 20
-114.0459294159331
 30
0.0
 10
75.77659417788914
 20
-113.99079024928
 30
0.0
 10
75.73182667903124
 20
-113.9460227492914
 30
0.0
 10
75.6766875137713
 20
-113.9460227492914
 30
0.0
 10
75.62158362628823
 20
-113.9460227492914
 30
0.0
 10
75.57678084965346
 20
-113.99079024928
 30
0.0
 10
75.57678084965346
 20
-114.0459294159331
 30
0.0
 10
75.57678084965346
 20
-114.1013860825857
 30
0.0
 10
75.62158362628823
 20
-114.1461888603525
 30
0.0
 10
75.6766875137713
 20
-114.1461888603525
 30
0.0
 10
75.73182667903124
 20
-114.1461888603525
 30
0.0
 10
75.77659417788914
 20
-114.1013860825857
 30
0.0
 10
75.77659417788914
 20
-114.0459294159331
 30
0.0
  0
SPLINE
  5
87
330
1F
100
AcDbEntity
  8
_U+30EC_U+30A4_U+30E4_U+30FC 1
 62
   179
420
  2234388
370
    25
100
AcDbSpline
210
0.0
220
0.0
230
1.0
 70
    11
 71
     3
 72
    17
 73
    13
 74
     0
 42
0.0000000001
 43
0.0000000001
 12
1.0
 22
0.0
 32
0.0
 13
1.0
 23
0.0
 33
0.0
 40
0.0
 40
0.0
 40
0.0
 40
0.0
 40
1.0
 40
1.0
 40
1.0
 40
2.0
 40
2.0
 40
2.0
 40
3.0
 40
3.0
 40
3.0
 40
4.0
 40
4.0
 40
4.0
 40
4.0
 10
75.77659417788914
 20
-139.0461263541276
 30
0.0
 10
75.77659417788914
 20
-138.9909871874746
 30
0.0
 10
75.73182667903124
 20
-138.946219687486
 30
0.0
 10
75.6766875137713
 20
-138.946219687486
 30
0.0
 10
75.62158362628823
 20
-138.946219687486
 30
0.0
 10
75.57678084965346
 20
-138.9909871874746
 30
0.0
 10
75.57678084965346
 20
-139.0461263541276
 30
0.0
 10
75.57678084965346
 20
-139.1012302430025
 30
0.0
 10
75.62158362628823
 20
-139.1460330207693
 30
0.0
 10
75.6766875137713
 20
-139.1460330207693
 30
0.0
 10
75.73182667903124
 20
-139.1460330207693
 30
0.0
 10
75.77659417788914
 20
-139.1012302430025
 30
0.0
 10
75.77659417788914
 20
-139.0461263541276
 30
0.0
  0
SPLINE
  5
88
330
1F
100
AcDbEntity
  8
_U+30EC_U+30A4_U+30E4_U+30FC 1
 62
   179
420
  2234388
370
    25
100
AcDbSpline
210
0.0
220
0.0
230
1.0
 70
    11
 71
     3
 72
    17
 73
    13
 74
     0
 42
0.0000000001
 43
0.0000000001
 12
1.0
 22
0.0
 32
0.0
 13
1.0
 23
0.0
 33
0.0
 40
0.0
 40
0.0
 40
0.0
 40
0.0
 40
1.0
 40
1.0
 40
1.0
 40
2.0
 40
2.0
 40
2.0
 40
3.0
 40
3.0
 40
3.0
 40
4.0
 40
4.0
 40
4.0
 40
4.0
 10
104.7367562168316
 20
-114.0455766381553
 30
0.0
 10
104.7367562168316
 20
-113.9904727492801
 30
0.0
 10
104.6919534401969
 20
-113.9456699715137
 30
0.0
 10
104.6368495527138
 20
-113.9456699715137
 30
0.0
 10
104.5817103874538
 20
-113.9456699715137
 30
0.0
 10
104.536942888596
 20
-113.9904727492801
 30
0.0
 10
104.536942888596
 20
-114.0455766381553
 30
0.0
 10
104.536942888596
 20
-114.101033304808
 30
0.0
 10
104.5817103874538
 20
-114.1458360825747
 30
0.0
 10
104.6368495527138
 20
-114.1458360825747
 30
0.0
 10
104.6919534401969
 20
-114.1458360825747
 30
0.0
 10
104.7367562168316
 20
-114.101033304808
 30
0.0
 10
104.7367562168316
 20
-114.0455766381553
 30
0.0
  0
SPLINE
  5
89
330
1F
100
AcDbEntity
  8
_U+30EC_U+30A4_U+30E4_U+30FC 1
 62
   179
420
  2234388
370
    25
100
AcDbSpline
210
0.0
220
0.0
230
1.0
 70
    11
 71
     3
 72
    17
 73
    13
 74
     0
 42
0.0000000001
 43
0.0000000001
 12
1.0
 22
0.0
 32
0.0
 13
1.0
 23
0.0
 33
0.0
 40
0.0
 40
0.0
 40
0.0
 40
0.0
 40
1.0
 40
1.0
 40
1.0
 40
2.0
 40
2.0
 40
2.0
 40
3.0
 40
3.0
 40
3.0
 40
4.0
 40
4.0
 40
4.0
 40
4.0
 10
80.77612543922936
 20
-143.0455327420161
 30
0.0
 10
80.77612543922936
 20
-142.9907463531414
 30
0.0
 10
80.7313226625946
 20
-142.9456260753745
 30
0.0
 10
80.67621877511152
 20
-142.9456260753745
 30
0.0
 10
80.62107960985158
 20
-142.9456260753745
 30
0.0
 10
80.57631211099368
 20
-142.9907463531414
 30
0.0
 10
80.57631211099368
 20
-143.0455327420161
 30
0.0
 10
80.57631211099368
 20
-143.1009894086694
 30
0.0
 10
80.62107960985158
 20
-143.1454394086584
 30
0.0
 10
80.67621877511152
 20
-143.1454394086584
 30
0.0
 10
80.7313226625946
 20
-143.1454394086584
 30
0.0
 10
80.77612543922936
 20
-143.1009894086694
 30
0.0
 10
80.77612543922936
 20
-143.0455327420161
 30
0.0
  0
SPLINE
  5
8A
330
1F
100
AcDbEntity
  8
_U+30EC_U+30A4_U+30E4_U+30FC 1
 62
   179
420
  2234388
370
    25
100
AcDbSpline
210
0.0
220
0.0
230
1.0
 70
    11
 71
     3
 72
    17
 73
    13
 74
     0
 42
0.0000000001
 43
0.0000000001
 12
1.0
 22
0.0
 32
0.0
 13
1.0
 23
0.0
 33
0.0
 40
0.0
 40
0.0
 40
0.0
 40
0.0
 40
1.0
 40
1.0
 40
1.0
 40
2.0
 40
2.0
 40
2.0
 40
3.0
 40
3.0
 40
3.0
 40
4.0
 40
4.0
 40
4.0
 40
4.0
 10
90.77652851743115
 20
-143.0455327420161
 30
0.0
 10
90.77652851743115
 20
-142.9907463531414
 30
0.0
 10
90.73176101857327
 20
-142.9456260753745
 30
0.0
 10
90.67662185331332
 20
-142.9456260753745
 30
0.0
 10
90.62151796583025
 20
-142.9456260753745
 30
0.0
 10
90.57671518919548
 20
-142.9907463531414
 30
0.0
 10
90.57671518919548
 20
-143.0455327420161
 30
0.0
 10
90.57671518919548
 20
-143.1009894086694
 30
0.0
 10
90.62151796583025
 20
-143.1454394086584
 30
0.0
 10
90.67662185331332
 20
-143.1454394086584
 30
0.0
 10
90.73176101857327
 20
-143.1454394086584
 30
0.0
 10
90.77652851743115
 20
-143.1009894086694
 30
0.0
 10
90.77652851743115
 20
-143.0455327420161
 30
0.0
  0
SPLINE
  5
8B
330
1F
100
AcDbEntity
  8
_U+30EC_U+30A4_U+30E4_U+30FC 1
 62
   179
420
  2234388
370
    25
100
AcDbSpline
210
0.0
220
0.0
230
1.0
 70
    11
 71
     3
 72
    17
 73
    13
 74
     0
 42
0.0000000001
 43
0.0000000001
 12
1.0
 22
0.0
 32
0.0
 13
1.0
 23
0.0
 33
0.0
 40
0.0
 40
0.0
 40
0.0
 40
0.0
 40
1.0
 40
1.0
 40
1.0
 40
2.0
 40
2.0
 40
2.0
 40
3.0
 40
3.0
 40
3.0
 40
4.0
 40
4.0
 40
4.0
 40
4.0
 10
100.7762638636951
 20
-143.0455327420161
 30
0.0
 10
100.7762638636951
 20
-142.9907463531414
 30
0.0
 10
100.7314938190144
 20
-142.9456260753745
 30
0.0
 10
100.6763546537544
 20
-142.9456260753745
 30
0.0
 10
100.6212507662714
 20
-142.9456260753745
 30
0.0
 10
100.5764479896366
 20
-142.9907463531414
 30
0.0
 10
100.5764479896366
 20
-143.0455327420161
 30
0.0
 10
100.5764479896366
 20
-143.1009894086694
 30
0.0
 10
100.6212507662714
 20
-143.1454394086584
 30
0.0
 10
100.6763546537544
 20
-143.1454394086584
 30
0.0
 10
100.7314938190144
 20
-143.1454394086584
 30
0.0
 10
100.7762638636951
 20
-143.1009894086694
 30
0.0
 10
100.7762638636951
 20
-143.0455327420161
 30
0.0
  0
SPLINE
  5
8C
330
1F
100
AcDbEntity
  8
_U+30EC_U+30A4_U+30E4_U+30FC 1
 62
   179
420
  2234388
370
    25
100
AcDbSpline
210
0.0
220
0.0
230
1.0
 70
    11
 71
     3
 72
    17
 73
    13
 74
     0
 42
0.0000000001
 43
0.0000000001
 12
1.0
 22
0.0
 32
0.0
 13
1.0
 23
0.0
 33
0.0
 40
0.0
 40
0.0
 40
0.0
 40
0.0
 40
1.0
 40
1.0
 40
1.0
 40
2.0
 40
2.0
 40
2.0
 40
3.0
 40
3.0
 40
3.0
 40
4.0
 40
4.0
 40
4.0
 40
4.0
 10
79.77635324251345
 20
-143.0455327420161
 30
0.0
 10
79.77635324251345
 20
-142.9907463531414
 30
0.0
 10
79.73155046587868
 20
-142.9456260753745
 30
0.0
 10
79.67644657839561
 20
-142.9456260753745
 30
0.0
 10
79.62130741313567
 20
-142.9456260753745
 30
0.0
 10
79.57653991427777
 20
-142.9907463531414
 30
0.0
 10
79.57653991427777
 20
-143.0455327420161
 30
0.0
 10
79.57653991427777
 20
-143.1009894086694
 30
0.0
 10
79.62130741313567
 20
-143.1454394086584
 30
0.0
 10
79.67644657839561
 20
-143.1454394086584
 30
0.0
 10
79.73155046587868
 20
-143.1454394086584
 30
0.0
 10
79.77635324251345
 20
-143.1009894086694
 30
0.0
 10
79.77635324251345
 20
-143.0455327420161
 30
0.0
  0
POLYLINE
  5
8D
330
1F
100
AcDbEntity
  8
_U+30EC_U+30A4_U+30E4_U+30FC 1
 62
   179
420
  2234388
370
     9
100
AcDb2dPolyline
 66
     1
 10
0.0
 20
0.0
 30
0.0
  0
VERTEX
  5
8E
330
8D
100
AcDbEntity
  8
_U+30EC_U+30A4_U+30E4_U+30FC 1
 62
   179
420
  2234388
370
     9
100
AcDbVertex
100
AcDb2dVertex
 10
79.67644657839561
 20
-141.5854913534924
 30
0.0
  0
VERTEX
  5
8F
330
8D
100
AcDbEntity
  8
_U+30EC_U+30A4_U+30E4_U+30FC 1
 62
   179
420
  2234388
370
     9
100
AcDbVertex
100
AcDb2dVertex
 10
79.67644657839561
 20
-144.0456577417664
 30
0.0
  0
SEQEND
  5
90
330
8D
100
AcDbEntity
  8
_U+30EC_U+30A4_U+30E4_U+30FC 1
 62
   179
420
  2234388
370
     9
  0
POLYLINE
  5
91
330
1F
100
AcDbEntity
  8
_U+30EC_U+30A4_U+30E4_U+30FC 1
 62
   179
420
  2234388
370
     9
100
AcDb2dPolyline
 66
     1
 10
0.0
 20
0.0
 30
0.0
  0
VERTEX
  5
92
330
91
100
AcDbEntity
  8
_U+30EC_U+30A4_U+30E4_U+30FC 1
 62
   179
420
  2234388
370
     9
100
AcDbVertex
100
AcDb2dVertex
 10
90.67559879778386
 20
-119.5460171923358
 30
0.0
  0
VERTEX
  5
93
330
91
100
AcDbEntity
  8
_U+30EC_U+30A4_U+30E4_U+30FC 1
 62
   179
420
  2234388
370
     9
100
AcDbVertex
100
AcDb2dVertex
 10
90.67559879778386
 20
-144.0456577417664
 30
0.0
  0
SEQEND
  5
94
330
91
100
AcDbEntity
  8
_U+30EC_U+30A4_U+30E4_U+30FC 1
 62
   179
420
  2234388
370
     9
  0
POLYLINE
  5
95
330
1F
100
AcDbEntity
  8
_U+30EC_U+30A4_U+30E4_U+30FC 1
 62
   179
420
  2234388
370
     9
100
AcDb2dPolyline
 66
     1
 10
0.0
 20
0.0
 30
0.0
  0
VERTEX
  5
96
330
95
100
AcDbEntity
  8
_U+30EC_U+30A4_U+30E4_U+30FC 1
 62
   179
420
  2234388
370
     9
100
AcDbVertex
100
AcDb2dVertex
 10
100.6763546537544
 20
-119.5460171923358
 30
0.0
  0
VERTEX
  5
97
330
95
100
AcDbEntity
  8
_U+30EC_U+30A4_U+30E4_U+30FC 1
 62
   179
420
  2234388
370
     9
100
AcDbVertex
100
AcDb2dVertex
 10
100.6763546537544
 20
-144.0456577417664
 30
0.0
  0
SEQEND
  5
98
330
95
100
AcDbEntity
  8
_U+30EC_U+30A4_U+30E4_U+30FC 1
 62
   179
420
  2234388
370
     9
  0
POLYLINE
  5
99
330
1F
100
AcDbEntity
  8
_U+30EC_U+30A4_U+30E4_U+30FC 1
 62
   179
420
  2234388
370
     9
100
AcDb2dPolyline
 66
     1
 10
0.0
 20
0.0
 30
0.0
  0
VERTEX
  5
9A
330
99
100
AcDbEntity
  8
_U+30EC_U+30A4_U+30E4_U+30FC 1
 62
   179
420
  2234388
370
     9
100
AcDbVertex
100
AcDb2dVertex
 10
75.6766875137713
 20
-114.0461058048219
 30
0.0
  0
VERTEX
  5
9B
330
99
100
AcDbEntity
  8
_U+30EC_U+30A4_U+30E4_U+30FC 1
 62
   179
420
  2234388
370
     9
100
AcDbVertex
100
AcDb2dVertex
 10
75.6766875137713
 20
-139.0461263541276
 30
0.0
  0
SEQEND
  5
9C
330
99
100
AcDbEntity
  8
_U+30EC_U+30A4_U+30E4_U+30FC 1
 62
   179
420
  2234388
370
     9
  0
POLYLINE
  5
9D
330
1F
100
AcDbEntity
  8
_U+30EC_U+30A4_U+30E4_U+30FC 1
 62
   179
420
  2234388
370
     9
100
AcDb2dPolyline
 66
     1
 10
0.0
 20
0.0
 30
0.0
  0
VERTEX
  5
9E
330
9D
100
AcDbEntity
  8
_U+30EC_U+30A4_U+30E4_U+30FC 1
 62
   179
420
  2234388
370
     9
100
AcDbVertex
100
AcDb2dVertex
 10
74.67624503929471
 20
-139.0461263541276
 30
0.0
  0
VERTEX
  5
9F
330
9D
100
AcDbEntity
  8
_U+30EC_U+30A4_U+30E4_U+30FC 1
 62
   179
420
  2234388
370
     9
100
AcDbVertex
100
AcDb2dVertex
 10
77.17634580884517
 20
-139.0461263541276
 30
0.0
  0
SEQEND
  5
A0
330
9D
100
AcDbEntity
  8
_U+30EC_U+30A4_U+30E4_U+30FC 1
 62
   179
420
  2234388
370
     9
  0
POLYLINE
  5
A1
330
1F
100
AcDbEntity
  8
_U+30EC_U+30A4_U+30E4_U+30FC 1
 62
   179
420
  2234388
370
     9
100
AcDb2dPolyline
 66
     1
 10
0.0
 20
0.0
 30
0.0
  0
VERTEX
  5
A2
330
A1
100
AcDbEntity
  8
_U+30EC_U+30A4_U+30E4_U+30FC 1
 62
   179
420
  2234388
370
     9
100
AcDbVertex
100
AcDb2dVertex
 10
103.1764907010818
 20
-114.0461058048219
 30
0.0
  0
VERTEX
  5
A3
330
A1
100
AcDbEntity
  8
_U+30EC_U+30A4_U+30E4_U+30FC 1
 62
   179
420
  2234388
370
     9
100
AcDbVertex
100
AcDb2dVertex
 10
105.6369745271985
 20
-114.0461058048219
 30
0.0
  0
SEQEND
  5
A4
330
A1
100
AcDbEntity
  8
_U+30EC_U+30A4_U+30E4_U+30FC 1
 62
   179
420
  2234388
370
     9
  0
INSERT
  5
A6
330
1F
100
AcDbEntity
  8
_U+30EC_U+30A4_U+30E4_U+30FC 1
100
AcDbBlockReference
  2
block 5
 10
0.0
 20
0.0
 30
0.0
  0
INSERT
  5
AC
330
1F
100
AcDbEntity
  8
_U+30EC_U+30A4_U+30E4_U+30FC 1
100
AcDbBlockReference
  2
block 6
 10
0.0
 20
0.0
 30
0.0
  0
POLYLINE
  5
B3
330
1F
100
AcDbEntity
  8
_U+30EC_U+30A4_U+30E4_U+30FC 1
 62
   179
420
  2234388
370
    25
100
AcDb2dPolyline
 66
     1
 10
0.0
 20
0.0
 30
0.0
  0
VERTEX
  5
B4
330
B3
100
AcDbEntity
  8
_U+30EC_U+30A4_U+30E4_U+30FC 1
 62
   179
420
  2234388
370
    25
100
AcDbVertex
100
AcDb2dVertex
 10
79.67644657839561
 20
-114.0461058048219
 30
0.0
  0
VERTEX
  5
B5
330
B3
100
AcDbEntity
  8
_U+30EC_U+30A4_U+30E4_U+30FC 1
 62
   179
420
  2234388
370
    25
100
AcDbVertex
100
AcDb2dVertex
 10
79.67644657839561
 20
-139.0461263541276
 30
0.0
  0
SEQEND
  5
B6
330
B3
100
AcDbEntity
  8
_U+30EC_U+30A4_U+30E4_U+30FC 1
 62
   179
420
  2234388
370
    25
  0
POLYLINE
  5
B7
330
1F
100
AcDbEntity
  8
_U+30EC_U+30A4_U+30E4_U+30FC 1
 62
   179
420
  2234388
370
    25
100
AcDb2dPolyline
 66
     1
 10
0.0
 20
0.0
 30
0.0
  0
VERTEX
  5
B8
330
B7
100
AcDbEntity
  8
_U+30EC_U+30A4_U+30E4_U+30FC 1
 62
   179
420
  2234388
370
    25
100
AcDbVertex
100
AcDb2dVertex
 10
80.67621877511152
 20
-115.0460191379052
 30
0.0
  0
VERTEX
  5
B9
330
B7
100
AcDbEntity
  8
_U+30EC_U+30A4_U+30E4_U+30FC 1
 62
   179
420
  2234388
370
    25
100
AcDbVertex
100
AcDb2dVertex
 10
80.67621877511152
 20
-139.0461263541276
 30
0.0
  0
SEQEND
  5
BA
330
B7
100
AcDbEntity
  8
_U+30EC_U+30A4_U+30E4_U+30FC 1
 62
   179
420
  2234388
370
    25
  0
POLYLINE
  5
BB
330
1F
100
AcDbEntity
  8
_U+30EC_U+30A4_U+30E4_U+30FC 1
 62
   179
420
  2234388
370
    25
100
AcDb2dPolyline
 66
     1
 10
0.0
 20
0.0
 30
0.0
  0
VERTEX
  5
BC
330
BB
100
AcDbEntity
  8
_U+30EC_U+30A4_U+30E4_U+30FC 1
 62
   179
420
  2234388
370
    25
100
AcDbVertex
100
AcDb2dVertex
 10
99.67626495704663
 20
-115.076710804564
 30
0.0
  0
VERTEX
  5
BD
330
BB
100
AcDbEntity
  8
_U+30EC_U+30A4_U+30E4_U+30FC 1
 62
   179
420
  2234388
370
    25
100
AcDbVertex
100
AcDb2dVertex
 10
99.67626495704663
 20
-116.0459677487663
 30
0.0
  0
SEQEND
  5
BE
330
BB
100
AcDbEntity
  8
_U+30EC_U+30A4_U+30E4_U+30FC 1
 62
   179
420
  2234388
370
    25
  0
POLYLINE
  5
BF
330
1F
100
AcDbEntity
  8
_U+30EC_U+30A4_U+30E4_U+30FC 1
 62
   179
420
  2234388
370
    25
100
AcDb2dPolyline
 66
     1
 10
0.0
 20
0.0
 30
0.0
  0
VERTEX
  5
C0
330
BF
100
AcDbEntity
  8
_U+30EC_U+30A4_U+30E4_U+30FC 1
 62
   179
420
  2234388
370
    25
100
AcDbVertex
100
AcDb2dVertex
 10
100.6763546537544
 20
-114.0459294159331
 30
0.0
  0
VERTEX
  5
C1
330
BF
100
AcDbEntity
  8
_U+30EC_U+30A4_U+30E4_U+30FC 1
 62
   179
420
  2234388
370
    25
100
AcDbVertex
100
AcDb2dVertex
 10
100.6763546537544
 20
-117.0459163596274
 30
0.0
  0
SEQEND
  5
C2
330
BF
100
AcDbEntity
  8
_U+30EC_U+30A4_U+30E4_U+30FC 1
 62
   179
420
  2234388
370
    25
  0
POLYLINE
  5
C3
330
1F
100
AcDbEntity
  8
_U+30EC_U+30A4_U+30E4_U+30FC 1
 62
   179
420
  2234388
370
    25
100
AcDb2dPolyline
 66
     1
 10
0.0
 20
0.0
 30
0.0
  0
VERTEX
  5
C4
330
C3
100
AcDbEntity
  8
_U+30EC_U+30A4_U+30E4_U+30FC 1
 62
   179
420
  2234388
370
    25
100
AcDbVertex
100
AcDb2dVertex
 10
91.84452793462866
 20
-115.0387871934624
 30
0.0
  0
VERTEX
  5
C5
330
C3
100
AcDbEntity
  8
_U+30EC_U+30A4_U+30E4_U+30FC 1
 62
   179
420
  2234388
370
    25
100
AcDbVertex
100
AcDb2dVertex
 10
90.67559879778386
 20
-117.055899970736
 30
0.0
  0
SEQEND
  5
C6
330
C3
100
AcDbEntity
  8
_U+30EC_U+30A4_U+30E4_U+30FC 1
 62
   179
420
  2234388
370
    25
  0
POLYLINE
  5
C7
330
1F
100
AcDbEntity
  8
_U+30EC_U+30A4_U+30E4_U+30FC 1
 62
   179
420
  2234388
370
    25
100
AcDb2dPolyline
 66
     1
 10
0.0
 20
0.0
 30
0.0
  0
VERTEX
  5
C8
330
C7
100
AcDbEntity
  8
_U+30EC_U+30A4_U+30E4_U+30FC 1
 62
   179
420
  2234388
370
    25
100
AcDbVertex
100
AcDb2dVertex
 10
93.56707122401626
 20
-114.0461058048219
 30
0.0
  0
VERTEX
  5
C9
330
C7
100
AcDbEntity
  8
_U+30EC_U+30A4_U+30E4_U+30FC 1
 62
   179
420
  2234388
370
    25
100
AcDbVertex
100
AcDb2dVertex
 10
92.42294236431653
 20
-116.030304415437
 30
0.0
  0
SEQEND
  5
CA
330
C7
100
AcDbEntity
  8
_U+30EC_U+30A4_U+30E4_U+30FC 1
 62
   179
420
  2234388
370
    25
  0
POLYLINE
  5
CB
330
1F
100
AcDbEntity
  8
_U+30EC_U+30A4_U+30E4_U+30FC 1
 62
   179
420
  2234388
370
    25
100
AcDb2dPolyline
 66
     1
 10
0.0
 20
0.0
 30
0.0
  0
VERTEX
  5
CC
330
CB
100
AcDbEntity
  8
_U+30EC_U+30A4_U+30E4_U+30FC 1
 62
   179
420
  2234388
370
    25
100
AcDbVertex
100
AcDb2dVertex
 10
100.6763546537544
 20
-114.0459294159331
 30
0.0
  0
VERTEX
  5
CD
330
CB
100
AcDbEntity
  8
_U+30EC_U+30A4_U+30E4_U+30FC 1
 62
   179
420
  2234388
370
    25
100
AcDbVertex
100
AcDb2dVertex
 10
99.67626495704663
 20
-115.076710804564
 30
0.0
  0
SEQEND
  5
CE
330
CB
100
AcDbEntity
  8
_U+30EC_U+30A4_U+30E4_U+30FC 1
 62
   179
420
  2234388
370
    25
  0
POLYLINE
  5
CF
330
1F
100
AcDbEntity
  8
_U+30EC_U+30A4_U+30E4_U+30FC 1
 62
   179
420
  2234388
370
    25
100
AcDb2dPolyline
 66
     1
 10
0.0
 20
0.0
 30
0.0
  0
VERTEX
  5
D0
330
CF
100
AcDbEntity
  8
_U+30EC_U+30A4_U+30E4_U+30FC 1
 62
   179
420
  2234388
370
    25
100
AcDbVertex
100
AcDb2dVertex
 10
90.67630435332141
 20
-117.0459163596274
 30
0.0
  0
VERTEX
  5
D1
330
CF
100
AcDbEntity
  8
_U+30EC_U+30A4_U+30E4_U+30FC 1
 62
   179
420
  2234388
370
    25
100
AcDbVertex
100
AcDb2dVertex
 10
100.6763546537544
 20
-117.0459163596274
 30
0.0
  0
SEQEND
  5
D2
330
CF
100
AcDbEntity
  8
_U+30EC_U+30A4_U+30E4_U+30FC 1
 62
   179
420
  2234388
370
    25
  0
POLYLINE
  5
D3
330
1F
100
AcDbEntity
  8
_U+30EC_U+30A4_U+30E4_U+30FC 1
 62
   179
420
  2234388
370
    25
100
AcDb2dPolyline
 66
     1
 10
0.0
 20
0.0
 30
0.0
  0
VERTEX
  5
D4
330
D3
100
AcDbEntity
  8
_U+30EC_U+30A4_U+30E4_U+30FC 1
 62
   179
420
  2234388
370
    25
100
AcDbVertex
100
AcDb2dVertex
 10
92.42294236431653
 20
-116.0459677487663
 30
0.0
  0
VERTEX
  5
D5
330
D3
100
AcDbEntity
  8
_U+30EC_U+30A4_U+30E4_U+30FC 1
 62
   179
420
  2234388
370
    25
100
AcDbVertex
100
AcDb2dVertex
 10
99.6104719031696
 20
-116.0459677487663
 30
0.0
  0
SEQEND
  5
D6
330
D3
100
AcDbEntity
  8
_U+30EC_U+30A4_U+30E4_U+30FC 1
 62
   179
420
  2234388
370
    25
  0
POLYLINE
  5
D7
330
1F
100
AcDbEntity
  8
_U+30EC_U+30A4_U+30E4_U+30FC 1
 62
   179
420
  2234388
370
    25
100
AcDb2dPolyline
 66
     1
 10
0.0
 20
0.0
 30
0.0
  0
VERTEX
  5
D8
330
D7
100
AcDbEntity
  8
_U+30EC_U+30A4_U+30E4_U+30FC 1
 62
   179
420
  2234388
370
    25
100
AcDbVertex
100
AcDb2dVertex
 10
79.67644657839561
 20
-139.0461263541276
 30
0.0
  0
VERTEX
  5
D9
330
D7
100
AcDbEntity
  8
_U+30EC_U+30A4_U+30E4_U+30FC 1
 62
   179
420
  2234388
370
    25
100
AcDbVertex
100
AcDb2dVertex
 10
80.67621877511152
 20
-139.0461263541276
 30
0.0
  0
SEQEND
  5
DA
330
D7
100
AcDbEntity
  8
_U+30EC_U+30A4_U+30E4_U+30FC 1
 62
   179
420
  2234388
370
    25
  0
POLYLINE
  5
DB
330
1F
100
AcDbEntity
  8
_U+30EC_U+30A4_U+30E4_U+30FC 1
 62
   179
420
  2234388
370
    25
100
AcDb2dPolyline
 66
     1
 10
0.0
 20
0.0
 30
0.0
  0
VERTEX
  5
DC
330
DB
100
AcDbEntity
  8
_U+30EC_U+30A4_U+30E4_U+30FC 1
 62
   179
420
  2234388
370
    25
100
AcDbVertex
100
AcDb2dVertex
 10
79.67644657839561
 20
-114.0461058048219
 30
0.0
  0
VERTEX
  5
DD
330
DB
100
AcDbEntity
  8
_U+30EC_U+30A4_U+30E4_U+30FC 1
 62
   179
420
  2234388
370
    25
100
AcDbVertex
100
AcDb2dVertex
 10
93.56707122401626
 20
-114.0461058048219
 30
0.0
  0
SEQEND
  5
DE
330
DB
100
AcDbEntity
  8
_U+30EC_U+30A4_U+30E4_U+30FC 1
 62
   179
420
  2234388
370
    25
  0
POLYLINE
  5
DF
330
1F
100
AcDbEntity
  8
_U+30EC_U+30A4_U+30E4_U+30FC 1
 62
   179
420
  2234388
370
    25
100
AcDb2dPolyline
 66
     1
 10
0.0
 20
0.0
 30
0.0
  0
VERTEX
  5
E0
330
DF
100
AcDbEntity
  8
_U+30EC_U+30A4_U+30E4_U+30FC 1
 62
   179
420
  2234388
370
    25
100
AcDbVertex
100
AcDb2dVertex
 10
80.67621877511152
 20
-115.0460191379052
 30
0.0
  0
VERTEX
  5
E1
330
DF
100
AcDbEntity
  8
_U+30EC_U+30A4_U+30E4_U+30FC 1
 62
   179
420
  2234388
370
    25
100
AcDbVertex
100
AcDb2dVertex
 10
91.84452793462866
 20
-115.0460191379052
 30
0.0
  0
SEQEND
  5
E2
330
DF
100
AcDbEntity
  8
_U+30EC_U+30A4_U+30E4_U+30FC 1
 62
   179
420
  2234388
370
    25
  0
ENDSEC
  0
SECTION
  2
OBJECTS
  0
DICTIONARY
  5
C
330
0
100
AcDbDictionary
281
     1
  3
ACAD_GROUP
350
D
  3
ACAD_LAYOUT
350
1A
  3
ACAD_MATERIAL
350
3B
  3
ACAD_MLEADERSTYLE
350
E4
  3
ACAD_MLINESTYLE
350
17
  3
ACAD_PLOTSETTINGS
350
19
  3
ACAD_PLOTSTYLENAME
350
E
  3
ACAD_TABLESTYLE
350
E3
  3
ACAD_VISUALSTYLE
350
2A
  0
SUN
  5
3F
330
29
100
AcDbSun
 90
        1
290
     0
 63
     7
421
 16777215
 40
1.0
291
     1
 91
  2455826
 92
 54000000
292
     0
 70
     2
 71
   256
280
     1
  0
DICTIONARY
  5
D
102
{ACAD_REACTORS
330
C
102
}
330
C
100
AcDbDictionary
281
     1
  0
DICTIONARY
  5
1A
102
{ACAD_REACTORS
330
C
102
}
330
C
100
AcDbDictionary
281
     1
  3
Layout1
350
1E
  3
Layout2
350
26
  3
Model
350
22
  0
DICTIONARY
  5
3B
102
{ACAD_REACTORS
330
C
102
}
330
C
100
AcDbDictionary
281
     1
  3
ByBlock
350
3D
  3
ByLayer
350
3C
  3
Global
350
3E
  0
DICTIONARY
  5
E4
102
{ACAD_REACTORS
330
C
102
}
330
C
100
AcDbDictionary
281
     1
  0
DICTIONARY
  5
17
102
{ACAD_REACTORS
330
C
102
}
330
C
100
AcDbDictionary
281
     1
  3
Standard
350
18
  0
DICTIONARY
  5
19
102
{ACAD_REACTORS
330
C
102
}
330
C
100
AcDbDictionary
281
     1
  0
ACDBDICTIONARYWDFLT
  5
E
102
{ACAD_REACTORS
330
C
102
}
330
C
100
AcDbDictionary
281
     1
  3
Normal
350
F
100
AcDbDictionaryWithDefault
340
F
  0
DICTIONARY
  5
E3
102
{ACAD_REACTORS
330
C
102
}
330
C
100
AcDbDictionary
281
     1
  0
DICTIONARY
  5
2A
102
{ACAD_REACTORS
330
C
102
}
330
C
100
AcDbDictionary
281
     1
  3
2dWireframe
350
2F
  3
3D Hidden
350
31
  3
3dWireframe
350
30
  3
Basic
350
32
  3
Brighten
350
36
  3
ColorChange
350
3A
  3
Conceptual
350
34
  3
Dim
350
35
  3
Facepattern
350
39
  3
Flat
350
2B
  3
FlatWithEdges
350
2C
  3
Gouraud
350
2D
  3
GouraudWithEdges
350
2E
  3
Linepattern
350
38
  3
Realistic
350
33
  3
Thicken
350
37
  0
LAYOUT
  5
1E
102
{ACAD_REACTORS
330
1A
102
}
330
1A
100
AcDbPlotSettings
  1

  2
none_device
  4

  6

 40
0.0
 41
0.0
 42
0.0
 43
0.0
 44
0.0
 45
0.0
 46
0.0
 47
0.0
 48
0.0
 49
0.0
140
0.0
141
0.0
142
1.0
143
1.0
 70
   688
 72
     0
 73
     0
 74
     5
  7

 75
    16
 76
     0
 77
     2
 78
   300
147
1.0
148
0.0
149
0.0
100
AcDbLayout
  1
Layout1
 70
     1
 71
     1
 10
0.0
 20
0.0
 11
12.0
 21
9.0
 12
0.0
 22
0.0
 32
0.0
 14
1.000000000000000E+20
 24
1.000000000000000E+20
 34
1.000000000000000E+20
 15
-1.000000000000000E+20
 25
-1.000000000000000E+20
 35
-1.000000000000000E+20
146
0.0
 13
0.0
 23
0.0
 33
0.0
 16
1.0
 26
0.0
 36
0.0
 17
0.0
 27
1.0
 37
0.0
 76
     0
330
1B
  0
LAYOUT
  5
26
102
{ACAD_REACTORS
330
1A
102
}
330
1A
100
AcDbPlotSettings
  1

  2
none_device
  4

  6

 40
0.0
 41
0.0
 42
0.0
 43
0.0
 44
0.0
 45
0.0
 46
0.0
 47
0.0
 48
0.0
 49
0.0
140
0.0
141
0.0
142
1.0
143
1.0
 70
   688
 72
     0
 73
     0
 74
     5
  7

 75
    16
 76
     0
 77
     2
 78
   300
147
1.0
148
0.0
149
0.0
100
AcDbLayout
  1
Layout2
 70
     1
 71
     2
 10
0.0
 20
0.0
 11
0.0
 21
0.0
 12
0.0
 22
0.0
 32
0.0
 14
0.0
 24
0.0
 34
0.0
 15
0.0
 25
0.0
 35
0.0
146
0.0
 13
0.0
 23
0.0
 33
0.0
 16
1.0
 26
0.0
 36
0.0
 17
0.0
 27
1.0
 37
0.0
 76
     0
330
23
  0
LAYOUT
  5
22
102
{ACAD_REACTORS
330
1A
102
}
330
1A
100
AcDbPlotSettings
  1

  2
none_device
  4

  6

 40
0.0
 41
0.0
 42
0.0
 43
0.0
 44
0.0
 45
0.0
 46
0.0
 47
0.0
 48
0.0
 49
0.0
140
0.0
141
0.0
142
1.0
143
1.0
 70
  1712
 72
     0
 73
     0
 74
     0
  7

 75
     0
 76
     0
 77
     2
 78
   300
147
1.0
148
0.0
149
0.0
100
AcDbLayout
  1
Model
 70
     1
 71
     0
 10
0.0
 20
0.0
 11
12.0
 21
9.0
 12
0.0
 22
0.0
 32
0.0
 14
1.000000000000000E+20
 24
1.000000000000000E+20
 34
1.000000000000000E+20
 15
-1.000000000000000E+20
 25
-1.000000000000000E+20
 35
-1.000000000000000E+20
146
0.0
 13
0.0
 23
0.0
 33
0.0
 16
1.0
 26
0.0
 36
0.0
 17
0.0
 27
1.0
 37
0.0
 76
     0
330
1F
331
29
  0
MATERIAL
  5
3D
102
{ACAD_REACTORS
330
3B
102
}
330
3B
100
AcDbMaterial
  1
ByBlock
 72
     1
 94
      127
  0
MATERIAL
  5
3C
102
{ACAD_REACTORS
330
3B
102
}
330
3B
100
AcDbMaterial
  1
ByLayer
 72
     1
 94
      127
  0
MATERIAL
  5
3E
102
{ACAD_REACTORS
330
3B
102
}
330
3B
100
AcDbMaterial
  1
Global
 72
     1
 94
      127
  0
MLINESTYLE
  5
18
102
{ACAD_REACTORS
330
17
102
}
330
17
100
AcDbMlineStyle
  2
Standard
 70
     0
  3

 62
   256
 51
90.0
 52
90.0
 71
     2
 49
0.5
 62
   256
  6
BYLAYER
 49
-0.5
 62
   256
  6
BYLAYER
  0
ACDBPLACEHOLDER
  5
F
102
{ACAD_REACTORS
330
E
102
}
330
E
  0
VISUALSTYLE
  5
2F
102
{ACAD_REACTORS
330
2A
102
}
330
2A
100
AcDbVisualStyle
  2
2dWireframe
 70
     4
177
     2
291
     0
 71
     0
176
     1
 72
     2
176
     1
 73
     0
176
     1
 90
        0
176
     1
 40
-0.6
176
     1
 41
-30.0
176
     1
 62
     5
 63
     7
421
 16777215
176
     1
 74
     1
176
     1
 91
        4
176
     1
 64
     7
176
     1
 65
   257
176
     1
 75
     1
176
     1
175
     1
176
     1
 42
1.0
176
     1
 92
        0
176
     1
 66
   257
176
     1
 43
1.0
176
     1
 76
     1
176
     1
 77
     6
176
     1
 78
     2
176
     1
 67
     7
176
     1
 79
     5
176
     1
170
     0
176
     1
171
     0
176
     1
290
     0
176
     1
 93
        1
176
     1
 44
0.0
176
     1
173
     0
176
     1
  0
VISUALSTYLE
  5
31
102
{ACAD_REACTORS
330
2A
102
}
330
2A
100
AcDbVisualStyle
  2
3D Hidden
 70
     6
177
     2
291
     0
 71
     1
176
     1
 72
     2
176
     1
 73
     2
176
     1
 90
        0
176
     1
 40
-0.6
176
     1
 41
-30.0
176
     1
 62
     5
 63
     7
421
 16777215
176
     1
 74
     2
176
     1
 91
        2
176
     1
 64
     7
176
     1
 65
   257
176
     1
 75
     2
176
     1
175
     1
176
     1
 42
40.0
176
     1
 92
        0
176
     1
 66
   257
176
     1
 43
1.0
176
     1
 76
     1
176
     1
 77
     6
176
     1
 78
     2
176
     1
 67
     7
176
     1
 79
     3
176
     1
170
     0
176
     1
171
     0
176
     1
290
     0
176
     1
 93
        1
176
     1
 44
0.0
176
     1
173
     0
176
     1
  0
VISUALSTYLE
  5
30
102
{ACAD_REACTORS
330
2A
102
}
330
2A
100
AcDbVisualStyle
  2
3dWireframe
 70
     5
177
     2
291
     0
 71
     0
176
     1
 72
     2
176
     1
 73
     0
176
     1
 90
        0
176
     1
 40
-0.6
176
     1
 41
-30.0
176
     1
 62
     5
 63
     7
421
 16777215
176
     1
 74
     1
176
     1
 91
        4
176
     1
 64
     7
176
     1
 65
   257
176
     1
 75
     1
176
     1
175
     1
176
     1
 42
1.0
176
     1
 92
        0
176
     1
 66
   257
176
     1
 43
1.0
176
     1
 76
     1
176
     1
 77
     6
176
     1
 78
     2
176
     1
 67
     7
176
     1
 79
     5
176
     1
170
     0
176
     1
171
     0
176
     1
290
     0
176
     1
 93
        1
176
     1
 44
0.0
176
     1
173
     0
176
     1
  0
VISUALSTYLE
  5
32
102
{ACAD_REACTORS
330
2A
102
}
330
2A
100
AcDbVisualStyle
  2
Basic
 70
     7
177
     2
291
     1
 71
     1
176
     1
 72
     0
176
     1
 73
     1
176
     1
 90
        0
176
     1
 40
-0.6
176
     1
 41
-30.0
176
     1
 62
     5
 63
     7
421
 16777215
176
     1
 74
     0
176
     1
 91
        4
176
     1
 64
     7
176
     1
 65
   257
176
     1
 75
     1
176
     1
175
     1
176
     1
 42
1.0
176
     1
 92
        8
176
     1
 66
     7
176
     1
 43
1.0
176
     1
 76
     1
176
     1
 77
     6
176
     1
 78
     2
176
     1
 67
     7
176
     1
 79
     5
176
     1
170
     0
176
     1
171
     0
176
     1
290
     0
176
     1
 93
        1
176
     1
 44
0.0
176
     1
173
     0
176
     1
  0
VISUALSTYLE
  5
36
102
{ACAD_REACTORS
330
2A
102
}
330
2A
100
AcDbVisualStyle
  2
Brighten
 70
    12
177
     2
291
     1
 71
     2
176
     1
 72
     2
176
     1
 73
     0
176
     1
 90
        0
176
     1
 40
-0.6
176
     1
 41
-30.0
176
     1
 62
     5
 63
     7
421
 16777215
176
     1
 74
     1
176
     1
 91
        4
176
     1
 64
     7
176
     1
 65
   257
176
     1
 75
     1
176
     1
175
     1
176
     1
 42
1.0
176
     1
 92
        8
176
     1
 66
     7
176
     1
 43
1.0
176
     1
 76
     1
176
     1
 77
     6
176
     1
 78
     2
176
     1
 67
     7
176
     1
 79
     5
176
     1
170
     0
176
     1
171
     0
176
     1
290
     0
176
     1
 93
        1
176
     1
 44
50.0
176
     1
173
     0
176
     1
  0
VISUALSTYLE
  5
3A
102
{ACAD_REACTORS
330
2A
102
}
330
2A
100
AcDbVisualStyle
  2
ColorChange
 70
    16
177
     2
291
     1
 71
     2
176
     1
 72
     2
176
     1
 73
     3
176
     1
 90
        0
176
     1
 40
-0.6
176
     1
 41
-30.0
176
     1
 62
     5
 63
     8
421
  8421504
176
     1
 74
     1
176
     1
 91
        4
176
     1
 64
     7
176
     1
 65
   257
176
     1
 75
     1
176
     1
175
     1
176
     1
 42
1.0
176
     1
 92
        8
176
     1
 66
     8
424
  8421504
176
     1
 43
1.0
176
     1
 76
     1
176
     1
 77
     6
176
     1
 78
     2
176
     1
 67
     7
176
     1
 79
     5
176
     1
170
     0
176
     1
171
     0
176
     1
290
     0
176
     1
 93
        1
176
     1
 44
0.0
176
     1
173
     0
176
     1
  0
VISUALSTYLE
  5
34
102
{ACAD_REACTORS
330
2A
102
}
330
2A
100
AcDbVisualStyle
  2
Conceptual
 70
     9
177
     2
291
     0
 71
     3
176
     1
 72
     2
176
     1
 73
     0
176
     1
 90
        0
176
     1
 40
-0.6
176
     1
 41
-30.0
176
     1
 62
     5
 63
     7
421
 16777215
176
     1
 74
     2
176
     1
 91
        2
176
     1
 64
     7
176
     1
 65
   257
176
     1
 75
     1
176
     1
175
     1
176
     1
 42
40.0
176
     1
 92
        8
176
     1
 66
     7
176
     1
 43
1.0
176
     1
 76
     1
176
     1
 77
     6
176
     1
 78
     2
176
     1
 67
     7
176
     1
 79
     3
176
     1
170
     0
176
     1
171
     0
176
     1
290
     0
176
     1
 93
        1
176
     1
 44
0.0
176
     1
173
     0
176
     1
  0
VISUALSTYLE
  5
35
102
{ACAD_REACTORS
330
2A
102
}
330
2A
100
AcDbVisualStyle
  2
Dim
 70
    11
177
     2
291
     1
 71
     2
176
     1
 72
     2
176
     1
 73
     0
176
     1
 90
        0
176
     1
 40
-0.6
176
     1
 41
-30.0
176
     1
 62
     5
 63
     7
421
 16777215
176
     1
 74
     1
176
     1
 91
        4
176
     1
 64
     7
176
     1
 65
   257
176
     1
 75
     1
176
     1
175
     1
176
     1
 42
1.0
176
     1
 92
        8
176
     1
 66
     7
176
     1
 43
1.0
176
     1
 76
     1
176
     1
 77
     6
176
     1
 78
     2
176
     1
 67
     7
176
     1
 79
     5
176
     1
170
     0
176
     1
171
     0
176
     1
290
     0
176
     1
 93
        1
176
     1
 44
-50.0
176
     1
173
     0
176
     1
  0
VISUALSTYLE
  5
39
102
{ACAD_REACTORS
330
2A
102
}
330
2A
100
AcDbVisualStyle
  2
Facepattern
 70
    15
177
     2
291
     1
 71
     2
176
     1
 72
     2
176
     1
 73
     0
176
     1
 90
        0
176
     1
 40
-0.6
176
     1
 41
-30.0
176
     1
 62
     5
 63
     7
421
 16777215
176
     1
 74
     1
176
     1
 91
        4
176
     1
 64
     7
176
     1
 65
   257
176
     1
 75
     1
176
     1
175
     1
176
     1
 42
1.0
176
     1
 92
        8
176
     1
 66
     7
176
     1
 43
1.0
176
     1
 76
     1
176
     1
 77
     6
176
     1
 78
     2
176
     1
 67
     7
176
     1
 79
     5
176
     1
170
     0
176
     1
171
     0
176
     1
290
     0
176
     1
 93
        1
176
     1
 44
0.0
176
     1
173
     0
176
     1
  0
VISUALSTYLE
  5
2B
102
{ACAD_REACTORS
330
2A
102
}
330
2A
100
AcDbVisualStyle
  2
Flat
 70
     0
177
     2
291
     1
 71
     2
176
     1
 72
     1
176
     1
 73
     1
176
     1
 90
        2
176
     1
 40
-0.6
176
     1
 41
30.0
176
     1
 62
     5
 63
     7
421
 16777215
176
     1
 74
     0
176
     1
 91
        4
176
     1
 64
     7
176
     1
 65
   257
176
     1
 75
     1
176
     1
175
     1
176
     1
 42
1.0
176
     1
 92
        8
176
     1
 66
     7
176
     1
 43
1.0
176
     1
 76
     1
176
     1
 77
     6
176
     1
 78
     2
176
     1
 67
     7
176
     1
 79
     5
176
     1
170
     0
176
     1
171
     0
176
     1
290
     0
176
     1
 93
       13
176
     1
 44
0.0
176
     1
173
     0
176
     1
  0
VISUALSTYLE
  5
2C
102
{ACAD_REACTORS
330
2A
102
}
330
2A
100
AcDbVisualStyle
  2
FlatWithEdges
 70
     1
177
     2
291
     1
 71
     2
176
     1
 72
     1
176
     1
 73
     1
176
     1
 90
        2
176
     1
 40
-0.6
176
     1
 41
30.0
176
     1
 62
     5
 63
     7
421
 16777215
176
     1
 74
     1
176
     1
 91
        4
176
     1
 64
     7
176
     1
 65
   257
176
     1
 75
     1
176
     1
175
     1
176
     1
 42
1.0
176
     1
 92
        0
176
     1
 66
   257
176
     1
 43
1.0
176
     1
 76
     1
176
     1
 77
     6
176
     1
 78
     2
176
     1
 67
     7
176
     1
 79
     5
176
     1
170
     0
176
     1
171
     0
176
     1
290
     0
176
     1
 93
       13
176
     1
 44
0.0
176
     1
173
     0
176
     1
  0
VISUALSTYLE
  5
2D
102
{ACAD_REACTORS
330
2A
102
}
330
2A
100
AcDbVisualStyle
  2
Gouraud
 70
     2
177
     2
291
     1
 71
     2
176
     1
 72
     2
176
     1
 73
     1
176
     1
 90
        2
176
     1
 40
-0.6
176
     1
 41
30.0
176
     1
 62
     5
 63
     7
421
 16777215
176
     1
 74
     0
176
     1
 91
        4
176
     1
 64
     7
176
     1
 65
   257
176
     1
 75
     1
176
     1
175
     1
176
     1
 42
1.0
176
     1
 92
        0
176
     1
 66
     7
176
     1
 43
1.0
176
     1
 76
     1
176
     1
 77
     6
176
     1
 78
     2
176
     1
 67
     7
176
     1
 79
     5
176
     1
170
     0
176
     1
171
     0
176
     1
290
     0
176
     1
 93
       13
176
     1
 44
0.0
176
     1
173
     0
176
     1
  0
VISUALSTYLE
  5
2E
102
{ACAD_REACTORS
330
2A
102
}
330
2A
100
AcDbVisualStyle
  2
GouraudWithEdges
 70
     3
177
     2
291
     1
 71
     2
176
     1
 72
     2
176
     1
 73
     1
176
     1
 90
        2
176
     1
 40
-0.6
176
     1
 41
30.0
176
     1
 62
     5
 63
     7
421
 16777215
176
     1
 74
     1
176
     1
 91
        4
176
     1
 64
     7
176
     1
 65
   257
176
     1
 75
     1
176
     1
175
     1
176
     1
 42
1.0
176
     1
 92
        0
176
     1
 66
   257
176
     1
 43
1.0
176
     1
 76
     1
176
     1
 77
     6
176
     1
 78
     2
176
     1
 67
     7
176
     1
 79
     5
176
     1
170
     0
176
     1
171
     0
176
     1
290
     0
176
     1
 93
       13
176
     1
 44
0.0
176
     1
173
     0
176
     1
  0
VISUALSTYLE
  5
38
102
{ACAD_REACTORS
330
2A
102
}
330
2A
100
AcDbVisualStyle
  2
Linepattern
 70
    14
177
     2
291
     1
 71
     2
176
     1
 72
     2
176
     1
 73
     0
176
     1
 90
        0
176
     1
 40
-0.6
176
     1
 41
-30.0
176
     1
 62
     5
 63
     7
421
 16777215
176
     1
 74
     1
176
     1
 91
        4
176
     1
 64
     7
176
     1
 65
   257
176
     1
 75
     7
176
     1
175
     7
176
     1
 42
1.0
176
     1
 92
        8
176
     1
 66
     7
176
     1
 43
1.0
176
     1
 76
     1
176
     1
 77
     6
176
     1
 78
     2
176
     1
 67
     7
176
     1
 79
     5
176
     1
170
     0
176
     1
171
     0
176
     1
290
     0
176
     1
 93
        1
176
     1
 44
0.0
176
     1
173
     0
176
     1
  0
VISUALSTYLE
  5
33
102
{ACAD_REACTORS
330
2A
102
}
330
2A
100
AcDbVisualStyle
  2
Realistic
 70
     8
177
     2
291
     0
 71
     2
176
     1
 72
     2
176
     1
 73
     0
176
     1
 90
        0
176
     1
 40
-0.6
176
     1
 41
-30.0
176
     1
 62
     5
 63
     7
421
 16777215
176
     1
 74
     1
176
     1
 91
        0
176
     1
 64
     7
176
     1
 65
   257
176
     1
 75
     1
176
     1
175
     1
176
     1
 42
1.0
176
     1
 92
        8
176
     1
 66
     8
424
  7895160
176
     1
 43
1.0
176
     1
 76
     1
176
     1
 77
     6
176
     1
 78
     2
176
     1
 67
     7
176
     1
 79
     5
176
     1
170
     0
176
     1
171
     0
176
     1
290
     0
176
     1
 93
       13
176
     1
 44
0.0
176
     1
173
     0
176
     1
  0
VISUALSTYLE
  5
37
102
{ACAD_REACTORS
330
2A
102
}
330
2A
100
AcDbVisualStyle
  2
Thicken
 70
    13
177
     2
291
     1
 71
     2
176
     1
 72
     2
176
     1
 73
     0
176
     1
 90
        0
176
     1
 40
-0.6
176
     1
 41
-30.0
176
     1
 62
     5
 63
     7
421
 16777215
176
     1
 74
     1
176
     1
 91
        4
176
     1
 64
     7
176
     1
 65
   257
176
     1
 75
     1
176
     1
175
     1
176
     1
 42
1.0
176
     1
 92
       12
176
     1
 66
     7
176
     1
 43
1.0
176
     1
 76
     1
176
     1
 77
     6
176
     1
 78
     2
176
     1
 67
     7
176
     1
 79
     5
176
     1
170
     0
176
     1
171
     0
176
     1
290
     0
176
     1
 93
        1
176
     1
 44
0.0
176
     1
173
     0
176
     1
  0
ENDSEC
  0
EOF
