  0
SECTION
  2
HEADER
  9
$ACADVER
  1
AC1024
  9
$ACADMAINTVER
 70
   226
  9
$DWGCODEPAGE
  3
ANSI_932
  9
$INSBASE
 10
0.0
 20
0.0
 30
0.0
  9
$EXTMIN
 10
1.000000000000000E+20
 20
1.000000000000000E+20
 30
1.000000000000000E+20
  9
$EXTMAX
 10
-1.000000000000000E+20
 20
-1.000000000000000E+20
 30
-1.000000000000000E+20
  9
$LIMMIN
 10
0.0
 20
0.0
  9
$LIMMAX
 10
12.0
 20
9.0
  9
$ORTHOMODE
 70
     0
  9
$REGENMODE
 70
     1
  9
$FILLMODE
 70
     1
  9
$QTEXTMODE
 70
     0
  9
$MIRRTEXT
 70
     0
  9
$LTSCALE
 40
1.0
  9
$ATTMODE
 70
     1
  9
$TEXTSIZE
 40
0.2
  9
$TRACEWID
 40
0.05
  9
$TEXTSTYLE
  7
Standard
  9
$CLAYER
  8
0
  9
$CELTYPE
  6
ByLayer
  9
$CECOLOR
 62
   256
  9
$CELTSCALE
 40
1.0
  9
$DISPSILH
 70
     0
  9
$DIMSCALE
 40
1.0
  9
$DIMASZ
 40
0.18
  9
$DIMEXO
 40
0.0625
  9
$DIMDLI
 40
0.38
  9
$DIMRND
 40
0.0
  9
$DIMDLE
 40
0.0
  9
$DIMEXE
 40
0.18
  9
$DIMTP
 40
0.0
  9
$DIMTM
 40
0.0
  9
$DIMTXT
 40
0.18
  9
$DIMCEN
 40
0.09
  9
$DIMTSZ
 40
0.0
  9
$DIMTOL
 70
     0
  9
$DIMLIM
 70
     0
  9
$DIMTIH
 70
     1
  9
$DIMTOH
 70
     1
  9
$DIMSE1
 70
     0
  9
$DIMSE2
 70
     0
  9
$DIMTAD
 70
     0
  9
$DIMZIN
 70
     0
  9
$DIMBLK
  1

  9
$DIMASO
 70
     1
  9
$DIMSHO
 70
     1
  9
$DIMPOST
  1

  9
$DIMAPOST
  1

  9
$DIMALT
 70
     0
  9
$DIMALTD
 70
     2
  9
$DIMALTF
 40
25.4
  9
$DIMLFAC
 40
1.0
  9
$DIMTOFL
 70
     0
  9
$DIMTVP
 40
0.0
  9
$DIMTIX
 70
     0
  9
$DIMSOXD
 70
     0
  9
$DIMSAH
 70
     0
  9
$DIMBLK1
  1

  9
$DIMBLK2
  1

  9
$DIMSTYLE
  2
Standard
  9
$DIMCLRD
 70
     0
  9
$DIMCLRE
 70
     0
  9
$DIMCLRT
 70
     0
  9
$DIMTFAC
 40
1.0
  9
$DIMGAP
 40
0.09
  9
$DIMJUST
 70
     0
  9
$DIMSD1
 70
     0
  9
$DIMSD2
 70
     0
  9
$DIMTOLJ
 70
     1
  9
$DIMTZIN
 70
     0
  9
$DIMALTZ
 70
     0
  9
$DIMALTTZ
 70
     0
  9
$DIMUPT
 70
     0
  9
$DIMDEC
 70
     4
  9
$DIMTDEC
 70
     4
  9
$DIMALTU
 70
     2
  9
$DIMALTTD
 70
     2
  9
$DIMTXSTY
  7
Standard
  9
$DIMAUNIT
 70
     0
  9
$DIMADEC
 70
     0
  9
$DIMALTRND
 40
0.0
  9
$DIMAZIN
 70
     0
  9
$DIMDSEP
 70
    46
  9
$DIMATFIT
 70
     3
  9
$DIMFRAC
 70
     0
  9
$DIMLDRBLK
  1

  9
$DIMLUNIT
 70
     2
  9
$DIMLWD
 70
    -2
  9
$DIMLWE
 70
    -2
  9
$DIMTMOVE
 70
     0
  9
$DIMFXL
 40
1.0
  9
$DIMFXLON
 70
     0
  9
$DIMJOGANG
 40
0.7853981633974483
  9
$DIMTFILL
 70
     0
  9
$DIMTFILLCLR
 70
     0
  9
$DIMARCSYM
 70
     0
  9
$DIMLTYPE
  6

  9
$DIMLTEX1
  6

  9
$DIMLTEX2
  6

  9
$DIMTXTDIRECTION
 70
     0
  9
$LUNITS
 70
     2
  9
$LUPREC
 70
     4
  9
$SKETCHINC
 40
0.1
  9
$FILLETRAD
 40
0.0
  9
$AUNITS
 70
     0
  9
$AUPREC
 70
     0
  9
$MENU
  1
.
  9
$ELEVATION
 40
0.0
  9
$PELEVATION
 40
0.0
  9
$THICKNESS
 40
0.0
  9
$LIMCHECK
 70
     0
  9
$CHAMFERA
 40
0.0
  9
$CHAMFERB
 40
0.0
  9
$CHAMFERC
 40
0.0
  9
$CHAMFERD
 40
0.0
  9
$SKPOLY
 70
     0
  9
$TDCREATE
 40
2459569.490393519
  9
$TDUCREATE
 40
2459569.115393519
  9
$TDUPDATE
 40
2459569.490393519
  9
$TDUUPDATE
 40
2459569.115393519
  9
$TDINDWG
 40
0.0000000000
  9
$TDUSRTIMER
 40
0.0000000000
  9
$USRTIMER
 70
     1
  9
$ANGBASE
 50
0.0
  9
$ANGDIR
 70
     0
  9
$PDMODE
 70
     0
  9
$PDSIZE
 40
0.0
  9
$PLINEWID
 40
0.0
  9
$SPLFRAME
 70
     0
  9
$SPLINETYPE
 70
     6
  9
$SPLINESEGS
 70
     8
  9
$HANDSEED
  5
1B8
  9
$SURFTAB1
 70
     6
  9
$SURFTAB2
 70
     6
  9
$SURFTYPE
 70
     6
  9
$SURFU
 70
     6
  9
$SURFV
 70
     6
  9
$UCSBASE
  2

  9
$UCSNAME
  2

  9
$UCSORG
 10
0.0
 20
0.0
 30
0.0
  9
$UCSXDIR
 10
1.0
 20
0.0
 30
0.0
  9
$UCSYDIR
 10
0.0
 20
1.0
 30
0.0
  9
$UCSORTHOREF
  2

  9
$UCSORTHOVIEW
 70
     0
  9
$UCSORGTOP
 10
0.0
 20
0.0
 30
0.0
  9
$UCSORGBOTTOM
 10
0.0
 20
0.0
 30
0.0
  9
$UCSORGLEFT
 10
0.0
 20
0.0
 30
0.0
  9
$UCSORGRIGHT
 10
0.0
 20
0.0
 30
0.0
  9
$UCSORGFRONT
 10
0.0
 20
0.0
 30
0.0
  9
$UCSORGBACK
 10
0.0
 20
0.0
 30
0.0
  9
$PUCSBASE
  2

  9
$PUCSNAME
  2

  9
$PUCSORG
 10
0.0
 20
0.0
 30
0.0
  9
$PUCSXDIR
 10
1.0
 20
0.0
 30
0.0
  9
$PUCSYDIR
 10
0.0
 20
1.0
 30
0.0
  9
$PUCSORTHOREF
  2

  9
$PUCSORTHOVIEW
 70
     0
  9
$PUCSORGTOP
 10
0.0
 20
0.0
 30
0.0
  9
$PUCSORGBOTTOM
 10
0.0
 20
0.0
 30
0.0
  9
$PUCSORGLEFT
 10
0.0
 20
0.0
 30
0.0
  9
$PUCSORGRIGHT
 10
0.0
 20
0.0
 30
0.0
  9
$PUCSORGFRONT
 10
0.0
 20
0.0
 30
0.0
  9
$PUCSORGBACK
 10
0.0
 20
0.0
 30
0.0
  9
$USERI1
 70
     0
  9
$USERI2
 70
     0
  9
$USERI3
 70
     0
  9
$USERI4
 70
     0
  9
$USERI5
 70
     0
  9
$USERR1
 40
0.0
  9
$USERR2
 40
0.0
  9
$USERR3
 40
0.0
  9
$USERR4
 40
0.0
  9
$USERR5
 40
0.0
  9
$WORLDVIEW
 70
     1
  9
$SHADEDGE
 70
     3
  9
$SHADEDIF
 70
    70
  9
$TILEMODE
 70
     1
  9
$MAXACTVP
 70
    64
  9
$PINSBASE
 10
0.0
 20
0.0
 30
0.0
  9
$PLIMCHECK
 70
     0
  9
$PEXTMIN
 10
1.000000000000000E+20
 20
1.000000000000000E+20
 30
1.000000000000000E+20
  9
$PEXTMAX
 10
-1.000000000000000E+20
 20
-1.000000000000000E+20
 30
-1.000000000000000E+20
  9
$PLIMMIN
 10
0.0
 20
0.0
  9
$PLIMMAX
 10
12.0
 20
9.0
  9
$UNITMODE
 70
     0
  9
$VISRETAIN
 70
     1
  9
$PLINEGEN
 70
     0
  9
$PSLTSCALE
 70
     1
  9
$TREEDEPTH
 70
  3020
  9
$CMLSTYLE
  2
Standard
  9
$CMLJUST
 70
     0
  9
$CMLSCALE
 40
1.0
  9
$PROXYGRAPHICS
 70
     1
  9
$MEASUREMENT
 70
     0
  9
$CELWEIGHT
370
    -1
  9
$ENDCAPS
280
     0
  9
$JOINSTYLE
280
     0
  9
$LWDISPLAY
290
     1
  9
$INSUNITS
 70
     4
  9
$HYPERLINKBASE
  1

  9
$STYLESHEET
  1

  9
$XEDIT
290
     1
  9
$CEPSNTYPE
380
     0
  9
$PSTYLEMODE
290
     1
  9
$FINGERPRINTGUID
  2
{0F873784-B2D5-594E-9BBB-A78D0125A83E}
  9
$VERSIONGUID
  2
{DED8773D-4DE3-C14D-9292-3F726DEB5111}
  9
$EXTNAMES
290
     1
  9
$PSVPSCALE
 40
0.0
  9
$OLESTARTUP
290
     0
  9
$SORTENTS
280
   127
  9
$INDEXCTL
280
     0
  9
$HIDETEXT
280
     1
  9
$XCLIPFRAME
280
     2
  9
$HALOGAP
280
     0
  9
$OBSCOLOR
 70
   257
  9
$OBSLTYPE
280
     0
  9
$INTERSECTIONDISPLAY
280
     0
  9
$INTERSECTIONCOLOR
 70
   257
  9
$DIMASSOC
280
     2
  9
$PROJECTNAME
  1

  9
$CAMERADISPLAY
290
     0
  9
$LENSLENGTH
 40
50.0
  9
$CAMERAHEIGHT
 40
0.0
  9
$STEPSPERSEC
 40
2.0
  9
$STEPSIZE
 40
6.0
  9
$3DDWFPREC
 40
2.0
  9
$PSOLWIDTH
 40
0.25
  9
$PSOLHEIGHT
 40
4.0
  9
$LOFTANG1
 40
1.570796326794896
  9
$LOFTANG2
 40
1.570796326794896
  9
$LOFTMAG1
 40
0.0
  9
$LOFTMAG2
 40
0.0
  9
$LOFTPARAM
 70
     7
  9
$LOFTNORMALS
280
     1
  9
$LATITUDE
 40
37.795
  9
$LONGITUDE
 40
-122.394
  9
$NORTHDIRECTION
 40
0.0
  9
$TIMEZONE
 70
 -8000
  9
$LIGHTGLYPHDISPLAY
280
     1
  9
$TILEMODELIGHTSYNCH
280
     1
  9
$CMATERIAL
347
11
  9
$SOLIDHIST
280
     0
  9
$SHOWHIST
280
     1
  9
$DWFFRAME
280
     2
  9
$DGNFRAME
280
     0
  9
$REALWORLDSCALE
290
     1
  9
$INTERFERECOLOR
 62
     1
  9
$INTERFEREOBJVS
345
33
  9
$INTERFEREVPVS
346
30
  9
$CSHADOW
280
     0
  9
$SHADOWPLANELOCATION
 40
0.0
  0
ENDSEC
  0
SECTION
  2
CLASSES
  0
CLASS
  1
ACDBDICTIONARYWDFLT
  2
AcDbDictionaryWithDefault
  3
ObjectDBX Classes
 90
        0
 91
        1
280
     0
281
     0
  0
CLASS
  1
MATERIAL
  2
AcDbMaterial
  3
ObjectDBX Classes
 90
     1153
 91
        3
280
     0
281
     0
  0
CLASS
  1
VISUALSTYLE
  2
AcDbVisualStyle
  3
ObjectDBX Classes
 90
     4095
 91
       24
280
     0
281
     0
  0
CLASS
  1
SCALE
  2
AcDbScale
  3
ObjectDBX Classes
 90
     1153
 91
       17
280
     0
281
     0
  0
CLASS
  1
TABLESTYLE
  2
AcDbTableStyle
  3
ObjectDBX Classes
 90
     4095
 91
        1
280
     0
281
     0
  0
CLASS
  1
MLEADERSTYLE
  2
AcDbMLeaderStyle
  3
ACDB_MLEADERSTYLE_CLASS
 90
     4095
 91
        1
280
     0
281
     0
  0
CLASS
  1
ACDBSECTIONVIEWSTYLE
  2
AcDbSectionViewStyle
  3
ObjectDBX Classes
 90
     1025
 91
        1
280
     0
281
     0
  0
CLASS
  1
ACDBDETAILVIEWSTYLE
  2
AcDbDetailViewStyle
  3
ObjectDBX Classes
 90
     1025
 91
        1
280
     0
281
     0
  0
CLASS
  1
DICTIONARYVAR
  2
AcDbDictionaryVar
  3
ObjectDBX Classes
 90
        0
 91
        5
280
     0
281
     0
  0
CLASS
  1
CELLSTYLEMAP
  2
AcDbCellStyleMap
  3
ObjectDBX Classes
 90
     1152
 91
        1
280
     0
281
     0
  0
ENDSEC
  0
SECTION
  2
TABLES
  0
TABLE
  2
VPORT
  5
8
330
0
100
AcDbSymbolTable
 70
     1
  0
VPORT
  5
57
330
8
100
AcDbSymbolTableRecord
100
AcDbViewportTableRecord
  2
*Active
 70
     0
 10
0.0
 20
0.0
 11
1.0
 21
1.0
 12
0.0
 22
0.0
 13
0.0
 23
0.0
 14
1.0
 24
1.0
 15
0.0
 25
0.0
 16
0.0
 26
0.0
 36
1.0
 17
104.9999999737534
 27
-148.4999999628701
 37
0.0
 40
302.939999924255
 41
0.7070707070707534
 42
50.0
 43
0.0
 44
0.0
 50
0.0
 51
0.0
 71
     0
 72
   100
 73
     1
 74
     0
 75
     1
 76
     0
 77
     0
 78
     0
281
     0
 65
     1
110
0.0
120
0.0
130
0.0
111
1.0
121
0.0
131
0.0
112
0.0
122
1.0
132
0.0
 79
     0
146
0.0
 60
     3
 61
     5
292
     1
282
     1
141
0.0
142
0.0
 63
   250
421
  3355443
  0
ENDTAB
  0
TABLE
  2
LTYPE
  5
5
330
0
100
AcDbSymbolTable
 70
     2
  0
LTYPE
  5
5B
330
5
100
AcDbSymbolTableRecord
100
AcDbLinetypeTableRecord
  2
ByBlock
 70
     0
  3

 72
    65
 73
     0
 40
0.0
  0
LTYPE
  5
5C
330
5
100
AcDbSymbolTableRecord
100
AcDbLinetypeTableRecord
  2
ByLayer
 70
     0
  3

 72
    65
 73
     0
 40
0.0
  0
LTYPE
  5
5D
330
5
100
AcDbSymbolTableRecord
100
AcDbLinetypeTableRecord
  2
Continuous
 70
     0
  3
Solid line
 72
    65
 73
     0
 40
0.0
  0
LTYPE
  5
12F
330
5
100
AcDbSymbolTableRecord
100
AcDbLinetypeTableRecord
  2
AI-Linetype-0
 70
     0
  3
Adobe Illustrator Linetype No. 0
 72
    65
 73
     2
 40
1.411111110758333
 49
0.7055555553791667
 74
     0
 49
-0.7055555553791667
 74
     0
  0
ENDTAB
  0
TABLE
  2
LAYER
  5
2
330
0
100
AcDbSymbolTable
 70
     2
  0
LAYER
  5
54
330
2
100
AcDbSymbolTableRecord
100
AcDbLayerTableRecord
  2
0
 70
     0
 62
     7
  6
Continuous
370
    -3
390
F
347
21
  0
LAYER
  5
78
330
2
100
AcDbSymbolTableRecord
100
AcDbLayerTableRecord
  2
レイヤー 1
 70
     0
 62
     7
  6
Continuous
370
     0
390
F
347
21
  0
ENDTAB
  0
TABLE
  2
STYLE
  5
3
330
0
100
AcDbSymbolTable
 70
     2
  0
STYLE
  5
55
330
3
100
AcDbSymbolTableRecord
100
AcDbTextStyleTableRecord
  2
Standard
 70
     0
 40
0.0
 41
1.0
 50
0.0
 71
     0
 42
0.2
  3
txt
  4

  0
STYLE
  5
5A
330
3
100
AcDbSymbolTableRecord
100
AcDbTextStyleTableRecord
  2
Annotative
 70
     0
 40
0.0
 41
1.0
 50
0.0
 71
     0
 42
0.2
  3
txt
  4

1001
AcadAnnotative
1000
AnnotativeData
1002
{
1070
     1
1070
     1
1002
}
  0
ENDTAB
  0
TABLE
  2
VIEW
  5
6
330
0
100
AcDbSymbolTable
 70
     0
  0
ENDTAB
  0
TABLE
  2
UCS
  5
7
330
0
100
AcDbSymbolTable
 70
     0
  0
ENDTAB
  0
TABLE
  2
APPID
  5
9
330
0
100
AcDbSymbolTable
 70
     2
  0
APPID
  5
56
330
9
100
AcDbSymbolTableRecord
100
AcDbRegAppTableRecord
  2
ACAD
 70
     0
  0
APPID
  5
5E
330
9
100
AcDbSymbolTableRecord
100
AcDbRegAppTableRecord
  2
AcadAnnotative
 70
     0
  0
ENDTAB
  0
TABLE
  2
DIMSTYLE
  5
A
330
0
100
AcDbSymbolTable
 70
     2
100
AcDbDimStyleTable
 71
     0
  0
DIMSTYLE
105
58
330
A
100
AcDbSymbolTableRecord
100
AcDbDimStyleTableRecord
  2
Standard
 70
     0
340
55
  0
DIMSTYLE
105
59
330
A
100
AcDbSymbolTableRecord
100
AcDbDimStyleTableRecord
  2
Annotative
 70
     0
340
55
1001
AcadAnnotative
1000
AnnotativeData
1002
{
1070
     1
1070
     1
1002
}
  0
ENDTAB
  0
TABLE
  2
BLOCK_RECORD
  5
1
330
0
100
AcDbSymbolTable
 70
    20
  0
BLOCK_RECORD
  5
70
330
1
100
AcDbSymbolTableRecord
100
AcDbBlockTableRecord
  2
*Model_Space
340
73
 70
     0
280
     1
281
     0
  0
BLOCK_RECORD
  5
6C
330
1
100
AcDbSymbolTableRecord
100
AcDbBlockTableRecord
  2
*Paper_Space
340
6F
 70
     0
280
     1
281
     0
  0
BLOCK_RECORD
  5
74
330
1
100
AcDbSymbolTableRecord
100
AcDbBlockTableRecord
  2
*Paper_Space0
340
77
 70
     0
280
     1
281
     0
  0
BLOCK_RECORD
  5
79
330
1
100
AcDbSymbolTableRecord
100
AcDbBlockTableRecord
  2
Block_0
340
0
102
{BLKREFS
331
7A
102
}
 70
     0
280
     1
281
     0
  0
BLOCK_RECORD
  5
80
330
1
100
AcDbSymbolTableRecord
100
AcDbBlockTableRecord
  2
Block_1
340
0
102
{BLKREFS
331
81
102
}
 70
     0
280
     1
281
     0
  0
BLOCK_RECORD
  5
C8
330
1
100
AcDbSymbolTableRecord
100
AcDbBlockTableRecord
  2
Block_2
340
0
102
{BLKREFS
331
C9
102
}
 70
     0
280
     1
281
     0
  0
BLOCK_RECORD
  5
CC
330
1
100
AcDbSymbolTableRecord
100
AcDbBlockTableRecord
  2
Block_3
340
0
102
{BLKREFS
331
CD
102
}
 70
     0
280
     1
281
     0
  0
BLOCK_RECORD
  5
D9
330
1
100
AcDbSymbolTableRecord
100
AcDbBlockTableRecord
  2
Block_4
340
0
102
{BLKREFS
331
DA
102
}
 70
     0
280
     1
281
     0
  0
BLOCK_RECORD
  5
DD
330
1
100
AcDbSymbolTableRecord
100
AcDbBlockTableRecord
  2
Block_5
340
0
102
{BLKREFS
331
DE
102
}
 70
     0
280
     1
281
     0
  0
BLOCK_RECORD
  5
E7
330
1
100
AcDbSymbolTableRecord
100
AcDbBlockTableRecord
  2
Block_6
340
0
102
{BLKREFS
331
E8
102
}
 70
     0
280
     1
281
     0
  0
BLOCK_RECORD
  5
F1
330
1
100
AcDbSymbolTableRecord
100
AcDbBlockTableRecord
  2
Block_7
340
0
102
{BLKREFS
331
F2
102
}
 70
     0
280
     1
281
     0
  0
BLOCK_RECORD
  5
FC
330
1
100
AcDbSymbolTableRecord
100
AcDbBlockTableRecord
  2
Block_8
340
0
102
{BLKREFS
331
FD
102
}
 70
     0
280
     1
281
     0
  0
BLOCK_RECORD
  5
104
330
1
100
AcDbSymbolTableRecord
100
AcDbBlockTableRecord
  2
Block_9
340
0
102
{BLKREFS
331
105
102
}
 70
     0
280
     1
281
     0
  0
BLOCK_RECORD
  5
10A
330
1
100
AcDbSymbolTableRecord
100
AcDbBlockTableRecord
  2
Block_10
340
0
102
{BLKREFS
331
10B
102
}
 70
     0
280
     1
281
     0
  0
BLOCK_RECORD
  5
130
330
1
100
AcDbSymbolTableRecord
100
AcDbBlockTableRecord
  2
Block_11
340
0
102
{BLKREFS
331
131
102
}
 70
     0
280
     1
281
     0
  0
BLOCK_RECORD
  5
134
330
1
100
AcDbSymbolTableRecord
100
AcDbBlockTableRecord
  2
Block_12
340
0
102
{BLKREFS
331
135
102
}
 70
     0
280
     1
281
     0
  0
BLOCK_RECORD
  5
13B
330
1
100
AcDbSymbolTableRecord
100
AcDbBlockTableRecord
  2
Block_13
340
0
102
{BLKREFS
331
13C
102
}
 70
     0
280
     1
281
     0
  0
BLOCK_RECORD
  5
13F
330
1
100
AcDbSymbolTableRecord
100
AcDbBlockTableRecord
  2
Block_14
340
0
102
{BLKREFS
331
140
102
}
 70
     0
280
     1
281
     0
  0
BLOCK_RECORD
  5
156
330
1
100
AcDbSymbolTableRecord
100
AcDbBlockTableRecord
  2
Block_15
340
0
102
{BLKREFS
331
157
102
}
 70
     0
280
     1
281
     0
  0
BLOCK_RECORD
  5
15A
330
1
100
AcDbSymbolTableRecord
100
AcDbBlockTableRecord
  2
Block_16
340
0
102
{BLKREFS
331
15B
102
}
 70
     0
280
     1
281
     0
  0
BLOCK_RECORD
  5
161
330
1
100
AcDbSymbolTableRecord
100
AcDbBlockTableRecord
  2
Block_17
340
0
102
{BLKREFS
331
162
102
}
 70
     0
280
     1
281
     0
  0
BLOCK_RECORD
  5
165
330
1
100
AcDbSymbolTableRecord
100
AcDbBlockTableRecord
  2
Block_18
340
0
102
{BLKREFS
331
166
102
}
 70
     0
280
     1
281
     0
  0
ENDTAB
  0
ENDSEC
  0
SECTION
  2
BLOCKS
  0
BLOCK
  5
71
330
70
100
AcDbEntity
  8
0
100
AcDbBlockBegin
  2
*Model_Space
 70
     0
 10
0.0
 20
0.0
 30
0.0
  3
*Model_Space
  1

  0
ENDBLK
  5
72
330
70
100
AcDbEntity
  8
0
100
AcDbBlockEnd
  0
BLOCK
  5
6D
330
6C
100
AcDbEntity
 67
     1
  8
0
100
AcDbBlockBegin
  2
*Paper_Space
 70
     0
 10
0.0
 20
0.0
 30
0.0
  3
*Paper_Space
  1

  0
ENDBLK
  5
6E
330
6C
100
AcDbEntity
 67
     1
  8
0
100
AcDbBlockEnd
  0
BLOCK
  5
75
330
74
100
AcDbEntity
 67
     1
  8
0
100
AcDbBlockBegin
  2
*Paper_Space0
 70
     0
 10
0.0
 20
0.0
 30
0.0
  3
*Paper_Space0
  1

  0
ENDBLK
  5
76
330
74
100
AcDbEntity
 67
     1
  8
0
100
AcDbBlockEnd
  0
BLOCK
  5
7B
330
79
100
AcDbEntity
  8
0
100
AcDbBlockBegin
  2
Block_0
 70
     0
 10
0.0
 20
0.0
 30
0.0
  3
Block_0
  1

  0
LINE
  5
7D
330
79
100
AcDbEntity
  8
レイヤー 1
 62
   250
420
  2299925
370
    25
100
AcDbLine
 10
109.7861726828815
 20
-152.9278807046146
 30
0.0
 11
104.786304365879
 21
-152.9278807046146
 31
0.0
  0
LINE
  5
7E
330
79
100
AcDbEntity
  8
レイヤー 1
 62
   250
420
  2299925
370
    25
100
AcDbLine
 10
78.78475495643789
 20
-146.4277929006464
 30
0.0
 11
78.78475495643789
 21
-146.9280317894104
 31
0.0
  0
LINE
  5
7F
330
79
100
AcDbEntity
  8
レイヤー 1
 62
   250
420
  2299925
370
    25
100
AcDbLine
 10
105.7867823724455
 20
-146.9280317894104
 30
0.0
 11
78.78475495643789
 21
-146.9280317894104
 31
0.0
  0
INSERT
  5
81
330
79
100
AcDbEntity
  8
レイヤー 1
100
AcDbBlockReference
  2
Block_1
 10
0.0
 20
0.0
 30
0.0
  0
LINE
  5
B8
330
79
100
AcDbEntity
  8
レイヤー 1
 62
   250
420
  2299925
370
    25
100
AcDbLine
 10
104.8465434242956
 20
-145.6657223452816
 30
0.0
 11
105.7860767573942
 21
-145.6657223452816
 31
0.0
  0
LINE
  5
B9
330
79
100
AcDbEntity
  8
レイヤー 1
 62
   250
420
  2299925
370
    25
100
AcDbLine
 10
105.7860765878522
 20
-145.6657223452816
 30
0.0
 11
105.7860765878522
 21
-151.9277909548274
 31
0.0
  0
LINE
  5
BA
330
79
100
AcDbEntity
  8
レイヤー 1
 62
   250
420
  2299925
370
    25
100
AcDbLine
 10
104.7863045354217
 20
-146.9280317894104
 30
0.0
 11
104.7863045354217
 21
-152.9278806767989
 31
0.0
  0
LINE
  5
BB
330
79
100
AcDbEntity
  8
レイヤー 1
 62
   250
420
  2299925
370
    25
100
AcDbLine
 10
109.7861727676526
 20
-151.9277909826425
 30
0.0
 11
105.7860765878522
 21
-151.9277909826425
 31
0.0
  0
LINE
  5
BC
330
79
100
AcDbEntity
  8
レイヤー 1
 62
   250
420
  2299925
370
    25
100
AcDbLine
 10
108.7856950153991
 20
-145.6657223452816
 30
0.0
 11
108.7856950153991
 21
-151.9277909548274
 31
0.0
  0
LINE
  5
BD
330
79
100
AcDbEntity
  8
レイヤー 1
 62
   250
420
  2299925
370
    25
100
AcDbLine
 10
109.7861727676526
 20
-145.6657223452816
 30
0.0
 11
109.7861727676526
 21
-152.9278806767989
 31
0.0
  0
SPLINE
  5
BE
330
79
100
AcDbEntity
  8
レイヤー 1
 62
   250
420
  2299925
370
     9
100
AcDbSpline
210
0.0
220
0.0
230
1.0
 70
     9
 71
     3
 72
    17
 73
    13
 74
     0
 42
0.0000000001
 43
0.0000000001
 40
0.0
 40
0.0
 40
0.0
 40
0.0
 40
1.0
 40
1.0
 40
1.0
 40
2.0
 40
2.0
 40
2.0
 40
3.0
 40
3.0
 40
3.0
 40
4.0
 40
4.0
 40
4.0
 40
4.0
 10
78.88466162055604
 20
-141.6659984573925
 30
0.0
 10
78.88466162055604
 20
-141.610506512962
 30
0.0
 10
78.83989620857531
 20
-141.5657390129731
 30
0.0
 10
78.78475495643789
 20
-141.5657390129731
 30
0.0
 10
78.72965106895513
 20
-141.5657390129731
 30
0.0
 10
78.68484829232037
 20
-141.610506512962
 30
0.0
 10
78.68484829232037
 20
-141.6659984573925
 30
0.0
 10
78.68484829232037
 20
-141.7211023462674
 30
0.0
 10
78.72965106895513
 20
-141.7659051240342
 30
0.0
 10
78.78475495643789
 20
-141.7659051240342
 30
0.0
 10
78.83989620857531
 20
-141.7659051240342
 30
0.0
 10
78.88466162055604
 20
-141.7211023462674
 30
0.0
 10
78.88466162055604
 20
-141.6659984573925
 30
0.0
  0
SPLINE
  5
BF
330
79
100
AcDbEntity
  8
レイヤー 1
 62
   250
420
  2299925
370
     9
100
AcDbSpline
210
0.0
220
0.0
230
1.0
 70
     9
 71
     3
 72
    17
 73
    13
 74
     0
 42
0.0000000001
 43
0.0000000001
 40
0.0
 40
0.0
 40
0.0
 40
0.0
 40
1.0
 40
1.0
 40
1.0
 40
2.0
 40
2.0
 40
2.0
 40
3.0
 40
3.0
 40
3.0
 40
4.0
 40
4.0
 40
4.0
 40
4.0
 10
74.8849378337086
 20
-146.4277929006464
 30
0.0
 10
74.8849378337086
 20
-146.3726890117715
 30
0.0
 10
74.84013505707385
 20
-146.3278862340047
 30
0.0
 10
74.784678391822
 20
-146.3278862340047
 30
0.0
 10
74.72953922656206
 20
-146.3278862340047
 30
0.0
 10
74.68477172770416
 20
-146.3726890117715
 30
0.0
 10
74.68477172770416
 20
-146.4277929006464
 30
0.0
 10
74.68477172770416
 20
-146.4829320672995
 30
0.0
 10
74.72953922656206
 20
-146.527699567288
 30
0.0
 10
74.784678391822
 20
-146.527699567288
 30
0.0
 10
74.84013505707385
 20
-146.527699567288
 30
0.0
 10
74.8849378337086
 20
-146.4829320672995
 30
0.0
 10
74.8849378337086
 20
-146.4277929006464
 30
0.0
  0
SPLINE
  5
C0
330
79
100
AcDbEntity
  8
レイヤー 1
 62
   250
420
  2299925
370
     9
100
AcDbSpline
210
0.0
220
0.0
230
1.0
 70
     9
 71
     3
 72
    17
 73
    13
 74
     0
 42
0.0000000001
 43
0.0000000001
 40
0.0
 40
0.0
 40
0.0
 40
0.0
 40
1.0
 40
1.0
 40
1.0
 40
2.0
 40
2.0
 40
2.0
 40
3.0
 40
3.0
 40
3.0
 40
4.0
 40
4.0
 40
4.0
 40
4.0
 10
74.8849378337086
 20
-146.9280317894104
 30
0.0
 10
74.8849378337086
 20
-146.8728926227573
 30
0.0
 10
74.84013505707385
 20
-146.8281251227685
 30
0.0
 10
74.784678391822
 20
-146.8281251227685
 30
0.0
 10
74.72953922656206
 20
-146.8281251227685
 30
0.0
 10
74.68477172770416
 20
-146.8728926227573
 30
0.0
 10
74.68477172770416
 20
-146.9280317894104
 30
0.0
 10
74.68477172770416
 20
-146.9831356782853
 30
0.0
 10
74.72953922656206
 20
-147.0279384560524
 30
0.0
 10
74.784678391822
 20
-147.0279384560524
 30
0.0
 10
74.84013505707385
 20
-147.0279384560524
 30
0.0
 10
74.8849378337086
 20
-146.9831356782853
 30
0.0
 10
74.8849378337086
 20
-146.9280317894104
 30
0.0
  0
SPLINE
  5
C1
330
79
100
AcDbEntity
  8
レイヤー 1
 62
   250
420
  2299925
370
     9
100
AcDbSpline
210
0.0
220
0.0
230
1.0
 70
     9
 71
     3
 72
    17
 73
    13
 74
     0
 42
0.0000000001
 43
0.0000000001
 40
0.0
 40
0.0
 40
0.0
 40
0.0
 40
1.0
 40
1.0
 40
1.0
 40
2.0
 40
2.0
 40
2.0
 40
3.0
 40
3.0
 40
3.0
 40
4.0
 40
4.0
 40
4.0
 40
4.0
 10
74.8849378337086
 20
-152.9278807046146
 30
0.0
 10
74.8849378337086
 20
-152.8727768157397
 30
0.0
 10
74.84013505707385
 20
-152.827974037973
 30
0.0
 10
74.784678391822
 20
-152.827974037973
 30
0.0
 10
74.72953922656206
 20
-152.827974037973
 30
0.0
 10
74.68477172770416
 20
-152.8727768157397
 30
0.0
 10
74.68477172770416
 20
-152.9278807046146
 30
0.0
 10
74.68477172770416
 20
-152.9830198712677
 30
0.0
 10
74.72953922656206
 20
-153.0277873712562
 30
0.0
 10
74.784678391822
 20
-153.0277873712562
 30
0.0
 10
74.84013505707385
 20
-153.0277873712562
 30
0.0
 10
74.8849378337086
 20
-152.9830198712677
 30
0.0
 10
74.8849378337086
 20
-152.9278807046146
 30
0.0
  0
SPLINE
  5
C2
330
79
100
AcDbEntity
  8
レイヤー 1
 62
   250
420
  2299925
370
     9
100
AcDbSpline
210
0.0
220
0.0
230
1.0
 70
     9
 71
     3
 72
    17
 73
    13
 74
     0
 42
0.0000000001
 43
0.0000000001
 40
0.0
 40
0.0
 40
0.0
 40
0.0
 40
1.0
 40
1.0
 40
1.0
 40
2.0
 40
2.0
 40
2.0
 40
3.0
 40
3.0
 40
3.0
 40
4.0
 40
4.0
 40
4.0
 40
4.0
 10
105.8859806359478
 20
-141.6659984573925
 30
0.0
 10
105.8859806359478
 20
-141.610506512962
 30
0.0
 10
105.8411778593131
 20
-141.5657390129731
 30
0.0
 10
105.7860765878522
 20
-141.5657390129731
 30
0.0
 10
105.7309348065701
 20
-141.5657390129731
 30
0.0
 10
105.6861673077122
 20
-141.610506512962
 30
0.0
 10
105.6861673077122
 20
-141.6659984573925
 30
0.0
 10
105.6861673077122
 20
-141.7211023462674
 30
0.0
 10
105.7309348065701
 20
-141.7659051240342
 30
0.0
 10
105.7860765878522
 20
-141.7659051240342
 30
0.0
 10
105.8411778593131
 20
-141.7659051240342
 30
0.0
 10
105.8859806359478
 20
-141.7211023462674
 30
0.0
 10
105.8859806359478
 20
-141.6659984573925
 30
0.0
  0
SPLINE
  5
C3
330
79
100
AcDbEntity
  8
レイヤー 1
 62
   250
420
  2299925
370
     9
100
AcDbSpline
210
0.0
220
0.0
230
1.0
 70
     9
 71
     3
 72
    17
 73
    13
 74
     0
 42
0.0000000001
 43
0.0000000001
 40
0.0
 40
0.0
 40
0.0
 40
0.0
 40
1.0
 40
1.0
 40
1.0
 40
2.0
 40
2.0
 40
2.0
 40
3.0
 40
3.0
 40
3.0
 40
4.0
 40
4.0
 40
4.0
 40
4.0
 10
108.8856044496258
 20
-141.6659984573925
 30
0.0
 10
108.8856044496258
 20
-141.610506512962
 30
0.0
 10
108.8408341806591
 20
-141.5657390129731
 30
0.0
 10
108.7856950153991
 20
-141.5657390129731
 30
0.0
 10
108.730591127916
 20
-141.5657390129731
 30
0.0
 10
108.6857883512813
 20
-141.610506512962
 30
0.0
 10
108.6857883512813
 20
-141.6659984573925
 30
0.0
 10
108.6857883512813
 20
-141.7211023462674
 30
0.0
 10
108.730591127916
 20
-141.7659051240342
 30
0.0
 10
108.7856950153991
 20
-141.7659051240342
 30
0.0
 10
108.8408341806591
 20
-141.7659051240342
 30
0.0
 10
108.8856044496258
 20
-141.7211023462674
 30
0.0
 10
108.8856044496258
 20
-141.6659984573925
 30
0.0
  0
LINE
  5
C4
330
79
100
AcDbEntity
  8
レイヤー 1
 62
   250
420
  2299925
370
     9
100
AcDbLine
 10
74.784678391822
 20
-146.4277929006464
 30
0.0
 11
74.784678391822
 21
-141.1698870686275
 31
0.0
  0
LINE
  5
C5
330
79
100
AcDbEntity
  8
レイヤー 1
 62
   250
420
  2299925
370
     9
100
AcDbLine
 10
74.784678391822
 20
-146.4277929006464
 30
0.0
 11
74.784678391822
 21
-146.9280317894104
 31
0.0
  0
LINE
  5
C6
330
79
100
AcDbEntity
  8
レイヤー 1
 62
   250
420
  2299925
370
     9
100
AcDbLine
 10
76.24468446568525
 20
-146.4277929006464
 30
0.0
 11
73.7845534173373
 21
-146.4277929006464
 31
0.0
  0
LINE
  5
C7
330
79
100
AcDbEntity
  8
レイヤー 1
 62
   250
420
  2299925
370
     9
100
AcDbLine
 10
76.24468446568525
 20
-146.9280317894104
 30
0.0
 11
73.7845534173373
 21
-146.9280317894104
 31
0.0
  0
INSERT
  5
C9
330
79
100
AcDbEntity
  8
レイヤー 1
100
AcDbBlockReference
  2
Block_2
 10
0.0
 20
0.0
 30
0.0
  0
LINE
  5
D7
330
79
100
AcDbEntity
  8
レイヤー 1
 62
   250
420
  2299925
370
     9
100
AcDbLine
 10
78.78475495643789
 20
-141.6659984573925
 30
0.0
 11
105.7860767573942
 21
-141.6659984573925
 31
0.0
  0
LINE
  5
D8
330
79
100
AcDbEntity
  8
レイヤー 1
 62
   250
420
  2299925
370
     9
100
AcDbLine
 10
78.78475495643789
 20
-143.8880751235035
 30
0.0
 11
78.78475495643789
 21
-140.6658734576425
 31
0.0
  0
INSERT
  5
DA
330
79
100
AcDbEntity
  8
レイヤー 1
100
AcDbBlockReference
  2
Block_4
 10
0.0
 20
0.0
 30
0.0
  0
LINE
  5
E5
330
79
100
AcDbEntity
  8
レイヤー 1
 62
   250
420
  2299925
370
     9
100
AcDbLine
 10
74.784678391822
 20
-146.9280317894104
 30
0.0
 11
74.784678391822
 21
-152.9278806767989
 31
0.0
  0
LINE
  5
E6
330
79
100
AcDbEntity
  8
レイヤー 1
 62
   250
420
  2299925
370
     9
100
AcDbLine
 10
102.2465842316719
 20
-152.9278806767989
 30
0.0
 11
73.7845534173373
 21
-152.9278806767989
 31
0.0
  0
INSERT
  5
E8
330
79
100
AcDbEntity
  8
レイヤー 1
100
AcDbBlockReference
  2
Block_6
 10
0.0
 20
0.0
 30
0.0
  0
LINE
  5
EE
330
79
100
AcDbEntity
  8
レイヤー 1
 62
   250
420
  2299925
370
     9
100
AcDbLine
 10
105.7860765878522
 20
-141.6659984573925
 30
0.0
 11
108.7856949306281
 21
-141.6659984573925
 31
0.0
  0
LINE
  5
EF
330
79
100
AcDbEntity
  8
レイヤー 1
 62
   250
420
  2299925
370
     9
100
AcDbLine
 10
105.7860765878522
 20
-143.1260045681387
 30
0.0
 11
105.7860765878522
 21
-140.6658734576425
 31
0.0
  0
LINE
  5
F0
330
79
100
AcDbEntity
  8
レイヤー 1
 62
   250
420
  2299925
370
     9
100
AcDbLine
 10
108.7856950153991
 20
-143.1260045681387
 30
0.0
 11
108.7856950153991
 21
-140.6658734576425
 31
0.0
  0
INSERT
  5
F2
330
79
100
AcDbEntity
  8
レイヤー 1
100
AcDbBlockReference
  2
Block_7
 10
0.0
 20
0.0
 30
0.0
  0
SPLINE
  5
F7
330
79
100
AcDbEntity
  8
レイヤー 1
 62
   250
420
  2299925
370
     9
100
AcDbSpline
210
0.0
220
0.0
230
1.0
 70
     9
 71
     3
 72
    17
 73
    13
 74
     0
 42
0.0000000001
 43
0.0000000001
 40
0.0
 40
0.0
 40
0.0
 40
0.0
 40
1.0
 40
1.0
 40
1.0
 40
2.0
 40
2.0
 40
2.0
 40
3.0
 40
3.0
 40
3.0
 40
4.0
 40
4.0
 40
4.0
 40
4.0
 10
104.8862084392319
 20
-157.0413401480308
 30
0.0
 10
104.8862084392319
 20
-156.9862009813784
 30
0.0
 10
104.8407353848365
 20
-156.9414334813898
 30
0.0
 10
104.7856314973534
 20
-156.9414334813898
 30
0.0
 10
104.7304923320935
 20
-156.9414334813898
 30
0.0
 10
104.6857248332356
 20
-156.9862009813784
 30
0.0
 10
104.6857248332356
 20
-157.0413401480308
 30
0.0
 10
104.6857248332356
 20
-157.0964440369064
 30
0.0
 10
104.7304923320935
 20
-157.1412468146724
 30
0.0
 10
104.7856314973534
 20
-157.1412468146724
 30
0.0
 10
104.8407353848365
 20
-157.1412468146724
 30
0.0
 10
104.8862084392319
 20
-157.0964440369064
 30
0.0
 10
104.8862084392319
 20
-157.0413401480308
 30
0.0
  0
SPLINE
  5
F8
330
79
100
AcDbEntity
  8
レイヤー 1
 62
   250
420
  2299925
370
     9
100
AcDbSpline
210
0.0
220
0.0
230
1.0
 70
     9
 71
     3
 72
    17
 73
    13
 74
     0
 42
0.0000000001
 43
0.0000000001
 40
0.0
 40
0.0
 40
0.0
 40
0.0
 40
1.0
 40
1.0
 40
1.0
 40
2.0
 40
2.0
 40
2.0
 40
3.0
 40
3.0
 40
3.0
 40
4.0
 40
4.0
 40
4.0
 40
4.0
 10
109.8860822271532
 20
-157.0413401480308
 30
0.0
 10
109.8860822271532
 20
-156.9862009813784
 30
0.0
 10
109.8412794493865
 20
-156.9414334813898
 30
0.0
 10
109.7861727676526
 20
-156.9414334813898
 30
0.0
 10
109.7303633246319
 20
-156.9414334813898
 30
0.0
 10
109.6862661035347
 20
-156.9862009813784
 30
0.0
 10
109.6862661035347
 20
-157.0413401480308
 30
0.0
 10
109.6862661035347
 20
-157.0964440369064
 30
0.0
 10
109.7303633246319
 20
-157.1412468146724
 30
0.0
 10
109.7861727676526
 20
-157.1412468146724
 30
0.0
 10
109.8412794493865
 20
-157.1412468146724
 30
0.0
 10
109.8860822271532
 20
-157.0964440369064
 30
0.0
 10
109.8860822271532
 20
-157.0413401480308
 30
0.0
  0
LINE
  5
F9
330
79
100
AcDbEntity
  8
レイヤー 1
 62
   250
420
  2299925
370
     9
100
AcDbLine
 10
109.7861728524236
 20
-157.0413401480308
 30
0.0
 11
104.7856316668954
 21
-157.0413401480308
 31
0.0
  0
LINE
  5
FA
330
79
100
AcDbEntity
  8
レイヤー 1
 62
   250
420
  2299925
370
     9
100
AcDbLine
 10
109.7861727676526
 20
-155.5812987595071
 30
0.0
 11
109.7861727676526
 21
-158.0414298700029
 31
0.0
  0
LINE
  5
FB
330
79
100
AcDbEntity
  8
レイヤー 1
 62
   250
420
  2299925
370
     9
100
AcDbLine
 10
104.7856314973534
 20
-155.5812987595071
 30
0.0
 11
104.7856314973534
 21
-158.0414298700029
 31
0.0
  0
INSERT
  5
FD
330
79
100
AcDbEntity
  8
レイヤー 1
100
AcDbBlockReference
  2
Block_8
 10
0.0
 20
0.0
 30
0.0
  0
LINE
  5
102
330
79
100
AcDbEntity
  8
レイヤー 1
 62
   250
420
  2299925
370
    25
100
AcDbLine
 10
109.7861727676526
 20
-145.6657223452816
 30
0.0
 11
108.7856950153991
 21
-145.6657223452816
 31
0.0
  0
LINE
  5
103
330
79
100
AcDbEntity
  8
レイヤー 1
 62
   250
420
  2299925
370
     9
100
AcDbLine
 10
107.2862385243803
 20
-150.5731595940926
 30
0.0
 11
114.7278131547509
 21
-150.5731595940926
 31
0.0
  0
INSERT
  5
105
330
79
100
AcDbEntity
  8
レイヤー 1
100
AcDbBlockReference
  2
Block_9
 10
0.0
 20
0.0
 30
0.0
  0
INSERT
  5
10B
330
79
100
AcDbEntity
  8
レイヤー 1
100
AcDbBlockReference
  2
Block_10
 10
0.0
 20
0.0
 30
0.0
  0
LINE
  5
12E
330
79
100
AcDbEntity
  8
レイヤー 1
  6
AI-Linetype-0
 62
   154
420
    23468
370
    25
100
AcDbLine
 10
78.78475495643789
 20
-147.8034145669692
 30
0.0
 11
93.784754952688
 21
-147.8034145669692
 31
0.0
  0
INSERT
  5
131
330
79
100
AcDbEntity
  8
レイヤー 1
100
AcDbBlockReference
  2
Block_11
 10
0.0
 20
0.0
 30
0.0
  0
ENDBLK
  5
7C
330
79
100
AcDbEntity
  8
0
100
AcDbBlockEnd
  0
BLOCK
  5
82
330
80
100
AcDbEntity
  8
0
100
AcDbBlockBegin
  2
Block_1
 70
     0
 10
0.0
 20
0.0
 30
0.0
  3
Block_1
  1

  0
LINE
  5
84
330
80
100
AcDbEntity
  8
レイヤー 1
 62
   250
420
  2299925
370
    25
100
AcDbLine
 10
78.78475495643789
 20
-146.4277929006464
 30
0.0
 11
79.29567948278698
 21
-146.8139976338465
 31
0.0
  0
LINE
  5
85
330
80
100
AcDbEntity
  8
レイヤー 1
 62
   250
420
  2299925
370
    25
100
AcDbLine
 10
79.29567948278698
 20
-146.8139976338465
 30
0.0
 11
79.78411131017688
 21
-146.4003880950775
 31
0.0
  0
LINE
  5
86
330
80
100
AcDbEntity
  8
レイヤー 1
 62
   250
420
  2299925
370
    25
100
AcDbLine
 10
80.29500055990352
 20
-146.7865925428531
 30
0.0
 11
80.78414048854892
 21
-146.3726712229459
 31
0.0
  0
LINE
  5
87
330
80
100
AcDbEntity
  8
レイヤー 1
 62
   250
420
  2299925
370
    25
100
AcDbLine
 10
79.78411131017688
 20
-146.4003880950775
 30
0.0
 11
80.29500055990352
 21
-146.7865925428531
 31
0.0
  0
LINE
  5
88
330
80
100
AcDbEntity
  8
レイヤー 1
 62
   250
420
  2299925
370
    25
100
AcDbLine
 10
80.78414048854892
 20
-146.3726712229459
 30
0.0
 11
81.29502973827555
 21
-146.7588756707221
 31
0.0
  0
LINE
  5
89
330
80
100
AcDbEntity
  8
レイヤー 1
 62
   250
420
  2299925
370
    25
100
AcDbLine
 10
81.29502973827555
 20
-146.7588756707221
 30
0.0
 11
81.78346156566545
 21
-146.3452661319531
 31
0.0
  0
LINE
  5
8A
330
80
100
AcDbEntity
  8
レイヤー 1
 62
   250
420
  2299925
370
    25
100
AcDbLine
 10
81.78346156566545
 20
-146.3452661319531
 30
0.0
 11
82.29435366962674
 21
-146.7311178134983
 31
0.0
  0
LINE
  5
8B
330
80
100
AcDbEntity
  8
レイヤー 1
 62
   250
420
  2299925
370
    25
100
AcDbLine
 10
82.29435366962674
 20
-146.7311178134983
 30
0.0
 11
82.78313826323868
 21
-146.3175111289637
 31
0.0
  0
LINE
  5
8C
330
80
100
AcDbEntity
  8
レイヤー 1
 62
   250
420
  2299925
370
    25
100
AcDbLine
 10
82.78313826323868
 20
-146.3175111289637
 30
0.0
 11
83.29403036719964
 21
-146.7033628105089
 31
0.0
  0
LINE
  5
8D
330
80
100
AcDbEntity
  8
レイヤー 1
 62
   250
420
  2299925
370
    25
100
AcDbLine
 10
83.29403036719964
 20
-146.7033628105089
 30
0.0
 11
83.78281496081191
 21
-146.2897561259743
 31
0.0
  0
LINE
  5
8E
330
80
100
AcDbEntity
  8
レイヤー 1
 62
   250
420
  2299925
370
    25
100
AcDbLine
 10
83.78281496081191
 20
-146.2897561259743
 30
0.0
 11
84.29370392511499
 21
-146.6759958503736
 31
0.0
  0
LINE
  5
8F
330
80
100
AcDbEntity
  8
レイヤー 1
 62
   250
420
  2299925
370
    25
100
AcDbLine
 10
84.29370392511499
 20
-146.6759958503736
 30
0.0
 11
84.78248851872725
 21
-146.2623891658396
 31
0.0
  0
LINE
  5
90
330
80
100
AcDbEntity
  8
レイヤー 1
 62
   250
420
  2299925
370
    25
100
AcDbLine
 10
84.78248851872725
 20
-146.2623891658396
 30
0.0
 11
85.29306027885398
 21
-146.6485910448044
 31
0.0
  0
LINE
  5
91
330
80
100
AcDbEntity
  8
レイヤー 1
 62
   250
420
  2299925
370
    25
100
AcDbLine
 10
85.29306027885398
 20
-146.6485910448044
 30
0.0
 11
85.78216521630016
 21
-146.2346341628505
 31
0.0
  0
LINE
  5
92
330
80
100
AcDbEntity
  8
レイヤー 1
 62
   250
420
  2299925
370
    25
100
AcDbLine
 10
86.29308974264926
 20
-146.62083889605
 30
0.0
 11
86.78152157003916
 21
-146.2072293572814
 31
0.0
  0
LINE
  5
93
330
80
100
AcDbEntity
  8
レイヤー 1
 62
   250
420
  2299925
370
    25
100
AcDbLine
 10
85.78216521630016
 20
-146.2346341628505
 30
0.0
 11
86.29308974264926
 21
-146.62083889605
 31
0.0
  0
LINE
  5
94
330
80
100
AcDbEntity
  8
レイヤー 1
 62
   250
420
  2299925
370
    25
100
AcDbLine
 10
86.78152157003916
 20
-146.2072293572814
 30
0.0
 11
87.29241367400012
 21
-146.5930810388262
 31
0.0
  0
LINE
  5
95
330
80
100
AcDbEntity
  8
レイヤー 1
 62
   250
420
  2299925
370
    25
100
AcDbLine
 10
87.29241367400012
 20
-146.5930810388262
 30
0.0
 11
87.7815157572123
 21
-146.1794769231031
 31
0.0
  0
LINE
  5
96
330
80
100
AcDbEntity
  8
レイヤー 1
 62
   250
420
  2299925
370
    25
100
AcDbLine
 10
88.29244285237216
 20
-146.5653641666946
 30
0.0
 11
88.78087467976206
 21
-146.1517546279256
 31
0.0
  0
LINE
  5
97
330
80
100
AcDbEntity
  8
レイヤー 1
 62
   250
420
  2299925
370
    25
100
AcDbLine
 10
87.7815157572123
 20
-146.1794769231031
 30
0.0
 11
88.29244285237216
 21
-146.5653641666946
 31
0.0
  0
LINE
  5
98
330
80
100
AcDbEntity
  8
レイヤー 1
 62
   250
420
  2299925
370
    25
100
AcDbLine
 10
89.29176392948869
 20
-146.5379590757022
 30
0.0
 11
89.78090128932269
 21
-146.1243552454019
 31
0.0
  0
LINE
  5
99
330
80
100
AcDbEntity
  8
レイヤー 1
 62
   250
420
  2299925
370
    25
100
AcDbLine
 10
88.78087467976206
 20
-146.1517546279256
 30
0.0
 11
89.29176392948869
 21
-146.5379590757022
 31
0.0
  0
LINE
  5
9A
330
80
100
AcDbEntity
  8
レイヤー 1
 62
   250
420
  2299925
370
    25
100
AcDbLine
 10
89.78090128932269
 20
-146.1243552454019
 30
0.0
 11
90.29179053904965
 21
-146.5105596931778
 31
0.0
  0
LINE
  5
9B
330
80
100
AcDbEntity
  8
レイヤー 1
 62
   250
420
  2299925
370
    25
100
AcDbLine
 10
90.29179053904965
 20
-146.5105596931778
 30
0.0
 11
90.78022522067387
 21
-146.0965973881788
 31
0.0
  0
LINE
  5
9C
330
80
100
AcDbEntity
  8
レイヤー 1
 62
   250
420
  2299925
370
    25
100
AcDbLine
 10
90.78022522067387
 20
-146.0965973881788
 30
0.0
 11
91.29111447040051
 21
-146.4828018359543
 31
0.0
  0
LINE
  5
9D
330
80
100
AcDbEntity
  8
レイヤー 1
 62
   250
420
  2299925
370
    25
100
AcDbLine
 10
91.29111447040051
 20
-146.4828018359543
 30
0.0
 11
91.77954601236717
 21
-146.0692275738085
 31
0.0
  0
LINE
  5
9E
330
80
100
AcDbEntity
  8
レイヤー 1
 62
   250
420
  2299925
370
    25
100
AcDbLine
 10
91.77954601236717
 20
-146.0692275738085
 30
0.0
 11
92.29043811632877
 21
-146.4550792553537
 31
0.0
  0
LINE
  5
9F
330
80
100
AcDbEntity
  8
レイヤー 1
 62
   250
420
  2299925
370
    25
100
AcDbLine
 10
92.29043811632877
 20
-146.4550792553537
 30
0.0
 11
92.77957547616244
 21
-146.0414754250538
 31
0.0
  0
LINE
  5
A0
330
80
100
AcDbEntity
  8
レイヤー 1
 62
   250
420
  2299925
370
    25
100
AcDbLine
 10
92.77957547616244
 20
-146.0414754250538
 30
0.0
 11
93.29046758012372
 21
-146.4273271065989
 31
0.0
  0
LINE
  5
A1
330
80
100
AcDbEntity
  8
レイヤー 1
 62
   250
420
  2299925
370
    25
100
AcDbLine
 10
93.29046758012372
 20
-146.4273271065989
 30
0.0
 11
93.77889940751298
 21
-146.0137175678303
 31
0.0
  0
LINE
  5
A2
330
80
100
AcDbEntity
  8
レイヤー 1
 62
   250
420
  2299925
370
    25
100
AcDbLine
 10
93.77889940751298
 20
-146.0137175678303
 30
0.0
 11
94.28982641093748
 21
-146.399922321072
 31
0.0
  0
LINE
  5
A3
330
80
100
AcDbEntity
  8
レイヤー 1
 62
   250
420
  2299925
370
    25
100
AcDbLine
 10
94.28982641093748
 20
-146.399922321072
 30
0.0
 11
94.77892601707457
 21
-145.9863181853066
 31
0.0
  0
LINE
  5
A4
330
80
100
AcDbEntity
  8
レイヤー 1
 62
   250
420
  2299925
370
    25
100
AcDbLine
 10
94.77892601707457
 20
-145.9863181853066
 30
0.0
 11
95.28981526680119
 21
-146.3725226330828
 31
0.0
  0
LINE
  5
A5
330
80
100
AcDbEntity
  8
レイヤー 1
 62
   250
420
  2299925
370
    25
100
AcDbLine
 10
95.28981526680119
 20
-146.3725226330828
 30
0.0
 11
95.77824966300219
 21
-145.958595604706
 31
0.0
  0
LINE
  5
A6
330
80
100
AcDbEntity
  8
レイヤー 1
 62
   250
420
  2299925
370
    25
100
AcDbLine
 10
95.77824966300219
 20
-145.958595604706
 30
0.0
 11
96.2891767169191
 21
-146.344800358356
 31
0.0
  0
LINE
  5
A7
330
80
100
AcDbEntity
  8
レイヤー 1
 62
   250
420
  2299925
370
    25
100
AcDbLine
 10
96.2891767169191
 20
-146.344800358356
 30
0.0
 11
96.77827627256313
 21
-145.9311962221822
 31
0.0
  0
LINE
  5
A8
330
80
100
AcDbEntity
  8
レイヤー 1
 62
   250
420
  2299925
370
    25
100
AcDbLine
 10
96.77827627256313
 20
-145.9311962221822
 30
0.0
 11
97.28920620597037
 21
-146.3170482098056
 31
0.0
  0
LINE
  5
A9
330
80
100
AcDbEntity
  8
レイヤー 1
 62
   250
420
  2299925
370
    25
100
AcDbLine
 10
97.28920620597037
 20
-146.3170482098056
 30
0.0
 11
97.77763804561416
 21
-145.9034386711358
 31
0.0
  0
LINE
  5
AA
330
80
100
AcDbEntity
  8
レイヤー 1
 62
   250
420
  2299925
370
    25
100
AcDbLine
 10
97.77763804561416
 20
-145.9034386711358
 30
0.0
 11
98.2885298771357
 21
-146.2893256294093
 31
0.0
  0
LINE
  5
AB
330
80
100
AcDbEntity
  8
レイヤー 1
 62
   250
420
  2299925
370
    25
100
AcDbLine
 10
98.2885298771357
 20
-146.2893256294093
 30
0.0
 11
98.77762938228572
 21
-145.8757214928265
 31
0.0
  0
LINE
  5
AC
330
80
100
AcDbEntity
  8
レイヤー 1
 62
   250
420
  2299925
370
    25
100
AcDbLine
 10
98.78111258355017
 20
-145.8757496754031
 30
0.0
 11
99.29200468751146
 21
-146.2616013569483
 31
0.0
  0
LINE
  5
AD
330
80
100
AcDbEntity
  8
レイヤー 1
 62
   250
420
  2299925
370
    25
100
AcDbLine
 10
99.29200468751146
 20
-146.2616013569483
 30
0.0
 11
99.78043651490136
 21
-145.8479918181791
 31
0.0
  0
LINE
  5
AE
330
80
100
AcDbEntity
  8
レイヤー 1
 62
   250
420
  2299925
370
    25
100
AcDbLine
 10
99.78043651490136
 20
-145.8479918181791
 30
0.0
 11
100.2913635183255
 21
-146.2341965714213
 31
0.0
  0
LINE
  5
AF
330
80
100
AcDbEntity
  8
レイヤー 1
 62
   250
420
  2299925
370
    25
100
AcDbLine
 10
100.2913635183255
 20
-146.2341965714213
 30
0.0
 11
100.780463124462
 21
-145.8205924356557
 31
0.0
  0
LINE
  5
B0
330
80
100
AcDbEntity
  8
レイヤー 1
 62
   250
420
  2299925
370
    25
100
AcDbLine
 10
100.780463124462
 20
-145.8205924356557
 30
0.0
 11
101.2913523741886
 21
-146.2067968834322
 31
0.0
  0
LINE
  5
B1
330
80
100
AcDbEntity
  8
レイヤー 1
 62
   250
420
  2299925
370
    25
100
AcDbLine
 10
101.2913523741886
 20
-146.2067968834322
 30
0.0
 11
101.7797867703899
 21
-145.7928698550553
 31
0.0
  0
LINE
  5
B2
330
80
100
AcDbEntity
  8
レイヤー 1
 62
   250
420
  2299925
370
    25
100
AcDbLine
 10
101.7797867703899
 20
-145.7928698550553
 30
0.0
 11
102.2907138243078
 21
-146.1790746087051
 31
0.0
  0
LINE
  5
B3
330
80
100
AcDbEntity
  8
レイヤー 1
 62
   250
420
  2299925
370
    25
100
AcDbLine
 10
102.2907138243078
 20
-146.1790746087051
 30
0.0
 11
102.7798133799505
 21
-145.7654704725316
 31
0.0
  0
LINE
  5
B4
330
80
100
AcDbEntity
  8
レイヤー 1
 62
   250
420
  2299925
370
    25
100
AcDbLine
 10
102.7798133799505
 20
-145.7654704725316
 30
0.0
 11
103.2907433133581
 21
-146.1513224601547
 31
0.0
  0
LINE
  5
B5
330
80
100
AcDbEntity
  8
レイヤー 1
 62
   250
420
  2299925
370
    25
100
AcDbLine
 10
103.2907433133581
 20
-146.1513224601547
 30
0.0
 11
103.7791751530015
 21
-145.7377129214856
 31
0.0
  0
LINE
  5
B6
330
80
100
AcDbEntity
  8
レイヤー 1
 62
   250
420
  2299925
370
    25
100
AcDbLine
 10
103.7791751530015
 20
-145.7377129214856
 30
0.0
 11
104.290066984524
 21
-146.1235998797587
 31
0.0
  0
LINE
  5
B7
330
80
100
AcDbEntity
  8
レイヤー 1
 62
   250
420
  2299925
370
    25
100
AcDbLine
 10
104.290066984524
 20
-146.1235998797587
 30
0.0
 11
104.7791664896738
 21
-145.7099957431759
 31
0.0
  0
ENDBLK
  5
83
330
80
100
AcDbEntity
  8
0
100
AcDbBlockEnd
  0
BLOCK
  5
CA
330
C8
100
AcDbEntity
  8
0
100
AcDbBlockBegin
  2
Block_2
 70
     0
 10
0.0
 20
0.0
 30
0.0
  3
Block_2
  1

  0
INSERT
  5
CD
330
C8
100
AcDbEntity
  8
レイヤー 1
100
AcDbBlockReference
  2
Block_3
 10
0.0
 20
0.0
 30
0.0
  0
ENDBLK
  5
CB
330
C8
100
AcDbEntity
  8
0
100
AcDbBlockEnd
  0
BLOCK
  5
CE
330
CC
100
AcDbEntity
  8
0
100
AcDbBlockBegin
  2
Block_3
 70
     0
 10
0.0
 20
0.0
 30
0.0
  3
Block_3
  1

  0
SPLINE
  5
D0
330
CC
100
AcDbEntity
  8
レイヤー 1
100
AcDbSpline
210
0.0
220
0.0
230
1.0
 70
     9
 71
     3
 72
    17
 73
    13
 74
     0
 42
0.0000000001
 43
0.0000000001
 40
0.0
 40
0.0
 40
0.0
 40
0.0
 40
1.0
 40
1.0
 40
1.0
 40
2.0
 40
2.0
 40
2.0
 40
3.0
 40
3.0
 40
3.0
 40
4.0
 40
4.0
 40
4.0
 40
4.0
 10
71.94031166821284
 20
-147.5420708181492
 30
0.0
 10
71.94031166821284
 20
-147.7918402408298
 30
0.0
 10
72.22367077187463
 20
-147.8383490298807
 30
0.0
 10
72.56852482994815
 20
-147.8383490298807
 30
0.0
 10
72.88805743620507
 20
-147.8383490298807
 30
0.0
 10
73.19691024645772
 20
-147.8021755272856
 30
0.0
 10
73.19691024645772
 20
-147.5420708181492
 30
0.0
 10
73.19691024645772
 20
-147.2943684527597
 30
0.0
 10
72.91544594531281
 20
-147.2457926064177
 30
0.0
 10
72.56852482994815
 20
-147.2457926064177
 30
0.0
 10
72.24916447846549
 20
-147.2457926064177
 30
0.0
 10
71.94031166821284
 20
-147.284033166304
 30
0.0
 10
71.94031166821284
 20
-147.5420708181492
 30
0.0
  0
SPLINE
  5
D1
330
CC
100
AcDbEntity
  8
レイヤー 1
100
AcDbSpline
210
0.0
220
0.0
230
1.0
 70
     9
 71
     3
 72
    29
 73
    25
 74
     0
 42
0.0000000001
 43
0.0000000001
 40
0.0
 40
0.0
 40
0.0
 40
0.0
 40
1.0
 40
1.0
 40
1.0
 40
2.0
 40
2.0
 40
2.0
 40
3.0
 40
3.0
 40
3.0
 40
4.0
 40
4.0
 40
4.0
 40
5.0
 40
5.0
 40
5.0
 40
6.0
 40
6.0
 40
6.0
 40
7.0
 40
7.0
 40
7.0
 40
8.0
 40
8.0
 40
8.0
 40
8.0
 10
73.16297605592801
 20
-147.1441622896028
 30
0.0
 10
73.37243786143119
 20
-147.2523382878397
 30
0.0
 10
73.39155814137433
 20
-147.4256265907477
 30
0.0
 10
73.39155814137433
 20
-147.5420708181492
 30
0.0
 10
73.39155814137433
 20
-147.7029567773104
 30
0.0
 10
73.34504935232345
 20
-147.8445502017541
 30
0.0
 10
73.16297605592801
 20
-147.939634837147
 30
0.0
 10
72.96850041578565
 20
-148.043332211253
 30
0.0
 10
72.73147784640046
 20
-148.0626247459704
 30
0.0
 10
72.56852482994815
 20
-148.0626247459704
 30
0.0
 10
72.42469209343896
 20
-148.0626247459704
 30
0.0
 10
72.17302786824146
 20
-148.0453992685442
 30
0.0
 10
71.97407360396829
 20
-147.939634837147
 30
0.0
 10
71.77098522511281
 20
-147.8318033484587
 30
0.0
 10
71.74773083058737
 20
-147.6709173892975
 30
0.0
 10
71.74773083058737
 20
-147.5420708181492
 30
0.0
 10
71.74773083058737
 20
-147.3832519162792
 30
0.0
 10
71.79217256234711
 20
-147.2395914345443
 30
0.0
 10
71.97407360396829
 20
-147.1441622896028
 30
0.0
 10
72.16665444159374
 20
-147.0449435396276
 30
0.0
 10
72.39506427226583
 20
-147.021516890328
 30
0.0
 10
72.56852482994815
 20
-147.021516890328
 30
0.0
 10
72.73991833033933
 20
-147.021516890328
 30
0.0
 10
72.97056747307681
 20
-147.0428764823365
 30
0.0
 10
73.16297605592801
 20
-147.1441622896028
 30
0.0
  0
HATCH
  5
D2
330
CC
100
AcDbEntity
  8
レイヤー 1
 62
   250
420
  2299925
440
 33554687
100
AcDbHatch
 10
0.0
 20
0.0
 30
0.0
210
0.0
220
0.0
230
1.0
  2
SOLID
 70
     1
 71
     1
 91
        2
 92
        1
 93
        1
 72
     4
 94
        3
 73
     0
 74
     0
 95
       17
 96
       13
 40
0.0
 40
0.0
 40
0.0
 40
0.0
 40
1.0
 40
1.0
 40
1.0
 40
2.0
 40
2.0
 40
2.0
 40
3.0
 40
3.0
 40
3.0
 40
4.0
 40
4.0
 40
4.0
 40
4.0
 10
71.94031166821284
 20
-147.5420708181492
 10
71.94031166821284
 20
-147.7918402408298
 10
72.22367077187463
 20
-147.8383490298807
 10
72.56852482994815
 20
-147.8383490298807
 10
72.88805743620507
 20
-147.8383490298807
 10
73.19691024645772
 20
-147.8021755272856
 10
73.19691024645772
 20
-147.5420708181492
 10
73.19691024645772
 20
-147.2943684527597
 10
72.91544594531281
 20
-147.2457926064177
 10
72.56852482994815
 20
-147.2457926064177
 10
72.24916447846549
 20
-147.2457926064177
 10
71.94031166821284
 20
-147.284033166304
 10
71.94031166821284
 20
-147.5420708181492
 97
        0
 97
        1
330
D0
 92
        1
 93
        1
 72
     4
 94
        3
 73
     0
 74
     0
 95
       29
 96
       25
 40
0.0
 40
0.0
 40
0.0
 40
0.0
 40
1.0
 40
1.0
 40
1.0
 40
2.0
 40
2.0
 40
2.0
 40
3.0
 40
3.0
 40
3.0
 40
4.0
 40
4.0
 40
4.0
 40
5.0
 40
5.0
 40
5.0
 40
6.0
 40
6.0
 40
6.0
 40
7.0
 40
7.0
 40
7.0
 40
8.0
 40
8.0
 40
8.0
 40
8.0
 10
73.16297605592801
 20
-147.1441622896028
 10
73.37243786143119
 20
-147.2523382878397
 10
73.39155814137433
 20
-147.4256265907477
 10
73.39155814137433
 20
-147.5420708181492
 10
73.39155814137433
 20
-147.7029567773104
 10
73.34504935232345
 20
-147.8445502017541
 10
73.16297605592801
 20
-147.939634837147
 10
72.96850041578565
 20
-148.043332211253
 10
72.73147784640046
 20
-148.0626247459704
 10
72.56852482994815
 20
-148.0626247459704
 10
72.42469209343896
 20
-148.0626247459704
 10
72.17302786824146
 20
-148.0453992685442
 10
71.97407360396829
 20
-147.939634837147
 10
71.77098522511281
 20
-147.8318033484587
 10
71.74773083058737
 20
-147.6709173892975
 10
71.74773083058737
 20
-147.5420708181492
 10
71.74773083058737
 20
-147.3832519162792
 10
71.79217256234711
 20
-147.2395914345443
 10
71.97407360396829
 20
-147.1441622896028
 10
72.16665444159374
 20
-147.0449435396276
 10
72.39506427226583
 20
-147.021516890328
 10
72.56852482994815
 20
-147.021516890328
 10
72.73991833033933
 20
-147.021516890328
 10
72.97056747307681
 20
-147.0428764823365
 10
73.16297605592801
 20
-147.1441622896028
 97
        0
 97
        1
330
D1
 75
     2
 76
     1
 98
        1
 10
0.0
 20
0.0
450
        0
451
        0
460
0.0
461
0.0
452
        0
462
0.0
453
        0
470

  0
SPLINE
  5
D3
330
CC
100
AcDbEntity
  8
レイヤー 1
100
AcDbSpline
210
0.0
220
0.0
230
1.0
 70
    11
 71
     3
 72
    17
 73
    13
 74
     0
 42
0.0000000001
 43
0.0000000001
 40
0.0
 40
0.0
 40
0.0
 40
0.0
 40
1.0
 40
1.0
 40
1.0
 40
2.0
 40
2.0
 40
2.0
 40
3.0
 40
3.0
 40
3.0
 40
4.0
 40
4.0
 40
4.0
 40
4.0
 10
73.3407429829669
 20
-146.8051648938543
 30
0.0
 10
73.3407429829669
 20
-146.8051648938543
 30
0.0
 10
73.0890787577694
 20
-146.8051648938543
 30
0.0
 10
73.0890787577694
 20
-146.8051648938543
 30
0.0
 10
73.0890787577694
 20
-146.8051648938543
 30
0.0
 10
73.0890787577694
 20
-146.5533284138825
 30
0.0
 10
73.0890787577694
 20
-146.5533284138825
 30
0.0
 10
73.0890787577694
 20
-146.5533284138825
 30
0.0
 10
73.3407429829669
 20
-146.5533284138825
 30
0.0
 10
73.3407429829669
 20
-146.5533284138825
 30
0.0
 10
73.3407429829669
 20
-146.5533284138825
 30
0.0
 10
73.3407429829669
 20
-146.8051648938543
 30
0.0
 10
73.3407429829669
 20
-146.8051648938543
 30
0.0
  0
HATCH
  5
D4
330
CC
100
AcDbEntity
  8
レイヤー 1
 62
   250
420
  2299925
440
 33554687
100
AcDbHatch
 10
0.0
 20
0.0
 30
0.0
210
0.0
220
0.0
230
1.0
  2
SOLID
 70
     1
 71
     1
 91
        1
 92
        1
 93
        1
 72
     4
 94
        3
 73
     0
 74
     0
 95
       17
 96
       13
 40
0.0
 40
0.0
 40
0.0
 40
0.0
 40
1.0
 40
1.0
 40
1.0
 40
2.0
 40
2.0
 40
2.0
 40
3.0
 40
3.0
 40
3.0
 40
4.0
 40
4.0
 40
4.0
 40
4.0
 10
73.3407429829669
 20
-146.8051648938543
 10
73.3407429829669
 20
-146.8051648938543
 10
73.0890787577694
 20
-146.8051648938543
 10
73.0890787577694
 20
-146.8051648938543
 10
73.0890787577694
 20
-146.8051648938543
 10
73.0890787577694
 20
-146.5533284138825
 10
73.0890787577694
 20
-146.5533284138825
 10
73.0890787577694
 20
-146.5533284138825
 10
73.3407429829669
 20
-146.5533284138825
 10
73.3407429829669
 20
-146.5533284138825
 10
73.3407429829669
 20
-146.5533284138825
 10
73.3407429829669
 20
-146.8051648938543
 10
73.3407429829669
 20
-146.8051648938543
 97
        0
 97
        1
330
D3
 75
     2
 76
     1
 98
        1
 10
0.0
 20
0.0
450
        0
451
        0
460
0.0
461
0.0
452
        0
462
0.0
453
        0
470

  0
SPLINE
  5
D5
330
CC
100
AcDbEntity
  8
レイヤー 1
100
AcDbSpline
210
0.0
220
0.0
230
1.0
 70
     9
 71
     3
 72
    53
 73
    49
 74
     0
 42
0.0000000001
 43
0.0000000001
 40
0.0
 40
0.0
 40
0.0
 40
0.0
 40
1.0
 40
1.0
 40
1.0
 40
2.0
 40
2.0
 40
2.0
 40
3.0
 40
3.0
 40
3.0
 40
4.0
 40
4.0
 40
4.0
 40
5.0
 40
5.0
 40
5.0
 40
6.0
 40
6.0
 40
6.0
 40
7.0
 40
7.0
 40
7.0
 40
8.0
 40
8.0
 40
8.0
 40
9.0
 40
9.0
 40
9.0
 40
10.0
 40
10.0
 40
10.0
 40
11.0
 40
11.0
 40
11.0
 40
12.0
 40
12.0
 40
12.0
 40
13.0
 40
13.0
 40
13.0
 40
14.0
 40
14.0
 40
14.0
 40
15.0
 40
15.0
 40
15.0
 40
16.0
 40
16.0
 40
16.0
 40
16.0
 10
73.39155814137433
 20
-145.8360595338535
 30
0.0
 10
73.39155814137433
 20
-145.9142632013686
 30
0.0
 10
73.3746771734966
 20
-146.0158935181835
 30
0.0
 10
73.31111516179375
 20
-146.1175238349984
 30
0.0
 10
73.20104436104002
 20
-146.2908121379064
 30
0.0
 10
73.06995847782626
 20
-146.312171729915
 30
0.0
 10
72.96212698913794
 20
-146.3311197550839
 30
0.0
 10
72.96212698913794
 20
-146.3311197550839
 30
0.0
 10
72.96212698913794
 20
-146.1089110962852
 30
0.0
 10
72.96212698913794
 20
-146.1089110962852
 30
0.0
 10
73.16090899863685
 20
-146.0541340780698
 30
0.0
 10
73.19053681981
 20
-145.9270100546641
 30
0.0
 10
73.19053681981
 20
-145.8339924765623
 30
0.0
 10
73.19053681981
 20
-145.6944661094097
 30
0.0
 10
73.09114581506055
 20
-145.5421928889617
 30
0.0
 10
72.85842961503192
 20
-145.5421928889617
 30
0.0
 10
72.60245902047786
 20
-145.5421928889617
 30
0.0
 10
72.53269583690155
 20
-145.7220268732917
 30
0.0
 10
72.53269583690155
 20
-145.8426052152754
 30
0.0
 10
72.53269583690155
 20
-145.8743000937398
 30
0.0
 10
72.53269583690155
 20
-146.0158935181835
 30
0.0
 10
72.66171466282415
 20
-146.1047769817029
 30
0.0
 10
72.66171466282415
 20
-146.1047769817029
 30
0.0
 10
72.64259438288101
 20
-146.2804768514507
 30
0.0
 10
72.64259438288101
 20
-146.2804768514507
 30
0.0
 10
72.64259438288101
 20
-146.2804768514507
 30
0.0
 10
71.79647893170366
 20
-146.159898509467
 30
0.0
 10
71.79647893170366
 20
-146.159898509467
 30
0.0
 10
71.79647893170366
 20
-146.159898509467
 30
0.0
 10
71.79647893170366
 20
-145.3813069298005
 30
0.0
 10
71.79647893170366
 20
-145.3813069298005
 30
0.0
 10
71.79647893170366
 20
-145.3813069298005
 30
0.0
 10
71.99112682662027
 20
-145.3813069298005
 30
0.0
 10
71.99112682662027
 20
-145.3813069298005
 30
0.0
 10
71.99112682662027
 20
-145.3813069298005
 30
0.0
 10
71.99112682662027
 20
-145.9969454930146
 30
0.0
 10
71.99112682662027
 20
-145.9969454930146
 30
0.0
 10
71.99112682662027
 20
-145.9969454930146
 30
0.0
 10
72.41418455220895
 20
-146.0624023072344
 30
0.0
 10
72.41418455220895
 20
-146.0624023072344
 30
0.0
 10
72.38025036167925
 20
-146.0010796075969
 30
0.0
 10
72.34011499927608
 20
-145.9187418254995
 30
0.0
 10
72.34011499927608
 20
-145.8002305408069
 30
0.0
 10
72.34011499927608
 20
-145.546327003544
 30
0.0
 10
72.52632241025384
 20
-145.3093044341588
 30
0.0
 10
72.83930933508878
 20
-145.3093044341588
 30
0.0
 10
73.15677488405455
 20
-145.3093044341588
 30
0.0
 10
73.39155814137433
 20
-145.5335801502485
 30
0.0
 10
73.39155814137433
 20
-145.8360595338535
 30
0.0
  0
HATCH
  5
D6
330
CC
100
AcDbEntity
  8
レイヤー 1
 62
   250
420
  2299925
440
 33554687
100
AcDbHatch
 10
0.0
 20
0.0
 30
0.0
210
0.0
220
0.0
230
1.0
  2
SOLID
 70
     1
 71
     1
 91
        1
 92
        1
 93
        1
 72
     4
 94
        3
 73
     0
 74
     0
 95
       53
 96
       49
 40
0.0
 40
0.0
 40
0.0
 40
0.0
 40
1.0
 40
1.0
 40
1.0
 40
2.0
 40
2.0
 40
2.0
 40
3.0
 40
3.0
 40
3.0
 40
4.0
 40
4.0
 40
4.0
 40
5.0
 40
5.0
 40
5.0
 40
6.0
 40
6.0
 40
6.0
 40
7.0
 40
7.0
 40
7.0
 40
8.0
 40
8.0
 40
8.0
 40
9.0
 40
9.0
 40
9.0
 40
10.0
 40
10.0
 40
10.0
 40
11.0
 40
11.0
 40
11.0
 40
12.0
 40
12.0
 40
12.0
 40
13.0
 40
13.0
 40
13.0
 40
14.0
 40
14.0
 40
14.0
 40
15.0
 40
15.0
 40
15.0
 40
16.0
 40
16.0
 40
16.0
 40
16.0
 10
73.39155814137433
 20
-145.8360595338535
 10
73.39155814137433
 20
-145.9142632013686
 10
73.3746771734966
 20
-146.0158935181835
 10
73.31111516179375
 20
-146.1175238349984
 10
73.20104436104002
 20
-146.2908121379064
 10
73.06995847782626
 20
-146.312171729915
 10
72.96212698913794
 20
-146.3311197550839
 10
72.96212698913794
 20
-146.3311197550839
 10
72.96212698913794
 20
-146.1089110962852
 10
72.96212698913794
 20
-146.1089110962852
 10
73.16090899863685
 20
-146.0541340780698
 10
73.19053681981
 20
-145.9270100546641
 10
73.19053681981
 20
-145.8339924765623
 10
73.19053681981
 20
-145.6944661094097
 10
73.09114581506055
 20
-145.5421928889617
 10
72.85842961503192
 20
-145.5421928889617
 10
72.60245902047786
 20
-145.5421928889617
 10
72.53269583690155
 20
-145.7220268732917
 10
72.53269583690155
 20
-145.8426052152754
 10
72.53269583690155
 20
-145.8743000937398
 10
72.53269583690155
 20
-146.0158935181835
 10
72.66171466282415
 20
-146.1047769817029
 10
72.66171466282415
 20
-146.1047769817029
 10
72.64259438288101
 20
-146.2804768514507
 10
72.64259438288101
 20
-146.2804768514507
 10
72.64259438288101
 20
-146.2804768514507
 10
71.79647893170366
 20
-146.159898509467
 10
71.79647893170366
 20
-146.159898509467
 10
71.79647893170366
 20
-146.159898509467
 10
71.79647893170366
 20
-145.3813069298005
 10
71.79647893170366
 20
-145.3813069298005
 10
71.79647893170366
 20
-145.3813069298005
 10
71.99112682662027
 20
-145.3813069298005
 10
71.99112682662027
 20
-145.3813069298005
 10
71.99112682662027
 20
-145.3813069298005
 10
71.99112682662027
 20
-145.9969454930146
 10
71.99112682662027
 20
-145.9969454930146
 10
71.99112682662027
 20
-145.9969454930146
 10
72.41418455220895
 20
-146.0624023072344
 10
72.41418455220895
 20
-146.0624023072344
 10
72.38025036167925
 20
-146.0010796075969
 10
72.34011499927608
 20
-145.9187418254995
 10
72.34011499927608
 20
-145.8002305408069
 10
72.34011499927608
 20
-145.546327003544
 10
72.52632241025384
 20
-145.3093044341588
 10
72.83930933508878
 20
-145.3093044341588
 10
73.15677488405455
 20
-145.3093044341588
 10
73.39155814137433
 20
-145.5335801502485
 10
73.39155814137433
 20
-145.8360595338535
 97
        0
 97
        1
330
D5
 75
     2
 76
     1
 98
        1
 10
0.0
 20
0.0
450
        0
451
        0
460
0.0
461
0.0
452
        0
462
0.0
453
        0
470

  0
ENDBLK
  5
CF
330
CC
100
AcDbEntity
  8
0
100
AcDbBlockEnd
  0
BLOCK
  5
DB
330
D9
100
AcDbEntity
  8
0
100
AcDbBlockBegin
  2
Block_4
 70
     0
 10
0.0
 20
0.0
 30
0.0
  3
Block_4
  1

  0
INSERT
  5
DE
330
D9
100
AcDbEntity
  8
レイヤー 1
100
AcDbBlockReference
  2
Block_5
 10
0.0
 20
0.0
 30
0.0
  0
ENDBLK
  5
DC
330
D9
100
AcDbEntity
  8
0
100
AcDbBlockEnd
  0
BLOCK
  5
DF
330
DD
100
AcDbEntity
  8
0
100
AcDbBlockBegin
  2
Block_5
 70
     0
 10
0.0
 20
0.0
 30
0.0
  3
Block_5
  1

  0
SPLINE
  5
E1
330
DD
100
AcDbEntity
  8
レイヤー 1
100
AcDbSpline
210
0.0
220
0.0
230
1.0
 70
     9
 71
     3
 72
    44
 73
    40
 74
     0
 42
0.0000000001
 43
0.0000000001
 40
0.0
 40
0.0
 40
0.0
 40
0.0
 40
1.0
 40
1.0
 40
1.0
 40
2.0
 40
2.0
 40
2.0
 40
3.0
 40
3.0
 40
3.0
 40
4.0
 40
4.0
 40
4.0
 40
5.0
 40
5.0
 40
5.0
 40
6.0
 40
6.0
 40
6.0
 40
7.0
 40
7.0
 40
7.0
 40
8.0
 40
8.0
 40
8.0
 40
9.0
 40
9.0
 40
9.0
 40
10.0
 40
10.0
 40
10.0
 40
11.0
 40
11.0
 40
11.0
 40
12.0
 40
12.0
 40
12.0
 40
13.0
 40
13.0
 40
13.0
 40
13.0
 10
91.78940156125404
 20
-140.3724826037958
 30
0.0
 10
91.57149927181199
 20
-140.5311292508915
 30
0.0
 10
91.47830943893598
 20
-140.6051988038244
 30
0.0
 10
91.42973359259396
 20
-140.7490315403336
 30
0.0
 10
91.42973359259396
 20
-140.7490315403336
 30
0.0
 10
92.20815291748616
 20
-140.7490315403336
 30
0.0
 10
92.20815291748616
 20
-140.7490315403336
 30
0.0
 10
92.20815291748616
 20
-140.7490315403336
 30
0.0
 10
92.20815291748616
 20
-140.9541869764802
 30
0.0
 10
92.20815291748616
 20
-140.9541869764802
 30
0.0
 10
92.20815291748616
 20
-140.9541869764802
 30
0.0
 10
91.1801364246876
 20
-140.9541869764802
 30
0.0
 10
91.1801364246876
 20
-140.9541869764802
 30
0.0
 10
91.21183130315191
 20
-140.5965860651112
 30
0.0
 10
91.27728811737165
 20
-140.5183823975961
 30
0.0
 10
91.66244979262257
 20
-140.2200371285734
 30
0.0
 10
91.91842038717664
 20
-140.0212551190745
 30
0.0
 10
91.9838772013964
 20
-139.9535589927894
 30
0.0
 10
91.9838772013964
 20
-139.8160996829279
 30
0.0
 10
91.9838772013964
 20
-139.6975883982353
 30
0.0
 10
91.91204696052894
 20
-139.5663302602473
 30
0.0
 10
91.71533200832117
 20
-139.5663302602473
 30
0.0
 10
91.45505504441054
 20
-139.5663302602473
 30
0.0
 10
91.44661456047169
 20
-139.7969794029848
 30
0.0
 10
91.44230819111511
 20
-139.9134236303862
 30
0.0
 10
91.44230819111511
 20
-139.9134236303862
 30
0.0
 10
91.21820472979962
 20
-139.9134236303862
 30
0.0
 10
91.21820472979962
 20
-139.9134236303862
 30
0.0
 10
91.22664521373847
 20
-139.7864718617548
 30
0.0
 10
91.23715275496849
 20
-139.6743340037099
 30
0.0
 10
91.31759573454907
 20
-139.5558227190173
 30
0.0
 10
91.42749428052855
 20
-139.3951090146304
 30
0.0
 10
91.61370169150631
 20
-139.3611748241007
 30
0.0
 10
91.73014591890774
 20
-139.3611748241007
 30
0.0
 10
92.0073038506961
 20
-139.3611748241007
 30
0.0
 10
92.21452634413386
 20
-139.5453151777873
 30
0.0
 10
92.21452634413386
 20
-139.8181667402191
 30
0.0
 10
92.21452634413386
 20
-140.0465765708911
 30
0.0
 10
92.09825437150668
 20
-140.1461398304148
 30
0.0
 10
91.78940156125404
 20
-140.3724826037958
 30
0.0
  0
HATCH
  5
E2
330
DD
100
AcDbEntity
  8
レイヤー 1
 62
   250
420
  2299925
440
 33554687
100
AcDbHatch
 10
0.0
 20
0.0
 30
0.0
210
0.0
220
0.0
230
1.0
  2
SOLID
 70
     1
 71
     1
 91
        1
 92
        1
 93
        1
 72
     4
 94
        3
 73
     0
 74
     0
 95
       44
 96
       40
 40
0.0
 40
0.0
 40
0.0
 40
0.0
 40
1.0
 40
1.0
 40
1.0
 40
2.0
 40
2.0
 40
2.0
 40
3.0
 40
3.0
 40
3.0
 40
4.0
 40
4.0
 40
4.0
 40
5.0
 40
5.0
 40
5.0
 40
6.0
 40
6.0
 40
6.0
 40
7.0
 40
7.0
 40
7.0
 40
8.0
 40
8.0
 40
8.0
 40
9.0
 40
9.0
 40
9.0
 40
10.0
 40
10.0
 40
10.0
 40
11.0
 40
11.0
 40
11.0
 40
12.0
 40
12.0
 40
12.0
 40
13.0
 40
13.0
 40
13.0
 40
13.0
 10
91.78940156125404
 20
-140.3724826037958
 10
91.57149927181199
 20
-140.5311292508915
 10
91.47830943893598
 20
-140.6051988038244
 10
91.42973359259396
 20
-140.7490315403336
 10
91.42973359259396
 20
-140.7490315403336
 10
92.20815291748616
 20
-140.7490315403336
 10
92.20815291748616
 20
-140.7490315403336
 10
92.20815291748616
 20
-140.7490315403336
 10
92.20815291748616
 20
-140.9541869764802
 10
92.20815291748616
 20
-140.9541869764802
 10
92.20815291748616
 20
-140.9541869764802
 10
91.1801364246876
 20
-140.9541869764802
 10
91.1801364246876
 20
-140.9541869764802
 10
91.21183130315191
 20
-140.5965860651112
 10
91.27728811737165
 20
-140.5183823975961
 10
91.66244979262257
 20
-140.2200371285734
 10
91.91842038717664
 20
-140.0212551190745
 10
91.9838772013964
 20
-139.9535589927894
 10
91.9838772013964
 20
-139.8160996829279
 10
91.9838772013964
 20
-139.6975883982353
 10
91.91204696052894
 20
-139.5663302602473
 10
91.71533200832117
 20
-139.5663302602473
 10
91.45505504441054
 20
-139.5663302602473
 10
91.44661456047169
 20
-139.7969794029848
 10
91.44230819111511
 20
-139.9134236303862
 10
91.44230819111511
 20
-139.9134236303862
 10
91.21820472979962
 20
-139.9134236303862
 10
91.21820472979962
 20
-139.9134236303862
 10
91.22664521373847
 20
-139.7864718617548
 10
91.23715275496849
 20
-139.6743340037099
 10
91.31759573454907
 20
-139.5558227190173
 10
91.42749428052855
 20
-139.3951090146304
 10
91.61370169150631
 20
-139.3611748241007
 10
91.73014591890774
 20
-139.3611748241007
 10
92.0073038506961
 20
-139.3611748241007
 10
92.21452634413386
 20
-139.5453151777873
 10
92.21452634413386
 20
-139.8181667402191
 10
92.21452634413386
 20
-140.0465765708911
 10
92.09825437150668
 20
-140.1461398304148
 10
91.78940156125404
 20
-140.3724826037958
 97
        0
 97
        1
330
E1
 75
     2
 76
     1
 98
        1
 10
0.0
 20
0.0
450
        0
451
        0
460
0.0
461
0.0
452
        0
462
0.0
453
        0
470

  0
SPLINE
  5
E3
330
DD
100
AcDbEntity
  8
レイヤー 1
100
AcDbSpline
210
0.0
220
0.0
230
1.0
 70
     9
 71
     3
 72
    26
 73
    22
 74
     0
 42
0.0000000001
 43
0.0000000001
 40
0.0
 40
0.0
 40
0.0
 40
0.0
 40
1.0
 40
1.0
 40
1.0
 40
2.0
 40
2.0
 40
2.0
 40
3.0
 40
3.0
 40
3.0
 40
4.0
 40
4.0
 40
4.0
 40
5.0
 40
5.0
 40
5.0
 40
6.0
 40
6.0
 40
6.0
 40
7.0
 40
7.0
 40
7.0
 40
7.0
 10
92.78417288261993
 20
-140.9541869764802
 30
0.0
 10
92.78417288261993
 20
-140.9541869764802
 30
0.0
 10
92.54732256800901
 20
-140.9541869764802
 30
0.0
 10
92.54732256800901
 20
-140.9541869764802
 30
0.0
 10
92.57264401982558
 20
-140.6453341662276
 30
0.0
 10
92.76522485745106
 20
-140.1270195504717
 30
0.0
 10
93.17140161516201
 20
-139.6214517880113
 30
0.0
 10
93.17140161516201
 20
-139.6214517880113
 30
0.0
 10
92.33355439314925
 20
-139.6214517880113
 30
0.0
 10
92.33355439314925
 20
-139.6214517880113
 30
0.0
 10
92.33355439314925
 20
-139.6214517880113
 30
0.0
 10
92.33355439314925
 20
-139.4099229252169
 30
0.0
 10
92.33355439314925
 20
-139.4099229252169
 30
0.0
 10
92.33355439314925
 20
-139.4099229252169
 30
0.0
 10
93.40825192977295
 20
-139.4099229252169
 30
0.0
 10
93.40825192977295
 20
-139.4099229252169
 30
0.0
 10
93.40825192977295
 20
-139.4099229252169
 30
0.0
 10
93.40825192977295
 20
-139.6214517880113
 30
0.0
 10
93.40825192977295
 20
-139.6214517880113
 30
0.0
 10
93.08458520893372
 20
-139.9111843183208
 30
0.0
 10
92.81810707314965
 20
-140.5035684870095
 30
0.0
 10
92.78417288261993
 20
-140.9541869764802
 30
0.0
  0
HATCH
  5
E4
330
DD
100
AcDbEntity
  8
レイヤー 1
 62
   250
420
  2299925
440
 33554687
100
AcDbHatch
 10
0.0
 20
0.0
 30
0.0
210
0.0
220
0.0
230
1.0
  2
SOLID
 70
     1
 71
     1
 91
        1
 92
        1
 93
        1
 72
     4
 94
        3
 73
     0
 74
     0
 95
       26
 96
       22
 40
0.0
 40
0.0
 40
0.0
 40
0.0
 40
1.0
 40
1.0
 40
1.0
 40
2.0
 40
2.0
 40
2.0
 40
3.0
 40
3.0
 40
3.0
 40
4.0
 40
4.0
 40
4.0
 40
5.0
 40
5.0
 40
5.0
 40
6.0
 40
6.0
 40
6.0
 40
7.0
 40
7.0
 40
7.0
 40
7.0
 10
92.78417288261993
 20
-140.9541869764802
 10
92.78417288261993
 20
-140.9541869764802
 10
92.54732256800901
 20
-140.9541869764802
 10
92.54732256800901
 20
-140.9541869764802
 10
92.57264401982558
 20
-140.6453341662276
 10
92.76522485745106
 20
-140.1270195504717
 10
93.17140161516201
 20
-139.6214517880113
 10
93.17140161516201
 20
-139.6214517880113
 10
92.33355439314925
 20
-139.6214517880113
 10
92.33355439314925
 20
-139.6214517880113
 10
92.33355439314925
 20
-139.6214517880113
 10
92.33355439314925
 20
-139.4099229252169
 10
92.33355439314925
 20
-139.4099229252169
 10
92.33355439314925
 20
-139.4099229252169
 10
93.40825192977295
 20
-139.4099229252169
 10
93.40825192977295
 20
-139.4099229252169
 10
93.40825192977295
 20
-139.4099229252169
 10
93.40825192977295
 20
-139.6214517880113
 10
93.40825192977295
 20
-139.6214517880113
 10
93.08458520893372
 20
-139.9111843183208
 10
92.81810707314965
 20
-140.5035684870095
 10
92.78417288261993
 20
-140.9541869764802
 97
        0
 97
        1
330
E3
 75
     2
 76
     1
 98
        1
 10
0.0
 20
0.0
450
        0
451
        0
460
0.0
461
0.0
452
        0
462
0.0
453
        0
470

  0
ENDBLK
  5
E0
330
DD
100
AcDbEntity
  8
0
100
AcDbBlockEnd
  0
BLOCK
  5
E9
330
E7
100
AcDbEntity
  8
0
100
AcDbBlockBegin
  2
Block_6
 70
     0
 10
0.0
 20
0.0
 30
0.0
  3
Block_6
  1

  0
SPLINE
  5
EB
330
E7
100
AcDbEntity
  8
レイヤー 1
100
AcDbSpline
210
0.0
220
0.0
230
1.0
 70
     9
 71
     3
 72
    17
 73
    13
 74
     0
 42
0.0000000001
 43
0.0000000001
 40
0.0
 40
0.0
 40
0.0
 40
0.0
 40
1.0
 40
1.0
 40
1.0
 40
2.0
 40
2.0
 40
2.0
 40
3.0
 40
3.0
 40
3.0
 40
4.0
 40
4.0
 40
4.0
 40
4.0
 10
73.26305607977452
 20
-149.9071288687732
 30
0.0
 10
73.26305607977452
 20
-150.1693006352007
 30
0.0
 10
73.47458494256885
 20
-150.207541195087
 30
0.0
 10
73.59085691519604
 20
-150.207541195087
 30
0.0
 10
73.76638453016951
 20
-150.207541195087
 30
0.0
 10
73.92933754662184
 20
-150.1121120501456
 30
0.0
 10
73.92933754662184
 20
-149.9281439512332
 30
0.0
 10
73.92933754662184
 20
-149.8075656092495
 30
0.0
 10
73.87008190427554
 20
-149.6318657395017
 30
0.0
 10
73.58448348854833
 20
-149.6318657395017
 30
0.0
 10
73.36020777245856
 20
-149.6318657395017
 30
0.0
 10
73.26305607977452
 20
-149.7717366162029
 30
0.0
 10
73.26305607977452
 20
-149.9071288687732
 30
0.0
  0
SPLINE
  5
EC
330
E7
100
AcDbEntity
  8
レイヤー 1
100
AcDbSpline
210
0.0
220
0.0
230
1.0
 70
     9
 71
     3
 72
    32
 73
    28
 74
     0
 42
0.0000000001
 43
0.0000000001
 40
0.0
 40
0.0
 40
0.0
 40
0.0
 40
1.0
 40
1.0
 40
1.0
 40
2.0
 40
2.0
 40
2.0
 40
3.0
 40
3.0
 40
3.0
 40
4.0
 40
4.0
 40
4.0
 40
5.0
 40
5.0
 40
5.0
 40
6.0
 40
6.0
 40
6.0
 40
7.0
 40
7.0
 40
7.0
 40
8.0
 40
8.0
 40
8.0
 40
9.0
 40
9.0
 40
9.0
 40
9.0
 10
74.12191838424731
 20
-149.9240098366509
 30
0.0
 10
74.12191838424731
 20
-150.4400851403414
 30
0.0
 10
73.5676025206706
 20
-150.4486978790545
 30
0.0
 10
73.3540066005851
 20
-150.4486978790545
 30
0.0
 10
73.12335745784763
 20
-150.4486978790545
 30
0.0
 10
72.47602401616919
 20
-150.4294053443371
 30
0.0
 10
72.47602401616919
 20
-149.8857692767647
 30
0.0
 10
72.47602401616919
 20
-149.7124809738566
 30
0.0
 10
72.5457871997455
 20
-149.4668456657583
 30
0.0
 10
72.87789440452359
 20
-149.4289496154205
 30
0.0
 10
72.87789440452359
 20
-149.4289496154205
 30
0.0
 10
72.87789440452359
 20
-149.642545535506
 30
0.0
 10
72.87789440452359
 20
-149.642545535506
 30
0.0
 10
72.8208780742427
 20
-149.6532253315103
 30
0.0
 10
72.67273896837696
 20
-149.6849202099746
 30
0.0
 10
72.67273896837696
 20
-149.8878363340558
 30
0.0
 10
72.67273896837696
 20
-150.179980431205
 30
0.0
 10
73.00071205857275
 20
-150.2199435388339
 30
0.0
 10
73.20586749471937
 20
-150.2326903921293
 30
0.0
 10
73.1276638272042
 20
-150.1396728140276
 30
0.0
 10
73.0684081848579
 20
-150.0718044329682
 30
0.0
 10
73.0684081848579
 20
-149.8899033913469
 30
0.0
 10
73.0684081848579
 20
-149.7100694070169
 30
0.0
 10
73.17623967354622
 20
-149.407590023412
 30
0.0
 10
73.58241643125717
 20
-149.407590023412
 30
0.0
 10
73.90177678273983
 20
-149.407590023412
 30
0.0
 10
74.12191838424731
 20
-149.6067165424594
 30
0.0
 10
74.12191838424731
 20
-149.9240098366509
 30
0.0
  0
HATCH
  5
ED
330
E7
100
AcDbEntity
  8
レイヤー 1
 62
   250
420
  2299925
440
 33554687
100
AcDbHatch
 10
0.0
 20
0.0
 30
0.0
210
0.0
220
0.0
230
1.0
  2
SOLID
 70
     1
 71
     1
 91
        2
 92
        1
 93
        1
 72
     4
 94
        3
 73
     0
 74
     0
 95
       17
 96
       13
 40
0.0
 40
0.0
 40
0.0
 40
0.0
 40
1.0
 40
1.0
 40
1.0
 40
2.0
 40
2.0
 40
2.0
 40
3.0
 40
3.0
 40
3.0
 40
4.0
 40
4.0
 40
4.0
 40
4.0
 10
73.26305607977452
 20
-149.9071288687732
 10
73.26305607977452
 20
-150.1693006352007
 10
73.47458494256885
 20
-150.207541195087
 10
73.59085691519604
 20
-150.207541195087
 10
73.76638453016951
 20
-150.207541195087
 10
73.92933754662184
 20
-150.1121120501456
 10
73.92933754662184
 20
-149.9281439512332
 10
73.92933754662184
 20
-149.8075656092495
 10
73.87008190427554
 20
-149.6318657395017
 10
73.58448348854833
 20
-149.6318657395017
 10
73.36020777245856
 20
-149.6318657395017
 10
73.26305607977452
 20
-149.7717366162029
 10
73.26305607977452
 20
-149.9071288687732
 97
        0
 97
        1
330
EB
 92
        1
 93
        1
 72
     4
 94
        3
 73
     0
 74
     0
 95
       32
 96
       28
 40
0.0
 40
0.0
 40
0.0
 40
0.0
 40
1.0
 40
1.0
 40
1.0
 40
2.0
 40
2.0
 40
2.0
 40
3.0
 40
3.0
 40
3.0
 40
4.0
 40
4.0
 40
4.0
 40
5.0
 40
5.0
 40
5.0
 40
6.0
 40
6.0
 40
6.0
 40
7.0
 40
7.0
 40
7.0
 40
8.0
 40
8.0
 40
8.0
 40
9.0
 40
9.0
 40
9.0
 40
9.0
 10
74.12191838424731
 20
-149.9240098366509
 10
74.12191838424731
 20
-150.4400851403414
 10
73.5676025206706
 20
-150.4486978790545
 10
73.3540066005851
 20
-150.4486978790545
 10
73.12335745784763
 20
-150.4486978790545
 10
72.47602401616919
 20
-150.4294053443371
 10
72.47602401616919
 20
-149.8857692767647
 10
72.47602401616919
 20
-149.7124809738566
 10
72.5457871997455
 20
-149.4668456657583
 10
72.87789440452359
 20
-149.4289496154205
 10
72.87789440452359
 20
-149.4289496154205
 10
72.87789440452359
 20
-149.642545535506
 10
72.87789440452359
 20
-149.642545535506
 10
72.8208780742427
 20
-149.6532253315103
 10
72.67273896837696
 20
-149.6849202099746
 10
72.67273896837696
 20
-149.8878363340558
 10
72.67273896837696
 20
-150.179980431205
 10
73.00071205857275
 20
-150.2199435388339
 10
73.20586749471937
 20
-150.2326903921293
 10
73.1276638272042
 20
-150.1396728140276
 10
73.0684081848579
 20
-150.0718044329682
 10
73.0684081848579
 20
-149.8899033913469
 10
73.0684081848579
 20
-149.7100694070169
 10
73.17623967354622
 20
-149.407590023412
 10
73.58241643125717
 20
-149.407590023412
 10
73.90177678273983
 20
-149.407590023412
 10
74.12191838424731
 20
-149.6067165424594
 10
74.12191838424731
 20
-149.9240098366509
 97
        0
 97
        1
330
EC
 75
     2
 76
     1
 98
        1
 10
0.0
 20
0.0
450
        0
451
        0
460
0.0
461
0.0
452
        0
462
0.0
453
        0
470

  0
ENDBLK
  5
EA
330
E7
100
AcDbEntity
  8
0
100
AcDbBlockEnd
  0
BLOCK
  5
F3
330
F1
100
AcDbEntity
  8
0
100
AcDbBlockBegin
  2
Block_7
 70
     0
 10
0.0
 20
0.0
 30
0.0
  3
Block_7
  1

  0
SPLINE
  5
F5
330
F1
100
AcDbEntity
  8
レイヤー 1
100
AcDbSpline
210
0.0
220
0.0
230
1.0
 70
     9
 71
     3
 72
    62
 73
    58
 74
     0
 42
0.0000000001
 43
0.0000000001
 40
0.0
 40
0.0
 40
0.0
 40
0.0
 40
1.0
 40
1.0
 40
1.0
 40
2.0
 40
2.0
 40
2.0
 40
3.0
 40
3.0
 40
3.0
 40
4.0
 40
4.0
 40
4.0
 40
5.0
 40
5.0
 40
5.0
 40
6.0
 40
6.0
 40
6.0
 40
7.0
 40
7.0
 40
7.0
 40
8.0
 40
8.0
 40
8.0
 40
9.0
 40
9.0
 40
9.0
 40
10.0
 40
10.0
 40
10.0
 40
11.0
 40
11.0
 40
11.0
 40
12.0
 40
12.0
 40
12.0
 40
13.0
 40
13.0
 40
13.0
 40
14.0
 40
14.0
 40
14.0
 40
15.0
 40
15.0
 40
15.0
 40
16.0
 40
16.0
 40
16.0
 40
17.0
 40
17.0
 40
17.0
 40
18.0
 40
18.0
 40
18.0
 40
19.0
 40
19.0
 40
19.0
 40
19.0
 10
107.2768283151947
 20
-141.0036240966935
 30
0.0
 10
107.1817436798018
 20
-141.0036240966935
 30
0.0
 10
106.964013645134
 20
-140.9824367594592
 30
0.0
 10
106.8389566790194
 20
-140.7962293484815
 30
0.0
 10
106.7648871260865
 20
-140.6840914904366
 30
0.0
 10
106.7607530115042
 20
-140.5847004856871
 30
0.0
 10
106.7566188969219
 20
-140.5001233915243
 30
0.0
 10
106.7566188969219
 20
-140.5001233915243
 30
0.0
 10
106.9767604984294
 20
-140.5001233915243
 30
0.0
 10
106.9767604984294
 20
-140.5001233915243
 30
0.0
 10
106.9788275557205
 20
-140.5741929444571
 30
0.0
 10
106.9891628421763
 20
-140.8089762017769
 30
0.0
 10
107.2726942006124
 20
-140.8089762017769
 30
0.0
 10
107.4101535104738
 20
-140.8089762017769
 30
0.0
 10
107.5624267309219
 20
-140.7392130182006
 30
0.0
 10
107.5624267309219
 20
-140.5106309327543
 30
0.0
 10
107.5624267309219
 20
-140.3943589601271
 30
0.0
 10
107.5245306805841
 20
-140.3456108590108
 30
0.0
 10
107.4928358021198
 20
-140.3139159805465
 30
0.0
 10
107.418766249187
 20
-140.2398464276136
 30
0.0
 10
107.3023220217855
 20
-140.2272718290925
 30
0.0
 10
107.24754500357
 20
-140.2272718290925
 30
0.0
 10
107.2282524688526
 20
-140.2272718290925
 30
0.0
 10
107.192423475806
 20
-140.2293388863836
 30
0.0
 10
107.164862711924
 20
-140.2334730009659
 30
0.0
 10
107.164862711924
 20
-140.2334730009659
 30
0.0
 10
107.164862711924
 20
-140.0389973608236
 30
0.0
 10
107.164862711924
 20
-140.0389973608236
 30
0.0
 10
107.2031032718103
 20
-140.045198532697
 30
0.0
 10
107.2451334367304
 20
-140.0474378447624
 30
0.0
 10
107.2516791181523
 20
-140.0474378447624
 30
0.0
 10
107.3171359323721
 20
-140.0474378447624
 30
0.0
 10
107.515917941871
 20
-140.0262505075281
 30
0.0
 10
107.515917941871
 20
-139.7892279381429
 30
0.0
 10
107.515917941871
 20
-139.6116332658783
 30
0.0
 10
107.3850043134315
 20
-139.5565117381143
 30
0.0
 10
107.2747612579035
 20
-139.5565117381143
 30
0.0
 10
107.0105224341848
 20
-139.5565117381143
 30
0.0
 10
107.0019096954717
 20
-139.7892279381429
 30
0.0
 10
106.9977755808894
 20
-139.8612304337847
 30
0.0
 10
106.9977755808894
 20
-139.8612304337847
 30
0.0
 10
106.7945149472597
 20
-139.8612304337847
 30
0.0
 10
106.7945149472597
 20
-139.8612304337847
 30
0.0
 10
106.8031276859728
 20
-139.7363457224443
 30
0.0
 10
106.8306884498548
 20
-139.3597967859065
 30
0.0
 10
107.2875081111989
 20
-139.3597967859065
 30
0.0
 10
107.5117838272887
 20
-139.3597967859065
 30
0.0
 10
107.7529405112562
 20
-139.486748554538
 30
0.0
 10
107.7529405112562
 20
-139.7828545114952
 30
0.0
 10
107.7529405112562
 20
-139.969061922473
 30
0.0
 10
107.6578558758633
 20
-140.0515719593447
 30
0.0
 10
107.5582926163396
 20
-140.1128946589822
 30
0.0
 10
107.619615315977
 20
-140.1404554228642
 30
0.0
 10
107.8015163575982
 20
-140.2208984024448
 30
0.0
 10
107.8015163575982
 20
-140.4980563342331
 30
0.0
 10
107.8015163575982
 20
-140.8365369656589
 30
0.0
 10
107.5541585017573
 20
-141.0036240966935
 30
0.0
 10
107.2768283151947
 20
-141.0036240966935
 30
0.0
  0
HATCH
  5
F6
330
F1
100
AcDbEntity
  8
レイヤー 1
 62
   250
420
  2299925
440
 33554687
100
AcDbHatch
 10
0.0
 20
0.0
 30
0.0
210
0.0
220
0.0
230
1.0
  2
SOLID
 70
     1
 71
     1
 91
        1
 92
        1
 93
        1
 72
     4
 94
        3
 73
     0
 74
     0
 95
       62
 96
       58
 40
0.0
 40
0.0
 40
0.0
 40
0.0
 40
1.0
 40
1.0
 40
1.0
 40
2.0
 40
2.0
 40
2.0
 40
3.0
 40
3.0
 40
3.0
 40
4.0
 40
4.0
 40
4.0
 40
5.0
 40
5.0
 40
5.0
 40
6.0
 40
6.0
 40
6.0
 40
7.0
 40
7.0
 40
7.0
 40
8.0
 40
8.0
 40
8.0
 40
9.0
 40
9.0
 40
9.0
 40
10.0
 40
10.0
 40
10.0
 40
11.0
 40
11.0
 40
11.0
 40
12.0
 40
12.0
 40
12.0
 40
13.0
 40
13.0
 40
13.0
 40
14.0
 40
14.0
 40
14.0
 40
15.0
 40
15.0
 40
15.0
 40
16.0
 40
16.0
 40
16.0
 40
17.0
 40
17.0
 40
17.0
 40
18.0
 40
18.0
 40
18.0
 40
19.0
 40
19.0
 40
19.0
 40
19.0
 10
107.2768283151947
 20
-141.0036240966935
 10
107.1817436798018
 20
-141.0036240966935
 10
106.964013645134
 20
-140.9824367594592
 10
106.8389566790194
 20
-140.7962293484815
 10
106.7648871260865
 20
-140.6840914904366
 10
106.7607530115042
 20
-140.5847004856871
 10
106.7566188969219
 20
-140.5001233915243
 10
106.7566188969219
 20
-140.5001233915243
 10
106.9767604984294
 20
-140.5001233915243
 10
106.9767604984294
 20
-140.5001233915243
 10
106.9788275557205
 20
-140.5741929444571
 10
106.9891628421763
 20
-140.8089762017769
 10
107.2726942006124
 20
-140.8089762017769
 10
107.4101535104738
 20
-140.8089762017769
 10
107.5624267309219
 20
-140.7392130182006
 10
107.5624267309219
 20
-140.5106309327543
 10
107.5624267309219
 20
-140.3943589601271
 10
107.5245306805841
 20
-140.3456108590108
 10
107.4928358021198
 20
-140.3139159805465
 10
107.418766249187
 20
-140.2398464276136
 10
107.3023220217855
 20
-140.2272718290925
 10
107.24754500357
 20
-140.2272718290925
 10
107.2282524688526
 20
-140.2272718290925
 10
107.192423475806
 20
-140.2293388863836
 10
107.164862711924
 20
-140.2334730009659
 10
107.164862711924
 20
-140.2334730009659
 10
107.164862711924
 20
-140.0389973608236
 10
107.164862711924
 20
-140.0389973608236
 10
107.2031032718103
 20
-140.045198532697
 10
107.2451334367304
 20
-140.0474378447624
 10
107.2516791181523
 20
-140.0474378447624
 10
107.3171359323721
 20
-140.0474378447624
 10
107.515917941871
 20
-140.0262505075281
 10
107.515917941871
 20
-139.7892279381429
 10
107.515917941871
 20
-139.6116332658783
 10
107.3850043134315
 20
-139.5565117381143
 10
107.2747612579035
 20
-139.5565117381143
 10
107.0105224341848
 20
-139.5565117381143
 10
107.0019096954717
 20
-139.7892279381429
 10
106.9977755808894
 20
-139.8612304337847
 10
106.9977755808894
 20
-139.8612304337847
 10
106.7945149472597
 20
-139.8612304337847
 10
106.7945149472597
 20
-139.8612304337847
 10
106.8031276859728
 20
-139.7363457224443
 10
106.8306884498548
 20
-139.3597967859065
 10
107.2875081111989
 20
-139.3597967859065
 10
107.5117838272887
 20
-139.3597967859065
 10
107.7529405112562
 20
-139.486748554538
 10
107.7529405112562
 20
-139.7828545114952
 10
107.7529405112562
 20
-139.969061922473
 10
107.6578558758633
 20
-140.0515719593447
 10
107.5582926163396
 20
-140.1128946589822
 10
107.619615315977
 20
-140.1404554228642
 10
107.8015163575982
 20
-140.2208984024448
 10
107.8015163575982
 20
-140.4980563342331
 10
107.8015163575982
 20
-140.8365369656589
 10
107.5541585017573
 20
-141.0036240966935
 10
107.2768283151947
 20
-141.0036240966935
 97
        0
 97
        1
330
F5
 75
     2
 76
     1
 98
        1
 10
0.0
 20
0.0
450
        0
451
        0
460
0.0
461
0.0
452
        0
462
0.0
453
        0
470

  0
ENDBLK
  5
F4
330
F1
100
AcDbEntity
  8
0
100
AcDbBlockEnd
  0
BLOCK
  5
FE
330
FC
100
AcDbEntity
  8
0
100
AcDbBlockBegin
  2
Block_8
 70
     0
 10
0.0
 20
0.0
 30
0.0
  3
Block_8
  1

  0
SPLINE
  5
100
330
FC
100
AcDbEntity
  8
レイヤー 1
100
AcDbSpline
210
0.0
220
0.0
230
1.0
 70
     9
 71
     3
 72
    53
 73
    49
 74
     0
 42
0.0000000001
 43
0.0000000001
 40
0.0
 40
0.0
 40
0.0
 40
0.0
 40
1.0
 40
1.0
 40
1.0
 40
2.0
 40
2.0
 40
2.0
 40
3.0
 40
3.0
 40
3.0
 40
4.0
 40
4.0
 40
4.0
 40
5.0
 40
5.0
 40
5.0
 40
6.0
 40
6.0
 40
6.0
 40
7.0
 40
7.0
 40
7.0
 40
8.0
 40
8.0
 40
8.0
 40
9.0
 40
9.0
 40
9.0
 40
10.0
 40
10.0
 40
10.0
 40
11.0
 40
11.0
 40
11.0
 40
12.0
 40
12.0
 40
12.0
 40
13.0
 40
13.0
 40
13.0
 40
14.0
 40
14.0
 40
14.0
 40
15.0
 40
15.0
 40
15.0
 40
16.0
 40
16.0
 40
16.0
 40
16.0
 10
107.2664930287389
 20
-156.3808077951062
 30
0.0
 10
107.1882893612237
 20
-156.3808077951062
 30
0.0
 10
107.0866590444089
 20
-156.3639268272285
 30
0.0
 10
106.985028727594
 20
-156.3005370702998
 30
0.0
 10
106.8117404246859
 20
-156.1906385243204
 30
0.0
 10
106.7903808326774
 20
-156.0593803863324
 30
0.0
 10
106.7714328075085
 20
-155.9515488976441
 30
0.0
 10
106.7714328075085
 20
-155.9515488976441
 30
0.0
 10
106.9936414663071
 20
-155.9515488976441
 30
0.0
 10
106.9936414663071
 20
-155.9515488976441
 30
0.0
 10
107.0484184845226
 20
-156.150330907143
 30
0.0
 10
107.1755425079283
 20
-156.1799587283161
 30
0.0
 10
107.2685600860301
 20
-156.1799587283161
 30
0.0
 10
107.4080864531827
 20
-156.1799587283161
 30
0.0
 10
107.5603596736307
 20
-156.0803954687924
 30
0.0
 10
107.5603596736307
 20
-155.847851523538
 30
0.0
 10
107.5603596736307
 20
-155.591880928984
 30
0.0
 10
107.3805256893007
 20
-155.5219454906334
 30
0.0
 10
107.2599473473169
 20
-155.5219454906334
 30
0.0
 10
107.2282524688526
 20
-155.5219454906334
 30
0.0
 10
107.0866590444089
 20
-155.5219454906334
 30
0.0
 10
106.9977755808894
 20
-155.6511365713303
 30
0.0
 10
106.9977755808894
 20
-155.6511365713303
 30
0.0
 10
106.8220757111417
 20
-155.6321885461614
 30
0.0
 10
106.8220757111417
 20
-155.6321885461614
 30
0.0
 10
106.8220757111417
 20
-155.6321885461614
 30
0.0
 10
106.9426540531254
 20
-154.7857285854355
 30
0.0
 10
106.9426540531254
 20
-154.7857285854355
 30
0.0
 10
106.9426540531254
 20
-154.7857285854355
 30
0.0
 10
107.7212456327919
 20
-154.7857285854355
 30
0.0
 10
107.7212456327919
 20
-154.7857285854355
 30
0.0
 10
107.7212456327919
 20
-154.7857285854355
 30
0.0
 10
107.7212456327919
 20
-154.9803764803521
 30
0.0
 10
107.7212456327919
 20
-154.9803764803521
 30
0.0
 10
107.7212456327919
 20
-154.9803764803521
 30
0.0
 10
107.1056070695777
 20
-154.9803764803521
 30
0.0
 10
107.1056070695777
 20
-154.9803764803521
 30
0.0
 10
107.1056070695777
 20
-154.9803764803521
 30
0.0
 10
107.040150255358
 20
-155.4034342059408
 30
0.0
 10
107.040150255358
 20
-155.4034342059408
 30
0.0
 10
107.1014729549955
 20
-155.3696722701853
 30
0.0
 10
107.1838107370929
 20
-155.3293646530079
 30
0.0
 10
107.3023220217855
 20
-155.3293646530079
 30
0.0
 10
107.5562255590484
 20
-155.3293646530079
 30
0.0
 10
107.7932481284336
 20
-155.51574431876
 30
0.0
 10
107.7932481284336
 20
-155.8289034983691
 30
0.0
 10
107.7932481284336
 20
-156.1461967925607
 30
0.0
 10
107.5689724123438
 20
-156.3808077951062
 30
0.0
 10
107.2664930287389
 20
-156.3808077951062
 30
0.0
  0
HATCH
  5
101
330
FC
100
AcDbEntity
  8
レイヤー 1
 62
   250
420
  2299925
440
 33554687
100
AcDbHatch
 10
0.0
 20
0.0
 30
0.0
210
0.0
220
0.0
230
1.0
  2
SOLID
 70
     1
 71
     1
 91
        1
 92
        1
 93
        1
 72
     4
 94
        3
 73
     0
 74
     0
 95
       53
 96
       49
 40
0.0
 40
0.0
 40
0.0
 40
0.0
 40
1.0
 40
1.0
 40
1.0
 40
2.0
 40
2.0
 40
2.0
 40
3.0
 40
3.0
 40
3.0
 40
4.0
 40
4.0
 40
4.0
 40
5.0
 40
5.0
 40
5.0
 40
6.0
 40
6.0
 40
6.0
 40
7.0
 40
7.0
 40
7.0
 40
8.0
 40
8.0
 40
8.0
 40
9.0
 40
9.0
 40
9.0
 40
10.0
 40
10.0
 40
10.0
 40
11.0
 40
11.0
 40
11.0
 40
12.0
 40
12.0
 40
12.0
 40
13.0
 40
13.0
 40
13.0
 40
14.0
 40
14.0
 40
14.0
 40
15.0
 40
15.0
 40
15.0
 40
16.0
 40
16.0
 40
16.0
 40
16.0
 10
107.2664930287389
 20
-156.3808077951062
 10
107.1882893612237
 20
-156.3808077951062
 10
107.0866590444089
 20
-156.3639268272285
 10
106.985028727594
 20
-156.3005370702998
 10
106.8117404246859
 20
-156.1906385243204
 10
106.7903808326774
 20
-156.0593803863324
 10
106.7714328075085
 20
-155.9515488976441
 10
106.7714328075085
 20
-155.9515488976441
 10
106.9936414663071
 20
-155.9515488976441
 10
106.9936414663071
 20
-155.9515488976441
 10
107.0484184845226
 20
-156.150330907143
 10
107.1755425079283
 20
-156.1799587283161
 10
107.2685600860301
 20
-156.1799587283161
 10
107.4080864531827
 20
-156.1799587283161
 10
107.5603596736307
 20
-156.0803954687924
 10
107.5603596736307
 20
-155.847851523538
 10
107.5603596736307
 20
-155.591880928984
 10
107.3805256893007
 20
-155.5219454906334
 10
107.2599473473169
 20
-155.5219454906334
 10
107.2282524688526
 20
-155.5219454906334
 10
107.0866590444089
 20
-155.5219454906334
 10
106.9977755808894
 20
-155.6511365713303
 10
106.9977755808894
 20
-155.6511365713303
 10
106.8220757111417
 20
-155.6321885461614
 10
106.8220757111417
 20
-155.6321885461614
 10
106.8220757111417
 20
-155.6321885461614
 10
106.9426540531254
 20
-154.7857285854355
 10
106.9426540531254
 20
-154.7857285854355
 10
106.9426540531254
 20
-154.7857285854355
 10
107.7212456327919
 20
-154.7857285854355
 10
107.7212456327919
 20
-154.7857285854355
 10
107.7212456327919
 20
-154.7857285854355
 10
107.7212456327919
 20
-154.9803764803521
 10
107.7212456327919
 20
-154.9803764803521
 10
107.7212456327919
 20
-154.9803764803521
 10
107.1056070695777
 20
-154.9803764803521
 10
107.1056070695777
 20
-154.9803764803521
 10
107.1056070695777
 20
-154.9803764803521
 10
107.040150255358
 20
-155.4034342059408
 10
107.040150255358
 20
-155.4034342059408
 10
107.1014729549955
 20
-155.3696722701853
 10
107.1838107370929
 20
-155.3293646530079
 10
107.3023220217855
 20
-155.3293646530079
 10
107.5562255590484
 20
-155.3293646530079
 10
107.7932481284336
 20
-155.51574431876
 10
107.7932481284336
 20
-155.8289034983691
 10
107.7932481284336
 20
-156.1461967925607
 10
107.5689724123438
 20
-156.3808077951062
 10
107.2664930287389
 20
-156.3808077951062
 97
        0
 97
        1
330
100
 75
     2
 76
     1
 98
        1
 10
0.0
 20
0.0
450
        0
451
        0
460
0.0
461
0.0
452
        0
462
0.0
453
        0
470

  0
ENDBLK
  5
FF
330
FC
100
AcDbEntity
  8
0
100
AcDbBlockEnd
  0
BLOCK
  5
106
330
104
100
AcDbEntity
  8
0
100
AcDbBlockBegin
  2
Block_9
 70
     0
 10
0.0
 20
0.0
 30
0.0
  3
Block_9
  1

  0
SPLINE
  5
108
330
104
100
AcDbEntity
  8
レイヤー 1
100
AcDbSpline
210
0.0
220
0.0
230
1.0
 70
    11
 71
     3
 72
    26
 73
    22
 74
     0
 42
0.0000000001
 43
0.0000000001
 40
0.0
 40
0.0
 40
0.0
 40
0.0
 40
1.0
 40
1.0
 40
1.0
 40
2.0
 40
2.0
 40
2.0
 40
3.0
 40
3.0
 40
3.0
 40
4.0
 40
4.0
 40
4.0
 40
5.0
 40
5.0
 40
5.0
 40
6.0
 40
6.0
 40
6.0
 40
7.0
 40
7.0
 40
7.0
 40
7.0
 10
111.68758406496
 20
-149.8068765901524
 30
0.0
 10
111.68758406496
 20
-149.8068765901524
 30
0.0
 10
111.68758406496
 20
-148.7025512323556
 30
0.0
 10
111.68758406496
 20
-148.7025512323556
 30
0.0
 10
111.68758406496
 20
-148.7025512323556
 30
0.0
 10
111.3575439174731
 20
-148.7025512323556
 30
0.0
 10
111.3575439174731
 20
-148.7025512323556
 30
0.0
 10
111.3575439174731
 20
-148.7025512323556
 30
0.0
 10
111.3575439174731
 20
-148.5544121264898
 30
0.0
 10
111.3575439174731
 20
-148.5544121264898
 30
0.0
 10
111.6896511222512
 20
-148.5397704706775
 30
0.0
 10
111.7361599113021
 20
-148.3768174542252
 30
0.0
 10
111.7657877324752
 20
-148.2626125388892
 30
0.0
 10
111.7657877324752
 20
-148.2626125388892
 30
0.0
 10
111.9118597810498
 20
-148.2626125388892
 30
0.0
 10
111.9118597810498
 20
-148.2626125388892
 30
0.0
 10
111.9118597810498
 20
-148.2626125388892
 30
0.0
 10
111.9118597810498
 20
-149.8068765901524
 30
0.0
 10
111.9118597810498
 20
-149.8068765901524
 30
0.0
 10
111.9118597810498
 20
-149.8068765901524
 30
0.0
 10
111.68758406496
 20
-149.8068765901524
 30
0.0
 10
111.68758406496
 20
-149.8068765901524
 30
0.0
  0
HATCH
  5
109
330
104
100
AcDbEntity
  8
レイヤー 1
 62
   250
420
  2299925
440
 33554687
100
AcDbHatch
 10
0.0
 20
0.0
 30
0.0
210
0.0
220
0.0
230
1.0
  2
SOLID
 70
     1
 71
     1
 91
        1
 92
        1
 93
        1
 72
     4
 94
        3
 73
     0
 74
     0
 95
       26
 96
       22
 40
0.0
 40
0.0
 40
0.0
 40
0.0
 40
1.0
 40
1.0
 40
1.0
 40
2.0
 40
2.0
 40
2.0
 40
3.0
 40
3.0
 40
3.0
 40
4.0
 40
4.0
 40
4.0
 40
5.0
 40
5.0
 40
5.0
 40
6.0
 40
6.0
 40
6.0
 40
7.0
 40
7.0
 40
7.0
 40
7.0
 10
111.68758406496
 20
-149.8068765901524
 10
111.68758406496
 20
-149.8068765901524
 10
111.68758406496
 20
-148.7025512323556
 10
111.68758406496
 20
-148.7025512323556
 10
111.68758406496
 20
-148.7025512323556
 10
111.3575439174731
 20
-148.7025512323556
 10
111.3575439174731
 20
-148.7025512323556
 10
111.3575439174731
 20
-148.7025512323556
 10
111.3575439174731
 20
-148.5544121264898
 10
111.3575439174731
 20
-148.5544121264898
 10
111.6896511222512
 20
-148.5397704706775
 10
111.7361599113021
 20
-148.3768174542252
 10
111.7657877324752
 20
-148.2626125388892
 10
111.7657877324752
 20
-148.2626125388892
 10
111.9118597810498
 20
-148.2626125388892
 10
111.9118597810498
 20
-148.2626125388892
 10
111.9118597810498
 20
-148.2626125388892
 10
111.9118597810498
 20
-149.8068765901524
 10
111.9118597810498
 20
-149.8068765901524
 10
111.9118597810498
 20
-149.8068765901524
 10
111.68758406496
 20
-149.8068765901524
 10
111.68758406496
 20
-149.8068765901524
 97
        0
 97
        1
330
108
 75
     2
 76
     1
 98
        1
 10
0.0
 20
0.0
450
        0
451
        0
460
0.0
461
0.0
452
        0
462
0.0
453
        0
470

  0
ENDBLK
  5
107
330
104
100
AcDbEntity
  8
0
100
AcDbBlockEnd
  0
BLOCK
  5
10C
330
10A
100
AcDbEntity
  8
0
100
AcDbBlockBegin
  2
Block_10
 70
     0
 10
0.0
 20
0.0
 30
0.0
  3
Block_10
  1

  0
SPLINE
  5
10E
330
10A
100
AcDbEntity
  8
レイヤー 1
 62
   250
420
  2299925
370
     9
100
AcDbSpline
210
0.0
220
0.0
230
1.0
 70
     8
 71
     3
 72
    26
 73
    22
 74
     0
 42
0.0000000001
 43
0.0000000001
 40
0.0
 40
0.0
 40
0.0
 40
0.0
 40
1.0
 40
1.0
 40
1.0
 40
2.0
 40
2.0
 40
2.0
 40
3.0
 40
3.0
 40
3.0
 40
4.0
 40
4.0
 40
4.0
 40
5.0
 40
5.0
 40
5.0
 40
6.0
 40
6.0
 40
6.0
 40
7.0
 40
7.0
 40
7.0
 40
7.0
 10
129.8194154707322
 20
-145.3904851231281
 30
0.0
 10
129.8194154707322
 20
-145.3904851231281
 30
0.0
 10
121.2273333001129
 20
-148.4131909557054
 30
0.0
 10
121.2273333001129
 20
-148.4131909557054
 30
0.0
 10
121.2273333001129
 20
-148.4131909557054
 30
0.0
 10
119.8589436128012
 20
-148.6791501223058
 30
0.0
 10
120.3722705441496
 20
-149.1352917888586
 30
0.0
 10
120.3722705441496
 20
-149.1352917888586
 30
0.0
 10
120.6761210285737
 20
-149.3254742888111
 30
0.0
 10
121.2087419116983
 20
-149.5349184554252
 30
0.0
 10
121.2087419116983
 20
-149.5349184554252
 30
0.0
 10
126.207567617501
 20
-151.5534070660317
 30
0.0
 10
126.207567617501
 20
-151.5534070660317
 30
0.0
 10
126.207567617501
 20
-151.5534070660317
 30
0.0
 10
126.207567617501
 20
-154.6281476208186
 30
0.0
 10
126.207567617501
 20
-154.6281476208186
 30
0.0
 10
126.207567617501
 20
-154.6281476208186
 30
0.0
 10
128.8499436611995
 20
-155.9021692871666
 30
0.0
 10
128.8499436611995
 20
-155.9021692871666
 30
0.0
 10
128.8499436611995
 20
-155.9021692871666
 30
0.0
 10
139.0329797902974
 20
-151.4986206771564
 30
0.0
 10
139.0329797902974
 20
-151.4986206771564
 30
0.0
  0
LINE
  5
10F
330
10A
100
AcDbEntity
  8
レイヤー 1
 62
   250
420
  2299925
370
     9
100
AcDbLine
 10
128.3559136738032
 20
-152.0525876214621
 30
0.0
 11
138.5389498029012
 21
-148.0521581780182
 31
0.0
  0
SPLINE
  5
110
330
10A
100
AcDbEntity
  8
レイヤー 1
 62
   250
420
  2299925
370
     9
100
AcDbSpline
210
0.0
220
0.0
230
1.0
 70
     8
 71
     3
 72
    26
 73
    22
 74
     0
 42
0.0000000001
 43
0.0000000001
 40
0.0
 40
0.0
 40
0.0
 40
0.0
 40
1.0
 40
1.0
 40
1.0
 40
2.0
 40
2.0
 40
2.0
 40
3.0
 40
3.0
 40
3.0
 40
4.0
 40
4.0
 40
4.0
 40
5.0
 40
5.0
 40
5.0
 40
6.0
 40
6.0
 40
6.0
 40
7.0
 40
7.0
 40
7.0
 40
7.0
 10
129.9137803007254
 20
-145.5613706786407
 30
0.0
 10
129.9137803007254
 20
-145.5613706786407
 30
0.0
 10
121.0185594165503
 20
-148.6791501223058
 30
0.0
 10
121.0185594165503
 20
-148.6791501223058
 30
0.0
 10
121.0185594165503
 20
-148.6791501223058
 30
0.0
 10
120.5438293619401
 20
-148.7549620667313
 30
0.0
 10
120.5817147054729
 20
-148.9258476222439
 30
0.0
 10
120.5817147054729
 20
-148.9258476222439
 30
0.0
 10
120.5624177615208
 20
-149.0023298444477
 30
0.0
 10
120.8669738063035
 20
-149.0974034555345
 30
0.0
 10
120.8669738063035
 20
-149.0974034555345
 30
0.0
 10
126.5493034421159
 20
-151.3401528994185
 30
0.0
 10
126.5493034421159
 20
-151.3401528994185
 30
0.0
 10
126.5493034421159
 20
-151.3401528994185
 30
0.0
 10
126.5493034421159
 20
-154.30570873201
 30
0.0
 10
126.5493034421159
 20
-154.30570873201
 30
0.0
 10
126.5493034421159
 20
-154.30570873201
 30
0.0
 10
128.3559136738032
 20
-155.1607715095742
 30
0.0
 10
128.3559136738032
 20
-155.1607715095742
 30
0.0
 10
128.3559136738032
 20
-155.1607715095742
 30
0.0
 10
128.3559136738032
 20
-152.0525876214621
 30
0.0
 10
128.3559136738032
 20
-152.0525876214621
 30
0.0
  0
LINE
  5
111
330
10A
100
AcDbEntity
  8
レイヤー 1
 62
   250
420
  2299925
370
     9
100
AcDbLine
 10
135.864153482252
 20
-147.6146431781275
 30
0.0
 11
126.5493034421159
 21
-151.3401528994185
 31
0.0
  0
LINE
  5
112
330
10A
100
AcDbEntity
  8
レイヤー 1
 62
   250
420
  2299925
370
     9
100
AcDbLine
 10
128.8499436611995
 20
-155.9021692871666
 30
0.0
 11
128.8499436611995
 21
-152.2479559547472
 31
0.0
  0
LINE
  5
113
330
10A
100
AcDbEntity
  8
レイヤー 1
 62
   250
420
  2299925
370
     9
100
AcDbLine
 10
126.5493034421159
 20
-154.30570873201
 30
0.0
 11
128.3559136738032
 21
-153.6538812321736
 31
0.0
  0
SPLINE
  5
114
330
10A
100
AcDbEntity
  8
レイヤー 1
 62
   250
420
  2299925
370
     9
100
AcDbSpline
210
0.0
220
0.0
230
1.0
 70
     9
 71
     3
 72
    17
 73
    13
 74
     0
 42
0.0000000001
 43
0.0000000001
 40
0.0
 40
0.0
 40
0.0
 40
0.0
 40
1.0
 40
1.0
 40
1.0
 40
2.0
 40
2.0
 40
2.0
 40
3.0
 40
3.0
 40
3.0
 40
4.0
 40
4.0
 40
4.0
 40
4.0
 10
133.1439193849843
 20
-147.3955329004044
 30
0.0
 10
133.1439193849843
 20
-147.6304829003457
 30
0.0
 10
132.8152716155911
 20
-147.8213356780759
 30
0.0
 10
132.4108119036875
 20
-147.8213356780759
 30
0.0
 10
132.0042708029481
 20
-147.8213356780759
 30
0.0
 10
131.676998866853
 20
-147.6304829003457
 30
0.0
 10
131.676998866853
 20
-147.3955329004044
 30
0.0
 10
131.676998866853
 20
-147.1605829004634
 30
0.0
 10
132.0042708029481
 20
-146.970400400511
 30
0.0
 10
132.4108119036875
 20
-146.970400400511
 30
0.0
 10
132.8152716155911
 20
-146.970400400511
 30
0.0
 10
133.1439193849843
 20
-147.1605829004634
 30
0.0
 10
133.1439193849843
 20
-147.3955329004044
 30
0.0
  0
SPLINE
  5
115
330
10A
100
AcDbEntity
  8
レイヤー 1
 62
   250
420
  2299925
370
     9
100
AcDbSpline
210
0.0
220
0.0
230
1.0
 70
     8
 71
     3
 72
    11
 73
     7
 74
     0
 42
0.0000000001
 43
0.0000000001
 40
0.0
 40
0.0
 40
0.0
 40
0.0
 40
1.0
 40
1.0
 40
1.0
 40
2.0
 40
2.0
 40
2.0
 40
2.0
 10
131.8044574747124
 20
-147.6297773447905
 30
0.0
 10
131.8044574747124
 20
-147.6297773447905
 30
0.0
 10
131.7824088641638
 20
-147.1185317893628
 30
0.0
 10
132.6120043589233
 20
-147.1619587337963
 30
0.0
 10
132.6120043589233
 20
-147.1619587337963
 30
0.0
 10
133.1011979971854
 20
-147.2253176226691
 30
0.0
 10
133.016460777125
 20
-147.6084342892401
 30
0.0
  0
SPLINE
  5
116
330
10A
100
AcDbEntity
  8
レイヤー 1
 62
   250
420
  2299925
370
     9
100
AcDbSpline
210
0.0
220
0.0
230
1.0
 70
     9
 71
     3
 72
    17
 73
    13
 74
     0
 42
0.0000000001
 43
0.0000000001
 40
0.0
 40
0.0
 40
0.0
 40
0.0
 40
1.0
 40
1.0
 40
1.0
 40
2.0
 40
2.0
 40
2.0
 40
3.0
 40
3.0
 40
3.0
 40
4.0
 40
4.0
 40
4.0
 40
4.0
 10
132.9075935576802
 20
-146.31515095623
 30
0.0
 10
132.9075935576802
 20
-146.5501009561714
 30
0.0
 10
132.57891051051
 20
-146.7409537339015
 30
0.0
 10
132.1744860763833
 20
-146.7409537339015
 30
0.0
 10
131.7686505311815
 20
-146.7409537339015
 30
0.0
 10
131.4406730395489
 20
-146.5501009561714
 30
0.0
 10
131.4406730395489
 20
-146.31515095623
 30
0.0
 10
131.4406730395489
 20
-146.0802009562891
 30
0.0
 10
131.7686505311815
 20
-145.8893129007811
 30
0.0
 10
132.1744860763833
 20
-145.8893129007811
 30
0.0
 10
132.57891051051
 20
-145.8893129007811
 30
0.0
 10
132.9075935576802
 20
-146.0802009562891
 30
0.0
 10
132.9075935576802
 20
-146.31515095623
 30
0.0
  0
SPLINE
  5
117
330
10A
100
AcDbEntity
  8
レイヤー 1
 62
   250
420
  2299925
370
     9
100
AcDbSpline
210
0.0
220
0.0
230
1.0
 70
     8
 71
     3
 72
    11
 73
     7
 74
     0
 42
0.0000000001
 43
0.0000000001
 40
0.0
 40
0.0
 40
0.0
 40
0.0
 40
1.0
 40
1.0
 40
1.0
 40
2.0
 40
2.0
 40
2.0
 40
2.0
 10
131.5681349147395
 20
-146.5487251228385
 30
0.0
 10
131.5681349147395
 20
-146.5487251228385
 30
0.0
 10
131.5467885923972
 20
-146.0381498451884
 30
0.0
 10
132.3763488034261
 20
-146.0815767896219
 30
0.0
 10
132.3763488034261
 20
-146.0815767896219
 30
0.0
 10
132.8648721698812
 20
-146.1442654007178
 30
0.0
 10
132.780099672044
 20
-146.5280523450658
 30
0.0
  0
SPLINE
  5
118
330
10A
100
AcDbEntity
  8
レイヤー 1
 62
   250
420
  2299925
370
     9
100
AcDbSpline
210
0.0
220
0.0
230
1.0
 70
    11
 71
     3
 72
    17
 73
    13
 74
     0
 42
0.0000000001
 43
0.0000000001
 40
0.0
 40
0.0
 40
0.0
 40
0.0
 40
1.0
 40
1.0
 40
1.0
 40
2.0
 40
2.0
 40
2.0
 40
3.0
 40
3.0
 40
3.0
 40
4.0
 40
4.0
 40
4.0
 40
4.0
 10
123.2509724151522
 20
-148.9148056778026
 30
0.0
 10
123.2509724151522
 20
-149.1497556777436
 30
0.0
 10
122.922324645759
 20
-149.3406084554735
 30
0.0
 10
122.5171946560947
 20
-149.3406084554735
 30
0.0
 10
122.1120293886535
 20
-149.3406084554735
 30
0.0
 10
121.7833816192603
 20
-149.1497556777436
 30
0.0
 10
121.7833816192603
 20
-148.9148056778026
 30
0.0
 10
121.7833816192603
 20
-148.6798556778616
 30
0.0
 10
122.1120293886535
 20
-148.4890029001312
 30
0.0
 10
122.5171946560947
 20
-148.4890029001312
 30
0.0
 10
122.922324645759
 20
-148.4890029001312
 30
0.0
 10
123.2509724151522
 20
-148.6798556778616
 30
0.0
 10
123.2509724151522
 20
-148.9148056778026
 30
0.0
  0
SPLINE
  5
119
330
10A
100
AcDbEntity
  8
レイヤー 1
 62
   250
420
  2299925
370
     9
100
AcDbSpline
210
0.0
220
0.0
230
1.0
 70
     8
 71
     3
 72
    11
 73
     7
 74
     0
 42
0.0000000001
 43
0.0000000001
 40
0.0
 40
0.0
 40
0.0
 40
0.0
 40
1.0
 40
1.0
 40
1.0
 40
2.0
 40
2.0
 40
2.0
 40
2.0
 10
121.9115488060427
 20
-149.1490853999663
 30
0.0
 10
121.9115488060427
 20
-149.1490853999663
 30
0.0
 10
121.8894971721086
 20
-148.6378398445385
 30
0.0
 10
122.7190571391738
 20
-148.6812315111942
 30
0.0
 10
122.7190571391738
 20
-148.6812315111942
 30
0.0
 10
123.2082510273532
 20
-148.7446256778449
 30
0.0
 10
123.1235138072928
 20
-149.127707066638
 30
0.0
  0
SPLINE
  5
11A
330
10A
100
AcDbEntity
  8
レイヤー 1
 62
   250
420
  2299925
370
     9
100
AcDbSpline
210
0.0
220
0.0
230
1.0
 70
     9
 71
     3
 72
    17
 73
    13
 74
     0
 42
0.0000000001
 43
0.0000000001
 40
0.0
 40
0.0
 40
0.0
 40
0.0
 40
1.0
 40
1.0
 40
1.0
 40
2.0
 40
2.0
 40
2.0
 40
3.0
 40
3.0
 40
3.0
 40
4.0
 40
4.0
 40
4.0
 40
4.0
 10
130.9493947187491
 20
-148.4759148445787
 30
0.0
 10
130.9493947187491
 20
-148.7108648445201
 30
0.0
 10
130.6193358382807
 20
-148.9017176222499
 30
0.0
 10
130.214911404154
 20
-148.9017176222499
 30
0.0
 10
129.8104516922504
 20
-148.9017176222499
 30
0.0
 10
129.4817686450802
 20
-148.7108648445201
 30
0.0
 10
129.4817686450802
 20
-148.4759148445787
 30
0.0
 10
129.4817686450802
 20
-148.2416351224151
 30
0.0
 10
129.8104516922504
 20
-148.0507823446853
 30
0.0
 10
130.214911404154
 20
-148.0507823446853
 30
0.0
 10
130.6193358382807
 20
-148.0507823446853
 30
0.0
 10
130.9493947187491
 20
-148.2416351224151
 30
0.0
 10
130.9493947187491
 20
-148.4759148445787
 30
0.0
  0
SPLINE
  5
11B
330
10A
100
AcDbEntity
  8
レイヤー 1
 62
   250
420
  2299925
370
     9
100
AcDbSpline
210
0.0
220
0.0
230
1.0
 70
     8
 71
     3
 72
    11
 73
     7
 74
     0
 42
0.0000000001
 43
0.0000000001
 40
0.0
 40
0.0
 40
0.0
 40
0.0
 40
1.0
 40
1.0
 40
1.0
 40
2.0
 40
2.0
 40
2.0
 40
2.0
 10
129.6092625307165
 20
-148.7101592889649
 30
0.0
 10
129.6092625307165
 20
-148.7101592889649
 30
0.0
 10
129.5878841979286
 20
-148.1989137335371
 30
0.0
 10
130.4174763989861
 20
-148.2423406779707
 30
0.0
 10
130.4174763989861
 20
-148.2423406779707
 30
0.0
 10
130.9066765815716
 20
-148.3056995668435
 30
0.0
 10
130.8212305553522
 20
-148.6888162334144
 30
0.0
  0
SPLINE
  5
11C
330
10A
100
AcDbEntity
  8
レイヤー 1
 62
   250
420
  2299925
370
     9
100
AcDbSpline
210
0.0
220
0.0
230
1.0
 70
     9
 71
     3
 72
    17
 73
    13
 74
     0
 42
0.0000000001
 43
0.0000000001
 40
0.0
 40
0.0
 40
0.0
 40
0.0
 40
1.0
 40
1.0
 40
1.0
 40
2.0
 40
2.0
 40
2.0
 40
3.0
 40
3.0
 40
3.0
 40
4.0
 40
4.0
 40
4.0
 40
4.0
 10
130.7123633359074
 20
-147.3955329004044
 30
0.0
 10
130.7123633359074
 20
-147.6304829003457
 30
0.0
 10
130.3837155665141
 20
-147.8213356780759
 30
0.0
 10
129.978550299073
 20
-147.8213356780759
 30
0.0
 10
129.5741258649462
 20
-147.8213356780759
 30
0.0
 10
129.2447725400154
 20
-147.6304829003457
 30
0.0
 10
129.2447725400154
 20
-147.3955329004044
 30
0.0
 10
129.2447725400154
 20
-147.1605829004634
 30
0.0
 10
129.5741258649462
 20
-146.970400400511
 30
0.0
 10
129.978550299073
 20
-146.970400400511
 30
0.0
 10
130.3837155665141
 20
-146.970400400511
 30
0.0
 10
130.7123633359074
 20
-147.1605829004634
 30
0.0
 10
130.7123633359074
 20
-147.3955329004044
 30
0.0
  0
SPLINE
  5
11D
330
10A
100
AcDbEntity
  8
レイヤー 1
 62
   250
420
  2299925
370
     9
100
AcDbSpline
210
0.0
220
0.0
230
1.0
 70
     8
 71
     3
 72
    11
 73
     7
 74
     0
 42
0.0000000001
 43
0.0000000001
 40
0.0
 40
0.0
 40
0.0
 40
0.0
 40
1.0
 40
1.0
 40
1.0
 40
2.0
 40
2.0
 40
2.0
 40
2.0
 10
129.373606981173
 20
-147.6297773447905
 30
0.0
 10
129.373606981173
 20
-147.6297773447905
 30
0.0
 10
129.3515583706244
 20
-147.1185317893628
 30
0.0
 10
130.1804450161444
 20
-147.1619587337963
 30
0.0
 10
130.1804450161444
 20
-147.1619587337963
 30
0.0
 10
130.6696419481084
 20
-147.2253176226691
 30
0.0
 10
130.584904728048
 20
-147.6084342892401
 30
0.0
  0
SPLINE
  5
11E
330
10A
100
AcDbEntity
  8
レイヤー 1
 62
   250
420
  2299925
370
     9
100
AcDbSpline
210
0.0
220
0.0
230
1.0
 70
    11
 71
     3
 72
    17
 73
    13
 74
     0
 42
0.0000000001
 43
0.0000000001
 40
0.0
 40
0.0
 40
0.0
 40
0.0
 40
1.0
 40
1.0
 40
1.0
 40
2.0
 40
2.0
 40
2.0
 40
3.0
 40
3.0
 40
3.0
 40
4.0
 40
4.0
 40
4.0
 40
4.0
 10
130.1728602941157
 20
-146.4501942895298
 30
0.0
 10
130.1728602941157
 20
-146.6851442894711
 30
0.0
 10
129.8435069691849
 20
-146.8759970672012
 30
0.0
 10
129.4390472572813
 20
-146.8759970672012
 30
0.0
 10
129.033917267617
 20
-146.8759970672012
 30
0.0
 10
128.7045639426862
 20
-146.6851442894711
 30
0.0
 10
128.7045639426862
 20
-146.4501942895298
 30
0.0
 10
128.7045639426862
 20
-146.2152442895884
 30
0.0
 10
129.033917267617
 20
-146.025061789636
 30
0.0
 10
129.4390472572813
 20
-146.025061789636
 30
0.0
 10
129.8435069691849
 20
-146.025061789636
 30
0.0
 10
130.1728602941157
 20
-146.2152442895884
 30
0.0
 10
130.1728602941157
 20
-146.4501942895298
 30
0.0
  0
SPLINE
  5
11F
330
10A
100
AcDbEntity
  8
レイヤー 1
 62
   250
420
  2299925
370
     9
100
AcDbSpline
210
0.0
220
0.0
230
1.0
 70
     8
 71
     3
 72
    11
 73
     7
 74
     0
 42
0.0000000001
 43
0.0000000001
 40
0.0
 40
0.0
 40
0.0
 40
0.0
 40
1.0
 40
1.0
 40
1.0
 40
2.0
 40
2.0
 40
2.0
 40
2.0
 10
128.8327281060831
 20
-146.6844387339155
 30
0.0
 10
128.8327281060831
 20
-146.6844387339155
 30
0.0
 10
128.8120553288327
 20
-146.1731931784878
 30
0.0
 10
129.6402716965921
 20
-146.2166201229216
 30
0.0
 10
129.6402716965921
 20
-146.2166201229216
 30
0.0
 10
130.129468628556
 20
-146.2800142895723
 30
0.0
 10
130.0446961307188
 20
-146.6630956783655
 30
0.0
  0
SPLINE
  5
120
330
10A
100
AcDbEntity
  8
レイヤー 1
 62
   250
420
  2299925
370
     9
100
AcDbSpline
210
0.0
220
0.0
230
1.0
 70
     9
 71
     3
 72
    17
 73
    13
 74
     0
 42
0.0000000001
 43
0.0000000001
 40
0.0
 40
0.0
 40
0.0
 40
0.0
 40
1.0
 40
1.0
 40
1.0
 40
2.0
 40
2.0
 40
2.0
 40
3.0
 40
3.0
 40
3.0
 40
4.0
 40
4.0
 40
4.0
 40
4.0
 10
128.6528819995602
 20
-149.2861748443765
 30
0.0
 10
128.6528819995602
 20
-149.521160122095
 30
0.0
 10
128.3235286746294
 20
-149.7120128998255
 30
0.0
 10
127.9191042405027
 20
-149.7120128998255
 30
0.0
 10
127.5132686953009
 20
-149.7120128998255
 30
0.0
 10
127.185961481429
 20
-149.521160122095
 30
0.0
 10
127.185961481429
 20
-149.2861748443765
 30
0.0
 10
127.185961481429
 20
-149.0512248444349
 30
0.0
 10
127.5132686953009
 20
-148.8610776222603
 30
0.0
 10
127.9191042405027
 20
-148.8610776222603
 30
0.0
 10
128.3235286746294
 20
-148.8610776222603
 30
0.0
 10
128.6528819995602
 20
-149.0512248444349
 30
0.0
 10
128.6528819995602
 20
-149.2861748443765
 30
0.0
  0
SPLINE
  5
121
330
10A
100
AcDbEntity
  8
レイヤー 1
 62
   250
420
  2299925
370
     9
100
AcDbSpline
210
0.0
220
0.0
230
1.0
 70
     8
 71
     3
 72
    11
 73
     7
 74
     0
 42
0.0000000001
 43
0.0000000001
 40
0.0
 40
0.0
 40
0.0
 40
0.0
 40
1.0
 40
1.0
 40
1.0
 40
2.0
 40
2.0
 40
2.0
 40
2.0
 10
127.3134553670652
 20
-149.5204545665395
 30
0.0
 10
127.3134553670652
 20
-149.5204545665395
 30
0.0
 10
127.2914099158089
 20
-149.0092090111121
 30
0.0
 10
128.1216692353349
 20
-149.0526006777678
 30
0.0
 10
128.1216692353349
 20
-149.0526006777678
 30
0.0
 10
128.6101606117613
 20
-149.1159948444188
 30
0.0
 10
128.5247210266114
 20
-149.4991115109895
 30
0.0
  0
SPLINE
  5
122
330
10A
100
AcDbEntity
  8
レイヤー 1
 62
   250
420
  2299925
370
     9
100
AcDbSpline
210
0.0
220
0.0
230
1.0
 70
     9
 71
     3
 72
    17
 73
    13
 74
     0
 42
0.0000000001
 43
0.0000000001
 40
0.0
 40
0.0
 40
0.0
 40
0.0
 40
1.0
 40
1.0
 40
1.0
 40
2.0
 40
2.0
 40
2.0
 40
3.0
 40
3.0
 40
3.0
 40
4.0
 40
4.0
 40
4.0
 40
4.0
 10
128.4158858944954
 20
-148.2057929002019
 30
0.0
 10
128.4158858944954
 20
-148.440778177921
 30
0.0
 10
128.0872028473253
 20
-148.6316309556511
 30
0.0
 10
127.6827431354217
 20
-148.6316309556511
 30
0.0
 10
127.2776131457574
 20
-148.6316309556511
 30
0.0
 10
126.9489653763641
 20
-148.440778177921
 30
0.0
 10
126.9489653763641
 20
-148.2057929002019
 30
0.0
 10
126.9489653763641
 20
-147.9715484558161
 30
0.0
 10
127.2776131457574
 20
-147.7799901225307
 30
0.0
 10
127.6827431354217
 20
-147.7799901225307
 30
0.0
 10
128.0872028473253
 20
-147.7799901225307
 30
0.0
 10
128.4158858944954
 20
-147.9715484558161
 30
0.0
 10
128.4158858944954
 20
-148.2057929002019
 30
0.0
  0
SPLINE
  5
123
330
10A
100
AcDbEntity
  8
レイヤー 1
 62
   250
420
  2299925
370
     9
100
AcDbSpline
210
0.0
220
0.0
230
1.0
 70
     8
 71
     3
 72
    11
 73
     7
 74
     0
 42
0.0000000001
 43
0.0000000001
 40
0.0
 40
0.0
 40
0.0
 40
0.0
 40
1.0
 40
1.0
 40
1.0
 40
2.0
 40
2.0
 40
2.0
 40
2.0
 10
127.0770942619842
 20
-148.4394023445881
 30
0.0
 10
127.0770942619842
 20
-148.4394023445881
 30
0.0
 10
127.0557543603124
 20
-147.9288270669377
 30
0.0
 10
127.8846378524931
 20
-147.9722187335934
 30
0.0
 10
127.8846378524931
 20
-147.9722187335934
 30
0.0
 10
128.3738347844571
 20
-148.0356129002444
 30
0.0
 10
128.2883920088592
 20
-148.4187295668154
 30
0.0
  0
SPLINE
  5
124
330
10A
100
AcDbEntity
  8
レイヤー 1
 62
   250
420
  2299925
370
     9
100
AcDbSpline
210
0.0
220
0.0
230
1.0
 70
     9
 71
     3
 72
    17
 73
    13
 74
     0
 42
0.0000000001
 43
0.0000000001
 40
0.0
 40
0.0
 40
0.0
 40
0.0
 40
1.0
 40
1.0
 40
1.0
 40
2.0
 40
2.0
 40
2.0
 40
3.0
 40
3.0
 40
3.0
 40
4.0
 40
4.0
 40
4.0
 40
4.0
 10
127.8763828527037
 20
-147.2604895671054
 30
0.0
 10
127.8763828527037
 20
-147.4954395670464
 30
0.0
 10
127.5470295277729
 20
-147.6855867892207
 30
0.0
 10
127.1432432491792
 20
-147.6855867892207
 30
0.0
 10
126.7374045484281
 20
-147.6855867892207
 30
0.0
 10
126.4087599160294
 20
-147.4954395670464
 30
0.0
 10
126.4087599160294
 20
-147.2604895671054
 30
0.0
 10
126.4087599160294
 20
-147.0255042893859
 30
0.0
 10
126.7374045484281
 20
-146.8353570672113
 30
0.0
 10
127.1432432491792
 20
-146.8353570672113
 30
0.0
 10
127.5470295277729
 20
-146.8353570672113
 30
0.0
 10
127.8763828527037
 20
-147.0255042893859
 30
0.0
 10
127.8763828527037
 20
-147.2604895671054
 30
0.0
  0
SPLINE
  5
125
330
10A
100
AcDbEntity
  8
レイヤー 1
 62
   250
420
  2299925
370
     9
100
AcDbSpline
210
0.0
220
0.0
230
1.0
 70
     8
 71
     3
 72
    11
 73
     7
 74
     0
 42
0.0000000001
 43
0.0000000001
 40
0.0
 40
0.0
 40
0.0
 40
0.0
 40
1.0
 40
1.0
 40
1.0
 40
2.0
 40
2.0
 40
2.0
 40
2.0
 10
126.5369209424318
 20
-147.4940637337132
 30
0.0
 10
126.5369209424318
 20
-147.4940637337132
 30
0.0
 10
126.5155426096439
 20
-146.9834884560631
 30
0.0
 10
127.3437589774032
 20
-147.0268801227188
 30
0.0
 10
127.3437589774032
 20
-147.0268801227188
 30
0.0
 10
127.8336614649048
 20
-147.0902742893695
 30
0.0
 10
127.7488889670675
 20
-147.4733909559408
 30
0.0
  0
SPLINE
  5
126
330
10A
100
AcDbEntity
  8
レイヤー 1
 62
   250
420
  2299925
370
     9
100
AcDbSpline
210
0.0
220
0.0
230
1.0
 70
     9
 71
     3
 72
    17
 73
    13
 74
     0
 42
0.0000000001
 43
0.0000000001
 40
0.0
 40
0.0
 40
0.0
 40
0.0
 40
1.0
 40
1.0
 40
1.0
 40
2.0
 40
2.0
 40
2.0
 40
3.0
 40
3.0
 40
3.0
 40
4.0
 40
4.0
 40
4.0
 40
4.0
 10
126.2213612282602
 20
-150.097175677507
 30
0.0
 10
126.2213612282602
 20
-150.3314201218925
 30
0.0
 10
125.89267818109
 20
-150.5223081774005
 30
0.0
 10
125.4875481914258
 20
-150.5223081774005
 30
0.0
 10
125.0823829239846
 20
-150.5223081774005
 30
0.0
 10
124.7537351545913
 20
-150.3314201218925
 30
0.0
 10
124.7537351545913
 20
-150.097175677507
 30
0.0
 10
124.7537351545913
 20
-149.8622256775661
 30
0.0
 10
125.0823829239846
 20
-149.6713376220574
 30
0.0
 10
125.4875481914258
 20
-149.6713376220574
 30
0.0
 10
125.89267818109
 20
-149.6713376220574
 30
0.0
 10
126.2213612282602
 20
-149.8622256775661
 30
0.0
 10
126.2213612282602
 20
-150.097175677507
 30
0.0
  0
SPLINE
  5
127
330
10A
100
AcDbEntity
  8
レイヤー 1
 62
   250
420
  2299925
370
     9
100
AcDbSpline
210
0.0
220
0.0
230
1.0
 70
     8
 71
     3
 72
    11
 73
     7
 74
     0
 42
0.0000000001
 43
0.0000000001
 40
0.0
 40
0.0
 40
0.0
 40
0.0
 40
1.0
 40
1.0
 40
1.0
 40
2.0
 40
2.0
 40
2.0
 40
2.0
 10
124.8818993179883
 20
-150.3307498441152
 30
0.0
 10
124.8818993179883
 20
-150.3307498441152
 30
0.0
 10
124.8598507074397
 20
-149.8201745664651
 30
0.0
 10
125.6901131862579
 20
-149.8628959553434
 30
0.0
 10
125.6901131862579
 20
-149.8628959553434
 30
0.0
 10
126.1786398404612
 20
-149.9262901219944
 30
0.0
 10
126.0945728981615
 20
-150.3100770663424
 30
0.0
  0
SPLINE
  5
128
330
10A
100
AcDbEntity
  8
レイヤー 1
 62
   250
420
  2299925
370
     9
100
AcDbSpline
210
0.0
220
0.0
230
1.0
 70
     9
 71
     3
 72
    17
 73
    13
 74
     0
 42
0.0000000001
 43
0.0000000001
 40
0.0
 40
0.0
 40
0.0
 40
0.0
 40
1.0
 40
1.0
 40
1.0
 40
2.0
 40
2.0
 40
2.0
 40
3.0
 40
3.0
 40
3.0
 40
4.0
 40
4.0
 40
4.0
 40
4.0
 10
125.9857056787167
 20
-149.0160881777772
 30
0.0
 10
125.9857056787167
 20
-149.2510381777182
 30
0.0
 10
125.6556467982483
 20
-149.4419262332261
 30
0.0
 10
125.2512223641216
 20
-149.4419262332261
 30
0.0
 10
124.8460570966804
 20
-149.4419262332261
 30
0.0
 10
124.5180796050479
 20
-149.2510381777182
 30
0.0
 10
124.5180796050479
 20
-149.0160881777772
 30
0.0
 10
124.5180796050479
 20
-148.7811381778358
 30
0.0
 10
124.8460570966804
 20
-148.5909556778834
 30
0.0
 10
125.2512223641216
 20
-148.5909556778834
 30
0.0
 10
125.6556467982483
 20
-148.5909556778834
 30
0.0
 10
125.9857056787167
 20
-148.7811381778358
 30
0.0
 10
125.9857056787167
 20
-149.0160881777772
 30
0.0
  0
SPLINE
  5
129
330
10A
100
AcDbEntity
  8
レイヤー 1
 62
   250
420
  2299925
370
     9
100
AcDbSpline
210
0.0
220
0.0
230
1.0
 70
     8
 71
     3
 72
    11
 73
     7
 74
     0
 42
0.0000000001
 43
0.0000000001
 40
0.0
 40
0.0
 40
0.0
 40
0.0
 40
1.0
 40
1.0
 40
1.0
 40
2.0
 40
2.0
 40
2.0
 40
2.0
 10
124.6448710275815
 20
-149.2503678999408
 30
0.0
 10
124.6448710275815
 20
-149.2503678999408
 30
0.0
 10
124.6241951578962
 20
-148.739122344513
 30
0.0
 10
125.4537904718236
 20
-148.7825140111687
 30
0.0
 10
125.4537904718236
 20
-148.7825140111687
 30
0.0
 10
125.9429842909177
 20
-148.8459081778198
 30
0.0
 10
125.8575415153198
 20
-149.2289895666126
 30
0.0
  0
SPLINE
  5
12A
330
10A
100
AcDbEntity
  8
レイヤー 1
 62
   250
420
  2299925
370
     9
100
AcDbSpline
210
0.0
220
0.0
230
1.0
 70
    11
 71
     3
 72
    17
 73
    13
 74
     0
 42
0.0000000001
 43
0.0000000001
 40
0.0
 40
0.0
 40
0.0
 40
0.0
 40
1.0
 40
1.0
 40
1.0
 40
2.0
 40
2.0
 40
2.0
 40
3.0
 40
3.0
 40
3.0
 40
4.0
 40
4.0
 40
4.0
 40
4.0
 10
125.4448268036268
 20
-148.0707495669025
 30
0.0
 10
125.4448268036268
 20
-148.3056995668435
 30
0.0
 10
125.1161437564566
 20
-148.4965876223515
 30
0.0
 10
124.7117193223299
 20
-148.4965876223515
 30
0.0
 10
124.3058837771281
 20
-148.4965876223515
 30
0.0
 10
123.9779062854955
 20
-148.3056995668435
 30
0.0
 10
123.9779062854955
 20
-148.0707495669025
 30
0.0
 10
123.9779062854955
 20
-147.8357995669612
 30
0.0
 10
124.3058837771281
 20
-147.6456523447866
 30
0.0
 10
124.7117193223299
 20
-147.6456523447866
 30
0.0
 10
125.1161437564566
 20
-147.6456523447866
 30
0.0
 10
125.4448268036268
 20
-147.8357995669612
 30
0.0
 10
125.4448268036268
 20
-148.0707495669025
 30
0.0
  0
SPLINE
  5
12B
330
10A
100
AcDbEntity
  8
レイヤー 1
 62
   250
420
  2299925
370
     9
100
AcDbSpline
210
0.0
220
0.0
230
1.0
 70
     8
 71
     3
 72
    11
 73
     7
 74
     0
 42
0.0000000001
 43
0.0000000001
 40
0.0
 40
0.0
 40
0.0
 40
0.0
 40
1.0
 40
1.0
 40
1.0
 40
2.0
 40
2.0
 40
2.0
 40
2.0
 10
124.1060704488924
 20
-148.3050292890665
 30
0.0
 10
124.1060704488924
 20
-148.3050292890665
 30
0.0
 10
124.0840218383438
 20
-147.7937837336384
 30
0.0
 10
124.9135787616245
 20
-147.8371754002941
 30
0.0
 10
124.9135787616245
 20
-147.8371754002941
 30
0.0
 10
125.4027756935885
 20
-147.9005695669448
 30
0.0
 10
125.3173681957674
 20
-148.2836509557379
 30
0.0
  0
LINE
  5
12C
330
10A
100
AcDbEntity
  8
レイヤー 1
 62
   250
420
  2299925
370
     9
100
AcDbLine
 10
128.3552433960425
 20
-152.0525876214621
 30
0.0
 11
128.8499436611995
 21
-152.2479559547472
 31
0.0
  0
LINE
  5
12D
330
10A
100
AcDbEntity
  8
レイヤー 1
 62
   250
420
  2299925
370
     9
100
AcDbLine
 10
128.8499436611995
 20
-152.2479559547472
 30
0.0
 11
139.0329797902974
 21
-148.2471384557473
 31
0.0
  0
ENDBLK
  5
10D
330
10A
100
AcDbEntity
  8
0
100
AcDbBlockEnd
  0
BLOCK
  5
132
330
130
100
AcDbEntity
  8
0
100
AcDbBlockBegin
  2
Block_11
 70
     0
 10
0.0
 20
0.0
 30
0.0
  3
Block_11
  1

  0
INSERT
  5
135
330
130
100
AcDbEntity
  8
レイヤー 1
100
AcDbBlockReference
  2
Block_12
 10
0.0
 20
0.0
 30
0.0
  0
INSERT
  5
13C
330
130
100
AcDbEntity
  8
レイヤー 1
100
AcDbBlockReference
  2
Block_13
 10
0.0
 20
0.0
 30
0.0
  0
ENDBLK
  5
133
330
130
100
AcDbEntity
  8
0
100
AcDbBlockEnd
  0
BLOCK
  5
136
330
134
100
AcDbEntity
  8
0
100
AcDbBlockBegin
  2
Block_12
 70
     0
 10
0.0
 20
0.0
 30
0.0
  3
Block_12
  1

  0
LINE
  5
138
330
134
100
AcDbEntity
  8
レイヤー 1
 62
    18
420
        0
370
     9
100
AcDbLine
 10
83.04168901450145
 20
-147.9036740113886
 30
0.0
 11
83.85300732713632
 21
-148.4882973445757
 31
0.0
  0
LINE
  5
139
330
134
100
AcDbEntity
  8
レイヤー 1
 62
    18
420
        0
370
     9
100
AcDbLine
 10
83.04168901450145
 20
-147.9036740113886
 30
0.0
 11
85.61933033762922
 21
-151.0607528994879
 31
0.0
  0
LINE
  5
13A
330
134
100
AcDbEntity
  8
レイヤー 1
 62
    18
420
        0
370
     9
100
AcDbLine
 10
83.04168901450145
 20
-147.9036740113886
 30
0.0
 11
83.45200483736674
 21
-148.8157456778272
 31
0.0
  0
ENDBLK
  5
137
330
134
100
AcDbEntity
  8
0
100
AcDbBlockEnd
  0
BLOCK
  5
13D
330
13B
100
AcDbEntity
  8
0
100
AcDbBlockBegin
  2
Block_13
 70
     0
 10
0.0
 20
0.0
 30
0.0
  3
Block_13
  1

  0
INSERT
  5
140
330
13B
100
AcDbEntity
  8
レイヤー 1
100
AcDbBlockReference
  2
Block_14
 10
0.0
 20
0.0
 30
0.0
  0
ENDBLK
  5
13E
330
13B
100
AcDbEntity
  8
0
100
AcDbBlockEnd
  0
BLOCK
  5
141
330
13F
100
AcDbEntity
  8
0
100
AcDbBlockBegin
  2
Block_14
 70
     0
 10
0.0
 20
0.0
 30
0.0
  3
Block_14
  1

  0
SPLINE
  5
143
330
13F
100
AcDbEntity
  8
レイヤー 1
100
AcDbSpline
210
0.0
220
0.0
230
1.0
 70
     9
 71
     3
 72
    17
 73
    13
 74
     0
 42
0.0000000001
 43
0.0000000001
 40
0.0
 40
0.0
 40
0.0
 40
0.0
 40
1.0
 40
1.0
 40
1.0
 40
2.0
 40
2.0
 40
2.0
 40
3.0
 40
3.0
 40
3.0
 40
4.0
 40
4.0
 40
4.0
 40
4.0
 10
87.28562823338693
 20
-150.9602945586141
 30
0.0
 10
87.26874726550921
 20
-150.9899223797872
 30
0.0
 10
87.21793210710178
 20
-151.082939957889
 30
0.0
 10
87.20742456587176
 20
-151.1018879830579
 30
0.0
 10
87.39776609143182
 20
-151.1611436254042
 30
0.0
 10
87.41895342866611
 20
-151.1676893068261
 30
0.0
 10
87.49095592430782
 20
-151.1949055611596
 30
0.0
 10
87.54590519729756
 20
-151.1084336644798
 30
0.0
 10
87.56915959182299
 20
-151.0343641115469
 30
0.0
 10
87.58397350240956
 20
-150.9602945586141
 30
0.0
 10
87.58397350240956
 20
-150.9602945586141
 30
0.0
 10
87.28562823338693
 20
-150.9602945586141
 30
0.0
 10
87.28562823338693
 20
-150.9602945586141
 30
0.0
  0
SPLINE
  5
144
330
13F
100
AcDbEntity
  8
レイヤー 1
100
AcDbSpline
210
0.0
220
0.0
230
1.0
 70
    11
 71
     3
 72
    20
 73
    16
 74
     0
 42
0.0000000001
 43
0.0000000001
 40
0.0
 40
0.0
 40
0.0
 40
0.0
 40
1.0
 40
1.0
 40
1.0
 40
2.0
 40
2.0
 40
2.0
 40
3.0
 40
3.0
 40
3.0
 40
4.0
 40
4.0
 40
4.0
 40
5.0
 40
5.0
 40
5.0
 40
5.0
 10
87.22223847645834
 20
-150.1097004833059
 30
0.0
 10
87.22223847645834
 20
-150.1097004833059
 30
0.0
 10
87.19054359799404
 20
-150.1097004833059
 30
0.0
 10
87.19054359799404
 20
-150.1097004833059
 30
0.0
 10
87.23705238704491
 20
-150.2092637428296
 30
0.0
 10
87.26874726550921
 20
-150.2895344676359
 30
0.0
 10
87.30268145603892
 20
-150.4166584910417
 30
0.0
 10
87.30268145603892
 20
-150.4166584910417
 30
0.0
 10
87.50990394947669
 20
-150.4166584910417
 30
0.0
 10
87.50990394947669
 20
-150.4166584910417
 30
0.0
 10
87.54159882794098
 20
-150.3236409129399
 30
0.0
 10
87.56485322246643
 20
-150.2388915640028
 30
0.0
 10
87.58810761699185
 20
-150.1097004833059
 30
0.0
 10
87.58810761699185
 20
-150.1097004833059
 30
0.0
 10
87.22223847645834
 20
-150.1097004833059
 30
0.0
 10
87.22223847645834
 20
-150.1097004833059
 30
0.0
  0
SPLINE
  5
145
330
13F
100
AcDbEntity
  8
レイヤー 1
100
AcDbSpline
210
0.0
220
0.0
230
1.0
 70
     9
 71
     3
 72
   242
 73
   238
 74
     0
 42
0.0000000001
 43
0.0000000001
 40
0.0
 40
0.0
 40
0.0
 40
0.0
 40
1.0
 40
1.0
 40
1.0
 40
2.0
 40
2.0
 40
2.0
 40
3.0
 40
3.0
 40
3.0
 40
4.0
 40
4.0
 40
4.0
 40
5.0
 40
5.0
 40
5.0
 40
6.0
 40
6.0
 40
6.0
 40
7.0
 40
7.0
 40
7.0
 40
8.0
 40
8.0
 40
8.0
 40
9.0
 40
9.0
 40
9.0
 40
10.0
 40
10.0
 40
10.0
 40
11.0
 40
11.0
 40
11.0
 40
12.0
 40
12.0
 40
12.0
 40
13.0
 40
13.0
 40
13.0
 40
14.0
 40
14.0
 40
14.0
 40
15.0
 40
15.0
 40
15.0
 40
16.0
 40
16.0
 40
16.0
 40
17.0
 40
17.0
 40
17.0
 40
18.0
 40
18.0
 40
18.0
 40
19.0
 40
19.0
 40
19.0
 40
20.0
 40
20.0
 40
20.0
 40
21.0
 40
21.0
 40
21.0
 40
22.0
 40
22.0
 40
22.0
 40
23.0
 40
23.0
 40
23.0
 40
24.0
 40
24.0
 40
24.0
 40
25.0
 40
25.0
 40
25.0
 40
26.0
 40
26.0
 40
26.0
 40
27.0
 40
27.0
 40
27.0
 40
28.0
 40
28.0
 40
28.0
 40
29.0
 40
29.0
 40
29.0
 40
30.0
 40
30.0
 40
30.0
 40
31.0
 40
31.0
 40
31.0
 40
32.0
 40
32.0
 40
32.0
 40
33.0
 40
33.0
 40
33.0
 40
34.0
 40
34.0
 40
34.0
 40
35.0
 40
35.0
 40
35.0
 40
36.0
 40
36.0
 40
36.0
 40
37.0
 40
37.0
 40
37.0
 40
38.0
 40
38.0
 40
38.0
 40
39.0
 40
39.0
 40
39.0
 40
40.0
 40
40.0
 40
40.0
 40
41.0
 40
41.0
 40
41.0
 40
42.0
 40
42.0
 40
42.0
 40
43.0
 40
43.0
 40
43.0
 40
44.0
 40
44.0
 40
44.0
 40
45.0
 40
45.0
 40
45.0
 40
46.0
 40
46.0
 40
46.0
 40
47.0
 40
47.0
 40
47.0
 40
48.0
 40
48.0
 40
48.0
 40
49.0
 40
49.0
 40
49.0
 40
50.0
 40
50.0
 40
50.0
 40
51.0
 40
51.0
 40
51.0
 40
52.0
 40
52.0
 40
52.0
 40
53.0
 40
53.0
 40
53.0
 40
54.0
 40
54.0
 40
54.0
 40
55.0
 40
55.0
 40
55.0
 40
56.0
 40
56.0
 40
56.0
 40
57.0
 40
57.0
 40
57.0
 40
58.0
 40
58.0
 40
58.0
 40
59.0
 40
59.0
 40
59.0
 40
60.0
 40
60.0
 40
60.0
 40
61.0
 40
61.0
 40
61.0
 40
62.0
 40
62.0
 40
62.0
 40
63.0
 40
63.0
 40
63.0
 40
64.0
 40
64.0
 40
64.0
 40
65.0
 40
65.0
 40
65.0
 40
66.0
 40
66.0
 40
66.0
 40
67.0
 40
67.0
 40
67.0
 40
68.0
 40
68.0
 40
68.0
 40
69.0
 40
69.0
 40
69.0
 40
70.0
 40
70.0
 40
70.0
 40
71.0
 40
71.0
 40
71.0
 40
72.0
 40
72.0
 40
72.0
 40
73.0
 40
73.0
 40
73.0
 40
74.0
 40
74.0
 40
74.0
 40
75.0
 40
75.0
 40
75.0
 40
76.0
 40
76.0
 40
76.0
 40
77.0
 40
77.0
 40
77.0
 40
78.0
 40
78.0
 40
78.0
 40
79.0
 40
79.0
 40
79.0
 40
79.0
 10
87.85045163819365
 20
-150.5751328833632
 30
0.0
 10
87.85045163819365
 20
-150.5751328833632
 30
0.0
 10
87.59672035570499
 20
-150.5751328833632
 30
0.0
 10
87.59672035570499
 20
-150.5751328833632
 30
0.0
 10
87.59672035570499
 20
-150.5751328833632
 30
0.0
 10
87.31956242391664
 20
-150.5751328833632
 30
0.0
 10
87.31956242391664
 20
-150.5751328833632
 30
0.0
 10
87.31956242391664
 20
-150.5751328833632
 30
0.0
 10
87.44651419254809
 20
-150.6175075578317
 30
0.0
 10
87.44651419254809
 20
-150.6175075578317
 30
0.0
 10
87.45702173377811
 20
-150.621641672414
 30
0.0
 10
87.46976858707354
 20
-150.628187353836
 30
0.0
 10
87.46976858707354
 20
-150.6409342071314
 30
0.0
 10
87.46976858707354
 20
-150.6619492895914
 30
0.0
 10
87.43807370860924
 20
-150.6681504614649
 30
0.0
 10
87.41688637137494
 20
-150.6726290855957
 30
0.0
 10
87.40620657537068
 20
-150.6957112253469
 30
0.0
 10
87.37657875419753
 20
-150.7615125491152
 30
0.0
 10
87.35763072902866
 20
-150.8059542808749
 30
0.0
 10
87.35763072902866
 20
-150.8059542808749
 30
0.0
 10
87.62841523416929
 20
-150.8059542808749
 30
0.0
 10
87.62841523416929
 20
-150.8059542808749
 30
0.0
 10
87.71936575497988
 20
-150.8059542808749
 30
0.0
 10
87.91608070718764
 20
-150.8014756567441
 30
0.0
 10
88.05784638640568
 20
-150.7932074275795
 30
0.0
 10
88.05784638640568
 20
-150.7932074275795
 30
0.0
 10
88.05784638640568
 20
-150.9709743546183
 30
0.0
 10
88.05784638640568
 20
-150.9709743546183
 30
0.0
 10
87.97533634953394
 20
-150.9664957304875
 30
0.0
 10
87.95414901229966
 20
-150.9664957304875
 30
0.0
 10
87.77431502796963
 20
-150.9623616159052
 30
0.0
 10
87.74262014950533
 20
-151.1167018936444
 30
0.0
 10
87.69817841774559
 20
-151.1973171279993
 30
0.0
 10
87.65373668598588
 20
-151.2669080568013
 30
0.0
 10
87.77431502796963
 20
-151.3261636991476
 30
0.0
 10
87.88007945936678
 20
-151.394032080207
 30
0.0
 10
87.98377683347281
 20
-151.4763698623045
 30
0.0
 10
87.98377683347281
 20
-151.4763698623045
 30
0.0
 10
87.86526554878021
 20
-151.6434569933391
 30
0.0
 10
87.86526554878021
 20
-151.6434569933391
 30
0.0
 10
87.84201115425478
 20
-151.6245089681702
 30
0.0
 10
87.82943655573362
 20
-151.6158962294571
 30
0.0
 10
87.71729869768874
 20
-151.5314913900685
 30
0.0
 10
87.66855059657244
 20
-151.4932508301822
 30
0.0
 10
87.60929495422615
 20
-151.4574218371356
 30
0.0
 10
87.52902422941984
 20
-151.4129801053759
 30
0.0
 10
87.31732311185123
 20
-151.5990152615794
 30
0.0
 10
87.1121676757046
 20
-151.6224419108791
 30
0.0
 10
86.82243514539509
 20
-151.6520697320522
 30
0.0
 10
86.82243514539509
 20
-151.6520697320522
 30
0.0
 10
86.71873777128906
 20
-151.4722357477222
 30
0.0
 10
86.71873777128906
 20
-151.4722357477222
 30
0.0
 10
87.03603106548058
 20
-151.4681016331399
 30
0.0
 10
87.21155868045405
 20
-151.442607926549
 30
0.0
 10
87.36400415567636
 20
-151.3327093805696
 30
0.0
 10
87.24549287098376
 20
-151.2817219673879
 30
0.0
 10
87.15660940746433
 20
-151.2541612035059
 30
0.0
 10
87.12060815964347
 20
-151.241758859759
 30
0.0
 10
87.10166013447459
 20
-151.2689751140925
 30
0.0
 10
87.08684622388801
 20
-151.2882676488099
 30
0.0
 10
87.05928546000601
 20
-151.3220295845653
 30
0.0
 10
87.05928546000601
 20
-151.3220295845653
 30
0.0
 10
86.86257050779826
 20
-151.2393472929193
 30
0.0
 10
86.86257050779826
 20
-151.2393472929193
 30
0.0
 10
86.94508054466998
 20
-151.159076568113
 30
0.0
 10
87.00640324430743
 20
-151.0639919327201
 30
0.0
 10
87.06359182936258
 20
-150.9623616159052
 30
0.0
 10
86.87307804902827
 20
-150.9664957304875
 30
0.0
 10
86.85206296656824
 20
-150.9664957304875
 30
0.0
 10
86.76955292969649
 20
-150.9709743546183
 30
0.0
 10
86.76955292969649
 20
-150.9709743546183
 30
0.0
 10
86.76955292969649
 20
-150.7932074275795
 30
0.0
 10
86.76955292969649
 20
-150.7932074275795
 30
0.0
 10
86.90907929684913
 20
-150.7994085994529
 30
0.0
 10
87.11854110235231
 20
-150.8035427140352
 30
0.0
 10
87.1438625541689
 20
-150.8035427140352
 30
0.0
 10
87.16091577682089
 20
-150.7697807782798
 30
0.0
 10
87.21586504981061
 20
-150.649202436296
 30
0.0
 10
87.23498532975375
 20
-150.5751328833632
 30
0.0
 10
87.21586504981061
 20
-150.5751328833632
 30
0.0
 10
87.03809812277173
 20
-150.5816785647851
 30
0.0
 10
86.84362248262937
 20
-150.5944254180805
 30
0.0
 10
86.84362248262937
 20
-150.5944254180805
 30
0.0
 10
86.84362248262937
 20
-150.7274061038112
 30
0.0
 10
86.84362248262937
 20
-150.7274061038112
 30
0.0
 10
86.7948743815131
 20
-150.752899810402
 30
0.0
 10
86.7356187391668
 20
-150.7845946888663
 30
0.0
 10
86.60229354388762
 20
-150.8503960126346
 30
0.0
 10
86.60229354388762
 20
-150.8503960126346
 30
0.0
 10
86.60229354388762
 20
-150.9961235516607
 30
0.0
 10
86.60229354388762
 20
-150.9961235516607
 30
0.0
 10
86.60229354388762
 20
-150.9961235516607
 30
0.0
 10
86.60229354388762
 20
-151.4636230090091
 30
0.0
 10
86.60229354388762
 20
-151.4636230090091
 30
0.0
 10
86.60229354388762
 20
-151.5907470324148
 30
0.0
 10
86.56646455084104
 20
-151.6500026747611
 30
0.0
 10
86.28293319240496
 20
-151.641389936048
 30
0.0
 10
86.28293319240496
 20
-151.641389936048
 30
0.0
 10
86.17923581829895
 20
-151.4339951878359
 30
0.0
 10
86.17923581829895
 20
-151.4339951878359
 30
0.0
 10
86.24279783000181
 20
-151.4467420411314
 30
0.0
 10
86.29137367634383
 20
-151.4512206652622
 30
0.0
 10
86.33150903874698
 20
-151.4512206652622
 30
0.0
 10
86.40781790374527
 20
-151.4512206652622
 30
0.0
 10
86.41832544497528
 20
-151.4277940159625
 30
0.0
 10
86.41832544497528
 20
-151.3623372017427
 30
0.0
 10
86.41832544497528
 20
-151.3623372017427
 30
0.0
 10
86.41832544497528
 20
-150.9327337947321
 30
0.0
 10
86.41832544497528
 20
-150.9327337947321
 30
0.0
 10
86.32100149751698
 20
-150.9730414119095
 30
0.0
 10
86.30412052963924
 20
-150.9792425837829
 30
0.0
 10
86.25761174058837
 20
-150.9981906089518
 30
0.0
 10
86.25330537123181
 20
-151.0195502009604
 30
0.0
 10
86.24899900187525
 20
-151.0491780221335
 30
0.0
 10
86.23005097670638
 20
-151.0491780221335
 30
0.0
 10
86.22161049276753
 20
-151.0491780221335
 30
0.0
 10
86.21093069676325
 20
-151.0446993980027
 30
0.0
 10
86.20472952488979
 20
-151.0216172582515
 30
0.0
 10
86.20472952488979
 20
-151.0216172582515
 30
0.0
 10
86.15184730919121
 20
-150.829036420626
 30
0.0
 10
86.15184730919121
 20
-150.829036420626
 30
0.0
 10
86.29774710299153
 20
-150.7825276315752
 30
0.0
 10
86.36337617198554
 20
-150.759445491824
 30
0.0
 10
86.41832544497528
 20
-150.7380858998154
 30
0.0
 10
86.41832544497528
 20
-150.7380858998154
 30
0.0
 10
86.41832544497528
 20
-150.3257079702311
 30
0.0
 10
86.41832544497528
 20
-150.3257079702311
 30
0.0
 10
86.41832544497528
 20
-150.3257079702311
 30
0.0
 10
86.36544322927669
 20
-150.3257079702311
 30
0.0
 10
86.36544322927669
 20
-150.3257079702311
 30
0.0
 10
86.36544322927669
 20
-150.3257079702311
 30
0.0
 10
86.28723956176152
 20
-150.3257079702311
 30
0.0
 10
86.28723956176152
 20
-150.3257079702311
 30
0.0
 10
86.21954343547637
 20
-150.3257079702311
 30
0.0
 10
86.21093069676325
 20
-150.3257079702311
 30
0.0
 10
86.17510170371664
 20
-150.3319091421045
 30
0.0
 10
86.17510170371664
 20
-150.3319091421045
 30
0.0
 10
86.17510170371664
 20
-150.1372612471879
 30
0.0
 10
86.17510170371664
 20
-150.1372612471879
 30
0.0
 10
86.20249021282438
 20
-150.1438069286099
 30
0.0
 10
86.21093069676325
 20
-150.1438069286099
 30
0.0
 10
86.28086613511381
 20
-150.1438069286099
 30
0.0
 10
86.28086613511381
 20
-150.1438069286099
 30
0.0
 10
86.41401907561872
 20
-150.1438069286099
 30
0.0
 10
86.41401907561872
 20
-150.1438069286099
 30
0.0
 10
86.41401907561872
 20
-150.0738714902593
 30
0.0
 10
86.41401907561872
 20
-149.9911891986133
 30
0.0
 10
86.41195201832756
 20
-149.987055084031
 30
0.0
 10
86.40351153438871
 20
-149.8072210997009
 30
0.0
 10
86.40351153438871
 20
-149.7882730745321
 30
0.0
 10
86.40144447709756
 20
-149.7417642854812
 30
0.0
 10
86.40144447709756
 20
-149.7417642854812
 30
0.0
 10
86.6171074544742
 20
-149.7500325146458
 30
0.0
 10
86.6171074544742
 20
-149.7500325146458
 30
0.0
 10
86.62778725047848
 20
-149.7500325146458
 30
0.0
 10
86.64897458771276
 20
-149.7524440814855
 30
0.0
 10
86.64897458771276
 20
-149.7693250493632
 30
0.0
 10
86.64897458771276
 20
-149.7882730745321
 30
0.0
 10
86.63416067712619
 20
-149.7989528705363
 30
0.0
 10
86.60866697053533
 20
-149.8179008957052
 30
0.0
 10
86.60866697053533
 20
-149.8685437993384
 30
0.0
 10
86.60229354388762
 20
-150.097298139559
 30
0.0
 10
86.60453285595304
 20
-150.1438069286099
 30
0.0
 10
86.73355168187564
 20
-150.1438069286099
 30
0.0
 10
86.74629853517107
 20
-150.1438069286099
 30
0.0
 10
86.84362248262937
 20
-150.1351941898967
 30
0.0
 10
86.84362248262937
 20
-150.1351941898967
 30
0.0
 10
86.84362248262937
 20
-150.3298420848134
 30
0.0
 10
86.84362248262937
 20
-150.3298420848134
 30
0.0
 10
86.8053819227431
 20
-150.3277750275222
 30
0.0
 10
86.73768579645793
 20
-150.3236409129399
 30
0.0
 10
86.60229354388762
 20
-150.3257079702311
 30
0.0
 10
86.60229354388762
 20
-150.3257079702311
 30
0.0
 10
86.60229354388762
 20
-150.6640163468826
 30
0.0
 10
86.60229354388762
 20
-150.6640163468826
 30
0.0
 10
86.65741507165163
 20
-150.6409342071314
 30
0.0
 10
86.72287188587137
 20
-150.6133734432494
 30
0.0
 10
86.77161998698766
 20
-150.5899467939497
 30
0.0
 10
86.77161998698766
 20
-150.5899467939497
 30
0.0
 10
86.77161998698766
 20
-150.4121798669108
 30
0.0
 10
86.77161998698766
 20
-150.4121798669108
 30
0.0
 10
86.88582490232368
 20
-150.4249267202063
 30
0.0
 10
87.00433618701628
 20
-150.4249267202063
 30
0.0
 10
87.12060815964347
 20
-150.4249267202063
 30
0.0
 10
87.09735376511803
 20
-150.3298420848134
 30
0.0
 10
87.06996525601029
 20
-150.2471597931674
 30
0.0
 10
87.00640324430743
 20
-150.1141791074367
 30
0.0
 10
86.9619615125477
 20
-150.1162461647279
 30
0.0
 10
86.87945147567598
 20
-150.1203802793102
 30
0.0
 10
86.84138317056396
 20
-150.1224473366013
 30
0.0
 10
86.84138317056396
 20
-150.1224473366013
 30
0.0
 10
86.84138317056396
 20
-149.9426133522713
 30
0.0
 10
86.84138317056396
 20
-149.9426133522713
 30
0.0
 10
86.96626788190426
 20
-149.9512260909844
 30
0.0
 10
87.13972843958661
 20
-149.9553602055667
 30
0.0
 10
87.22223847645834
 20
-149.9553602055667
 30
0.0
 10
87.22223847645834
 20
-149.9553602055667
 30
0.0
 10
87.30474851333006
 20
-149.9553602055667
 30
0.0
 10
87.30474851333006
 20
-149.9553602055667
 30
0.0
 10
87.30474851333006
 20
-149.7924071891144
 30
0.0
 10
87.30474851333006
 20
-149.7820719026586
 30
0.0
 10
87.30268145603892
 20
-149.7269503748946
 30
0.0
 10
87.30268145603892
 20
-149.7269503748946
 30
0.0
 10
87.52678491735442
 20
-149.7524440814855
 30
0.0
 10
87.52678491735442
 20
-149.7524440814855
 30
0.0
 10
87.53109128671097
 20
-149.7524440814855
 30
0.0
 10
87.55227862394526
 20
-149.7545111387766
 30
0.0
 10
87.55227862394526
 20
-149.7713921066544
 30
0.0
 10
87.55227862394526
 20
-149.7862060172409
 30
0.0
 10
87.54159882794098
 20
-149.7944742464055
 30
0.0
 10
87.51421031883326
 20
-149.8092881569921
 30
0.0
 10
87.50783689218556
 20
-149.8750894807604
 30
0.0
 10
87.50576983489439
 20
-149.8961045632204
 30
0.0
 10
87.50576983489439
 20
-149.9553602055667
 30
0.0
 10
87.50576983489439
 20
-149.9553602055667
 30
0.0
 10
87.60085447028728
 20
-149.9553602055667
 30
0.0
 10
87.60085447028728
 20
-149.9553602055667
 30
0.0
 10
87.68336450715903
 20
-149.9553602055667
 30
0.0
 10
87.85682506484135
 20
-149.9512260909844
 30
0.0
 10
87.98170977618166
 20
-149.9426133522713
 30
0.0
 10
87.98170977618166
 20
-149.9426133522713
 30
0.0
 10
87.98170977618166
 20
-150.1224473366013
 30
0.0
 10
87.98170977618166
 20
-150.1224473366013
 30
0.0
 10
87.95208195500851
 20
-150.1203802793102
 30
0.0
 10
87.83357067031593
 20
-150.1162461647279
 30
0.0
 10
87.79343530791276
 20
-150.1141791074367
 30
0.0
 10
87.77862139732617
 20
-150.1648220110699
 30
0.0
 10
87.74468720679648
 20
-150.2767876143405
 30
0.0
 10
87.67923039257672
 20
-150.4166584910417
 30
0.0
 10
87.72143281227103
 20
-150.4166584910417
 30
0.0
 10
87.99859074405938
 20
-150.3973659563243
 30
0.0
 10
88.05991344369683
 20
-150.3952988990331
 30
0.0
 10
88.05991344369683
 20
-150.3952988990331
 30
0.0
 10
88.05991344369683
 20
-150.579611507494
 30
0.0
 10
88.05991344369683
 20
-150.579611507494
 30
0.0
 10
88.03028562252368
 20
-150.579611507494
 30
0.0
 10
88.01340465464596
 20
-150.5751328833632
 30
0.0
 10
87.85045163819365
 20
-150.5751328833632
 30
0.0
  0
HATCH
  5
146
330
13F
100
AcDbEntity
  8
レイヤー 1
 62
    18
420
        0
440
 33554687
100
AcDbHatch
 10
0.0
 20
0.0
 30
0.0
210
0.0
220
0.0
230
1.0
  2
SOLID
 70
     1
 71
     1
 91
        3
 92
        1
 93
        1
 72
     4
 94
        3
 73
     0
 74
     0
 95
       17
 96
       13
 40
0.0
 40
0.0
 40
0.0
 40
0.0
 40
1.0
 40
1.0
 40
1.0
 40
2.0
 40
2.0
 40
2.0
 40
3.0
 40
3.0
 40
3.0
 40
4.0
 40
4.0
 40
4.0
 40
4.0
 10
87.28562823338693
 20
-150.9602945586141
 10
87.26874726550921
 20
-150.9899223797872
 10
87.21793210710178
 20
-151.082939957889
 10
87.20742456587176
 20
-151.1018879830579
 10
87.39776609143182
 20
-151.1611436254042
 10
87.41895342866611
 20
-151.1676893068261
 10
87.49095592430782
 20
-151.1949055611596
 10
87.54590519729756
 20
-151.1084336644798
 10
87.56915959182299
 20
-151.0343641115469
 10
87.58397350240956
 20
-150.9602945586141
 10
87.58397350240956
 20
-150.9602945586141
 10
87.28562823338693
 20
-150.9602945586141
 10
87.28562823338693
 20
-150.9602945586141
 97
        0
 97
        1
330
143
 92
        1
 93
        1
 72
     4
 94
        3
 73
     0
 74
     0
 95
       20
 96
       16
 40
0.0
 40
0.0
 40
0.0
 40
0.0
 40
1.0
 40
1.0
 40
1.0
 40
2.0
 40
2.0
 40
2.0
 40
3.0
 40
3.0
 40
3.0
 40
4.0
 40
4.0
 40
4.0
 40
5.0
 40
5.0
 40
5.0
 40
5.0
 10
87.22223847645834
 20
-150.1097004833059
 10
87.22223847645834
 20
-150.1097004833059
 10
87.19054359799404
 20
-150.1097004833059
 10
87.19054359799404
 20
-150.1097004833059
 10
87.23705238704491
 20
-150.2092637428296
 10
87.26874726550921
 20
-150.2895344676359
 10
87.30268145603892
 20
-150.4166584910417
 10
87.30268145603892
 20
-150.4166584910417
 10
87.50990394947669
 20
-150.4166584910417
 10
87.50990394947669
 20
-150.4166584910417
 10
87.54159882794098
 20
-150.3236409129399
 10
87.56485322246643
 20
-150.2388915640028
 10
87.58810761699185
 20
-150.1097004833059
 10
87.58810761699185
 20
-150.1097004833059
 10
87.22223847645834
 20
-150.1097004833059
 10
87.22223847645834
 20
-150.1097004833059
 97
        0
 97
        1
330
144
 92
        1
 93
        1
 72
     4
 94
        3
 73
     0
 74
     0
 95
      242
 96
      238
 40
0.0
 40
0.0
 40
0.0
 40
0.0
 40
1.0
 40
1.0
 40
1.0
 40
2.0
 40
2.0
 40
2.0
 40
3.0
 40
3.0
 40
3.0
 40
4.0
 40
4.0
 40
4.0
 40
5.0
 40
5.0
 40
5.0
 40
6.0
 40
6.0
 40
6.0
 40
7.0
 40
7.0
 40
7.0
 40
8.0
 40
8.0
 40
8.0
 40
9.0
 40
9.0
 40
9.0
 40
10.0
 40
10.0
 40
10.0
 40
11.0
 40
11.0
 40
11.0
 40
12.0
 40
12.0
 40
12.0
 40
13.0
 40
13.0
 40
13.0
 40
14.0
 40
14.0
 40
14.0
 40
15.0
 40
15.0
 40
15.0
 40
16.0
 40
16.0
 40
16.0
 40
17.0
 40
17.0
 40
17.0
 40
18.0
 40
18.0
 40
18.0
 40
19.0
 40
19.0
 40
19.0
 40
20.0
 40
20.0
 40
20.0
 40
21.0
 40
21.0
 40
21.0
 40
22.0
 40
22.0
 40
22.0
 40
23.0
 40
23.0
 40
23.0
 40
24.0
 40
24.0
 40
24.0
 40
25.0
 40
25.0
 40
25.0
 40
26.0
 40
26.0
 40
26.0
 40
27.0
 40
27.0
 40
27.0
 40
28.0
 40
28.0
 40
28.0
 40
29.0
 40
29.0
 40
29.0
 40
30.0
 40
30.0
 40
30.0
 40
31.0
 40
31.0
 40
31.0
 40
32.0
 40
32.0
 40
32.0
 40
33.0
 40
33.0
 40
33.0
 40
34.0
 40
34.0
 40
34.0
 40
35.0
 40
35.0
 40
35.0
 40
36.0
 40
36.0
 40
36.0
 40
37.0
 40
37.0
 40
37.0
 40
38.0
 40
38.0
 40
38.0
 40
39.0
 40
39.0
 40
39.0
 40
40.0
 40
40.0
 40
40.0
 40
41.0
 40
41.0
 40
41.0
 40
42.0
 40
42.0
 40
42.0
 40
43.0
 40
43.0
 40
43.0
 40
44.0
 40
44.0
 40
44.0
 40
45.0
 40
45.0
 40
45.0
 40
46.0
 40
46.0
 40
46.0
 40
47.0
 40
47.0
 40
47.0
 40
48.0
 40
48.0
 40
48.0
 40
49.0
 40
49.0
 40
49.0
 40
50.0
 40
50.0
 40
50.0
 40
51.0
 40
51.0
 40
51.0
 40
52.0
 40
52.0
 40
52.0
 40
53.0
 40
53.0
 40
53.0
 40
54.0
 40
54.0
 40
54.0
 40
55.0
 40
55.0
 40
55.0
 40
56.0
 40
56.0
 40
56.0
 40
57.0
 40
57.0
 40
57.0
 40
58.0
 40
58.0
 40
58.0
 40
59.0
 40
59.0
 40
59.0
 40
60.0
 40
60.0
 40
60.0
 40
61.0
 40
61.0
 40
61.0
 40
62.0
 40
62.0
 40
62.0
 40
63.0
 40
63.0
 40
63.0
 40
64.0
 40
64.0
 40
64.0
 40
65.0
 40
65.0
 40
65.0
 40
66.0
 40
66.0
 40
66.0
 40
67.0
 40
67.0
 40
67.0
 40
68.0
 40
68.0
 40
68.0
 40
69.0
 40
69.0
 40
69.0
 40
70.0
 40
70.0
 40
70.0
 40
71.0
 40
71.0
 40
71.0
 40
72.0
 40
72.0
 40
72.0
 40
73.0
 40
73.0
 40
73.0
 40
74.0
 40
74.0
 40
74.0
 40
75.0
 40
75.0
 40
75.0
 40
76.0
 40
76.0
 40
76.0
 40
77.0
 40
77.0
 40
77.0
 40
78.0
 40
78.0
 40
78.0
 40
79.0
 40
79.0
 40
79.0
 40
79.0
 10
87.85045163819365
 20
-150.5751328833632
 10
87.85045163819365
 20
-150.5751328833632
 10
87.59672035570499
 20
-150.5751328833632
 10
87.59672035570499
 20
-150.5751328833632
 10
87.59672035570499
 20
-150.5751328833632
 10
87.31956242391664
 20
-150.5751328833632
 10
87.31956242391664
 20
-150.5751328833632
 10
87.31956242391664
 20
-150.5751328833632
 10
87.44651419254809
 20
-150.6175075578317
 10
87.44651419254809
 20
-150.6175075578317
 10
87.45702173377811
 20
-150.621641672414
 10
87.46976858707354
 20
-150.628187353836
 10
87.46976858707354
 20
-150.6409342071314
 10
87.46976858707354
 20
-150.6619492895914
 10
87.43807370860924
 20
-150.6681504614649
 10
87.41688637137494
 20
-150.6726290855957
 10
87.40620657537068
 20
-150.6957112253469
 10
87.37657875419753
 20
-150.7615125491152
 10
87.35763072902866
 20
-150.8059542808749
 10
87.35763072902866
 20
-150.8059542808749
 10
87.62841523416929
 20
-150.8059542808749
 10
87.62841523416929
 20
-150.8059542808749
 10
87.71936575497988
 20
-150.8059542808749
 10
87.91608070718764
 20
-150.8014756567441
 10
88.05784638640568
 20
-150.7932074275795
 10
88.05784638640568
 20
-150.7932074275795
 10
88.05784638640568
 20
-150.9709743546183
 10
88.05784638640568
 20
-150.9709743546183
 10
87.97533634953394
 20
-150.9664957304875
 10
87.95414901229966
 20
-150.9664957304875
 10
87.77431502796963
 20
-150.9623616159052
 10
87.74262014950533
 20
-151.1167018936444
 10
87.69817841774559
 20
-151.1973171279993
 10
87.65373668598588
 20
-151.2669080568013
 10
87.77431502796963
 20
-151.3261636991476
 10
87.88007945936678
 20
-151.394032080207
 10
87.98377683347281
 20
-151.4763698623045
 10
87.98377683347281
 20
-151.4763698623045
 10
87.86526554878021
 20
-151.6434569933391
 10
87.86526554878021
 20
-151.6434569933391
 10
87.84201115425478
 20
-151.6245089681702
 10
87.82943655573362
 20
-151.6158962294571
 10
87.71729869768874
 20
-151.5314913900685
 10
87.66855059657244
 20
-151.4932508301822
 10
87.60929495422615
 20
-151.4574218371356
 10
87.52902422941984
 20
-151.4129801053759
 10
87.31732311185123
 20
-151.5990152615794
 10
87.1121676757046
 20
-151.6224419108791
 10
86.82243514539509
 20
-151.6520697320522
 10
86.82243514539509
 20
-151.6520697320522
 10
86.71873777128906
 20
-151.4722357477222
 10
86.71873777128906
 20
-151.4722357477222
 10
87.03603106548058
 20
-151.4681016331399
 10
87.21155868045405
 20
-151.442607926549
 10
87.36400415567636
 20
-151.3327093805696
 10
87.24549287098376
 20
-151.2817219673879
 10
87.15660940746433
 20
-151.2541612035059
 10
87.12060815964347
 20
-151.241758859759
 10
87.10166013447459
 20
-151.2689751140925
 10
87.08684622388801
 20
-151.2882676488099
 10
87.05928546000601
 20
-151.3220295845653
 10
87.05928546000601
 20
-151.3220295845653
 10
86.86257050779826
 20
-151.2393472929193
 10
86.86257050779826
 20
-151.2393472929193
 10
86.94508054466998
 20
-151.159076568113
 10
87.00640324430743
 20
-151.0639919327201
 10
87.06359182936258
 20
-150.9623616159052
 10
86.87307804902827
 20
-150.9664957304875
 10
86.85206296656824
 20
-150.9664957304875
 10
86.76955292969649
 20
-150.9709743546183
 10
86.76955292969649
 20
-150.9709743546183
 10
86.76955292969649
 20
-150.7932074275795
 10
86.76955292969649
 20
-150.7932074275795
 10
86.90907929684913
 20
-150.7994085994529
 10
87.11854110235231
 20
-150.8035427140352
 10
87.1438625541689
 20
-150.8035427140352
 10
87.16091577682089
 20
-150.7697807782798
 10
87.21586504981061
 20
-150.649202436296
 10
87.23498532975375
 20
-150.5751328833632
 10
87.21586504981061
 20
-150.5751328833632
 10
87.03809812277173
 20
-150.5816785647851
 10
86.84362248262937
 20
-150.5944254180805
 10
86.84362248262937
 20
-150.5944254180805
 10
86.84362248262937
 20
-150.7274061038112
 10
86.84362248262937
 20
-150.7274061038112
 10
86.7948743815131
 20
-150.752899810402
 10
86.7356187391668
 20
-150.7845946888663
 10
86.60229354388762
 20
-150.8503960126346
 10
86.60229354388762
 20
-150.8503960126346
 10
86.60229354388762
 20
-150.9961235516607
 10
86.60229354388762
 20
-150.9961235516607
 10
86.60229354388762
 20
-150.9961235516607
 10
86.60229354388762
 20
-151.4636230090091
 10
86.60229354388762
 20
-151.4636230090091
 10
86.60229354388762
 20
-151.5907470324148
 10
86.56646455084104
 20
-151.6500026747611
 10
86.28293319240496
 20
-151.641389936048
 10
86.28293319240496
 20
-151.641389936048
 10
86.17923581829895
 20
-151.4339951878359
 10
86.17923581829895
 20
-151.4339951878359
 10
86.24279783000181
 20
-151.4467420411314
 10
86.29137367634383
 20
-151.4512206652622
 10
86.33150903874698
 20
-151.4512206652622
 10
86.40781790374527
 20
-151.4512206652622
 10
86.41832544497528
 20
-151.4277940159625
 10
86.41832544497528
 20
-151.3623372017427
 10
86.41832544497528
 20
-151.3623372017427
 10
86.41832544497528
 20
-150.9327337947321
 10
86.41832544497528
 20
-150.9327337947321
 10
86.32100149751698
 20
-150.9730414119095
 10
86.30412052963924
 20
-150.9792425837829
 10
86.25761174058837
 20
-150.9981906089518
 10
86.25330537123181
 20
-151.0195502009604
 10
86.24899900187525
 20
-151.0491780221335
 10
86.23005097670638
 20
-151.0491780221335
 10
86.22161049276753
 20
-151.0491780221335
 10
86.21093069676325
 20
-151.0446993980027
 10
86.20472952488979
 20
-151.0216172582515
 10
86.20472952488979
 20
-151.0216172582515
 10
86.15184730919121
 20
-150.829036420626
 10
86.15184730919121
 20
-150.829036420626
 10
86.29774710299153
 20
-150.7825276315752
 10
86.36337617198554
 20
-150.759445491824
 10
86.41832544497528
 20
-150.7380858998154
 10
86.41832544497528
 20
-150.7380858998154
 10
86.41832544497528
 20
-150.3257079702311
 10
86.41832544497528
 20
-150.3257079702311
 10
86.41832544497528
 20
-150.3257079702311
 10
86.36544322927669
 20
-150.3257079702311
 10
86.36544322927669
 20
-150.3257079702311
 10
86.36544322927669
 20
-150.3257079702311
 10
86.28723956176152
 20
-150.3257079702311
 10
86.28723956176152
 20
-150.3257079702311
 10
86.21954343547637
 20
-150.3257079702311
 10
86.21093069676325
 20
-150.3257079702311
 10
86.17510170371664
 20
-150.3319091421045
 10
86.17510170371664
 20
-150.3319091421045
 10
86.17510170371664
 20
-150.1372612471879
 10
86.17510170371664
 20
-150.1372612471879
 10
86.20249021282438
 20
-150.1438069286099
 10
86.21093069676325
 20
-150.1438069286099
 10
86.28086613511381
 20
-150.1438069286099
 10
86.28086613511381
 20
-150.1438069286099
 10
86.41401907561872
 20
-150.1438069286099
 10
86.41401907561872
 20
-150.1438069286099
 10
86.41401907561872
 20
-150.0738714902593
 10
86.41401907561872
 20
-149.9911891986133
 10
86.41195201832756
 20
-149.987055084031
 10
86.40351153438871
 20
-149.8072210997009
 10
86.40351153438871
 20
-149.7882730745321
 10
86.40144447709756
 20
-149.7417642854812
 10
86.40144447709756
 20
-149.7417642854812
 10
86.6171074544742
 20
-149.7500325146458
 10
86.6171074544742
 20
-149.7500325146458
 10
86.62778725047848
 20
-149.7500325146458
 10
86.64897458771276
 20
-149.7524440814855
 10
86.64897458771276
 20
-149.7693250493632
 10
86.64897458771276
 20
-149.7882730745321
 10
86.63416067712619
 20
-149.7989528705363
 10
86.60866697053533
 20
-149.8179008957052
 10
86.60866697053533
 20
-149.8685437993384
 10
86.60229354388762
 20
-150.097298139559
 10
86.60453285595304
 20
-150.1438069286099
 10
86.73355168187564
 20
-150.1438069286099
 10
86.74629853517107
 20
-150.1438069286099
 10
86.84362248262937
 20
-150.1351941898967
 10
86.84362248262937
 20
-150.1351941898967
 10
86.84362248262937
 20
-150.3298420848134
 10
86.84362248262937
 20
-150.3298420848134
 10
86.8053819227431
 20
-150.3277750275222
 10
86.73768579645793
 20
-150.3236409129399
 10
86.60229354388762
 20
-150.3257079702311
 10
86.60229354388762
 20
-150.3257079702311
 10
86.60229354388762
 20
-150.6640163468826
 10
86.60229354388762
 20
-150.6640163468826
 10
86.65741507165163
 20
-150.6409342071314
 10
86.72287188587137
 20
-150.6133734432494
 10
86.77161998698766
 20
-150.5899467939497
 10
86.77161998698766
 20
-150.5899467939497
 10
86.77161998698766
 20
-150.4121798669108
 10
86.77161998698766
 20
-150.4121798669108
 10
86.88582490232368
 20
-150.4249267202063
 10
87.00433618701628
 20
-150.4249267202063
 10
87.12060815964347
 20
-150.4249267202063
 10
87.09735376511803
 20
-150.3298420848134
 10
87.06996525601029
 20
-150.2471597931674
 10
87.00640324430743
 20
-150.1141791074367
 10
86.9619615125477
 20
-150.1162461647279
 10
86.87945147567598
 20
-150.1203802793102
 10
86.84138317056396
 20
-150.1224473366013
 10
86.84138317056396
 20
-150.1224473366013
 10
86.84138317056396
 20
-149.9426133522713
 10
86.84138317056396
 20
-149.9426133522713
 10
86.96626788190426
 20
-149.9512260909844
 10
87.13972843958661
 20
-149.9553602055667
 10
87.22223847645834
 20
-149.9553602055667
 10
87.22223847645834
 20
-149.9553602055667
 10
87.30474851333006
 20
-149.9553602055667
 10
87.30474851333006
 20
-149.9553602055667
 10
87.30474851333006
 20
-149.7924071891144
 10
87.30474851333006
 20
-149.7820719026586
 10
87.30268145603892
 20
-149.7269503748946
 10
87.30268145603892
 20
-149.7269503748946
 10
87.52678491735442
 20
-149.7524440814855
 10
87.52678491735442
 20
-149.7524440814855
 10
87.53109128671097
 20
-149.7524440814855
 10
87.55227862394526
 20
-149.7545111387766
 10
87.55227862394526
 20
-149.7713921066544
 10
87.55227862394526
 20
-149.7862060172409
 10
87.54159882794098
 20
-149.7944742464055
 10
87.51421031883326
 20
-149.8092881569921
 10
87.50783689218556
 20
-149.8750894807604
 10
87.50576983489439
 20
-149.8961045632204
 10
87.50576983489439
 20
-149.9553602055667
 10
87.50576983489439
 20
-149.9553602055667
 10
87.60085447028728
 20
-149.9553602055667
 10
87.60085447028728
 20
-149.9553602055667
 10
87.68336450715903
 20
-149.9553602055667
 10
87.85682506484135
 20
-149.9512260909844
 10
87.98170977618166
 20
-149.9426133522713
 10
87.98170977618166
 20
-149.9426133522713
 10
87.98170977618166
 20
-150.1224473366013
 10
87.98170977618166
 20
-150.1224473366013
 10
87.95208195500851
 20
-150.1203802793102
 10
87.83357067031593
 20
-150.1162461647279
 10
87.79343530791276
 20
-150.1141791074367
 10
87.77862139732617
 20
-150.1648220110699
 10
87.74468720679648
 20
-150.2767876143405
 10
87.67923039257672
 20
-150.4166584910417
 10
87.72143281227103
 20
-150.4166584910417
 10
87.99859074405938
 20
-150.3973659563243
 10
88.05991344369683
 20
-150.3952988990331
 10
88.05991344369683
 20
-150.3952988990331
 10
88.05991344369683
 20
-150.579611507494
 10
88.05991344369683
 20
-150.579611507494
 10
88.03028562252368
 20
-150.579611507494
 10
88.01340465464596
 20
-150.5751328833632
 10
87.85045163819365
 20
-150.5751328833632
 97
        0
 97
        1
330
145
 75
     2
 76
     1
 98
        1
 10
0.0
 20
0.0
450
        0
451
        0
460
0.0
461
0.0
452
        0
462
0.0
453
        0
470

  0
SPLINE
  5
147
330
13F
100
AcDbEntity
  8
レイヤー 1
100
AcDbSpline
210
0.0
220
0.0
230
1.0
 70
    11
 71
     3
 72
    17
 73
    13
 74
     0
 42
0.0000000001
 43
0.0000000001
 40
0.0
 40
0.0
 40
0.0
 40
0.0
 40
1.0
 40
1.0
 40
1.0
 40
2.0
 40
2.0
 40
2.0
 40
3.0
 40
3.0
 40
3.0
 40
4.0
 40
4.0
 40
4.0
 40
4.0
 10
89.70701359519479
 20
-151.3747395454896
 30
0.0
 10
89.70701359519479
 20
-151.3747395454896
 30
0.0
 10
89.00042451117004
 20
-151.3747395454896
 30
0.0
 10
89.00042451117004
 20
-151.3747395454896
 30
0.0
 10
89.00042451117004
 20
-151.3747395454896
 30
0.0
 10
89.00042451117004
 20
-151.4891167155999
 30
0.0
 10
89.00042451117004
 20
-151.4891167155999
 30
0.0
 10
89.00042451117004
 20
-151.4891167155999
 30
0.0
 10
89.70701359519479
 20
-151.4891167155999
 30
0.0
 10
89.70701359519479
 20
-151.4891167155999
 30
0.0
 10
89.70701359519479
 20
-151.4891167155999
 30
0.0
 10
89.70701359519479
 20
-151.3747395454896
 30
0.0
 10
89.70701359519479
 20
-151.3747395454896
 30
0.0
  0
SPLINE
  5
148
330
13F
100
AcDbEntity
  8
レイヤー 1
100
AcDbSpline
210
0.0
220
0.0
230
1.0
 70
    11
 71
     3
 72
    17
 73
    13
 74
     0
 42
0.0000000001
 43
0.0000000001
 40
0.0
 40
0.0
 40
0.0
 40
0.0
 40
1.0
 40
1.0
 40
1.0
 40
2.0
 40
2.0
 40
2.0
 40
3.0
 40
3.0
 40
3.0
 40
4.0
 40
4.0
 40
4.0
 40
4.0
 10
89.70701359519479
 20
-151.131515804231
 30
0.0
 10
89.70701359519479
 20
-151.131515804231
 30
0.0
 10
89.00042451117004
 20
-151.131515804231
 30
0.0
 10
89.00042451117004
 20
-151.131515804231
 30
0.0
 10
89.00042451117004
 20
-151.131515804231
 30
0.0
 10
89.00042451117004
 20
-151.2458929743413
 30
0.0
 10
89.00042451117004
 20
-151.2458929743413
 30
0.0
 10
89.00042451117004
 20
-151.2458929743413
 30
0.0
 10
89.70701359519479
 20
-151.2458929743413
 30
0.0
 10
89.70701359519479
 20
-151.2458929743413
 30
0.0
 10
89.70701359519479
 20
-151.2458929743413
 30
0.0
 10
89.70701359519479
 20
-151.131515804231
 30
0.0
 10
89.70701359519479
 20
-151.131515804231
 30
0.0
  0
SPLINE
  5
149
330
13F
100
AcDbEntity
  8
レイヤー 1
100
AcDbSpline
210
0.0
220
0.0
230
1.0
 70
    11
 71
     3
 72
    17
 73
    13
 74
     0
 42
0.0000000001
 43
0.0000000001
 40
0.0
 40
0.0
 40
0.0
 40
0.0
 40
1.0
 40
1.0
 40
1.0
 40
2.0
 40
2.0
 40
2.0
 40
3.0
 40
3.0
 40
3.0
 40
4.0
 40
4.0
 40
4.0
 40
4.0
 10
89.70701359519479
 20
-150.8989718589766
 30
0.0
 10
89.70701359519479
 20
-150.8989718589766
 30
0.0
 10
89.00042451117004
 20
-150.8989718589766
 30
0.0
 10
89.00042451117004
 20
-150.8989718589766
 30
0.0
 10
89.00042451117004
 20
-150.8989718589766
 30
0.0
 10
89.00042451117004
 20
-151.0068033476649
 30
0.0
 10
89.00042451117004
 20
-151.0068033476649
 30
0.0
 10
89.00042451117004
 20
-151.0068033476649
 30
0.0
 10
89.70701359519479
 20
-151.0068033476649
 30
0.0
 10
89.70701359519479
 20
-151.0068033476649
 30
0.0
 10
89.70701359519479
 20
-151.0068033476649
 30
0.0
 10
89.70701359519479
 20
-150.8989718589766
 30
0.0
 10
89.70701359519479
 20
-150.8989718589766
 30
0.0
  0
SPLINE
  5
14A
330
13F
100
AcDbEntity
  8
レイヤー 1
100
AcDbSpline
210
0.0
220
0.0
230
1.0
 70
     9
 71
     3
 72
   203
 73
   199
 74
     0
 42
0.0000000001
 43
0.0000000001
 40
0.0
 40
0.0
 40
0.0
 40
0.0
 40
1.0
 40
1.0
 40
1.0
 40
2.0
 40
2.0
 40
2.0
 40
3.0
 40
3.0
 40
3.0
 40
4.0
 40
4.0
 40
4.0
 40
5.0
 40
5.0
 40
5.0
 40
6.0
 40
6.0
 40
6.0
 40
7.0
 40
7.0
 40
7.0
 40
8.0
 40
8.0
 40
8.0
 40
9.0
 40
9.0
 40
9.0
 40
10.0
 40
10.0
 40
10.0
 40
11.0
 40
11.0
 40
11.0
 40
12.0
 40
12.0
 40
12.0
 40
13.0
 40
13.0
 40
13.0
 40
14.0
 40
14.0
 40
14.0
 40
15.0
 40
15.0
 40
15.0
 40
16.0
 40
16.0
 40
16.0
 40
17.0
 40
17.0
 40
17.0
 40
18.0
 40
18.0
 40
18.0
 40
19.0
 40
19.0
 40
19.0
 40
20.0
 40
20.0
 40
20.0
 40
21.0
 40
21.0
 40
21.0
 40
22.0
 40
22.0
 40
22.0
 40
23.0
 40
23.0
 40
23.0
 40
24.0
 40
24.0
 40
24.0
 40
25.0
 40
25.0
 40
25.0
 40
26.0
 40
26.0
 40
26.0
 40
27.0
 40
27.0
 40
27.0
 40
28.0
 40
28.0
 40
28.0
 40
29.0
 40
29.0
 40
29.0
 40
30.0
 40
30.0
 40
30.0
 40
31.0
 40
31.0
 40
31.0
 40
32.0
 40
32.0
 40
32.0
 40
33.0
 40
33.0
 40
33.0
 40
34.0
 40
34.0
 40
34.0
 40
35.0
 40
35.0
 40
35.0
 40
36.0
 40
36.0
 40
36.0
 40
37.0
 40
37.0
 40
37.0
 40
38.0
 40
38.0
 40
38.0
 40
39.0
 40
39.0
 40
39.0
 40
40.0
 40
40.0
 40
40.0
 40
41.0
 40
41.0
 40
41.0
 40
42.0
 40
42.0
 40
42.0
 40
43.0
 40
43.0
 40
43.0
 40
44.0
 40
44.0
 40
44.0
 40
45.0
 40
45.0
 40
45.0
 40
46.0
 40
46.0
 40
46.0
 40
47.0
 40
47.0
 40
47.0
 40
48.0
 40
48.0
 40
48.0
 40
49.0
 40
49.0
 40
49.0
 40
50.0
 40
50.0
 40
50.0
 40
51.0
 40
51.0
 40
51.0
 40
52.0
 40
52.0
 40
52.0
 40
53.0
 40
53.0
 40
53.0
 40
54.0
 40
54.0
 40
54.0
 40
55.0
 40
55.0
 40
55.0
 40
56.0
 40
56.0
 40
56.0
 40
57.0
 40
57.0
 40
57.0
 40
58.0
 40
58.0
 40
58.0
 40
59.0
 40
59.0
 40
59.0
 40
60.0
 40
60.0
 40
60.0
 40
61.0
 40
61.0
 40
61.0
 40
62.0
 40
62.0
 40
62.0
 40
63.0
 40
63.0
 40
63.0
 40
64.0
 40
64.0
 40
64.0
 40
65.0
 40
65.0
 40
65.0
 40
66.0
 40
66.0
 40
66.0
 40
66.0
 10
89.54199352145131
 20
-150.6430012644226
 30
0.0
 10
89.54199352145131
 20
-150.6430012644226
 30
0.0
 10
88.98354354329232
 20
-150.6430012644226
 30
0.0
 10
88.98354354329232
 20
-150.6430012644226
 30
0.0
 10
88.97286374728805
 20
-150.6874429961823
 30
0.0
 10
88.96442326334918
 20
-150.7191378746466
 30
0.0
 10
88.95167641005375
 20
-150.7570339249843
 30
0.0
 10
88.97717011664459
 20
-150.7570339249843
 30
0.0
 10
88.99198402723117
 20
-150.759445491824
 30
0.0
 10
88.99835745387887
 20
-150.759445491824
 30
0.0
 10
88.99835745387887
 20
-150.759445491824
 30
0.0
 10
89.18663192214779
 20
-150.759445491824
 30
0.0
 10
89.18663192214779
 20
-150.759445491824
 30
0.0
 10
89.18663192214779
 20
-150.759445491824
 30
0.0
 10
89.56094154662018
 20
-150.759445491824
 30
0.0
 10
89.56094154662018
 20
-150.759445491824
 30
0.0
 10
89.61175670502761
 20
-150.759445491824
 30
0.0
 10
89.89528806346369
 20
-150.7466986385286
 30
0.0
 10
89.92698294192797
 20
-150.7466986385286
 30
0.0
 10
89.92491588463684
 20
-150.7739148928621
 30
0.0
 10
89.92267657257142
 20
-150.7932074275795
 30
0.0
 10
89.92267657257142
 20
-150.8228352487526
 30
0.0
 10
89.92060951528026
 20
-150.8545301272169
 30
0.0
 10
89.92060951528026
 20
-150.9899223797872
 30
0.0
 10
89.92060951528026
 20
-151.0174831436692
 30
0.0
 10
89.92060951528026
 20
-151.0174831436692
 30
0.0
 10
89.92060951528026
 20
-151.262773942219
 30
0.0
 10
89.92060951528026
 20
-151.262773942219
 30
0.0
 10
89.92060951528026
 20
-151.3072156739787
 30
0.0
 10
89.92491588463684
 20
-151.5039306261865
 30
0.0
 10
89.92904999921913
 20
-151.6562038466345
 30
0.0
 10
89.92904999921913
 20
-151.6562038466345
 30
0.0
 10
89.70270722583821
 20
-151.6562038466345
 30
0.0
 10
89.70270722583821
 20
-151.6562038466345
 30
0.0
 10
89.70270722583821
 20
-151.6562038466345
 30
0.0
 10
89.70477428312937
 20
-151.6224419108791
 30
0.0
 10
89.70477428312937
 20
-151.6224419108791
 30
0.0
 10
89.70477428312937
 20
-151.6224419108791
 30
0.0
 10
89.00249156846118
 20
-151.6224419108791
 30
0.0
 10
89.00249156846118
 20
-151.6224419108791
 30
0.0
 10
89.00249156846118
 20
-151.6224419108791
 30
0.0
 10
89.00455862575233
 20
-151.6562038466345
 30
0.0
 10
89.00455862575233
 20
-151.6562038466345
 30
0.0
 10
89.00455862575233
 20
-151.6562038466345
 30
0.0
 10
88.78665633631028
 20
-151.6562038466345
 30
0.0
 10
88.78665633631028
 20
-151.6562038466345
 30
0.0
 10
88.79096270566684
 20
-151.6010823188705
 30
0.0
 10
88.79096270566684
 20
-151.5886799751237
 30
0.0
 10
88.79733613231456
 20
-151.4743028050133
 30
0.0
 10
88.79940318960571
 20
-151.4467420411314
 30
0.0
 10
88.80147024689685
 20
-151.3134168458522
 30
0.0
 10
88.80147024689685
 20
-151.2944688206833
 30
0.0
 10
88.80147024689685
 20
-151.2944688206833
 30
0.0
 10
88.80147024689685
 20
-151.0915526966021
 30
0.0
 10
88.80147024689685
 20
-151.0915526966021
 30
0.0
 10
88.66194387974424
 20
-151.3409776097342
 30
0.0
 10
88.4926174366442
 20
-151.4722357477222
 30
0.0
 10
88.38685300524705
 20
-151.537692561942
 30
0.0
 10
88.38685300524705
 20
-151.537692561942
 30
0.0
 10
88.21339244756471
 20
-151.3981661947893
 30
0.0
 10
88.21339244756471
 20
-151.3981661947893
 30
0.0
 10
88.30227591108416
 20
-151.3475232911562
 30
0.0
 10
88.44610864759333
 20
-151.2607068849279
 30
0.0
 10
88.5835679574548
 20
-151.0660589900112
 30
0.0
 10
88.67469073303967
 20
-150.9389349666055
 30
0.0
 10
88.74014754725941
 20
-150.7952744848706
 30
0.0
 10
88.77408173778912
 20
-150.6430012644226
 30
0.0
 10
88.5454996523428
 20
-150.6450683217137
 30
0.0
 10
88.36566566801275
 20
-150.6512694935872
 30
0.0
 10
88.27058103261986
 20
-150.6533365508783
 30
0.0
 10
88.27058103261986
 20
-150.6533365508783
 30
0.0
 10
88.27058103261986
 20
-150.4759141333879
 30
0.0
 10
88.27058103261986
 20
-150.4759141333879
 30
0.0
 10
88.46729598482763
 20
-150.4821153052614
 30
0.0
 10
88.75082734326367
 20
-150.4862494198437
 30
0.0
 10
88.90103350642057
 20
-150.4862494198437
 30
0.0
 10
88.90103350642057
 20
-150.4862494198437
 30
0.0
 10
89.11462942650606
 20
-150.4862494198437
 30
0.0
 10
89.11462942650606
 20
-150.4862494198437
 30
0.0
 10
89.11462942650606
 20
-150.4862494198437
 30
0.0
 10
89.11462942650606
 20
-150.3784179311554
 30
0.0
 10
89.11462942650606
 20
-150.3784179311554
 30
0.0
 10
89.11462942650606
 20
-150.3784179311554
 30
0.0
 10
88.96872963270574
 20
-150.3784179311554
 30
0.0
 10
88.96872963270574
 20
-150.3784179311554
 30
0.0
 10
88.79940318960571
 20
-150.3784179311554
 30
0.0
 10
88.63024900127994
 20
-150.3825520457377
 30
0.0
 10
88.46298961547105
 20
-150.3890977271597
 30
0.0
 10
88.46298961547105
 20
-150.3890977271597
 30
0.0
 10
88.46298961547105
 20
-150.2178764815427
 30
0.0
 10
88.46298961547105
 20
-150.2178764815427
 30
0.0
 10
88.61750214798453
 20
-150.2282117679985
 30
0.0
 10
88.80370955896227
 20
-150.2282117679985
 30
0.0
 10
88.96872963270574
 20
-150.2282117679985
 30
0.0
 10
88.96872963270574
 20
-150.2282117679985
 30
0.0
 10
89.11462942650606
 20
-150.2282117679985
 30
0.0
 10
89.11462942650606
 20
-150.2282117679985
 30
0.0
 10
89.11462942650606
 20
-150.2282117679985
 30
0.0
 10
89.11462942650606
 20
-150.1097004833059
 30
0.0
 10
89.11462942650606
 20
-150.1097004833059
 30
0.0
 10
89.11462942650606
 20
-150.1097004833059
 30
0.0
 10
88.98354354329232
 20
-150.1097004833059
 30
0.0
 10
88.98354354329232
 20
-150.1097004833059
 30
0.0
 10
88.93686249946718
 20
-150.1097004833059
 30
0.0
 10
88.7337741206117
 20
-150.118313222019
 30
0.0
 10
88.69157170091739
 20
-150.118313222019
 30
0.0
 10
88.48848332206191
 20
-150.1224473366013
 30
0.0
 10
88.41234671183789
 20
-150.1245143938925
 30
0.0
 10
88.33397078954845
 20
-150.1265814511836
 30
0.0
 10
88.33397078954845
 20
-150.1265814511836
 30
0.0
 10
88.33397078954845
 20
-149.9426133522713
 30
0.0
 10
88.33397078954845
 20
-149.9426133522713
 30
0.0
 10
88.4481757048845
 20
-149.9512260909844
 30
0.0
 10
88.4926174366442
 20
-149.9512260909844
 30
0.0
 10
88.87553979982973
 20
-149.959494320149
 30
0.0
 10
88.81215004290114
 20
-149.8644096847561
 30
0.0
 10
88.78458927901913
 20
-149.8368489208741
 30
0.0
 10
88.74858803119826
 20
-149.8010199278275
 30
0.0
 10
88.74858803119826
 20
-149.8010199278275
 30
0.0
 10
88.92428790094601
 20
-149.7183376361815
 30
0.0
 10
88.92428790094601
 20
-149.7183376361815
 30
0.0
 10
88.96442326334918
 20
-149.7545111387766
 30
0.0
 10
89.00886499510889
 20
-149.7968858132452
 30
0.0
 10
89.08293454804178
 20
-149.9067843592247
 30
0.0
 10
89.08293454804178
 20
-149.9067843592247
 30
0.0
 10
88.96872963270574
 20
-149.9615613774402
 30
0.0
 10
88.96872963270574
 20
-149.9615613774402
 30
0.0
 10
88.96872963270574
 20
-149.9615613774402
 30
0.0
 10
88.97923717393574
 20
-149.9615613774402
 30
0.0
 10
88.97923717393574
 20
-149.9615613774402
 30
0.0
 10
88.97923717393574
 20
-149.9615613774402
 30
0.0
 10
89.50185815904815
 20
-149.9615613774402
 30
0.0
 10
89.50185815904815
 20
-149.9615613774402
 30
0.0
 10
89.50185815904815
 20
-149.9615613774402
 30
0.0
 10
89.40660126888099
 20
-149.9174641552289
 30
0.0
 10
89.40660126888099
 20
-149.9174641552289
 30
0.0
 10
89.43398977798873
 20
-149.8792235953427
 30
0.0
 10
89.49117836304386
 20
-149.7989528705363
 30
0.0
 10
89.50599227363046
 20
-149.7248833176035
 30
0.0
 10
89.50599227363046
 20
-149.7248833176035
 30
0.0
 10
89.71958819371593
 20
-149.7882730745321
 30
0.0
 10
89.71958819371593
 20
-149.7882730745321
 30
0.0
 10
89.72820093242907
 20
-149.7903401318232
 30
0.0
 10
89.74921601488908
 20
-149.8010199278275
 30
0.0
 10
89.74921601488908
 20
-149.8220350102875
 30
0.0
 10
89.74921601488908
 20
-149.8602755701738
 30
0.0
 10
89.68375920066934
 20
-149.8602755701738
 30
0.0
 10
89.66463892072621
 20
-149.8602755701738
 30
0.0
 10
89.65413137949619
 20
-149.8792235953427
 30
0.0
 10
89.63087698497075
 20
-149.9195312125201
 30
0.0
 10
89.6012491637976
 20
-149.959494320149
 30
0.0
 10
90.00105249486086
 20
-149.9532931482756
 30
0.0
 10
90.03068031603399
 20
-149.9512260909844
 30
0.0
 10
90.10681692625801
 20
-149.9446804095624
 30
0.0
 10
90.10681692625801
 20
-149.9446804095624
 30
0.0
 10
90.10681692625801
 20
-150.1265814511836
 30
0.0
 10
90.10681692625801
 20
-150.1265814511836
 30
0.0
 10
90.08769664631488
 20
-150.1265814511836
 30
0.0
 10
90.06237519449831
 20
-150.1245143938925
 30
0.0
 10
89.84240584776509
 20
-150.1162461647279
 30
0.0
 10
89.79159068935766
 20
-150.1141791074367
 30
0.0
 10
89.57162134262445
 20
-150.1097004833059
 30
0.0
 10
89.52717961086474
 20
-150.1097004833059
 30
0.0
 10
89.52717961086474
 20
-150.1097004833059
 30
0.0
 10
89.31134437871383
 20
-150.1097004833059
 30
0.0
 10
89.31134437871383
 20
-150.1097004833059
 30
0.0
 10
89.31134437871383
 20
-150.1097004833059
 30
0.0
 10
89.31134437871383
 20
-150.2282117679985
 30
0.0
 10
89.31134437871383
 20
-150.2282117679985
 30
0.0
 10
89.31134437871383
 20
-150.2282117679985
 30
0.0
 10
89.48480493639616
 20
-150.2282117679985
 30
0.0
 10
89.48480493639616
 20
-150.2282117679985
 30
0.0
 10
89.64775795284849
 20
-150.2282117679985
 30
0.0
 10
89.83809947840853
 20
-150.2282117679985
 30
0.0
 10
89.99467906821314
 20
-150.2178764815427
 30
0.0
 10
89.99467906821314
 20
-150.2178764815427
 30
0.0
 10
89.99467906821314
 20
-150.3890977271597
 30
0.0
 10
89.99467906821314
 20
-150.3890977271597
 30
0.0
 10
89.78521726270995
 20
-150.3804849884465
 30
0.0
 10
89.58850231050218
 20
-150.3784179311554
 30
0.0
 10
89.48480493639616
 20
-150.3784179311554
 30
0.0
 10
89.48480493639616
 20
-150.3784179311554
 30
0.0
 10
89.31134437871383
 20
-150.3784179311554
 30
0.0
 10
89.31134437871383
 20
-150.3784179311554
 30
0.0
 10
89.31134437871383
 20
-150.3784179311554
 30
0.0
 10
89.31134437871383
 20
-150.4862494198437
 30
0.0
 10
89.31134437871383
 20
-150.4862494198437
 30
0.0
 10
89.31134437871383
 20
-150.4862494198437
 30
0.0
 10
89.54199352145131
 20
-150.4862494198437
 30
0.0
 10
89.54199352145131
 20
-150.4862494198437
 30
0.0
 10
89.67531871673047
 20
-150.4862494198437
 30
0.0
 10
89.96298418974884
 20
-150.4821153052614
 30
0.0
 10
90.17244599525204
 20
-150.4759141333879
 30
0.0
 10
90.17244599525204
 20
-150.4759141333879
 30
0.0
 10
90.17244599525204
 20
-150.6533365508783
 30
0.0
 10
90.17244599525204
 20
-150.6533365508783
 30
0.0
 10
89.97986515762656
 20
-150.6471353790049
 30
0.0
 10
89.66670597801735
 20
-150.6430012644226
 30
0.0
 10
89.54199352145131
 20
-150.6430012644226
 30
0.0
  0
HATCH
  5
14B
330
13F
100
AcDbEntity
  8
レイヤー 1
 62
    18
420
        0
440
 33554687
100
AcDbHatch
 10
0.0
 20
0.0
 30
0.0
210
0.0
220
0.0
230
1.0
  2
SOLID
 70
     1
 71
     1
 91
        4
 92
        1
 93
        1
 72
     4
 94
        3
 73
     0
 74
     0
 95
       17
 96
       13
 40
0.0
 40
0.0
 40
0.0
 40
0.0
 40
1.0
 40
1.0
 40
1.0
 40
2.0
 40
2.0
 40
2.0
 40
3.0
 40
3.0
 40
3.0
 40
4.0
 40
4.0
 40
4.0
 40
4.0
 10
89.70701359519479
 20
-151.3747395454896
 10
89.70701359519479
 20
-151.3747395454896
 10
89.00042451117004
 20
-151.3747395454896
 10
89.00042451117004
 20
-151.3747395454896
 10
89.00042451117004
 20
-151.3747395454896
 10
89.00042451117004
 20
-151.4891167155999
 10
89.00042451117004
 20
-151.4891167155999
 10
89.00042451117004
 20
-151.4891167155999
 10
89.70701359519479
 20
-151.4891167155999
 10
89.70701359519479
 20
-151.4891167155999
 10
89.70701359519479
 20
-151.4891167155999
 10
89.70701359519479
 20
-151.3747395454896
 10
89.70701359519479
 20
-151.3747395454896
 97
        0
 97
        1
330
147
 92
        1
 93
        1
 72
     4
 94
        3
 73
     0
 74
     0
 95
       17
 96
       13
 40
0.0
 40
0.0
 40
0.0
 40
0.0
 40
1.0
 40
1.0
 40
1.0
 40
2.0
 40
2.0
 40
2.0
 40
3.0
 40
3.0
 40
3.0
 40
4.0
 40
4.0
 40
4.0
 40
4.0
 10
89.70701359519479
 20
-151.131515804231
 10
89.70701359519479
 20
-151.131515804231
 10
89.00042451117004
 20
-151.131515804231
 10
89.00042451117004
 20
-151.131515804231
 10
89.00042451117004
 20
-151.131515804231
 10
89.00042451117004
 20
-151.2458929743413
 10
89.00042451117004
 20
-151.2458929743413
 10
89.00042451117004
 20
-151.2458929743413
 10
89.70701359519479
 20
-151.2458929743413
 10
89.70701359519479
 20
-151.2458929743413
 10
89.70701359519479
 20
-151.2458929743413
 10
89.70701359519479
 20
-151.131515804231
 10
89.70701359519479
 20
-151.131515804231
 97
        0
 97
        1
330
148
 92
        1
 93
        1
 72
     4
 94
        3
 73
     0
 74
     0
 95
       17
 96
       13
 40
0.0
 40
0.0
 40
0.0
 40
0.0
 40
1.0
 40
1.0
 40
1.0
 40
2.0
 40
2.0
 40
2.0
 40
3.0
 40
3.0
 40
3.0
 40
4.0
 40
4.0
 40
4.0
 40
4.0
 10
89.70701359519479
 20
-150.8989718589766
 10
89.70701359519479
 20
-150.8989718589766
 10
89.00042451117004
 20
-150.8989718589766
 10
89.00042451117004
 20
-150.8989718589766
 10
89.00042451117004
 20
-150.8989718589766
 10
89.00042451117004
 20
-151.0068033476649
 10
89.00042451117004
 20
-151.0068033476649
 10
89.00042451117004
 20
-151.0068033476649
 10
89.70701359519479
 20
-151.0068033476649
 10
89.70701359519479
 20
-151.0068033476649
 10
89.70701359519479
 20
-151.0068033476649
 10
89.70701359519479
 20
-150.8989718589766
 10
89.70701359519479
 20
-150.8989718589766
 97
        0
 97
        1
330
149
 92
        1
 93
        1
 72
     4
 94
        3
 73
     0
 74
     0
 95
      203
 96
      199
 40
0.0
 40
0.0
 40
0.0
 40
0.0
 40
1.0
 40
1.0
 40
1.0
 40
2.0
 40
2.0
 40
2.0
 40
3.0
 40
3.0
 40
3.0
 40
4.0
 40
4.0
 40
4.0
 40
5.0
 40
5.0
 40
5.0
 40
6.0
 40
6.0
 40
6.0
 40
7.0
 40
7.0
 40
7.0
 40
8.0
 40
8.0
 40
8.0
 40
9.0
 40
9.0
 40
9.0
 40
10.0
 40
10.0
 40
10.0
 40
11.0
 40
11.0
 40
11.0
 40
12.0
 40
12.0
 40
12.0
 40
13.0
 40
13.0
 40
13.0
 40
14.0
 40
14.0
 40
14.0
 40
15.0
 40
15.0
 40
15.0
 40
16.0
 40
16.0
 40
16.0
 40
17.0
 40
17.0
 40
17.0
 40
18.0
 40
18.0
 40
18.0
 40
19.0
 40
19.0
 40
19.0
 40
20.0
 40
20.0
 40
20.0
 40
21.0
 40
21.0
 40
21.0
 40
22.0
 40
22.0
 40
22.0
 40
23.0
 40
23.0
 40
23.0
 40
24.0
 40
24.0
 40
24.0
 40
25.0
 40
25.0
 40
25.0
 40
26.0
 40
26.0
 40
26.0
 40
27.0
 40
27.0
 40
27.0
 40
28.0
 40
28.0
 40
28.0
 40
29.0
 40
29.0
 40
29.0
 40
30.0
 40
30.0
 40
30.0
 40
31.0
 40
31.0
 40
31.0
 40
32.0
 40
32.0
 40
32.0
 40
33.0
 40
33.0
 40
33.0
 40
34.0
 40
34.0
 40
34.0
 40
35.0
 40
35.0
 40
35.0
 40
36.0
 40
36.0
 40
36.0
 40
37.0
 40
37.0
 40
37.0
 40
38.0
 40
38.0
 40
38.0
 40
39.0
 40
39.0
 40
39.0
 40
40.0
 40
40.0
 40
40.0
 40
41.0
 40
41.0
 40
41.0
 40
42.0
 40
42.0
 40
42.0
 40
43.0
 40
43.0
 40
43.0
 40
44.0
 40
44.0
 40
44.0
 40
45.0
 40
45.0
 40
45.0
 40
46.0
 40
46.0
 40
46.0
 40
47.0
 40
47.0
 40
47.0
 40
48.0
 40
48.0
 40
48.0
 40
49.0
 40
49.0
 40
49.0
 40
50.0
 40
50.0
 40
50.0
 40
51.0
 40
51.0
 40
51.0
 40
52.0
 40
52.0
 40
52.0
 40
53.0
 40
53.0
 40
53.0
 40
54.0
 40
54.0
 40
54.0
 40
55.0
 40
55.0
 40
55.0
 40
56.0
 40
56.0
 40
56.0
 40
57.0
 40
57.0
 40
57.0
 40
58.0
 40
58.0
 40
58.0
 40
59.0
 40
59.0
 40
59.0
 40
60.0
 40
60.0
 40
60.0
 40
61.0
 40
61.0
 40
61.0
 40
62.0
 40
62.0
 40
62.0
 40
63.0
 40
63.0
 40
63.0
 40
64.0
 40
64.0
 40
64.0
 40
65.0
 40
65.0
 40
65.0
 40
66.0
 40
66.0
 40
66.0
 40
66.0
 10
89.54199352145131
 20
-150.6430012644226
 10
89.54199352145131
 20
-150.6430012644226
 10
88.98354354329232
 20
-150.6430012644226
 10
88.98354354329232
 20
-150.6430012644226
 10
88.97286374728805
 20
-150.6874429961823
 10
88.96442326334918
 20
-150.7191378746466
 10
88.95167641005375
 20
-150.7570339249843
 10
88.97717011664459
 20
-150.7570339249843
 10
88.99198402723117
 20
-150.759445491824
 10
88.99835745387887
 20
-150.759445491824
 10
88.99835745387887
 20
-150.759445491824
 10
89.18663192214779
 20
-150.759445491824
 10
89.18663192214779
 20
-150.759445491824
 10
89.18663192214779
 20
-150.759445491824
 10
89.56094154662018
 20
-150.759445491824
 10
89.56094154662018
 20
-150.759445491824
 10
89.61175670502761
 20
-150.759445491824
 10
89.89528806346369
 20
-150.7466986385286
 10
89.92698294192797
 20
-150.7466986385286
 10
89.92491588463684
 20
-150.7739148928621
 10
89.92267657257142
 20
-150.7932074275795
 10
89.92267657257142
 20
-150.8228352487526
 10
89.92060951528026
 20
-150.8545301272169
 10
89.92060951528026
 20
-150.9899223797872
 10
89.92060951528026
 20
-151.0174831436692
 10
89.92060951528026
 20
-151.0174831436692
 10
89.92060951528026
 20
-151.262773942219
 10
89.92060951528026
 20
-151.262773942219
 10
89.92060951528026
 20
-151.3072156739787
 10
89.92491588463684
 20
-151.5039306261865
 10
89.92904999921913
 20
-151.6562038466345
 10
89.92904999921913
 20
-151.6562038466345
 10
89.70270722583821
 20
-151.6562038466345
 10
89.70270722583821
 20
-151.6562038466345
 10
89.70270722583821
 20
-151.6562038466345
 10
89.70477428312937
 20
-151.6224419108791
 10
89.70477428312937
 20
-151.6224419108791
 10
89.70477428312937
 20
-151.6224419108791
 10
89.00249156846118
 20
-151.6224419108791
 10
89.00249156846118
 20
-151.6224419108791
 10
89.00249156846118
 20
-151.6224419108791
 10
89.00455862575233
 20
-151.6562038466345
 10
89.00455862575233
 20
-151.6562038466345
 10
89.00455862575233
 20
-151.6562038466345
 10
88.78665633631028
 20
-151.6562038466345
 10
88.78665633631028
 20
-151.6562038466345
 10
88.79096270566684
 20
-151.6010823188705
 10
88.79096270566684
 20
-151.5886799751237
 10
88.79733613231456
 20
-151.4743028050133
 10
88.79940318960571
 20
-151.4467420411314
 10
88.80147024689685
 20
-151.3134168458522
 10
88.80147024689685
 20
-151.2944688206833
 10
88.80147024689685
 20
-151.2944688206833
 10
88.80147024689685
 20
-151.0915526966021
 10
88.80147024689685
 20
-151.0915526966021
 10
88.66194387974424
 20
-151.3409776097342
 10
88.4926174366442
 20
-151.4722357477222
 10
88.38685300524705
 20
-151.537692561942
 10
88.38685300524705
 20
-151.537692561942
 10
88.21339244756471
 20
-151.3981661947893
 10
88.21339244756471
 20
-151.3981661947893
 10
88.30227591108416
 20
-151.3475232911562
 10
88.44610864759333
 20
-151.2607068849279
 10
88.5835679574548
 20
-151.0660589900112
 10
88.67469073303967
 20
-150.9389349666055
 10
88.74014754725941
 20
-150.7952744848706
 10
88.77408173778912
 20
-150.6430012644226
 10
88.5454996523428
 20
-150.6450683217137
 10
88.36566566801275
 20
-150.6512694935872
 10
88.27058103261986
 20
-150.6533365508783
 10
88.27058103261986
 20
-150.6533365508783
 10
88.27058103261986
 20
-150.4759141333879
 10
88.27058103261986
 20
-150.4759141333879
 10
88.46729598482763
 20
-150.4821153052614
 10
88.75082734326367
 20
-150.4862494198437
 10
88.90103350642057
 20
-150.4862494198437
 10
88.90103350642057
 20
-150.4862494198437
 10
89.11462942650606
 20
-150.4862494198437
 10
89.11462942650606
 20
-150.4862494198437
 10
89.11462942650606
 20
-150.4862494198437
 10
89.11462942650606
 20
-150.3784179311554
 10
89.11462942650606
 20
-150.3784179311554
 10
89.11462942650606
 20
-150.3784179311554
 10
88.96872963270574
 20
-150.3784179311554
 10
88.96872963270574
 20
-150.3784179311554
 10
88.79940318960571
 20
-150.3784179311554
 10
88.63024900127994
 20
-150.3825520457377
 10
88.46298961547105
 20
-150.3890977271597
 10
88.46298961547105
 20
-150.3890977271597
 10
88.46298961547105
 20
-150.2178764815427
 10
88.46298961547105
 20
-150.2178764815427
 10
88.61750214798453
 20
-150.2282117679985
 10
88.80370955896227
 20
-150.2282117679985
 10
88.96872963270574
 20
-150.2282117679985
 10
88.96872963270574
 20
-150.2282117679985
 10
89.11462942650606
 20
-150.2282117679985
 10
89.11462942650606
 20
-150.2282117679985
 10
89.11462942650606
 20
-150.2282117679985
 10
89.11462942650606
 20
-150.1097004833059
 10
89.11462942650606
 20
-150.1097004833059
 10
89.11462942650606
 20
-150.1097004833059
 10
88.98354354329232
 20
-150.1097004833059
 10
88.98354354329232
 20
-150.1097004833059
 10
88.93686249946718
 20
-150.1097004833059
 10
88.7337741206117
 20
-150.118313222019
 10
88.69157170091739
 20
-150.118313222019
 10
88.48848332206191
 20
-150.1224473366013
 10
88.41234671183789
 20
-150.1245143938925
 10
88.33397078954845
 20
-150.1265814511836
 10
88.33397078954845
 20
-150.1265814511836
 10
88.33397078954845
 20
-149.9426133522713
 10
88.33397078954845
 20
-149.9426133522713
 10
88.4481757048845
 20
-149.9512260909844
 10
88.4926174366442
 20
-149.9512260909844
 10
88.87553979982973
 20
-149.959494320149
 10
88.81215004290114
 20
-149.8644096847561
 10
88.78458927901913
 20
-149.8368489208741
 10
88.74858803119826
 20
-149.8010199278275
 10
88.74858803119826
 20
-149.8010199278275
 10
88.92428790094601
 20
-149.7183376361815
 10
88.92428790094601
 20
-149.7183376361815
 10
88.96442326334918
 20
-149.7545111387766
 10
89.00886499510889
 20
-149.7968858132452
 10
89.08293454804178
 20
-149.9067843592247
 10
89.08293454804178
 20
-149.9067843592247
 10
88.96872963270574
 20
-149.9615613774402
 10
88.96872963270574
 20
-149.9615613774402
 10
88.96872963270574
 20
-149.9615613774402
 10
88.97923717393574
 20
-149.9615613774402
 10
88.97923717393574
 20
-149.9615613774402
 10
88.97923717393574
 20
-149.9615613774402
 10
89.50185815904815
 20
-149.9615613774402
 10
89.50185815904815
 20
-149.9615613774402
 10
89.50185815904815
 20
-149.9615613774402
 10
89.40660126888099
 20
-149.9174641552289
 10
89.40660126888099
 20
-149.9174641552289
 10
89.43398977798873
 20
-149.8792235953427
 10
89.49117836304386
 20
-149.7989528705363
 10
89.50599227363046
 20
-149.7248833176035
 10
89.50599227363046
 20
-149.7248833176035
 10
89.71958819371593
 20
-149.7882730745321
 10
89.71958819371593
 20
-149.7882730745321
 10
89.72820093242907
 20
-149.7903401318232
 10
89.74921601488908
 20
-149.8010199278275
 10
89.74921601488908
 20
-149.8220350102875
 10
89.74921601488908
 20
-149.8602755701738
 10
89.68375920066934
 20
-149.8602755701738
 10
89.66463892072621
 20
-149.8602755701738
 10
89.65413137949619
 20
-149.8792235953427
 10
89.63087698497075
 20
-149.9195312125201
 10
89.6012491637976
 20
-149.959494320149
 10
90.00105249486086
 20
-149.9532931482756
 10
90.03068031603399
 20
-149.9512260909844
 10
90.10681692625801
 20
-149.9446804095624
 10
90.10681692625801
 20
-149.9446804095624
 10
90.10681692625801
 20
-150.1265814511836
 10
90.10681692625801
 20
-150.1265814511836
 10
90.08769664631488
 20
-150.1265814511836
 10
90.06237519449831
 20
-150.1245143938925
 10
89.84240584776509
 20
-150.1162461647279
 10
89.79159068935766
 20
-150.1141791074367
 10
89.57162134262445
 20
-150.1097004833059
 10
89.52717961086474
 20
-150.1097004833059
 10
89.52717961086474
 20
-150.1097004833059
 10
89.31134437871383
 20
-150.1097004833059
 10
89.31134437871383
 20
-150.1097004833059
 10
89.31134437871383
 20
-150.1097004833059
 10
89.31134437871383
 20
-150.2282117679985
 10
89.31134437871383
 20
-150.2282117679985
 10
89.31134437871383
 20
-150.2282117679985
 10
89.48480493639616
 20
-150.2282117679985
 10
89.48480493639616
 20
-150.2282117679985
 10
89.64775795284849
 20
-150.2282117679985
 10
89.83809947840853
 20
-150.2282117679985
 10
89.99467906821314
 20
-150.2178764815427
 10
89.99467906821314
 20
-150.2178764815427
 10
89.99467906821314
 20
-150.3890977271597
 10
89.99467906821314
 20
-150.3890977271597
 10
89.78521726270995
 20
-150.3804849884465
 10
89.58850231050218
 20
-150.3784179311554
 10
89.48480493639616
 20
-150.3784179311554
 10
89.48480493639616
 20
-150.3784179311554
 10
89.31134437871383
 20
-150.3784179311554
 10
89.31134437871383
 20
-150.3784179311554
 10
89.31134437871383
 20
-150.3784179311554
 10
89.31134437871383
 20
-150.4862494198437
 10
89.31134437871383
 20
-150.4862494198437
 10
89.31134437871383
 20
-150.4862494198437
 10
89.54199352145131
 20
-150.4862494198437
 10
89.54199352145131
 20
-150.4862494198437
 10
89.67531871673047
 20
-150.4862494198437
 10
89.96298418974884
 20
-150.4821153052614
 10
90.17244599525204
 20
-150.4759141333879
 10
90.17244599525204
 20
-150.4759141333879
 10
90.17244599525204
 20
-150.6533365508783
 10
90.17244599525204
 20
-150.6533365508783
 10
89.97986515762656
 20
-150.6471353790049
 10
89.66670597801735
 20
-150.6430012644226
 10
89.54199352145131
 20
-150.6430012644226
 97
        0
 97
        1
330
14A
 75
     2
 76
     1
 98
        1
 10
0.0
 20
0.0
450
        0
451
        0
460
0.0
461
0.0
452
        0
462
0.0
453
        0
470

  0
SPLINE
  5
14C
330
13F
100
AcDbEntity
  8
レイヤー 1
100
AcDbSpline
210
0.0
220
0.0
230
1.0
 70
     9
 71
     3
 72
    29
 73
    25
 74
     0
 42
0.0000000001
 43
0.0000000001
 40
0.0
 40
0.0
 40
0.0
 40
0.0
 40
1.0
 40
1.0
 40
1.0
 40
2.0
 40
2.0
 40
2.0
 40
3.0
 40
3.0
 40
3.0
 40
4.0
 40
4.0
 40
4.0
 40
5.0
 40
5.0
 40
5.0
 40
6.0
 40
6.0
 40
6.0
 40
7.0
 40
7.0
 40
7.0
 40
8.0
 40
8.0
 40
8.0
 40
8.0
 10
91.41750350362132
 20
-150.090752458137
 30
0.0
 10
91.41750350362132
 20
-150.090752458137
 30
0.0
 10
91.06420896160896
 20
-150.090752458137
 30
0.0
 10
91.06420896160896
 20
-150.090752458137
 30
0.0
 10
90.95207110356406
 20
-150.090752458137
 30
0.0
 10
90.81237248163718
 20
-150.097298139559
 30
0.0
 10
90.70454099294886
 20
-150.1097004833059
 30
0.0
 10
90.70454099294886
 20
-150.1097004833059
 30
0.0
 10
90.70454099294886
 20
-149.8750894807604
 30
0.0
 10
90.70454099294886
 20
-149.8750894807604
 30
0.0
 10
90.82305227764146
 20
-149.8899033913469
 30
0.0
 10
91.00702037655381
 20
-149.8940375059293
 30
0.0
 10
91.06420896160896
 20
-149.8940375059293
 30
0.0
 10
91.06420896160896
 20
-149.8940375059293
 30
0.0
 10
91.41750350362132
 20
-149.8940375059293
 30
0.0
 10
91.41750350362132
 20
-149.8940375059293
 30
0.0
 10
91.4364515287902
 20
-149.8940375059293
 30
0.0
 10
91.63953990764566
 20
-149.8940375059293
 30
0.0
 10
91.78130558686371
 20
-149.8750894807604
 30
0.0
 10
91.78130558686371
 20
-149.8750894807604
 30
0.0
 10
91.78130558686371
 20
-150.1097004833059
 30
0.0
 10
91.78130558686371
 20
-150.1097004833059
 30
0.0
 10
91.6247259970591
 20
-150.090752458137
 30
0.0
 10
91.43438447149904
 20
-150.090752458137
 30
0.0
 10
91.41750350362132
 20
-150.090752458137
 30
0.0
  0
SPLINE
  5
14D
330
13F
100
AcDbEntity
  8
レイヤー 1
100
AcDbSpline
210
0.0
220
0.0
230
1.0
 70
     9
 71
     3
 72
    47
 73
    43
 74
     0
 42
0.0000000001
 43
0.0000000001
 40
0.0
 40
0.0
 40
0.0
 40
0.0
 40
1.0
 40
1.0
 40
1.0
 40
2.0
 40
2.0
 40
2.0
 40
3.0
 40
3.0
 40
3.0
 40
4.0
 40
4.0
 40
4.0
 40
5.0
 40
5.0
 40
5.0
 40
6.0
 40
6.0
 40
6.0
 40
7.0
 40
7.0
 40
7.0
 40
8.0
 40
8.0
 40
8.0
 40
9.0
 40
9.0
 40
9.0
 40
10.0
 40
10.0
 40
10.0
 40
11.0
 40
11.0
 40
11.0
 40
12.0
 40
12.0
 40
12.0
 40
13.0
 40
13.0
 40
13.0
 40
14.0
 40
14.0
 40
14.0
 40
14.0
 10
91.51896156566193
 20
-150.6195746151229
 30
0.0
 10
91.51896156566193
 20
-150.6195746151229
 30
0.0
 10
91.41750350362132
 20
-150.6195746151229
 30
0.0
 10
91.41750350362132
 20
-150.6195746151229
 30
0.0
 10
91.41750350362132
 20
-150.7063910213512
 30
0.0
 10
91.39631616638704
 20
-151.0956868111844
 30
0.0
 10
91.19960121417927
 20
-151.3154839031433
 30
0.0
 10
91.04715573895695
 20
-151.4849826010176
 30
0.0
 10
90.83993324551919
 20
-151.5545735298197
 30
0.0
 10
90.75535615135631
 20
-151.5821342937017
 30
0.0
 10
90.75535615135631
 20
-151.5821342937017
 30
0.0
 10
90.56070825643969
 20
-151.415047162667
 30
0.0
 10
90.56070825643969
 20
-151.415047162667
 30
0.0
 10
90.65803220389801
 20
-151.4023003093717
 30
0.0
 10
90.83355981887148
 20
-151.3792181696205
 30
0.0
 10
91.02183428714038
 20
-151.1907714465773
 30
0.0
 10
91.09590384007324
 20
-151.1187689509356
 30
0.0
 10
91.19960121417927
 20
-150.9792425837829
 30
0.0
 10
91.19960121417927
 20
-150.6195746151229
 30
0.0
 10
91.19960121417927
 20
-150.6195746151229
 30
0.0
 10
90.96895207144179
 20
-150.6195746151229
 30
0.0
 10
90.96895207144179
 20
-150.6195746151229
 30
0.0
 10
90.78274466046405
 20
-150.6195746151229
 30
0.0
 10
90.59653724948629
 20
-150.6240532392537
 30
0.0
 10
90.41050209328281
 20
-150.6388671498403
 30
0.0
 10
90.41050209328281
 20
-150.6388671498403
 30
0.0
 10
90.41050209328281
 20
-150.4187255483328
 30
0.0
 10
90.41050209328281
 20
-150.4187255483328
 30
0.0
 10
90.59877656155171
 20
-150.4335394589194
 30
0.0
 10
90.88437497727891
 20
-150.4376735735017
 30
0.0
 10
90.96895207144179
 20
-150.4376735735017
 30
0.0
 10
90.96895207144179
 20
-150.4376735735017
 30
0.0
 10
91.51896156566193
 20
-150.4376735735017
 30
0.0
 10
91.51896156566193
 20
-150.4376735735017
 30
0.0
 10
91.53808184560507
 20
-150.4376735735017
 30
0.0
 10
91.85537513979658
 20
-150.4376735735017
 30
0.0
 10
92.08378497046863
 20
-150.4187255483328
 30
0.0
 10
92.08378497046863
 20
-150.4187255483328
 30
0.0
 10
92.08378497046863
 20
-150.6388671498403
 30
0.0
 10
92.08378497046863
 20
-150.6388671498403
 30
0.0
 10
91.89551050219973
 20
-150.6240532392537
 30
0.0
 10
91.70723603393083
 20
-150.6195746151229
 30
0.0
 10
91.51896156566193
 20
-150.6195746151229
 30
0.0
  0
HATCH
  5
14E
330
13F
100
AcDbEntity
  8
レイヤー 1
 62
    18
420
        0
440
 33554687
100
AcDbHatch
 10
0.0
 20
0.0
 30
0.0
210
0.0
220
0.0
230
1.0
  2
SOLID
 70
     1
 71
     1
 91
        2
 92
        1
 93
        1
 72
     4
 94
        3
 73
     0
 74
     0
 95
       29
 96
       25
 40
0.0
 40
0.0
 40
0.0
 40
0.0
 40
1.0
 40
1.0
 40
1.0
 40
2.0
 40
2.0
 40
2.0
 40
3.0
 40
3.0
 40
3.0
 40
4.0
 40
4.0
 40
4.0
 40
5.0
 40
5.0
 40
5.0
 40
6.0
 40
6.0
 40
6.0
 40
7.0
 40
7.0
 40
7.0
 40
8.0
 40
8.0
 40
8.0
 40
8.0
 10
91.41750350362132
 20
-150.090752458137
 10
91.41750350362132
 20
-150.090752458137
 10
91.06420896160896
 20
-150.090752458137
 10
91.06420896160896
 20
-150.090752458137
 10
90.95207110356406
 20
-150.090752458137
 10
90.81237248163718
 20
-150.097298139559
 10
90.70454099294886
 20
-150.1097004833059
 10
90.70454099294886
 20
-150.1097004833059
 10
90.70454099294886
 20
-149.8750894807604
 10
90.70454099294886
 20
-149.8750894807604
 10
90.82305227764146
 20
-149.8899033913469
 10
91.00702037655381
 20
-149.8940375059293
 10
91.06420896160896
 20
-149.8940375059293
 10
91.06420896160896
 20
-149.8940375059293
 10
91.41750350362132
 20
-149.8940375059293
 10
91.41750350362132
 20
-149.8940375059293
 10
91.4364515287902
 20
-149.8940375059293
 10
91.63953990764566
 20
-149.8940375059293
 10
91.78130558686371
 20
-149.8750894807604
 10
91.78130558686371
 20
-149.8750894807604
 10
91.78130558686371
 20
-150.1097004833059
 10
91.78130558686371
 20
-150.1097004833059
 10
91.6247259970591
 20
-150.090752458137
 10
91.43438447149904
 20
-150.090752458137
 10
91.41750350362132
 20
-150.090752458137
 97
        0
 97
        1
330
14C
 92
        1
 93
        1
 72
     4
 94
        3
 73
     0
 74
     0
 95
       47
 96
       43
 40
0.0
 40
0.0
 40
0.0
 40
0.0
 40
1.0
 40
1.0
 40
1.0
 40
2.0
 40
2.0
 40
2.0
 40
3.0
 40
3.0
 40
3.0
 40
4.0
 40
4.0
 40
4.0
 40
5.0
 40
5.0
 40
5.0
 40
6.0
 40
6.0
 40
6.0
 40
7.0
 40
7.0
 40
7.0
 40
8.0
 40
8.0
 40
8.0
 40
9.0
 40
9.0
 40
9.0
 40
10.0
 40
10.0
 40
10.0
 40
11.0
 40
11.0
 40
11.0
 40
12.0
 40
12.0
 40
12.0
 40
13.0
 40
13.0
 40
13.0
 40
14.0
 40
14.0
 40
14.0
 40
14.0
 10
91.51896156566193
 20
-150.6195746151229
 10
91.51896156566193
 20
-150.6195746151229
 10
91.41750350362132
 20
-150.6195746151229
 10
91.41750350362132
 20
-150.6195746151229
 10
91.41750350362132
 20
-150.7063910213512
 10
91.39631616638704
 20
-151.0956868111844
 10
91.19960121417927
 20
-151.3154839031433
 10
91.04715573895695
 20
-151.4849826010176
 10
90.83993324551919
 20
-151.5545735298197
 10
90.75535615135631
 20
-151.5821342937017
 10
90.75535615135631
 20
-151.5821342937017
 10
90.56070825643969
 20
-151.415047162667
 10
90.56070825643969
 20
-151.415047162667
 10
90.65803220389801
 20
-151.4023003093717
 10
90.83355981887148
 20
-151.3792181696205
 10
91.02183428714038
 20
-151.1907714465773
 10
91.09590384007324
 20
-151.1187689509356
 10
91.19960121417927
 20
-150.9792425837829
 10
91.19960121417927
 20
-150.6195746151229
 10
91.19960121417927
 20
-150.6195746151229
 10
90.96895207144179
 20
-150.6195746151229
 10
90.96895207144179
 20
-150.6195746151229
 10
90.78274466046405
 20
-150.6195746151229
 10
90.59653724948629
 20
-150.6240532392537
 10
90.41050209328281
 20
-150.6388671498403
 10
90.41050209328281
 20
-150.6388671498403
 10
90.41050209328281
 20
-150.4187255483328
 10
90.41050209328281
 20
-150.4187255483328
 10
90.59877656155171
 20
-150.4335394589194
 10
90.88437497727891
 20
-150.4376735735017
 10
90.96895207144179
 20
-150.4376735735017
 10
90.96895207144179
 20
-150.4376735735017
 10
91.51896156566193
 20
-150.4376735735017
 10
91.51896156566193
 20
-150.4376735735017
 10
91.53808184560507
 20
-150.4376735735017
 10
91.85537513979658
 20
-150.4376735735017
 10
92.08378497046863
 20
-150.4187255483328
 10
92.08378497046863
 20
-150.4187255483328
 10
92.08378497046863
 20
-150.6388671498403
 10
92.08378497046863
 20
-150.6388671498403
 10
91.89551050219973
 20
-150.6240532392537
 10
91.70723603393083
 20
-150.6195746151229
 10
91.51896156566193
 20
-150.6195746151229
 97
        0
 97
        1
330
14D
 75
     2
 76
     1
 98
        1
 10
0.0
 20
0.0
450
        0
451
        0
460
0.0
461
0.0
452
        0
462
0.0
453
        0
470

  0
SPLINE
  5
14F
330
13F
100
AcDbEntity
  8
レイヤー 1
100
AcDbSpline
210
0.0
220
0.0
230
1.0
 70
     9
 71
     3
 72
    29
 73
    25
 74
     0
 42
0.0000000001
 43
0.0000000001
 40
0.0
 40
0.0
 40
0.0
 40
0.0
 40
1.0
 40
1.0
 40
1.0
 40
2.0
 40
2.0
 40
2.0
 40
3.0
 40
3.0
 40
3.0
 40
4.0
 40
4.0
 40
4.0
 40
5.0
 40
5.0
 40
5.0
 40
6.0
 40
6.0
 40
6.0
 40
7.0
 40
7.0
 40
7.0
 40
8.0
 40
8.0
 40
8.0
 40
8.0
 10
93.36467147188454
 20
-150.7825276315752
 30
0.0
 10
93.36467147188454
 20
-150.7825276315752
 30
0.0
 10
92.8802910466584
 20
-150.7825276315752
 30
0.0
 10
92.8802910466584
 20
-150.7825276315752
 30
0.0
 10
92.85273028277641
 20
-150.7825276315752
 30
0.0
 10
92.53543698858489
 20
-150.7825276315752
 30
0.0
 10
92.32390812579055
 20
-150.808021338166
 30
0.0
 10
92.32390812579055
 20
-150.808021338166
 30
0.0
 10
92.32390812579055
 20
-150.5771999406543
 30
0.0
 10
92.32390812579055
 20
-150.5771999406543
 30
0.0
 10
92.4825547728863
 20
-150.600626589954
 30
0.0
 10
92.67289629844636
 20
-150.6026936472451
 30
0.0
 10
92.8802910466584
 20
-150.6026936472451
 30
0.0
 10
92.8802910466584
 20
-150.6026936472451
 30
0.0
 10
93.36467147188454
 20
-150.6026936472451
 30
0.0
 10
93.36467147188454
 20
-150.6026936472451
 30
0.0
 10
93.55087888286227
 20
-150.6026936472451
 30
0.0
 10
93.73708629384003
 20
-150.600626589954
 30
0.0
 10
93.92105439275239
 20
-150.5771999406543
 30
0.0
 10
93.92105439275239
 20
-150.5771999406543
 30
0.0
 10
93.92105439275239
 20
-150.808021338166
 30
0.0
 10
93.92105439275239
 20
-150.808021338166
 30
0.0
 10
93.73708629384003
 20
-150.7845946888663
 30
0.0
 10
93.48955618322483
 20
-150.7825276315752
 30
0.0
 10
93.36467147188454
 20
-150.7825276315752
 30
0.0
  0
HATCH
  5
150
330
13F
100
AcDbEntity
  8
レイヤー 1
 62
    18
420
        0
440
 33554687
100
AcDbHatch
 10
0.0
 20
0.0
 30
0.0
210
0.0
220
0.0
230
1.0
  2
SOLID
 70
     1
 71
     1
 91
        1
 92
        1
 93
        1
 72
     4
 94
        3
 73
     0
 74
     0
 95
       29
 96
       25
 40
0.0
 40
0.0
 40
0.0
 40
0.0
 40
1.0
 40
1.0
 40
1.0
 40
2.0
 40
2.0
 40
2.0
 40
3.0
 40
3.0
 40
3.0
 40
4.0
 40
4.0
 40
4.0
 40
5.0
 40
5.0
 40
5.0
 40
6.0
 40
6.0
 40
6.0
 40
7.0
 40
7.0
 40
7.0
 40
8.0
 40
8.0
 40
8.0
 40
8.0
 10
93.36467147188454
 20
-150.7825276315752
 10
93.36467147188454
 20
-150.7825276315752
 10
92.8802910466584
 20
-150.7825276315752
 10
92.8802910466584
 20
-150.7825276315752
 10
92.85273028277641
 20
-150.7825276315752
 10
92.53543698858489
 20
-150.7825276315752
 10
92.32390812579055
 20
-150.808021338166
 10
92.32390812579055
 20
-150.808021338166
 10
92.32390812579055
 20
-150.5771999406543
 10
92.32390812579055
 20
-150.5771999406543
 10
92.4825547728863
 20
-150.600626589954
 10
92.67289629844636
 20
-150.6026936472451
 10
92.8802910466584
 20
-150.6026936472451
 10
92.8802910466584
 20
-150.6026936472451
 10
93.36467147188454
 20
-150.6026936472451
 10
93.36467147188454
 20
-150.6026936472451
 10
93.55087888286227
 20
-150.6026936472451
 10
93.73708629384003
 20
-150.600626589954
 10
93.92105439275239
 20
-150.5771999406543
 10
93.92105439275239
 20
-150.5771999406543
 10
93.92105439275239
 20
-150.808021338166
 10
93.92105439275239
 20
-150.808021338166
 10
93.73708629384003
 20
-150.7845946888663
 10
93.48955618322483
 20
-150.7825276315752
 10
93.36467147188454
 20
-150.7825276315752
 97
        0
 97
        1
330
14F
 75
     2
 76
     1
 98
        1
 10
0.0
 20
0.0
450
        0
451
        0
460
0.0
461
0.0
452
        0
462
0.0
453
        0
470

  0
SPLINE
  5
151
330
13F
100
AcDbEntity
  8
レイヤー 1
100
AcDbSpline
210
0.0
220
0.0
230
1.0
 70
     9
 71
     3
 72
    47
 73
    43
 74
     0
 42
0.0000000001
 43
0.0000000001
 40
0.0
 40
0.0
 40
0.0
 40
0.0
 40
1.0
 40
1.0
 40
1.0
 40
2.0
 40
2.0
 40
2.0
 40
3.0
 40
3.0
 40
3.0
 40
4.0
 40
4.0
 40
4.0
 40
5.0
 40
5.0
 40
5.0
 40
6.0
 40
6.0
 40
6.0
 40
7.0
 40
7.0
 40
7.0
 40
8.0
 40
8.0
 40
8.0
 40
9.0
 40
9.0
 40
9.0
 40
10.0
 40
10.0
 40
10.0
 40
11.0
 40
11.0
 40
11.0
 40
12.0
 40
12.0
 40
12.0
 40
13.0
 40
13.0
 40
13.0
 40
14.0
 40
14.0
 40
14.0
 40
14.0
 10
95.58486325735378
 20
-150.1882486603696
 30
0.0
 10
95.51510007377748
 20
-150.4673013946748
 30
0.0
 10
95.43896346355346
 20
-150.7718478355709
 30
0.0
 10
95.12580428394425
 20
-151.103955040349
 30
0.0
 10
94.88895396933331
 20
-151.3537244630296
 30
0.0
 10
94.64349091600928
 20
-151.4532877225533
 30
0.0
 10
94.53772648461209
 20
-151.4953178874734
 30
0.0
 10
94.53772648461209
 20
-151.4953178874734
 30
0.0
 10
94.34307858969548
 20
-151.3134168458522
 30
0.0
 10
94.34307858969548
 20
-151.3134168458522
 30
0.0
 10
94.52928600067323
 20
-151.2669080568013
 30
0.0
 10
94.89102102662448
 20
-151.1738904786995
 30
0.0
 10
95.1871269835817
 20
-150.6788302574692
 30
0.0
 10
95.34801294274286
 20
-150.4121798669108
 30
0.0
 10
95.36058754126402
 20
-150.2388915640028
 30
0.0
 10
95.36920027997714
 20
-150.1479410431922
 30
0.0
 10
95.36920027997714
 20
-150.1479410431922
 30
0.0
 10
94.86346026274247
 20
-150.1479410431922
 30
0.0
 10
94.86346026274247
 20
-150.1479410431922
 30
0.0
 10
94.74512123282414
 20
-150.1479410431922
 30
0.0
 10
94.32413056452661
 20
-150.166889068361
 30
0.0
 10
94.1716850893043
 20
-150.1775688643653
 30
0.0
 10
94.1716850893043
 20
-150.1775688643653
 30
0.0
 10
94.1716850893043
 20
-149.9681070588621
 30
0.0
 10
94.1716850893043
 20
-149.9681070588621
 30
0.0
 10
94.31345076852233
 20
-149.9808539121576
 30
0.0
 10
94.59060870031068
 20
-149.9849880267398
 30
0.0
 10
94.70705292771212
 20
-149.9849880267398
 30
0.0
 10
94.70705292771212
 20
-149.9849880267398
 30
0.0
 10
95.06241452701564
 20
-149.9849880267398
 30
0.0
 10
95.06241452701564
 20
-149.9849880267398
 30
0.0
 10
95.08980303612338
 20
-149.9849880267398
 30
0.0
 10
95.25068899528454
 20
-149.9829209694487
 30
0.0
 10
95.36058754126402
 20
-149.9681070588621
 30
0.0
 10
95.41777612631916
 20
-149.9615613774402
 30
0.0
 10
95.4346570941969
 20
-149.9426133522713
 30
0.0
 10
95.45791148872233
 20
-149.9195312125201
 30
0.0
 10
95.45791148872233
 20
-149.9195312125201
 30
0.0
 10
95.64618595699123
 20
-150.069737375677
 30
0.0
 10
95.64618595699123
 20
-150.069737375677
 30
0.0
 10
95.63137204640467
 20
-150.0993651968501
 30
0.0
 10
95.62086450517465
 20
-150.118313222019
 30
0.0
 10
95.58486325735378
 20
-150.1882486603696
 30
0.0
  0
HATCH
  5
152
330
13F
100
AcDbEntity
  8
レイヤー 1
 62
    18
420
        0
440
 33554687
100
AcDbHatch
 10
0.0
 20
0.0
 30
0.0
210
0.0
220
0.0
230
1.0
  2
SOLID
 70
     1
 71
     1
 91
        1
 92
        1
 93
        1
 72
     4
 94
        3
 73
     0
 74
     0
 95
       47
 96
       43
 40
0.0
 40
0.0
 40
0.0
 40
0.0
 40
1.0
 40
1.0
 40
1.0
 40
2.0
 40
2.0
 40
2.0
 40
3.0
 40
3.0
 40
3.0
 40
4.0
 40
4.0
 40
4.0
 40
5.0
 40
5.0
 40
5.0
 40
6.0
 40
6.0
 40
6.0
 40
7.0
 40
7.0
 40
7.0
 40
8.0
 40
8.0
 40
8.0
 40
9.0
 40
9.0
 40
9.0
 40
10.0
 40
10.0
 40
10.0
 40
11.0
 40
11.0
 40
11.0
 40
12.0
 40
12.0
 40
12.0
 40
13.0
 40
13.0
 40
13.0
 40
14.0
 40
14.0
 40
14.0
 40
14.0
 10
95.58486325735378
 20
-150.1882486603696
 10
95.51510007377748
 20
-150.4673013946748
 10
95.43896346355346
 20
-150.7718478355709
 10
95.12580428394425
 20
-151.103955040349
 10
94.88895396933331
 20
-151.3537244630296
 10
94.64349091600928
 20
-151.4532877225533
 10
94.53772648461209
 20
-151.4953178874734
 10
94.53772648461209
 20
-151.4953178874734
 10
94.34307858969548
 20
-151.3134168458522
 10
94.34307858969548
 20
-151.3134168458522
 10
94.52928600067323
 20
-151.2669080568013
 10
94.89102102662448
 20
-151.1738904786995
 10
95.1871269835817
 20
-150.6788302574692
 10
95.34801294274286
 20
-150.4121798669108
 10
95.36058754126402
 20
-150.2388915640028
 10
95.36920027997714
 20
-150.1479410431922
 10
95.36920027997714
 20
-150.1479410431922
 10
94.86346026274247
 20
-150.1479410431922
 10
94.86346026274247
 20
-150.1479410431922
 10
94.74512123282414
 20
-150.1479410431922
 10
94.32413056452661
 20
-150.166889068361
 10
94.1716850893043
 20
-150.1775688643653
 10
94.1716850893043
 20
-150.1775688643653
 10
94.1716850893043
 20
-149.9681070588621
 10
94.1716850893043
 20
-149.9681070588621
 10
94.31345076852233
 20
-149.9808539121576
 10
94.59060870031068
 20
-149.9849880267398
 10
94.70705292771212
 20
-149.9849880267398
 10
94.70705292771212
 20
-149.9849880267398
 10
95.06241452701564
 20
-149.9849880267398
 10
95.06241452701564
 20
-149.9849880267398
 10
95.08980303612338
 20
-149.9849880267398
 10
95.25068899528454
 20
-149.9829209694487
 10
95.36058754126402
 20
-149.9681070588621
 10
95.41777612631916
 20
-149.9615613774402
 10
95.4346570941969
 20
-149.9426133522713
 10
95.45791148872233
 20
-149.9195312125201
 10
95.45791148872233
 20
-149.9195312125201
 10
95.64618595699123
 20
-150.069737375677
 10
95.64618595699123
 20
-150.069737375677
 10
95.63137204640467
 20
-150.0993651968501
 10
95.62086450517465
 20
-150.118313222019
 10
95.58486325735378
 20
-150.1882486603696
 97
        0
 97
        1
330
151
 75
     2
 76
     1
 98
        1
 10
0.0
 20
0.0
450
        0
451
        0
460
0.0
461
0.0
452
        0
462
0.0
453
        0
470

  0
SPLINE
  5
153
330
13F
100
AcDbEntity
  8
レイヤー 1
100
AcDbSpline
210
0.0
220
0.0
230
1.0
 70
    11
 71
     3
 72
    17
 73
    13
 74
     0
 42
0.0000000001
 43
0.0000000001
 40
0.0
 40
0.0
 40
0.0
 40
0.0
 40
1.0
 40
1.0
 40
1.0
 40
2.0
 40
2.0
 40
2.0
 40
3.0
 40
3.0
 40
3.0
 40
4.0
 40
4.0
 40
4.0
 40
4.0
 10
95.97519257583259
 20
-149.9701741161533
 30
0.0
 10
95.97519257583259
 20
-150.0294297584996
 30
0.0
 10
96.02170136488346
 20
-150.0759385475504
 30
0.0
 10
96.08095700722977
 20
-150.0759385475504
 30
0.0
 10
96.14021264957607
 20
-150.0759385475504
 30
0.0
 10
96.18878849591808
 20
-150.0294297584996
 30
0.0
 10
96.18878849591808
 20
-149.9701741161533
 30
0.0
 10
96.18878849591808
 20
-149.910918473807
 30
0.0
 10
96.14021264957607
 20
-149.862342627465
 30
0.0
 10
96.08095700722977
 20
-149.862342627465
 30
0.0
 10
96.02170136488346
 20
-149.862342627465
 30
0.0
 10
95.97519257583259
 20
-149.910918473807
 30
0.0
 10
95.97519257583259
 20
-149.9701741161533
 30
0.0
  0
SPLINE
  5
154
330
13F
100
AcDbEntity
  8
レイヤー 1
100
AcDbSpline
210
0.0
220
0.0
230
1.0
 70
     9
 71
     3
 72
    17
 73
    13
 74
     0
 42
0.0000000001
 43
0.0000000001
 40
0.0
 40
0.0
 40
0.0
 40
0.0
 40
1.0
 40
1.0
 40
1.0
 40
2.0
 40
2.0
 40
2.0
 40
3.0
 40
3.0
 40
3.0
 40
4.0
 40
4.0
 40
4.0
 40
4.0
 10
96.29041881273295
 20
-149.9701741161533
 30
0.0
 10
96.29041881273295
 20
-150.0845512862636
 30
0.0
 10
96.19722897985695
 20
-150.1796359216565
 30
0.0
 10
96.08095700722977
 20
-150.1796359216565
 30
0.0
 10
95.96675209189374
 20
-150.1796359216565
 30
0.0
 10
95.87149520172657
 20
-150.0845512862636
 30
0.0
 10
95.87149520172657
 20
-149.9701741161533
 30
0.0
 10
95.87149520172657
 20
-149.8537298887518
 30
0.0
 10
95.96675209189374
 20
-149.7607123106501
 30
0.0
 10
96.08095700722977
 20
-149.7607123106501
 30
0.0
 10
96.19516192256581
 20
-149.7607123106501
 30
0.0
 10
96.29041881273295
 20
-149.8537298887518
 30
0.0
 10
96.29041881273295
 20
-149.9701741161533
 30
0.0
  0
HATCH
  5
155
330
13F
100
AcDbEntity
  8
レイヤー 1
 62
    18
420
        0
440
 33554687
100
AcDbHatch
 10
0.0
 20
0.0
 30
0.0
210
0.0
220
0.0
230
1.0
  2
SOLID
 70
     1
 71
     1
 91
        2
 92
        1
 93
        1
 72
     4
 94
        3
 73
     0
 74
     0
 95
       17
 96
       13
 40
0.0
 40
0.0
 40
0.0
 40
0.0
 40
1.0
 40
1.0
 40
1.0
 40
2.0
 40
2.0
 40
2.0
 40
3.0
 40
3.0
 40
3.0
 40
4.0
 40
4.0
 40
4.0
 40
4.0
 10
95.97519257583259
 20
-149.9701741161533
 10
95.97519257583259
 20
-150.0294297584996
 10
96.02170136488346
 20
-150.0759385475504
 10
96.08095700722977
 20
-150.0759385475504
 10
96.14021264957607
 20
-150.0759385475504
 10
96.18878849591808
 20
-150.0294297584996
 10
96.18878849591808
 20
-149.9701741161533
 10
96.18878849591808
 20
-149.910918473807
 10
96.14021264957607
 20
-149.862342627465
 10
96.08095700722977
 20
-149.862342627465
 10
96.02170136488346
 20
-149.862342627465
 10
95.97519257583259
 20
-149.910918473807
 10
95.97519257583259
 20
-149.9701741161533
 97
        0
 97
        1
330
153
 92
        1
 93
        1
 72
     4
 94
        3
 73
     0
 74
     0
 95
       17
 96
       13
 40
0.0
 40
0.0
 40
0.0
 40
0.0
 40
1.0
 40
1.0
 40
1.0
 40
2.0
 40
2.0
 40
2.0
 40
3.0
 40
3.0
 40
3.0
 40
4.0
 40
4.0
 40
4.0
 40
4.0
 10
96.29041881273295
 20
-149.9701741161533
 10
96.29041881273295
 20
-150.0845512862636
 10
96.19722897985695
 20
-150.1796359216565
 10
96.08095700722977
 20
-150.1796359216565
 10
95.96675209189374
 20
-150.1796359216565
 10
95.87149520172657
 20
-150.0845512862636
 10
95.87149520172657
 20
-149.9701741161533
 10
95.87149520172657
 20
-149.8537298887518
 10
95.96675209189374
 20
-149.7607123106501
 10
96.08095700722977
 20
-149.7607123106501
 10
96.19516192256581
 20
-149.7607123106501
 10
96.29041881273295
 20
-149.8537298887518
 10
96.29041881273295
 20
-149.9701741161533
 97
        0
 97
        1
330
154
 75
     2
 76
     1
 98
        1
 10
0.0
 20
0.0
450
        0
451
        0
460
0.0
461
0.0
452
        0
462
0.0
453
        0
470

  0
ENDBLK
  5
142
330
13F
100
AcDbEntity
  8
0
100
AcDbBlockEnd
  0
BLOCK
  5
158
330
156
100
AcDbEntity
  8
0
100
AcDbBlockBegin
  2
Block_15
 70
     0
 10
0.0
 20
0.0
 30
0.0
  3
Block_15
  1

  0
INSERT
  5
15B
330
156
100
AcDbEntity
  8
レイヤー 1
100
AcDbBlockReference
  2
Block_16
 10
0.0
 20
0.0
 30
0.0
  0
INSERT
  5
162
330
156
100
AcDbEntity
  8
レイヤー 1
100
AcDbBlockReference
  2
Block_17
 10
0.0
 20
0.0
 30
0.0
  0
ENDBLK
  5
159
330
156
100
AcDbEntity
  8
0
100
AcDbBlockEnd
  0
BLOCK
  5
15C
330
15A
100
AcDbEntity
  8
0
100
AcDbBlockBegin
  2
Block_16
 70
     0
 10
0.0
 20
0.0
 30
0.0
  3
Block_16
  1

  0
LWPOLYLINE
  5
15E
330
15A
100
AcDbEntity
  8
レイヤー 1
 62
   250
420
  2299925
370
     9
100
AcDbPolyline
 90
        4
 70
     1
 43
0.0
 10
104.1869552282697
 20
-153.6426031479685
 10
104.2362382838128
 20
-154.2017559256061
 10
104.4703063393094
 20
-153.2974100924988
 10
103.5942180061954
 20
-153.6629231479634
  0
HATCH
  5
15F
330
15A
100
AcDbEntity
  8
レイヤー 1
 62
   250
420
  2299925
440
 33554687
100
AcDbHatch
 10
0.0
 20
0.0
 30
0.0
210
0.0
220
0.0
230
1.0
  2
SOLID
 70
     1
 71
     1
 91
        1
 92
        1
 93
        4
 72
     1
 10
104.1869552282697
 20
-153.6426031479685
 11
104.2362382838128
 21
-154.2017559256061
 72
     1
 10
104.2362382838128
 20
-154.2017559256061
 11
104.4703063393094
 21
-153.2974100924988
 72
     1
 10
104.4703063393094
 20
-153.2974100924988
 11
103.5942180061954
 21
-153.6629231479634
 72
     1
 10
103.5942180061954
 20
-153.6629231479634
 11
104.1869552282697
 21
-153.6426031479685
 97
        1
330
15E
 75
     2
 76
     1
 98
        1
 10
0.0
 20
0.0
450
        0
451
        0
460
0.0
461
0.0
452
        0
462
0.0
453
        0
470

  0
LINE
  5
160
330
15A
100
AcDbEntity
  8
レイヤー 1
 62
   250
420
  2299925
370
     9
100
AcDbLine
 10
104.1869552282697
 20
-153.6426031479685
 30
0.0
 11
103.257809117391
 21
-154.7501842588028
 31
0.0
  0
ENDBLK
  5
15D
330
15A
100
AcDbEntity
  8
0
100
AcDbBlockEnd
  0
BLOCK
  5
163
330
161
100
AcDbEntity
  8
0
100
AcDbBlockBegin
  2
Block_17
 70
     0
 10
0.0
 20
0.0
 30
0.0
  3
Block_17
  1

  0
INSERT
  5
166
330
161
100
AcDbEntity
  8
レイヤー 1
100
AcDbBlockReference
  2
Block_18
 10
0.0
 20
0.0
 30
0.0
  0
ENDBLK
  5
164
330
161
100
AcDbEntity
  8
0
100
AcDbBlockEnd
  0
BLOCK
  5
167
330
165
100
AcDbEntity
  8
0
100
AcDbBlockBegin
  2
Block_18
 70
     0
 10
0.0
 20
0.0
 30
0.0
  3
Block_18
  1

  0
SPLINE
  5
169
330
165
100
AcDbEntity
  8
レイヤー 1
100
AcDbSpline
210
0.0
220
0.0
230
1.0
 70
     9
 71
     3
 72
    38
 73
    34
 74
     0
 42
0.0000000001
 43
0.0000000001
 40
0.0
 40
0.0
 40
0.0
 40
0.0
 40
1.0
 40
1.0
 40
1.0
 40
2.0
 40
2.0
 40
2.0
 40
3.0
 40
3.0
 40
3.0
 40
4.0
 40
4.0
 40
4.0
 40
5.0
 40
5.0
 40
5.0
 40
6.0
 40
6.0
 40
6.0
 40
7.0
 40
7.0
 40
7.0
 40
8.0
 40
8.0
 40
8.0
 40
9.0
 40
9.0
 40
9.0
 40
10.0
 40
10.0
 40
10.0
 40
11.0
 40
11.0
 40
11.0
 40
11.0
 10
99.98166637040391
 20
-155.2976697745436
 30
0.0
 10
100.0748562032799
 20
-155.1750243752687
 30
0.0
 10
100.1995686598459
 20
-154.9951903909387
 30
0.0
 10
100.2948255500131
 20
-154.5466389587592
 30
0.0
 10
100.2948255500131
 20
-154.5466389587592
 30
0.0
 10
100.4619126810477
 20
-154.5659314934765
 30
0.0
 10
100.4619126810477
 20
-154.5659314934765
 30
0.0
 10
100.4365912292311
 20
-154.6865098354603
 30
0.0
 10
100.4133368347057
 20
-154.7774603562709
 30
0.0
 10
100.3750962748194
 20
-154.8852918449592
 30
0.0
 10
100.3750962748194
 20
-154.8852918449592
 30
0.0
 10
101.003481691329
 20
-154.8852918449592
 30
0.0
 10
101.003481691329
 20
-154.8852918449592
 30
0.0
 10
101.003481691329
 20
-154.8852918449592
 30
0.0
 10
101.003481691329
 20
-155.0375650654073
 30
0.0
 10
101.003481691329
 20
-155.0375650654073
 30
0.0
 10
100.9695475007992
 20
-155.1795029993995
 30
0.0
 10
100.8744628654064
 20
-155.4375406512448
 30
0.0
 10
100.8003933124735
 20
-155.5560519359374
 30
0.0
 10
100.8003933124735
 20
-155.5560519359374
 30
0.0
 10
100.6481200920255
 20
-155.4775037588737
 30
0.0
 10
100.6481200920255
 20
-155.4775037588737
 30
0.0
 10
100.7432047274184
 20
-155.3421115063033
 30
0.0
 10
100.8088337964123
 20
-155.1540092928087
 30
0.0
 10
100.8363945602944
 20
-155.0437662372807
 30
0.0
 10
100.8363945602944
 20
-155.0437662372807
 30
0.0
 10
100.3180799445385
 20
-155.0437662372807
 30
0.0
 10
100.3180799445385
 20
-155.0437662372807
 30
0.0
 10
100.2186889397891
 20
-155.2852674307967
 30
0.0
 10
100.1446193868562
 20
-155.3738063847676
 30
0.0
 10
100.1065510817442
 20
-155.4182481165274
 30
0.0
 10
100.1065510817442
 20
-155.4182481165274
 30
0.0
 10
99.98166637040391
 20
-155.2976697745436
 30
0.0
 10
99.98166637040391
 20
-155.2976697745436
 30
0.0
  0
SPLINE
  5
16A
330
165
100
AcDbEntity
  8
レイヤー 1
100
AcDbSpline
210
0.0
220
0.0
230
1.0
 70
     9
 71
     3
 72
    38
 73
    34
 74
     0
 42
0.0000000001
 43
0.0000000001
 40
0.0
 40
0.0
 40
0.0
 40
0.0
 40
1.0
 40
1.0
 40
1.0
 40
2.0
 40
2.0
 40
2.0
 40
3.0
 40
3.0
 40
3.0
 40
4.0
 40
4.0
 40
4.0
 40
5.0
 40
5.0
 40
5.0
 40
6.0
 40
6.0
 40
6.0
 40
7.0
 40
7.0
 40
7.0
 40
8.0
 40
8.0
 40
8.0
 40
9.0
 40
9.0
 40
9.0
 40
10.0
 40
10.0
 40
10.0
 40
11.0
 40
11.0
 40
11.0
 40
11.0
 10
99.86746145506787
 20
-156.3704725086504
 30
0.0
 10
99.94997149193959
 20
-156.3174180381776
 30
0.0
 10
100.114991565683
 20
-156.2095865494893
 30
0.0
 10
100.2207559970802
 20
-156.0021918012772
 30
0.0
 10
100.3688951029459
 20
-155.7103922136766
 30
0.0
 10
100.3688951029459
 20
-155.4840494402956
 30
0.0
 10
100.3688951029459
 20
-155.3993000913585
 30
0.0
 10
100.3688951029459
 20
-155.3993000913585
 30
0.0
 10
100.3688951029459
 20
-155.164689088813
 30
0.0
 10
100.3688951029459
 20
-155.164689088813
 30
0.0
 10
100.3688951029459
 20
-155.164689088813
 30
0.0
 10
100.5339151766894
 20
-155.164689088813
 30
0.0
 10
100.5339151766894
 20
-155.164689088813
 30
0.0
 10
100.5339151766894
 20
-155.164689088813
 30
0.0
 10
100.5339151766894
 20
-155.3910318621939
 30
0.0
 10
100.5339151766894
 20
-155.3910318621939
 30
0.0
 10
100.5339151766894
 20
-155.5898138716928
 30
0.0
 10
100.5993719909092
 20
-155.826836441078
 30
0.0
 10
100.701002307724
 20
-156.0001247439861
 30
0.0
 10
100.8172742803512
 20
-156.198906753485
 30
0.0
 10
100.9462931062738
 20
-156.2984700130087
 30
0.0
 10
101.031042455211
 20
-156.3597927126461
 30
0.0
 10
101.031042455211
 20
-156.3597927126461
 30
0.0
 10
100.9230387117484
 20
-156.509998875803
 30
0.0
 10
100.9230387117484
 20
-156.509998875803
 30
0.0
 10
100.7454440394838
 20
-156.3808077951062
 30
0.0
 10
100.5464897752106
 20
-156.1417181684298
 30
0.0
 10
100.4682861076954
 20
-155.7885958811917
 30
0.0
 10
100.4026570387014
 20
-156.0276855078681
 30
0.0
 10
100.3011989766608
 20
-156.2964029557176
 30
0.0
 10
99.99234616640817
 20
-156.5058647612207
 30
0.0
 10
99.99234616640817
 20
-156.5058647612207
 30
0.0
 10
99.86746145506787
 20
-156.3704725086504
 30
0.0
 10
99.86746145506787
 20
-156.3704725086504
 30
0.0
  0
SPLINE
  5
16B
330
165
100
AcDbEntity
  8
レイヤー 1
100
AcDbSpline
210
0.0
220
0.0
230
1.0
 70
    11
 71
     3
 72
    17
 73
    13
 74
     0
 42
0.0000000001
 43
0.0000000001
 40
0.0
 40
0.0
 40
0.0
 40
0.0
 40
1.0
 40
1.0
 40
1.0
 40
2.0
 40
2.0
 40
2.0
 40
3.0
 40
3.0
 40
3.0
 40
4.0
 40
4.0
 40
4.0
 40
4.0
 10
99.82508678059929
 20
-155.4819823830045
 30
0.0
 10
99.82508678059929
 20
-155.4819823830045
 30
0.0
 10
99.61355791780496
 20
-155.4819823830045
 30
0.0
 10
99.61355791780496
 20
-155.4819823830045
 30
0.0
 10
99.61355791780496
 20
-155.4819823830045
 30
0.0
 10
99.61355791780496
 20
-155.689032621668
 30
0.0
 10
99.61355791780496
 20
-155.689032621668
 30
0.0
 10
99.61355791780496
 20
-155.689032621668
 30
0.0
 10
99.82508678059929
 20
-155.689032621668
 30
0.0
 10
99.82508678059929
 20
-155.689032621668
 30
0.0
 10
99.82508678059929
 20
-155.689032621668
 30
0.0
 10
99.82508678059929
 20
-155.4819823830045
 30
0.0
 10
99.82508678059929
 20
-155.4819823830045
 30
0.0
  0
SPLINE
  5
16C
330
165
100
AcDbEntity
  8
レイヤー 1
100
AcDbSpline
210
0.0
220
0.0
230
1.0
 70
    11
 71
     3
 72
    17
 73
    13
 74
     0
 42
0.0000000001
 43
0.0000000001
 40
0.0
 40
0.0
 40
0.0
 40
0.0
 40
1.0
 40
1.0
 40
1.0
 40
2.0
 40
2.0
 40
2.0
 40
3.0
 40
3.0
 40
3.0
 40
4.0
 40
4.0
 40
4.0
 40
4.0
 10
99.82508678059929
 20
-155.1560763500999
 30
0.0
 10
99.82508678059929
 20
-155.1560763500999
 30
0.0
 10
99.61355791780496
 20
-155.1560763500999
 30
0.0
 10
99.61355791780496
 20
-155.1560763500999
 30
0.0
 10
99.61355791780496
 20
-155.1560763500999
 30
0.0
 10
99.61355791780496
 20
-155.3589924741811
 30
0.0
 10
99.61355791780496
 20
-155.3589924741811
 30
0.0
 10
99.61355791780496
 20
-155.3589924741811
 30
0.0
 10
99.82508678059929
 20
-155.3589924741811
 30
0.0
 10
99.82508678059929
 20
-155.3589924741811
 30
0.0
 10
99.82508678059929
 20
-155.3589924741811
 30
0.0
 10
99.82508678059929
 20
-155.1560763500999
 30
0.0
 10
99.82508678059929
 20
-155.1560763500999
 30
0.0
  0
SPLINE
  5
16D
330
165
100
AcDbEntity
  8
レイヤー 1
100
AcDbSpline
210
0.0
220
0.0
230
1.0
 70
    11
 71
     3
 72
    17
 73
    13
 74
     0
 42
0.0000000001
 43
0.0000000001
 40
0.0
 40
0.0
 40
0.0
 40
0.0
 40
1.0
 40
1.0
 40
1.0
 40
2.0
 40
2.0
 40
2.0
 40
3.0
 40
3.0
 40
3.0
 40
4.0
 40
4.0
 40
4.0
 40
4.0
 10
99.45921764006577
 20
-155.4819823830045
 30
0.0
 10
99.45921764006577
 20
-155.4819823830045
 30
0.0
 10
99.25182289185372
 20
-155.4819823830045
 30
0.0
 10
99.25182289185372
 20
-155.4819823830045
 30
0.0
 10
99.25182289185372
 20
-155.4819823830045
 30
0.0
 10
99.25182289185372
 20
-155.689032621668
 30
0.0
 10
99.25182289185372
 20
-155.689032621668
 30
0.0
 10
99.25182289185372
 20
-155.689032621668
 30
0.0
 10
99.45921764006577
 20
-155.689032621668
 30
0.0
 10
99.45921764006577
 20
-155.689032621668
 30
0.0
 10
99.45921764006577
 20
-155.689032621668
 30
0.0
 10
99.45921764006577
 20
-155.4819823830045
 30
0.0
 10
99.45921764006577
 20
-155.4819823830045
 30
0.0
  0
SPLINE
  5
16E
330
165
100
AcDbEntity
  8
レイヤー 1
100
AcDbSpline
210
0.0
220
0.0
230
1.0
 70
    11
 71
     3
 72
    17
 73
    13
 74
     0
 42
0.0000000001
 43
0.0000000001
 40
0.0
 40
0.0
 40
0.0
 40
0.0
 40
1.0
 40
1.0
 40
1.0
 40
2.0
 40
2.0
 40
2.0
 40
3.0
 40
3.0
 40
3.0
 40
4.0
 40
4.0
 40
4.0
 40
4.0
 10
99.45921764006577
 20
-155.1560763500999
 30
0.0
 10
99.45921764006577
 20
-155.1560763500999
 30
0.0
 10
99.25182289185372
 20
-155.1560763500999
 30
0.0
 10
99.25182289185372
 20
-155.1560763500999
 30
0.0
 10
99.25182289185372
 20
-155.1560763500999
 30
0.0
 10
99.25182289185372
 20
-155.3589924741811
 30
0.0
 10
99.25182289185372
 20
-155.3589924741811
 30
0.0
 10
99.25182289185372
 20
-155.3589924741811
 30
0.0
 10
99.45921764006577
 20
-155.3589924741811
 30
0.0
 10
99.45921764006577
 20
-155.3589924741811
 30
0.0
 10
99.45921764006577
 20
-155.3589924741811
 30
0.0
 10
99.45921764006577
 20
-155.1560763500999
 30
0.0
 10
99.45921764006577
 20
-155.1560763500999
 30
0.0
  0
SPLINE
  5
16F
330
165
100
AcDbEntity
  8
レイヤー 1
100
AcDbSpline
210
0.0
220
0.0
230
1.0
 70
    11
 71
     3
 72
    89
 73
    85
 74
     0
 42
0.0000000001
 43
0.0000000001
 40
0.0
 40
0.0
 40
0.0
 40
0.0
 40
1.0
 40
1.0
 40
1.0
 40
2.0
 40
2.0
 40
2.0
 40
3.0
 40
3.0
 40
3.0
 40
4.0
 40
4.0
 40
4.0
 40
5.0
 40
5.0
 40
5.0
 40
6.0
 40
6.0
 40
6.0
 40
7.0
 40
7.0
 40
7.0
 40
8.0
 40
8.0
 40
8.0
 40
9.0
 40
9.0
 40
9.0
 40
10.0
 40
10.0
 40
10.0
 40
11.0
 40
11.0
 40
11.0
 40
12.0
 40
12.0
 40
12.0
 40
13.0
 40
13.0
 40
13.0
 40
14.0
 40
14.0
 40
14.0
 40
15.0
 40
15.0
 40
15.0
 40
16.0
 40
16.0
 40
16.0
 40
17.0
 40
17.0
 40
17.0
 40
18.0
 40
18.0
 40
18.0
 40
19.0
 40
19.0
 40
19.0
 40
20.0
 40
20.0
 40
20.0
 40
21.0
 40
21.0
 40
21.0
 40
22.0
 40
22.0
 40
22.0
 40
23.0
 40
23.0
 40
23.0
 40
24.0
 40
24.0
 40
24.0
 40
25.0
 40
25.0
 40
25.0
 40
26.0
 40
26.0
 40
26.0
 40
27.0
 40
27.0
 40
27.0
 40
28.0
 40
28.0
 40
28.0
 40
28.0
 10
99.45921764006577
 20
-154.7075249179203
 30
0.0
 10
99.45921764006577
 20
-154.7075249179203
 30
0.0
 10
99.45921764006577
 20
-154.5466389587592
 30
0.0
 10
99.45921764006577
 20
-154.5466389587592
 30
0.0
 10
99.45921764006577
 20
-154.5466389587592
 30
0.0
 10
99.61355791780496
 20
-154.5466389587592
 30
0.0
 10
99.61355791780496
 20
-154.5466389587592
 30
0.0
 10
99.61355791780496
 20
-154.5466389587592
 30
0.0
 10
99.61355791780496
 20
-154.7075249179203
 30
0.0
 10
99.61355791780496
 20
-154.7075249179203
 30
0.0
 10
99.61355791780496
 20
-154.7075249179203
 30
0.0
 10
100.0071600769947
 20
-154.7075249179203
 30
0.0
 10
100.0071600769947
 20
-154.7075249179203
 30
0.0
 10
100.0071600769947
 20
-154.7075249179203
 30
0.0
 10
100.0071600769947
 20
-154.8618651956595
 30
0.0
 10
100.0071600769947
 20
-154.8618651956595
 30
0.0
 10
100.0071600769947
 20
-154.8618651956595
 30
0.0
 10
99.61355791780496
 20
-154.8618651956595
 30
0.0
 10
99.61355791780496
 20
-154.8618651956595
 30
0.0
 10
99.61355791780496
 20
-154.8618651956595
 30
0.0
 10
99.61355791780496
 20
-155.0165499829472
 30
0.0
 10
99.61355791780496
 20
-155.0165499829472
 30
0.0
 10
99.61355791780496
 20
-155.0165499829472
 30
0.0
 10
99.96891951710848
 20
-155.0165499829472
 30
0.0
 10
99.96891951710848
 20
-155.0165499829472
 30
0.0
 10
99.96891951710848
 20
-155.0165499829472
 30
0.0
 10
99.96891951710848
 20
-155.8289034983691
 30
0.0
 10
99.96891951710848
 20
-155.8289034983691
 30
0.0
 10
99.96891951710848
 20
-155.8289034983691
 30
0.0
 10
99.61355791780496
 20
-155.8289034983691
 30
0.0
 10
99.61355791780496
 20
-155.8289034983691
 30
0.0
 10
99.61355791780496
 20
-155.8289034983691
 30
0.0
 10
99.61355791780496
 20
-155.9980576866949
 30
0.0
 10
99.61355791780496
 20
-155.9980576866949
 30
0.0
 10
99.61355791780496
 20
-155.9980576866949
 30
0.0
 10
100.021801732807
 20
-155.9980576866949
 30
0.0
 10
100.021801732807
 20
-155.9980576866949
 30
0.0
 10
100.021801732807
 20
-155.9980576866949
 30
0.0
 10
100.021801732807
 20
-156.1523979644341
 30
0.0
 10
100.021801732807
 20
-156.1523979644341
 30
0.0
 10
100.021801732807
 20
-156.1523979644341
 30
0.0
 10
99.61355791780496
 20
-156.1523979644341
 30
0.0
 10
99.61355791780496
 20
-156.1523979644341
 30
0.0
 10
99.61355791780496
 20
-156.1523979644341
 30
0.0
 10
99.61355791780496
 20
-156.5058647612207
 30
0.0
 10
99.61355791780496
 20
-156.5058647612207
 30
0.0
 10
99.61355791780496
 20
-156.5058647612207
 30
0.0
 10
99.45921764006577
 20
-156.5058647612207
 30
0.0
 10
99.45921764006577
 20
-156.5058647612207
 30
0.0
 10
99.45921764006577
 20
-156.5058647612207
 30
0.0
 10
99.45921764006577
 20
-156.1523979644341
 30
0.0
 10
99.45921764006577
 20
-156.1523979644341
 30
0.0
 10
99.45921764006577
 20
-156.1523979644341
 30
0.0
 10
99.04873451299824
 20
-156.1523979644341
 30
0.0
 10
99.04873451299824
 20
-156.1523979644341
 30
0.0
 10
99.04873451299824
 20
-156.1523979644341
 30
0.0
 10
99.04873451299824
 20
-155.9980576866949
 30
0.0
 10
99.04873451299824
 20
-155.9980576866949
 30
0.0
 10
99.04873451299824
 20
-155.9980576866949
 30
0.0
 10
99.45921764006577
 20
-155.9980576866949
 30
0.0
 10
99.45921764006577
 20
-155.9980576866949
 30
0.0
 10
99.45921764006577
 20
-155.9980576866949
 30
0.0
 10
99.45921764006577
 20
-155.8289034983691
 30
0.0
 10
99.45921764006577
 20
-155.8289034983691
 30
0.0
 10
99.45921764006577
 20
-155.8289034983691
 30
0.0
 10
99.11005721263569
 20
-155.8289034983691
 30
0.0
 10
99.11005721263569
 20
-155.8289034983691
 30
0.0
 10
99.11005721263569
 20
-155.8289034983691
 30
0.0
 10
99.11005721263569
 20
-155.0165499829472
 30
0.0
 10
99.11005721263569
 20
-155.0165499829472
 30
0.0
 10
99.11005721263569
 20
-155.0165499829472
 30
0.0
 10
99.45921764006577
 20
-155.0165499829472
 30
0.0
 10
99.45921764006577
 20
-155.0165499829472
 30
0.0
 10
99.45921764006577
 20
-155.0165499829472
 30
0.0
 10
99.45921764006577
 20
-154.8618651956595
 30
0.0
 10
99.45921764006577
 20
-154.8618651956595
 30
0.0
 10
99.45921764006577
 20
-154.8618651956595
 30
0.0
 10
99.06992185023252
 20
-154.8618651956595
 30
0.0
 10
99.06992185023252
 20
-154.8618651956595
 30
0.0
 10
99.06992185023252
 20
-154.8618651956595
 30
0.0
 10
99.06992185023252
 20
-154.7075249179203
 30
0.0
 10
99.06992185023252
 20
-154.7075249179203
 30
0.0
 10
99.06992185023252
 20
-154.7075249179203
 30
0.0
 10
99.45921764006577
 20
-154.7075249179203
 30
0.0
 10
99.45921764006577
 20
-154.7075249179203
 30
0.0
  0
HATCH
  5
170
330
165
100
AcDbEntity
  8
レイヤー 1
 62
    12
420
 15007762
440
 33554687
100
AcDbHatch
 10
0.0
 20
0.0
 30
0.0
210
0.0
220
0.0
230
1.0
  2
SOLID
 70
     1
 71
     1
 91
        7
 92
        1
 93
        1
 72
     4
 94
        3
 73
     0
 74
     0
 95
       38
 96
       34
 40
0.0
 40
0.0
 40
0.0
 40
0.0
 40
1.0
 40
1.0
 40
1.0
 40
2.0
 40
2.0
 40
2.0
 40
3.0
 40
3.0
 40
3.0
 40
4.0
 40
4.0
 40
4.0
 40
5.0
 40
5.0
 40
5.0
 40
6.0
 40
6.0
 40
6.0
 40
7.0
 40
7.0
 40
7.0
 40
8.0
 40
8.0
 40
8.0
 40
9.0
 40
9.0
 40
9.0
 40
10.0
 40
10.0
 40
10.0
 40
11.0
 40
11.0
 40
11.0
 40
11.0
 10
99.98166637040391
 20
-155.2976697745436
 10
100.0748562032799
 20
-155.1750243752687
 10
100.1995686598459
 20
-154.9951903909387
 10
100.2948255500131
 20
-154.5466389587592
 10
100.2948255500131
 20
-154.5466389587592
 10
100.4619126810477
 20
-154.5659314934765
 10
100.4619126810477
 20
-154.5659314934765
 10
100.4365912292311
 20
-154.6865098354603
 10
100.4133368347057
 20
-154.7774603562709
 10
100.3750962748194
 20
-154.8852918449592
 10
100.3750962748194
 20
-154.8852918449592
 10
101.003481691329
 20
-154.8852918449592
 10
101.003481691329
 20
-154.8852918449592
 10
101.003481691329
 20
-154.8852918449592
 10
101.003481691329
 20
-155.0375650654073
 10
101.003481691329
 20
-155.0375650654073
 10
100.9695475007992
 20
-155.1795029993995
 10
100.8744628654064
 20
-155.4375406512448
 10
100.8003933124735
 20
-155.5560519359374
 10
100.8003933124735
 20
-155.5560519359374
 10
100.6481200920255
 20
-155.4775037588737
 10
100.6481200920255
 20
-155.4775037588737
 10
100.7432047274184
 20
-155.3421115063033
 10
100.8088337964123
 20
-155.1540092928087
 10
100.8363945602944
 20
-155.0437662372807
 10
100.8363945602944
 20
-155.0437662372807
 10
100.3180799445385
 20
-155.0437662372807
 10
100.3180799445385
 20
-155.0437662372807
 10
100.2186889397891
 20
-155.2852674307967
 10
100.1446193868562
 20
-155.3738063847676
 10
100.1065510817442
 20
-155.4182481165274
 10
100.1065510817442
 20
-155.4182481165274
 10
99.98166637040391
 20
-155.2976697745436
 10
99.98166637040391
 20
-155.2976697745436
 97
        0
 97
        1
330
169
 92
        1
 93
        1
 72
     4
 94
        3
 73
     0
 74
     0
 95
       38
 96
       34
 40
0.0
 40
0.0
 40
0.0
 40
0.0
 40
1.0
 40
1.0
 40
1.0
 40
2.0
 40
2.0
 40
2.0
 40
3.0
 40
3.0
 40
3.0
 40
4.0
 40
4.0
 40
4.0
 40
5.0
 40
5.0
 40
5.0
 40
6.0
 40
6.0
 40
6.0
 40
7.0
 40
7.0
 40
7.0
 40
8.0
 40
8.0
 40
8.0
 40
9.0
 40
9.0
 40
9.0
 40
10.0
 40
10.0
 40
10.0
 40
11.0
 40
11.0
 40
11.0
 40
11.0
 10
99.86746145506787
 20
-156.3704725086504
 10
99.94997149193959
 20
-156.3174180381776
 10
100.114991565683
 20
-156.2095865494893
 10
100.2207559970802
 20
-156.0021918012772
 10
100.3688951029459
 20
-155.7103922136766
 10
100.3688951029459
 20
-155.4840494402956
 10
100.3688951029459
 20
-155.3993000913585
 10
100.3688951029459
 20
-155.3993000913585
 10
100.3688951029459
 20
-155.164689088813
 10
100.3688951029459
 20
-155.164689088813
 10
100.3688951029459
 20
-155.164689088813
 10
100.5339151766894
 20
-155.164689088813
 10
100.5339151766894
 20
-155.164689088813
 10
100.5339151766894
 20
-155.164689088813
 10
100.5339151766894
 20
-155.3910318621939
 10
100.5339151766894
 20
-155.3910318621939
 10
100.5339151766894
 20
-155.5898138716928
 10
100.5993719909092
 20
-155.826836441078
 10
100.701002307724
 20
-156.0001247439861
 10
100.8172742803512
 20
-156.198906753485
 10
100.9462931062738
 20
-156.2984700130087
 10
101.031042455211
 20
-156.3597927126461
 10
101.031042455211
 20
-156.3597927126461
 10
100.9230387117484
 20
-156.509998875803
 10
100.9230387117484
 20
-156.509998875803
 10
100.7454440394838
 20
-156.3808077951062
 10
100.5464897752106
 20
-156.1417181684298
 10
100.4682861076954
 20
-155.7885958811917
 10
100.4026570387014
 20
-156.0276855078681
 10
100.3011989766608
 20
-156.2964029557176
 10
99.99234616640817
 20
-156.5058647612207
 10
99.99234616640817
 20
-156.5058647612207
 10
99.86746145506787
 20
-156.3704725086504
 10
99.86746145506787
 20
-156.3704725086504
 97
        0
 97
        1
330
16A
 92
        1
 93
        1
 72
     4
 94
        3
 73
     0
 74
     0
 95
       17
 96
       13
 40
0.0
 40
0.0
 40
0.0
 40
0.0
 40
1.0
 40
1.0
 40
1.0
 40
2.0
 40
2.0
 40
2.0
 40
3.0
 40
3.0
 40
3.0
 40
4.0
 40
4.0
 40
4.0
 40
4.0
 10
99.82508678059929
 20
-155.4819823830045
 10
99.82508678059929
 20
-155.4819823830045
 10
99.61355791780496
 20
-155.4819823830045
 10
99.61355791780496
 20
-155.4819823830045
 10
99.61355791780496
 20
-155.4819823830045
 10
99.61355791780496
 20
-155.689032621668
 10
99.61355791780496
 20
-155.689032621668
 10
99.61355791780496
 20
-155.689032621668
 10
99.82508678059929
 20
-155.689032621668
 10
99.82508678059929
 20
-155.689032621668
 10
99.82508678059929
 20
-155.689032621668
 10
99.82508678059929
 20
-155.4819823830045
 10
99.82508678059929
 20
-155.4819823830045
 97
        0
 97
        1
330
16B
 92
        1
 93
        1
 72
     4
 94
        3
 73
     0
 74
     0
 95
       17
 96
       13
 40
0.0
 40
0.0
 40
0.0
 40
0.0
 40
1.0
 40
1.0
 40
1.0
 40
2.0
 40
2.0
 40
2.0
 40
3.0
 40
3.0
 40
3.0
 40
4.0
 40
4.0
 40
4.0
 40
4.0
 10
99.82508678059929
 20
-155.1560763500999
 10
99.82508678059929
 20
-155.1560763500999
 10
99.61355791780496
 20
-155.1560763500999
 10
99.61355791780496
 20
-155.1560763500999
 10
99.61355791780496
 20
-155.1560763500999
 10
99.61355791780496
 20
-155.3589924741811
 10
99.61355791780496
 20
-155.3589924741811
 10
99.61355791780496
 20
-155.3589924741811
 10
99.82508678059929
 20
-155.3589924741811
 10
99.82508678059929
 20
-155.3589924741811
 10
99.82508678059929
 20
-155.3589924741811
 10
99.82508678059929
 20
-155.1560763500999
 10
99.82508678059929
 20
-155.1560763500999
 97
        0
 97
        1
330
16C
 92
        1
 93
        1
 72
     4
 94
        3
 73
     0
 74
     0
 95
       17
 96
       13
 40
0.0
 40
0.0
 40
0.0
 40
0.0
 40
1.0
 40
1.0
 40
1.0
 40
2.0
 40
2.0
 40
2.0
 40
3.0
 40
3.0
 40
3.0
 40
4.0
 40
4.0
 40
4.0
 40
4.0
 10
99.45921764006577
 20
-155.4819823830045
 10
99.45921764006577
 20
-155.4819823830045
 10
99.25182289185372
 20
-155.4819823830045
 10
99.25182289185372
 20
-155.4819823830045
 10
99.25182289185372
 20
-155.4819823830045
 10
99.25182289185372
 20
-155.689032621668
 10
99.25182289185372
 20
-155.689032621668
 10
99.25182289185372
 20
-155.689032621668
 10
99.45921764006577
 20
-155.689032621668
 10
99.45921764006577
 20
-155.689032621668
 10
99.45921764006577
 20
-155.689032621668
 10
99.45921764006577
 20
-155.4819823830045
 10
99.45921764006577
 20
-155.4819823830045
 97
        0
 97
        1
330
16D
 92
        1
 93
        1
 72
     4
 94
        3
 73
     0
 74
     0
 95
       17
 96
       13
 40
0.0
 40
0.0
 40
0.0
 40
0.0
 40
1.0
 40
1.0
 40
1.0
 40
2.0
 40
2.0
 40
2.0
 40
3.0
 40
3.0
 40
3.0
 40
4.0
 40
4.0
 40
4.0
 40
4.0
 10
99.45921764006577
 20
-155.1560763500999
 10
99.45921764006577
 20
-155.1560763500999
 10
99.25182289185372
 20
-155.1560763500999
 10
99.25182289185372
 20
-155.1560763500999
 10
99.25182289185372
 20
-155.1560763500999
 10
99.25182289185372
 20
-155.3589924741811
 10
99.25182289185372
 20
-155.3589924741811
 10
99.25182289185372
 20
-155.3589924741811
 10
99.45921764006577
 20
-155.3589924741811
 10
99.45921764006577
 20
-155.3589924741811
 10
99.45921764006577
 20
-155.3589924741811
 10
99.45921764006577
 20
-155.1560763500999
 10
99.45921764006577
 20
-155.1560763500999
 97
        0
 97
        1
330
16E
 92
        1
 93
        1
 72
     4
 94
        3
 73
     0
 74
     0
 95
       89
 96
       85
 40
0.0
 40
0.0
 40
0.0
 40
0.0
 40
1.0
 40
1.0
 40
1.0
 40
2.0
 40
2.0
 40
2.0
 40
3.0
 40
3.0
 40
3.0
 40
4.0
 40
4.0
 40
4.0
 40
5.0
 40
5.0
 40
5.0
 40
6.0
 40
6.0
 40
6.0
 40
7.0
 40
7.0
 40
7.0
 40
8.0
 40
8.0
 40
8.0
 40
9.0
 40
9.0
 40
9.0
 40
10.0
 40
10.0
 40
10.0
 40
11.0
 40
11.0
 40
11.0
 40
12.0
 40
12.0
 40
12.0
 40
13.0
 40
13.0
 40
13.0
 40
14.0
 40
14.0
 40
14.0
 40
15.0
 40
15.0
 40
15.0
 40
16.0
 40
16.0
 40
16.0
 40
17.0
 40
17.0
 40
17.0
 40
18.0
 40
18.0
 40
18.0
 40
19.0
 40
19.0
 40
19.0
 40
20.0
 40
20.0
 40
20.0
 40
21.0
 40
21.0
 40
21.0
 40
22.0
 40
22.0
 40
22.0
 40
23.0
 40
23.0
 40
23.0
 40
24.0
 40
24.0
 40
24.0
 40
25.0
 40
25.0
 40
25.0
 40
26.0
 40
26.0
 40
26.0
 40
27.0
 40
27.0
 40
27.0
 40
28.0
 40
28.0
 40
28.0
 40
28.0
 10
99.45921764006577
 20
-154.7075249179203
 10
99.45921764006577
 20
-154.7075249179203
 10
99.45921764006577
 20
-154.5466389587592
 10
99.45921764006577
 20
-154.5466389587592
 10
99.45921764006577
 20
-154.5466389587592
 10
99.61355791780496
 20
-154.5466389587592
 10
99.61355791780496
 20
-154.5466389587592
 10
99.61355791780496
 20
-154.5466389587592
 10
99.61355791780496
 20
-154.7075249179203
 10
99.61355791780496
 20
-154.7075249179203
 10
99.61355791780496
 20
-154.7075249179203
 10
100.0071600769947
 20
-154.7075249179203
 10
100.0071600769947
 20
-154.7075249179203
 10
100.0071600769947
 20
-154.7075249179203
 10
100.0071600769947
 20
-154.8618651956595
 10
100.0071600769947
 20
-154.8618651956595
 10
100.0071600769947
 20
-154.8618651956595
 10
99.61355791780496
 20
-154.8618651956595
 10
99.61355791780496
 20
-154.8618651956595
 10
99.61355791780496
 20
-154.8618651956595
 10
99.61355791780496
 20
-155.0165499829472
 10
99.61355791780496
 20
-155.0165499829472
 10
99.61355791780496
 20
-155.0165499829472
 10
99.96891951710848
 20
-155.0165499829472
 10
99.96891951710848
 20
-155.0165499829472
 10
99.96891951710848
 20
-155.0165499829472
 10
99.96891951710848
 20
-155.8289034983691
 10
99.96891951710848
 20
-155.8289034983691
 10
99.96891951710848
 20
-155.8289034983691
 10
99.61355791780496
 20
-155.8289034983691
 10
99.61355791780496
 20
-155.8289034983691
 10
99.61355791780496
 20
-155.8289034983691
 10
99.61355791780496
 20
-155.9980576866949
 10
99.61355791780496
 20
-155.9980576866949
 10
99.61355791780496
 20
-155.9980576866949
 10
100.021801732807
 20
-155.9980576866949
 10
100.021801732807
 20
-155.9980576866949
 10
100.021801732807
 20
-155.9980576866949
 10
100.021801732807
 20
-156.1523979644341
 10
100.021801732807
 20
-156.1523979644341
 10
100.021801732807
 20
-156.1523979644341
 10
99.61355791780496
 20
-156.1523979644341
 10
99.61355791780496
 20
-156.1523979644341
 10
99.61355791780496
 20
-156.1523979644341
 10
99.61355791780496
 20
-156.5058647612207
 10
99.61355791780496
 20
-156.5058647612207
 10
99.61355791780496
 20
-156.5058647612207
 10
99.45921764006577
 20
-156.5058647612207
 10
99.45921764006577
 20
-156.5058647612207
 10
99.45921764006577
 20
-156.5058647612207
 10
99.45921764006577
 20
-156.1523979644341
 10
99.45921764006577
 20
-156.1523979644341
 10
99.45921764006577
 20
-156.1523979644341
 10
99.04873451299824
 20
-156.1523979644341
 10
99.04873451299824
 20
-156.1523979644341
 10
99.04873451299824
 20
-156.1523979644341
 10
99.04873451299824
 20
-155.9980576866949
 10
99.04873451299824
 20
-155.9980576866949
 10
99.04873451299824
 20
-155.9980576866949
 10
99.45921764006577
 20
-155.9980576866949
 10
99.45921764006577
 20
-155.9980576866949
 10
99.45921764006577
 20
-155.9980576866949
 10
99.45921764006577
 20
-155.8289034983691
 10
99.45921764006577
 20
-155.8289034983691
 10
99.45921764006577
 20
-155.8289034983691
 10
99.11005721263569
 20
-155.8289034983691
 10
99.11005721263569
 20
-155.8289034983691
 10
99.11005721263569
 20
-155.8289034983691
 10
99.11005721263569
 20
-155.0165499829472
 10
99.11005721263569
 20
-155.0165499829472
 10
99.11005721263569
 20
-155.0165499829472
 10
99.45921764006577
 20
-155.0165499829472
 10
99.45921764006577
 20
-155.0165499829472
 10
99.45921764006577
 20
-155.0165499829472
 10
99.45921764006577
 20
-154.8618651956595
 10
99.45921764006577
 20
-154.8618651956595
 10
99.45921764006577
 20
-154.8618651956595
 10
99.06992185023252
 20
-154.8618651956595
 10
99.06992185023252
 20
-154.8618651956595
 10
99.06992185023252
 20
-154.8618651956595
 10
99.06992185023252
 20
-154.7075249179203
 10
99.06992185023252
 20
-154.7075249179203
 10
99.06992185023252
 20
-154.7075249179203
 10
99.45921764006577
 20
-154.7075249179203
 10
99.45921764006577
 20
-154.7075249179203
 97
        0
 97
        1
330
16F
 75
     2
 76
     1
 98
        1
 10
0.0
 20
0.0
450
        0
451
        0
460
0.0
461
0.0
452
        0
462
0.0
453
        0
470

  0
SPLINE
  5
171
330
165
100
AcDbEntity
  8
レイヤー 1
100
AcDbSpline
210
0.0
220
0.0
230
1.0
 70
     9
 71
     3
 72
    17
 73
    13
 74
     0
 42
0.0000000001
 43
0.0000000001
 40
0.0
 40
0.0
 40
0.0
 40
0.0
 40
1.0
 40
1.0
 40
1.0
 40
2.0
 40
2.0
 40
2.0
 40
3.0
 40
3.0
 40
3.0
 40
4.0
 40
4.0
 40
4.0
 40
4.0
 10
102.4960693103135
 20
-156.1968396961938
 30
0.0
 10
102.7160386570467
 20
-156.309149809013
 30
0.0
 10
102.982689047605
 20
-156.3470458593507
 30
0.0
 10
103.1117078735276
 20
-156.357725655355
 30
0.0
 10
103.1117078735276
 20
-156.357725655355
 30
0.0
 10
103.0419446899513
 20
-156.5120659330942
 30
0.0
 10
103.0419446899513
 20
-156.5120659330942
 30
0.0
 10
102.9213663479676
 20
-156.4972520225076
 30
0.0
 10
102.6590223267658
 20
-156.4569444053302
 30
0.0
 10
102.3946112482729
 20
-156.3112168663041
 30
0.0
 10
102.3946112482729
 20
-156.3112168663041
 30
0.0
 10
102.4960693103135
 20
-156.1968396961938
 30
0.0
 10
102.4960693103135
 20
-156.1968396961938
 30
0.0
  0
SPLINE
  5
172
330
165
100
AcDbEntity
  8
レイヤー 1
100
AcDbSpline
210
0.0
220
0.0
230
1.0
 70
    11
 71
     3
 72
    50
 73
    46
 74
     0
 42
0.0000000001
 43
0.0000000001
 40
0.0
 40
0.0
 40
0.0
 40
0.0
 40
1.0
 40
1.0
 40
1.0
 40
2.0
 40
2.0
 40
2.0
 40
3.0
 40
3.0
 40
3.0
 40
4.0
 40
4.0
 40
4.0
 40
5.0
 40
5.0
 40
5.0
 40
6.0
 40
6.0
 40
6.0
 40
7.0
 40
7.0
 40
7.0
 40
8.0
 40
8.0
 40
8.0
 40
9.0
 40
9.0
 40
9.0
 40
10.0
 40
10.0
 40
10.0
 40
11.0
 40
11.0
 40
11.0
 40
12.0
 40
12.0
 40
12.0
 40
13.0
 40
13.0
 40
13.0
 40
14.0
 40
14.0
 40
14.0
 40
15.0
 40
15.0
 40
15.0
 40
15.0
 10
102.3839314522686
 20
-154.8449842277818
 30
0.0
 10
102.3839314522686
 20
-154.8449842277818
 30
0.0
 10
103.1201483574665
 20
-154.8449842277818
 30
0.0
 10
103.1201483574665
 20
-154.8449842277818
 30
0.0
 10
103.1201483574665
 20
-154.8449842277818
 30
0.0
 10
103.1201483574665
 20
-154.9700411938964
 30
0.0
 10
103.1201483574665
 20
-154.9700411938964
 30
0.0
 10
103.1201483574665
 20
-154.9700411938964
 30
0.0
 10
102.7901082099795
 20
-154.9700411938964
 30
0.0
 10
102.7901082099795
 20
-154.9700411938964
 30
0.0
 10
102.7901082099795
 20
-154.9700411938964
 30
0.0
 10
102.7901082099795
 20
-155.2449598136193
 30
0.0
 10
102.7901082099795
 20
-155.2449598136193
 30
0.0
 10
102.7901082099795
 20
-155.2449598136193
 30
0.0
 10
102.6335286201749
 20
-155.2449598136193
 30
0.0
 10
102.6335286201749
 20
-155.2449598136193
 30
0.0
 10
102.6335286201749
 20
-155.2449598136193
 30
0.0
 10
102.6335286201749
 20
-154.9700411938964
 30
0.0
 10
102.6335286201749
 20
-154.9700411938964
 30
0.0
 10
102.6335286201749
 20
-154.9700411938964
 30
0.0
 10
102.369117541682
 20
-154.9700411938964
 30
0.0
 10
102.369117541682
 20
-154.9700411938964
 30
0.0
 10
102.3437960898654
 20
-155.0988877650447
 30
0.0
 10
102.292980931458
 20
-155.1898382858553
 30
0.0
 10
102.1956569839997
 20
-155.2725205775013
 30
0.0
 10
102.1956569839997
 20
-155.2725205775013
 30
0.0
 10
102.0730115847248
 20
-155.164689088813
 30
0.0
 10
102.0730115847248
 20
-155.164689088813
 30
0.0
 10
102.2084038372951
 20
-155.054446033285
 30
0.0
 10
102.2316582318205
 20
-154.9169867234235
 30
0.0
 10
102.2316582318205
 20
-154.8429171704906
 30
0.0
 10
102.2316582318205
 20
-154.8429171704906
 30
0.0
 10
102.2316582318205
 20
-154.599693429232
 30
0.0
 10
102.2316582318205
 20
-154.599693429232
 30
0.0
 10
102.7012247464601
 20
-154.599693429232
 30
0.0
 10
102.868484132269
 20
-154.5593858120546
 30
0.0
 10
103.0123168687781
 20
-154.517011137586
 30
0.0
 10
103.0123168687781
 20
-154.517011137586
 30
0.0
 10
103.0715725111244
 20
-154.654814956996
 30
0.0
 10
103.0715725111244
 20
-154.654814956996
 30
0.0
 10
102.8007880059838
 20
-154.724405885798
 30
0.0
 10
102.4855617690834
 20
-154.7288845099289
 30
0.0
 10
102.3839314522686
 20
-154.7288845099289
 30
0.0
 10
102.3839314522686
 20
-154.7288845099289
 30
0.0
 10
102.3839314522686
 20
-154.8449842277818
 30
0.0
 10
102.3839314522686
 20
-154.8449842277818
 30
0.0
  0
SPLINE
  5
173
330
165
100
AcDbEntity
  8
レイヤー 1
100
AcDbSpline
210
0.0
220
0.0
230
1.0
 70
    11
 71
     3
 72
    17
 73
    13
 74
     0
 42
0.0000000001
 43
0.0000000001
 40
0.0
 40
0.0
 40
0.0
 40
0.0
 40
1.0
 40
1.0
 40
1.0
 40
2.0
 40
2.0
 40
2.0
 40
3.0
 40
3.0
 40
3.0
 40
4.0
 40
4.0
 40
4.0
 40
4.0
 10
102.7203450264032
 20
-155.9153753950489
 30
0.0
 10
102.7203450264032
 20
-155.9153753950489
 30
0.0
 10
101.5610703956167
 20
-155.9153753950489
 30
0.0
 10
101.5610703956167
 20
-155.9153753950489
 30
0.0
 10
101.5610703956167
 20
-155.9153753950489
 30
0.0
 10
101.5610703956167
 20
-156.0552462717501
 30
0.0
 10
101.5610703956167
 20
-156.0552462717501
 30
0.0
 10
101.5610703956167
 20
-156.0552462717501
 30
0.0
 10
102.7203450264032
 20
-156.0552462717501
 30
0.0
 10
102.7203450264032
 20
-156.0552462717501
 30
0.0
 10
102.7203450264032
 20
-156.0552462717501
 30
0.0
 10
102.7203450264032
 20
-155.9153753950489
 30
0.0
 10
102.7203450264032
 20
-155.9153753950489
 30
0.0
  0
SPLINE
  5
174
330
165
100
AcDbEntity
  8
レイヤー 1
100
AcDbSpline
210
0.0
220
0.0
230
1.0
 70
    11
 71
     3
 72
    17
 73
    13
 74
     0
 42
0.0000000001
 43
0.0000000001
 40
0.0
 40
0.0
 40
0.0
 40
0.0
 40
1.0
 40
1.0
 40
1.0
 40
2.0
 40
2.0
 40
2.0
 40
3.0
 40
3.0
 40
3.0
 40
4.0
 40
4.0
 40
4.0
 40
4.0
 10
102.7203450264032
 20
-155.6638834246257
 30
0.0
 10
102.7203450264032
 20
-155.6638834246257
 30
0.0
 10
101.5610703956167
 20
-155.6638834246257
 30
0.0
 10
101.5610703956167
 20
-155.6638834246257
 30
0.0
 10
101.5610703956167
 20
-155.6638834246257
 30
0.0
 10
101.5610703956167
 20
-155.8054768490694
 30
0.0
 10
101.5610703956167
 20
-155.8054768490694
 30
0.0
 10
101.5610703956167
 20
-155.8054768490694
 30
0.0
 10
102.7203450264032
 20
-155.8054768490694
 30
0.0
 10
102.7203450264032
 20
-155.8054768490694
 30
0.0
 10
102.7203450264032
 20
-155.8054768490694
 30
0.0
 10
102.7203450264032
 20
-155.6638834246257
 30
0.0
 10
102.7203450264032
 20
-155.6638834246257
 30
0.0
  0
SPLINE
  5
175
330
165
100
AcDbEntity
  8
レイヤー 1
100
AcDbSpline
210
0.0
220
0.0
230
1.0
 70
    11
 71
     3
 72
    17
 73
    13
 74
     0
 42
0.0000000001
 43
0.0000000001
 40
0.0
 40
0.0
 40
0.0
 40
0.0
 40
1.0
 40
1.0
 40
1.0
 40
2.0
 40
2.0
 40
2.0
 40
3.0
 40
3.0
 40
3.0
 40
4.0
 40
4.0
 40
4.0
 40
4.0
 10
102.7203450264032
 20
-155.4247937979494
 30
0.0
 10
102.7203450264032
 20
-155.4247937979494
 30
0.0
 10
101.5610703956167
 20
-155.4247937979494
 30
0.0
 10
101.5610703956167
 20
-155.4247937979494
 30
0.0
 10
101.5610703956167
 20
-155.4247937979494
 30
0.0
 10
101.5610703956167
 20
-155.5536403690977
 30
0.0
 10
101.5610703956167
 20
-155.5536403690977
 30
0.0
 10
101.5610703956167
 20
-155.5536403690977
 30
0.0
 10
102.7203450264032
 20
-155.5536403690977
 30
0.0
 10
102.7203450264032
 20
-155.5536403690977
 30
0.0
 10
102.7203450264032
 20
-155.5536403690977
 30
0.0
 10
102.7203450264032
 20
-155.4247937979494
 30
0.0
 10
102.7203450264032
 20
-155.4247937979494
 30
0.0
  0
SPLINE
  5
176
330
165
100
AcDbEntity
  8
レイヤー 1
100
AcDbSpline
210
0.0
220
0.0
230
1.0
 70
    11
 71
     3
 72
    32
 73
    28
 74
     0
 42
0.0000000001
 43
0.0000000001
 40
0.0
 40
0.0
 40
0.0
 40
0.0
 40
1.0
 40
1.0
 40
1.0
 40
2.0
 40
2.0
 40
2.0
 40
3.0
 40
3.0
 40
3.0
 40
4.0
 40
4.0
 40
4.0
 40
5.0
 40
5.0
 40
5.0
 40
6.0
 40
6.0
 40
6.0
 40
7.0
 40
7.0
 40
7.0
 40
8.0
 40
8.0
 40
8.0
 40
9.0
 40
9.0
 40
9.0
 40
9.0
 10
101.3917439525166
 20
-156.1906385243204
 30
0.0
 10
101.3917439525166
 20
-156.1906385243204
 30
0.0
 10
101.3917439525166
 20
-155.2914686026702
 30
0.0
 10
101.3917439525166
 20
-155.2914686026702
 30
0.0
 10
101.3917439525166
 20
-155.2914686026702
 30
0.0
 10
102.889499214729
 20
-155.2914686026702
 30
0.0
 10
102.889499214729
 20
-155.2914686026702
 30
0.0
 10
102.889499214729
 20
-155.2914686026702
 30
0.0
 10
102.889499214729
 20
-156.1906385243204
 30
0.0
 10
102.889499214729
 20
-156.1906385243204
 30
0.0
 10
102.889499214729
 20
-156.1906385243204
 30
0.0
 10
101.745038494529
 20
-156.1906385243204
 30
0.0
 10
101.745038494529
 20
-156.1906385243204
 30
0.0
 10
101.745038494529
 20
-156.1906385243204
 30
0.0
 10
101.8508029259262
 20
-156.3005370702998
 30
0.0
 10
101.8508029259262
 20
-156.3005370702998
 30
0.0
 10
101.6857828521827
 20
-156.3956217056928
 30
0.0
 10
101.5207627784392
 20
-156.4569444053302
 30
0.0
 10
101.224656821482
 20
-156.5079318185119
 30
0.0
 10
101.224656821482
 20
-156.5079318185119
 30
0.0
 10
101.159027752488
 20
-156.3556585980639
 30
0.0
 10
101.159027752488
 20
-156.3556585980639
 30
0.0
 10
101.5378160010912
 20
-156.302604127591
 30
0.0
 10
101.6604614003661
 20
-156.2350802560801
 30
0.0
 10
101.7409043799467
 20
-156.1906385243204
 30
0.0
 10
101.7409043799467
 20
-156.1906385243204
 30
0.0
 10
101.3917439525166
 20
-156.1906385243204
 30
0.0
 10
101.3917439525166
 20
-156.1906385243204
 30
0.0
  0
SPLINE
  5
177
330
165
100
AcDbEntity
  8
レイヤー 1
100
AcDbSpline
210
0.0
220
0.0
230
1.0
 70
    11
 71
     3
 72
    50
 73
    46
 74
     0
 42
0.0000000001
 43
0.0000000001
 40
0.0
 40
0.0
 40
0.0
 40
0.0
 40
1.0
 40
1.0
 40
1.0
 40
2.0
 40
2.0
 40
2.0
 40
3.0
 40
3.0
 40
3.0
 40
4.0
 40
4.0
 40
4.0
 40
5.0
 40
5.0
 40
5.0
 40
6.0
 40
6.0
 40
6.0
 40
7.0
 40
7.0
 40
7.0
 40
8.0
 40
8.0
 40
8.0
 40
9.0
 40
9.0
 40
9.0
 40
10.0
 40
10.0
 40
10.0
 40
11.0
 40
11.0
 40
11.0
 40
12.0
 40
12.0
 40
12.0
 40
13.0
 40
13.0
 40
13.0
 40
14.0
 40
14.0
 40
14.0
 40
15.0
 40
15.0
 40
15.0
 40
15.0
 10
101.4763210466795
 20
-154.8449842277818
 30
0.0
 10
101.4763210466795
 20
-154.8449842277818
 30
0.0
 10
102.1279608577145
 20
-154.8449842277818
 30
0.0
 10
102.1279608577145
 20
-154.8449842277818
 30
0.0
 10
102.1279608577145
 20
-154.8449842277818
 30
0.0
 10
102.1279608577145
 20
-154.9700411938964
 30
0.0
 10
102.1279608577145
 20
-154.9700411938964
 30
0.0
 10
102.1279608577145
 20
-154.9700411938964
 30
0.0
 10
101.8508029259262
 20
-154.9700411938964
 30
0.0
 10
101.8508029259262
 20
-154.9700411938964
 30
0.0
 10
101.8508029259262
 20
-154.9700411938964
 30
0.0
 10
101.8508029259262
 20
-155.2449598136193
 30
0.0
 10
101.8508029259262
 20
-155.2449598136193
 30
0.0
 10
101.8508029259262
 20
-155.2449598136193
 30
0.0
 10
101.6900892215393
 20
-155.2449598136193
 30
0.0
 10
101.6900892215393
 20
-155.2449598136193
 30
0.0
 10
101.6900892215393
 20
-155.2449598136193
 30
0.0
 10
101.6900892215393
 20
-154.9700411938964
 30
0.0
 10
101.6900892215393
 20
-154.9700411938964
 30
0.0
 10
101.6900892215393
 20
-154.9700411938964
 30
0.0
 10
101.4701198748061
 20
-154.9700411938964
 30
0.0
 10
101.4701198748061
 20
-154.9700411938964
 30
0.0
 10
101.4594400788018
 20
-155.0396321226984
 30
0.0
 10
101.4341186269852
 20
-155.234280017615
 30
0.0
 10
101.2796060944717
 20
-155.3844861807719
 30
0.0
 10
101.2796060944717
 20
-155.3844861807719
 30
0.0
 10
101.1569606951969
 20
-155.2745876347925
 30
0.0
 10
101.1569606951969
 20
-155.2745876347925
 30
0.0
 10
101.2775390371806
 20
-155.1750243752687
 30
0.0
 10
101.3199137116492
 20
-154.9700411938964
 30
0.0
 10
101.3199137116492
 20
-154.8873589022504
 30
0.0
 10
101.3199137116492
 20
-154.8873589022504
 30
0.0
 10
101.3199137116492
 20
-154.6017604865232
 30
0.0
 10
101.3199137116492
 20
-154.6017604865232
 30
0.0
 10
101.8042941368753
 20
-154.6017604865232
 30
0.0
 10
101.9588066693888
 20
-154.5552516974723
 30
0.0
 10
102.0538913047816
 20
-154.5276909335903
 30
0.0
 10
102.0538913047816
 20
-154.5276909335903
 30
0.0
 10
102.1067735204802
 20
-154.6672173007429
 30
0.0
 10
102.1067735204802
 20
-154.6672173007429
 30
0.0
 10
101.897311714977
 20
-154.7161376566334
 30
0.0
 10
101.734530953299
 20
-154.7264729430892
 30
0.0
 10
101.4763210466795
 20
-154.73095156722
 30
0.0
 10
101.4763210466795
 20
-154.73095156722
 30
0.0
 10
101.4763210466795
 20
-154.8449842277818
 30
0.0
 10
101.4763210466795
 20
-154.8449842277818
 30
0.0
  0
HATCH
  5
178
330
165
100
AcDbEntity
  8
レイヤー 1
 62
    12
420
 15007762
440
 33554687
100
AcDbHatch
 10
0.0
 20
0.0
 30
0.0
210
0.0
220
0.0
230
1.0
  2
SOLID
 70
     1
 71
     1
 91
        7
 92
        1
 93
        1
 72
     4
 94
        3
 73
     0
 74
     0
 95
       17
 96
       13
 40
0.0
 40
0.0
 40
0.0
 40
0.0
 40
1.0
 40
1.0
 40
1.0
 40
2.0
 40
2.0
 40
2.0
 40
3.0
 40
3.0
 40
3.0
 40
4.0
 40
4.0
 40
4.0
 40
4.0
 10
102.4960693103135
 20
-156.1968396961938
 10
102.7160386570467
 20
-156.309149809013
 10
102.982689047605
 20
-156.3470458593507
 10
103.1117078735276
 20
-156.357725655355
 10
103.1117078735276
 20
-156.357725655355
 10
103.0419446899513
 20
-156.5120659330942
 10
103.0419446899513
 20
-156.5120659330942
 10
102.9213663479676
 20
-156.4972520225076
 10
102.6590223267658
 20
-156.4569444053302
 10
102.3946112482729
 20
-156.3112168663041
 10
102.3946112482729
 20
-156.3112168663041
 10
102.4960693103135
 20
-156.1968396961938
 10
102.4960693103135
 20
-156.1968396961938
 97
        0
 97
        1
330
171
 92
        1
 93
        1
 72
     4
 94
        3
 73
     0
 74
     0
 95
       50
 96
       46
 40
0.0
 40
0.0
 40
0.0
 40
0.0
 40
1.0
 40
1.0
 40
1.0
 40
2.0
 40
2.0
 40
2.0
 40
3.0
 40
3.0
 40
3.0
 40
4.0
 40
4.0
 40
4.0
 40
5.0
 40
5.0
 40
5.0
 40
6.0
 40
6.0
 40
6.0
 40
7.0
 40
7.0
 40
7.0
 40
8.0
 40
8.0
 40
8.0
 40
9.0
 40
9.0
 40
9.0
 40
10.0
 40
10.0
 40
10.0
 40
11.0
 40
11.0
 40
11.0
 40
12.0
 40
12.0
 40
12.0
 40
13.0
 40
13.0
 40
13.0
 40
14.0
 40
14.0
 40
14.0
 40
15.0
 40
15.0
 40
15.0
 40
15.0
 10
102.3839314522686
 20
-154.8449842277818
 10
102.3839314522686
 20
-154.8449842277818
 10
103.1201483574665
 20
-154.8449842277818
 10
103.1201483574665
 20
-154.8449842277818
 10
103.1201483574665
 20
-154.8449842277818
 10
103.1201483574665
 20
-154.9700411938964
 10
103.1201483574665
 20
-154.9700411938964
 10
103.1201483574665
 20
-154.9700411938964
 10
102.7901082099795
 20
-154.9700411938964
 10
102.7901082099795
 20
-154.9700411938964
 10
102.7901082099795
 20
-154.9700411938964
 10
102.7901082099795
 20
-155.2449598136193
 10
102.7901082099795
 20
-155.2449598136193
 10
102.7901082099795
 20
-155.2449598136193
 10
102.6335286201749
 20
-155.2449598136193
 10
102.6335286201749
 20
-155.2449598136193
 10
102.6335286201749
 20
-155.2449598136193
 10
102.6335286201749
 20
-154.9700411938964
 10
102.6335286201749
 20
-154.9700411938964
 10
102.6335286201749
 20
-154.9700411938964
 10
102.369117541682
 20
-154.9700411938964
 10
102.369117541682
 20
-154.9700411938964
 10
102.3437960898654
 20
-155.0988877650447
 10
102.292980931458
 20
-155.1898382858553
 10
102.1956569839997
 20
-155.2725205775013
 10
102.1956569839997
 20
-155.2725205775013
 10
102.0730115847248
 20
-155.164689088813
 10
102.0730115847248
 20
-155.164689088813
 10
102.2084038372951
 20
-155.054446033285
 10
102.2316582318205
 20
-154.9169867234235
 10
102.2316582318205
 20
-154.8429171704906
 10
102.2316582318205
 20
-154.8429171704906
 10
102.2316582318205
 20
-154.599693429232
 10
102.2316582318205
 20
-154.599693429232
 10
102.7012247464601
 20
-154.599693429232
 10
102.868484132269
 20
-154.5593858120546
 10
103.0123168687781
 20
-154.517011137586
 10
103.0123168687781
 20
-154.517011137586
 10
103.0715725111244
 20
-154.654814956996
 10
103.0715725111244
 20
-154.654814956996
 10
102.8007880059838
 20
-154.724405885798
 10
102.4855617690834
 20
-154.7288845099289
 10
102.3839314522686
 20
-154.7288845099289
 10
102.3839314522686
 20
-154.7288845099289
 10
102.3839314522686
 20
-154.8449842277818
 10
102.3839314522686
 20
-154.8449842277818
 97
        0
 97
        1
330
172
 92
        1
 93
        1
 72
     4
 94
        3
 73
     0
 74
     0
 95
       17
 96
       13
 40
0.0
 40
0.0
 40
0.0
 40
0.0
 40
1.0
 40
1.0
 40
1.0
 40
2.0
 40
2.0
 40
2.0
 40
3.0
 40
3.0
 40
3.0
 40
4.0
 40
4.0
 40
4.0
 40
4.0
 10
102.7203450264032
 20
-155.9153753950489
 10
102.7203450264032
 20
-155.9153753950489
 10
101.5610703956167
 20
-155.9153753950489
 10
101.5610703956167
 20
-155.9153753950489
 10
101.5610703956167
 20
-155.9153753950489
 10
101.5610703956167
 20
-156.0552462717501
 10
101.5610703956167
 20
-156.0552462717501
 10
101.5610703956167
 20
-156.0552462717501
 10
102.7203450264032
 20
-156.0552462717501
 10
102.7203450264032
 20
-156.0552462717501
 10
102.7203450264032
 20
-156.0552462717501
 10
102.7203450264032
 20
-155.9153753950489
 10
102.7203450264032
 20
-155.9153753950489
 97
        0
 97
        1
330
173
 92
        1
 93
        1
 72
     4
 94
        3
 73
     0
 74
     0
 95
       17
 96
       13
 40
0.0
 40
0.0
 40
0.0
 40
0.0
 40
1.0
 40
1.0
 40
1.0
 40
2.0
 40
2.0
 40
2.0
 40
3.0
 40
3.0
 40
3.0
 40
4.0
 40
4.0
 40
4.0
 40
4.0
 10
102.7203450264032
 20
-155.6638834246257
 10
102.7203450264032
 20
-155.6638834246257
 10
101.5610703956167
 20
-155.6638834246257
 10
101.5610703956167
 20
-155.6638834246257
 10
101.5610703956167
 20
-155.6638834246257
 10
101.5610703956167
 20
-155.8054768490694
 10
101.5610703956167
 20
-155.8054768490694
 10
101.5610703956167
 20
-155.8054768490694
 10
102.7203450264032
 20
-155.8054768490694
 10
102.7203450264032
 20
-155.8054768490694
 10
102.7203450264032
 20
-155.8054768490694
 10
102.7203450264032
 20
-155.6638834246257
 10
102.7203450264032
 20
-155.6638834246257
 97
        0
 97
        1
330
174
 92
        1
 93
        1
 72
     4
 94
        3
 73
     0
 74
     0
 95
       17
 96
       13
 40
0.0
 40
0.0
 40
0.0
 40
0.0
 40
1.0
 40
1.0
 40
1.0
 40
2.0
 40
2.0
 40
2.0
 40
3.0
 40
3.0
 40
3.0
 40
4.0
 40
4.0
 40
4.0
 40
4.0
 10
102.7203450264032
 20
-155.4247937979494
 10
102.7203450264032
 20
-155.4247937979494
 10
101.5610703956167
 20
-155.4247937979494
 10
101.5610703956167
 20
-155.4247937979494
 10
101.5610703956167
 20
-155.4247937979494
 10
101.5610703956167
 20
-155.5536403690977
 10
101.5610703956167
 20
-155.5536403690977
 10
101.5610703956167
 20
-155.5536403690977
 10
102.7203450264032
 20
-155.5536403690977
 10
102.7203450264032
 20
-155.5536403690977
 10
102.7203450264032
 20
-155.5536403690977
 10
102.7203450264032
 20
-155.4247937979494
 10
102.7203450264032
 20
-155.4247937979494
 97
        0
 97
        1
330
175
 92
        1
 93
        1
 72
     4
 94
        3
 73
     0
 74
     0
 95
       32
 96
       28
 40
0.0
 40
0.0
 40
0.0
 40
0.0
 40
1.0
 40
1.0
 40
1.0
 40
2.0
 40
2.0
 40
2.0
 40
3.0
 40
3.0
 40
3.0
 40
4.0
 40
4.0
 40
4.0
 40
5.0
 40
5.0
 40
5.0
 40
6.0
 40
6.0
 40
6.0
 40
7.0
 40
7.0
 40
7.0
 40
8.0
 40
8.0
 40
8.0
 40
9.0
 40
9.0
 40
9.0
 40
9.0
 10
101.3917439525166
 20
-156.1906385243204
 10
101.3917439525166
 20
-156.1906385243204
 10
101.3917439525166
 20
-155.2914686026702
 10
101.3917439525166
 20
-155.2914686026702
 10
101.3917439525166
 20
-155.2914686026702
 10
102.889499214729
 20
-155.2914686026702
 10
102.889499214729
 20
-155.2914686026702
 10
102.889499214729
 20
-155.2914686026702
 10
102.889499214729
 20
-156.1906385243204
 10
102.889499214729
 20
-156.1906385243204
 10
102.889499214729
 20
-156.1906385243204
 10
101.745038494529
 20
-156.1906385243204
 10
101.745038494529
 20
-156.1906385243204
 10
101.745038494529
 20
-156.1906385243204
 10
101.8508029259262
 20
-156.3005370702998
 10
101.8508029259262
 20
-156.3005370702998
 10
101.6857828521827
 20
-156.3956217056928
 10
101.5207627784392
 20
-156.4569444053302
 10
101.224656821482
 20
-156.5079318185119
 10
101.224656821482
 20
-156.5079318185119
 10
101.159027752488
 20
-156.3556585980639
 10
101.159027752488
 20
-156.3556585980639
 10
101.5378160010912
 20
-156.302604127591
 10
101.6604614003661
 20
-156.2350802560801
 10
101.7409043799467
 20
-156.1906385243204
 10
101.7409043799467
 20
-156.1906385243204
 10
101.3917439525166
 20
-156.1906385243204
 10
101.3917439525166
 20
-156.1906385243204
 97
        0
 97
        1
330
176
 92
        1
 93
        1
 72
     4
 94
        3
 73
     0
 74
     0
 95
       50
 96
       46
 40
0.0
 40
0.0
 40
0.0
 40
0.0
 40
1.0
 40
1.0
 40
1.0
 40
2.0
 40
2.0
 40
2.0
 40
3.0
 40
3.0
 40
3.0
 40
4.0
 40
4.0
 40
4.0
 40
5.0
 40
5.0
 40
5.0
 40
6.0
 40
6.0
 40
6.0
 40
7.0
 40
7.0
 40
7.0
 40
8.0
 40
8.0
 40
8.0
 40
9.0
 40
9.0
 40
9.0
 40
10.0
 40
10.0
 40
10.0
 40
11.0
 40
11.0
 40
11.0
 40
12.0
 40
12.0
 40
12.0
 40
13.0
 40
13.0
 40
13.0
 40
14.0
 40
14.0
 40
14.0
 40
15.0
 40
15.0
 40
15.0
 40
15.0
 10
101.4763210466795
 20
-154.8449842277818
 10
101.4763210466795
 20
-154.8449842277818
 10
102.1279608577145
 20
-154.8449842277818
 10
102.1279608577145
 20
-154.8449842277818
 10
102.1279608577145
 20
-154.8449842277818
 10
102.1279608577145
 20
-154.9700411938964
 10
102.1279608577145
 20
-154.9700411938964
 10
102.1279608577145
 20
-154.9700411938964
 10
101.8508029259262
 20
-154.9700411938964
 10
101.8508029259262
 20
-154.9700411938964
 10
101.8508029259262
 20
-154.9700411938964
 10
101.8508029259262
 20
-155.2449598136193
 10
101.8508029259262
 20
-155.2449598136193
 10
101.8508029259262
 20
-155.2449598136193
 10
101.6900892215393
 20
-155.2449598136193
 10
101.6900892215393
 20
-155.2449598136193
 10
101.6900892215393
 20
-155.2449598136193
 10
101.6900892215393
 20
-154.9700411938964
 10
101.6900892215393
 20
-154.9700411938964
 10
101.6900892215393
 20
-154.9700411938964
 10
101.4701198748061
 20
-154.9700411938964
 10
101.4701198748061
 20
-154.9700411938964
 10
101.4594400788018
 20
-155.0396321226984
 10
101.4341186269852
 20
-155.234280017615
 10
101.2796060944717
 20
-155.3844861807719
 10
101.2796060944717
 20
-155.3844861807719
 10
101.1569606951969
 20
-155.2745876347925
 10
101.1569606951969
 20
-155.2745876347925
 10
101.2775390371806
 20
-155.1750243752687
 10
101.3199137116492
 20
-154.9700411938964
 10
101.3199137116492
 20
-154.8873589022504
 10
101.3199137116492
 20
-154.8873589022504
 10
101.3199137116492
 20
-154.6017604865232
 10
101.3199137116492
 20
-154.6017604865232
 10
101.8042941368753
 20
-154.6017604865232
 10
101.9588066693888
 20
-154.5552516974723
 10
102.0538913047816
 20
-154.5276909335903
 10
102.0538913047816
 20
-154.5276909335903
 10
102.1067735204802
 20
-154.6672173007429
 10
102.1067735204802
 20
-154.6672173007429
 10
101.897311714977
 20
-154.7161376566334
 10
101.734530953299
 20
-154.7264729430892
 10
101.4763210466795
 20
-154.73095156722
 10
101.4763210466795
 20
-154.73095156722
 10
101.4763210466795
 20
-154.8449842277818
 10
101.4763210466795
 20
-154.8449842277818
 97
        0
 97
        1
330
177
 75
     2
 76
     1
 98
        1
 10
0.0
 20
0.0
450
        0
451
        0
460
0.0
461
0.0
452
        0
462
0.0
453
        0
470

  0
ENDBLK
  5
168
330
165
100
AcDbEntity
  8
0
100
AcDbBlockEnd
  0
ENDSEC
  0
SECTION
  2
ENTITIES
  0
INSERT
  5
7A
330
70
100
AcDbEntity
  8
レイヤー 1
100
AcDbBlockReference
  2
Block_0
 10
0.0
 20
0.0
 30
0.0
  0
INSERT
  5
157
330
70
100
AcDbEntity
  8
レイヤー 1
100
AcDbBlockReference
  2
Block_15
 10
0.0
 20
0.0
 30
0.0
  0
ENDSEC
  0
SECTION
  2
OBJECTS
  0
DICTIONARY
  5
C
330
0
100
AcDbDictionary
281
     1
  3
ACAD_COLOR
350
63
  3
ACAD_DETAILVIEWSTYLE
350
6A
  3
ACAD_GROUP
350
D
  3
ACAD_LAYOUT
350
62
  3
ACAD_MATERIAL
350
10
  3
ACAD_MLEADERSTYLE
350
66
  3
ACAD_MLINESTYLE
350
5F
  3
ACAD_PLOTSETTINGS
350
61
  3
ACAD_PLOTSTYLENAME
350
E
  3
ACAD_SCALELIST
350
42
  3
ACAD_SECTIONVIEWSTYLE
350
68
  3
ACAD_TABLESTYLE
350
64
  3
ACAD_VISUALSTYLE
350
29
  3
ACDB_RECOMPOSE_DATA
350
181
  3
AcDbVariableDictionary
350
179
  0
DICTIONARY
  5
63
102
{ACAD_REACTORS
330
C
102
}
330
C
100
AcDbDictionary
281
     1
  0
DICTIONARY
  5
6A
102
{ACAD_REACTORS
330
C
102
}
330
C
100
AcDbDictionary
281
     1
  3
Imperial24
350
6B
  0
DICTIONARY
  5
D
102
{ACAD_REACTORS
330
C
102
}
330
C
100
AcDbDictionary
281
     1
  0
DICTIONARY
  5
62
102
{ACAD_REACTORS
330
C
102
}
330
C
100
AcDbDictionary
281
     1
  3
Layout1
350
6F
  3
Layout2
350
77
  3
Model
350
73
  0
DICTIONARY
  5
10
102
{ACAD_REACTORS
330
C
102
}
330
C
100
AcDbDictionary
281
     1
  3
ByBlock
350
19
  3
ByLayer
350
11
  3
Global
350
21
  0
DICTIONARY
  5
66
102
{ACAD_REACTORS
330
C
102
}
330
C
100
AcDbDictionary
281
     1
  3
Standard
350
67
  0
DICTIONARY
  5
5F
102
{ACAD_REACTORS
330
C
102
}
330
C
100
AcDbDictionary
281
     1
  3
Standard
350
60
  0
DICTIONARY
  5
61
102
{ACAD_REACTORS
330
C
102
}
330
C
100
AcDbDictionary
281
     1
  0
ACDBDICTIONARYWDFLT
  5
E
102
{ACAD_REACTORS
330
C
102
}
330
C
100
AcDbDictionary
281
     1
  3
Normal
350
F
100
AcDbDictionaryWithDefault
340
F
  0
DICTIONARY
  5
42
102
{ACAD_REACTORS
330
C
102
}
330
C
100
AcDbDictionary
281
     1
  3
A0
350
43
  3
A1
350
44
  3
A2
350
45
  3
A3
350
46
  3
A4
350
47
  3
A5
350
48
  3
A6
350
49
  3
A7
350
4A
  3
A8
350
4B
  3
A9
350
4C
  3
B0
350
4D
  3
B1
350
4E
  3
B2
350
4F
  3
B3
350
50
  3
B4
350
51
  3
B5
350
52
  3
B6
350
53
  0
DICTIONARY
  5
68
102
{ACAD_REACTORS
330
C
102
}
330
C
100
AcDbDictionary
281
     1
  3
Imperial24
350
69
  0
DICTIONARY
  5
64
102
{ACAD_REACTORS
330
C
102
}
330
C
100
AcDbDictionary
281
     1
  3
Standard
350
65
  0
DICTIONARY
  5
29
102
{ACAD_REACTORS
330
C
102
}
330
C
100
AcDbDictionary
281
     1
  3
2dWireframe
350
2F
  3
Basic
350
2E
  3
Brighten
350
35
  3
ColorChange
350
39
  3
Conceptual
350
32
  3
Dim
350
34
  3
EdgeColorOff
350
41
  3
Facepattern
350
38
  3
Flat
350
2A
  3
FlatWithEdges
350
2B
  3
Gouraud
350
2C
  3
GouraudWithEdges
350
2D
  3
Hidden
350
31
  3
JitterOff
350
3F
  3
Linepattern
350
37
  3
OverhangOff
350
40
  3
Realistic
350
33
  3
Shaded
350
3E
  3
Shaded with edges
350
3D
  3
Shades of Gray
350
3A
  3
Sketchy
350
3B
  3
Thicken
350
36
  3
Wireframe
350
30
  3
X-Ray
350
3C
  0
XRECORD
  5
181
102
{ACAD_REACTORS
330
C
102
}
330
C
100
AcDbXrecord
280
     1
 90
        1
330
65
  0
DICTIONARY
  5
179
102
{ACAD_REACTORS
330
C
102
}
330
C
100
AcDbDictionary
281
     1
  3
CANNOSCALE
350
17E
  3
CMLEADERSTYLE
350
17B
  3
CTABLESTYLE
350
17A
  3
CVIEWDETAILSTYLE
350
17C
  3
CVIEWSECTIONSTYLE
350
17D
  0
ACDBDETAILVIEWSTYLE
  5
6B
102
{ACAD_XDICTIONARY
360
1B6
102
}
102
{ACAD_REACTORS
330
6A
102
}
330
6A
100
AcDbModelDocViewStyle
 70
     0
  3
Imperial24
290
     0
100
AcDbDetailViewStyle
 70
     0
 71
     0
 90
        3
 71
     1
340
55
 62
   256
 40
0.24
340
0
 62
   256
 40
0.24
300

 40
0.36
280
     3
 71
     2
340
5D
 90
       25
 62
   256
 71
     3
340
55
 62
   256
 40
0.24
 90
        1
 40
0.75
 90
        1
300
%<\AcVar ViewType \f "%tc1">% %<\AcVar ViewDetailId>%\PSCALE %<\AcVar ViewScale \f "%sn">%
 71
     4
340
5D
 90
       25
 62
   256
340
5D
 90
       25
 62
   256
280
     0
  0
LAYOUT
  5
6F
102
{ACAD_REACTORS
330
62
102
}
330
62
100
AcDbPlotSettings
  1

  2

  4

  6

 40
0.0
 41
0.0
 42
0.0
 43
0.0
 44
0.0
 45
0.0
 46
0.0
 47
0.0
 48
0.0
 49
0.0
140
0.0
141
0.0
142
1.0
143
1.0
 70
   688
 72
     0
 73
     0
 74
     5
  7

 75
    16
147
1.0
 76
     0
 77
     2
 78
   300
148
0.0
149
0.0
100
AcDbLayout
  1
Layout1
 70
     1
 71
     1
 10
0.0
 20
0.0
 11
12.0
 21
9.0
 12
0.0
 22
0.0
 32
0.0
 14
0.0
 24
0.0
 34
0.0
 15
0.0
 25
0.0
 35
0.0
146
0.0
 13
0.0
 23
0.0
 33
0.0
 16
1.0
 26
0.0
 36
0.0
 17
0.0
 27
1.0
 37
0.0
 76
     0
330
6C
  0
LAYOUT
  5
77
102
{ACAD_REACTORS
330
62
102
}
330
62
100
AcDbPlotSettings
  1

  2

  4

  6

 40
0.0
 41
0.0
 42
0.0
 43
0.0
 44
0.0
 45
0.0
 46
0.0
 47
0.0
 48
0.0
 49
0.0
140
0.0
141
0.0
142
1.0
143
1.0
 70
   688
 72
     0
 73
     0
 74
     5
  7

 75
    16
147
1.0
 76
     0
 77
     2
 78
   300
148
0.0
149
0.0
100
AcDbLayout
  1
Layout2
 70
     1
 71
     2
 10
0.0
 20
0.0
 11
12.0
 21
9.0
 12
0.0
 22
0.0
 32
0.0
 14
0.0
 24
0.0
 34
0.0
 15
0.0
 25
0.0
 35
0.0
146
0.0
 13
0.0
 23
0.0
 33
0.0
 16
1.0
 26
0.0
 36
0.0
 17
0.0
 27
1.0
 37
0.0
 76
     0
330
74
  0
LAYOUT
  5
73
102
{ACAD_REACTORS
330
62
102
}
330
62
100
AcDbPlotSettings
  1

  2

  4

  6

 40
0.0
 41
0.0
 42
0.0
 43
0.0
 44
0.0
 45
0.0
 46
0.0
 47
0.0
 48
0.0
 49
0.0
140
0.0
141
0.0
142
1.0
143
1.0
 70
  1712
 72
     0
 73
     0
 74
     0
  7

 75
     0
147
1.0
 76
     0
 77
     2
 78
   300
148
0.0
149
0.0
100
AcDbLayout
  1
Model
 70
     1
 71
     0
 10
0.0
 20
0.0
 11
12.0
 21
9.0
 12
0.0
 22
0.0
 32
0.0
 14
0.0
 24
0.0
 34
0.0
 15
0.0
 25
0.0
 35
0.0
146
0.0
 13
0.0
 23
0.0
 33
0.0
 16
1.0
 26
0.0
 36
0.0
 17
0.0
 27
1.0
 37
0.0
 76
     0
330
70
  0
MATERIAL
  5
19
102
{ACAD_XDICTIONARY
360
1A
102
}
102
{ACAD_REACTORS
330
10
102
}
330
10
100
AcDbMaterial
  1
ByBlock
 72
     0
 43
0.0208333333333333
 43
0.0
 43
0.0
 43
0.0
 43
0.0
 43
0.0208333333333333
 43
0.0
 43
0.0
 43
0.0
 43
0.0
 43
1.0
 43
0.0
 43
0.0
 43
0.0
 43
0.0
 43
1.0
 77
     0
 47
0.0208333333333333
 47
0.0
 47
0.0
 47
0.0
 47
0.0
 47
0.0208333333333333
 47
0.0
 47
0.0
 47
0.0
 47
0.0
 47
1.0
 47
0.0
 47
0.0
 47
0.0
 47
0.0
 47
1.0
171
     0
 49
0.0208333333333333
 49
0.0
 49
0.0
 49
0.0
 49
0.0
 49
0.0208333333333333
 49
0.0
 49
0.0
 49
0.0
 49
0.0
 49
1.0
 49
0.0
 49
0.0
 49
0.0
 49
0.0
 49
1.0
175
     0
142
0.0208333333333333
142
0.0
142
0.0
142
0.0
142
0.0
142
0.0208333333333333
142
0.0
142
0.0
142
0.0
142
0.0
142
1.0
142
0.0
142
0.0
142
0.0
142
0.0
142
1.0
179
     0
144
0.0208333333333333
144
0.0
144
0.0
144
0.0
144
0.0
144
0.0208333333333333
144
0.0
144
0.0
144
0.0
144
0.0
144
1.0
144
0.0
144
0.0
144
0.0
144
0.0
144
1.0
147
0.0208333333333333
147
0.0
147
0.0
147
0.0
147
0.0
147
0.0208333333333333
147
0.0
147
0.0
147
0.0
147
0.0
147
1.0
147
0.0
147
0.0
147
0.0
147
0.0
147
1.0
  0
MATERIAL
  5
11
102
{ACAD_XDICTIONARY
360
12
102
}
102
{ACAD_REACTORS
330
10
102
}
330
10
100
AcDbMaterial
  1
ByLayer
 72
     0
 43
0.0208333333333333
 43
0.0
 43
0.0
 43
0.0
 43
0.0
 43
0.0208333333333333
 43
0.0
 43
0.0
 43
0.0
 43
0.0
 43
1.0
 43
0.0
 43
0.0
 43
0.0
 43
0.0
 43
1.0
 77
     0
 47
0.0208333333333333
 47
0.0
 47
0.0
 47
0.0
 47
0.0
 47
0.0208333333333333
 47
0.0
 47
0.0
 47
0.0
 47
0.0
 47
1.0
 47
0.0
 47
0.0
 47
0.0
 47
0.0
 47
1.0
171
     0
 49
0.0208333333333333
 49
0.0
 49
0.0
 49
0.0
 49
0.0
 49
0.0208333333333333
 49
0.0
 49
0.0
 49
0.0
 49
0.0
 49
1.0
 49
0.0
 49
0.0
 49
0.0
 49
0.0
 49
1.0
175
     0
142
0.0208333333333333
142
0.0
142
0.0
142
0.0
142
0.0
142
0.0208333333333333
142
0.0
142
0.0
142
0.0
142
0.0
142
1.0
142
0.0
142
0.0
142
0.0
142
0.0
142
1.0
179
     0
144
0.0208333333333333
144
0.0
144
0.0
144
0.0
144
0.0
144
0.0208333333333333
144
0.0
144
0.0
144
0.0
144
0.0
144
1.0
144
0.0
144
0.0
144
0.0
144
0.0
144
1.0
147
0.0208333333333333
147
0.0
147
0.0
147
0.0
147
0.0
147
0.0208333333333333
147
0.0
147
0.0
147
0.0
147
0.0
147
1.0
147
0.0
147
0.0
147
0.0
147
0.0
147
1.0
  0
MATERIAL
  5
21
102
{ACAD_XDICTIONARY
360
22
102
}
102
{ACAD_REACTORS
330
10
102
}
330
10
100
AcDbMaterial
  1
Global
 72
     0
 43
0.0208333333333333
 43
0.0
 43
0.0
 43
0.0
 43
0.0
 43
0.0208333333333333
 43
0.0
 43
0.0
 43
0.0
 43
0.0
 43
1.0
 43
0.0
 43
0.0
 43
0.0
 43
0.0
 43
1.0
 77
     0
 47
0.0208333333333333
 47
0.0
 47
0.0
 47
0.0
 47
0.0
 47
0.0208333333333333
 47
0.0
 47
0.0
 47
0.0
 47
0.0
 47
1.0
 47
0.0
 47
0.0
 47
0.0
 47
0.0
 47
1.0
171
     0
 49
0.0208333333333333
 49
0.0
 49
0.0
 49
0.0
 49
0.0
 49
0.0208333333333333
 49
0.0
 49
0.0
 49
0.0
 49
0.0
 49
1.0
 49
0.0
 49
0.0
 49
0.0
 49
0.0
 49
1.0
175
     0
142
0.0208333333333333
142
0.0
142
0.0
142
0.0
142
0.0
142
0.0208333333333333
142
0.0
142
0.0
142
0.0
142
0.0
142
1.0
142
0.0
142
0.0
142
0.0
142
0.0
142
1.0
179
     0
144
0.0208333333333333
144
0.0
144
0.0
144
0.0
144
0.0
144
0.0208333333333333
144
0.0
144
0.0
144
0.0
144
0.0
144
1.0
144
0.0
144
0.0
144
0.0
144
0.0
144
1.0
147
0.0208333333333333
147
0.0
147
0.0
147
0.0
147
0.0
147
0.0208333333333333
147
0.0
147
0.0
147
0.0
147
0.0
147
1.0
147
0.0
147
0.0
147
0.0
147
0.0
147
1.0
  0
MLEADERSTYLE
  5
67
102
{ACAD_XDICTIONARY
360
1B2
102
}
102
{ACAD_REACTORS
330
66
102
}
330
66
100
AcDbMLeaderStyle
179
     2
170
     2
171
     1
172
     0
 90
        2
 40
0.0
 41
0.0
173
     1
 91
-1056964608
340
5B
 92
       -2
290
     1
 42
0.09
291
     1
 43
0.36
  3
Standard
 44
0.18
300

342
55
174
     1
178
     6
175
     1
176
     0
 93
-1056964608
 45
0.18
292
     0
297
     0
 46
0.18
 94
-1056964608
 47
1.0
 49
1.0
140
1.0
293
     1
141
0.0
294
     1
177
     0
142
1.0
295
     0
296
     0
143
0.125
271
     0
272
     9
273
     9
  0
MLINESTYLE
  5
60
102
{ACAD_REACTORS
330
5F
102
}
330
5F
100
AcDbMlineStyle
  2
STANDARD
 70
     0
  3

 62
   256
 51
90.0
 52
90.0
 71
     2
 49
0.5
 62
   256
  6
BYLAYER
 49
-0.5
 62
   256
  6
BYLAYER
  0
ACDBPLACEHOLDER
  5
F
102
{ACAD_REACTORS
330
E
102
}
330
E
  0
SCALE
  5
43
102
{ACAD_REACTORS
330
42
102
}
330
42
100
AcDbScale
 70
     0
300
1:1
140
1.0
141
1.0
290
     1
  0
SCALE
  5
44
102
{ACAD_REACTORS
330
42
102
}
330
42
100
AcDbScale
 70
     0
300
1/128" = 1'-0"
140
0.0078125
141
12.0
290
     0
  0
SCALE
  5
45
102
{ACAD_REACTORS
330
42
102
}
330
42
100
AcDbScale
 70
     0
300
1/64" = 1'-0"
140
0.015625
141
12.0
290
     0
  0
SCALE
  5
46
102
{ACAD_REACTORS
330
42
102
}
330
42
100
AcDbScale
 70
     0
300
1/32" = 1'-0"
140
0.03125
141
12.0
290
     0
  0
SCALE
  5
47
102
{ACAD_REACTORS
330
42
102
}
330
42
100
AcDbScale
 70
     0
300
1/16" = 1'-0"
140
0.0625
141
12.0
290
     0
  0
SCALE
  5
48
102
{ACAD_REACTORS
330
42
102
}
330
42
100
AcDbScale
 70
     0
300
3/32" = 1'-0"
140
0.09375
141
12.0
290
     0
  0
SCALE
  5
49
102
{ACAD_REACTORS
330
42
102
}
330
42
100
AcDbScale
 70
     0
300
1/8" = 1'-0"
140
0.125
141
12.0
290
     0
  0
SCALE
  5
4A
102
{ACAD_REACTORS
330
42
102
}
330
42
100
AcDbScale
 70
     0
300
3/16" = 1'-0"
140
0.1875
141
12.0
290
     0
  0
SCALE
  5
4B
102
{ACAD_REACTORS
330
42
102
}
330
42
100
AcDbScale
 70
     0
300
1/4" = 1'-0"
140
0.25
141
12.0
290
     0
  0
SCALE
  5
4C
102
{ACAD_REACTORS
330
42
102
}
330
42
100
AcDbScale
 70
     0
300
3/8" = 1'-0"
140
0.375
141
12.0
290
     0
  0
SCALE
  5
4D
102
{ACAD_REACTORS
330
42
102
}
330
42
100
AcDbScale
 70
     0
300
1/2" = 1'-0"
140
0.5
141
12.0
290
     0
  0
SCALE
  5
4E
102
{ACAD_REACTORS
330
42
102
}
330
42
100
AcDbScale
 70
     0
300
3/4" = 1'-0"
140
0.75
141
12.0
290
     0
  0
SCALE
  5
4F
102
{ACAD_REACTORS
330
42
102
}
330
42
100
AcDbScale
 70
     0
300
1" = 1'-0"
140
1.0
141
12.0
290
     0
  0
SCALE
  5
50
102
{ACAD_REACTORS
330
42
102
}
330
42
100
AcDbScale
 70
     0
300
1-1/2" = 1'-0"
140
1.5
141
12.0
290
     0
  0
SCALE
  5
51
102
{ACAD_REACTORS
330
42
102
}
330
42
100
AcDbScale
 70
     0
300
3" = 1'-0"
140
3.0
141
12.0
290
     0
  0
SCALE
  5
52
102
{ACAD_REACTORS
330
42
102
}
330
42
100
AcDbScale
 70
     0
300
6" = 1'-0"
140
6.0
141
12.0
290
     0
  0
SCALE
  5
53
102
{ACAD_REACTORS
330
42
102
}
330
42
100
AcDbScale
 70
     0
300
1'-0" = 1'-0"
140
12.0
141
12.0
290
     0
  0
ACDBSECTIONVIEWSTYLE
  5
69
102
{ACAD_XDICTIONARY
360
1B4
102
}
102
{ACAD_REACTORS
330
68
102
}
330
68
100
AcDbModelDocViewStyle
 70
     0
  3
Imperial24
290
     0
100
AcDbSectionViewStyle
 70
     0
 71
     0
 90
       78
 71
     1
340
55
 62
   256
 40
0.24
340
0
340
0
 62
   256
 40
0.24
300
I, O, Q, S, X, Z
 40
0.48
 90
        3
 40
0.18
 90
        1
 71
     2
340
5D
 90
       25
 62
   256
340
5D
 90
       50
 62
   256
 40
0.24
 40
0.0
 40
0.24
 71
     3
340
55
 62
   256
 40
0.24
 90
        1
 40
0.75
 90
        1
300
%<\AcVar ViewType \f "%tc1">% %<\AcVar ViewSectionStartId>%-%<\AcVar ViewSectionEndId>%\PSCALE %<\AcVar ViewScale \f "%sn">%
 71
     4
 62
   256
 62
   257
300
ANSI31
 40
1.0
 90
        0
290
     0
290
     0
 90
        6
 40
0.0
 40
1.570796326794896
 40
0.2617993877991494
 40
1.308996938995747
 40
-0.2617993877991494
 40
1.832595714594046
  0
TABLESTYLE
  5
65
102
{ACAD_XDICTIONARY
360
17F
102
}
102
{ACAD_REACTORS
330
64
102
}
330
64
100
AcDbTableStyle
280
     0
  3
Standard
 70
     0
 71
     0
 40
0.06
 41
0.06
280
     0
281
     0
  7
Standard
140
0.18
170
     2
 62
     0
 63
     7
283
     0
 90
      512
 91
        0
  1

274
    -2
284
     1
 64
     0
275
    -2
285
     1
 65
     0
276
    -2
286
     1
 66
     0
277
    -2
287
     1
 67
     0
278
    -2
288
     1
 68
     0
279
    -2
289
     1
 69
     0
  7
Standard
140
0.25
170
     5
 62
     0
 63
     7
283
     0
 90
      512
 91
        0
  1

274
    -2
284
     1
 64
     0
275
    -2
285
     1
 65
     0
276
    -2
286
     1
 66
     0
277
    -2
287
     1
 67
     0
278
    -2
288
     1
 68
     0
279
    -2
289
     1
 69
     0
  7
Standard
140
0.18
170
     5
 62
     0
 63
     7
283
     0
 90
      512
 91
        0
  1

274
    -2
284
     1
 64
     0
275
    -2
285
     1
 65
     0
276
    -2
286
     1
 66
     0
277
    -2
287
     1
 67
     0
278
    -2
288
     1
 68
     0
279
    -2
289
     1
 69
     0
  0
VISUALSTYLE
  5
2F
102
{ACAD_XDICTIONARY
360
18C
102
}
102
{ACAD_REACTORS
330
29
102
}
330
29
100
AcDbVisualStyle
  2
2dWireframe
 70
     4
177
     2
291
     0
 71
     0
176
     1
 72
     2
176
     1
 73
     0
176
     1
 90
        0
176
     1
 40
0.6
176
     1
 41
30.0
176
     1
 63
     7
421
 16777215
176
     1
 74
     1
176
     1
 91
        4
176
     1
 64
     7
176
     1
 65
   257
176
     1
 75
     1
176
     1
175
     1
176
     1
 42
1.0
176
     1
 92
        0
176
     1
 66
   257
176
     1
 43
1.0
176
     1
 76
     1
176
     1
 77
     6
176
     1
 78
     2
176
     1
 67
     7
176
     1
 79
     5
176
     1
170
     0
176
     1
171
     0
176
     1
290
     0
176
     1
 93
        1
176
     1
 44
0.0
176
     1
173
     0
176
     1
1001
ACAD
1000
AcDbSavedByObjectVersion
1070
     0
  0
VISUALSTYLE
  5
2E
102
{ACAD_XDICTIONARY
360
18A
102
}
102
{ACAD_REACTORS
330
29
102
}
330
29
100
AcDbVisualStyle
  2
Basic
 70
     7
177
     2
291
     1
 71
     1
176
     1
 72
     0
176
     1
 73
     1
176
     1
 90
        0
176
     1
 40
0.6
176
     1
 41
30.0
176
     1
 63
     7
421
 16777215
176
     1
 74
     0
176
     1
 91
        4
176
     1
 64
     7
176
     1
 65
   257
176
     1
 75
     1
176
     1
175
     1
176
     1
 42
1.0
176
     1
 92
        8
176
     1
 66
     7
176
     1
 43
1.0
176
     1
 76
     1
176
     1
 77
     6
176
     1
 78
     2
176
     1
 67
     7
176
     1
 79
     5
176
     1
170
     0
176
     1
171
     0
176
     1
290
     0
176
     1
 93
        1
176
     1
 44
0.0
176
     1
173
     0
176
     1
1001
ACAD
1000
AcDbSavedByObjectVersion
1070
     0
  0
VISUALSTYLE
  5
35
102
{ACAD_XDICTIONARY
360
198
102
}
102
{ACAD_REACTORS
330
29
102
}
330
29
100
AcDbVisualStyle
  2
Brighten
 70
    12
177
     2
291
     1
 71
     2
176
     1
 72
     2
176
     1
 73
     0
176
     1
 90
        0
176
     1
 40
0.6
176
     1
 41
30.0
176
     1
 63
     7
421
 16777215
176
     1
 74
     1
176
     1
 91
        4
176
     1
 64
     7
176
     1
 65
   257
176
     1
 75
     1
176
     1
175
     1
176
     1
 42
1.0
176
     1
 92
        8
176
     1
 66
     7
176
     1
 43
1.0
176
     1
 76
     1
176
     1
 77
     6
176
     1
 78
     2
176
     1
 67
     7
176
     1
 79
     5
176
     1
170
     0
176
     1
171
     0
176
     1
290
     0
176
     1
 93
        1
176
     1
 44
50.0
176
     1
173
     0
176
     1
1001
ACAD
1000
AcDbSavedByObjectVersion
1070
     0
  0
VISUALSTYLE
  5
39
102
{ACAD_XDICTIONARY
360
1A0
102
}
102
{ACAD_REACTORS
330
29
102
}
330
29
100
AcDbVisualStyle
  2
ColorChange
 70
    16
177
     2
291
     1
 71
     2
176
     1
 72
     2
176
     1
 73
     3
176
     1
 90
        0
176
     1
 40
0.6
176
     1
 41
30.0
176
     1
 63
     8
421
  8421504
176
     1
 74
     1
176
     1
 91
        4
176
     1
 64
     7
176
     1
 65
   257
176
     1
 75
     1
176
     1
175
     1
176
     1
 42
1.0
176
     1
 92
        8
176
     1
 66
     8
424
  8421504
176
     1
 43
1.0
176
     1
 76
     1
176
     1
 77
     6
176
     1
 78
     2
176
     1
 67
     7
176
     1
 79
     5
176
     1
170
     0
176
     1
171
     0
176
     1
290
     0
176
     1
 93
        1
176
     1
 44
0.0
176
     1
173
     0
176
     1
1001
ACAD
1000
AcDbSavedByObjectVersion
1070
     0
  0
VISUALSTYLE
  5
32
102
{ACAD_XDICTIONARY
360
192
102
}
102
{ACAD_REACTORS
330
29
102
}
330
29
100
AcDbVisualStyle
  2
Conceptual
 70
     9
177
     2
291
     0
 71
     3
176
     1
 72
     2
176
     1
 73
     0
176
     1
 90
        0
176
     1
 40
0.6
176
     1
 41
30.0
176
     1
 63
     7
421
 16777215
176
     1
 74
     2
176
     1
 91
        2
176
     1
 64
     7
176
     1
 65
   257
176
     1
 75
     1
176
     1
175
     1
176
     1
 42
179.0
176
     1
 92
        8
176
     1
 66
     7
176
     1
 43
1.0
176
     1
 76
     1
176
     1
 77
     6
176
     1
 78
     2
176
     1
 67
     7
176
     1
 79
     3
176
     1
170
     0
176
     1
171
     0
176
     1
290
     0
176
     1
 93
        1
176
     1
 44
0.0
176
     1
173
     0
176
     1
1001
ACAD
1000
AcDbSavedByObjectVersion
1070
     0
  0
VISUALSTYLE
  5
34
102
{ACAD_XDICTIONARY
360
196
102
}
102
{ACAD_REACTORS
330
29
102
}
330
29
100
AcDbVisualStyle
  2
Dim
 70
    11
177
     2
291
     1
 71
     2
176
     1
 72
     2
176
     1
 73
     0
176
     1
 90
        0
176
     1
 40
0.6
176
     1
 41
30.0
176
     1
 63
     7
421
 16777215
176
     1
 74
     1
176
     1
 91
        4
176
     1
 64
     7
176
     1
 65
   257
176
     1
 75
     1
176
     1
175
     1
176
     1
 42
1.0
176
     1
 92
        8
176
     1
 66
     7
176
     1
 43
1.0
176
     1
 76
     1
176
     1
 77
     6
176
     1
 78
     2
176
     1
 67
     7
176
     1
 79
     5
176
     1
170
     0
176
     1
171
     0
176
     1
290
     0
176
     1
 93
        1
176
     1
 44
-50.0
176
     1
173
     0
176
     1
1001
ACAD
1000
AcDbSavedByObjectVersion
1070
     0
  0
VISUALSTYLE
  5
41
102
{ACAD_XDICTIONARY
360
1B0
102
}
102
{ACAD_REACTORS
330
29
102
}
330
29
100
AcDbVisualStyle
  2
EdgeColorOff
 70
    22
177
     2
291
     1
 71
     2
176
     0
 72
     2
176
     0
 73
     0
176
     0
 90
        0
176
     0
 40
0.6
176
     0
 41
30.0
176
     0
 63
     7
421
 16777215
176
     0
 74
     1
176
     0
 91
        4
176
     0
 64
     7
176
     0
 65
   257
176
     0
 75
     1
176
     0
175
     1
176
     0
 42
1.0
176
     0
 92
        8
176
     2
 66
     7
176
     0
 43
1.0
176
     0
 76
     1
176
     0
 77
     6
176
     0
 78
     2
176
     0
 67
     7
176
     0
 79
     5
176
     0
170
     0
176
     0
171
     0
176
     0
290
     0
176
     0
 93
        1
176
     0
 44
0.0
176
     0
173
     0
176
     0
1001
ACAD
1000
AcDbSavedByObjectVersion
1070
     0
  0
VISUALSTYLE
  5
38
102
{ACAD_XDICTIONARY
360
19E
102
}
102
{ACAD_REACTORS
330
29
102
}
330
29
100
AcDbVisualStyle
  2
Facepattern
 70
    15
177
     2
291
     1
 71
     2
176
     1
 72
     2
176
     1
 73
     0
176
     1
 90
        0
176
     1
 40
0.6
176
     1
 41
30.0
176
     1
 63
     7
421
 16777215
176
     1
 74
     1
176
     1
 91
        4
176
     1
 64
     7
176
     1
 65
   257
176
     1
 75
     1
176
     1
175
     1
176
     1
 42
1.0
176
     1
 92
        8
176
     1
 66
     7
176
     1
 43
1.0
176
     1
 76
     1
176
     1
 77
     6
176
     1
 78
     2
176
     1
 67
     7
176
     1
 79
     5
176
     1
170
     0
176
     1
171
     0
176
     1
290
     0
176
     1
 93
        1
176
     1
 44
0.0
176
     1
173
     0
176
     1
1001
ACAD
1000
AcDbSavedByObjectVersion
1070
     0
  0
VISUALSTYLE
  5
2A
102
{ACAD_XDICTIONARY
360
182
102
}
102
{ACAD_REACTORS
330
29
102
}
330
29
100
AcDbVisualStyle
  2
Flat
 70
     0
177
     2
291
     1
 71
     2
176
     1
 72
     1
176
     1
 73
     1
176
     1
 90
        2
176
     1
 40
0.6
176
     1
 41
30.0
176
     1
 63
     7
421
 16777215
176
     1
 74
     0
176
     1
 91
        0
176
     1
 64
     7
176
     1
 65
   257
176
     1
 75
     1
176
     1
175
     1
176
     1
 42
1.0
176
     1
 92
        8
176
     1
 66
     7
176
     1
 43
1.0
176
     1
 76
     1
176
     1
 77
     6
176
     1
 78
     2
176
     1
 67
     7
176
     1
 79
     5
176
     1
170
     0
176
     1
171
     0
176
     1
290
     0
176
     1
 93
       13
176
     1
 44
0.0
176
     1
173
     0
176
     1
1001
ACAD
1000
AcDbSavedByObjectVersion
1070
     0
  0
VISUALSTYLE
  5
2B
102
{ACAD_XDICTIONARY
360
184
102
}
102
{ACAD_REACTORS
330
29
102
}
330
29
100
AcDbVisualStyle
  2
FlatWithEdges
 70
     1
177
     2
291
     1
 71
     2
176
     1
 72
     1
176
     1
 73
     1
176
     1
 90
        2
176
     1
 40
0.6
176
     1
 41
30.0
176
     1
 63
     7
421
 16777215
176
     1
 74
     1
176
     1
 91
        0
176
     1
 64
     7
176
     1
 65
   257
176
     1
 75
     1
176
     1
175
     1
176
     1
 42
1.0
176
     1
 92
        0
176
     1
 66
   257
176
     1
 43
1.0
176
     1
 76
     1
176
     1
 77
     6
176
     1
 78
     2
176
     1
 67
     7
176
     1
 79
     5
176
     1
170
     0
176
     1
171
     0
176
     1
290
     0
176
     1
 93
       13
176
     1
 44
0.0
176
     1
173
     0
176
     1
1001
ACAD
1000
AcDbSavedByObjectVersion
1070
     0
  0
VISUALSTYLE
  5
2C
102
{ACAD_XDICTIONARY
360
186
102
}
102
{ACAD_REACTORS
330
29
102
}
330
29
100
AcDbVisualStyle
  2
Gouraud
 70
     2
177
     2
291
     1
 71
     2
176
     1
 72
     2
176
     1
 73
     1
176
     1
 90
        2
176
     1
 40
0.6
176
     1
 41
30.0
176
     1
 63
     7
421
 16777215
176
     1
 74
     0
176
     1
 91
        0
176
     1
 64
     7
176
     1
 65
   257
176
     1
 75
     1
176
     1
175
     1
176
     1
 42
1.0
176
     1
 92
        0
176
     1
 66
     7
176
     1
 43
1.0
176
     1
 76
     1
176
     1
 77
     6
176
     1
 78
     2
176
     1
 67
     7
176
     1
 79
     5
176
     1
170
     0
176
     1
171
     0
176
     1
290
     0
176
     1
 93
       13
176
     1
 44
0.0
176
     1
173
     0
176
     1
1001
ACAD
1000
AcDbSavedByObjectVersion
1070
     0
  0
VISUALSTYLE
  5
2D
102
{ACAD_XDICTIONARY
360
188
102
}
102
{ACAD_REACTORS
330
29
102
}
330
29
100
AcDbVisualStyle
  2
GouraudWithEdges
 70
     3
177
     2
291
     1
 71
     2
176
     1
 72
     2
176
     1
 73
     1
176
     1
 90
        2
176
     1
 40
0.6
176
     1
 41
30.0
176
     1
 63
     7
421
 16777215
176
     1
 74
     1
176
     1
 91
        0
176
     1
 64
     7
176
     1
 65
   257
176
     1
 75
     1
176
     1
175
     1
176
     1
 42
1.0
176
     1
 92
        0
176
     1
 66
   257
176
     1
 43
1.0
176
     1
 76
     1
176
     1
 77
     6
176
     1
 78
     2
176
     1
 67
     7
176
     1
 79
     5
176
     1
170
     0
176
     1
171
     0
176
     1
290
     0
176
     1
 93
       13
176
     1
 44
0.0
176
     1
173
     0
176
     1
1001
ACAD
1000
AcDbSavedByObjectVersion
1070
     0
  0
VISUALSTYLE
  5
31
102
{ACAD_XDICTIONARY
360
190
102
}
102
{ACAD_REACTORS
330
29
102
}
330
29
100
AcDbVisualStyle
  2
Hidden
 70
     6
177
     2
291
     0
 71
     1
176
     1
 72
     2
176
     1
 73
     2
176
     1
 90
        0
176
     1
 40
0.6
176
     1
 41
30.0
176
     1
 63
     7
421
 16777215
176
     1
 74
     2
176
     1
 91
        2
176
     1
 64
     7
176
     1
 65
   257
176
     1
 75
     2
176
     1
175
     1
176
     1
 42
40.0
176
     1
 92
        0
176
     1
 66
   257
176
     1
 43
1.0
176
     1
 76
     1
176
     1
 77
     6
176
     1
 78
     2
176
     1
 67
     7
176
     1
 79
     3
176
     1
170
     0
176
     1
171
     0
176
     1
290
     0
176
     1
 93
        1
176
     1
 44
0.0
176
     1
173
     0
176
     1
1001
ACAD
1000
AcDbSavedByObjectVersion
1070
     0
  0
VISUALSTYLE
  5
3F
102
{ACAD_XDICTIONARY
360
1AC
102
}
102
{ACAD_REACTORS
330
29
102
}
330
29
100
AcDbVisualStyle
  2
JitterOff
 70
    20
177
     2
291
     1
 71
     2
176
     0
 72
     2
176
     0
 73
     0
176
     0
 90
        0
176
     0
 40
0.6
176
     0
 41
30.0
176
     0
 63
     7
421
 16777215
176
     0
 74
     1
176
     0
 91
        4
176
     0
 64
     7
176
     0
 65
   257
176
     0
 75
     1
176
     0
175
     1
176
     0
 42
1.0
176
     0
 92
       10
176
     2
 66
     7
176
     0
 43
1.0
176
     0
 76
     1
176
     0
 77
     6
176
     0
 78
     2
176
     0
 67
     7
176
     0
 79
     5
176
     0
170
     0
176
     0
171
     0
176
     0
290
     0
176
     0
 93
        1
176
     0
 44
0.0
176
     0
173
     0
176
     0
1001
ACAD
1000
AcDbSavedByObjectVersion
1070
     0
  0
VISUALSTYLE
  5
37
102
{ACAD_XDICTIONARY
360
19C
102
}
102
{ACAD_REACTORS
330
29
102
}
330
29
100
AcDbVisualStyle
  2
Linepattern
 70
    14
177
     2
291
     1
 71
     2
176
     1
 72
     2
176
     1
 73
     0
176
     1
 90
        0
176
     1
 40
0.6
176
     1
 41
30.0
176
     1
 63
     7
421
 16777215
176
     1
 74
     1
176
     1
 91
        4
176
     1
 64
     7
176
     1
 65
   257
176
     1
 75
     7
176
     1
175
     7
176
     1
 42
1.0
176
     1
 92
        8
176
     1
 66
     7
176
     1
 43
1.0
176
     1
 76
     1
176
     1
 77
     6
176
     1
 78
     2
176
     1
 67
     7
176
     1
 79
     5
176
     1
170
     0
176
     1
171
     0
176
     1
290
     0
176
     1
 93
        1
176
     1
 44
0.0
176
     1
173
     0
176
     1
1001
ACAD
1000
AcDbSavedByObjectVersion
1070
     0
  0
VISUALSTYLE
  5
40
102
{ACAD_XDICTIONARY
360
1AE
102
}
102
{ACAD_REACTORS
330
29
102
}
330
29
100
AcDbVisualStyle
  2
OverhangOff
 70
    21
177
     2
291
     1
 71
     2
176
     0
 72
     2
176
     0
 73
     0
176
     0
 90
        0
176
     0
 40
0.6
176
     0
 41
30.0
176
     0
 63
     7
421
 16777215
176
     0
 74
     1
176
     0
 91
        4
176
     0
 64
     7
176
     0
 65
   257
176
     0
 75
     1
176
     0
175
     1
176
     0
 42
1.0
176
     0
 92
        9
176
     2
 66
     7
176
     0
 43
1.0
176
     0
 76
     1
176
     0
 77
     6
176
     0
 78
     2
176
     0
 67
     7
176
     0
 79
     5
176
     0
170
     0
176
     0
171
     0
176
     0
290
     0
176
     0
 93
        1
176
     0
 44
0.0
176
     0
173
     0
176
     0
1001
ACAD
1000
AcDbSavedByObjectVersion
1070
     0
  0
VISUALSTYLE
  5
33
102
{ACAD_XDICTIONARY
360
194
102
}
102
{ACAD_REACTORS
330
29
102
}
330
29
100
AcDbVisualStyle
  2
Realistic
 70
     8
177
     2
291
     0
 71
     2
176
     1
 72
     3
176
     1
 73
     0
176
     1
 90
        2
176
     1
 40
0.6
176
     1
 41
30.0
176
     1
 63
     7
421
 16777215
176
     1
 74
     0
176
     1
 91
        0
176
     1
 64
     7
176
     1
 65
   257
176
     1
 75
     1
176
     1
175
     1
176
     1
 42
1.0
176
     1
 92
        8
176
     1
 66
   257
176
     1
 43
1.0
176
     1
 76
     1
176
     1
 77
     6
176
     1
 78
     2
176
     1
 67
     7
176
     1
 79
     3
176
     1
170
     0
176
     1
171
     0
176
     1
290
     0
176
     1
 93
       13
176
     1
 44
0.0
176
     1
173
     0
176
     1
1001
ACAD
1000
AcDbSavedByObjectVersion
1070
     0
  0
VISUALSTYLE
  5
3E
102
{ACAD_XDICTIONARY
360
1AA
102
}
102
{ACAD_REACTORS
330
29
102
}
330
29
100
AcDbVisualStyle
  2
Shaded
 70
    27
177
     2
291
     0
 71
     2
176
     1
 72
     2
176
     1
 73
     1
176
     1
 90
        2
176
     1
 40
0.6
176
     1
 41
30.0
176
     1
 63
     7
421
 16777215
176
     1
 74
     0
176
     1
 91
        4
176
     1
 64
     7
176
     1
 65
   257
176
     1
 75
     1
176
     1
175
     1
176
     1
 42
1.0
176
     1
 92
        8
176
     1
 66
   257
176
     1
 43
1.0
176
     1
 76
     1
176
     1
 77
     6
176
     1
 78
     2
176
     1
 67
     8
425
  7895160
176
     1
 79
     3
176
     1
170
     0
176
     1
171
     0
176
     1
290
     0
176
     1
 93
        5
176
     1
 44
0.0
176
     1
173
     0
176
     1
1001
ACAD
1000
AcDbSavedByObjectVersion
1070
     0
  0
VISUALSTYLE
  5
3D
102
{ACAD_XDICTIONARY
360
1A8
102
}
102
{ACAD_REACTORS
330
29
102
}
330
29
100
AcDbVisualStyle
  2
Shaded with edges
 70
    26
177
     2
291
     0
 71
     2
176
     1
 72
     2
176
     1
 73
     1
176
     1
 90
        2
176
     1
 40
0.6
176
     1
 41
30.0
176
     1
 63
     7
421
 16777215
176
     1
 74
     1
176
     1
 91
        2
176
     1
 64
     7
176
     1
 65
   257
176
     1
 75
     2
176
     1
175
     1
176
     1
 42
1.0
176
     1
 92
        8
176
     1
 66
   257
176
     1
 43
1.0
176
     1
 76
     1
176
     1
 77
     6
176
     1
 78
     2
176
     1
 67
     7
176
     1
 79
     3
176
     1
170
     0
176
     1
171
     0
176
     1
290
     0
176
     1
 93
        5
176
     1
 44
0.0
176
     1
173
     0
176
     1
1001
ACAD
1000
AcDbSavedByObjectVersion
1070
     0
  0
VISUALSTYLE
  5
3A
102
{ACAD_XDICTIONARY
360
1A2
102
}
102
{ACAD_REACTORS
330
29
102
}
330
29
100
AcDbVisualStyle
  2
Shades of Gray
 70
    23
177
     2
291
     0
 71
     2
176
     1
 72
     2
176
     1
 73
     3
176
     1
 90
        0
176
     1
 40
0.6
176
     1
 41
30.0
176
     1
 63
     7
421
 16777215
176
     1
 74
     2
176
     1
 91
        2
176
     1
 64
     7
176
     1
 65
     7
176
     1
 75
     1
176
     1
175
     1
176
     1
 42
40.0
176
     1
 92
        8
176
     1
 66
     7
176
     1
 43
1.0
176
     1
 76
     1
176
     1
 77
     6
176
     1
 78
     2
176
     1
 67
     7
176
     1
 79
     3
176
     1
170
     0
176
     1
171
     0
176
     1
290
     0
176
     1
 93
        1
176
     1
 44
0.0
176
     1
173
     0
176
     1
1001
ACAD
1000
AcDbSavedByObjectVersion
1070
     0
  0
VISUALSTYLE
  5
3B
102
{ACAD_XDICTIONARY
360
1A4
102
}
102
{ACAD_REACTORS
330
29
102
}
330
29
100
AcDbVisualStyle
  2
Sketchy
 70
    24
177
     2
291
     0
 71
     1
176
     1
 72
     2
176
     1
 73
     2
176
     1
 90
        0
176
     1
 40
0.6
176
     1
 41
30.0
176
     1
 63
     7
421
 16777215
176
     1
 74
     2
176
     1
 91
        2
176
     1
 64
     7
176
     1
 65
     7
176
     1
 75
     1
176
     1
175
     1
176
     1
 42
40.0
176
     1
 92
       11
176
     1
 66
     7
176
     1
 43
1.0
176
     1
 76
     1
176
     1
 77
     6
176
     1
 78
     2
176
     1
 67
     7
176
     1
 79
     6
176
     1
170
     0
176
     1
171
     0
176
     1
290
     0
176
     1
 93
        1
176
     1
 44
0.0
176
     1
173
     0
176
     1
1001
ACAD
1000
AcDbSavedByObjectVersion
1070
     0
  0
VISUALSTYLE
  5
36
102
{ACAD_XDICTIONARY
360
19A
102
}
102
{ACAD_REACTORS
330
29
102
}
330
29
100
AcDbVisualStyle
  2
Thicken
 70
    13
177
     2
291
     1
 71
     2
176
     1
 72
     2
176
     1
 73
     0
176
     1
 90
        0
176
     1
 40
0.6
176
     1
 41
30.0
176
     1
 63
     7
421
 16777215
176
     1
 74
     1
176
     1
 91
        4
176
     1
 64
     7
176
     1
 65
   257
176
     1
 75
     1
176
     1
175
     1
176
     1
 42
1.0
176
     1
 92
       12
176
     1
 66
     7
176
     1
 43
1.0
176
     1
 76
     1
176
     1
 77
     6
176
     1
 78
     2
176
     1
 67
     7
176
     1
 79
     5
176
     1
170
     0
176
     1
171
     0
176
     1
290
     0
176
     1
 93
        1
176
     1
 44
0.0
176
     1
173
     0
176
     1
1001
ACAD
1000
AcDbSavedByObjectVersion
1070
     0
  0
VISUALSTYLE
  5
30
102
{ACAD_XDICTIONARY
360
18E
102
}
102
{ACAD_REACTORS
330
29
102
}
330
29
100
AcDbVisualStyle
  2
Wireframe
 70
     5
177
     2
291
     0
 71
     0
176
     1
 72
     2
176
     1
 73
     0
176
     1
 90
        0
176
     1
 40
0.6
176
     1
 41
30.0
176
     1
 63
     7
421
 16777215
176
     1
 74
     1
176
     1
 91
        4
176
     1
 64
     7
176
     1
 65
   257
176
     1
 75
     1
176
     1
175
     1
176
     1
 42
1.0
176
     1
 92
        0
176
     1
 66
   257
176
     1
 43
1.0
176
     1
 76
     1
176
     1
 77
     6
176
     1
 78
     2
176
     1
 67
     7
176
     1
 79
     3
176
     1
170
     0
176
     1
171
     0
176
     1
290
     0
176
     1
 93
        1
176
     1
 44
0.0
176
     1
173
     0
176
     1
1001
ACAD
1000
AcDbSavedByObjectVersion
1070
     0
  0
VISUALSTYLE
  5
3C
102
{ACAD_XDICTIONARY
360
1A6
102
}
102
{ACAD_REACTORS
330
29
102
}
330
29
100
AcDbVisualStyle
  2
X-Ray
 70
    25
177
     2
291
     0
 71
     2
176
     1
 72
     2
176
     1
 73
     1
176
     1
 90
        1
176
     1
 40
0.5
176
     1
 41
30.0
176
     1
 63
     7
421
 16777215
176
     1
 74
     1
176
     1
 91
        0
176
     1
 64
     7
176
     1
 65
   257
176
     1
 75
     1
176
     1
175
     1
176
     1
 42
1.0
176
     1
 92
        8
176
     1
 66
     7
176
     1
 43
1.0
176
     1
 76
     1
176
     1
 77
     6
176
     1
 78
     2
176
     1
 67
     7
176
     1
 79
     3
176
     1
170
     0
176
     1
171
     0
176
     1
290
     0
176
     1
 93
       13
176
     1
 44
0.0
176
     1
173
     0
176
     1
1001
ACAD
1000
AcDbSavedByObjectVersion
1070
     0
  0
DICTIONARYVAR
  5
17E
102
{ACAD_REACTORS
330
179
102
}
330
179
100
DictionaryVariables
280
     0
  1
1:1
  0
DICTIONARYVAR
  5
17B
102
{ACAD_REACTORS
330
179
102
}
330
179
100
DictionaryVariables
280
     0
  1
STANDARD
  0
DICTIONARYVAR
  5
17A
102
{ACAD_REACTORS
330
179
102
}
330
179
100
DictionaryVariables
280
     0
  1
STANDARD
  0
DICTIONARYVAR
  5
17C
102
{ACAD_REACTORS
330
179
102
}
330
179
100
DictionaryVariables
280
     0
  1
Imperial24
  0
DICTIONARYVAR
  5
17D
102
{ACAD_REACTORS
330
179
102
}
330
179
100
DictionaryVariables
280
     0
  1
Imperial24
  0
DICTIONARY
  5
1B6
330
6B
100
AcDbDictionary
280
     1
281
     1
  3
ACAD_XREC_ROUNDTRIP
360
1B7
  0
DICTIONARY
  5
1A
330
19
100
AcDbDictionary
280
     1
281
     1
  3
BUMPTILE
360
1C
  3
DIFFUSETILE
360
1B
  3
OPACITYTILE
360
1F
  3
REFLECTIONTILE
360
1E
  3
REFRACTIONTILE
360
20
  3
SPECULARTILE
360
1D
  0
DICTIONARY
  5
12
330
11
100
AcDbDictionary
280
     1
281
     1
  3
BUMPTILE
360
14
  3
DIFFUSETILE
360
13
  3
OPACITYTILE
360
17
  3
REFLECTIONTILE
360
16
  3
REFRACTIONTILE
360
18
  3
SPECULARTILE
360
15
  0
DICTIONARY
  5
22
330
21
100
AcDbDictionary
280
     1
281
     1
  3
BUMPTILE
360
24
  3
DIFFUSETILE
360
23
  3
OPACITYTILE
360
27
  3
REFLECTIONTILE
360
26
  3
REFRACTIONTILE
360
28
  3
SPECULARTILE
360
25
  0
DICTIONARY
  5
1B2
330
67
100
AcDbDictionary
280
     1
281
     1
  3
ACAD_XREC_ROUNDTRIP
360
1B3
  0
DICTIONARY
  5
1B4
330
69
100
AcDbDictionary
280
     1
281
     1
  3
ACAD_XREC_ROUNDTRIP
360
1B5
  0
DICTIONARY
  5
17F
330
65
100
AcDbDictionary
280
     1
281
     1
  3
ACAD_ROUNDTRIP_2008_TABLESTYLE_CELLSTYLEMAP
360
180
  0
DICTIONARY
  5
18C
330
2F
100
AcDbDictionary
280
     1
281
     1
  3
ACAD_XREC_ROUNDTRIP
360
18D
  0
DICTIONARY
  5
18A
330
2E
100
AcDbDictionary
280
     1
281
     1
  3
ACAD_XREC_ROUNDTRIP
360
18B
  0
DICTIONARY
  5
198
330
35
100
AcDbDictionary
280
     1
281
     1
  3
ACAD_XREC_ROUNDTRIP
360
199
  0
DICTIONARY
  5
1A0
330
39
100
AcDbDictionary
280
     1
281
     1
  3
ACAD_XREC_ROUNDTRIP
360
1A1
  0
DICTIONARY
  5
192
330
32
100
AcDbDictionary
280
     1
281
     1
  3
ACAD_XREC_ROUNDTRIP
360
193
  0
DICTIONARY
  5
196
330
34
100
AcDbDictionary
280
     1
281
     1
  3
ACAD_XREC_ROUNDTRIP
360
197
  0
DICTIONARY
  5
1B0
330
41
100
AcDbDictionary
280
     1
281
     1
  3
ACAD_XREC_ROUNDTRIP
360
1B1
  0
DICTIONARY
  5
19E
330
38
100
AcDbDictionary
280
     1
281
     1
  3
ACAD_XREC_ROUNDTRIP
360
19F
  0
DICTIONARY
  5
182
330
2A
100
AcDbDictionary
280
     1
281
     1
  3
ACAD_XREC_ROUNDTRIP
360
183
  0
DICTIONARY
  5
184
330
2B
100
AcDbDictionary
280
     1
281
     1
  3
ACAD_XREC_ROUNDTRIP
360
185
  0
DICTIONARY
  5
186
330
2C
100
AcDbDictionary
280
     1
281
     1
  3
ACAD_XREC_ROUNDTRIP
360
187
  0
DICTIONARY
  5
188
330
2D
100
AcDbDictionary
280
     1
281
     1
  3
ACAD_XREC_ROUNDTRIP
360
189
  0
DICTIONARY
  5
190
330
31
100
AcDbDictionary
280
     1
281
     1
  3
ACAD_XREC_ROUNDTRIP
360
191
  0
DICTIONARY
  5
1AC
330
3F
100
AcDbDictionary
280
     1
281
     1
  3
ACAD_XREC_ROUNDTRIP
360
1AD
  0
DICTIONARY
  5
19C
330
37
100
AcDbDictionary
280
     1
281
     1
  3
ACAD_XREC_ROUNDTRIP
360
19D
  0
DICTIONARY
  5
1AE
330
40
100
AcDbDictionary
280
     1
281
     1
  3
ACAD_XREC_ROUNDTRIP
360
1AF
  0
DICTIONARY
  5
194
330
33
100
AcDbDictionary
280
     1
281
     1
  3
ACAD_XREC_ROUNDTRIP
360
195
  0
DICTIONARY
  5
1AA
330
3E
100
AcDbDictionary
280
     1
281
     1
  3
ACAD_XREC_ROUNDTRIP
360
1AB
  0
DICTIONARY
  5
1A8
330
3D
100
AcDbDictionary
280
     1
281
     1
  3
ACAD_XREC_ROUNDTRIP
360
1A9
  0
DICTIONARY
  5
1A2
330
3A
100
AcDbDictionary
280
     1
281
     1
  3
ACAD_XREC_ROUNDTRIP
360
1A3
  0
DICTIONARY
  5
1A4
330
3B
100
AcDbDictionary
280
     1
281
     1
  3
ACAD_XREC_ROUNDTRIP
360
1A5
  0
DICTIONARY
  5
19A
330
36
100
AcDbDictionary
280
     1
281
     1
  3
ACAD_XREC_ROUNDTRIP
360
19B
  0
DICTIONARY
  5
18E
330
30
100
AcDbDictionary
280
     1
281
     1
  3
ACAD_XREC_ROUNDTRIP
360
18F
  0
DICTIONARY
  5
1A6
330
3C
100
AcDbDictionary
280
     1
281
     1
  3
ACAD_XREC_ROUNDTRIP
360
1A7
  0
XRECORD
  5
1B7
102
{ACAD_REACTORS
330
1B6
102
}
330
1B6
100
AcDbXrecord
280
     1
102
DISPLAYNAME
  1
Imperial24
102
FLAGS
 90
        0
  0
XRECORD
  5
1C
102
{ACAD_REACTORS
330
1A
102
}
330
1A
100
AcDbXrecord
280
     1
270
     1
271
     1
  0
XRECORD
  5
1B
102
{ACAD_REACTORS
330
1A
102
}
330
1A
100
AcDbXrecord
280
     1
270
     1
271
     1
  0
XRECORD
  5
1F
102
{ACAD_REACTORS
330
1A
102
}
330
1A
100
AcDbXrecord
280
     1
270
     1
271
     1
  0
XRECORD
  5
1E
102
{ACAD_REACTORS
330
1A
102
}
330
1A
100
AcDbXrecord
280
     1
270
     1
271
     1
  0
XRECORD
  5
20
102
{ACAD_REACTORS
330
1A
102
}
330
1A
100
AcDbXrecord
280
     1
270
     1
271
     1
  0
XRECORD
  5
1D
102
{ACAD_REACTORS
330
1A
102
}
330
1A
100
AcDbXrecord
280
     1
270
     1
271
     1
  0
XRECORD
  5
14
102
{ACAD_REACTORS
330
12
102
}
330
12
100
AcDbXrecord
280
     1
270
     1
271
     1
  0
XRECORD
  5
13
102
{ACAD_REACTORS
330
12
102
}
330
12
100
AcDbXrecord
280
     1
270
     1
271
     1
  0
XRECORD
  5
17
102
{ACAD_REACTORS
330
12
102
}
330
12
100
AcDbXrecord
280
     1
270
     1
271
     1
  0
XRECORD
  5
16
102
{ACAD_REACTORS
330
12
102
}
330
12
100
AcDbXrecord
280
     1
270
     1
271
     1
  0
XRECORD
  5
18
102
{ACAD_REACTORS
330
12
102
}
330
12
100
AcDbXrecord
280
     1
270
     1
271
     1
  0
XRECORD
  5
15
102
{ACAD_REACTORS
330
12
102
}
330
12
100
AcDbXrecord
280
     1
270
     1
271
     1
  0
XRECORD
  5
24
102
{ACAD_REACTORS
330
22
102
}
330
22
100
AcDbXrecord
280
     1
270
     1
271
     1
  0
XRECORD
  5
23
102
{ACAD_REACTORS
330
22
102
}
330
22
100
AcDbXrecord
280
     1
270
     1
271
     1
  0
XRECORD
  5
27
102
{ACAD_REACTORS
330
22
102
}
330
22
100
AcDbXrecord
280
     1
270
     1
271
     1
  0
XRECORD
  5
26
102
{ACAD_REACTORS
330
22
102
}
330
22
100
AcDbXrecord
280
     1
270
     1
271
     1
  0
XRECORD
  5
28
102
{ACAD_REACTORS
330
22
102
}
330
22
100
AcDbXrecord
280
     1
270
     1
271
     1
  0
XRECORD
  5
25
102
{ACAD_REACTORS
330
22
102
}
330
22
100
AcDbXrecord
280
     1
270
     1
271
     1
  0
XRECORD
  5
1B3
102
{ACAD_REACTORS
330
1B2
102
}
330
1B2
100
AcDbXrecord
280
     1
102
ACAD_ROUNDTRIP_2012_MLEADER_STYLE
298
     1
  0
XRECORD
  5
1B5
102
{ACAD_REACTORS
330
1B4
102
}
330
1B4
100
AcDbXrecord
280
     1
102
DISPLAYNAME
  1
Imperial24
102
FLAGS
 90
        0
  0
CELLSTYLEMAP
  5
180
102
{ACAD_REACTORS
330
17F
102
}
330
17F
100
AcDbCellStyleMap
 90
        3
300
CELLSTYLE
  1
TABLEFORMAT_BEGIN
 90
        5
170
     1
 91
        0
 92
    32768
 62
   257
 93
        1
300
CONTENTFORMAT
  1
CONTENTFORMAT_BEGIN
 90
        0
 91
        0
 92
      512
 93
        0
300

 40
0.0
140
1.0
 94
        5
 62
     0
340
55
144
0.25
309
CONTENTFORMAT_END
171
     0
 94
        0
309
TABLEFORMAT_END
  1
CELLSTYLE_BEGIN
 90
        1
 91
        1
300
_TITLE
309
CELLSTYLE_END
300
CELLSTYLE
  1
TABLEFORMAT_BEGIN
 90
        5
170
     1
 91
        0
 92
        0
 62
   257
 93
        1
300
CONTENTFORMAT
  1
CONTENTFORMAT_BEGIN
 90
        0
 91
        0
 92
      512
 93
        0
300

 40
0.0
140
1.0
 94
        5
 62
     0
340
55
144
0.18
309
CONTENTFORMAT_END
171
     0
 94
        0
309
TABLEFORMAT_END
  1
CELLSTYLE_BEGIN
 90
        2
 91
        1
300
_HEADER
309
CELLSTYLE_END
300
CELLSTYLE
  1
TABLEFORMAT_BEGIN
 90
        5
170
     1
 91
        0
 92
        0
 62
   257
 93
        1
300
CONTENTFORMAT
  1
CONTENTFORMAT_BEGIN
 90
        0
 91
        0
 92
      512
 93
        0
300

 40
0.0
140
1.0
 94
        2
 62
     0
340
55
144
0.18
309
CONTENTFORMAT_END
171
     0
 94
        0
309
TABLEFORMAT_END
  1
CELLSTYLE_BEGIN
 90
        3
 91
        2
300
_DATA
309
CELLSTYLE_END
  0
XRECORD
  5
18D
102
{ACAD_REACTORS
330
18C
102
}
330
18C
100
AcDbXrecord
280
     1
102
RTVSPost2010Prop28
280
     1
102
RTVSPost2010PropOp28
 70
     1
102
RTVSPost2010Prop29
280
     1
102
RTVSPost2010PropOp29
 70
     1
102
RTVSPost2010Prop30
280
     0
102
RTVSPost2010PropOp30
 70
     1
102
RTVSPost2010Prop31
280
     0
102
RTVSPost2010PropOp31
 70
     1
102
RTVSPost2010Prop32
280
     0
102
RTVSPost2010PropOp32
 70
     1
102
RTVSPost2010Prop33
280
     0
102
RTVSPost2010PropOp33
 70
     1
102
RTVSPost2010Prop34
280
     0
102
RTVSPost2010PropOp34
 70
     1
102
RTVSPost2010Prop35
280
     0
102
RTVSPost2010PropOp35
 70
     1
102
RTVSPost2010Prop36
280
     0
102
RTVSPost2010PropOp36
 70
     1
102
RTVSPost2010Prop37
 90
       50
102
RTVSPost2010PropOp37
 70
     1
102
RTVSPost2010Prop38
140
0.0
102
RTVSPost2010PropOp38
 70
     1
102
RTVSPost2010Prop39
140
1.0
102
RTVSPost2010PropOp39
 70
     1
102
RTVSPost2010Prop40
 90
        0
102
RTVSPost2010PropOp40
 70
     1
102
RTVSPost2010Prop41ColorIndex
 90
       18
102
RTVSPost2010Prop41ColorRGB
 90
        0
102
RTVSPost2010PropOp41
 70
     1
102
RTVSPost2010Prop42
 90
       50
102
RTVSPost2010PropOp42
 70
     1
102
RTVSPost2010Prop43
 90
        3
102
RTVSPost2010PropOp43
 70
     1
102
RTVSPost2010Prop44ColorIndex
 90
        5
102
RTVSPost2010Prop44ColorRGB
 90
      255
102
RTVSPost2010PropOp44
 70
     1
102
RTVSPost2010Prop45
280
     0
102
RTVSPost2010PropOp45
 70
     1
102
RTVSPost2010Prop46
 90
       50
102
RTVSPost2010PropOp46
 70
     1
102
RTVSPost2010Prop47
 90
       50
102
RTVSPost2010PropOp47
 70
     1
102
RTVSPost2010Prop48
 90
       50
102
RTVSPost2010PropOp48
 70
     1
102
RTVSPost2010Prop49
280
     0
102
RTVSPost2010PropOp49
 70
     1
102
RTVSPost2010Prop50
 90
       50
102
RTVSPost2010PropOp50
 70
     1
102
RTVSPost2010Prop51ColorIndex
 90
      256
102
RTVSPost2010Prop51ColorRGB
 90
-16777216
102
RTVSPost2010PropOp51
 70
     0
102
RTVSPost2010Prop52
140
1.0
102
RTVSPost2010PropOp52
 70
     0
102
RTVSPost2010Prop53
 90
        2
102
RTVSPost2010PropOp53
 70
     1
102
RTVSPost2010Prop54
  1
strokes_ogs.tif
102
RTVSPost2010PropOp54
 70
     1
102
RTVSPost2010Prop55
280
     0
102
RTVSPost2010PropOp55
 70
     1
102
RTVSPost2010Prop56
140
1.0
102
RTVSPost2010PropOp56
 70
     1
102
RTVSPost2010Prop57
140
1.0
102
RTVSPost2010PropOp57
 70
     1
  0
XRECORD
  5
18B
102
{ACAD_REACTORS
330
18A
102
}
330
18A
100
AcDbXrecord
280
     1
102
RTVSPost2010Prop28
280
     0
102
RTVSPost2010PropOp28
 70
     1
102
RTVSPost2010Prop29
280
     1
102
RTVSPost2010PropOp29
 70
     1
102
RTVSPost2010Prop30
280
     1
102
RTVSPost2010PropOp30
 70
     1
102
RTVSPost2010Prop31
280
     0
102
RTVSPost2010PropOp31
 70
     1
102
RTVSPost2010Prop32
280
     0
102
RTVSPost2010PropOp32
 70
     1
102
RTVSPost2010Prop33
280
     0
102
RTVSPost2010PropOp33
 70
     1
102
RTVSPost2010Prop34
280
     0
102
RTVSPost2010PropOp34
 70
     1
102
RTVSPost2010Prop35
280
     0
102
RTVSPost2010PropOp35
 70
     1
102
RTVSPost2010Prop36
280
     0
102
RTVSPost2010PropOp36
 70
     1
102
RTVSPost2010Prop37
 90
       50
102
RTVSPost2010PropOp37
 70
     1
102
RTVSPost2010Prop38
140
0.0
102
RTVSPost2010PropOp38
 70
     1
102
RTVSPost2010Prop39
140
1.0
102
RTVSPost2010PropOp39
 70
     1
102
RTVSPost2010Prop40
 90
        0
102
RTVSPost2010PropOp40
 70
     1
102
RTVSPost2010Prop41ColorIndex
 90
       18
102
RTVSPost2010Prop41ColorRGB
 90
        0
102
RTVSPost2010PropOp41
 70
     1
102
RTVSPost2010Prop42
 90
       50
102
RTVSPost2010PropOp42
 70
     1
102
RTVSPost2010Prop43
 90
        3
102
RTVSPost2010PropOp43
 70
     1
102
RTVSPost2010Prop44ColorIndex
 90
        5
102
RTVSPost2010Prop44ColorRGB
 90
      255
102
RTVSPost2010PropOp44
 70
     1
102
RTVSPost2010Prop45
280
     0
102
RTVSPost2010PropOp45
 70
     1
102
RTVSPost2010Prop46
 90
       50
102
RTVSPost2010PropOp46
 70
     1
102
RTVSPost2010Prop47
 90
       50
102
RTVSPost2010PropOp47
 70
     1
102
RTVSPost2010Prop48
 90
       50
102
RTVSPost2010PropOp48
 70
     1
102
RTVSPost2010Prop49
280
     0
102
RTVSPost2010PropOp49
 70
     1
102
RTVSPost2010Prop50
 90
       50
102
RTVSPost2010PropOp50
 70
     1
102
RTVSPost2010Prop51ColorIndex
 90
      256
102
RTVSPost2010Prop51ColorRGB
 90
-16777216
102
RTVSPost2010PropOp51
 70
     0
102
RTVSPost2010Prop52
140
1.0
102
RTVSPost2010PropOp52
 70
     0
102
RTVSPost2010Prop53
 90
        2
102
RTVSPost2010PropOp53
 70
     1
102
RTVSPost2010Prop54
  1
strokes_ogs.tif
102
RTVSPost2010PropOp54
 70
     1
102
RTVSPost2010Prop55
280
     0
102
RTVSPost2010PropOp55
 70
     1
102
RTVSPost2010Prop56
140
1.0
102
RTVSPost2010PropOp56
 70
     1
102
RTVSPost2010Prop57
140
1.0
102
RTVSPost2010PropOp57
 70
     1
  0
XRECORD
  5
199
102
{ACAD_REACTORS
330
198
102
}
330
198
100
AcDbXrecord
280
     1
102
RTVSPost2010Prop28
280
     0
102
RTVSPost2010PropOp28
 70
     1
102
RTVSPost2010Prop29
280
     1
102
RTVSPost2010PropOp29
 70
     1
102
RTVSPost2010Prop30
280
     1
102
RTVSPost2010PropOp30
 70
     1
102
RTVSPost2010Prop31
280
     0
102
RTVSPost2010PropOp31
 70
     1
102
RTVSPost2010Prop32
280
     0
102
RTVSPost2010PropOp32
 70
     1
102
RTVSPost2010Prop33
280
     0
102
RTVSPost2010PropOp33
 70
     1
102
RTVSPost2010Prop34
280
     0
102
RTVSPost2010PropOp34
 70
     1
102
RTVSPost2010Prop35
280
     0
102
RTVSPost2010PropOp35
 70
     1
102
RTVSPost2010Prop36
280
     0
102
RTVSPost2010PropOp36
 70
     1
102
RTVSPost2010Prop37
 90
       50
102
RTVSPost2010PropOp37
 70
     1
102
RTVSPost2010Prop38
140
0.0
102
RTVSPost2010PropOp38
 70
     1
102
RTVSPost2010Prop39
140
1.0
102
RTVSPost2010PropOp39
 70
     1
102
RTVSPost2010Prop40
 90
        0
102
RTVSPost2010PropOp40
 70
     1
102
RTVSPost2010Prop41ColorIndex
 90
       18
102
RTVSPost2010Prop41ColorRGB
 90
        0
102
RTVSPost2010PropOp41
 70
     1
102
RTVSPost2010Prop42
 90
       50
102
RTVSPost2010PropOp42
 70
     1
102
RTVSPost2010Prop43
 90
        3
102
RTVSPost2010PropOp43
 70
     1
102
RTVSPost2010Prop44ColorIndex
 90
        5
102
RTVSPost2010Prop44ColorRGB
 90
      255
102
RTVSPost2010PropOp44
 70
     1
102
RTVSPost2010Prop45
280
     0
102
RTVSPost2010PropOp45
 70
     1
102
RTVSPost2010Prop46
 90
       50
102
RTVSPost2010PropOp46
 70
     1
102
RTVSPost2010Prop47
 90
       50
102
RTVSPost2010PropOp47
 70
     1
102
RTVSPost2010Prop48
 90
       50
102
RTVSPost2010PropOp48
 70
     1
102
RTVSPost2010Prop49
280
     0
102
RTVSPost2010PropOp49
 70
     1
102
RTVSPost2010Prop50
 90
       50
102
RTVSPost2010PropOp50
 70
     1
102
RTVSPost2010Prop51ColorIndex
 90
      256
102
RTVSPost2010Prop51ColorRGB
 90
-16777216
102
RTVSPost2010PropOp51
 70
     0
102
RTVSPost2010Prop52
140
1.0
102
RTVSPost2010PropOp52
 70
     0
102
RTVSPost2010Prop53
 90
        2
102
RTVSPost2010PropOp53
 70
     1
102
RTVSPost2010Prop54
  1
strokes_ogs.tif
102
RTVSPost2010PropOp54
 70
     1
102
RTVSPost2010Prop55
280
     0
102
RTVSPost2010PropOp55
 70
     1
102
RTVSPost2010Prop56
140
1.0
102
RTVSPost2010PropOp56
 70
     1
102
RTVSPost2010Prop57
140
1.0
102
RTVSPost2010PropOp57
 70
     1
  0
XRECORD
  5
1A1
102
{ACAD_REACTORS
330
1A0
102
}
330
1A0
100
AcDbXrecord
280
     1
102
RTVSPost2010Prop28
280
     0
102
RTVSPost2010PropOp28
 70
     1
102
RTVSPost2010Prop29
280
     1
102
RTVSPost2010PropOp29
 70
     1
102
RTVSPost2010Prop30
280
     1
102
RTVSPost2010PropOp30
 70
     1
102
RTVSPost2010Prop31
280
     0
102
RTVSPost2010PropOp31
 70
     1
102
RTVSPost2010Prop32
280
     0
102
RTVSPost2010PropOp32
 70
     1
102
RTVSPost2010Prop33
280
     0
102
RTVSPost2010PropOp33
 70
     1
102
RTVSPost2010Prop34
280
     0
102
RTVSPost2010PropOp34
 70
     1
102
RTVSPost2010Prop35
280
     0
102
RTVSPost2010PropOp35
 70
     1
102
RTVSPost2010Prop36
280
     0
102
RTVSPost2010PropOp36
 70
     1
102
RTVSPost2010Prop37
 90
       50
102
RTVSPost2010PropOp37
 70
     1
102
RTVSPost2010Prop38
140
0.0
102
RTVSPost2010PropOp38
 70
     1
102
RTVSPost2010Prop39
140
1.0
102
RTVSPost2010PropOp39
 70
     1
102
RTVSPost2010Prop40
 90
        0
102
RTVSPost2010PropOp40
 70
     1
102
RTVSPost2010Prop41ColorIndex
 90
       18
102
RTVSPost2010Prop41ColorRGB
 90
        0
102
RTVSPost2010PropOp41
 70
     1
102
RTVSPost2010Prop42
 90
       50
102
RTVSPost2010PropOp42
 70
     1
102
RTVSPost2010Prop43
 90
        3
102
RTVSPost2010PropOp43
 70
     1
102
RTVSPost2010Prop44ColorIndex
 90
        5
102
RTVSPost2010Prop44ColorRGB
 90
      255
102
RTVSPost2010PropOp44
 70
     1
102
RTVSPost2010Prop45
280
     0
102
RTVSPost2010PropOp45
 70
     1
102
RTVSPost2010Prop46
 90
       50
102
RTVSPost2010PropOp46
 70
     1
102
RTVSPost2010Prop47
 90
       50
102
RTVSPost2010PropOp47
 70
     1
102
RTVSPost2010Prop48
 90
       50
102
RTVSPost2010PropOp48
 70
     1
102
RTVSPost2010Prop49
280
     0
102
RTVSPost2010PropOp49
 70
     1
102
RTVSPost2010Prop50
 90
       50
102
RTVSPost2010PropOp50
 70
     1
102
RTVSPost2010Prop51ColorIndex
 90
      256
102
RTVSPost2010Prop51ColorRGB
 90
-16777216
102
RTVSPost2010PropOp51
 70
     0
102
RTVSPost2010Prop52
140
1.0
102
RTVSPost2010PropOp52
 70
     0
102
RTVSPost2010Prop53
 90
        2
102
RTVSPost2010PropOp53
 70
     1
102
RTVSPost2010Prop54
  1
strokes_ogs.tif
102
RTVSPost2010PropOp54
 70
     1
102
RTVSPost2010Prop55
280
     0
102
RTVSPost2010PropOp55
 70
     1
102
RTVSPost2010Prop56
140
1.0
102
RTVSPost2010PropOp56
 70
     1
102
RTVSPost2010Prop57
140
1.0
102
RTVSPost2010PropOp57
 70
     1
  0
XRECORD
  5
193
102
{ACAD_REACTORS
330
192
102
}
330
192
100
AcDbXrecord
280
     1
102
RTVSPost2010Prop28
280
     0
102
RTVSPost2010PropOp28
 70
     1
102
RTVSPost2010Prop29
280
     1
102
RTVSPost2010PropOp29
 70
     1
102
RTVSPost2010Prop30
280
     1
102
RTVSPost2010PropOp30
 70
     1
102
RTVSPost2010Prop31
280
     0
102
RTVSPost2010PropOp31
 70
     1
102
RTVSPost2010Prop32
280
     0
102
RTVSPost2010PropOp32
 70
     1
102
RTVSPost2010Prop33
280
     0
102
RTVSPost2010PropOp33
 70
     1
102
RTVSPost2010Prop34
280
     0
102
RTVSPost2010PropOp34
 70
     1
102
RTVSPost2010Prop35
280
     0
102
RTVSPost2010PropOp35
 70
     1
102
RTVSPost2010Prop36
280
     0
102
RTVSPost2010PropOp36
 70
     1
102
RTVSPost2010Prop37
 90
       50
102
RTVSPost2010PropOp37
 70
     1
102
RTVSPost2010Prop38
140
0.0
102
RTVSPost2010PropOp38
 70
     1
102
RTVSPost2010Prop39
140
1.0
102
RTVSPost2010PropOp39
 70
     1
102
RTVSPost2010Prop40
 90
        0
102
RTVSPost2010PropOp40
 70
     1
102
RTVSPost2010Prop41ColorIndex
 90
       18
102
RTVSPost2010Prop41ColorRGB
 90
        0
102
RTVSPost2010PropOp41
 70
     1
102
RTVSPost2010Prop42
 90
       50
102
RTVSPost2010PropOp42
 70
     1
102
RTVSPost2010Prop43
 90
        3
102
RTVSPost2010PropOp43
 70
     1
102
RTVSPost2010Prop44ColorIndex
 90
        5
102
RTVSPost2010Prop44ColorRGB
 90
      255
102
RTVSPost2010PropOp44
 70
     1
102
RTVSPost2010Prop45
280
     0
102
RTVSPost2010PropOp45
 70
     1
102
RTVSPost2010Prop46
 90
       50
102
RTVSPost2010PropOp46
 70
     1
102
RTVSPost2010Prop47
 90
       50
102
RTVSPost2010PropOp47
 70
     1
102
RTVSPost2010Prop48
 90
       50
102
RTVSPost2010PropOp48
 70
     1
102
RTVSPost2010Prop49
280
     0
102
RTVSPost2010PropOp49
 70
     1
102
RTVSPost2010Prop50
 90
       50
102
RTVSPost2010PropOp50
 70
     1
102
RTVSPost2010Prop51ColorIndex
 90
      256
102
RTVSPost2010Prop51ColorRGB
 90
-16777216
102
RTVSPost2010PropOp51
 70
     0
102
RTVSPost2010Prop52
140
1.0
102
RTVSPost2010PropOp52
 70
     0
102
RTVSPost2010Prop53
 90
        2
102
RTVSPost2010PropOp53
 70
     1
102
RTVSPost2010Prop54
  1
strokes_ogs.tif
102
RTVSPost2010PropOp54
 70
     1
102
RTVSPost2010Prop55
280
     0
102
RTVSPost2010PropOp55
 70
     1
102
RTVSPost2010Prop56
140
1.0
102
RTVSPost2010PropOp56
 70
     1
102
RTVSPost2010Prop57
140
1.0
102
RTVSPost2010PropOp57
 70
     1
  0
XRECORD
  5
197
102
{ACAD_REACTORS
330
196
102
}
330
196
100
AcDbXrecord
280
     1
102
RTVSPost2010Prop28
280
     0
102
RTVSPost2010PropOp28
 70
     1
102
RTVSPost2010Prop29
280
     1
102
RTVSPost2010PropOp29
 70
     1
102
RTVSPost2010Prop30
280
     1
102
RTVSPost2010PropOp30
 70
     1
102
RTVSPost2010Prop31
280
     0
102
RTVSPost2010PropOp31
 70
     1
102
RTVSPost2010Prop32
280
     0
102
RTVSPost2010PropOp32
 70
     1
102
RTVSPost2010Prop33
280
     0
102
RTVSPost2010PropOp33
 70
     1
102
RTVSPost2010Prop34
280
     0
102
RTVSPost2010PropOp34
 70
     1
102
RTVSPost2010Prop35
280
     0
102
RTVSPost2010PropOp35
 70
     1
102
RTVSPost2010Prop36
280
     0
102
RTVSPost2010PropOp36
 70
     1
102
RTVSPost2010Prop37
 90
       50
102
RTVSPost2010PropOp37
 70
     1
102
RTVSPost2010Prop38
140
0.0
102
RTVSPost2010PropOp38
 70
     1
102
RTVSPost2010Prop39
140
1.0
102
RTVSPost2010PropOp39
 70
     1
102
RTVSPost2010Prop40
 90
        0
102
RTVSPost2010PropOp40
 70
     1
102
RTVSPost2010Prop41ColorIndex
 90
       18
102
RTVSPost2010Prop41ColorRGB
 90
        0
102
RTVSPost2010PropOp41
 70
     1
102
RTVSPost2010Prop42
 90
       50
102
RTVSPost2010PropOp42
 70
     1
102
RTVSPost2010Prop43
 90
        3
102
RTVSPost2010PropOp43
 70
     1
102
RTVSPost2010Prop44ColorIndex
 90
        5
102
RTVSPost2010Prop44ColorRGB
 90
      255
102
RTVSPost2010PropOp44
 70
     1
102
RTVSPost2010Prop45
280
     0
102
RTVSPost2010PropOp45
 70
     1
102
RTVSPost2010Prop46
 90
       50
102
RTVSPost2010PropOp46
 70
     1
102
RTVSPost2010Prop47
 90
       50
102
RTVSPost2010PropOp47
 70
     1
102
RTVSPost2010Prop48
 90
       50
102
RTVSPost2010PropOp48
 70
     1
102
RTVSPost2010Prop49
280
     0
102
RTVSPost2010PropOp49
 70
     1
102
RTVSPost2010Prop50
 90
       50
102
RTVSPost2010PropOp50
 70
     1
102
RTVSPost2010Prop51ColorIndex
 90
      256
102
RTVSPost2010Prop51ColorRGB
 90
-16777216
102
RTVSPost2010PropOp51
 70
     0
102
RTVSPost2010Prop52
140
1.0
102
RTVSPost2010PropOp52
 70
     0
102
RTVSPost2010Prop53
 90
        2
102
RTVSPost2010PropOp53
 70
     1
102
RTVSPost2010Prop54
  1
strokes_ogs.tif
102
RTVSPost2010PropOp54
 70
     1
102
RTVSPost2010Prop55
280
     0
102
RTVSPost2010PropOp55
 70
     1
102
RTVSPost2010Prop56
140
1.0
102
RTVSPost2010PropOp56
 70
     1
102
RTVSPost2010Prop57
140
1.0
102
RTVSPost2010PropOp57
 70
     1
  0
XRECORD
  5
1B1
102
{ACAD_REACTORS
330
1B0
102
}
330
1B0
100
AcDbXrecord
280
     1
102
RTVSPost2010Prop28
280
     0
102
RTVSPost2010PropOp28
 70
     0
102
RTVSPost2010Prop29
280
     1
102
RTVSPost2010PropOp29
 70
     0
102
RTVSPost2010Prop30
280
     1
102
RTVSPost2010PropOp30
 70
     0
102
RTVSPost2010Prop31
280
     0
102
RTVSPost2010PropOp31
 70
     0
102
RTVSPost2010Prop32
280
     0
102
RTVSPost2010PropOp32
 70
     0
102
RTVSPost2010Prop33
280
     0
102
RTVSPost2010PropOp33
 70
     0
102
RTVSPost2010Prop34
280
     0
102
RTVSPost2010PropOp34
 70
     0
102
RTVSPost2010Prop35
280
     0
102
RTVSPost2010PropOp35
 70
     0
102
RTVSPost2010Prop36
280
     0
102
RTVSPost2010PropOp36
 70
     0
102
RTVSPost2010Prop37
 90
       50
102
RTVSPost2010PropOp37
 70
     0
102
RTVSPost2010Prop38
140
0.0
102
RTVSPost2010PropOp38
 70
     0
102
RTVSPost2010Prop39
140
1.0
102
RTVSPost2010PropOp39
 70
     0
102
RTVSPost2010Prop40
 90
        0
102
RTVSPost2010PropOp40
 70
     0
102
RTVSPost2010Prop41ColorIndex
 90
       18
102
RTVSPost2010Prop41ColorRGB
 90
        0
102
RTVSPost2010PropOp41
 70
     0
102
RTVSPost2010Prop42
 90
       50
102
RTVSPost2010PropOp42
 70
     0
102
RTVSPost2010Prop43
 90
        3
102
RTVSPost2010PropOp43
 70
     0
102
RTVSPost2010Prop44ColorIndex
 90
        5
102
RTVSPost2010Prop44ColorRGB
 90
      255
102
RTVSPost2010PropOp44
 70
     0
102
RTVSPost2010Prop45
280
     0
102
RTVSPost2010PropOp45
 70
     0
102
RTVSPost2010Prop46
 90
       50
102
RTVSPost2010PropOp46
 70
     0
102
RTVSPost2010Prop47
 90
       50
102
RTVSPost2010PropOp47
 70
     0
102
RTVSPost2010Prop48
 90
       50
102
RTVSPost2010PropOp48
 70
     0
102
RTVSPost2010Prop49
280
     0
102
RTVSPost2010PropOp49
 70
     0
102
RTVSPost2010Prop50
 90
       50
102
RTVSPost2010PropOp50
 70
     0
102
RTVSPost2010Prop51ColorIndex
 90
      256
102
RTVSPost2010Prop51ColorRGB
 90
-16777216
102
RTVSPost2010PropOp51
 70
     0
102
RTVSPost2010Prop52
140
1.0
102
RTVSPost2010PropOp52
 70
     0
102
RTVSPost2010Prop53
 90
        2
102
RTVSPost2010PropOp53
 70
     0
102
RTVSPost2010Prop54
  1
strokes_ogs.tif
102
RTVSPost2010PropOp54
 70
     0
102
RTVSPost2010Prop55
280
     0
102
RTVSPost2010PropOp55
 70
     0
102
RTVSPost2010Prop56
140
1.0
102
RTVSPost2010PropOp56
 70
     0
102
RTVSPost2010Prop57
140
1.0
102
RTVSPost2010PropOp57
 70
     0
  0
XRECORD
  5
19F
102
{ACAD_REACTORS
330
19E
102
}
330
19E
100
AcDbXrecord
280
     1
102
RTVSPost2010Prop28
280
     0
102
RTVSPost2010PropOp28
 70
     1
102
RTVSPost2010Prop29
280
     1
102
RTVSPost2010PropOp29
 70
     1
102
RTVSPost2010Prop30
280
     1
102
RTVSPost2010PropOp30
 70
     1
102
RTVSPost2010Prop31
280
     0
102
RTVSPost2010PropOp31
 70
     1
102
RTVSPost2010Prop32
280
     0
102
RTVSPost2010PropOp32
 70
     1
102
RTVSPost2010Prop33
280
     0
102
RTVSPost2010PropOp33
 70
     1
102
RTVSPost2010Prop34
280
     0
102
RTVSPost2010PropOp34
 70
     1
102
RTVSPost2010Prop35
280
     0
102
RTVSPost2010PropOp35
 70
     1
102
RTVSPost2010Prop36
280
     0
102
RTVSPost2010PropOp36
 70
     1
102
RTVSPost2010Prop37
 90
       50
102
RTVSPost2010PropOp37
 70
     1
102
RTVSPost2010Prop38
140
0.0
102
RTVSPost2010PropOp38
 70
     1
102
RTVSPost2010Prop39
140
1.0
102
RTVSPost2010PropOp39
 70
     1
102
RTVSPost2010Prop40
 90
        0
102
RTVSPost2010PropOp40
 70
     1
102
RTVSPost2010Prop41ColorIndex
 90
       18
102
RTVSPost2010Prop41ColorRGB
 90
        0
102
RTVSPost2010PropOp41
 70
     1
102
RTVSPost2010Prop42
 90
       50
102
RTVSPost2010PropOp42
 70
     1
102
RTVSPost2010Prop43
 90
        3
102
RTVSPost2010PropOp43
 70
     1
102
RTVSPost2010Prop44ColorIndex
 90
        5
102
RTVSPost2010Prop44ColorRGB
 90
      255
102
RTVSPost2010PropOp44
 70
     1
102
RTVSPost2010Prop45
280
     0
102
RTVSPost2010PropOp45
 70
     1
102
RTVSPost2010Prop46
 90
       50
102
RTVSPost2010PropOp46
 70
     1
102
RTVSPost2010Prop47
 90
       50
102
RTVSPost2010PropOp47
 70
     1
102
RTVSPost2010Prop48
 90
       50
102
RTVSPost2010PropOp48
 70
     1
102
RTVSPost2010Prop49
280
     0
102
RTVSPost2010PropOp49
 70
     1
102
RTVSPost2010Prop50
 90
       50
102
RTVSPost2010PropOp50
 70
     1
102
RTVSPost2010Prop51ColorIndex
 90
      256
102
RTVSPost2010Prop51ColorRGB
 90
-16777216
102
RTVSPost2010PropOp51
 70
     0
102
RTVSPost2010Prop52
140
1.0
102
RTVSPost2010PropOp52
 70
     0
102
RTVSPost2010Prop53
 90
        2
102
RTVSPost2010PropOp53
 70
     1
102
RTVSPost2010Prop54
  1
strokes_ogs.tif
102
RTVSPost2010PropOp54
 70
     1
102
RTVSPost2010Prop55
280
     0
102
RTVSPost2010PropOp55
 70
     1
102
RTVSPost2010Prop56
140
1.0
102
RTVSPost2010PropOp56
 70
     1
102
RTVSPost2010Prop57
140
1.0
102
RTVSPost2010PropOp57
 70
     1
  0
XRECORD
  5
183
102
{ACAD_REACTORS
330
182
102
}
330
182
100
AcDbXrecord
280
     1
102
RTVSPost2010Prop28
280
     0
102
RTVSPost2010PropOp28
 70
     1
102
RTVSPost2010Prop29
280
     1
102
RTVSPost2010PropOp29
 70
     1
102
RTVSPost2010Prop30
280
     1
102
RTVSPost2010PropOp30
 70
     1
102
RTVSPost2010Prop31
280
     0
102
RTVSPost2010PropOp31
 70
     1
102
RTVSPost2010Prop32
280
     0
102
RTVSPost2010PropOp32
 70
     1
102
RTVSPost2010Prop33
280
     0
102
RTVSPost2010PropOp33
 70
     1
102
RTVSPost2010Prop34
280
     0
102
RTVSPost2010PropOp34
 70
     1
102
RTVSPost2010Prop35
280
     0
102
RTVSPost2010PropOp35
 70
     1
102
RTVSPost2010Prop36
280
     0
102
RTVSPost2010PropOp36
 70
     1
102
RTVSPost2010Prop37
 90
       50
102
RTVSPost2010PropOp37
 70
     1
102
RTVSPost2010Prop38
140
0.0
102
RTVSPost2010PropOp38
 70
     1
102
RTVSPost2010Prop39
140
1.0
102
RTVSPost2010PropOp39
 70
     1
102
RTVSPost2010Prop40
 90
        0
102
RTVSPost2010PropOp40
 70
     1
102
RTVSPost2010Prop41ColorIndex
 90
       18
102
RTVSPost2010Prop41ColorRGB
 90
        0
102
RTVSPost2010PropOp41
 70
     1
102
RTVSPost2010Prop42
 90
       50
102
RTVSPost2010PropOp42
 70
     1
102
RTVSPost2010Prop43
 90
        3
102
RTVSPost2010PropOp43
 70
     1
102
RTVSPost2010Prop44ColorIndex
 90
        5
102
RTVSPost2010Prop44ColorRGB
 90
      255
102
RTVSPost2010PropOp44
 70
     1
102
RTVSPost2010Prop45
280
     0
102
RTVSPost2010PropOp45
 70
     1
102
RTVSPost2010Prop46
 90
       50
102
RTVSPost2010PropOp46
 70
     1
102
RTVSPost2010Prop47
 90
       50
102
RTVSPost2010PropOp47
 70
     1
102
RTVSPost2010Prop48
 90
       50
102
RTVSPost2010PropOp48
 70
     1
102
RTVSPost2010Prop49
280
     0
102
RTVSPost2010PropOp49
 70
     1
102
RTVSPost2010Prop50
 90
       50
102
RTVSPost2010PropOp50
 70
     1
102
RTVSPost2010Prop51ColorIndex
 90
      256
102
RTVSPost2010Prop51ColorRGB
 90
-16777216
102
RTVSPost2010PropOp51
 70
     0
102
RTVSPost2010Prop52
140
1.0
102
RTVSPost2010PropOp52
 70
     0
102
RTVSPost2010Prop53
 90
        2
102
RTVSPost2010PropOp53
 70
     1
102
RTVSPost2010Prop54
  1
strokes_ogs.tif
102
RTVSPost2010PropOp54
 70
     1
102
RTVSPost2010Prop55
280
     0
102
RTVSPost2010PropOp55
 70
     1
102
RTVSPost2010Prop56
140
1.0
102
RTVSPost2010PropOp56
 70
     1
102
RTVSPost2010Prop57
140
1.0
102
RTVSPost2010PropOp57
 70
     1
  0
XRECORD
  5
185
102
{ACAD_REACTORS
330
184
102
}
330
184
100
AcDbXrecord
280
     1
102
RTVSPost2010Prop28
280
     0
102
RTVSPost2010PropOp28
 70
     1
102
RTVSPost2010Prop29
280
     1
102
RTVSPost2010PropOp29
 70
     1
102
RTVSPost2010Prop30
280
     1
102
RTVSPost2010PropOp30
 70
     1
102
RTVSPost2010Prop31
280
     0
102
RTVSPost2010PropOp31
 70
     1
102
RTVSPost2010Prop32
280
     0
102
RTVSPost2010PropOp32
 70
     1
102
RTVSPost2010Prop33
280
     0
102
RTVSPost2010PropOp33
 70
     1
102
RTVSPost2010Prop34
280
     0
102
RTVSPost2010PropOp34
 70
     1
102
RTVSPost2010Prop35
280
     0
102
RTVSPost2010PropOp35
 70
     1
102
RTVSPost2010Prop36
280
     0
102
RTVSPost2010PropOp36
 70
     1
102
RTVSPost2010Prop37
 90
       50
102
RTVSPost2010PropOp37
 70
     1
102
RTVSPost2010Prop38
140
0.0
102
RTVSPost2010PropOp38
 70
     1
102
RTVSPost2010Prop39
140
1.0
102
RTVSPost2010PropOp39
 70
     1
102
RTVSPost2010Prop40
 90
        0
102
RTVSPost2010PropOp40
 70
     1
102
RTVSPost2010Prop41ColorIndex
 90
       18
102
RTVSPost2010Prop41ColorRGB
 90
        0
102
RTVSPost2010PropOp41
 70
     1
102
RTVSPost2010Prop42
 90
       50
102
RTVSPost2010PropOp42
 70
     1
102
RTVSPost2010Prop43
 90
        3
102
RTVSPost2010PropOp43
 70
     1
102
RTVSPost2010Prop44ColorIndex
 90
        5
102
RTVSPost2010Prop44ColorRGB
 90
      255
102
RTVSPost2010PropOp44
 70
     1
102
RTVSPost2010Prop45
280
     0
102
RTVSPost2010PropOp45
 70
     1
102
RTVSPost2010Prop46
 90
       50
102
RTVSPost2010PropOp46
 70
     1
102
RTVSPost2010Prop47
 90
       50
102
RTVSPost2010PropOp47
 70
     1
102
RTVSPost2010Prop48
 90
       50
102
RTVSPost2010PropOp48
 70
     1
102
RTVSPost2010Prop49
280
     0
102
RTVSPost2010PropOp49
 70
     1
102
RTVSPost2010Prop50
 90
       50
102
RTVSPost2010PropOp50
 70
     1
102
RTVSPost2010Prop51ColorIndex
 90
      256
102
RTVSPost2010Prop51ColorRGB
 90
-16777216
102
RTVSPost2010PropOp51
 70
     0
102
RTVSPost2010Prop52
140
1.0
102
RTVSPost2010PropOp52
 70
     0
102
RTVSPost2010Prop53
 90
        2
102
RTVSPost2010PropOp53
 70
     1
102
RTVSPost2010Prop54
  1
strokes_ogs.tif
102
RTVSPost2010PropOp54
 70
     1
102
RTVSPost2010Prop55
280
     0
102
RTVSPost2010PropOp55
 70
     1
102
RTVSPost2010Prop56
140
1.0
102
RTVSPost2010PropOp56
 70
     1
102
RTVSPost2010Prop57
140
1.0
102
RTVSPost2010PropOp57
 70
     1
  0
XRECORD
  5
187
102
{ACAD_REACTORS
330
186
102
}
330
186
100
AcDbXrecord
280
     1
102
RTVSPost2010Prop28
280
     0
102
RTVSPost2010PropOp28
 70
     1
102
RTVSPost2010Prop29
280
     1
102
RTVSPost2010PropOp29
 70
     1
102
RTVSPost2010Prop30
280
     1
102
RTVSPost2010PropOp30
 70
     1
102
RTVSPost2010Prop31
280
     0
102
RTVSPost2010PropOp31
 70
     1
102
RTVSPost2010Prop32
280
     0
102
RTVSPost2010PropOp32
 70
     1
102
RTVSPost2010Prop33
280
     0
102
RTVSPost2010PropOp33
 70
     1
102
RTVSPost2010Prop34
280
     0
102
RTVSPost2010PropOp34
 70
     1
102
RTVSPost2010Prop35
280
     0
102
RTVSPost2010PropOp35
 70
     1
102
RTVSPost2010Prop36
280
     0
102
RTVSPost2010PropOp36
 70
     1
102
RTVSPost2010Prop37
 90
       50
102
RTVSPost2010PropOp37
 70
     1
102
RTVSPost2010Prop38
140
0.0
102
RTVSPost2010PropOp38
 70
     1
102
RTVSPost2010Prop39
140
1.0
102
RTVSPost2010PropOp39
 70
     1
102
RTVSPost2010Prop40
 90
        0
102
RTVSPost2010PropOp40
 70
     1
102
RTVSPost2010Prop41ColorIndex
 90
       18
102
RTVSPost2010Prop41ColorRGB
 90
        0
102
RTVSPost2010PropOp41
 70
     1
102
RTVSPost2010Prop42
 90
       50
102
RTVSPost2010PropOp42
 70
     1
102
RTVSPost2010Prop43
 90
        3
102
RTVSPost2010PropOp43
 70
     1
102
RTVSPost2010Prop44ColorIndex
 90
        5
102
RTVSPost2010Prop44ColorRGB
 90
      255
102
RTVSPost2010PropOp44
 70
     1
102
RTVSPost2010Prop45
280
     0
102
RTVSPost2010PropOp45
 70
     1
102
RTVSPost2010Prop46
 90
       50
102
RTVSPost2010PropOp46
 70
     1
102
RTVSPost2010Prop47
 90
       50
102
RTVSPost2010PropOp47
 70
     1
102
RTVSPost2010Prop48
 90
       50
102
RTVSPost2010PropOp48
 70
     1
102
RTVSPost2010Prop49
280
     0
102
RTVSPost2010PropOp49
 70
     1
102
RTVSPost2010Prop50
 90
       50
102
RTVSPost2010PropOp50
 70
     1
102
RTVSPost2010Prop51ColorIndex
 90
      256
102
RTVSPost2010Prop51ColorRGB
 90
-16777216
102
RTVSPost2010PropOp51
 70
     0
102
RTVSPost2010Prop52
140
1.0
102
RTVSPost2010PropOp52
 70
     0
102
RTVSPost2010Prop53
 90
        2
102
RTVSPost2010PropOp53
 70
     1
102
RTVSPost2010Prop54
  1
strokes_ogs.tif
102
RTVSPost2010PropOp54
 70
     1
102
RTVSPost2010Prop55
280
     0
102
RTVSPost2010PropOp55
 70
     1
102
RTVSPost2010Prop56
140
1.0
102
RTVSPost2010PropOp56
 70
     1
102
RTVSPost2010Prop57
140
1.0
102
RTVSPost2010PropOp57
 70
     1
  0
XRECORD
  5
189
102
{ACAD_REACTORS
330
188
102
}
330
188
100
AcDbXrecord
280
     1
102
RTVSPost2010Prop28
280
     0
102
RTVSPost2010PropOp28
 70
     1
102
RTVSPost2010Prop29
280
     1
102
RTVSPost2010PropOp29
 70
     1
102
RTVSPost2010Prop30
280
     1
102
RTVSPost2010PropOp30
 70
     1
102
RTVSPost2010Prop31
280
     0
102
RTVSPost2010PropOp31
 70
     1
102
RTVSPost2010Prop32
280
     0
102
RTVSPost2010PropOp32
 70
     1
102
RTVSPost2010Prop33
280
     0
102
RTVSPost2010PropOp33
 70
     1
102
RTVSPost2010Prop34
280
     0
102
RTVSPost2010PropOp34
 70
     1
102
RTVSPost2010Prop35
280
     0
102
RTVSPost2010PropOp35
 70
     1
102
RTVSPost2010Prop36
280
     0
102
RTVSPost2010PropOp36
 70
     1
102
RTVSPost2010Prop37
 90
       50
102
RTVSPost2010PropOp37
 70
     1
102
RTVSPost2010Prop38
140
0.0
102
RTVSPost2010PropOp38
 70
     1
102
RTVSPost2010Prop39
140
1.0
102
RTVSPost2010PropOp39
 70
     1
102
RTVSPost2010Prop40
 90
        0
102
RTVSPost2010PropOp40
 70
     1
102
RTVSPost2010Prop41ColorIndex
 90
       18
102
RTVSPost2010Prop41ColorRGB
 90
        0
102
RTVSPost2010PropOp41
 70
     1
102
RTVSPost2010Prop42
 90
       50
102
RTVSPost2010PropOp42
 70
     1
102
RTVSPost2010Prop43
 90
        3
102
RTVSPost2010PropOp43
 70
     1
102
RTVSPost2010Prop44ColorIndex
 90
        5
102
RTVSPost2010Prop44ColorRGB
 90
      255
102
RTVSPost2010PropOp44
 70
     1
102
RTVSPost2010Prop45
280
     0
102
RTVSPost2010PropOp45
 70
     1
102
RTVSPost2010Prop46
 90
       50
102
RTVSPost2010PropOp46
 70
     1
102
RTVSPost2010Prop47
 90
       50
102
RTVSPost2010PropOp47
 70
     1
102
RTVSPost2010Prop48
 90
       50
102
RTVSPost2010PropOp48
 70
     1
102
RTVSPost2010Prop49
280
     0
102
RTVSPost2010PropOp49
 70
     1
102
RTVSPost2010Prop50
 90
       50
102
RTVSPost2010PropOp50
 70
     1
102
RTVSPost2010Prop51ColorIndex
 90
      256
102
RTVSPost2010Prop51ColorRGB
 90
-16777216
102
RTVSPost2010PropOp51
 70
     0
102
RTVSPost2010Prop52
140
1.0
102
RTVSPost2010PropOp52
 70
     0
102
RTVSPost2010Prop53
 90
        2
102
RTVSPost2010PropOp53
 70
     1
102
RTVSPost2010Prop54
  1
strokes_ogs.tif
102
RTVSPost2010PropOp54
 70
     1
102
RTVSPost2010Prop55
280
     0
102
RTVSPost2010PropOp55
 70
     1
102
RTVSPost2010Prop56
140
1.0
102
RTVSPost2010PropOp56
 70
     1
102
RTVSPost2010Prop57
140
1.0
102
RTVSPost2010PropOp57
 70
     1
  0
XRECORD
  5
191
102
{ACAD_REACTORS
330
190
102
}
330
190
100
AcDbXrecord
280
     1
102
RTVSPost2010Prop28
280
     0
102
RTVSPost2010PropOp28
 70
     1
102
RTVSPost2010Prop29
280
     1
102
RTVSPost2010PropOp29
 70
     1
102
RTVSPost2010Prop30
280
     1
102
RTVSPost2010PropOp30
 70
     1
102
RTVSPost2010Prop31
280
     0
102
RTVSPost2010PropOp31
 70
     1
102
RTVSPost2010Prop32
280
     0
102
RTVSPost2010PropOp32
 70
     1
102
RTVSPost2010Prop33
280
     0
102
RTVSPost2010PropOp33
 70
     1
102
RTVSPost2010Prop34
280
     0
102
RTVSPost2010PropOp34
 70
     1
102
RTVSPost2010Prop35
280
     0
102
RTVSPost2010PropOp35
 70
     1
102
RTVSPost2010Prop36
280
     0
102
RTVSPost2010PropOp36
 70
     1
102
RTVSPost2010Prop37
 90
       50
102
RTVSPost2010PropOp37
 70
     1
102
RTVSPost2010Prop38
140
0.0
102
RTVSPost2010PropOp38
 70
     1
102
RTVSPost2010Prop39
140
1.0
102
RTVSPost2010PropOp39
 70
     1
102
RTVSPost2010Prop40
 90
        0
102
RTVSPost2010PropOp40
 70
     1
102
RTVSPost2010Prop41ColorIndex
 90
       18
102
RTVSPost2010Prop41ColorRGB
 90
        0
102
RTVSPost2010PropOp41
 70
     1
102
RTVSPost2010Prop42
 90
       50
102
RTVSPost2010PropOp42
 70
     1
102
RTVSPost2010Prop43
 90
        3
102
RTVSPost2010PropOp43
 70
     1
102
RTVSPost2010Prop44ColorIndex
 90
        5
102
RTVSPost2010Prop44ColorRGB
 90
      255
102
RTVSPost2010PropOp44
 70
     1
102
RTVSPost2010Prop45
280
     0
102
RTVSPost2010PropOp45
 70
     1
102
RTVSPost2010Prop46
 90
       50
102
RTVSPost2010PropOp46
 70
     1
102
RTVSPost2010Prop47
 90
       50
102
RTVSPost2010PropOp47
 70
     1
102
RTVSPost2010Prop48
 90
       50
102
RTVSPost2010PropOp48
 70
     1
102
RTVSPost2010Prop49
280
     0
102
RTVSPost2010PropOp49
 70
     1
102
RTVSPost2010Prop50
 90
       50
102
RTVSPost2010PropOp50
 70
     1
102
RTVSPost2010Prop51ColorIndex
 90
      256
102
RTVSPost2010Prop51ColorRGB
 90
-16777216
102
RTVSPost2010PropOp51
 70
     0
102
RTVSPost2010Prop52
140
1.0
102
RTVSPost2010PropOp52
 70
     0
102
RTVSPost2010Prop53
 90
        2
102
RTVSPost2010PropOp53
 70
     1
102
RTVSPost2010Prop54
  1
strokes_ogs.tif
102
RTVSPost2010PropOp54
 70
     1
102
RTVSPost2010Prop55
280
     0
102
RTVSPost2010PropOp55
 70
     1
102
RTVSPost2010Prop56
140
1.0
102
RTVSPost2010PropOp56
 70
     1
102
RTVSPost2010Prop57
140
1.0
102
RTVSPost2010PropOp57
 70
     1
  0
XRECORD
  5
1AD
102
{ACAD_REACTORS
330
1AC
102
}
330
1AC
100
AcDbXrecord
280
     1
102
RTVSPost2010Prop28
280
     0
102
RTVSPost2010PropOp28
 70
     0
102
RTVSPost2010Prop29
280
     1
102
RTVSPost2010PropOp29
 70
     0
102
RTVSPost2010Prop30
280
     1
102
RTVSPost2010PropOp30
 70
     0
102
RTVSPost2010Prop31
280
     0
102
RTVSPost2010PropOp31
 70
     0
102
RTVSPost2010Prop32
280
     0
102
RTVSPost2010PropOp32
 70
     0
102
RTVSPost2010Prop33
280
     0
102
RTVSPost2010PropOp33
 70
     0
102
RTVSPost2010Prop34
280
     0
102
RTVSPost2010PropOp34
 70
     0
102
RTVSPost2010Prop35
280
     0
102
RTVSPost2010PropOp35
 70
     0
102
RTVSPost2010Prop36
280
     0
102
RTVSPost2010PropOp36
 70
     0
102
RTVSPost2010Prop37
 90
       50
102
RTVSPost2010PropOp37
 70
     0
102
RTVSPost2010Prop38
140
0.0
102
RTVSPost2010PropOp38
 70
     0
102
RTVSPost2010Prop39
140
1.0
102
RTVSPost2010PropOp39
 70
     0
102
RTVSPost2010Prop40
 90
        0
102
RTVSPost2010PropOp40
 70
     0
102
RTVSPost2010Prop41ColorIndex
 90
       18
102
RTVSPost2010Prop41ColorRGB
 90
        0
102
RTVSPost2010PropOp41
 70
     0
102
RTVSPost2010Prop42
 90
       50
102
RTVSPost2010PropOp42
 70
     0
102
RTVSPost2010Prop43
 90
        3
102
RTVSPost2010PropOp43
 70
     0
102
RTVSPost2010Prop44ColorIndex
 90
        5
102
RTVSPost2010Prop44ColorRGB
 90
      255
102
RTVSPost2010PropOp44
 70
     0
102
RTVSPost2010Prop45
280
     0
102
RTVSPost2010PropOp45
 70
     0
102
RTVSPost2010Prop46
 90
       50
102
RTVSPost2010PropOp46
 70
     0
102
RTVSPost2010Prop47
 90
       50
102
RTVSPost2010PropOp47
 70
     0
102
RTVSPost2010Prop48
 90
       50
102
RTVSPost2010PropOp48
 70
     0
102
RTVSPost2010Prop49
280
     0
102
RTVSPost2010PropOp49
 70
     0
102
RTVSPost2010Prop50
 90
       50
102
RTVSPost2010PropOp50
 70
     0
102
RTVSPost2010Prop51ColorIndex
 90
      256
102
RTVSPost2010Prop51ColorRGB
 90
-16777216
102
RTVSPost2010PropOp51
 70
     0
102
RTVSPost2010Prop52
140
1.0
102
RTVSPost2010PropOp52
 70
     0
102
RTVSPost2010Prop53
 90
        2
102
RTVSPost2010PropOp53
 70
     0
102
RTVSPost2010Prop54
  1
strokes_ogs.tif
102
RTVSPost2010PropOp54
 70
     0
102
RTVSPost2010Prop55
280
     0
102
RTVSPost2010PropOp55
 70
     0
102
RTVSPost2010Prop56
140
1.0
102
RTVSPost2010PropOp56
 70
     0
102
RTVSPost2010Prop57
140
1.0
102
RTVSPost2010PropOp57
 70
     0
  0
XRECORD
  5
19D
102
{ACAD_REACTORS
330
19C
102
}
330
19C
100
AcDbXrecord
280
     1
102
RTVSPost2010Prop28
280
     0
102
RTVSPost2010PropOp28
 70
     1
102
RTVSPost2010Prop29
280
     1
102
RTVSPost2010PropOp29
 70
     1
102
RTVSPost2010Prop30
280
     1
102
RTVSPost2010PropOp30
 70
     1
102
RTVSPost2010Prop31
280
     0
102
RTVSPost2010PropOp31
 70
     1
102
RTVSPost2010Prop32
280
     0
102
RTVSPost2010PropOp32
 70
     1
102
RTVSPost2010Prop33
280
     0
102
RTVSPost2010PropOp33
 70
     1
102
RTVSPost2010Prop34
280
     0
102
RTVSPost2010PropOp34
 70
     1
102
RTVSPost2010Prop35
280
     0
102
RTVSPost2010PropOp35
 70
     1
102
RTVSPost2010Prop36
280
     0
102
RTVSPost2010PropOp36
 70
     1
102
RTVSPost2010Prop37
 90
       50
102
RTVSPost2010PropOp37
 70
     1
102
RTVSPost2010Prop38
140
0.0
102
RTVSPost2010PropOp38
 70
     1
102
RTVSPost2010Prop39
140
1.0
102
RTVSPost2010PropOp39
 70
     1
102
RTVSPost2010Prop40
 90
        0
102
RTVSPost2010PropOp40
 70
     1
102
RTVSPost2010Prop41ColorIndex
 90
       18
102
RTVSPost2010Prop41ColorRGB
 90
        0
102
RTVSPost2010PropOp41
 70
     1
102
RTVSPost2010Prop42
 90
       50
102
RTVSPost2010PropOp42
 70
     1
102
RTVSPost2010Prop43
 90
        3
102
RTVSPost2010PropOp43
 70
     1
102
RTVSPost2010Prop44ColorIndex
 90
        5
102
RTVSPost2010Prop44ColorRGB
 90
      255
102
RTVSPost2010PropOp44
 70
     1
102
RTVSPost2010Prop45
280
     0
102
RTVSPost2010PropOp45
 70
     1
102
RTVSPost2010Prop46
 90
       50
102
RTVSPost2010PropOp46
 70
     1
102
RTVSPost2010Prop47
 90
       50
102
RTVSPost2010PropOp47
 70
     1
102
RTVSPost2010Prop48
 90
       50
102
RTVSPost2010PropOp48
 70
     1
102
RTVSPost2010Prop49
280
     0
102
RTVSPost2010PropOp49
 70
     1
102
RTVSPost2010Prop50
 90
       50
102
RTVSPost2010PropOp50
 70
     1
102
RTVSPost2010Prop51ColorIndex
 90
      256
102
RTVSPost2010Prop51ColorRGB
 90
-16777216
102
RTVSPost2010PropOp51
 70
     0
102
RTVSPost2010Prop52
140
1.0
102
RTVSPost2010PropOp52
 70
     0
102
RTVSPost2010Prop53
 90
        2
102
RTVSPost2010PropOp53
 70
     1
102
RTVSPost2010Prop54
  1
strokes_ogs.tif
102
RTVSPost2010PropOp54
 70
     1
102
RTVSPost2010Prop55
280
     0
102
RTVSPost2010PropOp55
 70
     1
102
RTVSPost2010Prop56
140
1.0
102
RTVSPost2010PropOp56
 70
     1
102
RTVSPost2010Prop57
140
1.0
102
RTVSPost2010PropOp57
 70
     1
  0
XRECORD
  5
1AF
102
{ACAD_REACTORS
330
1AE
102
}
330
1AE
100
AcDbXrecord
280
     1
102
RTVSPost2010Prop28
280
     0
102
RTVSPost2010PropOp28
 70
     0
102
RTVSPost2010Prop29
280
     1
102
RTVSPost2010PropOp29
 70
     0
102
RTVSPost2010Prop30
280
     1
102
RTVSPost2010PropOp30
 70
     0
102
RTVSPost2010Prop31
280
     0
102
RTVSPost2010PropOp31
 70
     0
102
RTVSPost2010Prop32
280
     0
102
RTVSPost2010PropOp32
 70
     0
102
RTVSPost2010Prop33
280
     0
102
RTVSPost2010PropOp33
 70
     0
102
RTVSPost2010Prop34
280
     0
102
RTVSPost2010PropOp34
 70
     0
102
RTVSPost2010Prop35
280
     0
102
RTVSPost2010PropOp35
 70
     0
102
RTVSPost2010Prop36
280
     0
102
RTVSPost2010PropOp36
 70
     0
102
RTVSPost2010Prop37
 90
       50
102
RTVSPost2010PropOp37
 70
     0
102
RTVSPost2010Prop38
140
0.0
102
RTVSPost2010PropOp38
 70
     0
102
RTVSPost2010Prop39
140
1.0
102
RTVSPost2010PropOp39
 70
     0
102
RTVSPost2010Prop40
 90
        0
102
RTVSPost2010PropOp40
 70
     0
102
RTVSPost2010Prop41ColorIndex
 90
       18
102
RTVSPost2010Prop41ColorRGB
 90
        0
102
RTVSPost2010PropOp41
 70
     0
102
RTVSPost2010Prop42
 90
       50
102
RTVSPost2010PropOp42
 70
     0
102
RTVSPost2010Prop43
 90
        3
102
RTVSPost2010PropOp43
 70
     0
102
RTVSPost2010Prop44ColorIndex
 90
        5
102
RTVSPost2010Prop44ColorRGB
 90
      255
102
RTVSPost2010PropOp44
 70
     0
102
RTVSPost2010Prop45
280
     0
102
RTVSPost2010PropOp45
 70
     0
102
RTVSPost2010Prop46
 90
       50
102
RTVSPost2010PropOp46
 70
     0
102
RTVSPost2010Prop47
 90
       50
102
RTVSPost2010PropOp47
 70
     0
102
RTVSPost2010Prop48
 90
       50
102
RTVSPost2010PropOp48
 70
     0
102
RTVSPost2010Prop49
280
     0
102
RTVSPost2010PropOp49
 70
     0
102
RTVSPost2010Prop50
 90
       50
102
RTVSPost2010PropOp50
 70
     0
102
RTVSPost2010Prop51ColorIndex
 90
      256
102
RTVSPost2010Prop51ColorRGB
 90
-16777216
102
RTVSPost2010PropOp51
 70
     0
102
RTVSPost2010Prop52
140
1.0
102
RTVSPost2010PropOp52
 70
     0
102
RTVSPost2010Prop53
 90
        2
102
RTVSPost2010PropOp53
 70
     0
102
RTVSPost2010Prop54
  1
strokes_ogs.tif
102
RTVSPost2010PropOp54
 70
     0
102
RTVSPost2010Prop55
280
     0
102
RTVSPost2010PropOp55
 70
     0
102
RTVSPost2010Prop56
140
1.0
102
RTVSPost2010PropOp56
 70
     0
102
RTVSPost2010Prop57
140
1.0
102
RTVSPost2010PropOp57
 70
     0
  0
XRECORD
  5
195
102
{ACAD_REACTORS
330
194
102
}
330
194
100
AcDbXrecord
280
     1
102
RTVSPost2010Prop28
280
     0
102
RTVSPost2010PropOp28
 70
     1
102
RTVSPost2010Prop29
280
     1
102
RTVSPost2010PropOp29
 70
     1
102
RTVSPost2010Prop30
280
     1
102
RTVSPost2010PropOp30
 70
     1
102
RTVSPost2010Prop31
280
     0
102
RTVSPost2010PropOp31
 70
     1
102
RTVSPost2010Prop32
280
     0
102
RTVSPost2010PropOp32
 70
     1
102
RTVSPost2010Prop33
280
     0
102
RTVSPost2010PropOp33
 70
     1
102
RTVSPost2010Prop34
280
     0
102
RTVSPost2010PropOp34
 70
     1
102
RTVSPost2010Prop35
280
     0
102
RTVSPost2010PropOp35
 70
     1
102
RTVSPost2010Prop36
280
     0
102
RTVSPost2010PropOp36
 70
     1
102
RTVSPost2010Prop37
 90
       50
102
RTVSPost2010PropOp37
 70
     1
102
RTVSPost2010Prop38
140
0.0
102
RTVSPost2010PropOp38
 70
     1
102
RTVSPost2010Prop39
140
1.0
102
RTVSPost2010PropOp39
 70
     1
102
RTVSPost2010Prop40
 90
        0
102
RTVSPost2010PropOp40
 70
     1
102
RTVSPost2010Prop41ColorIndex
 90
       18
102
RTVSPost2010Prop41ColorRGB
 90
        0
102
RTVSPost2010PropOp41
 70
     1
102
RTVSPost2010Prop42
 90
       50
102
RTVSPost2010PropOp42
 70
     1
102
RTVSPost2010Prop43
 90
        3
102
RTVSPost2010PropOp43
 70
     1
102
RTVSPost2010Prop44ColorIndex
 90
        5
102
RTVSPost2010Prop44ColorRGB
 90
      255
102
RTVSPost2010PropOp44
 70
     1
102
RTVSPost2010Prop45
280
     0
102
RTVSPost2010PropOp45
 70
     1
102
RTVSPost2010Prop46
 90
       50
102
RTVSPost2010PropOp46
 70
     1
102
RTVSPost2010Prop47
 90
       50
102
RTVSPost2010PropOp47
 70
     1
102
RTVSPost2010Prop48
 90
       50
102
RTVSPost2010PropOp48
 70
     1
102
RTVSPost2010Prop49
280
     0
102
RTVSPost2010PropOp49
 70
     1
102
RTVSPost2010Prop50
 90
       50
102
RTVSPost2010PropOp50
 70
     1
102
RTVSPost2010Prop51ColorIndex
 90
      256
102
RTVSPost2010Prop51ColorRGB
 90
-16777216
102
RTVSPost2010PropOp51
 70
     0
102
RTVSPost2010Prop52
140
1.0
102
RTVSPost2010PropOp52
 70
     0
102
RTVSPost2010Prop53
 90
        2
102
RTVSPost2010PropOp53
 70
     1
102
RTVSPost2010Prop54
  1
strokes_ogs.tif
102
RTVSPost2010PropOp54
 70
     1
102
RTVSPost2010Prop55
280
     0
102
RTVSPost2010PropOp55
 70
     1
102
RTVSPost2010Prop56
140
1.0
102
RTVSPost2010PropOp56
 70
     1
102
RTVSPost2010Prop57
140
1.0
102
RTVSPost2010PropOp57
 70
     1
  0
XRECORD
  5
1AB
102
{ACAD_REACTORS
330
1AA
102
}
330
1AA
100
AcDbXrecord
280
     1
102
RTVSPost2010Prop28
280
     0
102
RTVSPost2010PropOp28
 70
     1
102
RTVSPost2010Prop29
280
     1
102
RTVSPost2010PropOp29
 70
     1
102
RTVSPost2010Prop30
280
     1
102
RTVSPost2010PropOp30
 70
     1
102
RTVSPost2010Prop31
280
     0
102
RTVSPost2010PropOp31
 70
     1
102
RTVSPost2010Prop32
280
     0
102
RTVSPost2010PropOp32
 70
     1
102
RTVSPost2010Prop33
280
     0
102
RTVSPost2010PropOp33
 70
     1
102
RTVSPost2010Prop34
280
     0
102
RTVSPost2010PropOp34
 70
     1
102
RTVSPost2010Prop35
280
     0
102
RTVSPost2010PropOp35
 70
     1
102
RTVSPost2010Prop36
280
     0
102
RTVSPost2010PropOp36
 70
     1
102
RTVSPost2010Prop37
 90
       50
102
RTVSPost2010PropOp37
 70
     1
102
RTVSPost2010Prop38
140
0.0
102
RTVSPost2010PropOp38
 70
     1
102
RTVSPost2010Prop39
140
1.0
102
RTVSPost2010PropOp39
 70
     1
102
RTVSPost2010Prop40
 90
        0
102
RTVSPost2010PropOp40
 70
     1
102
RTVSPost2010Prop41ColorIndex
 90
       18
102
RTVSPost2010Prop41ColorRGB
 90
        0
102
RTVSPost2010PropOp41
 70
     1
102
RTVSPost2010Prop42
 90
       50
102
RTVSPost2010PropOp42
 70
     1
102
RTVSPost2010Prop43
 90
        3
102
RTVSPost2010PropOp43
 70
     1
102
RTVSPost2010Prop44ColorIndex
 90
        5
102
RTVSPost2010Prop44ColorRGB
 90
      255
102
RTVSPost2010PropOp44
 70
     1
102
RTVSPost2010Prop45
280
     0
102
RTVSPost2010PropOp45
 70
     1
102
RTVSPost2010Prop46
 90
       50
102
RTVSPost2010PropOp46
 70
     1
102
RTVSPost2010Prop47
 90
       50
102
RTVSPost2010PropOp47
 70
     1
102
RTVSPost2010Prop48
 90
       50
102
RTVSPost2010PropOp48
 70
     1
102
RTVSPost2010Prop49
280
     0
102
RTVSPost2010PropOp49
 70
     1
102
RTVSPost2010Prop50
 90
       50
102
RTVSPost2010PropOp50
 70
     1
102
RTVSPost2010Prop51ColorIndex
 90
      256
102
RTVSPost2010Prop51ColorRGB
 90
-16777216
102
RTVSPost2010PropOp51
 70
     0
102
RTVSPost2010Prop52
140
1.0
102
RTVSPost2010PropOp52
 70
     0
102
RTVSPost2010Prop53
 90
        2
102
RTVSPost2010PropOp53
 70
     1
102
RTVSPost2010Prop54
  1
strokes_ogs.tif
102
RTVSPost2010PropOp54
 70
     1
102
RTVSPost2010Prop55
280
     0
102
RTVSPost2010PropOp55
 70
     1
102
RTVSPost2010Prop56
140
1.0
102
RTVSPost2010PropOp56
 70
     1
102
RTVSPost2010Prop57
140
1.0
102
RTVSPost2010PropOp57
 70
     1
  0
XRECORD
  5
1A9
102
{ACAD_REACTORS
330
1A8
102
}
330
1A8
100
AcDbXrecord
280
     1
102
RTVSPost2010Prop28
280
     0
102
RTVSPost2010PropOp28
 70
     1
102
RTVSPost2010Prop29
280
     1
102
RTVSPost2010PropOp29
 70
     1
102
RTVSPost2010Prop30
280
     1
102
RTVSPost2010PropOp30
 70
     1
102
RTVSPost2010Prop31
280
     0
102
RTVSPost2010PropOp31
 70
     1
102
RTVSPost2010Prop32
280
     0
102
RTVSPost2010PropOp32
 70
     1
102
RTVSPost2010Prop33
280
     0
102
RTVSPost2010PropOp33
 70
     1
102
RTVSPost2010Prop34
280
     0
102
RTVSPost2010PropOp34
 70
     1
102
RTVSPost2010Prop35
280
     0
102
RTVSPost2010PropOp35
 70
     1
102
RTVSPost2010Prop36
280
     0
102
RTVSPost2010PropOp36
 70
     1
102
RTVSPost2010Prop37
 90
       50
102
RTVSPost2010PropOp37
 70
     1
102
RTVSPost2010Prop38
140
0.0
102
RTVSPost2010PropOp38
 70
     1
102
RTVSPost2010Prop39
140
1.0
102
RTVSPost2010PropOp39
 70
     1
102
RTVSPost2010Prop40
 90
        0
102
RTVSPost2010PropOp40
 70
     1
102
RTVSPost2010Prop41ColorIndex
 90
       18
102
RTVSPost2010Prop41ColorRGB
 90
        0
102
RTVSPost2010PropOp41
 70
     1
102
RTVSPost2010Prop42
 90
       50
102
RTVSPost2010PropOp42
 70
     1
102
RTVSPost2010Prop43
 90
        3
102
RTVSPost2010PropOp43
 70
     1
102
RTVSPost2010Prop44ColorIndex
 90
        5
102
RTVSPost2010Prop44ColorRGB
 90
      255
102
RTVSPost2010PropOp44
 70
     1
102
RTVSPost2010Prop45
280
     0
102
RTVSPost2010PropOp45
 70
     1
102
RTVSPost2010Prop46
 90
       50
102
RTVSPost2010PropOp46
 70
     1
102
RTVSPost2010Prop47
 90
       50
102
RTVSPost2010PropOp47
 70
     1
102
RTVSPost2010Prop48
 90
       50
102
RTVSPost2010PropOp48
 70
     1
102
RTVSPost2010Prop49
280
     0
102
RTVSPost2010PropOp49
 70
     1
102
RTVSPost2010Prop50
 90
       50
102
RTVSPost2010PropOp50
 70
     1
102
RTVSPost2010Prop51ColorIndex
 90
      256
102
RTVSPost2010Prop51ColorRGB
 90
-16777216
102
RTVSPost2010PropOp51
 70
     0
102
RTVSPost2010Prop52
140
1.0
102
RTVSPost2010PropOp52
 70
     0
102
RTVSPost2010Prop53
 90
        2
102
RTVSPost2010PropOp53
 70
     1
102
RTVSPost2010Prop54
  1
strokes_ogs.tif
102
RTVSPost2010PropOp54
 70
     1
102
RTVSPost2010Prop55
280
     0
102
RTVSPost2010PropOp55
 70
     1
102
RTVSPost2010Prop56
140
1.0
102
RTVSPost2010PropOp56
 70
     1
102
RTVSPost2010Prop57
140
1.0
102
RTVSPost2010PropOp57
 70
     1
  0
XRECORD
  5
1A3
102
{ACAD_REACTORS
330
1A2
102
}
330
1A2
100
AcDbXrecord
280
     1
102
RTVSPost2010Prop28
280
     0
102
RTVSPost2010PropOp28
 70
     1
102
RTVSPost2010Prop29
280
     1
102
RTVSPost2010PropOp29
 70
     1
102
RTVSPost2010Prop30
280
     1
102
RTVSPost2010PropOp30
 70
     1
102
RTVSPost2010Prop31
280
     0
102
RTVSPost2010PropOp31
 70
     1
102
RTVSPost2010Prop32
280
     0
102
RTVSPost2010PropOp32
 70
     1
102
RTVSPost2010Prop33
280
     0
102
RTVSPost2010PropOp33
 70
     1
102
RTVSPost2010Prop34
280
     0
102
RTVSPost2010PropOp34
 70
     1
102
RTVSPost2010Prop35
280
     0
102
RTVSPost2010PropOp35
 70
     1
102
RTVSPost2010Prop36
280
     0
102
RTVSPost2010PropOp36
 70
     1
102
RTVSPost2010Prop37
 90
       50
102
RTVSPost2010PropOp37
 70
     1
102
RTVSPost2010Prop38
140
0.0
102
RTVSPost2010PropOp38
 70
     1
102
RTVSPost2010Prop39
140
1.0
102
RTVSPost2010PropOp39
 70
     1
102
RTVSPost2010Prop40
 90
        0
102
RTVSPost2010PropOp40
 70
     1
102
RTVSPost2010Prop41ColorIndex
 90
       18
102
RTVSPost2010Prop41ColorRGB
 90
        0
102
RTVSPost2010PropOp41
 70
     1
102
RTVSPost2010Prop42
 90
       50
102
RTVSPost2010PropOp42
 70
     1
102
RTVSPost2010Prop43
 90
        3
102
RTVSPost2010PropOp43
 70
     1
102
RTVSPost2010Prop44ColorIndex
 90
        5
102
RTVSPost2010Prop44ColorRGB
 90
      255
102
RTVSPost2010PropOp44
 70
     1
102
RTVSPost2010Prop45
280
     0
102
RTVSPost2010PropOp45
 70
     1
102
RTVSPost2010Prop46
 90
       50
102
RTVSPost2010PropOp46
 70
     1
102
RTVSPost2010Prop47
 90
       50
102
RTVSPost2010PropOp47
 70
     1
102
RTVSPost2010Prop48
 90
       50
102
RTVSPost2010PropOp48
 70
     1
102
RTVSPost2010Prop49
280
     0
102
RTVSPost2010PropOp49
 70
     1
102
RTVSPost2010Prop50
 90
       50
102
RTVSPost2010PropOp50
 70
     1
102
RTVSPost2010Prop51ColorIndex
 90
      256
102
RTVSPost2010Prop51ColorRGB
 90
-16777216
102
RTVSPost2010PropOp51
 70
     0
102
RTVSPost2010Prop52
140
1.0
102
RTVSPost2010PropOp52
 70
     0
102
RTVSPost2010Prop53
 90
        2
102
RTVSPost2010PropOp53
 70
     1
102
RTVSPost2010Prop54
  1
strokes_ogs.tif
102
RTVSPost2010PropOp54
 70
     1
102
RTVSPost2010Prop55
280
     0
102
RTVSPost2010PropOp55
 70
     1
102
RTVSPost2010Prop56
140
1.0
102
RTVSPost2010PropOp56
 70
     1
102
RTVSPost2010Prop57
140
1.0
102
RTVSPost2010PropOp57
 70
     1
  0
XRECORD
  5
1A5
102
{ACAD_REACTORS
330
1A4
102
}
330
1A4
100
AcDbXrecord
280
     1
102
RTVSPost2010Prop28
280
     0
102
RTVSPost2010PropOp28
 70
     1
102
RTVSPost2010Prop29
280
     1
102
RTVSPost2010PropOp29
 70
     1
102
RTVSPost2010Prop30
280
     1
102
RTVSPost2010PropOp30
 70
     1
102
RTVSPost2010Prop31
280
     0
102
RTVSPost2010PropOp31
 70
     1
102
RTVSPost2010Prop32
280
     0
102
RTVSPost2010PropOp32
 70
     1
102
RTVSPost2010Prop33
280
     0
102
RTVSPost2010PropOp33
 70
     1
102
RTVSPost2010Prop34
280
     0
102
RTVSPost2010PropOp34
 70
     1
102
RTVSPost2010Prop35
280
     0
102
RTVSPost2010PropOp35
 70
     1
102
RTVSPost2010Prop36
280
     0
102
RTVSPost2010PropOp36
 70
     1
102
RTVSPost2010Prop37
 90
       50
102
RTVSPost2010PropOp37
 70
     1
102
RTVSPost2010Prop38
140
0.0
102
RTVSPost2010PropOp38
 70
     1
102
RTVSPost2010Prop39
140
1.0
102
RTVSPost2010PropOp39
 70
     1
102
RTVSPost2010Prop40
 90
        0
102
RTVSPost2010PropOp40
 70
     1
102
RTVSPost2010Prop41ColorIndex
 90
       18
102
RTVSPost2010Prop41ColorRGB
 90
        0
102
RTVSPost2010PropOp41
 70
     1
102
RTVSPost2010Prop42
 90
       50
102
RTVSPost2010PropOp42
 70
     1
102
RTVSPost2010Prop43
 90
        3
102
RTVSPost2010PropOp43
 70
     1
102
RTVSPost2010Prop44ColorIndex
 90
        5
102
RTVSPost2010Prop44ColorRGB
 90
      255
102
RTVSPost2010PropOp44
 70
     1
102
RTVSPost2010Prop45
280
     0
102
RTVSPost2010PropOp45
 70
     1
102
RTVSPost2010Prop46
 90
       50
102
RTVSPost2010PropOp46
 70
     1
102
RTVSPost2010Prop47
 90
       50
102
RTVSPost2010PropOp47
 70
     1
102
RTVSPost2010Prop48
 90
       50
102
RTVSPost2010PropOp48
 70
     1
102
RTVSPost2010Prop49
280
     0
102
RTVSPost2010PropOp49
 70
     1
102
RTVSPost2010Prop50
 90
       50
102
RTVSPost2010PropOp50
 70
     1
102
RTVSPost2010Prop51ColorIndex
 90
      256
102
RTVSPost2010Prop51ColorRGB
 90
-16777216
102
RTVSPost2010PropOp51
 70
     0
102
RTVSPost2010Prop52
140
1.0
102
RTVSPost2010PropOp52
 70
     0
102
RTVSPost2010Prop53
 90
        2
102
RTVSPost2010PropOp53
 70
     1
102
RTVSPost2010Prop54
  1
strokes_ogs.tif
102
RTVSPost2010PropOp54
 70
     1
102
RTVSPost2010Prop55
280
     0
102
RTVSPost2010PropOp55
 70
     1
102
RTVSPost2010Prop56
140
1.0
102
RTVSPost2010PropOp56
 70
     1
102
RTVSPost2010Prop57
140
1.0
102
RTVSPost2010PropOp57
 70
     1
  0
XRECORD
  5
19B
102
{ACAD_REACTORS
330
19A
102
}
330
19A
100
AcDbXrecord
280
     1
102
RTVSPost2010Prop28
280
     0
102
RTVSPost2010PropOp28
 70
     1
102
RTVSPost2010Prop29
280
     1
102
RTVSPost2010PropOp29
 70
     1
102
RTVSPost2010Prop30
280
     1
102
RTVSPost2010PropOp30
 70
     1
102
RTVSPost2010Prop31
280
     0
102
RTVSPost2010PropOp31
 70
     1
102
RTVSPost2010Prop32
280
     0
102
RTVSPost2010PropOp32
 70
     1
102
RTVSPost2010Prop33
280
     0
102
RTVSPost2010PropOp33
 70
     1
102
RTVSPost2010Prop34
280
     0
102
RTVSPost2010PropOp34
 70
     1
102
RTVSPost2010Prop35
280
     0
102
RTVSPost2010PropOp35
 70
     1
102
RTVSPost2010Prop36
280
     0
102
RTVSPost2010PropOp36
 70
     1
102
RTVSPost2010Prop37
 90
       50
102
RTVSPost2010PropOp37
 70
     1
102
RTVSPost2010Prop38
140
0.0
102
RTVSPost2010PropOp38
 70
     1
102
RTVSPost2010Prop39
140
1.0
102
RTVSPost2010PropOp39
 70
     1
102
RTVSPost2010Prop40
 90
        0
102
RTVSPost2010PropOp40
 70
     1
102
RTVSPost2010Prop41ColorIndex
 90
       18
102
RTVSPost2010Prop41ColorRGB
 90
        0
102
RTVSPost2010PropOp41
 70
     1
102
RTVSPost2010Prop42
 90
       50
102
RTVSPost2010PropOp42
 70
     1
102
RTVSPost2010Prop43
 90
        3
102
RTVSPost2010PropOp43
 70
     1
102
RTVSPost2010Prop44ColorIndex
 90
        5
102
RTVSPost2010Prop44ColorRGB
 90
      255
102
RTVSPost2010PropOp44
 70
     1
102
RTVSPost2010Prop45
280
     0
102
RTVSPost2010PropOp45
 70
     1
102
RTVSPost2010Prop46
 90
       50
102
RTVSPost2010PropOp46
 70
     1
102
RTVSPost2010Prop47
 90
       50
102
RTVSPost2010PropOp47
 70
     1
102
RTVSPost2010Prop48
 90
       50
102
RTVSPost2010PropOp48
 70
     1
102
RTVSPost2010Prop49
280
     0
102
RTVSPost2010PropOp49
 70
     1
102
RTVSPost2010Prop50
 90
       50
102
RTVSPost2010PropOp50
 70
     1
102
RTVSPost2010Prop51ColorIndex
 90
      256
102
RTVSPost2010Prop51ColorRGB
 90
-16777216
102
RTVSPost2010PropOp51
 70
     0
102
RTVSPost2010Prop52
140
1.0
102
RTVSPost2010PropOp52
 70
     0
102
RTVSPost2010Prop53
 90
        2
102
RTVSPost2010PropOp53
 70
     1
102
RTVSPost2010Prop54
  1
strokes_ogs.tif
102
RTVSPost2010PropOp54
 70
     1
102
RTVSPost2010Prop55
280
     0
102
RTVSPost2010PropOp55
 70
     1
102
RTVSPost2010Prop56
140
1.0
102
RTVSPost2010PropOp56
 70
     1
102
RTVSPost2010Prop57
140
1.0
102
RTVSPost2010PropOp57
 70
     1
  0
XRECORD
  5
18F
102
{ACAD_REACTORS
330
18E
102
}
330
18E
100
AcDbXrecord
280
     1
102
RTVSPost2010Prop28
280
     0
102
RTVSPost2010PropOp28
 70
     1
102
RTVSPost2010Prop29
280
     1
102
RTVSPost2010PropOp29
 70
     1
102
RTVSPost2010Prop30
280
     1
102
RTVSPost2010PropOp30
 70
     1
102
RTVSPost2010Prop31
280
     0
102
RTVSPost2010PropOp31
 70
     1
102
RTVSPost2010Prop32
280
     0
102
RTVSPost2010PropOp32
 70
     1
102
RTVSPost2010Prop33
280
     0
102
RTVSPost2010PropOp33
 70
     1
102
RTVSPost2010Prop34
280
     0
102
RTVSPost2010PropOp34
 70
     1
102
RTVSPost2010Prop35
280
     0
102
RTVSPost2010PropOp35
 70
     1
102
RTVSPost2010Prop36
280
     0
102
RTVSPost2010PropOp36
 70
     1
102
RTVSPost2010Prop37
 90
       50
102
RTVSPost2010PropOp37
 70
     1
102
RTVSPost2010Prop38
140
0.0
102
RTVSPost2010PropOp38
 70
     1
102
RTVSPost2010Prop39
140
1.0
102
RTVSPost2010PropOp39
 70
     1
102
RTVSPost2010Prop40
 90
        0
102
RTVSPost2010PropOp40
 70
     1
102
RTVSPost2010Prop41ColorIndex
 90
       18
102
RTVSPost2010Prop41ColorRGB
 90
        0
102
RTVSPost2010PropOp41
 70
     1
102
RTVSPost2010Prop42
 90
       50
102
RTVSPost2010PropOp42
 70
     1
102
RTVSPost2010Prop43
 90
        3
102
RTVSPost2010PropOp43
 70
     1
102
RTVSPost2010Prop44ColorIndex
 90
        5
102
RTVSPost2010Prop44ColorRGB
 90
      255
102
RTVSPost2010PropOp44
 70
     1
102
RTVSPost2010Prop45
280
     0
102
RTVSPost2010PropOp45
 70
     1
102
RTVSPost2010Prop46
 90
       50
102
RTVSPost2010PropOp46
 70
     1
102
RTVSPost2010Prop47
 90
       50
102
RTVSPost2010PropOp47
 70
     1
102
RTVSPost2010Prop48
 90
       50
102
RTVSPost2010PropOp48
 70
     1
102
RTVSPost2010Prop49
280
     0
102
RTVSPost2010PropOp49
 70
     1
102
RTVSPost2010Prop50
 90
       50
102
RTVSPost2010PropOp50
 70
     1
102
RTVSPost2010Prop51ColorIndex
 90
      256
102
RTVSPost2010Prop51ColorRGB
 90
-16777216
102
RTVSPost2010PropOp51
 70
     0
102
RTVSPost2010Prop52
140
1.0
102
RTVSPost2010PropOp52
 70
     0
102
RTVSPost2010Prop53
 90
        2
102
RTVSPost2010PropOp53
 70
     1
102
RTVSPost2010Prop54
  1
strokes_ogs.tif
102
RTVSPost2010PropOp54
 70
     1
102
RTVSPost2010Prop55
280
     0
102
RTVSPost2010PropOp55
 70
     1
102
RTVSPost2010Prop56
140
1.0
102
RTVSPost2010PropOp56
 70
     1
102
RTVSPost2010Prop57
140
1.0
102
RTVSPost2010PropOp57
 70
     1
  0
XRECORD
  5
1A7
102
{ACAD_REACTORS
330
1A6
102
}
330
1A6
100
AcDbXrecord
280
     1
102
RTVSPost2010Prop28
280
     0
102
RTVSPost2010PropOp28
 70
     1
102
RTVSPost2010Prop29
280
     1
102
RTVSPost2010PropOp29
 70
     1
102
RTVSPost2010Prop30
280
     1
102
RTVSPost2010PropOp30
 70
     1
102
RTVSPost2010Prop31
280
     0
102
RTVSPost2010PropOp31
 70
     1
102
RTVSPost2010Prop32
280
     0
102
RTVSPost2010PropOp32
 70
     1
102
RTVSPost2010Prop33
280
     0
102
RTVSPost2010PropOp33
 70
     1
102
RTVSPost2010Prop34
280
     0
102
RTVSPost2010PropOp34
 70
     1
102
RTVSPost2010Prop35
280
     0
102
RTVSPost2010PropOp35
 70
     1
102
RTVSPost2010Prop36
280
     0
102
RTVSPost2010PropOp36
 70
     1
102
RTVSPost2010Prop37
 90
       50
102
RTVSPost2010PropOp37
 70
     1
102
RTVSPost2010Prop38
140
0.0
102
RTVSPost2010PropOp38
 70
     1
102
RTVSPost2010Prop39
140
1.0
102
RTVSPost2010PropOp39
 70
     1
102
RTVSPost2010Prop40
 90
        0
102
RTVSPost2010PropOp40
 70
     1
102
RTVSPost2010Prop41ColorIndex
 90
       18
102
RTVSPost2010Prop41ColorRGB
 90
        0
102
RTVSPost2010PropOp41
 70
     1
102
RTVSPost2010Prop42
 90
       50
102
RTVSPost2010PropOp42
 70
     1
102
RTVSPost2010Prop43
 90
        3
102
RTVSPost2010PropOp43
 70
     1
102
RTVSPost2010Prop44ColorIndex
 90
        5
102
RTVSPost2010Prop44ColorRGB
 90
      255
102
RTVSPost2010PropOp44
 70
     1
102
RTVSPost2010Prop45
280
     0
102
RTVSPost2010PropOp45
 70
     1
102
RTVSPost2010Prop46
 90
       50
102
RTVSPost2010PropOp46
 70
     1
102
RTVSPost2010Prop47
 90
       50
102
RTVSPost2010PropOp47
 70
     1
102
RTVSPost2010Prop48
 90
       50
102
RTVSPost2010PropOp48
 70
     1
102
RTVSPost2010Prop49
280
     0
102
RTVSPost2010PropOp49
 70
     1
102
RTVSPost2010Prop50
 90
       50
102
RTVSPost2010PropOp50
 70
     1
102
RTVSPost2010Prop51ColorIndex
 90
      256
102
RTVSPost2010Prop51ColorRGB
 90
-16777216
102
RTVSPost2010PropOp51
 70
     0
102
RTVSPost2010Prop52
140
1.0
102
RTVSPost2010PropOp52
 70
     0
102
RTVSPost2010Prop53
 90
        2
102
RTVSPost2010PropOp53
 70
     1
102
RTVSPost2010Prop54
  1
strokes_ogs.tif
102
RTVSPost2010PropOp54
 70
     1
102
RTVSPost2010Prop55
280
     0
102
RTVSPost2010PropOp55
 70
     1
102
RTVSPost2010Prop56
140
1.0
102
RTVSPost2010PropOp56
 70
     1
102
RTVSPost2010Prop57
140
1.0
102
RTVSPost2010PropOp57
 70
     1
  0
ENDSEC
  0
EOF
