  0
SECTION
  2
HEADER
  9
$ACADVER
  1
AC1024
  9
$ACADMAINTVER
 70
   226
  9
$DWGCODEPAGE
  3
ANSI_932
  9
$INSBASE
 10
0.0
 20
0.0
 30
0.0
  9
$EXTMIN
 10
1.000000000000000E+20
 20
1.000000000000000E+20
 30
1.000000000000000E+20
  9
$EXTMAX
 10
-1.000000000000000E+20
 20
-1.000000000000000E+20
 30
-1.000000000000000E+20
  9
$LIMMIN
 10
0.0
 20
0.0
  9
$LIMMAX
 10
12.0
 20
9.0
  9
$ORTHOMODE
 70
     0
  9
$REGENMODE
 70
     1
  9
$FILLMODE
 70
     1
  9
$QTEXTMODE
 70
     0
  9
$MIRRTEXT
 70
     0
  9
$LTSCALE
 40
1.0
  9
$ATTMODE
 70
     1
  9
$TEXTSIZE
 40
0.2
  9
$TRACEWID
 40
0.05
  9
$TEXTSTYLE
  7
Standard
  9
$CLAYER
  8
0
  9
$CELTYPE
  6
ByLayer
  9
$CECOLOR
 62
   256
  9
$CELTSCALE
 40
1.0
  9
$DISPSILH
 70
     0
  9
$DIMSCALE
 40
1.0
  9
$DIMASZ
 40
0.18
  9
$DIMEXO
 40
0.0625
  9
$DIMDLI
 40
0.38
  9
$DIMRND
 40
0.0
  9
$DIMDLE
 40
0.0
  9
$DIMEXE
 40
0.18
  9
$DIMTP
 40
0.0
  9
$DIMTM
 40
0.0
  9
$DIMTXT
 40
0.18
  9
$DIMCEN
 40
0.09
  9
$DIMTSZ
 40
0.0
  9
$DIMTOL
 70
     0
  9
$DIMLIM
 70
     0
  9
$DIMTIH
 70
     1
  9
$DIMTOH
 70
     1
  9
$DIMSE1
 70
     0
  9
$DIMSE2
 70
     0
  9
$DIMTAD
 70
     0
  9
$DIMZIN
 70
     0
  9
$DIMBLK
  1

  9
$DIMASO
 70
     1
  9
$DIMSHO
 70
     1
  9
$DIMPOST
  1

  9
$DIMAPOST
  1

  9
$DIMALT
 70
     0
  9
$DIMALTD
 70
     2
  9
$DIMALTF
 40
25.4
  9
$DIMLFAC
 40
1.0
  9
$DIMTOFL
 70
     0
  9
$DIMTVP
 40
0.0
  9
$DIMTIX
 70
     0
  9
$DIMSOXD
 70
     0
  9
$DIMSAH
 70
     0
  9
$DIMBLK1
  1

  9
$DIMBLK2
  1

  9
$DIMSTYLE
  2
Standard
  9
$DIMCLRD
 70
     0
  9
$DIMCLRE
 70
     0
  9
$DIMCLRT
 70
     0
  9
$DIMTFAC
 40
1.0
  9
$DIMGAP
 40
0.09
  9
$DIMJUST
 70
     0
  9
$DIMSD1
 70
     0
  9
$DIMSD2
 70
     0
  9
$DIMTOLJ
 70
     1
  9
$DIMTZIN
 70
     0
  9
$DIMALTZ
 70
     0
  9
$DIMALTTZ
 70
     0
  9
$DIMUPT
 70
     0
  9
$DIMDEC
 70
     4
  9
$DIMTDEC
 70
     4
  9
$DIMALTU
 70
     2
  9
$DIMALTTD
 70
     2
  9
$DIMTXSTY
  7
Standard
  9
$DIMAUNIT
 70
     0
  9
$DIMADEC
 70
     0
  9
$DIMALTRND
 40
0.0
  9
$DIMAZIN
 70
     0
  9
$DIMDSEP
 70
    46
  9
$DIMATFIT
 70
     3
  9
$DIMFRAC
 70
     0
  9
$DIMLDRBLK
  1

  9
$DIMLUNIT
 70
     2
  9
$DIMLWD
 70
    -2
  9
$DIMLWE
 70
    -2
  9
$DIMTMOVE
 70
     0
  9
$DIMFXL
 40
1.0
  9
$DIMFXLON
 70
     0
  9
$DIMJOGANG
 40
0.7853981633974483
  9
$DIMTFILL
 70
     0
  9
$DIMTFILLCLR
 70
     0
  9
$DIMARCSYM
 70
     0
  9
$DIMLTYPE
  6

  9
$DIMLTEX1
  6

  9
$DIMLTEX2
  6

  9
$DIMTXTDIRECTION
 70
     0
  9
$LUNITS
 70
     2
  9
$LUPREC
 70
     4
  9
$SKETCHINC
 40
0.1
  9
$FILLETRAD
 40
0.0
  9
$AUNITS
 70
     0
  9
$AUPREC
 70
     0
  9
$MENU
  1
.
  9
$ELEVATION
 40
0.0
  9
$PELEVATION
 40
0.0
  9
$THICKNESS
 40
0.0
  9
$LIMCHECK
 70
     0
  9
$CHAMFERA
 40
0.0
  9
$CHAMFERB
 40
0.0
  9
$CHAMFERC
 40
0.0
  9
$CHAMFERD
 40
0.0
  9
$SKPOLY
 70
     0
  9
$TDCREATE
 40
2459569.503865741
  9
$TDUCREATE
 40
2459569.128865741
  9
$TDUPDATE
 40
2459569.503865741
  9
$TDUUPDATE
 40
2459569.128865741
  9
$TDINDWG
 40
0.0000000000
  9
$TDUSRTIMER
 40
0.0000000000
  9
$USRTIMER
 70
     1
  9
$ANGBASE
 50
0.0
  9
$ANGDIR
 70
     0
  9
$PDMODE
 70
     0
  9
$PDSIZE
 40
0.0
  9
$PLINEWID
 40
0.0
  9
$SPLFRAME
 70
     0
  9
$SPLINETYPE
 70
     6
  9
$SPLINESEGS
 70
     8
  9
$HANDSEED
  5
19A
  9
$SURFTAB1
 70
     6
  9
$SURFTAB2
 70
     6
  9
$SURFTYPE
 70
     6
  9
$SURFU
 70
     6
  9
$SURFV
 70
     6
  9
$UCSBASE
  2

  9
$UCSNAME
  2

  9
$UCSORG
 10
0.0
 20
0.0
 30
0.0
  9
$UCSXDIR
 10
1.0
 20
0.0
 30
0.0
  9
$UCSYDIR
 10
0.0
 20
1.0
 30
0.0
  9
$UCSORTHOREF
  2

  9
$UCSORTHOVIEW
 70
     0
  9
$UCSORGTOP
 10
0.0
 20
0.0
 30
0.0
  9
$UCSORGBOTTOM
 10
0.0
 20
0.0
 30
0.0
  9
$UCSORGLEFT
 10
0.0
 20
0.0
 30
0.0
  9
$UCSORGRIGHT
 10
0.0
 20
0.0
 30
0.0
  9
$UCSORGFRONT
 10
0.0
 20
0.0
 30
0.0
  9
$UCSORGBACK
 10
0.0
 20
0.0
 30
0.0
  9
$PUCSBASE
  2

  9
$PUCSNAME
  2

  9
$PUCSORG
 10
0.0
 20
0.0
 30
0.0
  9
$PUCSXDIR
 10
1.0
 20
0.0
 30
0.0
  9
$PUCSYDIR
 10
0.0
 20
1.0
 30
0.0
  9
$PUCSORTHOREF
  2

  9
$PUCSORTHOVIEW
 70
     0
  9
$PUCSORGTOP
 10
0.0
 20
0.0
 30
0.0
  9
$PUCSORGBOTTOM
 10
0.0
 20
0.0
 30
0.0
  9
$PUCSORGLEFT
 10
0.0
 20
0.0
 30
0.0
  9
$PUCSORGRIGHT
 10
0.0
 20
0.0
 30
0.0
  9
$PUCSORGFRONT
 10
0.0
 20
0.0
 30
0.0
  9
$PUCSORGBACK
 10
0.0
 20
0.0
 30
0.0
  9
$USERI1
 70
     0
  9
$USERI2
 70
     0
  9
$USERI3
 70
     0
  9
$USERI4
 70
     0
  9
$USERI5
 70
     0
  9
$USERR1
 40
0.0
  9
$USERR2
 40
0.0
  9
$USERR3
 40
0.0
  9
$USERR4
 40
0.0
  9
$USERR5
 40
0.0
  9
$WORLDVIEW
 70
     1
  9
$SHADEDGE
 70
     3
  9
$SHADEDIF
 70
    70
  9
$TILEMODE
 70
     1
  9
$MAXACTVP
 70
    64
  9
$PINSBASE
 10
0.0
 20
0.0
 30
0.0
  9
$PLIMCHECK
 70
     0
  9
$PEXTMIN
 10
1.000000000000000E+20
 20
1.000000000000000E+20
 30
1.000000000000000E+20
  9
$PEXTMAX
 10
-1.000000000000000E+20
 20
-1.000000000000000E+20
 30
-1.000000000000000E+20
  9
$PLIMMIN
 10
0.0
 20
0.0
  9
$PLIMMAX
 10
12.0
 20
9.0
  9
$UNITMODE
 70
     0
  9
$VISRETAIN
 70
     1
  9
$PLINEGEN
 70
     0
  9
$PSLTSCALE
 70
     1
  9
$TREEDEPTH
 70
  3020
  9
$CMLSTYLE
  2
Standard
  9
$CMLJUST
 70
     0
  9
$CMLSCALE
 40
1.0
  9
$PROXYGRAPHICS
 70
     1
  9
$MEASUREMENT
 70
     0
  9
$CELWEIGHT
370
    -1
  9
$ENDCAPS
280
     0
  9
$JOINSTYLE
280
     0
  9
$LWDISPLAY
290
     1
  9
$INSUNITS
 70
     4
  9
$HYPERLINKBASE
  1

  9
$STYLESHEET
  1

  9
$XEDIT
290
     1
  9
$CEPSNTYPE
380
     0
  9
$PSTYLEMODE
290
     1
  9
$FINGERPRINTGUID
  2
{6C4AE837-27E5-FE48-864C-E75AF0C10643}
  9
$VERSIONGUID
  2
{557EB8C7-A6A8-894D-B0B1-E29C5D0C92B0}
  9
$EXTNAMES
290
     1
  9
$PSVPSCALE
 40
0.0
  9
$OLESTARTUP
290
     0
  9
$SORTENTS
280
   127
  9
$INDEXCTL
280
     0
  9
$HIDETEXT
280
     1
  9
$XCLIPFRAME
280
     2
  9
$HALOGAP
280
     0
  9
$OBSCOLOR
 70
   257
  9
$OBSLTYPE
280
     0
  9
$INTERSECTIONDISPLAY
280
     0
  9
$INTERSECTIONCOLOR
 70
   257
  9
$DIMASSOC
280
     2
  9
$PROJECTNAME
  1

  9
$CAMERADISPLAY
290
     0
  9
$LENSLENGTH
 40
50.0
  9
$CAMERAHEIGHT
 40
0.0
  9
$STEPSPERSEC
 40
2.0
  9
$STEPSIZE
 40
6.0
  9
$3DDWFPREC
 40
2.0
  9
$PSOLWIDTH
 40
0.25
  9
$PSOLHEIGHT
 40
4.0
  9
$LOFTANG1
 40
1.570796326794896
  9
$LOFTANG2
 40
1.570796326794896
  9
$LOFTMAG1
 40
0.0
  9
$LOFTMAG2
 40
0.0
  9
$LOFTPARAM
 70
     7
  9
$LOFTNORMALS
280
     1
  9
$LATITUDE
 40
37.795
  9
$LONGITUDE
 40
-122.394
  9
$NORTHDIRECTION
 40
0.0
  9
$TIMEZONE
 70
 -8000
  9
$LIGHTGLYPHDISPLAY
280
     1
  9
$TILEMODELIGHTSYNCH
280
     1
  9
$CMATERIAL
347
11
  9
$SOLIDHIST
280
     0
  9
$SHOWHIST
280
     1
  9
$DWFFRAME
280
     2
  9
$DGNFRAME
280
     0
  9
$REALWORLDSCALE
290
     1
  9
$INTERFERECOLOR
 62
     1
  9
$INTERFEREOBJVS
345
33
  9
$INTERFEREVPVS
346
30
  9
$CSHADOW
280
     0
  9
$SHADOWPLANELOCATION
 40
0.0
  0
ENDSEC
  0
SECTION
  2
CLASSES
  0
CLASS
  1
ACDBDICTIONARYWDFLT
  2
AcDbDictionaryWithDefault
  3
ObjectDBX Classes
 90
        0
 91
        1
280
     0
281
     0
  0
CLASS
  1
MATERIAL
  2
AcDbMaterial
  3
ObjectDBX Classes
 90
     1153
 91
        3
280
     0
281
     0
  0
CLASS
  1
VISUALSTYLE
  2
AcDbVisualStyle
  3
ObjectDBX Classes
 90
     4095
 91
       24
280
     0
281
     0
  0
CLASS
  1
SCALE
  2
AcDbScale
  3
ObjectDBX Classes
 90
     1153
 91
       17
280
     0
281
     0
  0
CLASS
  1
TABLESTYLE
  2
AcDbTableStyle
  3
ObjectDBX Classes
 90
     4095
 91
        1
280
     0
281
     0
  0
CLASS
  1
MLEADERSTYLE
  2
AcDbMLeaderStyle
  3
ACDB_MLEADERSTYLE_CLASS
 90
     4095
 91
        1
280
     0
281
     0
  0
CLASS
  1
ACDBSECTIONVIEWSTYLE
  2
AcDbSectionViewStyle
  3
ObjectDBX Classes
 90
     1025
 91
        1
280
     0
281
     0
  0
CLASS
  1
ACDBDETAILVIEWSTYLE
  2
AcDbDetailViewStyle
  3
ObjectDBX Classes
 90
     1025
 91
        1
280
     0
281
     0
  0
CLASS
  1
DICTIONARYVAR
  2
AcDbDictionaryVar
  3
ObjectDBX Classes
 90
        0
 91
        5
280
     0
281
     0
  0
CLASS
  1
CELLSTYLEMAP
  2
AcDbCellStyleMap
  3
ObjectDBX Classes
 90
     1152
 91
        1
280
     0
281
     0
  0
ENDSEC
  0
SECTION
  2
TABLES
  0
TABLE
  2
VPORT
  5
8
330
0
100
AcDbSymbolTable
 70
     1
  0
VPORT
  5
57
330
8
100
AcDbSymbolTableRecord
100
AcDbViewportTableRecord
  2
*Active
 70
     0
 10
0.0
 20
0.0
 11
1.0
 21
1.0
 12
0.0
 22
0.0
 13
0.0
 23
0.0
 14
1.0
 24
1.0
 15
0.0
 25
0.0
 16
0.0
 26
0.0
 36
1.0
 17
104.9999999737534
 27
-148.4999999628701
 37
0.0
 40
302.939999924255
 41
0.7070707070707534
 42
50.0
 43
0.0
 44
0.0
 50
0.0
 51
0.0
 71
     0
 72
   100
 73
     1
 74
     0
 75
     1
 76
     0
 77
     0
 78
     0
281
     0
 65
     1
110
0.0
120
0.0
130
0.0
111
1.0
121
0.0
131
0.0
112
0.0
122
1.0
132
0.0
 79
     0
146
0.0
 60
     3
 61
     5
292
     1
282
     1
141
0.0
142
0.0
 63
   250
421
  3355443
  0
ENDTAB
  0
TABLE
  2
LTYPE
  5
5
330
0
100
AcDbSymbolTable
 70
     1
  0
LTYPE
  5
5B
330
5
100
AcDbSymbolTableRecord
100
AcDbLinetypeTableRecord
  2
ByBlock
 70
     0
  3

 72
    65
 73
     0
 40
0.0
  0
LTYPE
  5
5C
330
5
100
AcDbSymbolTableRecord
100
AcDbLinetypeTableRecord
  2
ByLayer
 70
     0
  3

 72
    65
 73
     0
 40
0.0
  0
LTYPE
  5
5D
330
5
100
AcDbSymbolTableRecord
100
AcDbLinetypeTableRecord
  2
Continuous
 70
     0
  3
Solid line
 72
    65
 73
     0
 40
0.0
  0
ENDTAB
  0
TABLE
  2
LAYER
  5
2
330
0
100
AcDbSymbolTable
 70
     2
  0
LAYER
  5
54
330
2
100
AcDbSymbolTableRecord
100
AcDbLayerTableRecord
  2
0
 70
     0
 62
     7
  6
Continuous
370
    -3
390
F
347
21
  0
LAYER
  5
78
330
2
100
AcDbSymbolTableRecord
100
AcDbLayerTableRecord
  2
レイヤー 1
 70
     0
 62
     7
  6
Continuous
370
     0
390
F
347
21
  0
ENDTAB
  0
TABLE
  2
STYLE
  5
3
330
0
100
AcDbSymbolTable
 70
     2
  0
STYLE
  5
55
330
3
100
AcDbSymbolTableRecord
100
AcDbTextStyleTableRecord
  2
Standard
 70
     0
 40
0.0
 41
1.0
 50
0.0
 71
     0
 42
0.2
  3
txt
  4

  0
STYLE
  5
5A
330
3
100
AcDbSymbolTableRecord
100
AcDbTextStyleTableRecord
  2
Annotative
 70
     0
 40
0.0
 41
1.0
 50
0.0
 71
     0
 42
0.2
  3
txt
  4

1001
AcadAnnotative
1000
AnnotativeData
1002
{
1070
     1
1070
     1
1002
}
  0
ENDTAB
  0
TABLE
  2
VIEW
  5
6
330
0
100
AcDbSymbolTable
 70
     0
  0
ENDTAB
  0
TABLE
  2
UCS
  5
7
330
0
100
AcDbSymbolTable
 70
     0
  0
ENDTAB
  0
TABLE
  2
APPID
  5
9
330
0
100
AcDbSymbolTable
 70
     2
  0
APPID
  5
56
330
9
100
AcDbSymbolTableRecord
100
AcDbRegAppTableRecord
  2
ACAD
 70
     0
  0
APPID
  5
5E
330
9
100
AcDbSymbolTableRecord
100
AcDbRegAppTableRecord
  2
AcadAnnotative
 70
     0
  0
ENDTAB
  0
TABLE
  2
DIMSTYLE
  5
A
330
0
100
AcDbSymbolTable
 70
     2
100
AcDbDimStyleTable
 71
     0
  0
DIMSTYLE
105
58
330
A
100
AcDbSymbolTableRecord
100
AcDbDimStyleTableRecord
  2
Standard
 70
     0
340
55
  0
DIMSTYLE
105
59
330
A
100
AcDbSymbolTableRecord
100
AcDbDimStyleTableRecord
  2
Annotative
 70
     0
340
55
1001
AcadAnnotative
1000
AnnotativeData
1002
{
1070
     1
1070
     1
1002
}
  0
ENDTAB
  0
TABLE
  2
BLOCK_RECORD
  5
1
330
0
100
AcDbSymbolTable
 70
    16
  0
BLOCK_RECORD
  5
70
330
1
100
AcDbSymbolTableRecord
100
AcDbBlockTableRecord
  2
*Model_Space
340
73
 70
     0
280
     1
281
     0
  0
BLOCK_RECORD
  5
6C
330
1
100
AcDbSymbolTableRecord
100
AcDbBlockTableRecord
  2
*Paper_Space
340
6F
 70
     0
280
     1
281
     0
  0
BLOCK_RECORD
  5
74
330
1
100
AcDbSymbolTableRecord
100
AcDbBlockTableRecord
  2
*Paper_Space0
340
77
 70
     0
280
     1
281
     0
  0
BLOCK_RECORD
  5
E0
330
1
100
AcDbSymbolTableRecord
100
AcDbBlockTableRecord
  2
Block_0
340
0
102
{BLKREFS
331
E1
102
}
 70
     0
280
     1
281
     0
  0
BLOCK_RECORD
  5
E4
330
1
100
AcDbSymbolTableRecord
100
AcDbBlockTableRecord
  2
Block_1
340
0
102
{BLKREFS
331
E5
102
}
 70
     0
280
     1
281
     0
  0
BLOCK_RECORD
  5
F1
330
1
100
AcDbSymbolTableRecord
100
AcDbBlockTableRecord
  2
Block_2
340
0
102
{BLKREFS
331
F2
102
}
 70
     0
280
     1
281
     0
  0
BLOCK_RECORD
  5
F5
330
1
100
AcDbSymbolTableRecord
100
AcDbBlockTableRecord
  2
Block_3
340
0
102
{BLKREFS
331
F6
102
}
 70
     0
280
     1
281
     0
  0
BLOCK_RECORD
  5
FF
330
1
100
AcDbSymbolTableRecord
100
AcDbBlockTableRecord
  2
Block_4
340
0
102
{BLKREFS
331
100
102
}
 70
     0
280
     1
281
     0
  0
BLOCK_RECORD
  5
108
330
1
100
AcDbSymbolTableRecord
100
AcDbBlockTableRecord
  2
Block_5
340
0
102
{BLKREFS
331
109
102
}
 70
     0
280
     1
281
     0
  0
BLOCK_RECORD
  5
10C
330
1
100
AcDbSymbolTableRecord
100
AcDbBlockTableRecord
  2
Block_6
340
0
102
{BLKREFS
331
10D
102
}
 70
     0
280
     1
281
     0
  0
BLOCK_RECORD
  5
117
330
1
100
AcDbSymbolTableRecord
100
AcDbBlockTableRecord
  2
Block_7
340
0
102
{BLKREFS
331
118
102
}
 70
     0
280
     1
281
     0
  0
BLOCK_RECORD
  5
11B
330
1
100
AcDbSymbolTableRecord
100
AcDbBlockTableRecord
  2
Block_8
340
0
102
{BLKREFS
331
11C
102
}
 70
     0
280
     1
281
     0
  0
BLOCK_RECORD
  5
129
330
1
100
AcDbSymbolTableRecord
100
AcDbBlockTableRecord
  2
Block_9
340
0
102
{BLKREFS
331
12A
102
}
 70
     0
280
     1
281
     0
  0
BLOCK_RECORD
  5
12D
330
1
100
AcDbSymbolTableRecord
100
AcDbBlockTableRecord
  2
Block_10
340
0
102
{BLKREFS
331
12E
102
}
 70
     0
280
     1
281
     0
  0
BLOCK_RECORD
  5
136
330
1
100
AcDbSymbolTableRecord
100
AcDbBlockTableRecord
  2
Block_11
340
0
102
{BLKREFS
331
137
102
}
 70
     0
280
     1
281
     0
  0
BLOCK_RECORD
  5
13C
330
1
100
AcDbSymbolTableRecord
100
AcDbBlockTableRecord
  2
Block_12
340
0
102
{BLKREFS
331
13D
102
}
 70
     0
280
     1
281
     0
  0
BLOCK_RECORD
  5
143
330
1
100
AcDbSymbolTableRecord
100
AcDbBlockTableRecord
  2
Block_13
340
0
102
{BLKREFS
331
144
102
}
 70
     0
280
     1
281
     0
  0
BLOCK_RECORD
  5
147
330
1
100
AcDbSymbolTableRecord
100
AcDbBlockTableRecord
  2
Block_14
340
0
102
{BLKREFS
331
148
102
}
 70
     0
280
     1
281
     0
  0
ENDTAB
  0
ENDSEC
  0
SECTION
  2
BLOCKS
  0
BLOCK
  5
71
330
70
100
AcDbEntity
  8
0
100
AcDbBlockBegin
  2
*Model_Space
 70
     0
 10
0.0
 20
0.0
 30
0.0
  3
*Model_Space
  1

  0
ENDBLK
  5
72
330
70
100
AcDbEntity
  8
0
100
AcDbBlockEnd
  0
BLOCK
  5
6D
330
6C
100
AcDbEntity
 67
     1
  8
0
100
AcDbBlockBegin
  2
*Paper_Space
 70
     0
 10
0.0
 20
0.0
 30
0.0
  3
*Paper_Space
  1

  0
ENDBLK
  5
6E
330
6C
100
AcDbEntity
 67
     1
  8
0
100
AcDbBlockEnd
  0
BLOCK
  5
75
330
74
100
AcDbEntity
 67
     1
  8
0
100
AcDbBlockBegin
  2
*Paper_Space0
 70
     0
 10
0.0
 20
0.0
 30
0.0
  3
*Paper_Space0
  1

  0
ENDBLK
  5
76
330
74
100
AcDbEntity
 67
     1
  8
0
100
AcDbBlockEnd
  0
BLOCK
  5
E2
330
E0
100
AcDbEntity
  8
0
100
AcDbBlockBegin
  2
Block_0
 70
     0
 10
0.0
 20
0.0
 30
0.0
  3
Block_0
  1

  0
INSERT
  5
E5
330
E0
100
AcDbEntity
  8
レイヤー 1
100
AcDbBlockReference
  2
Block_1
 10
0.0
 20
0.0
 30
0.0
  0
ENDBLK
  5
E3
330
E0
100
AcDbEntity
  8
0
100
AcDbBlockEnd
  0
BLOCK
  5
E6
330
E4
100
AcDbEntity
  8
0
100
AcDbBlockBegin
  2
Block_1
 70
     0
 10
0.0
 20
0.0
 30
0.0
  3
Block_1
  1

  0
SPLINE
  5
E8
330
E4
100
AcDbEntity
  8
レイヤー 1
100
AcDbSpline
210
0.0
220
0.0
230
1.0
 70
     9
 71
     3
 72
    17
 73
    13
 74
     0
 42
0.0000000001
 43
0.0000000001
 40
0.0
 40
0.0
 40
0.0
 40
0.0
 40
1.0
 40
1.0
 40
1.0
 40
2.0
 40
2.0
 40
2.0
 40
3.0
 40
3.0
 40
3.0
 40
4.0
 40
4.0
 40
4.0
 40
4.0
 10
70.918668602062
 20
-147.8118217946442
 30
0.0
 10
70.918668602062
 20
-148.0615912173249
 30
0.0
 10
71.2020277057238
 20
-148.1081000063757
 30
0.0
 10
71.54688176379732
 20
-148.1081000063757
 30
0.0
 10
71.86641437005423
 20
-148.1081000063757
 30
0.0
 10
72.17526718030687
 20
-148.0719265037806
 30
0.0
 10
72.17526718030687
 20
-147.8118217946442
 30
0.0
 10
72.17526718030687
 20
-147.5641194292548
 30
0.0
 10
71.89380287916197
 20
-147.5155435829128
 30
0.0
 10
71.54688176379732
 20
-147.5155435829128
 30
0.0
 10
71.22752141231464
 20
-147.5155435829128
 30
0.0
 10
70.918668602062
 20
-147.553784142799
 30
0.0
 10
70.918668602062
 20
-147.8118217946442
 30
0.0
  0
SPLINE
  5
E9
330
E4
100
AcDbEntity
  8
レイヤー 1
100
AcDbSpline
210
0.0
220
0.0
230
1.0
 70
     9
 71
     3
 72
    29
 73
    25
 74
     0
 42
0.0000000001
 43
0.0000000001
 40
0.0
 40
0.0
 40
0.0
 40
0.0
 40
1.0
 40
1.0
 40
1.0
 40
2.0
 40
2.0
 40
2.0
 40
3.0
 40
3.0
 40
3.0
 40
4.0
 40
4.0
 40
4.0
 40
5.0
 40
5.0
 40
5.0
 40
6.0
 40
6.0
 40
6.0
 40
7.0
 40
7.0
 40
7.0
 40
8.0
 40
8.0
 40
8.0
 40
8.0
 10
72.14133298977717
 20
-147.4139132660979
 30
0.0
 10
72.35079479528036
 20
-147.5220892643347
 30
0.0
 10
72.3699150752235
 20
-147.6953775672428
 30
0.0
 10
72.3699150752235
 20
-147.8118217946442
 30
0.0
 10
72.3699150752235
 20
-147.9727077538054
 30
0.0
 10
72.32340628617262
 20
-148.1143011782492
 30
0.0
 10
72.14133298977717
 20
-148.2093858136421
 30
0.0
 10
71.94685734963481
 20
-148.3130831877481
 30
0.0
 10
71.70983478024962
 20
-148.3323757224655
 30
0.0
 10
71.54688176379732
 20
-148.3323757224655
 30
0.0
 10
71.40304902728813
 20
-148.3323757224655
 30
0.0
 10
71.15138480209063
 20
-148.3151502450392
 30
0.0
 10
70.95243053781745
 20
-148.2093858136421
 30
0.0
 10
70.74934215896198
 20
-148.1015543249537
 30
0.0
 10
70.72608776443654
 20
-147.9406683657926
 30
0.0
 10
70.72608776443654
 20
-147.8118217946442
 30
0.0
 10
70.72608776443654
 20
-147.6530028927742
 30
0.0
 10
70.77052949619626
 20
-147.5093424110393
 30
0.0
 10
70.95243053781745
 20
-147.4139132660979
 30
0.0
 10
71.14501137544292
 20
-147.3146945161227
 30
0.0
 10
71.37342120611498
 20
-147.291267866823
 30
0.0
 10
71.54688176379732
 20
-147.291267866823
 30
0.0
 10
71.71827526418849
 20
-147.291267866823
 30
0.0
 10
71.94892440692597
 20
-147.3126274588316
 30
0.0
 10
72.14133298977717
 20
-147.4139132660979
 30
0.0
  0
HATCH
  5
EA
330
E4
100
AcDbEntity
  8
レイヤー 1
 62
    18
420
        0
440
 33554687
100
AcDbHatch
 10
0.0
 20
0.0
 30
0.0
210
0.0
220
0.0
230
1.0
  2
SOLID
 70
     1
 71
     1
 91
        2
 92
        1
 93
        1
 72
     4
 94
        3
 73
     0
 74
     0
 95
       17
 96
       13
 40
0.0
 40
0.0
 40
0.0
 40
0.0
 40
1.0
 40
1.0
 40
1.0
 40
2.0
 40
2.0
 40
2.0
 40
3.0
 40
3.0
 40
3.0
 40
4.0
 40
4.0
 40
4.0
 40
4.0
 10
70.918668602062
 20
-147.8118217946442
 10
70.918668602062
 20
-148.0615912173249
 10
71.2020277057238
 20
-148.1081000063757
 10
71.54688176379732
 20
-148.1081000063757
 10
71.86641437005423
 20
-148.1081000063757
 10
72.17526718030687
 20
-148.0719265037806
 10
72.17526718030687
 20
-147.8118217946442
 10
72.17526718030687
 20
-147.5641194292548
 10
71.89380287916197
 20
-147.5155435829128
 10
71.54688176379732
 20
-147.5155435829128
 10
71.22752141231464
 20
-147.5155435829128
 10
70.918668602062
 20
-147.553784142799
 10
70.918668602062
 20
-147.8118217946442
 97
        0
 97
        1
330
E8
 92
        1
 93
        1
 72
     4
 94
        3
 73
     0
 74
     0
 95
       29
 96
       25
 40
0.0
 40
0.0
 40
0.0
 40
0.0
 40
1.0
 40
1.0
 40
1.0
 40
2.0
 40
2.0
 40
2.0
 40
3.0
 40
3.0
 40
3.0
 40
4.0
 40
4.0
 40
4.0
 40
5.0
 40
5.0
 40
5.0
 40
6.0
 40
6.0
 40
6.0
 40
7.0
 40
7.0
 40
7.0
 40
8.0
 40
8.0
 40
8.0
 40
8.0
 10
72.14133298977717
 20
-147.4139132660979
 10
72.35079479528036
 20
-147.5220892643347
 10
72.3699150752235
 20
-147.6953775672428
 10
72.3699150752235
 20
-147.8118217946442
 10
72.3699150752235
 20
-147.9727077538054
 10
72.32340628617262
 20
-148.1143011782492
 10
72.14133298977717
 20
-148.2093858136421
 10
71.94685734963481
 20
-148.3130831877481
 10
71.70983478024962
 20
-148.3323757224655
 10
71.54688176379732
 20
-148.3323757224655
 10
71.40304902728813
 20
-148.3323757224655
 10
71.15138480209063
 20
-148.3151502450392
 10
70.95243053781745
 20
-148.2093858136421
 10
70.74934215896198
 20
-148.1015543249537
 10
70.72608776443654
 20
-147.9406683657926
 10
70.72608776443654
 20
-147.8118217946442
 10
70.72608776443654
 20
-147.6530028927742
 10
70.77052949619626
 20
-147.5093424110393
 10
70.95243053781745
 20
-147.4139132660979
 10
71.14501137544292
 20
-147.3146945161227
 10
71.37342120611498
 20
-147.291267866823
 10
71.54688176379732
 20
-147.291267866823
 10
71.71827526418849
 20
-147.291267866823
 10
71.94892440692597
 20
-147.3126274588316
 10
72.14133298977717
 20
-147.4139132660979
 97
        0
 97
        1
330
E9
 75
     2
 76
     1
 98
        1
 10
0.0
 20
0.0
450
        0
451
        0
460
0.0
461
0.0
452
        0
462
0.0
453
        0
470

  0
SPLINE
  5
EB
330
E4
100
AcDbEntity
  8
レイヤー 1
100
AcDbSpline
210
0.0
220
0.0
230
1.0
 70
    11
 71
     3
 72
    17
 73
    13
 74
     0
 42
0.0000000001
 43
0.0000000001
 40
0.0
 40
0.0
 40
0.0
 40
0.0
 40
1.0
 40
1.0
 40
1.0
 40
2.0
 40
2.0
 40
2.0
 40
3.0
 40
3.0
 40
3.0
 40
4.0
 40
4.0
 40
4.0
 40
4.0
 10
72.31909991681606
 20
-147.0749158703493
 30
0.0
 10
72.31909991681606
 20
-147.0749158703493
 30
0.0
 10
72.06743569161855
 20
-147.0749158703493
 30
0.0
 10
72.06743569161855
 20
-147.0749158703493
 30
0.0
 10
72.06743569161855
 20
-147.0749158703493
 30
0.0
 10
72.06743569161855
 20
-146.8230793903775
 30
0.0
 10
72.06743569161855
 20
-146.8230793903775
 30
0.0
 10
72.06743569161855
 20
-146.8230793903775
 30
0.0
 10
72.31909991681606
 20
-146.8230793903775
 30
0.0
 10
72.31909991681606
 20
-146.8230793903775
 30
0.0
 10
72.31909991681606
 20
-146.8230793903775
 30
0.0
 10
72.31909991681606
 20
-147.0749158703493
 30
0.0
 10
72.31909991681606
 20
-147.0749158703493
 30
0.0
  0
HATCH
  5
EC
330
E4
100
AcDbEntity
  8
レイヤー 1
 62
    18
420
        0
440
 33554687
100
AcDbHatch
 10
0.0
 20
0.0
 30
0.0
210
0.0
220
0.0
230
1.0
  2
SOLID
 70
     1
 71
     1
 91
        1
 92
        1
 93
        1
 72
     4
 94
        3
 73
     0
 74
     0
 95
       17
 96
       13
 40
0.0
 40
0.0
 40
0.0
 40
0.0
 40
1.0
 40
1.0
 40
1.0
 40
2.0
 40
2.0
 40
2.0
 40
3.0
 40
3.0
 40
3.0
 40
4.0
 40
4.0
 40
4.0
 40
4.0
 10
72.31909991681606
 20
-147.0749158703493
 10
72.31909991681606
 20
-147.0749158703493
 10
72.06743569161855
 20
-147.0749158703493
 10
72.06743569161855
 20
-147.0749158703493
 10
72.06743569161855
 20
-147.0749158703493
 10
72.06743569161855
 20
-146.8230793903775
 10
72.06743569161855
 20
-146.8230793903775
 10
72.06743569161855
 20
-146.8230793903775
 10
72.31909991681606
 20
-146.8230793903775
 10
72.31909991681606
 20
-146.8230793903775
 10
72.31909991681606
 20
-146.8230793903775
 10
72.31909991681606
 20
-147.0749158703493
 10
72.31909991681606
 20
-147.0749158703493
 97
        0
 97
        1
330
EB
 75
     2
 76
     1
 98
        1
 10
0.0
 20
0.0
450
        0
451
        0
460
0.0
461
0.0
452
        0
462
0.0
453
        0
470

  0
SPLINE
  5
ED
330
E4
100
AcDbEntity
  8
レイヤー 1
100
AcDbSpline
210
0.0
220
0.0
230
1.0
 70
     9
 71
     3
 72
    53
 73
    49
 74
     0
 42
0.0000000001
 43
0.0000000001
 40
0.0
 40
0.0
 40
0.0
 40
0.0
 40
1.0
 40
1.0
 40
1.0
 40
2.0
 40
2.0
 40
2.0
 40
3.0
 40
3.0
 40
3.0
 40
4.0
 40
4.0
 40
4.0
 40
5.0
 40
5.0
 40
5.0
 40
6.0
 40
6.0
 40
6.0
 40
7.0
 40
7.0
 40
7.0
 40
8.0
 40
8.0
 40
8.0
 40
9.0
 40
9.0
 40
9.0
 40
10.0
 40
10.0
 40
10.0
 40
11.0
 40
11.0
 40
11.0
 40
12.0
 40
12.0
 40
12.0
 40
13.0
 40
13.0
 40
13.0
 40
14.0
 40
14.0
 40
14.0
 40
15.0
 40
15.0
 40
15.0
 40
16.0
 40
16.0
 40
16.0
 40
16.0
 10
72.3699150752235
 20
-146.1058105103485
 30
0.0
 10
72.3699150752235
 20
-146.1840141778637
 30
0.0
 10
72.35303410734577
 20
-146.2856444946786
 30
0.0
 10
72.28947209564291
 20
-146.3872748114934
 30
0.0
 10
72.17940129488917
 20
-146.5605631144015
 30
0.0
 10
72.04831541167542
 20
-146.58192270641
 30
0.0
 10
71.9404839229871
 20
-146.6008707315789
 30
0.0
 10
71.9404839229871
 20
-146.6008707315789
 30
0.0
 10
71.9404839229871
 20
-146.3786620727803
 30
0.0
 10
71.9404839229871
 20
-146.3786620727803
 30
0.0
 10
72.13926593248602
 20
-146.3238850545648
 30
0.0
 10
72.16889375365916
 20
-146.1967610311591
 30
0.0
 10
72.16889375365916
 20
-146.1037434530574
 30
0.0
 10
72.16889375365916
 20
-145.9642170859048
 30
0.0
 10
72.06950274890971
 20
-145.8119438654567
 30
0.0
 10
71.83678654888108
 20
-145.8119438654567
 30
0.0
 10
71.58081595432702
 20
-145.8119438654567
 30
0.0
 10
71.51105277075071
 20
-145.9917778497868
 30
0.0
 10
71.51105277075071
 20
-146.1123561917705
 30
0.0
 10
71.51105277075071
 20
-146.1440510702348
 30
0.0
 10
71.51105277075071
 20
-146.2856444946786
 30
0.0
 10
71.64007159667332
 20
-146.374527958198
 30
0.0
 10
71.64007159667332
 20
-146.374527958198
 30
0.0
 10
71.62095131673019
 20
-146.5502278279458
 30
0.0
 10
71.62095131673019
 20
-146.5502278279458
 30
0.0
 10
71.62095131673019
 20
-146.5502278279458
 30
0.0
 10
70.77483586555281
 20
-146.429649485962
 30
0.0
 10
70.77483586555281
 20
-146.429649485962
 30
0.0
 10
70.77483586555281
 20
-146.429649485962
 30
0.0
 10
70.77483586555281
 20
-145.6510579062955
 30
0.0
 10
70.77483586555281
 20
-145.6510579062955
 30
0.0
 10
70.77483586555281
 20
-145.6510579062955
 30
0.0
 10
70.96948376046944
 20
-145.6510579062955
 30
0.0
 10
70.96948376046944
 20
-145.6510579062955
 30
0.0
 10
70.96948376046944
 20
-145.6510579062955
 30
0.0
 10
70.96948376046944
 20
-146.2666964695097
 30
0.0
 10
70.96948376046944
 20
-146.2666964695097
 30
0.0
 10
70.96948376046944
 20
-146.2666964695097
 30
0.0
 10
71.39254148605812
 20
-146.3321532837294
 30
0.0
 10
71.39254148605812
 20
-146.3321532837294
 30
0.0
 10
71.3586072955284
 20
-146.270830584092
 30
0.0
 10
71.31847193312525
 20
-146.1884928019945
 30
0.0
 10
71.31847193312525
 20
-146.0699815173019
 30
0.0
 10
71.31847193312525
 20
-145.816077980039
 30
0.0
 10
71.504679344103
 20
-145.5790554106538
 30
0.0
 10
71.81766626893794
 20
-145.5790554106538
 30
0.0
 10
72.13513181790372
 20
-145.5790554106538
 30
0.0
 10
72.3699150752235
 20
-145.8033311267436
 30
0.0
 10
72.3699150752235
 20
-146.1058105103485
 30
0.0
  0
HATCH
  5
EE
330
E4
100
AcDbEntity
  8
レイヤー 1
 62
    18
420
        0
440
 33554687
100
AcDbHatch
 10
0.0
 20
0.0
 30
0.0
210
0.0
220
0.0
230
1.0
  2
SOLID
 70
     1
 71
     1
 91
        1
 92
        1
 93
        1
 72
     4
 94
        3
 73
     0
 74
     0
 95
       53
 96
       49
 40
0.0
 40
0.0
 40
0.0
 40
0.0
 40
1.0
 40
1.0
 40
1.0
 40
2.0
 40
2.0
 40
2.0
 40
3.0
 40
3.0
 40
3.0
 40
4.0
 40
4.0
 40
4.0
 40
5.0
 40
5.0
 40
5.0
 40
6.0
 40
6.0
 40
6.0
 40
7.0
 40
7.0
 40
7.0
 40
8.0
 40
8.0
 40
8.0
 40
9.0
 40
9.0
 40
9.0
 40
10.0
 40
10.0
 40
10.0
 40
11.0
 40
11.0
 40
11.0
 40
12.0
 40
12.0
 40
12.0
 40
13.0
 40
13.0
 40
13.0
 40
14.0
 40
14.0
 40
14.0
 40
15.0
 40
15.0
 40
15.0
 40
16.0
 40
16.0
 40
16.0
 40
16.0
 10
72.3699150752235
 20
-146.1058105103485
 10
72.3699150752235
 20
-146.1840141778637
 10
72.35303410734577
 20
-146.2856444946786
 10
72.28947209564291
 20
-146.3872748114934
 10
72.17940129488917
 20
-146.5605631144015
 10
72.04831541167542
 20
-146.58192270641
 10
71.9404839229871
 20
-146.6008707315789
 10
71.9404839229871
 20
-146.6008707315789
 10
71.9404839229871
 20
-146.3786620727803
 10
71.9404839229871
 20
-146.3786620727803
 10
72.13926593248602
 20
-146.3238850545648
 10
72.16889375365916
 20
-146.1967610311591
 10
72.16889375365916
 20
-146.1037434530574
 10
72.16889375365916
 20
-145.9642170859048
 10
72.06950274890971
 20
-145.8119438654567
 10
71.83678654888108
 20
-145.8119438654567
 10
71.58081595432702
 20
-145.8119438654567
 10
71.51105277075071
 20
-145.9917778497868
 10
71.51105277075071
 20
-146.1123561917705
 10
71.51105277075071
 20
-146.1440510702348
 10
71.51105277075071
 20
-146.2856444946786
 10
71.64007159667332
 20
-146.374527958198
 10
71.64007159667332
 20
-146.374527958198
 10
71.62095131673019
 20
-146.5502278279458
 10
71.62095131673019
 20
-146.5502278279458
 10
71.62095131673019
 20
-146.5502278279458
 10
70.77483586555281
 20
-146.429649485962
 10
70.77483586555281
 20
-146.429649485962
 10
70.77483586555281
 20
-146.429649485962
 10
70.77483586555281
 20
-145.6510579062955
 10
70.77483586555281
 20
-145.6510579062955
 10
70.77483586555281
 20
-145.6510579062955
 10
70.96948376046944
 20
-145.6510579062955
 10
70.96948376046944
 20
-145.6510579062955
 10
70.96948376046944
 20
-145.6510579062955
 10
70.96948376046944
 20
-146.2666964695097
 10
70.96948376046944
 20
-146.2666964695097
 10
70.96948376046944
 20
-146.2666964695097
 10
71.39254148605812
 20
-146.3321532837294
 10
71.39254148605812
 20
-146.3321532837294
 10
71.3586072955284
 20
-146.270830584092
 10
71.31847193312525
 20
-146.1884928019945
 10
71.31847193312525
 20
-146.0699815173019
 10
71.31847193312525
 20
-145.816077980039
 10
71.504679344103
 20
-145.5790554106538
 10
71.81766626893794
 20
-145.5790554106538
 10
72.13513181790372
 20
-145.5790554106538
 10
72.3699150752235
 20
-145.8033311267436
 10
72.3699150752235
 20
-146.1058105103485
 97
        0
 97
        1
330
ED
 75
     2
 76
     1
 98
        1
 10
0.0
 20
0.0
450
        0
451
        0
460
0.0
461
0.0
452
        0
462
0.0
453
        0
470

  0
ENDBLK
  5
E7
330
E4
100
AcDbEntity
  8
0
100
AcDbBlockEnd
  0
BLOCK
  5
F3
330
F1
100
AcDbEntity
  8
0
100
AcDbBlockBegin
  2
Block_2
 70
     0
 10
0.0
 20
0.0
 30
0.0
  3
Block_2
  1

  0
INSERT
  5
F6
330
F1
100
AcDbEntity
  8
レイヤー 1
100
AcDbBlockReference
  2
Block_3
 10
0.0
 20
0.0
 30
0.0
  0
ENDBLK
  5
F4
330
F1
100
AcDbEntity
  8
0
100
AcDbBlockEnd
  0
BLOCK
  5
F7
330
F5
100
AcDbEntity
  8
0
100
AcDbBlockBegin
  2
Block_3
 70
     0
 10
0.0
 20
0.0
 30
0.0
  3
Block_3
  1

  0
SPLINE
  5
F9
330
F5
100
AcDbEntity
  8
レイヤー 1
100
AcDbSpline
210
0.0
220
0.0
230
1.0
 70
     9
 71
     3
 72
    44
 73
    40
 74
     0
 42
0.0000000001
 43
0.0000000001
 40
0.0
 40
0.0
 40
0.0
 40
0.0
 40
1.0
 40
1.0
 40
1.0
 40
2.0
 40
2.0
 40
2.0
 40
3.0
 40
3.0
 40
3.0
 40
4.0
 40
4.0
 40
4.0
 40
5.0
 40
5.0
 40
5.0
 40
6.0
 40
6.0
 40
6.0
 40
7.0
 40
7.0
 40
7.0
 40
8.0
 40
8.0
 40
8.0
 40
9.0
 40
9.0
 40
9.0
 40
10.0
 40
10.0
 40
10.0
 40
11.0
 40
11.0
 40
11.0
 40
12.0
 40
12.0
 40
12.0
 40
13.0
 40
13.0
 40
13.0
 40
13.0
 10
87.69232175542068
 20
-140.5995143962737
 30
0.0
 10
87.47441946597863
 20
-140.7581610433695
 30
0.0
 10
87.3812296331026
 20
-140.8322305963023
 30
0.0
 10
87.33265378676058
 20
-140.9760633328115
 30
0.0
 10
87.33265378676058
 20
-140.9760633328115
 30
0.0
 10
88.11107311165278
 20
-140.9760633328115
 30
0.0
 10
88.11107311165278
 20
-140.9760633328115
 30
0.0
 10
88.11107311165278
 20
-140.9760633328115
 30
0.0
 10
88.11107311165278
 20
-141.1812187689581
 30
0.0
 10
88.11107311165278
 20
-141.1812187689581
 30
0.0
 10
88.11107311165278
 20
-141.1812187689581
 30
0.0
 10
87.08305661885423
 20
-141.1812187689581
 30
0.0
 10
87.08305661885423
 20
-141.1812187689581
 30
0.0
 10
87.11475149731853
 20
-140.8236178575892
 30
0.0
 10
87.18020831153827
 20
-140.745414190074
 30
0.0
 10
87.56536998678923
 20
-140.4470689210514
 30
0.0
 10
87.82134058134328
 20
-140.2482869115525
 30
0.0
 10
87.88679739556302
 20
-140.1805907852673
 30
0.0
 10
87.88679739556302
 20
-140.0431314754059
 30
0.0
 10
87.88679739556302
 20
-139.9246201907133
 30
0.0
 10
87.81496715469556
 20
-139.7933620527252
 30
0.0
 10
87.61825220248779
 20
-139.7933620527252
 30
0.0
 10
87.35797523857717
 20
-139.7933620527252
 30
0.0
 10
87.3495347546383
 20
-140.0240111954627
 30
0.0
 10
87.34522838528176
 20
-140.1404554228642
 30
0.0
 10
87.34522838528176
 20
-140.1404554228642
 30
0.0
 10
87.12112492396625
 20
-140.1404554228642
 30
0.0
 10
87.12112492396625
 20
-140.1404554228642
 30
0.0
 10
87.12956540790512
 20
-140.0135036542327
 30
0.0
 10
87.14007294913512
 20
-139.9013657961878
 30
0.0
 10
87.2205159287157
 20
-139.7828545114952
 30
0.0
 10
87.33041447469517
 20
-139.6221408071083
 30
0.0
 10
87.51662188567292
 20
-139.5882066165786
 30
0.0
 10
87.63306611307438
 20
-139.5882066165786
 30
0.0
 10
87.91022404486273
 20
-139.5882066165786
 30
0.0
 10
88.1174465383005
 20
-139.7723469702652
 30
0.0
 10
88.1174465383005
 20
-140.045198532697
 30
0.0
 10
88.1174465383005
 20
-140.2736083633691
 30
0.0
 10
88.00117456567333
 20
-140.3731716228928
 30
0.0
 10
87.69232175542068
 20
-140.5995143962737
 30
0.0
  0
HATCH
  5
FA
330
F5
100
AcDbEntity
  8
レイヤー 1
 62
    18
420
        0
440
 33554687
100
AcDbHatch
 10
0.0
 20
0.0
 30
0.0
210
0.0
220
0.0
230
1.0
  2
SOLID
 70
     1
 71
     1
 91
        1
 92
        1
 93
        1
 72
     4
 94
        3
 73
     0
 74
     0
 95
       44
 96
       40
 40
0.0
 40
0.0
 40
0.0
 40
0.0
 40
1.0
 40
1.0
 40
1.0
 40
2.0
 40
2.0
 40
2.0
 40
3.0
 40
3.0
 40
3.0
 40
4.0
 40
4.0
 40
4.0
 40
5.0
 40
5.0
 40
5.0
 40
6.0
 40
6.0
 40
6.0
 40
7.0
 40
7.0
 40
7.0
 40
8.0
 40
8.0
 40
8.0
 40
9.0
 40
9.0
 40
9.0
 40
10.0
 40
10.0
 40
10.0
 40
11.0
 40
11.0
 40
11.0
 40
12.0
 40
12.0
 40
12.0
 40
13.0
 40
13.0
 40
13.0
 40
13.0
 10
87.69232175542068
 20
-140.5995143962737
 10
87.47441946597863
 20
-140.7581610433695
 10
87.3812296331026
 20
-140.8322305963023
 10
87.33265378676058
 20
-140.9760633328115
 10
87.33265378676058
 20
-140.9760633328115
 10
88.11107311165278
 20
-140.9760633328115
 10
88.11107311165278
 20
-140.9760633328115
 10
88.11107311165278
 20
-140.9760633328115
 10
88.11107311165278
 20
-141.1812187689581
 10
88.11107311165278
 20
-141.1812187689581
 10
88.11107311165278
 20
-141.1812187689581
 10
87.08305661885423
 20
-141.1812187689581
 10
87.08305661885423
 20
-141.1812187689581
 10
87.11475149731853
 20
-140.8236178575892
 10
87.18020831153827
 20
-140.745414190074
 10
87.56536998678923
 20
-140.4470689210514
 10
87.82134058134328
 20
-140.2482869115525
 10
87.88679739556302
 20
-140.1805907852673
 10
87.88679739556302
 20
-140.0431314754059
 10
87.88679739556302
 20
-139.9246201907133
 10
87.81496715469556
 20
-139.7933620527252
 10
87.61825220248779
 20
-139.7933620527252
 10
87.35797523857717
 20
-139.7933620527252
 10
87.3495347546383
 20
-140.0240111954627
 10
87.34522838528176
 20
-140.1404554228642
 10
87.34522838528176
 20
-140.1404554228642
 10
87.12112492396625
 20
-140.1404554228642
 10
87.12112492396625
 20
-140.1404554228642
 10
87.12956540790512
 20
-140.0135036542327
 10
87.14007294913512
 20
-139.9013657961878
 10
87.2205159287157
 20
-139.7828545114952
 10
87.33041447469517
 20
-139.6221408071083
 10
87.51662188567292
 20
-139.5882066165786
 10
87.63306611307438
 20
-139.5882066165786
 10
87.91022404486273
 20
-139.5882066165786
 10
88.1174465383005
 20
-139.7723469702652
 10
88.1174465383005
 20
-140.045198532697
 10
88.1174465383005
 20
-140.2736083633691
 10
88.00117456567333
 20
-140.3731716228928
 10
87.69232175542068
 20
-140.5995143962737
 97
        0
 97
        1
330
F9
 75
     2
 76
     1
 98
        1
 10
0.0
 20
0.0
450
        0
451
        0
460
0.0
461
0.0
452
        0
462
0.0
453
        0
470

  0
SPLINE
  5
FB
330
F5
100
AcDbEntity
  8
レイヤー 1
100
AcDbSpline
210
0.0
220
0.0
230
1.0
 70
    11
 71
     3
 72
    26
 73
    22
 74
     0
 42
0.0000000001
 43
0.0000000001
 40
0.0
 40
0.0
 40
0.0
 40
0.0
 40
1.0
 40
1.0
 40
1.0
 40
2.0
 40
2.0
 40
2.0
 40
3.0
 40
3.0
 40
3.0
 40
4.0
 40
4.0
 40
4.0
 40
5.0
 40
5.0
 40
5.0
 40
6.0
 40
6.0
 40
6.0
 40
7.0
 40
7.0
 40
7.0
 40
7.0
 10
88.72740069396398
 20
-141.1812187689581
 30
0.0
 10
88.72740069396398
 20
-141.1812187689581
 30
0.0
 10
88.72740069396398
 20
-140.0768934111613
 30
0.0
 10
88.72740069396398
 20
-140.0768934111613
 30
0.0
 10
88.72740069396398
 20
-140.0768934111613
 30
0.0
 10
88.39736054647705
 20
-140.0768934111613
 30
0.0
 10
88.39736054647705
 20
-140.0768934111613
 30
0.0
 10
88.39736054647705
 20
-140.0768934111613
 30
0.0
 10
88.39736054647705
 20
-139.9287543052956
 30
0.0
 10
88.39736054647705
 20
-139.9287543052956
 30
0.0
 10
88.72946775125514
 20
-139.9141126494833
 30
0.0
 10
88.775976540306
 20
-139.7511596330309
 30
0.0
 10
88.80560436147915
 20
-139.6369547176949
 30
0.0
 10
88.80560436147915
 20
-139.6369547176949
 30
0.0
 10
88.95167641005375
 20
-139.6369547176949
 30
0.0
 10
88.95167641005375
 20
-139.6369547176949
 30
0.0
 10
88.95167641005375
 20
-139.6369547176949
 30
0.0
 10
88.95167641005375
 20
-141.1812187689581
 30
0.0
 10
88.95167641005375
 20
-141.1812187689581
 30
0.0
 10
88.95167641005375
 20
-141.1812187689581
 30
0.0
 10
88.72740069396398
 20
-141.1812187689581
 30
0.0
 10
88.72740069396398
 20
-141.1812187689581
 30
0.0
  0
HATCH
  5
FC
330
F5
100
AcDbEntity
  8
レイヤー 1
 62
    18
420
        0
440
 33554687
100
AcDbHatch
 10
0.0
 20
0.0
 30
0.0
210
0.0
220
0.0
230
1.0
  2
SOLID
 70
     1
 71
     1
 91
        1
 92
        1
 93
        1
 72
     4
 94
        3
 73
     0
 74
     0
 95
       26
 96
       22
 40
0.0
 40
0.0
 40
0.0
 40
0.0
 40
1.0
 40
1.0
 40
1.0
 40
2.0
 40
2.0
 40
2.0
 40
3.0
 40
3.0
 40
3.0
 40
4.0
 40
4.0
 40
4.0
 40
5.0
 40
5.0
 40
5.0
 40
6.0
 40
6.0
 40
6.0
 40
7.0
 40
7.0
 40
7.0
 40
7.0
 10
88.72740069396398
 20
-141.1812187689581
 10
88.72740069396398
 20
-141.1812187689581
 10
88.72740069396398
 20
-140.0768934111613
 10
88.72740069396398
 20
-140.0768934111613
 10
88.72740069396398
 20
-140.0768934111613
 10
88.39736054647705
 20
-140.0768934111613
 10
88.39736054647705
 20
-140.0768934111613
 10
88.39736054647705
 20
-140.0768934111613
 10
88.39736054647705
 20
-139.9287543052956
 10
88.39736054647705
 20
-139.9287543052956
 10
88.72946775125514
 20
-139.9141126494833
 10
88.775976540306
 20
-139.7511596330309
 10
88.80560436147915
 20
-139.6369547176949
 10
88.80560436147915
 20
-139.6369547176949
 10
88.95167641005375
 20
-139.6369547176949
 10
88.95167641005375
 20
-139.6369547176949
 10
88.95167641005375
 20
-139.6369547176949
 10
88.95167641005375
 20
-141.1812187689581
 10
88.95167641005375
 20
-141.1812187689581
 10
88.95167641005375
 20
-141.1812187689581
 10
88.72740069396398
 20
-141.1812187689581
 10
88.72740069396398
 20
-141.1812187689581
 97
        0
 97
        1
330
FB
 75
     2
 76
     1
 98
        1
 10
0.0
 20
0.0
450
        0
451
        0
460
0.0
461
0.0
452
        0
462
0.0
453
        0
470

  0
ENDBLK
  5
F8
330
F5
100
AcDbEntity
  8
0
100
AcDbBlockEnd
  0
BLOCK
  5
101
330
FF
100
AcDbEntity
  8
0
100
AcDbBlockBegin
  2
Block_4
 70
     0
 10
0.0
 20
0.0
 30
0.0
  3
Block_4
  1

  0
SPLINE
  5
103
330
FF
100
AcDbEntity
  8
レイヤー 1
100
AcDbSpline
210
0.0
220
0.0
230
1.0
 70
     9
 71
     3
 72
    17
 73
    13
 74
     0
 42
0.0000000001
 43
0.0000000001
 40
0.0
 40
0.0
 40
0.0
 40
0.0
 40
1.0
 40
1.0
 40
1.0
 40
2.0
 40
2.0
 40
2.0
 40
3.0
 40
3.0
 40
3.0
 40
4.0
 40
4.0
 40
4.0
 40
4.0
 10
72.24141301362367
 20
-150.1338161517026
 30
0.0
 10
72.24141301362367
 20
-150.3959879181302
 30
0.0
 10
72.45294187641802
 20
-150.4338839684679
 30
0.0
 10
72.56921384904519
 20
-150.4338839684679
 30
0.0
 10
72.74491371879294
 20
-150.4338839684679
 30
0.0
 10
72.90769448047099
 20
-150.338799333075
 30
0.0
 10
72.90769448047099
 20
-150.1548312341627
 30
0.0
 10
72.90769448047099
 20
-150.0342528921789
 30
0.0
 10
72.84843883812469
 20
-149.8585530224312
 30
0.0
 10
72.56284042239748
 20
-149.8585530224312
 30
0.0
 10
72.33873696108199
 20
-149.8585530224312
 30
0.0
 10
72.24141301362367
 20
-149.9980793895838
 30
0.0
 10
72.24141301362367
 20
-150.1338161517026
 30
0.0
  0
SPLINE
  5
104
330
FF
100
AcDbEntity
  8
レイヤー 1
100
AcDbSpline
210
0.0
220
0.0
230
1.0
 70
     9
 71
     3
 72
    32
 73
    28
 74
     0
 42
0.0000000001
 43
0.0000000001
 40
0.0
 40
0.0
 40
0.0
 40
0.0
 40
1.0
 40
1.0
 40
1.0
 40
2.0
 40
2.0
 40
2.0
 40
3.0
 40
3.0
 40
3.0
 40
4.0
 40
4.0
 40
4.0
 40
5.0
 40
5.0
 40
5.0
 40
6.0
 40
6.0
 40
6.0
 40
7.0
 40
7.0
 40
7.0
 40
8.0
 40
8.0
 40
8.0
 40
9.0
 40
9.0
 40
9.0
 40
9.0
 10
73.10027531809646
 20
-150.1506971195804
 30
0.0
 10
73.10027531809646
 20
-150.6667724232708
 30
0.0
 10
72.54595945451976
 20
-150.6753851619839
 30
0.0
 10
72.33236353443428
 20
-150.6753851619839
 30
0.0
 10
72.1017143916968
 20
-150.6753851619839
 30
0.0
 10
71.45438095001835
 20
-150.6560926272665
 30
0.0
 10
71.45438095001835
 20
-150.1124565596941
 30
0.0
 10
71.45438095001835
 20
-149.939168256786
 30
0.0
 10
71.52414413359466
 20
-149.6935329486877
 30
0.0
 10
71.85625133837274
 20
-149.65563689835
 30
0.0
 10
71.85625133837274
 20
-149.65563689835
 30
0.0
 10
71.85625133837274
 20
-149.8692328184354
 30
0.0
 10
71.85625133837274
 20
-149.8692328184354
 30
0.0
 10
71.79923500809185
 20
-149.8799126144397
 30
0.0
 10
71.65109590222612
 20
-149.911607492904
 30
0.0
 10
71.65109590222612
 20
-150.1145236169852
 30
0.0
 10
71.65109590222612
 20
-150.4066677141344
 30
0.0
 10
71.9790689924219
 20
-150.4466308217633
 30
0.0
 10
72.18422442856852
 20
-150.4593776750587
 30
0.0
 10
72.10602076105335
 20
-150.366360096957
 30
0.0
 10
72.04676511870705
 20
-150.2984917158976
 30
0.0
 10
72.04676511870705
 20
-150.1165906742764
 30
0.0
 10
72.04676511870705
 20
-149.9367566899463
 30
0.0
 10
72.15459660739537
 20
-149.6342773063414
 30
0.0
 10
72.56077336510634
 20
-149.6342773063414
 30
0.0
 10
72.88030597136326
 20
-149.6342773063414
 30
0.0
 10
73.10027531809646
 20
-149.8334038253888
 30
0.0
 10
73.10027531809646
 20
-150.1506971195804
 30
0.0
  0
HATCH
  5
105
330
FF
100
AcDbEntity
  8
レイヤー 1
 62
    18
420
        0
440
 33554687
100
AcDbHatch
 10
0.0
 20
0.0
 30
0.0
210
0.0
220
0.0
230
1.0
  2
SOLID
 70
     1
 71
     1
 91
        2
 92
        1
 93
        1
 72
     4
 94
        3
 73
     0
 74
     0
 95
       17
 96
       13
 40
0.0
 40
0.0
 40
0.0
 40
0.0
 40
1.0
 40
1.0
 40
1.0
 40
2.0
 40
2.0
 40
2.0
 40
3.0
 40
3.0
 40
3.0
 40
4.0
 40
4.0
 40
4.0
 40
4.0
 10
72.24141301362367
 20
-150.1338161517026
 10
72.24141301362367
 20
-150.3959879181302
 10
72.45294187641802
 20
-150.4338839684679
 10
72.56921384904519
 20
-150.4338839684679
 10
72.74491371879294
 20
-150.4338839684679
 10
72.90769448047099
 20
-150.338799333075
 10
72.90769448047099
 20
-150.1548312341627
 10
72.90769448047099
 20
-150.0342528921789
 10
72.84843883812469
 20
-149.8585530224312
 10
72.56284042239748
 20
-149.8585530224312
 10
72.33873696108199
 20
-149.8585530224312
 10
72.24141301362367
 20
-149.9980793895838
 10
72.24141301362367
 20
-150.1338161517026
 97
        0
 97
        1
330
103
 92
        1
 93
        1
 72
     4
 94
        3
 73
     0
 74
     0
 95
       32
 96
       28
 40
0.0
 40
0.0
 40
0.0
 40
0.0
 40
1.0
 40
1.0
 40
1.0
 40
2.0
 40
2.0
 40
2.0
 40
3.0
 40
3.0
 40
3.0
 40
4.0
 40
4.0
 40
4.0
 40
5.0
 40
5.0
 40
5.0
 40
6.0
 40
6.0
 40
6.0
 40
7.0
 40
7.0
 40
7.0
 40
8.0
 40
8.0
 40
8.0
 40
9.0
 40
9.0
 40
9.0
 40
9.0
 10
73.10027531809646
 20
-150.1506971195804
 10
73.10027531809646
 20
-150.6667724232708
 10
72.54595945451976
 20
-150.6753851619839
 10
72.33236353443428
 20
-150.6753851619839
 10
72.1017143916968
 20
-150.6753851619839
 10
71.45438095001835
 20
-150.6560926272665
 10
71.45438095001835
 20
-150.1124565596941
 10
71.45438095001835
 20
-149.939168256786
 10
71.52414413359466
 20
-149.6935329486877
 10
71.85625133837274
 20
-149.65563689835
 10
71.85625133837274
 20
-149.65563689835
 10
71.85625133837274
 20
-149.8692328184354
 10
71.85625133837274
 20
-149.8692328184354
 10
71.79923500809185
 20
-149.8799126144397
 10
71.65109590222612
 20
-149.911607492904
 10
71.65109590222612
 20
-150.1145236169852
 10
71.65109590222612
 20
-150.4066677141344
 10
71.9790689924219
 20
-150.4466308217633
 10
72.18422442856852
 20
-150.4593776750587
 10
72.10602076105335
 20
-150.366360096957
 10
72.04676511870705
 20
-150.2984917158976
 10
72.04676511870705
 20
-150.1165906742764
 10
72.04676511870705
 20
-149.9367566899463
 10
72.15459660739537
 20
-149.6342773063414
 10
72.56077336510634
 20
-149.6342773063414
 10
72.88030597136326
 20
-149.6342773063414
 10
73.10027531809646
 20
-149.8334038253888
 10
73.10027531809646
 20
-150.1506971195804
 97
        0
 97
        1
330
104
 75
     2
 76
     1
 98
        1
 10
0.0
 20
0.0
450
        0
451
        0
460
0.0
461
0.0
452
        0
462
0.0
453
        0
470

  0
ENDBLK
  5
102
330
FF
100
AcDbEntity
  8
0
100
AcDbBlockEnd
  0
BLOCK
  5
10A
330
108
100
AcDbEntity
  8
0
100
AcDbBlockBegin
  2
Block_5
 70
     0
 10
0.0
 20
0.0
 30
0.0
  3
Block_5
  1

  0
INSERT
  5
10D
330
108
100
AcDbEntity
  8
レイヤー 1
100
AcDbBlockReference
  2
Block_6
 10
0.0
 20
0.0
 30
0.0
  0
ENDBLK
  5
10B
330
108
100
AcDbEntity
  8
0
100
AcDbBlockEnd
  0
BLOCK
  5
10E
330
10C
100
AcDbEntity
  8
0
100
AcDbBlockBegin
  2
Block_6
 70
     0
 10
0.0
 20
0.0
 30
0.0
  3
Block_6
  1

  0
SPLINE
  5
110
330
10C
100
AcDbEntity
  8
レイヤー 1
100
AcDbSpline
210
0.0
220
0.0
230
1.0
 70
     9
 71
     3
 72
    44
 73
    40
 74
     0
 42
0.0000000001
 43
0.0000000001
 40
0.0
 40
0.0
 40
0.0
 40
0.0
 40
1.0
 40
1.0
 40
1.0
 40
2.0
 40
2.0
 40
2.0
 40
3.0
 40
3.0
 40
3.0
 40
4.0
 40
4.0
 40
4.0
 40
5.0
 40
5.0
 40
5.0
 40
6.0
 40
6.0
 40
6.0
 40
7.0
 40
7.0
 40
7.0
 40
8.0
 40
8.0
 40
8.0
 40
9.0
 40
9.0
 40
9.0
 40
10.0
 40
10.0
 40
10.0
 40
11.0
 40
11.0
 40
11.0
 40
12.0
 40
12.0
 40
12.0
 40
13.0
 40
13.0
 40
13.0
 40
13.0
 10
128.7938611874196
 20
-140.5995143962737
 30
0.0
 10
128.5761311527518
 20
-140.7581610433695
 30
0.0
 10
128.48311357465
 20
-140.8322305963023
 30
0.0
 10
128.4341932187595
 20
-140.9760633328115
 30
0.0
 10
128.4341932187595
 20
-140.9760633328115
 30
0.0
 10
129.212784798426
 20
-140.9760633328115
 30
0.0
 10
129.212784798426
 20
-140.9760633328115
 30
0.0
 10
129.212784798426
 20
-140.9760633328115
 30
0.0
 10
129.212784798426
 20
-141.1812187689581
 30
0.0
 10
129.212784798426
 20
-141.1812187689581
 30
0.0
 10
129.212784798426
 20
-141.1812187689581
 30
0.0
 10
128.1847683056274
 20
-141.1812187689581
 30
0.0
 10
128.1847683056274
 20
-141.1812187689581
 30
0.0
 10
128.2164631840917
 20
-140.8236178575892
 30
0.0
 10
128.2819199983115
 20
-140.745414190074
 30
0.0
 10
128.6670816735624
 20
-140.4470689210514
 30
0.0
 10
128.9230522681164
 20
-140.2482869115525
 30
0.0
 10
128.9885090823362
 20
-140.1805907852673
 30
0.0
 10
128.9885090823362
 20
-140.0431314754059
 30
0.0
 10
128.9885090823362
 20
-139.9246201907133
 30
0.0
 10
128.9165065866945
 20
-139.7933620527252
 30
0.0
 10
128.7197916344867
 20
-139.7933620527252
 30
0.0
 10
128.4596869253503
 20
-139.7933620527252
 30
0.0
 10
128.4514186961857
 20
-140.0240111954627
 30
0.0
 10
128.4469400720549
 20
-140.1404554228642
 30
0.0
 10
128.4469400720549
 20
-140.1404554228642
 30
0.0
 10
128.2226643559652
 20
-140.1404554228642
 30
0.0
 10
128.2226643559652
 20
-140.1404554228642
 30
0.0
 10
128.2312770946783
 20
-140.0135036542327
 30
0.0
 10
128.2419568906825
 20
-139.9013657961878
 30
0.0
 10
128.3222276154889
 20
-139.7828545114952
 30
0.0
 10
128.4321261614683
 20
-139.6221408071083
 30
0.0
 10
128.6185058272204
 20
-139.5882066165786
 30
0.0
 10
128.7346055450733
 20
-139.5882066165786
 30
0.0
 10
129.0119357316359
 20
-139.5882066165786
 30
0.0
 10
129.2193304798479
 20
-139.7723469702652
 30
0.0
 10
129.2193304798479
 20
-140.045198532697
 30
0.0
 10
129.2193304798479
 20
-140.2736083633691
 30
0.0
 10
129.1028862524465
 20
-140.3731716228928
 30
0.0
 10
128.7938611874196
 20
-140.5995143962737
 30
0.0
  0
HATCH
  5
111
330
10C
100
AcDbEntity
  8
レイヤー 1
 62
    18
420
        0
440
 33554687
100
AcDbHatch
 10
0.0
 20
0.0
 30
0.0
210
0.0
220
0.0
230
1.0
  2
SOLID
 70
     1
 71
     1
 91
        1
 92
        1
 93
        1
 72
     4
 94
        3
 73
     0
 74
     0
 95
       44
 96
       40
 40
0.0
 40
0.0
 40
0.0
 40
0.0
 40
1.0
 40
1.0
 40
1.0
 40
2.0
 40
2.0
 40
2.0
 40
3.0
 40
3.0
 40
3.0
 40
4.0
 40
4.0
 40
4.0
 40
5.0
 40
5.0
 40
5.0
 40
6.0
 40
6.0
 40
6.0
 40
7.0
 40
7.0
 40
7.0
 40
8.0
 40
8.0
 40
8.0
 40
9.0
 40
9.0
 40
9.0
 40
10.0
 40
10.0
 40
10.0
 40
11.0
 40
11.0
 40
11.0
 40
12.0
 40
12.0
 40
12.0
 40
13.0
 40
13.0
 40
13.0
 40
13.0
 10
128.7938611874196
 20
-140.5995143962737
 10
128.5761311527518
 20
-140.7581610433695
 10
128.48311357465
 20
-140.8322305963023
 10
128.4341932187595
 20
-140.9760633328115
 10
128.4341932187595
 20
-140.9760633328115
 10
129.212784798426
 20
-140.9760633328115
 10
129.212784798426
 20
-140.9760633328115
 10
129.212784798426
 20
-140.9760633328115
 10
129.212784798426
 20
-141.1812187689581
 10
129.212784798426
 20
-141.1812187689581
 10
129.212784798426
 20
-141.1812187689581
 10
128.1847683056274
 20
-141.1812187689581
 10
128.1847683056274
 20
-141.1812187689581
 10
128.2164631840917
 20
-140.8236178575892
 10
128.2819199983115
 20
-140.745414190074
 10
128.6670816735624
 20
-140.4470689210514
 10
128.9230522681164
 20
-140.2482869115525
 10
128.9885090823362
 20
-140.1805907852673
 10
128.9885090823362
 20
-140.0431314754059
 10
128.9885090823362
 20
-139.9246201907133
 10
128.9165065866945
 20
-139.7933620527252
 10
128.7197916344867
 20
-139.7933620527252
 10
128.4596869253503
 20
-139.7933620527252
 10
128.4514186961857
 20
-140.0240111954627
 10
128.4469400720549
 20
-140.1404554228642
 10
128.4469400720549
 20
-140.1404554228642
 10
128.2226643559652
 20
-140.1404554228642
 10
128.2226643559652
 20
-140.1404554228642
 10
128.2312770946783
 20
-140.0135036542327
 10
128.2419568906825
 20
-139.9013657961878
 10
128.3222276154889
 20
-139.7828545114952
 10
128.4321261614683
 20
-139.6221408071083
 10
128.6185058272204
 20
-139.5882066165786
 10
128.7346055450733
 20
-139.5882066165786
 10
129.0119357316359
 20
-139.5882066165786
 10
129.2193304798479
 20
-139.7723469702652
 10
129.2193304798479
 20
-140.045198532697
 10
129.2193304798479
 20
-140.2736083633691
 10
129.1028862524465
 20
-140.3731716228928
 10
128.7938611874196
 20
-140.5995143962737
 97
        0
 97
        1
330
110
 75
     2
 76
     1
 98
        1
 10
0.0
 20
0.0
450
        0
451
        0
460
0.0
461
0.0
452
        0
462
0.0
453
        0
470

  0
SPLINE
  5
112
330
10C
100
AcDbEntity
  8
レイヤー 1
100
AcDbSpline
210
0.0
220
0.0
230
1.0
 70
    11
 71
     3
 72
    26
 73
    22
 74
     0
 42
0.0000000001
 43
0.0000000001
 40
0.0
 40
0.0
 40
0.0
 40
0.0
 40
1.0
 40
1.0
 40
1.0
 40
2.0
 40
2.0
 40
2.0
 40
3.0
 40
3.0
 40
3.0
 40
4.0
 40
4.0
 40
4.0
 40
5.0
 40
5.0
 40
5.0
 40
6.0
 40
6.0
 40
6.0
 40
7.0
 40
7.0
 40
7.0
 40
7.0
 10
129.8291123807372
 20
-141.1812187689581
 30
0.0
 10
129.8291123807372
 20
-141.1812187689581
 30
0.0
 10
129.8291123807372
 20
-140.0768934111613
 30
0.0
 10
129.8291123807372
 20
-140.0768934111613
 30
0.0
 10
129.8291123807372
 20
-140.0768934111613
 30
0.0
 10
129.4990722332502
 20
-140.0768934111613
 30
0.0
 10
129.4990722332502
 20
-140.0768934111613
 30
0.0
 10
129.4990722332502
 20
-140.0768934111613
 30
0.0
 10
129.4990722332502
 20
-139.9287543052956
 30
0.0
 10
129.4990722332502
 20
-139.9287543052956
 30
0.0
 10
129.8311794380283
 20
-139.9141126494833
 30
0.0
 10
129.8776882270792
 20
-139.7511596330309
 30
0.0
 10
129.9073160482523
 20
-139.6369547176949
 30
0.0
 10
129.9073160482523
 20
-139.6369547176949
 30
0.0
 10
130.0533880968269
 20
-139.6369547176949
 30
0.0
 10
130.0533880968269
 20
-139.6369547176949
 30
0.0
 10
130.0533880968269
 20
-139.6369547176949
 30
0.0
 10
130.0533880968269
 20
-141.1812187689581
 30
0.0
 10
130.0533880968269
 20
-141.1812187689581
 30
0.0
 10
130.0533880968269
 20
-141.1812187689581
 30
0.0
 10
129.8291123807372
 20
-141.1812187689581
 30
0.0
 10
129.8291123807372
 20
-141.1812187689581
 30
0.0
  0
HATCH
  5
113
330
10C
100
AcDbEntity
  8
レイヤー 1
 62
    18
420
        0
440
 33554687
100
AcDbHatch
 10
0.0
 20
0.0
 30
0.0
210
0.0
220
0.0
230
1.0
  2
SOLID
 70
     1
 71
     1
 91
        1
 92
        1
 93
        1
 72
     4
 94
        3
 73
     0
 74
     0
 95
       26
 96
       22
 40
0.0
 40
0.0
 40
0.0
 40
0.0
 40
1.0
 40
1.0
 40
1.0
 40
2.0
 40
2.0
 40
2.0
 40
3.0
 40
3.0
 40
3.0
 40
4.0
 40
4.0
 40
4.0
 40
5.0
 40
5.0
 40
5.0
 40
6.0
 40
6.0
 40
6.0
 40
7.0
 40
7.0
 40
7.0
 40
7.0
 10
129.8291123807372
 20
-141.1812187689581
 10
129.8291123807372
 20
-141.1812187689581
 10
129.8291123807372
 20
-140.0768934111613
 10
129.8291123807372
 20
-140.0768934111613
 10
129.8291123807372
 20
-140.0768934111613
 10
129.4990722332502
 20
-140.0768934111613
 10
129.4990722332502
 20
-140.0768934111613
 10
129.4990722332502
 20
-140.0768934111613
 10
129.4990722332502
 20
-139.9287543052956
 10
129.4990722332502
 20
-139.9287543052956
 10
129.8311794380283
 20
-139.9141126494833
 10
129.8776882270792
 20
-139.7511596330309
 10
129.9073160482523
 20
-139.6369547176949
 10
129.9073160482523
 20
-139.6369547176949
 10
130.0533880968269
 20
-139.6369547176949
 10
130.0533880968269
 20
-139.6369547176949
 10
130.0533880968269
 20
-139.6369547176949
 10
130.0533880968269
 20
-141.1812187689581
 10
130.0533880968269
 20
-141.1812187689581
 10
130.0533880968269
 20
-141.1812187689581
 10
129.8291123807372
 20
-141.1812187689581
 10
129.8291123807372
 20
-141.1812187689581
 97
        0
 97
        1
330
112
 75
     2
 76
     1
 98
        1
 10
0.0
 20
0.0
450
        0
451
        0
460
0.0
461
0.0
452
        0
462
0.0
453
        0
470

  0
ENDBLK
  5
10F
330
10C
100
AcDbEntity
  8
0
100
AcDbBlockEnd
  0
BLOCK
  5
119
330
117
100
AcDbEntity
  8
0
100
AcDbBlockBegin
  2
Block_7
 70
     0
 10
0.0
 20
0.0
 30
0.0
  3
Block_7
  1

  0
INSERT
  5
11C
330
117
100
AcDbEntity
  8
レイヤー 1
100
AcDbBlockReference
  2
Block_8
 10
0.0
 20
0.0
 30
0.0
  0
ENDBLK
  5
11A
330
117
100
AcDbEntity
  8
0
100
AcDbBlockEnd
  0
BLOCK
  5
11D
330
11B
100
AcDbEntity
  8
0
100
AcDbBlockBegin
  2
Block_8
 70
     0
 10
0.0
 20
0.0
 30
0.0
  3
Block_8
  1

  0
SPLINE
  5
11F
330
11B
100
AcDbEntity
  8
レイヤー 1
100
AcDbSpline
210
0.0
220
0.0
230
1.0
 70
     9
 71
     3
 72
    44
 73
    40
 74
     0
 42
0.0000000001
 43
0.0000000001
 40
0.0
 40
0.0
 40
0.0
 40
0.0
 40
1.0
 40
1.0
 40
1.0
 40
2.0
 40
2.0
 40
2.0
 40
3.0
 40
3.0
 40
3.0
 40
4.0
 40
4.0
 40
4.0
 40
5.0
 40
5.0
 40
5.0
 40
6.0
 40
6.0
 40
6.0
 40
7.0
 40
7.0
 40
7.0
 40
8.0
 40
8.0
 40
8.0
 40
9.0
 40
9.0
 40
9.0
 40
10.0
 40
10.0
 40
10.0
 40
11.0
 40
11.0
 40
11.0
 40
12.0
 40
12.0
 40
12.0
 40
13.0
 40
13.0
 40
13.0
 40
13.0
 10
108.3568657498205
 20
-140.5995143962737
 30
0.0
 10
108.1391357151527
 20
-140.7581610433695
 30
0.0
 10
108.046118137051
 20
-140.8322305963023
 30
0.0
 10
107.9971977811604
 20
-140.9760633328115
 30
0.0
 10
107.9971977811604
 20
-140.9760633328115
 30
0.0
 10
108.7757893608269
 20
-140.9760633328115
 30
0.0
 10
108.7757893608269
 20
-140.9760633328115
 30
0.0
 10
108.7757893608269
 20
-140.9760633328115
 30
0.0
 10
108.7757893608269
 20
-141.1812187689581
 30
0.0
 10
108.7757893608269
 20
-141.1812187689581
 30
0.0
 10
108.7757893608269
 20
-141.1812187689581
 30
0.0
 10
107.7477728680283
 20
-141.1812187689581
 30
0.0
 10
107.7477728680283
 20
-141.1812187689581
 30
0.0
 10
107.7794677464926
 20
-140.8236178575892
 30
0.0
 10
107.8449245607124
 20
-140.745414190074
 30
0.0
 10
108.2300862359633
 20
-140.4470689210514
 30
0.0
 10
108.4860568305174
 20
-140.2482869115525
 30
0.0
 10
108.5515136447371
 20
-140.1805907852673
 30
0.0
 10
108.5515136447371
 20
-140.0431314754059
 30
0.0
 10
108.5515136447371
 20
-139.9246201907133
 30
0.0
 10
108.4795111490954
 20
-139.7933620527252
 30
0.0
 10
108.2827961968876
 20
-139.7933620527252
 30
0.0
 10
108.0226914877512
 20
-139.7933620527252
 30
0.0
 10
108.0140787490381
 20
-140.0240111954627
 30
0.0
 10
108.0099446344558
 20
-140.1404554228642
 30
0.0
 10
108.0099446344558
 20
-140.1404554228642
 30
0.0
 10
107.7856689183661
 20
-140.1404554228642
 30
0.0
 10
107.7856689183661
 20
-140.1404554228642
 30
0.0
 10
107.7942816570792
 20
-140.0135036542327
 30
0.0
 10
107.8049614530835
 20
-139.9013657961878
 30
0.0
 10
107.8852321778898
 20
-139.7828545114952
 30
0.0
 10
107.9951307238693
 20
-139.6221408071083
 30
0.0
 10
108.1815103896213
 20
-139.5882066165786
 30
0.0
 10
108.2976101074742
 20
-139.5882066165786
 30
0.0
 10
108.5749402940368
 20
-139.5882066165786
 30
0.0
 10
108.7823350422488
 20
-139.7723469702652
 30
0.0
 10
108.7823350422488
 20
-140.045198532697
 30
0.0
 10
108.7823350422488
 20
-140.2736083633691
 30
0.0
 10
108.6658908148474
 20
-140.3731716228928
 30
0.0
 10
108.3568657498205
 20
-140.5995143962737
 30
0.0
  0
HATCH
  5
120
330
11B
100
AcDbEntity
  8
レイヤー 1
 62
    18
420
        0
440
 33554687
100
AcDbHatch
 10
0.0
 20
0.0
 30
0.0
210
0.0
220
0.0
230
1.0
  2
SOLID
 70
     1
 71
     1
 91
        1
 92
        1
 93
        1
 72
     4
 94
        3
 73
     0
 74
     0
 95
       44
 96
       40
 40
0.0
 40
0.0
 40
0.0
 40
0.0
 40
1.0
 40
1.0
 40
1.0
 40
2.0
 40
2.0
 40
2.0
 40
3.0
 40
3.0
 40
3.0
 40
4.0
 40
4.0
 40
4.0
 40
5.0
 40
5.0
 40
5.0
 40
6.0
 40
6.0
 40
6.0
 40
7.0
 40
7.0
 40
7.0
 40
8.0
 40
8.0
 40
8.0
 40
9.0
 40
9.0
 40
9.0
 40
10.0
 40
10.0
 40
10.0
 40
11.0
 40
11.0
 40
11.0
 40
12.0
 40
12.0
 40
12.0
 40
13.0
 40
13.0
 40
13.0
 40
13.0
 10
108.3568657498205
 20
-140.5995143962737
 10
108.1391357151527
 20
-140.7581610433695
 10
108.046118137051
 20
-140.8322305963023
 10
107.9971977811604
 20
-140.9760633328115
 10
107.9971977811604
 20
-140.9760633328115
 10
108.7757893608269
 20
-140.9760633328115
 10
108.7757893608269
 20
-140.9760633328115
 10
108.7757893608269
 20
-140.9760633328115
 10
108.7757893608269
 20
-141.1812187689581
 10
108.7757893608269
 20
-141.1812187689581
 10
108.7757893608269
 20
-141.1812187689581
 10
107.7477728680283
 20
-141.1812187689581
 10
107.7477728680283
 20
-141.1812187689581
 10
107.7794677464926
 20
-140.8236178575892
 10
107.8449245607124
 20
-140.745414190074
 10
108.2300862359633
 20
-140.4470689210514
 10
108.4860568305174
 20
-140.2482869115525
 10
108.5515136447371
 20
-140.1805907852673
 10
108.5515136447371
 20
-140.0431314754059
 10
108.5515136447371
 20
-139.9246201907133
 10
108.4795111490954
 20
-139.7933620527252
 10
108.2827961968876
 20
-139.7933620527252
 10
108.0226914877512
 20
-139.7933620527252
 10
108.0140787490381
 20
-140.0240111954627
 10
108.0099446344558
 20
-140.1404554228642
 10
108.0099446344558
 20
-140.1404554228642
 10
107.7856689183661
 20
-140.1404554228642
 10
107.7856689183661
 20
-140.1404554228642
 10
107.7942816570792
 20
-140.0135036542327
 10
107.8049614530835
 20
-139.9013657961878
 10
107.8852321778898
 20
-139.7828545114952
 10
107.9951307238693
 20
-139.6221408071083
 10
108.1815103896213
 20
-139.5882066165786
 10
108.2976101074742
 20
-139.5882066165786
 10
108.5749402940368
 20
-139.5882066165786
 10
108.7823350422488
 20
-139.7723469702652
 10
108.7823350422488
 20
-140.045198532697
 10
108.7823350422488
 20
-140.2736083633691
 10
108.6658908148474
 20
-140.3731716228928
 10
108.3568657498205
 20
-140.5995143962737
 97
        0
 97
        1
330
11F
 75
     2
 76
     1
 98
        1
 10
0.0
 20
0.0
450
        0
451
        0
460
0.0
461
0.0
452
        0
462
0.0
453
        0
470

  0
SPLINE
  5
121
330
11B
100
AcDbEntity
  8
レイヤー 1
100
AcDbSpline
210
0.0
220
0.0
230
1.0
 70
     9
 71
     3
 72
    17
 73
    13
 74
     0
 42
0.0000000001
 43
0.0000000001
 40
0.0
 40
0.0
 40
0.0
 40
0.0
 40
1.0
 40
1.0
 40
1.0
 40
2.0
 40
2.0
 40
2.0
 40
3.0
 40
3.0
 40
3.0
 40
4.0
 40
4.0
 40
4.0
 40
4.0
 10
109.4406927894801
 20
-139.7807874542041
 30
0.0
 10
109.191267876348
 20
-139.7807874542041
 30
0.0
 10
109.1444145777486
 20
-140.0641465578659
 30
0.0
 10
109.1444145777486
 20
-140.4090006159394
 30
0.0
 10
109.1444145777486
 20
-140.7285332221963
 30
0.0
 10
109.1805880803437
 20
-141.037386032449
 30
0.0
 10
109.4406927894801
 20
-141.037386032449
 30
0.0
 10
109.6883951548695
 20
-141.037386032449
 30
0.0
 10
109.7369710012116
 20
-140.7559217313041
 30
0.0
 10
109.7369710012116
 20
-140.4090006159394
 30
0.0
 10
109.7369710012116
 20
-140.0896402644567
 30
0.0
 10
109.6987304413253
 20
-139.7807874542041
 30
0.0
 10
109.4406927894801
 20
-139.7807874542041
 30
0.0
  0
SPLINE
  5
122
330
11B
100
AcDbEntity
  8
レイヤー 1
100
AcDbSpline
210
0.0
220
0.0
230
1.0
 70
     9
 71
     3
 72
    29
 73
    25
 74
     0
 42
0.0000000001
 43
0.0000000001
 40
0.0
 40
0.0
 40
0.0
 40
0.0
 40
1.0
 40
1.0
 40
1.0
 40
2.0
 40
2.0
 40
2.0
 40
3.0
 40
3.0
 40
3.0
 40
4.0
 40
4.0
 40
4.0
 40
5.0
 40
5.0
 40
5.0
 40
6.0
 40
6.0
 40
6.0
 40
7.0
 40
7.0
 40
7.0
 40
8.0
 40
8.0
 40
8.0
 40
8.0
 10
109.8386013180264
 20
-141.0034518419193
 30
0.0
 10
109.7304253197896
 20
-141.2129136474224
 30
0.0
 10
109.5571370168815
 20
-141.2320339273656
 30
0.0
 10
109.4406927894801
 20
-141.2320339273656
 30
0.0
 10
109.2798068303189
 20
-141.2320339273656
 30
0.0
 10
109.1382134058751
 20
-141.1855251383147
 30
0.0
 10
109.0431287704823
 20
-141.0034518419193
 30
0.0
 10
108.9394313963762
 20
-140.8089762017769
 30
0.0
 10
108.9204833712074
 20
-140.5719536323917
 30
0.0
 10
108.9204833712074
 20
-140.4090006159394
 30
0.0
 10
108.9204833712074
 20
-140.2651678794302
 30
0.0
 10
108.9373643390851
 20
-140.0135036542327
 30
0.0
 10
109.0431287704823
 20
-139.8145493899595
 30
0.0
 10
109.1509602591706
 20
-139.6114610111041
 30
0.0
 10
109.3118462183317
 20
-139.5882066165786
 30
0.0
 10
109.4406927894801
 20
-139.5882066165786
 30
0.0
 10
109.5995116913501
 20
-139.5882066165786
 30
0.0
 10
109.743172173085
 20
-139.6326483483383
 30
0.0
 10
109.8386013180264
 20
-139.8145493899595
 30
0.0
 10
109.9378200680016
 20
-140.007130227585
 30
0.0
 10
109.9612467173013
 20
-140.2355400582571
 30
0.0
 10
109.9612467173013
 20
-140.4090006159394
 30
0.0
 10
109.9612467173013
 20
-140.5803941163306
 30
0.0
 10
109.9398871252928
 20
-140.8110432590681
 30
0.0
 10
109.8386013180264
 20
-141.0034518419193
 30
0.0
  0
HATCH
  5
123
330
11B
100
AcDbEntity
  8
レイヤー 1
 62
    18
420
        0
440
 33554687
100
AcDbHatch
 10
0.0
 20
0.0
 30
0.0
210
0.0
220
0.0
230
1.0
  2
SOLID
 70
     1
 71
     1
 91
        2
 92
        1
 93
        1
 72
     4
 94
        3
 73
     0
 74
     0
 95
       17
 96
       13
 40
0.0
 40
0.0
 40
0.0
 40
0.0
 40
1.0
 40
1.0
 40
1.0
 40
2.0
 40
2.0
 40
2.0
 40
3.0
 40
3.0
 40
3.0
 40
4.0
 40
4.0
 40
4.0
 40
4.0
 10
109.4406927894801
 20
-139.7807874542041
 10
109.191267876348
 20
-139.7807874542041
 10
109.1444145777486
 20
-140.0641465578659
 10
109.1444145777486
 20
-140.4090006159394
 10
109.1444145777486
 20
-140.7285332221963
 10
109.1805880803437
 20
-141.037386032449
 10
109.4406927894801
 20
-141.037386032449
 10
109.6883951548695
 20
-141.037386032449
 10
109.7369710012116
 20
-140.7559217313041
 10
109.7369710012116
 20
-140.4090006159394
 10
109.7369710012116
 20
-140.0896402644567
 10
109.6987304413253
 20
-139.7807874542041
 10
109.4406927894801
 20
-139.7807874542041
 97
        0
 97
        1
330
121
 92
        1
 93
        1
 72
     4
 94
        3
 73
     0
 74
     0
 95
       29
 96
       25
 40
0.0
 40
0.0
 40
0.0
 40
0.0
 40
1.0
 40
1.0
 40
1.0
 40
2.0
 40
2.0
 40
2.0
 40
3.0
 40
3.0
 40
3.0
 40
4.0
 40
4.0
 40
4.0
 40
5.0
 40
5.0
 40
5.0
 40
6.0
 40
6.0
 40
6.0
 40
7.0
 40
7.0
 40
7.0
 40
8.0
 40
8.0
 40
8.0
 40
8.0
 10
109.8386013180264
 20
-141.0034518419193
 10
109.7304253197896
 20
-141.2129136474224
 10
109.5571370168815
 20
-141.2320339273656
 10
109.4406927894801
 20
-141.2320339273656
 10
109.2798068303189
 20
-141.2320339273656
 10
109.1382134058751
 20
-141.1855251383147
 10
109.0431287704823
 20
-141.0034518419193
 10
108.9394313963762
 20
-140.8089762017769
 10
108.9204833712074
 20
-140.5719536323917
 10
108.9204833712074
 20
-140.4090006159394
 10
108.9204833712074
 20
-140.2651678794302
 10
108.9373643390851
 20
-140.0135036542327
 10
109.0431287704823
 20
-139.8145493899595
 10
109.1509602591706
 20
-139.6114610111041
 10
109.3118462183317
 20
-139.5882066165786
 10
109.4406927894801
 20
-139.5882066165786
 10
109.5995116913501
 20
-139.5882066165786
 10
109.743172173085
 20
-139.6326483483383
 10
109.8386013180264
 20
-139.8145493899595
 10
109.9378200680016
 20
-140.007130227585
 10
109.9612467173013
 20
-140.2355400582571
 10
109.9612467173013
 20
-140.4090006159394
 10
109.9612467173013
 20
-140.5803941163306
 10
109.9398871252928
 20
-140.8110432590681
 10
109.8386013180264
 20
-141.0034518419193
 97
        0
 97
        1
330
122
 75
     2
 76
     1
 98
        1
 10
0.0
 20
0.0
450
        0
451
        0
460
0.0
461
0.0
452
        0
462
0.0
453
        0
470

  0
ENDBLK
  5
11E
330
11B
100
AcDbEntity
  8
0
100
AcDbBlockEnd
  0
BLOCK
  5
12B
330
129
100
AcDbEntity
  8
0
100
AcDbBlockBegin
  2
Block_9
 70
     0
 10
0.0
 20
0.0
 30
0.0
  3
Block_9
  1

  0
INSERT
  5
12E
330
129
100
AcDbEntity
  8
レイヤー 1
100
AcDbBlockReference
  2
Block_10
 10
0.0
 20
0.0
 30
0.0
  0
ENDBLK
  5
12C
330
129
100
AcDbEntity
  8
0
100
AcDbBlockEnd
  0
BLOCK
  5
12F
330
12D
100
AcDbEntity
  8
0
100
AcDbBlockBegin
  2
Block_10
 70
     0
 10
0.0
 20
0.0
 30
0.0
  3
Block_10
  1

  0
SPLINE
  5
131
330
12D
100
AcDbEntity
  8
レイヤー 1
100
AcDbSpline
210
0.0
220
0.0
230
1.0
 70
     9
 71
     3
 72
    44
 73
    40
 74
     0
 42
0.0000000001
 43
0.0000000001
 40
0.0
 40
0.0
 40
0.0
 40
0.0
 40
1.0
 40
1.0
 40
1.0
 40
2.0
 40
2.0
 40
2.0
 40
3.0
 40
3.0
 40
3.0
 40
4.0
 40
4.0
 40
4.0
 40
5.0
 40
5.0
 40
5.0
 40
6.0
 40
6.0
 40
6.0
 40
7.0
 40
7.0
 40
7.0
 40
8.0
 40
8.0
 40
8.0
 40
9.0
 40
9.0
 40
9.0
 40
10.0
 40
10.0
 40
10.0
 40
11.0
 40
11.0
 40
11.0
 40
12.0
 40
12.0
 40
12.0
 40
13.0
 40
13.0
 40
13.0
 40
13.0
 10
108.4571180284413
 20
-155.9749755469437
 30
0.0
 10
108.2393879937735
 20
-156.1337944488137
 30
0.0
 10
108.1463704156717
 20
-156.2078640017466
 30
0.0
 10
108.0974500597812
 20
-156.3515244834816
 30
0.0
 10
108.0974500597812
 20
-156.3515244834816
 30
0.0
 10
108.8760416394476
 20
-156.3515244834816
 30
0.0
 10
108.8760416394476
 20
-156.3515244834816
 30
0.0
 10
108.8760416394476
 20
-156.3515244834816
 30
0.0
 10
108.8760416394476
 20
-156.5568521744024
 30
0.0
 10
108.8760416394476
 20
-156.5568521744024
 30
0.0
 10
108.8760416394476
 20
-156.5568521744024
 30
0.0
 10
107.8480251466491
 20
-156.5568521744024
 30
0.0
 10
107.8480251466491
 20
-156.5568521744024
 30
0.0
 10
107.8797200251134
 20
-156.1992512630335
 30
0.0
 10
107.9451768393331
 20
-156.1210475955183
 30
0.0
 10
108.3303385145841
 20
-155.8227023264957
 30
0.0
 10
108.5863091091381
 20
-155.6239203169968
 30
0.0
 10
108.6517659233579
 20
-155.5560519359374
 30
0.0
 10
108.6517659233579
 20
-155.4185926260759
 30
0.0
 10
108.6517659233579
 20
-155.3000813413833
 30
0.0
 10
108.5797634277162
 20
-155.1691677129438
 30
0.0
 10
108.3830484755084
 20
-155.1691677129438
 30
0.0
 10
108.122943766372
 20
-155.1691677129438
 30
0.0
 10
108.1143310276589
 20
-155.399644600907
 30
0.0
 10
108.1101969130766
 20
-155.5160888283085
 30
0.0
 10
108.1101969130766
 20
-155.5160888283085
 30
0.0
 10
107.8859211969868
 20
-155.5160888283085
 30
0.0
 10
107.8859211969868
 20
-155.5160888283085
 30
0.0
 10
107.8945339357
 20
-155.3889648049027
 30
0.0
 10
107.9052137317042
 20
-155.2769992016321
 30
0.0
 10
107.9854844565105
 20
-155.1584879169395
 30
0.0
 10
108.09538300249
 20
-154.9976019577784
 30
0.0
 10
108.281762668242
 20
-154.9638400220229
 30
0.0
 10
108.397862386095
 20
-154.9638400220229
 30
0.0
 10
108.6751925726576
 20
-154.9638400220229
 30
0.0
 10
108.8825873208696
 20
-155.1478081209353
 30
0.0
 10
108.8825873208696
 20
-155.420659683367
 30
0.0
 10
108.8825873208696
 20
-155.6494140235876
 30
0.0
 10
108.7661430934682
 20
-155.7486327735628
 30
0.0
 10
108.4571180284413
 20
-155.9749755469437
 30
0.0
  0
HATCH
  5
132
330
12D
100
AcDbEntity
  8
レイヤー 1
 62
    18
420
        0
440
 33554687
100
AcDbHatch
 10
0.0
 20
0.0
 30
0.0
210
0.0
220
0.0
230
1.0
  2
SOLID
 70
     1
 71
     1
 91
        1
 92
        1
 93
        1
 72
     4
 94
        3
 73
     0
 74
     0
 95
       44
 96
       40
 40
0.0
 40
0.0
 40
0.0
 40
0.0
 40
1.0
 40
1.0
 40
1.0
 40
2.0
 40
2.0
 40
2.0
 40
3.0
 40
3.0
 40
3.0
 40
4.0
 40
4.0
 40
4.0
 40
5.0
 40
5.0
 40
5.0
 40
6.0
 40
6.0
 40
6.0
 40
7.0
 40
7.0
 40
7.0
 40
8.0
 40
8.0
 40
8.0
 40
9.0
 40
9.0
 40
9.0
 40
10.0
 40
10.0
 40
10.0
 40
11.0
 40
11.0
 40
11.0
 40
12.0
 40
12.0
 40
12.0
 40
13.0
 40
13.0
 40
13.0
 40
13.0
 10
108.4571180284413
 20
-155.9749755469437
 10
108.2393879937735
 20
-156.1337944488137
 10
108.1463704156717
 20
-156.2078640017466
 10
108.0974500597812
 20
-156.3515244834816
 10
108.0974500597812
 20
-156.3515244834816
 10
108.8760416394476
 20
-156.3515244834816
 10
108.8760416394476
 20
-156.3515244834816
 10
108.8760416394476
 20
-156.3515244834816
 10
108.8760416394476
 20
-156.5568521744024
 10
108.8760416394476
 20
-156.5568521744024
 10
108.8760416394476
 20
-156.5568521744024
 10
107.8480251466491
 20
-156.5568521744024
 10
107.8480251466491
 20
-156.5568521744024
 10
107.8797200251134
 20
-156.1992512630335
 10
107.9451768393331
 20
-156.1210475955183
 10
108.3303385145841
 20
-155.8227023264957
 10
108.5863091091381
 20
-155.6239203169968
 10
108.6517659233579
 20
-155.5560519359374
 10
108.6517659233579
 20
-155.4185926260759
 10
108.6517659233579
 20
-155.3000813413833
 10
108.5797634277162
 20
-155.1691677129438
 10
108.3830484755084
 20
-155.1691677129438
 10
108.122943766372
 20
-155.1691677129438
 10
108.1143310276589
 20
-155.399644600907
 10
108.1101969130766
 20
-155.5160888283085
 10
108.1101969130766
 20
-155.5160888283085
 10
107.8859211969868
 20
-155.5160888283085
 10
107.8859211969868
 20
-155.5160888283085
 10
107.8945339357
 20
-155.3889648049027
 10
107.9052137317042
 20
-155.2769992016321
 10
107.9854844565105
 20
-155.1584879169395
 10
108.09538300249
 20
-154.9976019577784
 10
108.281762668242
 20
-154.9638400220229
 10
108.397862386095
 20
-154.9638400220229
 10
108.6751925726576
 20
-154.9638400220229
 10
108.8825873208696
 20
-155.1478081209353
 10
108.8825873208696
 20
-155.420659683367
 10
108.8825873208696
 20
-155.6494140235876
 10
108.7661430934682
 20
-155.7486327735628
 10
108.4571180284413
 20
-155.9749755469437
 97
        0
 97
        1
330
131
 75
     2
 76
     1
 98
        1
 10
0.0
 20
0.0
450
        0
451
        0
460
0.0
461
0.0
452
        0
462
0.0
453
        0
470

  0
SPLINE
  5
133
330
12D
100
AcDbEntity
  8
レイヤー 1
100
AcDbSpline
210
0.0
220
0.0
230
1.0
 70
     9
 71
     3
 72
    44
 73
    40
 74
     0
 42
0.0000000001
 43
0.0000000001
 40
0.0
 40
0.0
 40
0.0
 40
0.0
 40
1.0
 40
1.0
 40
1.0
 40
2.0
 40
2.0
 40
2.0
 40
3.0
 40
3.0
 40
3.0
 40
4.0
 40
4.0
 40
4.0
 40
5.0
 40
5.0
 40
5.0
 40
6.0
 40
6.0
 40
6.0
 40
7.0
 40
7.0
 40
7.0
 40
8.0
 40
8.0
 40
8.0
 40
9.0
 40
9.0
 40
9.0
 40
10.0
 40
10.0
 40
10.0
 40
11.0
 40
11.0
 40
11.0
 40
12.0
 40
12.0
 40
12.0
 40
13.0
 40
13.0
 40
13.0
 40
13.0
 10
109.6339626462026
 20
-155.9749755469437
 30
0.0
 10
109.4162326115348
 20
-156.1337944488137
 30
0.0
 10
109.3232150334331
 20
-156.2078640017466
 30
0.0
 10
109.2742946775425
 20
-156.3515244834816
 30
0.0
 10
109.2742946775425
 20
-156.3515244834816
 30
0.0
 10
110.052886257209
 20
-156.3515244834816
 30
0.0
 10
110.052886257209
 20
-156.3515244834816
 30
0.0
 10
110.052886257209
 20
-156.3515244834816
 30
0.0
 10
110.052886257209
 20
-156.5568521744024
 30
0.0
 10
110.052886257209
 20
-156.5568521744024
 30
0.0
 10
110.052886257209
 20
-156.5568521744024
 30
0.0
 10
109.0248697644104
 20
-156.5568521744024
 30
0.0
 10
109.0248697644104
 20
-156.5568521744024
 30
0.0
 10
109.0565646428747
 20
-156.1992512630335
 30
0.0
 10
109.1220214570945
 20
-156.1210475955183
 30
0.0
 10
109.5071831323454
 20
-155.8227023264957
 30
0.0
 10
109.7631537268995
 20
-155.6239203169968
 30
0.0
 10
109.8286105411192
 20
-155.5560519359374
 30
0.0
 10
109.8286105411192
 20
-155.4185926260759
 30
0.0
 10
109.8286105411192
 20
-155.3000813413833
 30
0.0
 10
109.7566080454775
 20
-155.1691677129438
 30
0.0
 10
109.5598930932697
 20
-155.1691677129438
 30
0.0
 10
109.2997883841334
 20
-155.1691677129438
 30
0.0
 10
109.2911756454203
 20
-155.399644600907
 30
0.0
 10
109.2870415308379
 20
-155.5160888283085
 30
0.0
 10
109.2870415308379
 20
-155.5160888283085
 30
0.0
 10
109.0627658147482
 20
-155.5160888283085
 30
0.0
 10
109.0627658147482
 20
-155.5160888283085
 30
0.0
 10
109.0713785534613
 20
-155.3889648049027
 30
0.0
 10
109.0820583494656
 20
-155.2769992016321
 30
0.0
 10
109.1623290742719
 20
-155.1584879169395
 30
0.0
 10
109.2722276202514
 20
-154.9976019577784
 30
0.0
 10
109.4586072860034
 20
-154.9638400220229
 30
0.0
 10
109.5747070038563
 20
-154.9638400220229
 30
0.0
 10
109.8520371904189
 20
-154.9638400220229
 30
0.0
 10
110.059431938631
 20
-155.1478081209353
 30
0.0
 10
110.059431938631
 20
-155.420659683367
 30
0.0
 10
110.059431938631
 20
-155.6494140235876
 30
0.0
 10
109.9429877112295
 20
-155.7486327735628
 30
0.0
 10
109.6339626462026
 20
-155.9749755469437
 30
0.0
  0
HATCH
  5
134
330
12D
100
AcDbEntity
  8
レイヤー 1
 62
    18
420
        0
440
 33554687
100
AcDbHatch
 10
0.0
 20
0.0
 30
0.0
210
0.0
220
0.0
230
1.0
  2
SOLID
 70
     1
 71
     1
 91
        1
 92
        1
 93
        1
 72
     4
 94
        3
 73
     0
 74
     0
 95
       44
 96
       40
 40
0.0
 40
0.0
 40
0.0
 40
0.0
 40
1.0
 40
1.0
 40
1.0
 40
2.0
 40
2.0
 40
2.0
 40
3.0
 40
3.0
 40
3.0
 40
4.0
 40
4.0
 40
4.0
 40
5.0
 40
5.0
 40
5.0
 40
6.0
 40
6.0
 40
6.0
 40
7.0
 40
7.0
 40
7.0
 40
8.0
 40
8.0
 40
8.0
 40
9.0
 40
9.0
 40
9.0
 40
10.0
 40
10.0
 40
10.0
 40
11.0
 40
11.0
 40
11.0
 40
12.0
 40
12.0
 40
12.0
 40
13.0
 40
13.0
 40
13.0
 40
13.0
 10
109.6339626462026
 20
-155.9749755469437
 10
109.4162326115348
 20
-156.1337944488137
 10
109.3232150334331
 20
-156.2078640017466
 10
109.2742946775425
 20
-156.3515244834816
 10
109.2742946775425
 20
-156.3515244834816
 10
110.052886257209
 20
-156.3515244834816
 10
110.052886257209
 20
-156.3515244834816
 10
110.052886257209
 20
-156.3515244834816
 10
110.052886257209
 20
-156.5568521744024
 10
110.052886257209
 20
-156.5568521744024
 10
110.052886257209
 20
-156.5568521744024
 10
109.0248697644104
 20
-156.5568521744024
 10
109.0248697644104
 20
-156.5568521744024
 10
109.0565646428747
 20
-156.1992512630335
 10
109.1220214570945
 20
-156.1210475955183
 10
109.5071831323454
 20
-155.8227023264957
 10
109.7631537268995
 20
-155.6239203169968
 10
109.8286105411192
 20
-155.5560519359374
 10
109.8286105411192
 20
-155.4185926260759
 10
109.8286105411192
 20
-155.3000813413833
 10
109.7566080454775
 20
-155.1691677129438
 10
109.5598930932697
 20
-155.1691677129438
 10
109.2997883841334
 20
-155.1691677129438
 10
109.2911756454203
 20
-155.399644600907
 10
109.2870415308379
 20
-155.5160888283085
 10
109.2870415308379
 20
-155.5160888283085
 10
109.0627658147482
 20
-155.5160888283085
 10
109.0627658147482
 20
-155.5160888283085
 10
109.0713785534613
 20
-155.3889648049027
 10
109.0820583494656
 20
-155.2769992016321
 10
109.1623290742719
 20
-155.1584879169395
 10
109.2722276202514
 20
-154.9976019577784
 10
109.4586072860034
 20
-154.9638400220229
 10
109.5747070038563
 20
-154.9638400220229
 10
109.8520371904189
 20
-154.9638400220229
 10
110.059431938631
 20
-155.1478081209353
 10
110.059431938631
 20
-155.420659683367
 10
110.059431938631
 20
-155.6494140235876
 10
109.9429877112295
 20
-155.7486327735628
 10
109.6339626462026
 20
-155.9749755469437
 97
        0
 97
        1
330
133
 75
     2
 76
     1
 98
        1
 10
0.0
 20
0.0
450
        0
451
        0
460
0.0
461
0.0
452
        0
462
0.0
453
        0
470

  0
ENDBLK
  5
130
330
12D
100
AcDbEntity
  8
0
100
AcDbBlockEnd
  0
BLOCK
  5
138
330
136
100
AcDbEntity
  8
0
100
AcDbBlockBegin
  2
Block_11
 70
     0
 10
0.0
 20
0.0
 30
0.0
  3
Block_11
  1

  0
SPLINE
  5
13A
330
136
100
AcDbEntity
  8
レイヤー 1
100
AcDbSpline
210
0.0
220
0.0
230
1.0
 70
    11
 71
     3
 72
    26
 73
    22
 74
     0
 42
0.0000000001
 43
0.0000000001
 40
0.0
 40
0.0
 40
0.0
 40
0.0
 40
1.0
 40
1.0
 40
1.0
 40
2.0
 40
2.0
 40
2.0
 40
3.0
 40
3.0
 40
3.0
 40
4.0
 40
4.0
 40
4.0
 40
5.0
 40
5.0
 40
5.0
 40
6.0
 40
6.0
 40
6.0
 40
7.0
 40
7.0
 40
7.0
 40
7.0
 10
121.6962754687079
 20
-149.5343695372692
 30
0.0
 10
121.6962754687079
 20
-149.5343695372692
 30
0.0
 10
121.6962754687079
 20
-148.4300441794723
 30
0.0
 10
121.6962754687079
 20
-148.4300441794723
 30
0.0
 10
121.6962754687079
 20
-148.4300441794723
 30
0.0
 10
121.3662353212209
 20
-148.4300441794723
 30
0.0
 10
121.3662353212209
 20
-148.4300441794723
 30
0.0
 10
121.3662353212209
 20
-148.4300441794723
 30
0.0
 10
121.3662353212209
 20
-148.2819050736066
 30
0.0
 10
121.3662353212209
 20
-148.2819050736066
 30
0.0
 10
121.698342525999
 20
-148.2672634177943
 30
0.0
 10
121.7448513150499
 20
-148.104310401342
 30
0.0
 10
121.774479136223
 20
-147.9901054860059
 30
0.0
 10
121.774479136223
 20
-147.9901054860059
 30
0.0
 10
121.9205511847976
 20
-147.9901054860059
 30
0.0
 10
121.9205511847976
 20
-147.9901054860059
 30
0.0
 10
121.9205511847976
 20
-147.9901054860059
 30
0.0
 10
121.9205511847976
 20
-149.5343695372692
 30
0.0
 10
121.9205511847976
 20
-149.5343695372692
 30
0.0
 10
121.9205511847976
 20
-149.5343695372692
 30
0.0
 10
121.6962754687079
 20
-149.5343695372692
 30
0.0
 10
121.6962754687079
 20
-149.5343695372692
 30
0.0
  0
HATCH
  5
13B
330
136
100
AcDbEntity
  8
レイヤー 1
 62
    18
420
        0
440
 33554687
100
AcDbHatch
 10
0.0
 20
0.0
 30
0.0
210
0.0
220
0.0
230
1.0
  2
SOLID
 70
     1
 71
     1
 91
        1
 92
        1
 93
        1
 72
     4
 94
        3
 73
     0
 74
     0
 95
       26
 96
       22
 40
0.0
 40
0.0
 40
0.0
 40
0.0
 40
1.0
 40
1.0
 40
1.0
 40
2.0
 40
2.0
 40
2.0
 40
3.0
 40
3.0
 40
3.0
 40
4.0
 40
4.0
 40
4.0
 40
5.0
 40
5.0
 40
5.0
 40
6.0
 40
6.0
 40
6.0
 40
7.0
 40
7.0
 40
7.0
 40
7.0
 10
121.6962754687079
 20
-149.5343695372692
 10
121.6962754687079
 20
-149.5343695372692
 10
121.6962754687079
 20
-148.4300441794723
 10
121.6962754687079
 20
-148.4300441794723
 10
121.6962754687079
 20
-148.4300441794723
 10
121.3662353212209
 20
-148.4300441794723
 10
121.3662353212209
 20
-148.4300441794723
 10
121.3662353212209
 20
-148.4300441794723
 10
121.3662353212209
 20
-148.2819050736066
 10
121.3662353212209
 20
-148.2819050736066
 10
121.698342525999
 20
-148.2672634177943
 10
121.7448513150499
 20
-148.104310401342
 10
121.774479136223
 20
-147.9901054860059
 10
121.774479136223
 20
-147.9901054860059
 10
121.9205511847976
 20
-147.9901054860059
 10
121.9205511847976
 20
-147.9901054860059
 10
121.9205511847976
 20
-147.9901054860059
 10
121.9205511847976
 20
-149.5343695372692
 10
121.9205511847976
 20
-149.5343695372692
 10
121.9205511847976
 20
-149.5343695372692
 10
121.6962754687079
 20
-149.5343695372692
 10
121.6962754687079
 20
-149.5343695372692
 97
        0
 97
        1
330
13A
 75
     2
 76
     1
 98
        1
 10
0.0
 20
0.0
450
        0
451
        0
460
0.0
461
0.0
452
        0
462
0.0
453
        0
470

  0
ENDBLK
  5
139
330
136
100
AcDbEntity
  8
0
100
AcDbBlockEnd
  0
BLOCK
  5
13E
330
13C
100
AcDbEntity
  8
0
100
AcDbBlockBegin
  2
Block_12
 70
     0
 10
0.0
 20
0.0
 30
0.0
  3
Block_12
  1

  0
LWPOLYLINE
  5
140
330
13C
100
AcDbEntity
  8
レイヤー 1
 62
   250
420
  2299925
370
     9
100
AcDbPolyline
 90
        4
 70
     1
 43
0.0
 10
120.2193799968601
 20
-152.8881409145902
 10
120.7812844269691
 20
-152.8812617479251
 10
119.8907322274668
 20
-152.5656667480041
 10
120.1949324974838
 20
-153.4799961922194
  0
HATCH
  5
141
330
13C
100
AcDbEntity
  8
レイヤー 1
 62
   250
420
  2299925
440
 33554687
100
AcDbHatch
 10
0.0
 20
0.0
 30
0.0
210
0.0
220
0.0
230
1.0
  2
SOLID
 70
     1
 71
     1
 91
        1
 92
        1
 93
        4
 72
     1
 10
120.2193799968601
 20
-152.8881409145902
 11
120.7812844269691
 21
-152.8812617479251
 72
     1
 10
120.7812844269691
 20
-152.8812617479251
 11
119.8907322274668
 21
-152.5656667480041
 72
     1
 10
119.8907322274668
 20
-152.5656667480041
 11
120.1949324974838
 21
-153.4799961922194
 72
     1
 10
120.1949324974838
 20
-153.4799961922194
 11
120.2193799968601
 21
-152.8881409145902
 97
        1
330
140
 75
     2
 76
     1
 98
        1
 10
0.0
 20
0.0
450
        0
451
        0
460
0.0
461
0.0
452
        0
462
0.0
453
        0
470

  0
LINE
  5
142
330
13C
100
AcDbEntity
  8
レイヤー 1
 62
   250
420
  2299925
370
     9
100
AcDbLine
 10
120.2193799968601
 20
-152.8881409145902
 30
0.0
 11
122.6237386146423
 21
-155.2776459139928
 31
0.0
  0
ENDBLK
  5
13F
330
13C
100
AcDbEntity
  8
0
100
AcDbBlockEnd
  0
BLOCK
  5
145
330
143
100
AcDbEntity
  8
0
100
AcDbBlockBegin
  2
Block_13
 70
     0
 10
0.0
 20
0.0
 30
0.0
  3
Block_13
  1

  0
INSERT
  5
148
330
143
100
AcDbEntity
  8
レイヤー 1
100
AcDbBlockReference
  2
Block_14
 10
0.0
 20
0.0
 30
0.0
  0
ENDBLK
  5
146
330
143
100
AcDbEntity
  8
0
100
AcDbBlockEnd
  0
BLOCK
  5
149
330
147
100
AcDbEntity
  8
0
100
AcDbBlockBegin
  2
Block_14
 70
     0
 10
0.0
 20
0.0
 30
0.0
  3
Block_14
  1

  0
SPLINE
  5
14B
330
147
100
AcDbEntity
  8
レイヤー 1
100
AcDbSpline
210
0.0
220
0.0
230
1.0
 70
     9
 71
     3
 72
    38
 73
    34
 74
     0
 42
0.0000000001
 43
0.0000000001
 40
0.0
 40
0.0
 40
0.0
 40
0.0
 40
1.0
 40
1.0
 40
1.0
 40
2.0
 40
2.0
 40
2.0
 40
3.0
 40
3.0
 40
3.0
 40
4.0
 40
4.0
 40
4.0
 40
5.0
 40
5.0
 40
5.0
 40
6.0
 40
6.0
 40
6.0
 40
7.0
 40
7.0
 40
7.0
 40
8.0
 40
8.0
 40
8.0
 40
9.0
 40
9.0
 40
9.0
 40
10.0
 40
10.0
 40
10.0
 40
11.0
 40
11.0
 40
11.0
 40
11.0
 10
123.1552734067112
 20
-156.3580701649035
 30
0.0
 10
123.2482909848129
 20
-156.2354247656286
 30
0.0
 10
123.3733479509275
 20
-156.0555907812986
 30
0.0
 10
123.4684325863204
 20
-155.607039349119
 30
0.0
 10
123.4684325863204
 20
-155.607039349119
 30
0.0
 10
123.635519717355
 20
-155.6263318838365
 30
0.0
 10
123.635519717355
 20
-155.6263318838365
 30
0.0
 10
123.6100260107641
 20
-155.7469102258202
 30
0.0
 10
123.586943871013
 20
-155.8378607466308
 30
0.0
 10
123.5487033111267
 20
-155.9456922353191
 30
0.0
 10
123.5487033111267
 20
-155.9456922353191
 30
0.0
 10
124.1770887276363
 20
-155.9456922353191
 30
0.0
 10
124.1770887276363
 20
-155.9456922353191
 30
0.0
 10
124.1770887276363
 20
-155.9456922353191
 30
0.0
 10
124.1770887276363
 20
-156.0979654557672
 30
0.0
 10
124.1770887276363
 20
-156.0979654557672
 30
0.0
 10
124.1433267918808
 20
-156.2399033897594
 30
0.0
 10
124.0478976469394
 20
-156.4979410416047
 30
0.0
 10
123.9738280940065
 20
-156.6164523262973
 30
0.0
 10
123.9738280940065
 20
-156.6164523262973
 30
0.0
 10
123.8215548735585
 20
-156.5379041492336
 30
0.0
 10
123.8215548735585
 20
-156.5379041492336
 30
0.0
 10
123.9169840184999
 20
-156.4025118966632
 30
0.0
 10
123.9824408327196
 20
-156.2144096831686
 30
0.0
 10
124.0100015966016
 20
-156.1041666276406
 30
0.0
 10
124.0100015966016
 20
-156.1041666276406
 30
0.0
 10
123.4915147260716
 20
-156.1041666276406
 30
0.0
 10
123.4915147260716
 20
-156.1041666276406
 30
0.0
 10
123.3922959760963
 20
-156.3456678211566
 30
0.0
 10
123.3182264231635
 20
-156.4342067751275
 30
0.0
 10
123.2799858632772
 20
-156.4786485068873
 30
0.0
 10
123.2799858632772
 20
-156.4786485068873
 30
0.0
 10
123.1552734067112
 20
-156.3580701649035
 30
0.0
 10
123.1552734067112
 20
-156.3580701649035
 30
0.0
  0
SPLINE
  5
14C
330
147
100
AcDbEntity
  8
レイヤー 1
100
AcDbSpline
210
0.0
220
0.0
230
1.0
 70
     9
 71
     3
 72
    38
 73
    34
 74
     0
 42
0.0000000001
 43
0.0000000001
 40
0.0
 40
0.0
 40
0.0
 40
0.0
 40
1.0
 40
1.0
 40
1.0
 40
2.0
 40
2.0
 40
2.0
 40
3.0
 40
3.0
 40
3.0
 40
4.0
 40
4.0
 40
4.0
 40
5.0
 40
5.0
 40
5.0
 40
6.0
 40
6.0
 40
6.0
 40
7.0
 40
7.0
 40
7.0
 40
8.0
 40
8.0
 40
8.0
 40
9.0
 40
9.0
 40
9.0
 40
10.0
 40
10.0
 40
10.0
 40
11.0
 40
11.0
 40
11.0
 40
11.0
 10
123.0408962366009
 20
-157.4308728990103
 30
0.0
 10
123.1235785282469
 20
-157.3778184285375
 30
0.0
 10
123.2885986019903
 20
-157.2699869398492
 30
0.0
 10
123.3943630333875
 20
-157.0625921916371
 30
0.0
 10
123.5425021392533
 20
-156.7707926040364
 30
0.0
 10
123.5425021392533
 20
-156.5444498306555
 30
0.0
 10
123.5425021392533
 20
-156.4597004817184
 30
0.0
 10
123.5425021392533
 20
-156.4597004817184
 30
0.0
 10
123.5425021392533
 20
-156.2250894791729
 30
0.0
 10
123.5425021392533
 20
-156.2250894791729
 30
0.0
 10
123.5425021392533
 20
-156.2250894791729
 30
0.0
 10
123.7075222129967
 20
-156.2250894791729
 30
0.0
 10
123.7075222129967
 20
-156.2250894791729
 30
0.0
 10
123.7075222129967
 20
-156.2250894791729
 30
0.0
 10
123.7075222129967
 20
-156.4514322525538
 30
0.0
 10
123.7075222129967
 20
-156.4514322525538
 30
0.0
 10
123.7075222129967
 20
-156.6502142620527
 30
0.0
 10
123.7729790272165
 20
-156.8872368314379
 30
0.0
 10
123.8746093440313
 20
-157.060525134346
 30
0.0
 10
123.9910535714328
 20
-157.2593071438449
 30
0.0
 10
124.1199001425811
 20
-157.3588704033686
 30
0.0
 10
124.2046494915183
 20
-157.420193103006
 30
0.0
 10
124.2046494915183
 20
-157.420193103006
 30
0.0
 10
124.0968180028299
 20
-157.5703992661629
 30
0.0
 10
124.0968180028299
 20
-157.5703992661629
 30
0.0
 10
123.9190510757911
 20
-157.441208185466
 30
0.0
 10
123.7202690662921
 20
-157.2021185587897
 30
0.0
 10
123.6417208892284
 20
-156.8489962715516
 30
0.0
 10
123.5762640750087
 20
-157.0880858982279
 30
0.0
 10
123.4746337581938
 20
-157.3568033460774
 30
0.0
 10
123.1659532027154
 20
-157.5662651515806
 30
0.0
 10
123.1659532027154
 20
-157.5662651515806
 30
0.0
 10
123.0408962366009
 20
-157.4308728990103
 30
0.0
 10
123.0408962366009
 20
-157.4308728990103
 30
0.0
  0
SPLINE
  5
14D
330
147
100
AcDbEntity
  8
レイヤー 1
100
AcDbSpline
210
0.0
220
0.0
230
1.0
 70
    11
 71
     3
 72
    17
 73
    13
 74
     0
 42
0.0000000001
 43
0.0000000001
 40
0.0
 40
0.0
 40
0.0
 40
0.0
 40
1.0
 40
1.0
 40
1.0
 40
2.0
 40
2.0
 40
2.0
 40
3.0
 40
3.0
 40
3.0
 40
4.0
 40
4.0
 40
4.0
 40
4.0
 10
122.9988660716808
 20
-156.5423827733644
 30
0.0
 10
122.9988660716808
 20
-156.5423827733644
 30
0.0
 10
122.7873372088865
 20
-156.5423827733644
 30
0.0
 10
122.7873372088865
 20
-156.5423827733644
 30
0.0
 10
122.7873372088865
 20
-156.5423827733644
 30
0.0
 10
122.7873372088865
 20
-156.7494330120279
 30
0.0
 10
122.7873372088865
 20
-156.7494330120279
 30
0.0
 10
122.7873372088865
 20
-156.7494330120279
 30
0.0
 10
122.9988660716808
 20
-156.7494330120279
 30
0.0
 10
122.9988660716808
 20
-156.7494330120279
 30
0.0
 10
122.9988660716808
 20
-156.7494330120279
 30
0.0
 10
122.9988660716808
 20
-156.5423827733644
 30
0.0
 10
122.9988660716808
 20
-156.5423827733644
 30
0.0
  0
SPLINE
  5
14E
330
147
100
AcDbEntity
  8
レイヤー 1
100
AcDbSpline
210
0.0
220
0.0
230
1.0
 70
    11
 71
     3
 72
    17
 73
    13
 74
     0
 42
0.0000000001
 43
0.0000000001
 40
0.0
 40
0.0
 40
0.0
 40
0.0
 40
1.0
 40
1.0
 40
1.0
 40
2.0
 40
2.0
 40
2.0
 40
3.0
 40
3.0
 40
3.0
 40
4.0
 40
4.0
 40
4.0
 40
4.0
 10
122.9988660716808
 20
-156.2164767404597
 30
0.0
 10
122.9988660716808
 20
-156.2164767404597
 30
0.0
 10
122.7873372088865
 20
-156.2164767404597
 30
0.0
 10
122.7873372088865
 20
-156.2164767404597
 30
0.0
 10
122.7873372088865
 20
-156.2164767404597
 30
0.0
 10
122.7873372088865
 20
-156.419392864541
 30
0.0
 10
122.7873372088865
 20
-156.419392864541
 30
0.0
 10
122.7873372088865
 20
-156.419392864541
 30
0.0
 10
122.9988660716808
 20
-156.419392864541
 30
0.0
 10
122.9988660716808
 20
-156.419392864541
 30
0.0
 10
122.9988660716808
 20
-156.419392864541
 30
0.0
 10
122.9988660716808
 20
-156.2164767404597
 30
0.0
 10
122.9988660716808
 20
-156.2164767404597
 30
0.0
  0
SPLINE
  5
14F
330
147
100
AcDbEntity
  8
レイヤー 1
100
AcDbSpline
210
0.0
220
0.0
230
1.0
 70
    11
 71
     3
 72
    17
 73
    13
 74
     0
 42
0.0000000001
 43
0.0000000001
 40
0.0
 40
0.0
 40
0.0
 40
0.0
 40
1.0
 40
1.0
 40
1.0
 40
2.0
 40
2.0
 40
2.0
 40
3.0
 40
3.0
 40
3.0
 40
4.0
 40
4.0
 40
4.0
 40
4.0
 10
122.6326524215988
 20
-156.5423827733644
 30
0.0
 10
122.6326524215988
 20
-156.5423827733644
 30
0.0
 10
122.4256021829353
 20
-156.5423827733644
 30
0.0
 10
122.4256021829353
 20
-156.5423827733644
 30
0.0
 10
122.4256021829353
 20
-156.5423827733644
 30
0.0
 10
122.4256021829353
 20
-156.7494330120279
 30
0.0
 10
122.4256021829353
 20
-156.7494330120279
 30
0.0
 10
122.4256021829353
 20
-156.7494330120279
 30
0.0
 10
122.6326524215988
 20
-156.7494330120279
 30
0.0
 10
122.6326524215988
 20
-156.7494330120279
 30
0.0
 10
122.6326524215988
 20
-156.7494330120279
 30
0.0
 10
122.6326524215988
 20
-156.5423827733644
 30
0.0
 10
122.6326524215988
 20
-156.5423827733644
 30
0.0
  0
SPLINE
  5
150
330
147
100
AcDbEntity
  8
レイヤー 1
100
AcDbSpline
210
0.0
220
0.0
230
1.0
 70
    11
 71
     3
 72
    17
 73
    13
 74
     0
 42
0.0000000001
 43
0.0000000001
 40
0.0
 40
0.0
 40
0.0
 40
0.0
 40
1.0
 40
1.0
 40
1.0
 40
2.0
 40
2.0
 40
2.0
 40
3.0
 40
3.0
 40
3.0
 40
4.0
 40
4.0
 40
4.0
 40
4.0
 10
122.6326524215988
 20
-156.2164767404597
 30
0.0
 10
122.6326524215988
 20
-156.2164767404597
 30
0.0
 10
122.4256021829353
 20
-156.2164767404597
 30
0.0
 10
122.4256021829353
 20
-156.2164767404597
 30
0.0
 10
122.4256021829353
 20
-156.2164767404597
 30
0.0
 10
122.4256021829353
 20
-156.419392864541
 30
0.0
 10
122.4256021829353
 20
-156.419392864541
 30
0.0
 10
122.4256021829353
 20
-156.419392864541
 30
0.0
 10
122.6326524215988
 20
-156.419392864541
 30
0.0
 10
122.6326524215988
 20
-156.419392864541
 30
0.0
 10
122.6326524215988
 20
-156.419392864541
 30
0.0
 10
122.6326524215988
 20
-156.2164767404597
 30
0.0
 10
122.6326524215988
 20
-156.2164767404597
 30
0.0
  0
SPLINE
  5
151
330
147
100
AcDbEntity
  8
レイヤー 1
100
AcDbSpline
210
0.0
220
0.0
230
1.0
 70
    11
 71
     3
 72
    89
 73
    85
 74
     0
 42
0.0000000001
 43
0.0000000001
 40
0.0
 40
0.0
 40
0.0
 40
0.0
 40
1.0
 40
1.0
 40
1.0
 40
2.0
 40
2.0
 40
2.0
 40
3.0
 40
3.0
 40
3.0
 40
4.0
 40
4.0
 40
4.0
 40
5.0
 40
5.0
 40
5.0
 40
6.0
 40
6.0
 40
6.0
 40
7.0
 40
7.0
 40
7.0
 40
8.0
 40
8.0
 40
8.0
 40
9.0
 40
9.0
 40
9.0
 40
10.0
 40
10.0
 40
10.0
 40
11.0
 40
11.0
 40
11.0
 40
12.0
 40
12.0
 40
12.0
 40
13.0
 40
13.0
 40
13.0
 40
14.0
 40
14.0
 40
14.0
 40
15.0
 40
15.0
 40
15.0
 40
16.0
 40
16.0
 40
16.0
 40
17.0
 40
17.0
 40
17.0
 40
18.0
 40
18.0
 40
18.0
 40
19.0
 40
19.0
 40
19.0
 40
20.0
 40
20.0
 40
20.0
 40
21.0
 40
21.0
 40
21.0
 40
22.0
 40
22.0
 40
22.0
 40
23.0
 40
23.0
 40
23.0
 40
24.0
 40
24.0
 40
24.0
 40
25.0
 40
25.0
 40
25.0
 40
26.0
 40
26.0
 40
26.0
 40
27.0
 40
27.0
 40
27.0
 40
28.0
 40
28.0
 40
28.0
 40
28.0
 10
122.6326524215988
 20
-155.7679253082802
 30
0.0
 10
122.6326524215988
 20
-155.7679253082802
 30
0.0
 10
122.6326524215988
 20
-155.607039349119
 30
0.0
 10
122.6326524215988
 20
-155.607039349119
 30
0.0
 10
122.6326524215988
 20
-155.607039349119
 30
0.0
 10
122.7873372088865
 20
-155.607039349119
 30
0.0
 10
122.7873372088865
 20
-155.607039349119
 30
0.0
 10
122.7873372088865
 20
-155.607039349119
 30
0.0
 10
122.7873372088865
 20
-155.7679253082802
 30
0.0
 10
122.7873372088865
 20
-155.7679253082802
 30
0.0
 10
122.7873372088865
 20
-155.7679253082802
 30
0.0
 10
123.180767113302
 20
-155.7679253082802
 30
0.0
 10
123.180767113302
 20
-155.7679253082802
 30
0.0
 10
123.180767113302
 20
-155.7679253082802
 30
0.0
 10
123.180767113302
 20
-155.9222655860194
 30
0.0
 10
123.180767113302
 20
-155.9222655860194
 30
0.0
 10
123.180767113302
 20
-155.9222655860194
 30
0.0
 10
122.7873372088865
 20
-155.9222655860194
 30
0.0
 10
122.7873372088865
 20
-155.9222655860194
 30
0.0
 10
122.7873372088865
 20
-155.9222655860194
 30
0.0
 10
122.7873372088865
 20
-156.0769503733071
 30
0.0
 10
122.7873372088865
 20
-156.0769503733071
 30
0.0
 10
122.7873372088865
 20
-156.0769503733071
 30
0.0
 10
123.1425265534157
 20
-156.0769503733071
 30
0.0
 10
123.1425265534157
 20
-156.0769503733071
 30
0.0
 10
123.1425265534157
 20
-156.0769503733071
 30
0.0
 10
123.1425265534157
 20
-156.889303888729
 30
0.0
 10
123.1425265534157
 20
-156.889303888729
 30
0.0
 10
123.1425265534157
 20
-156.889303888729
 30
0.0
 10
122.7873372088865
 20
-156.889303888729
 30
0.0
 10
122.7873372088865
 20
-156.889303888729
 30
0.0
 10
122.7873372088865
 20
-156.889303888729
 30
0.0
 10
122.7873372088865
 20
-157.0584580770548
 30
0.0
 10
122.7873372088865
 20
-157.0584580770548
 30
0.0
 10
122.7873372088865
 20
-157.0584580770548
 30
0.0
 10
123.1955810238886
 20
-157.0584580770548
 30
0.0
 10
123.1955810238886
 20
-157.0584580770548
 30
0.0
 10
123.1955810238886
 20
-157.0584580770548
 30
0.0
 10
123.1955810238886
 20
-157.212798354794
 30
0.0
 10
123.1955810238886
 20
-157.212798354794
 30
0.0
 10
123.1955810238886
 20
-157.212798354794
 30
0.0
 10
122.7873372088865
 20
-157.212798354794
 30
0.0
 10
122.7873372088865
 20
-157.212798354794
 30
0.0
 10
122.7873372088865
 20
-157.212798354794
 30
0.0
 10
122.7873372088865
 20
-157.5662651515806
 30
0.0
 10
122.7873372088865
 20
-157.5662651515806
 30
0.0
 10
122.7873372088865
 20
-157.5662651515806
 30
0.0
 10
122.6326524215988
 20
-157.5662651515806
 30
0.0
 10
122.6326524215988
 20
-157.5662651515806
 30
0.0
 10
122.6326524215988
 20
-157.5662651515806
 30
0.0
 10
122.6326524215988
 20
-157.212798354794
 30
0.0
 10
122.6326524215988
 20
-157.212798354794
 30
0.0
 10
122.6326524215988
 20
-157.212798354794
 30
0.0
 10
122.2223415493055
 20
-157.212798354794
 30
0.0
 10
122.2223415493055
 20
-157.212798354794
 30
0.0
 10
122.2223415493055
 20
-157.212798354794
 30
0.0
 10
122.2223415493055
 20
-157.0584580770548
 30
0.0
 10
122.2223415493055
 20
-157.0584580770548
 30
0.0
 10
122.2223415493055
 20
-157.0584580770548
 30
0.0
 10
122.6326524215988
 20
-157.0584580770548
 30
0.0
 10
122.6326524215988
 20
-157.0584580770548
 30
0.0
 10
122.6326524215988
 20
-157.0584580770548
 30
0.0
 10
122.6326524215988
 20
-156.889303888729
 30
0.0
 10
122.6326524215988
 20
-156.889303888729
 30
0.0
 10
122.6326524215988
 20
-156.889303888729
 30
0.0
 10
122.283664248943
 20
-156.889303888729
 30
0.0
 10
122.283664248943
 20
-156.889303888729
 30
0.0
 10
122.283664248943
 20
-156.889303888729
 30
0.0
 10
122.283664248943
 20
-156.0769503733071
 30
0.0
 10
122.283664248943
 20
-156.0769503733071
 30
0.0
 10
122.283664248943
 20
-156.0769503733071
 30
0.0
 10
122.6326524215988
 20
-156.0769503733071
 30
0.0
 10
122.6326524215988
 20
-156.0769503733071
 30
0.0
 10
122.6326524215988
 20
-156.0769503733071
 30
0.0
 10
122.6326524215988
 20
-155.9222655860194
 30
0.0
 10
122.6326524215988
 20
-155.9222655860194
 30
0.0
 10
122.6326524215988
 20
-155.9222655860194
 30
0.0
 10
122.2433566317655
 20
-155.9222655860194
 30
0.0
 10
122.2433566317655
 20
-155.9222655860194
 30
0.0
 10
122.2433566317655
 20
-155.9222655860194
 30
0.0
 10
122.2433566317655
 20
-155.7679253082802
 30
0.0
 10
122.2433566317655
 20
-155.7679253082802
 30
0.0
 10
122.2433566317655
 20
-155.7679253082802
 30
0.0
 10
122.6326524215988
 20
-155.7679253082802
 30
0.0
 10
122.6326524215988
 20
-155.7679253082802
 30
0.0
  0
HATCH
  5
152
330
147
100
AcDbEntity
  8
レイヤー 1
 62
    12
420
 15007762
440
 33554687
100
AcDbHatch
 10
0.0
 20
0.0
 30
0.0
210
0.0
220
0.0
230
1.0
  2
SOLID
 70
     1
 71
     1
 91
        7
 92
        1
 93
        1
 72
     4
 94
        3
 73
     0
 74
     0
 95
       38
 96
       34
 40
0.0
 40
0.0
 40
0.0
 40
0.0
 40
1.0
 40
1.0
 40
1.0
 40
2.0
 40
2.0
 40
2.0
 40
3.0
 40
3.0
 40
3.0
 40
4.0
 40
4.0
 40
4.0
 40
5.0
 40
5.0
 40
5.0
 40
6.0
 40
6.0
 40
6.0
 40
7.0
 40
7.0
 40
7.0
 40
8.0
 40
8.0
 40
8.0
 40
9.0
 40
9.0
 40
9.0
 40
10.0
 40
10.0
 40
10.0
 40
11.0
 40
11.0
 40
11.0
 40
11.0
 10
123.1552734067112
 20
-156.3580701649035
 10
123.2482909848129
 20
-156.2354247656286
 10
123.3733479509275
 20
-156.0555907812986
 10
123.4684325863204
 20
-155.607039349119
 10
123.4684325863204
 20
-155.607039349119
 10
123.635519717355
 20
-155.6263318838365
 10
123.635519717355
 20
-155.6263318838365
 10
123.6100260107641
 20
-155.7469102258202
 10
123.586943871013
 20
-155.8378607466308
 10
123.5487033111267
 20
-155.9456922353191
 10
123.5487033111267
 20
-155.9456922353191
 10
124.1770887276363
 20
-155.9456922353191
 10
124.1770887276363
 20
-155.9456922353191
 10
124.1770887276363
 20
-155.9456922353191
 10
124.1770887276363
 20
-156.0979654557672
 10
124.1770887276363
 20
-156.0979654557672
 10
124.1433267918808
 20
-156.2399033897594
 10
124.0478976469394
 20
-156.4979410416047
 10
123.9738280940065
 20
-156.6164523262973
 10
123.9738280940065
 20
-156.6164523262973
 10
123.8215548735585
 20
-156.5379041492336
 10
123.8215548735585
 20
-156.5379041492336
 10
123.9169840184999
 20
-156.4025118966632
 10
123.9824408327196
 20
-156.2144096831686
 10
124.0100015966016
 20
-156.1041666276406
 10
124.0100015966016
 20
-156.1041666276406
 10
123.4915147260716
 20
-156.1041666276406
 10
123.4915147260716
 20
-156.1041666276406
 10
123.3922959760963
 20
-156.3456678211566
 10
123.3182264231635
 20
-156.4342067751275
 10
123.2799858632772
 20
-156.4786485068873
 10
123.2799858632772
 20
-156.4786485068873
 10
123.1552734067112
 20
-156.3580701649035
 10
123.1552734067112
 20
-156.3580701649035
 97
        0
 97
        1
330
14B
 92
        1
 93
        1
 72
     4
 94
        3
 73
     0
 74
     0
 95
       38
 96
       34
 40
0.0
 40
0.0
 40
0.0
 40
0.0
 40
1.0
 40
1.0
 40
1.0
 40
2.0
 40
2.0
 40
2.0
 40
3.0
 40
3.0
 40
3.0
 40
4.0
 40
4.0
 40
4.0
 40
5.0
 40
5.0
 40
5.0
 40
6.0
 40
6.0
 40
6.0
 40
7.0
 40
7.0
 40
7.0
 40
8.0
 40
8.0
 40
8.0
 40
9.0
 40
9.0
 40
9.0
 40
10.0
 40
10.0
 40
10.0
 40
11.0
 40
11.0
 40
11.0
 40
11.0
 10
123.0408962366009
 20
-157.4308728990103
 10
123.1235785282469
 20
-157.3778184285375
 10
123.2885986019903
 20
-157.2699869398492
 10
123.3943630333875
 20
-157.0625921916371
 10
123.5425021392533
 20
-156.7707926040364
 10
123.5425021392533
 20
-156.5444498306555
 10
123.5425021392533
 20
-156.4597004817184
 10
123.5425021392533
 20
-156.4597004817184
 10
123.5425021392533
 20
-156.2250894791729
 10
123.5425021392533
 20
-156.2250894791729
 10
123.5425021392533
 20
-156.2250894791729
 10
123.7075222129967
 20
-156.2250894791729
 10
123.7075222129967
 20
-156.2250894791729
 10
123.7075222129967
 20
-156.2250894791729
 10
123.7075222129967
 20
-156.4514322525538
 10
123.7075222129967
 20
-156.4514322525538
 10
123.7075222129967
 20
-156.6502142620527
 10
123.7729790272165
 20
-156.8872368314379
 10
123.8746093440313
 20
-157.060525134346
 10
123.9910535714328
 20
-157.2593071438449
 10
124.1199001425811
 20
-157.3588704033686
 10
124.2046494915183
 20
-157.420193103006
 10
124.2046494915183
 20
-157.420193103006
 10
124.0968180028299
 20
-157.5703992661629
 10
124.0968180028299
 20
-157.5703992661629
 10
123.9190510757911
 20
-157.441208185466
 10
123.7202690662921
 20
-157.2021185587897
 10
123.6417208892284
 20
-156.8489962715516
 10
123.5762640750087
 20
-157.0880858982279
 10
123.4746337581938
 20
-157.3568033460774
 10
123.1659532027154
 20
-157.5662651515806
 10
123.1659532027154
 20
-157.5662651515806
 10
123.0408962366009
 20
-157.4308728990103
 10
123.0408962366009
 20
-157.4308728990103
 97
        0
 97
        1
330
14C
 92
        1
 93
        1
 72
     4
 94
        3
 73
     0
 74
     0
 95
       17
 96
       13
 40
0.0
 40
0.0
 40
0.0
 40
0.0
 40
1.0
 40
1.0
 40
1.0
 40
2.0
 40
2.0
 40
2.0
 40
3.0
 40
3.0
 40
3.0
 40
4.0
 40
4.0
 40
4.0
 40
4.0
 10
122.9988660716808
 20
-156.5423827733644
 10
122.9988660716808
 20
-156.5423827733644
 10
122.7873372088865
 20
-156.5423827733644
 10
122.7873372088865
 20
-156.5423827733644
 10
122.7873372088865
 20
-156.5423827733644
 10
122.7873372088865
 20
-156.7494330120279
 10
122.7873372088865
 20
-156.7494330120279
 10
122.7873372088865
 20
-156.7494330120279
 10
122.9988660716808
 20
-156.7494330120279
 10
122.9988660716808
 20
-156.7494330120279
 10
122.9988660716808
 20
-156.7494330120279
 10
122.9988660716808
 20
-156.5423827733644
 10
122.9988660716808
 20
-156.5423827733644
 97
        0
 97
        1
330
14D
 92
        1
 93
        1
 72
     4
 94
        3
 73
     0
 74
     0
 95
       17
 96
       13
 40
0.0
 40
0.0
 40
0.0
 40
0.0
 40
1.0
 40
1.0
 40
1.0
 40
2.0
 40
2.0
 40
2.0
 40
3.0
 40
3.0
 40
3.0
 40
4.0
 40
4.0
 40
4.0
 40
4.0
 10
122.9988660716808
 20
-156.2164767404597
 10
122.9988660716808
 20
-156.2164767404597
 10
122.7873372088865
 20
-156.2164767404597
 10
122.7873372088865
 20
-156.2164767404597
 10
122.7873372088865
 20
-156.2164767404597
 10
122.7873372088865
 20
-156.419392864541
 10
122.7873372088865
 20
-156.419392864541
 10
122.7873372088865
 20
-156.419392864541
 10
122.9988660716808
 20
-156.419392864541
 10
122.9988660716808
 20
-156.419392864541
 10
122.9988660716808
 20
-156.419392864541
 10
122.9988660716808
 20
-156.2164767404597
 10
122.9988660716808
 20
-156.2164767404597
 97
        0
 97
        1
330
14E
 92
        1
 93
        1
 72
     4
 94
        3
 73
     0
 74
     0
 95
       17
 96
       13
 40
0.0
 40
0.0
 40
0.0
 40
0.0
 40
1.0
 40
1.0
 40
1.0
 40
2.0
 40
2.0
 40
2.0
 40
3.0
 40
3.0
 40
3.0
 40
4.0
 40
4.0
 40
4.0
 40
4.0
 10
122.6326524215988
 20
-156.5423827733644
 10
122.6326524215988
 20
-156.5423827733644
 10
122.4256021829353
 20
-156.5423827733644
 10
122.4256021829353
 20
-156.5423827733644
 10
122.4256021829353
 20
-156.5423827733644
 10
122.4256021829353
 20
-156.7494330120279
 10
122.4256021829353
 20
-156.7494330120279
 10
122.4256021829353
 20
-156.7494330120279
 10
122.6326524215988
 20
-156.7494330120279
 10
122.6326524215988
 20
-156.7494330120279
 10
122.6326524215988
 20
-156.7494330120279
 10
122.6326524215988
 20
-156.5423827733644
 10
122.6326524215988
 20
-156.5423827733644
 97
        0
 97
        1
330
14F
 92
        1
 93
        1
 72
     4
 94
        3
 73
     0
 74
     0
 95
       17
 96
       13
 40
0.0
 40
0.0
 40
0.0
 40
0.0
 40
1.0
 40
1.0
 40
1.0
 40
2.0
 40
2.0
 40
2.0
 40
3.0
 40
3.0
 40
3.0
 40
4.0
 40
4.0
 40
4.0
 40
4.0
 10
122.6326524215988
 20
-156.2164767404597
 10
122.6326524215988
 20
-156.2164767404597
 10
122.4256021829353
 20
-156.2164767404597
 10
122.4256021829353
 20
-156.2164767404597
 10
122.4256021829353
 20
-156.2164767404597
 10
122.4256021829353
 20
-156.419392864541
 10
122.4256021829353
 20
-156.419392864541
 10
122.4256021829353
 20
-156.419392864541
 10
122.6326524215988
 20
-156.419392864541
 10
122.6326524215988
 20
-156.419392864541
 10
122.6326524215988
 20
-156.419392864541
 10
122.6326524215988
 20
-156.2164767404597
 10
122.6326524215988
 20
-156.2164767404597
 97
        0
 97
        1
330
150
 92
        1
 93
        1
 72
     4
 94
        3
 73
     0
 74
     0
 95
       89
 96
       85
 40
0.0
 40
0.0
 40
0.0
 40
0.0
 40
1.0
 40
1.0
 40
1.0
 40
2.0
 40
2.0
 40
2.0
 40
3.0
 40
3.0
 40
3.0
 40
4.0
 40
4.0
 40
4.0
 40
5.0
 40
5.0
 40
5.0
 40
6.0
 40
6.0
 40
6.0
 40
7.0
 40
7.0
 40
7.0
 40
8.0
 40
8.0
 40
8.0
 40
9.0
 40
9.0
 40
9.0
 40
10.0
 40
10.0
 40
10.0
 40
11.0
 40
11.0
 40
11.0
 40
12.0
 40
12.0
 40
12.0
 40
13.0
 40
13.0
 40
13.0
 40
14.0
 40
14.0
 40
14.0
 40
15.0
 40
15.0
 40
15.0
 40
16.0
 40
16.0
 40
16.0
 40
17.0
 40
17.0
 40
17.0
 40
18.0
 40
18.0
 40
18.0
 40
19.0
 40
19.0
 40
19.0
 40
20.0
 40
20.0
 40
20.0
 40
21.0
 40
21.0
 40
21.0
 40
22.0
 40
22.0
 40
22.0
 40
23.0
 40
23.0
 40
23.0
 40
24.0
 40
24.0
 40
24.0
 40
25.0
 40
25.0
 40
25.0
 40
26.0
 40
26.0
 40
26.0
 40
27.0
 40
27.0
 40
27.0
 40
28.0
 40
28.0
 40
28.0
 40
28.0
 10
122.6326524215988
 20
-155.7679253082802
 10
122.6326524215988
 20
-155.7679253082802
 10
122.6326524215988
 20
-155.607039349119
 10
122.6326524215988
 20
-155.607039349119
 10
122.6326524215988
 20
-155.607039349119
 10
122.7873372088865
 20
-155.607039349119
 10
122.7873372088865
 20
-155.607039349119
 10
122.7873372088865
 20
-155.607039349119
 10
122.7873372088865
 20
-155.7679253082802
 10
122.7873372088865
 20
-155.7679253082802
 10
122.7873372088865
 20
-155.7679253082802
 10
123.180767113302
 20
-155.7679253082802
 10
123.180767113302
 20
-155.7679253082802
 10
123.180767113302
 20
-155.7679253082802
 10
123.180767113302
 20
-155.9222655860194
 10
123.180767113302
 20
-155.9222655860194
 10
123.180767113302
 20
-155.9222655860194
 10
122.7873372088865
 20
-155.9222655860194
 10
122.7873372088865
 20
-155.9222655860194
 10
122.7873372088865
 20
-155.9222655860194
 10
122.7873372088865
 20
-156.0769503733071
 10
122.7873372088865
 20
-156.0769503733071
 10
122.7873372088865
 20
-156.0769503733071
 10
123.1425265534157
 20
-156.0769503733071
 10
123.1425265534157
 20
-156.0769503733071
 10
123.1425265534157
 20
-156.0769503733071
 10
123.1425265534157
 20
-156.889303888729
 10
123.1425265534157
 20
-156.889303888729
 10
123.1425265534157
 20
-156.889303888729
 10
122.7873372088865
 20
-156.889303888729
 10
122.7873372088865
 20
-156.889303888729
 10
122.7873372088865
 20
-156.889303888729
 10
122.7873372088865
 20
-157.0584580770548
 10
122.7873372088865
 20
-157.0584580770548
 10
122.7873372088865
 20
-157.0584580770548
 10
123.1955810238886
 20
-157.0584580770548
 10
123.1955810238886
 20
-157.0584580770548
 10
123.1955810238886
 20
-157.0584580770548
 10
123.1955810238886
 20
-157.212798354794
 10
123.1955810238886
 20
-157.212798354794
 10
123.1955810238886
 20
-157.212798354794
 10
122.7873372088865
 20
-157.212798354794
 10
122.7873372088865
 20
-157.212798354794
 10
122.7873372088865
 20
-157.212798354794
 10
122.7873372088865
 20
-157.5662651515806
 10
122.7873372088865
 20
-157.5662651515806
 10
122.7873372088865
 20
-157.5662651515806
 10
122.6326524215988
 20
-157.5662651515806
 10
122.6326524215988
 20
-157.5662651515806
 10
122.6326524215988
 20
-157.5662651515806
 10
122.6326524215988
 20
-157.212798354794
 10
122.6326524215988
 20
-157.212798354794
 10
122.6326524215988
 20
-157.212798354794
 10
122.2223415493055
 20
-157.212798354794
 10
122.2223415493055
 20
-157.212798354794
 10
122.2223415493055
 20
-157.212798354794
 10
122.2223415493055
 20
-157.0584580770548
 10
122.2223415493055
 20
-157.0584580770548
 10
122.2223415493055
 20
-157.0584580770548
 10
122.6326524215988
 20
-157.0584580770548
 10
122.6326524215988
 20
-157.0584580770548
 10
122.6326524215988
 20
-157.0584580770548
 10
122.6326524215988
 20
-156.889303888729
 10
122.6326524215988
 20
-156.889303888729
 10
122.6326524215988
 20
-156.889303888729
 10
122.283664248943
 20
-156.889303888729
 10
122.283664248943
 20
-156.889303888729
 10
122.283664248943
 20
-156.889303888729
 10
122.283664248943
 20
-156.0769503733071
 10
122.283664248943
 20
-156.0769503733071
 10
122.283664248943
 20
-156.0769503733071
 10
122.6326524215988
 20
-156.0769503733071
 10
122.6326524215988
 20
-156.0769503733071
 10
122.6326524215988
 20
-156.0769503733071
 10
122.6326524215988
 20
-155.9222655860194
 10
122.6326524215988
 20
-155.9222655860194
 10
122.6326524215988
 20
-155.9222655860194
 10
122.2433566317655
 20
-155.9222655860194
 10
122.2433566317655
 20
-155.9222655860194
 10
122.2433566317655
 20
-155.9222655860194
 10
122.2433566317655
 20
-155.7679253082802
 10
122.2433566317655
 20
-155.7679253082802
 10
122.2433566317655
 20
-155.7679253082802
 10
122.6326524215988
 20
-155.7679253082802
 10
122.6326524215988
 20
-155.7679253082802
 97
        0
 97
        1
330
151
 75
     2
 76
     1
 98
        1
 10
0.0
 20
0.0
450
        0
451
        0
460
0.0
461
0.0
452
        0
462
0.0
453
        0
470

  0
SPLINE
  5
153
330
147
100
AcDbEntity
  8
レイヤー 1
100
AcDbSpline
210
0.0
220
0.0
230
1.0
 70
     9
 71
     3
 72
    17
 73
    13
 74
     0
 42
0.0000000001
 43
0.0000000001
 40
0.0
 40
0.0
 40
0.0
 40
0.0
 40
1.0
 40
1.0
 40
1.0
 40
2.0
 40
2.0
 40
2.0
 40
3.0
 40
3.0
 40
3.0
 40
4.0
 40
4.0
 40
4.0
 40
4.0
 10
125.669848601395
 20
-157.2572400865538
 30
0.0
 10
125.889645693354
 20
-157.3695501993729
 30
0.0
 10
126.1562960839123
 20
-157.4074462497106
 30
0.0
 10
126.2851426550607
 20
-157.4181260457149
 30
0.0
 10
126.2851426550607
 20
-157.4181260457149
 30
0.0
 10
126.2155517262586
 20
-157.5724663234541
 30
0.0
 10
126.2155517262586
 20
-157.5724663234541
 30
0.0
 10
126.0949733842749
 20
-157.5576524128675
 30
0.0
 10
125.8324571082988
 20
-157.5173447956901
 30
0.0
 10
125.5682182845802
 20
-157.371617256664
 30
0.0
 10
125.5682182845802
 20
-157.371617256664
 30
0.0
 10
125.669848601395
 20
-157.2572400865538
 30
0.0
 10
125.669848601395
 20
-157.2572400865538
 30
0.0
  0
SPLINE
  5
154
330
147
100
AcDbEntity
  8
レイヤー 1
100
AcDbSpline
210
0.0
220
0.0
230
1.0
 70
    11
 71
     3
 72
    50
 73
    46
 74
     0
 42
0.0000000001
 43
0.0000000001
 40
0.0
 40
0.0
 40
0.0
 40
0.0
 40
1.0
 40
1.0
 40
1.0
 40
2.0
 40
2.0
 40
2.0
 40
3.0
 40
3.0
 40
3.0
 40
4.0
 40
4.0
 40
4.0
 40
5.0
 40
5.0
 40
5.0
 40
6.0
 40
6.0
 40
6.0
 40
7.0
 40
7.0
 40
7.0
 40
8.0
 40
8.0
 40
8.0
 40
9.0
 40
9.0
 40
9.0
 40
10.0
 40
10.0
 40
10.0
 40
11.0
 40
11.0
 40
11.0
 40
12.0
 40
12.0
 40
12.0
 40
13.0
 40
13.0
 40
13.0
 40
14.0
 40
14.0
 40
14.0
 40
15.0
 40
15.0
 40
15.0
 40
15.0
 10
125.5575384885759
 20
-155.9053846181417
 30
0.0
 10
125.5575384885759
 20
-155.9053846181417
 30
0.0
 10
126.2937553937738
 20
-155.9053846181417
 30
0.0
 10
126.2937553937738
 20
-155.9053846181417
 30
0.0
 10
126.2937553937738
 20
-155.9053846181417
 30
0.0
 10
126.2937553937738
 20
-156.0304415842563
 30
0.0
 10
126.2937553937738
 20
-156.0304415842563
 30
0.0
 10
126.2937553937738
 20
-156.0304415842563
 30
0.0
 10
125.9637152462868
 20
-156.0304415842563
 30
0.0
 10
125.9637152462868
 20
-156.0304415842563
 30
0.0
 10
125.9637152462868
 20
-156.0304415842563
 30
0.0
 10
125.9637152462868
 20
-156.3053602039792
 30
0.0
 10
125.9637152462868
 20
-156.3053602039792
 30
0.0
 10
125.9637152462868
 20
-156.3053602039792
 30
0.0
 10
125.8073079112565
 20
-156.3053602039792
 30
0.0
 10
125.8073079112565
 20
-156.3053602039792
 30
0.0
 10
125.8073079112565
 20
-156.3053602039792
 30
0.0
 10
125.8073079112565
 20
-156.0304415842563
 30
0.0
 10
125.8073079112565
 20
-156.0304415842563
 30
0.0
 10
125.8073079112565
 20
-156.0304415842563
 30
0.0
 10
125.5427245779893
 20
-156.0304415842563
 30
0.0
 10
125.5427245779893
 20
-156.0304415842563
 30
0.0
 10
125.5172308713984
 20
-156.1592881554046
 30
0.0
 10
125.4665879677653
 20
-156.2502386762152
 30
0.0
 10
125.3694362750812
 20
-156.3329209678612
 30
0.0
 10
125.3694362750812
 20
-156.3329209678612
 30
0.0
 10
125.2464463662578
 20
-156.2250894791729
 30
0.0
 10
125.2464463662578
 20
-156.2250894791729
 30
0.0
 10
125.3818386188281
 20
-156.1148464236449
 30
0.0
 10
125.4052652681278
 20
-155.9773871137834
 30
0.0
 10
125.4052652681278
 20
-155.9033175608505
 30
0.0
 10
125.4052652681278
 20
-155.9033175608505
 30
0.0
 10
125.4052652681278
 20
-155.6600938195919
 30
0.0
 10
125.4052652681278
 20
-155.6600938195919
 30
0.0
 10
125.8748317827674
 20
-155.6600938195919
 30
0.0
 10
126.041918913802
 20
-155.6197862024145
 30
0.0
 10
126.1859239050854
 20
-155.5774115279459
 30
0.0
 10
126.1859239050854
 20
-155.5774115279459
 30
0.0
 10
126.2451795474317
 20
-155.7152153473559
 30
0.0
 10
126.2451795474317
 20
-155.7152153473559
 30
0.0
 10
125.9743950422911
 20
-155.784806276158
 30
0.0
 10
125.6591688053907
 20
-155.7892849002888
 30
0.0
 10
125.5575384885759
 20
-155.7892849002888
 30
0.0
 10
125.5575384885759
 20
-155.7892849002888
 30
0.0
 10
125.5575384885759
 20
-155.9053846181417
 30
0.0
 10
125.5575384885759
 20
-155.9053846181417
 30
0.0
  0
SPLINE
  5
155
330
147
100
AcDbEntity
  8
レイヤー 1
100
AcDbSpline
210
0.0
220
0.0
230
1.0
 70
    11
 71
     3
 72
    17
 73
    13
 74
     0
 42
0.0000000001
 43
0.0000000001
 40
0.0
 40
0.0
 40
0.0
 40
0.0
 40
1.0
 40
1.0
 40
1.0
 40
2.0
 40
2.0
 40
2.0
 40
3.0
 40
3.0
 40
3.0
 40
4.0
 40
4.0
 40
4.0
 40
4.0
 10
125.8937798079363
 20
-156.9757757854088
 30
0.0
 10
125.8937798079363
 20
-156.9757757854088
 30
0.0
 10
124.7345051771497
 20
-156.9757757854088
 30
0.0
 10
124.7345051771497
 20
-156.9757757854088
 30
0.0
 10
124.7345051771497
 20
-156.9757757854088
 30
0.0
 10
124.7345051771497
 20
-157.11564666211
 30
0.0
 10
124.7345051771497
 20
-157.11564666211
 30
0.0
 10
124.7345051771497
 20
-157.11564666211
 30
0.0
 10
125.8937798079363
 20
-157.11564666211
 30
0.0
 10
125.8937798079363
 20
-157.11564666211
 30
0.0
 10
125.8937798079363
 20
-157.11564666211
 30
0.0
 10
125.8937798079363
 20
-156.9757757854088
 30
0.0
 10
125.8937798079363
 20
-156.9757757854088
 30
0.0
  0
SPLINE
  5
156
330
147
100
AcDbEntity
  8
レイヤー 1
100
AcDbSpline
210
0.0
220
0.0
230
1.0
 70
    11
 71
     3
 72
    17
 73
    13
 74
     0
 42
0.0000000001
 43
0.0000000001
 40
0.0
 40
0.0
 40
0.0
 40
0.0
 40
1.0
 40
1.0
 40
1.0
 40
2.0
 40
2.0
 40
2.0
 40
3.0
 40
3.0
 40
3.0
 40
4.0
 40
4.0
 40
4.0
 40
4.0
 10
125.8937798079363
 20
-156.7242838149856
 30
0.0
 10
125.8937798079363
 20
-156.7242838149856
 30
0.0
 10
124.7345051771497
 20
-156.7242838149856
 30
0.0
 10
124.7345051771497
 20
-156.7242838149856
 30
0.0
 10
124.7345051771497
 20
-156.7242838149856
 30
0.0
 10
124.7345051771497
 20
-156.8658772394293
 30
0.0
 10
124.7345051771497
 20
-156.8658772394293
 30
0.0
 10
124.7345051771497
 20
-156.8658772394293
 30
0.0
 10
125.8937798079363
 20
-156.8658772394293
 30
0.0
 10
125.8937798079363
 20
-156.8658772394293
 30
0.0
 10
125.8937798079363
 20
-156.8658772394293
 30
0.0
 10
125.8937798079363
 20
-156.7242838149856
 30
0.0
 10
125.8937798079363
 20
-156.7242838149856
 30
0.0
  0
SPLINE
  5
157
330
147
100
AcDbEntity
  8
レイヤー 1
100
AcDbSpline
210
0.0
220
0.0
230
1.0
 70
    11
 71
     3
 72
    17
 73
    13
 74
     0
 42
0.0000000001
 43
0.0000000001
 40
0.0
 40
0.0
 40
0.0
 40
0.0
 40
1.0
 40
1.0
 40
1.0
 40
2.0
 40
2.0
 40
2.0
 40
3.0
 40
3.0
 40
3.0
 40
4.0
 40
4.0
 40
4.0
 40
4.0
 10
125.8937798079363
 20
-156.4851941883092
 30
0.0
 10
125.8937798079363
 20
-156.4851941883092
 30
0.0
 10
124.7345051771497
 20
-156.4851941883092
 30
0.0
 10
124.7345051771497
 20
-156.4851941883092
 30
0.0
 10
124.7345051771497
 20
-156.4851941883092
 30
0.0
 10
124.7345051771497
 20
-156.6140407594576
 30
0.0
 10
124.7345051771497
 20
-156.6140407594576
 30
0.0
 10
124.7345051771497
 20
-156.6140407594576
 30
0.0
 10
125.8937798079363
 20
-156.6140407594576
 30
0.0
 10
125.8937798079363
 20
-156.6140407594576
 30
0.0
 10
125.8937798079363
 20
-156.6140407594576
 30
0.0
 10
125.8937798079363
 20
-156.4851941883092
 30
0.0
 10
125.8937798079363
 20
-156.4851941883092
 30
0.0
  0
SPLINE
  5
158
330
147
100
AcDbEntity
  8
レイヤー 1
100
AcDbSpline
210
0.0
220
0.0
230
1.0
 70
    11
 71
     3
 72
    32
 73
    28
 74
     0
 42
0.0000000001
 43
0.0000000001
 40
0.0
 40
0.0
 40
0.0
 40
0.0
 40
1.0
 40
1.0
 40
1.0
 40
2.0
 40
2.0
 40
2.0
 40
3.0
 40
3.0
 40
3.0
 40
4.0
 40
4.0
 40
4.0
 40
5.0
 40
5.0
 40
5.0
 40
6.0
 40
6.0
 40
6.0
 40
7.0
 40
7.0
 40
7.0
 40
8.0
 40
8.0
 40
8.0
 40
9.0
 40
9.0
 40
9.0
 40
9.0
 10
124.5653509888239
 20
-157.2510389146803
 30
0.0
 10
124.5653509888239
 20
-157.2510389146803
 30
0.0
 10
124.5653509888239
 20
-156.3518689930301
 30
0.0
 10
124.5653509888239
 20
-156.3518689930301
 30
0.0
 10
124.5653509888239
 20
-156.3518689930301
 30
0.0
 10
126.0632785058106
 20
-156.3518689930301
 30
0.0
 10
126.0632785058106
 20
-156.3518689930301
 30
0.0
 10
126.0632785058106
 20
-156.3518689930301
 30
0.0
 10
126.0632785058106
 20
-157.2510389146803
 30
0.0
 10
126.0632785058106
 20
-157.2510389146803
 30
0.0
 10
126.0632785058106
 20
-157.2510389146803
 30
0.0
 10
124.9188177856106
 20
-157.2510389146803
 30
0.0
 10
124.9188177856106
 20
-157.2510389146803
 30
0.0
 10
124.9188177856106
 20
-157.2510389146803
 30
0.0
 10
125.0245822170077
 20
-157.3609374606597
 30
0.0
 10
125.0245822170077
 20
-157.3609374606597
 30
0.0
 10
124.8595621432643
 20
-157.4560220960526
 30
0.0
 10
124.6945420695208
 20
-157.5173447956901
 30
0.0
 10
124.3982638577893
 20
-157.5683322088718
 30
0.0
 10
124.3982638577893
 20
-157.5683322088718
 30
0.0
 10
124.3328070435696
 20
-157.4160589884237
 30
0.0
 10
124.3328070435696
 20
-157.4160589884237
 30
0.0
 10
124.7114230373985
 20
-157.3630045179509
 30
0.0
 10
124.8340684366734
 20
-157.29548064644
 30
0.0
 10
124.9143391614797
 20
-157.2510389146803
 30
0.0
 10
124.9143391614797
 20
-157.2510389146803
 30
0.0
 10
124.5653509888239
 20
-157.2510389146803
 30
0.0
 10
124.5653509888239
 20
-157.2510389146803
 30
0.0
  0
SPLINE
  5
159
330
147
100
AcDbEntity
  8
レイヤー 1
100
AcDbSpline
210
0.0
220
0.0
230
1.0
 70
    11
 71
     3
 72
    50
 73
    46
 74
     0
 42
0.0000000001
 43
0.0000000001
 40
0.0
 40
0.0
 40
0.0
 40
0.0
 40
1.0
 40
1.0
 40
1.0
 40
2.0
 40
2.0
 40
2.0
 40
3.0
 40
3.0
 40
3.0
 40
4.0
 40
4.0
 40
4.0
 40
5.0
 40
5.0
 40
5.0
 40
6.0
 40
6.0
 40
6.0
 40
7.0
 40
7.0
 40
7.0
 40
8.0
 40
8.0
 40
8.0
 40
9.0
 40
9.0
 40
9.0
 40
10.0
 40
10.0
 40
10.0
 40
11.0
 40
11.0
 40
11.0
 40
12.0
 40
12.0
 40
12.0
 40
13.0
 40
13.0
 40
13.0
 40
14.0
 40
14.0
 40
14.0
 40
15.0
 40
15.0
 40
15.0
 40
15.0
 10
124.6501003377611
 20
-155.9053846181417
 30
0.0
 10
124.6501003377611
 20
-155.9053846181417
 30
0.0
 10
125.3015678940218
 20
-155.9053846181417
 30
0.0
 10
125.3015678940218
 20
-155.9053846181417
 30
0.0
 10
125.3015678940218
 20
-155.9053846181417
 30
0.0
 10
125.3015678940218
 20
-156.0304415842563
 30
0.0
 10
125.3015678940218
 20
-156.0304415842563
 30
0.0
 10
125.3015678940218
 20
-156.0304415842563
 30
0.0
 10
125.0245822170077
 20
-156.0304415842563
 30
0.0
 10
125.0245822170077
 20
-156.0304415842563
 30
0.0
 10
125.0245822170077
 20
-156.0304415842563
 30
0.0
 10
125.0245822170077
 20
-156.3053602039792
 30
0.0
 10
125.0245822170077
 20
-156.3053602039792
 30
0.0
 10
125.0245822170077
 20
-156.3053602039792
 30
0.0
 10
124.8636962578466
 20
-156.3053602039792
 30
0.0
 10
124.8636962578466
 20
-156.3053602039792
 30
0.0
 10
124.8636962578466
 20
-156.3053602039792
 30
0.0
 10
124.8636962578466
 20
-156.0304415842563
 30
0.0
 10
124.8636962578466
 20
-156.0304415842563
 30
0.0
 10
124.8636962578466
 20
-156.0304415842563
 30
0.0
 10
124.6435546563391
 20
-156.0304415842563
 30
0.0
 10
124.6435546563391
 20
-156.0304415842563
 30
0.0
 10
124.6332193698833
 20
-156.1000325130583
 30
0.0
 10
124.6077256632925
 20
-156.2946804079749
 30
0.0
 10
124.4533853855533
 20
-156.4448865711318
 30
0.0
 10
124.4533853855533
 20
-156.4448865711318
 30
0.0
 10
124.3307399862784
 20
-156.3349880251523
 30
0.0
 10
124.3307399862784
 20
-156.3349880251523
 30
0.0
 10
124.4513183282621
 20
-156.2354247656286
 30
0.0
 10
124.4933484931822
 20
-156.0304415842563
 30
0.0
 10
124.4933484931822
 20
-155.9477592926103
 30
0.0
 10
124.4933484931822
 20
-155.9477592926103
 30
0.0
 10
124.4933484931822
 20
-155.662160876883
 30
0.0
 10
124.4933484931822
 20
-155.662160876883
 30
0.0
 10
124.9780734279569
 20
-155.662160876883
 30
0.0
 10
125.132413705696
 20
-155.6156520878322
 30
0.0
 10
125.2274983410889
 20
-155.5880913239502
 30
0.0
 10
125.2274983410889
 20
-155.5880913239502
 30
0.0
 10
125.2805528115618
 20
-155.7276176911028
 30
0.0
 10
125.2805528115618
 20
-155.7276176911028
 30
0.0
 10
125.0710910060586
 20
-155.7765380469934
 30
0.0
 10
124.9081379896063
 20
-155.7868733334491
 30
0.0
 10
124.6501003377611
 20
-155.7913519575799
 30
0.0
 10
124.6501003377611
 20
-155.7913519575799
 30
0.0
 10
124.6501003377611
 20
-155.9053846181417
 30
0.0
 10
124.6501003377611
 20
-155.9053846181417
 30
0.0
  0
HATCH
  5
15A
330
147
100
AcDbEntity
  8
レイヤー 1
 62
    12
420
 15007762
440
 33554687
100
AcDbHatch
 10
0.0
 20
0.0
 30
0.0
210
0.0
220
0.0
230
1.0
  2
SOLID
 70
     1
 71
     1
 91
        7
 92
        1
 93
        1
 72
     4
 94
        3
 73
     0
 74
     0
 95
       17
 96
       13
 40
0.0
 40
0.0
 40
0.0
 40
0.0
 40
1.0
 40
1.0
 40
1.0
 40
2.0
 40
2.0
 40
2.0
 40
3.0
 40
3.0
 40
3.0
 40
4.0
 40
4.0
 40
4.0
 40
4.0
 10
125.669848601395
 20
-157.2572400865538
 10
125.889645693354
 20
-157.3695501993729
 10
126.1562960839123
 20
-157.4074462497106
 10
126.2851426550607
 20
-157.4181260457149
 10
126.2851426550607
 20
-157.4181260457149
 10
126.2155517262586
 20
-157.5724663234541
 10
126.2155517262586
 20
-157.5724663234541
 10
126.0949733842749
 20
-157.5576524128675
 10
125.8324571082988
 20
-157.5173447956901
 10
125.5682182845802
 20
-157.371617256664
 10
125.5682182845802
 20
-157.371617256664
 10
125.669848601395
 20
-157.2572400865538
 10
125.669848601395
 20
-157.2572400865538
 97
        0
 97
        1
330
153
 92
        1
 93
        1
 72
     4
 94
        3
 73
     0
 74
     0
 95
       50
 96
       46
 40
0.0
 40
0.0
 40
0.0
 40
0.0
 40
1.0
 40
1.0
 40
1.0
 40
2.0
 40
2.0
 40
2.0
 40
3.0
 40
3.0
 40
3.0
 40
4.0
 40
4.0
 40
4.0
 40
5.0
 40
5.0
 40
5.0
 40
6.0
 40
6.0
 40
6.0
 40
7.0
 40
7.0
 40
7.0
 40
8.0
 40
8.0
 40
8.0
 40
9.0
 40
9.0
 40
9.0
 40
10.0
 40
10.0
 40
10.0
 40
11.0
 40
11.0
 40
11.0
 40
12.0
 40
12.0
 40
12.0
 40
13.0
 40
13.0
 40
13.0
 40
14.0
 40
14.0
 40
14.0
 40
15.0
 40
15.0
 40
15.0
 40
15.0
 10
125.5575384885759
 20
-155.9053846181417
 10
125.5575384885759
 20
-155.9053846181417
 10
126.2937553937738
 20
-155.9053846181417
 10
126.2937553937738
 20
-155.9053846181417
 10
126.2937553937738
 20
-155.9053846181417
 10
126.2937553937738
 20
-156.0304415842563
 10
126.2937553937738
 20
-156.0304415842563
 10
126.2937553937738
 20
-156.0304415842563
 10
125.9637152462868
 20
-156.0304415842563
 10
125.9637152462868
 20
-156.0304415842563
 10
125.9637152462868
 20
-156.0304415842563
 10
125.9637152462868
 20
-156.3053602039792
 10
125.9637152462868
 20
-156.3053602039792
 10
125.9637152462868
 20
-156.3053602039792
 10
125.8073079112565
 20
-156.3053602039792
 10
125.8073079112565
 20
-156.3053602039792
 10
125.8073079112565
 20
-156.3053602039792
 10
125.8073079112565
 20
-156.0304415842563
 10
125.8073079112565
 20
-156.0304415842563
 10
125.8073079112565
 20
-156.0304415842563
 10
125.5427245779893
 20
-156.0304415842563
 10
125.5427245779893
 20
-156.0304415842563
 10
125.5172308713984
 20
-156.1592881554046
 10
125.4665879677653
 20
-156.2502386762152
 10
125.3694362750812
 20
-156.3329209678612
 10
125.3694362750812
 20
-156.3329209678612
 10
125.2464463662578
 20
-156.2250894791729
 10
125.2464463662578
 20
-156.2250894791729
 10
125.3818386188281
 20
-156.1148464236449
 10
125.4052652681278
 20
-155.9773871137834
 10
125.4052652681278
 20
-155.9033175608505
 10
125.4052652681278
 20
-155.9033175608505
 10
125.4052652681278
 20
-155.6600938195919
 10
125.4052652681278
 20
-155.6600938195919
 10
125.8748317827674
 20
-155.6600938195919
 10
126.041918913802
 20
-155.6197862024145
 10
126.1859239050854
 20
-155.5774115279459
 10
126.1859239050854
 20
-155.5774115279459
 10
126.2451795474317
 20
-155.7152153473559
 10
126.2451795474317
 20
-155.7152153473559
 10
125.9743950422911
 20
-155.784806276158
 10
125.6591688053907
 20
-155.7892849002888
 10
125.5575384885759
 20
-155.7892849002888
 10
125.5575384885759
 20
-155.7892849002888
 10
125.5575384885759
 20
-155.9053846181417
 10
125.5575384885759
 20
-155.9053846181417
 97
        0
 97
        1
330
154
 92
        1
 93
        1
 72
     4
 94
        3
 73
     0
 74
     0
 95
       17
 96
       13
 40
0.0
 40
0.0
 40
0.0
 40
0.0
 40
1.0
 40
1.0
 40
1.0
 40
2.0
 40
2.0
 40
2.0
 40
3.0
 40
3.0
 40
3.0
 40
4.0
 40
4.0
 40
4.0
 40
4.0
 10
125.8937798079363
 20
-156.9757757854088
 10
125.8937798079363
 20
-156.9757757854088
 10
124.7345051771497
 20
-156.9757757854088
 10
124.7345051771497
 20
-156.9757757854088
 10
124.7345051771497
 20
-156.9757757854088
 10
124.7345051771497
 20
-157.11564666211
 10
124.7345051771497
 20
-157.11564666211
 10
124.7345051771497
 20
-157.11564666211
 10
125.8937798079363
 20
-157.11564666211
 10
125.8937798079363
 20
-157.11564666211
 10
125.8937798079363
 20
-157.11564666211
 10
125.8937798079363
 20
-156.9757757854088
 10
125.8937798079363
 20
-156.9757757854088
 97
        0
 97
        1
330
155
 92
        1
 93
        1
 72
     4
 94
        3
 73
     0
 74
     0
 95
       17
 96
       13
 40
0.0
 40
0.0
 40
0.0
 40
0.0
 40
1.0
 40
1.0
 40
1.0
 40
2.0
 40
2.0
 40
2.0
 40
3.0
 40
3.0
 40
3.0
 40
4.0
 40
4.0
 40
4.0
 40
4.0
 10
125.8937798079363
 20
-156.7242838149856
 10
125.8937798079363
 20
-156.7242838149856
 10
124.7345051771497
 20
-156.7242838149856
 10
124.7345051771497
 20
-156.7242838149856
 10
124.7345051771497
 20
-156.7242838149856
 10
124.7345051771497
 20
-156.8658772394293
 10
124.7345051771497
 20
-156.8658772394293
 10
124.7345051771497
 20
-156.8658772394293
 10
125.8937798079363
 20
-156.8658772394293
 10
125.8937798079363
 20
-156.8658772394293
 10
125.8937798079363
 20
-156.8658772394293
 10
125.8937798079363
 20
-156.7242838149856
 10
125.8937798079363
 20
-156.7242838149856
 97
        0
 97
        1
330
156
 92
        1
 93
        1
 72
     4
 94
        3
 73
     0
 74
     0
 95
       17
 96
       13
 40
0.0
 40
0.0
 40
0.0
 40
0.0
 40
1.0
 40
1.0
 40
1.0
 40
2.0
 40
2.0
 40
2.0
 40
3.0
 40
3.0
 40
3.0
 40
4.0
 40
4.0
 40
4.0
 40
4.0
 10
125.8937798079363
 20
-156.4851941883092
 10
125.8937798079363
 20
-156.4851941883092
 10
124.7345051771497
 20
-156.4851941883092
 10
124.7345051771497
 20
-156.4851941883092
 10
124.7345051771497
 20
-156.4851941883092
 10
124.7345051771497
 20
-156.6140407594576
 10
124.7345051771497
 20
-156.6140407594576
 10
124.7345051771497
 20
-156.6140407594576
 10
125.8937798079363
 20
-156.6140407594576
 10
125.8937798079363
 20
-156.6140407594576
 10
125.8937798079363
 20
-156.6140407594576
 10
125.8937798079363
 20
-156.4851941883092
 10
125.8937798079363
 20
-156.4851941883092
 97
        0
 97
        1
330
157
 92
        1
 93
        1
 72
     4
 94
        3
 73
     0
 74
     0
 95
       32
 96
       28
 40
0.0
 40
0.0
 40
0.0
 40
0.0
 40
1.0
 40
1.0
 40
1.0
 40
2.0
 40
2.0
 40
2.0
 40
3.0
 40
3.0
 40
3.0
 40
4.0
 40
4.0
 40
4.0
 40
5.0
 40
5.0
 40
5.0
 40
6.0
 40
6.0
 40
6.0
 40
7.0
 40
7.0
 40
7.0
 40
8.0
 40
8.0
 40
8.0
 40
9.0
 40
9.0
 40
9.0
 40
9.0
 10
124.5653509888239
 20
-157.2510389146803
 10
124.5653509888239
 20
-157.2510389146803
 10
124.5653509888239
 20
-156.3518689930301
 10
124.5653509888239
 20
-156.3518689930301
 10
124.5653509888239
 20
-156.3518689930301
 10
126.0632785058106
 20
-156.3518689930301
 10
126.0632785058106
 20
-156.3518689930301
 10
126.0632785058106
 20
-156.3518689930301
 10
126.0632785058106
 20
-157.2510389146803
 10
126.0632785058106
 20
-157.2510389146803
 10
126.0632785058106
 20
-157.2510389146803
 10
124.9188177856106
 20
-157.2510389146803
 10
124.9188177856106
 20
-157.2510389146803
 10
124.9188177856106
 20
-157.2510389146803
 10
125.0245822170077
 20
-157.3609374606597
 10
125.0245822170077
 20
-157.3609374606597
 10
124.8595621432643
 20
-157.4560220960526
 10
124.6945420695208
 20
-157.5173447956901
 10
124.3982638577893
 20
-157.5683322088718
 10
124.3982638577893
 20
-157.5683322088718
 10
124.3328070435696
 20
-157.4160589884237
 10
124.3328070435696
 20
-157.4160589884237
 10
124.7114230373985
 20
-157.3630045179509
 10
124.8340684366734
 20
-157.29548064644
 10
124.9143391614797
 20
-157.2510389146803
 10
124.9143391614797
 20
-157.2510389146803
 10
124.5653509888239
 20
-157.2510389146803
 10
124.5653509888239
 20
-157.2510389146803
 97
        0
 97
        1
330
158
 92
        1
 93
        1
 72
     4
 94
        3
 73
     0
 74
     0
 95
       50
 96
       46
 40
0.0
 40
0.0
 40
0.0
 40
0.0
 40
1.0
 40
1.0
 40
1.0
 40
2.0
 40
2.0
 40
2.0
 40
3.0
 40
3.0
 40
3.0
 40
4.0
 40
4.0
 40
4.0
 40
5.0
 40
5.0
 40
5.0
 40
6.0
 40
6.0
 40
6.0
 40
7.0
 40
7.0
 40
7.0
 40
8.0
 40
8.0
 40
8.0
 40
9.0
 40
9.0
 40
9.0
 40
10.0
 40
10.0
 40
10.0
 40
11.0
 40
11.0
 40
11.0
 40
12.0
 40
12.0
 40
12.0
 40
13.0
 40
13.0
 40
13.0
 40
14.0
 40
14.0
 40
14.0
 40
15.0
 40
15.0
 40
15.0
 40
15.0
 10
124.6501003377611
 20
-155.9053846181417
 10
124.6501003377611
 20
-155.9053846181417
 10
125.3015678940218
 20
-155.9053846181417
 10
125.3015678940218
 20
-155.9053846181417
 10
125.3015678940218
 20
-155.9053846181417
 10
125.3015678940218
 20
-156.0304415842563
 10
125.3015678940218
 20
-156.0304415842563
 10
125.3015678940218
 20
-156.0304415842563
 10
125.0245822170077
 20
-156.0304415842563
 10
125.0245822170077
 20
-156.0304415842563
 10
125.0245822170077
 20
-156.0304415842563
 10
125.0245822170077
 20
-156.3053602039792
 10
125.0245822170077
 20
-156.3053602039792
 10
125.0245822170077
 20
-156.3053602039792
 10
124.8636962578466
 20
-156.3053602039792
 10
124.8636962578466
 20
-156.3053602039792
 10
124.8636962578466
 20
-156.3053602039792
 10
124.8636962578466
 20
-156.0304415842563
 10
124.8636962578466
 20
-156.0304415842563
 10
124.8636962578466
 20
-156.0304415842563
 10
124.6435546563391
 20
-156.0304415842563
 10
124.6435546563391
 20
-156.0304415842563
 10
124.6332193698833
 20
-156.1000325130583
 10
124.6077256632925
 20
-156.2946804079749
 10
124.4533853855533
 20
-156.4448865711318
 10
124.4533853855533
 20
-156.4448865711318
 10
124.3307399862784
 20
-156.3349880251523
 10
124.3307399862784
 20
-156.3349880251523
 10
124.4513183282621
 20
-156.2354247656286
 10
124.4933484931822
 20
-156.0304415842563
 10
124.4933484931822
 20
-155.9477592926103
 10
124.4933484931822
 20
-155.9477592926103
 10
124.4933484931822
 20
-155.662160876883
 10
124.4933484931822
 20
-155.662160876883
 10
124.9780734279569
 20
-155.662160876883
 10
125.132413705696
 20
-155.6156520878322
 10
125.2274983410889
 20
-155.5880913239502
 10
125.2274983410889
 20
-155.5880913239502
 10
125.2805528115618
 20
-155.7276176911028
 10
125.2805528115618
 20
-155.7276176911028
 10
125.0710910060586
 20
-155.7765380469934
 10
124.9081379896063
 20
-155.7868733334491
 10
124.6501003377611
 20
-155.7913519575799
 10
124.6501003377611
 20
-155.7913519575799
 10
124.6501003377611
 20
-155.9053846181417
 10
124.6501003377611
 20
-155.9053846181417
 97
        0
 97
        1
330
159
 75
     2
 76
     1
 98
        1
 10
0.0
 20
0.0
450
        0
451
        0
460
0.0
461
0.0
452
        0
462
0.0
453
        0
470

  0
ENDBLK
  5
14A
330
147
100
AcDbEntity
  8
0
100
AcDbBlockEnd
  0
ENDSEC
  0
SECTION
  2
ENTITIES
  0
LINE
  5
79
330
70
100
AcDbEntity
  8
レイヤー 1
 62
    18
420
        0
370
    25
100
AcDbLine
 10
119.7642966751369
 20
-153.1582275811895
 30
0.0
 11
97.76496918083127
 21
-153.1582275811895
 31
0.0
  0
LINE
  5
7A
330
70
100
AcDbEntity
  8
レイヤー 1
 62
    18
420
        0
370
    25
100
AcDbLine
 10
77.76307001474641
 20
-146.6580148050365
 30
0.0
 11
77.76307001474641
 21
-147.1582536938002
 31
0.0
  0
LINE
  5
7B
330
70
100
AcDbEntity
  8
レイヤー 1
 62
    18
420
        0
370
    25
100
AcDbLine
 10
98.70064165696028
 20
-147.1582536938002
 30
0.0
 11
77.76307001474641
 21
-147.1582536938002
 31
0.0
  0
LINE
  5
7C
330
70
100
AcDbEntity
  8
レイヤー 1
 62
    18
420
        0
370
    25
100
AcDbLine
 10
77.76307001474641
 20
-146.6580148050365
 30
0.0
 11
78.27706723684027
 21
-147.0400731382742
 31
0.0
  0
LINE
  5
7D
330
70
100
AcDbEntity
  8
レイヤー 1
 62
    18
420
        0
370
    25
100
AcDbLine
 10
78.27706723684027
 20
-147.0400731382742
 30
0.0
 11
78.76248945894087
 21
-146.6225606383785
 31
0.0
  0
LINE
  5
7E
330
70
100
AcDbEntity
  8
レイヤー 1
 62
    18
420
        0
370
    25
100
AcDbLine
 10
79.27648668103472
 20
-147.0046189716165
 30
0.0
 11
79.76226168091343
 21
-146.5867184161652
 31
0.0
  0
LINE
  5
7F
330
70
100
AcDbEntity
  8
レイヤー 1
 62
    18
420
        0
370
    25
100
AcDbLine
 10
78.76248945894087
 20
-146.6225606383785
 30
0.0
 11
79.27648668103472
 21
-147.0046189716165
 31
0.0
  0
LINE
  5
80
330
70
100
AcDbEntity
  8
レイヤー 1
 62
    18
420
        0
370
    25
100
AcDbLine
 10
79.76226168091343
 20
-146.5867184161652
 30
0.0
 11
80.27625890300694
 21
-146.9687767494033
 31
0.0
  0
LINE
  5
81
330
70
100
AcDbEntity
  8
レイヤー 1
 62
    18
420
        0
370
    25
100
AcDbLine
 10
80.27625890300694
 20
-146.9687767494033
 30
0.0
 11
80.76132834733012
 21
-146.5512289717298
 31
0.0
  0
LINE
  5
82
330
70
100
AcDbEntity
  8
レイヤー 1
 62
    18
420
        0
370
    25
100
AcDbLine
 10
80.76132834733012
 20
-146.5512289717298
 30
0.0
 11
81.2753608472018
 21
-146.93293452719
 31
0.0
  0
LINE
  5
83
330
70
100
AcDbEntity
  8
レイヤー 1
 62
    18
420
        0
370
    25
100
AcDbLine
 10
81.2753608472018
 20
-146.93293452719
 30
0.0
 11
81.76110056930234
 21
-146.5153867495165
 31
0.0
  0
LINE
  5
84
330
70
100
AcDbEntity
  8
レイヤー 1
 62
    18
420
        0
370
    25
100
AcDbLine
 10
81.76110056930234
 20
-146.5153867495165
 30
0.0
 11
82.27509779139618
 21
-146.8971275827546
 31
0.0
  0
LINE
  5
85
330
70
100
AcDbEntity
  8
レイヤー 1
 62
    18
420
        0
370
    25
100
AcDbLine
 10
82.27509779139618
 20
-146.8971275827546
 30
0.0
 11
82.76016723571935
 21
-146.4795798050811
 31
0.0
  0
LINE
  5
86
330
70
100
AcDbEntity
  8
レイヤー 1
 62
    18
420
        0
370
    25
100
AcDbLine
 10
82.76016723571935
 20
-146.4795798050811
 30
0.0
 11
83.27419973559072
 21
-146.8616381383188
 31
0.0
  0
LINE
  5
87
330
70
100
AcDbEntity
  8
レイヤー 1
 62
    18
420
        0
370
    25
100
AcDbLine
 10
83.27419973559072
 20
-146.8616381383188
 30
0.0
 11
83.75993945769158
 21
-146.4440903606456
 31
0.0
  0
LINE
  5
88
330
70
100
AcDbEntity
  8
レイヤー 1
 62
    18
420
        0
370
    25
100
AcDbLine
 10
83.75993945769158
 20
-146.4440903606456
 30
0.0
 11
84.27326640200773
 21
-146.8261486938833
 31
0.0
  0
LINE
  5
89
330
70
100
AcDbEntity
  8
レイヤー 1
 62
    18
420
        0
370
    25
100
AcDbLine
 10
84.27326640200773
 20
-146.8261486938833
 30
0.0
 11
84.75904140188644
 21
-146.4082481384324
 31
0.0
  0
LINE
  5
8A
330
70
100
AcDbEntity
  8
レイヤー 1
 62
    18
420
        0
370
    25
100
AcDbLine
 10
85.27303862398026
 20
-146.7903064716701
 30
0.0
 11
85.75810806830345
 21
-146.3727586939966
 31
0.0
  0
LINE
  5
8B
330
70
100
AcDbEntity
  8
レイヤー 1
 62
    18
420
        0
370
    25
100
AcDbLine
 10
84.75904140188644
 20
-146.4082481384324
 30
0.0
 11
85.27303862398026
 21
-146.7903064716701
 31
0.0
  0
LINE
  5
8C
330
70
100
AcDbEntity
  8
レイヤー 1
 62
    18
420
        0
370
    25
100
AcDbLine
 10
85.75810806830345
 20
-146.3727586939966
 30
0.0
 11
86.27210529039698
 21
-146.7544995272347
 31
0.0
  0
LINE
  5
8D
330
70
100
AcDbEntity
  8
レイヤー 1
 62
    18
420
        0
370
    25
100
AcDbLine
 10
86.27210529039698
 20
-146.7544995272347
 30
0.0
 11
86.75788029027534
 21
-146.3369517495615
 31
0.0
  0
LINE
  5
8E
330
70
100
AcDbEntity
  8
レイヤー 1
 62
    18
420
        0
370
    25
100
AcDbLine
 10
87.27187751236918
 20
-146.7186573050214
 30
0.0
 11
87.75694695669237
 21
-146.3011095273482
 31
0.0
  0
LINE
  5
8F
330
70
100
AcDbEntity
  8
レイヤー 1
 62
    18
420
        0
370
    25
100
AcDbLine
 10
86.75788029027534
 20
-146.3369517495615
 30
0.0
 11
87.27187751236918
 21
-146.7186573050214
 31
0.0
  0
LINE
  5
90
330
70
100
AcDbEntity
  8
レイヤー 1
 62
    18
420
        0
370
    25
100
AcDbLine
 10
88.27094417878621
 20
-146.6831678605856
 30
0.0
 11
88.7567191786649
 21
-146.2656200829124
 31
0.0
  0
LINE
  5
91
330
70
100
AcDbEntity
  8
レイヤー 1
 62
    18
420
        0
370
    25
100
AcDbLine
 10
87.75694695669237
 20
-146.3011095273482
 30
0.0
 11
88.27094417878621
 21
-146.6831678605856
 31
0.0
  0
LINE
  5
92
330
70
100
AcDbEntity
  8
レイヤー 1
 62
    18
420
        0
370
    25
100
AcDbLine
 10
88.7567191786649
 20
-146.2656200829124
 30
0.0
 11
89.27071640075842
 21
-146.6476784161501
 31
0.0
  0
LINE
  5
93
330
70
100
AcDbEntity
  8
レイヤー 1
 62
    18
420
        0
370
    25
100
AcDbLine
 10
89.27071640075842
 20
-146.6476784161501
 30
0.0
 11
89.75578584508161
 21
-146.2298131384767
 31
0.0
  0
LINE
  5
94
330
70
100
AcDbEntity
  8
レイヤー 1
 62
    18
420
        0
370
    25
100
AcDbLine
 10
89.75578584508161
 20
-146.2298131384767
 30
0.0
 11
90.26981742760376
 21
-146.6118714717147
 31
0.0
  0
LINE
  5
95
330
70
100
AcDbEntity
  8
レイヤー 1
 62
    18
420
        0
370
    25
100
AcDbLine
 10
90.26981742760376
 20
-146.6118714717147
 30
0.0
 11
90.75488685967338
 21
-146.1943236940412
 31
0.0
  0
LINE
  5
96
330
70
100
AcDbEntity
  8
レイヤー 1
 62
    18
420
        0
370
    25
100
AcDbLine
 10
90.75488685967338
 20
-146.1943236940412
 30
0.0
 11
91.26888406878244
 21
-146.5760292495015
 31
0.0
  0
LINE
  5
97
330
70
100
AcDbEntity
  8
レイヤー 1
 62
    18
420
        0
370
    25
100
AcDbLine
 10
91.26888406878244
 20
-146.5760292495015
 30
0.0
 11
91.75462473347085
 21
-146.158481471828
 31
0.0
  0
LINE
  5
98
330
70
100
AcDbEntity
  8
レイヤー 1
 62
    18
420
        0
370
    25
100
AcDbLine
 10
91.75462473347085
 20
-146.158481471828
 30
0.0
 11
92.26865626549836
 21
-146.540222305066
 31
0.0
  0
LINE
  5
99
330
70
100
AcDbEntity
  8
レイヤー 1
 62
    18
420
        0
370
    25
100
AcDbLine
 10
92.26865626549836
 20
-146.540222305066
 30
0.0
 11
92.75372569756765
 21
-146.1226745273926
 31
0.0
  0
LINE
  5
9A
330
70
100
AcDbEntity
  8
レイヤー 1
 62
    18
420
        0
370
    25
100
AcDbLine
 10
92.75372569756765
 20
-146.1226745273926
 30
0.0
 11
93.26772290667669
 21
-146.5047328606303
 31
0.0
  0
LINE
  5
9B
330
70
100
AcDbEntity
  8
レイヤー 1
 62
    18
420
        0
370
    25
100
AcDbLine
 10
93.26772290667669
 20
-146.5047328606303
 30
0.0
 11
93.75349789428355
 21
-146.0871850829571
 31
0.0
  0
LINE
  5
9C
330
70
100
AcDbEntity
  8
レイヤー 1
 62
    18
420
        0
370
    25
100
AcDbLine
 10
93.75349789428355
 20
-146.0871850829571
 30
0.0
 11
94.26749510339261
 21
-146.4692434161951
 31
0.0
  0
LINE
  5
9D
330
70
100
AcDbEntity
  8
レイヤー 1
 62
    18
420
        0
370
    25
100
AcDbLine
 10
94.26749510339261
 20
-146.4692434161951
 30
0.0
 11
94.7525645354619
 21
-146.0513428607438
 31
0.0
  0
LINE
  5
9E
330
70
100
AcDbEntity
  8
レイヤー 1
 62
    18
420
        0
370
    25
100
AcDbLine
 10
94.7525645354619
 20
-146.0513428607438
 30
0.0
 11
95.26656174457096
 21
-146.4334011939818
 31
0.0
  0
LINE
  5
9F
330
70
100
AcDbEntity
  8
レイヤー 1
 62
    18
420
        0
370
    25
100
AcDbLine
 10
95.26656174457096
 20
-146.4334011939818
 30
0.0
 11
95.7523367321778
 21
-146.015853416308
 31
0.0
  0
LINE
  5
A0
330
70
100
AcDbEntity
  8
レイヤー 1
 62
    18
420
        0
370
    25
100
AcDbLine
 10
95.7523367321778
 20
-146.015853416308
 30
0.0
 11
96.26633394128688
 21
-146.3975942495461
 31
0.0
  0
LINE
  5
A1
330
70
100
AcDbEntity
  8
レイヤー 1
 62
    18
420
        0
370
    25
100
AcDbLine
 10
96.26633394128688
 20
-146.3975942495461
 30
0.0
 11
96.75140337335584
 21
-145.9800464718729
 31
0.0
  0
LINE
  5
A2
330
70
100
AcDbEntity
  8
レイヤー 1
 62
    18
420
        0
370
    25
100
AcDbLine
 10
96.75140337335584
 20
-145.9800464718729
 30
0.0
 11
97.26540058246555
 21
-146.3617520273329
 31
0.0
  0
LINE
  5
A3
330
70
100
AcDbEntity
  8
レイヤー 1
 62
    18
420
        0
370
    25
100
AcDbLine
 10
97.26540058246555
 20
-146.3617520273329
 30
0.0
 11
97.7511755700724
 21
-145.9442042496593
 31
0.0
  0
LINE
  5
A4
330
70
100
AcDbEntity
  8
レイヤー 1
 62
    18
420
        0
370
    25
100
AcDbLine
 10
97.82517277929137
 20
-145.8959795274495
 30
0.0
 11
98.76470609976998
 21
-145.8959795274495
 31
0.0
  0
LINE
  5
A5
330
70
100
AcDbEntity
  8
レイヤー 1
 62
    18
420
        0
370
    25
100
AcDbLine
 10
98.76470609976998
 20
-145.8959795274495
 30
0.0
 11
98.76470609976998
 21
-152.1581378592167
 31
0.0
  0
LINE
  5
A6
330
70
100
AcDbEntity
  8
レイヤー 1
 62
    18
420
        0
370
    25
100
AcDbLine
 10
97.76496918083127
 20
-147.1582536938002
 30
0.0
 11
97.76496918083127
 21
-153.1582275811895
 31
0.0
  0
LINE
  5
A7
330
70
100
AcDbEntity
  8
レイヤー 1
 62
    18
420
        0
370
    25
100
AcDbLine
 10
118.764524478421
 20
-152.1581378592167
 30
0.0
 11
98.76470609976998
 21
-152.1581378592167
 31
0.0
  0
LINE
  5
A8
330
70
100
AcDbEntity
  8
レイヤー 1
 62
    18
420
        0
370
    25
100
AcDbLine
 10
129.7716141976067
 20
-146.3011095273482
 30
0.0
 11
129.258287266259
 21
-146.6831678605856
 31
0.0
  0
LINE
  5
A9
330
70
100
AcDbEntity
  8
レイヤー 1
 62
    18
420
        0
370
    25
100
AcDbLine
 10
134.7690640701111
 20
-146.4795798050811
 30
0.0
 11
134.2550668610021
 21
-146.8616381383188
 31
0.0
  0
LINE
  5
AA
330
70
100
AcDbEntity
  8
レイヤー 1
 62
    18
420
        0
370
    25
100
AcDbLine
 10
130.2573539074367
 20
-146.7186573050214
 30
0.0
 11
129.7716141976067
 21
-146.3011095273482
 31
0.0
  0
LINE
  5
AB
330
70
100
AcDbEntity
  8
レイヤー 1
 62
    18
420
        0
370
    25
100
AcDbLine
 10
131.2564558263919
 20
-146.7544995272347
 30
0.0
 11
130.7713863943226
 21
-146.3369517495615
 31
0.0
  0
LINE
  5
AC
330
70
100
AcDbEntity
  8
レイヤー 1
 62
    18
420
        0
370
    25
100
AcDbLine
 10
129.258287266259
 20
-146.6831678605856
 30
0.0
 11
128.7725475564284
 21
-146.2656200829124
 31
0.0
  0
LINE
  5
AD
330
70
100
AcDbEntity
  8
レイヤー 1
 62
    18
420
        0
370
    25
100
AcDbLine
 10
130.7713863943226
 20
-146.3369517495615
 30
0.0
 11
130.2573539074367
 21
-146.7186573050214
 31
0.0
  0
LINE
  5
AE
330
70
100
AcDbEntity
  8
レイヤー 1
 62
    18
420
        0
370
    25
100
AcDbLine
 10
138.766071468139
 20
-146.6225606383785
 30
0.0
 11
138.2520742590299
 21
-147.0046189716165
 31
0.0
  0
LINE
  5
AF
330
70
100
AcDbEntity
  8
レイヤー 1
 62
    18
420
        0
370
    25
100
AcDbLine
 10
131.770453035501
 20
-146.3727586939966
 30
0.0
 11
131.2564558263919
 21
-146.7544995272347
 31
0.0
  0
LINE
  5
B0
330
70
100
AcDbEntity
  8
レイヤー 1
 62
    18
420
        0
370
    25
100
AcDbLine
 10
132.7702252322169
 20
-146.4082481384324
 30
0.0
 11
132.2562280231078
 21
-146.7903064716701
 31
0.0
  0
LINE
  5
B1
330
70
100
AcDbEntity
  8
レイヤー 1
 62
    18
420
        0
370
    25
100
AcDbLine
 10
118.764524478421
 20
-145.8959795274495
 30
0.0
 11
118.764524478421
 21
-152.1581378592167
 31
0.0
  0
LINE
  5
B2
330
70
100
AcDbEntity
  8
レイヤー 1
 62
    18
420
        0
370
    25
100
AcDbLine
 10
132.2562280231078
 20
-146.7903064716701
 30
0.0
 11
131.770453035501
 21
-146.3727586939966
 31
0.0
  0
LINE
  5
B3
330
70
100
AcDbEntity
  8
レイヤー 1
 62
    18
420
        0
370
    25
100
AcDbLine
 10
133.2552946642862
 20
-146.8261486938833
 30
0.0
 11
132.7702252322169
 21
-146.4082481384324
 31
0.0
  0
LINE
  5
B4
330
70
100
AcDbEntity
  8
レイヤー 1
 62
    18
420
        0
370
    25
100
AcDbLine
 10
138.2520742590299
 20
-147.0046189716165
 30
0.0
 11
137.7670048269607
 21
-146.5867184161652
 31
0.0
  0
LINE
  5
B5
330
70
100
AcDbEntity
  8
レイヤー 1
 62
    18
420
        0
370
    25
100
AcDbLine
 10
133.7692918733953
 20
-146.4440903606456
 30
0.0
 11
133.2552946642862
 21
-146.8261486938833
 31
0.0
  0
LINE
  5
B6
330
70
100
AcDbEntity
  8
レイヤー 1
 62
    18
420
        0
370
    25
100
AcDbLine
 10
134.2550668610021
 20
-146.8616381383188
 30
0.0
 11
133.7692918733953
 21
-146.4440903606456
 31
0.0
  0
LINE
  5
B7
330
70
100
AcDbEntity
  8
レイヤー 1
 62
    18
420
        0
370
    25
100
AcDbLine
 10
139.2518111779696
 20
-147.0400731382742
 30
0.0
 11
138.766071468139
 21
-146.6225606383785
 31
0.0
  0
LINE
  5
B8
330
70
100
AcDbEntity
  8
レイヤー 1
 62
    18
420
        0
370
    25
100
AcDbLine
 10
135.7681307112895
 20
-146.5153867495165
 30
0.0
 11
135.2541335021804
 21
-146.8971275827546
 31
0.0
  0
LINE
  5
B9
330
70
100
AcDbEntity
  8
レイヤー 1
 62
    18
420
        0
370
    25
100
AcDbLine
 10
136.7672326302447
 20
-146.5512289717298
 30
0.0
 11
136.2532001433588
 21
-146.93293452719
 31
0.0
  0
LINE
  5
BA
330
70
100
AcDbEntity
  8
レイヤー 1
 62
    18
420
        0
370
    25
100
AcDbLine
 10
136.2532001433588
 20
-146.93293452719
 30
0.0
 11
135.7681307112895
 21
-146.5153867495165
 31
0.0
  0
LINE
  5
BB
330
70
100
AcDbEntity
  8
レイヤー 1
 62
    18
420
        0
370
    25
100
AcDbLine
 10
139.7658436648549
 20
-146.6580148050365
 30
0.0
 11
139.2518111779696
 21
-147.0400731382742
 31
0.0
  0
LINE
  5
BC
330
70
100
AcDbEntity
  8
レイヤー 1
 62
    18
420
        0
370
    25
100
AcDbLine
 10
135.2541335021804
 20
-146.8971275827546
 30
0.0
 11
134.7690640701111
 21
-146.4795798050811
 31
0.0
  0
LINE
  5
BD
330
70
100
AcDbEntity
  8
レイヤー 1
 62
    18
420
        0
370
    25
100
AcDbLine
 10
137.7670048269607
 20
-146.5867184161652
 30
0.0
 11
137.2529723400747
 21
-146.9687767494033
 31
0.0
  0
LINE
  5
BE
330
70
100
AcDbEntity
  8
レイヤー 1
 62
    18
420
        0
370
    25
100
AcDbLine
 10
137.2529723400747
 20
-146.9687767494033
 30
0.0
 11
136.7672326302447
 21
-146.5512289717298
 31
0.0
  0
LINE
  5
BF
330
70
100
AcDbEntity
  8
レイヤー 1
 62
    18
420
        0
370
    25
100
AcDbLine
 10
139.7658436648549
 20
-146.6580148050365
 30
0.0
 11
139.7658436648549
 21
-147.1582536938002
 31
0.0
  0
LINE
  5
C0
330
70
100
AcDbEntity
  8
レイヤー 1
 62
    18
420
        0
370
    25
100
AcDbLine
 10
118.8754747266905
 20
-147.1582536938002
 30
0.0
 11
139.7658436648549
 21
-147.1582536938002
 31
0.0
  0
LINE
  5
C1
330
70
100
AcDbEntity
  8
レイヤー 1
 62
    18
420
        0
370
    25
100
AcDbLine
 10
128.7725475564284
 20
-146.2656200829124
 30
0.0
 11
128.2585150695424
 21
-146.6476784161501
 31
0.0
  0
LINE
  5
C2
330
70
100
AcDbEntity
  8
レイヤー 1
 62
    18
420
        0
370
    25
100
AcDbLine
 10
128.2585150695424
 20
-146.6476784161501
 30
0.0
 11
127.7734456374731
 21
-146.2298131384767
 31
0.0
  0
LINE
  5
C3
330
70
100
AcDbEntity
  8
レイヤー 1
 62
    18
420
        0
370
    25
100
AcDbLine
 10
127.7734456374731
 20
-146.2298131384767
 30
0.0
 11
127.2594484283641
 21
-146.6118714717147
 31
0.0
  0
LINE
  5
C4
330
70
100
AcDbEntity
  8
レイヤー 1
 62
    18
420
        0
370
    25
100
AcDbLine
 10
127.2594484283641
 20
-146.6118714717147
 30
0.0
 11
126.7736734407572
 21
-146.1943236940412
 31
0.0
  0
LINE
  5
C5
330
70
100
AcDbEntity
  8
レイヤー 1
 62
    18
420
        0
370
    25
100
AcDbLine
 10
126.7736734407572
 20
-146.1943236940412
 30
0.0
 11
126.2596762316482
 21
-146.5760292495015
 31
0.0
  0
LINE
  5
C6
330
70
100
AcDbEntity
  8
レイヤー 1
 62
    18
420
        0
370
    25
100
AcDbLine
 10
126.2596762316482
 20
-146.5760292495015
 30
0.0
 11
125.7746067995789
 21
-146.158481471828
 31
0.0
  0
LINE
  5
C7
330
70
100
AcDbEntity
  8
レイヤー 1
 62
    18
420
        0
370
    25
100
AcDbLine
 10
125.7746067995789
 20
-146.158481471828
 30
0.0
 11
125.2606095904698
 21
-146.540222305066
 31
0.0
  0
LINE
  5
C8
330
70
100
AcDbEntity
  8
レイヤー 1
 62
    18
420
        0
370
    25
100
AcDbLine
 10
125.2606095904698
 20
-146.540222305066
 30
0.0
 11
124.774834602863
 21
-146.1226745273926
 31
0.0
  0
LINE
  5
C9
330
70
100
AcDbEntity
  8
レイヤー 1
 62
    18
420
        0
370
    25
100
AcDbLine
 10
124.774834602863
 20
-146.1226745273926
 30
0.0
 11
124.2608373937539
 21
-146.5047328606303
 31
0.0
  0
LINE
  5
CA
330
70
100
AcDbEntity
  8
レイヤー 1
 62
    18
420
        0
370
    25
100
AcDbLine
 10
124.2608373937539
 20
-146.5047328606303
 30
0.0
 11
123.7757679616846
 21
-146.0871850829571
 31
0.0
  0
LINE
  5
CB
330
70
100
AcDbEntity
  8
レイヤー 1
 62
    18
420
        0
370
    25
100
AcDbLine
 10
123.7757679616846
 20
-146.0871850829571
 30
0.0
 11
123.2617707525756
 21
-146.4692434161951
 31
0.0
  0
LINE
  5
CC
330
70
100
AcDbEntity
  8
レイヤー 1
 62
    18
420
        0
370
    25
100
AcDbLine
 10
123.2617707525756
 20
-146.4692434161951
 30
0.0
 11
122.7767013205069
 21
-146.0513428607438
 31
0.0
  0
LINE
  5
CD
330
70
100
AcDbEntity
  8
レイヤー 1
 62
    18
420
        0
370
    25
100
AcDbLine
 10
122.7767013205069
 20
-146.0513428607438
 30
0.0
 11
122.2626688336203
 21
-146.4334011939818
 31
0.0
  0
LINE
  5
CE
330
70
100
AcDbEntity
  8
レイヤー 1
 62
    18
420
        0
370
    25
100
AcDbLine
 10
122.2626688336203
 20
-146.4334011939818
 30
0.0
 11
121.7769291237904
 21
-146.015853416308
 31
0.0
  0
LINE
  5
CF
330
70
100
AcDbEntity
  8
レイヤー 1
 62
    18
420
        0
370
    25
100
AcDbLine
 10
121.7769291237904
 20
-146.015853416308
 30
0.0
 11
121.2629319146813
 21
-146.3975942495461
 31
0.0
  0
LINE
  5
D0
330
70
100
AcDbEntity
  8
レイヤー 1
 62
    18
420
        0
370
    25
100
AcDbLine
 10
121.2629319146813
 20
-146.3975942495461
 30
0.0
 11
120.777862482612
 21
-145.9800464718729
 31
0.0
  0
LINE
  5
D1
330
70
100
AcDbEntity
  8
レイヤー 1
 62
    18
420
        0
370
    25
100
AcDbLine
 10
120.777862482612
 20
-145.9800464718729
 30
0.0
 11
120.2638299957261
 21
-146.3617520273329
 31
0.0
  0
LINE
  5
D2
330
70
100
AcDbEntity
  8
レイヤー 1
 62
    18
420
        0
370
    25
100
AcDbLine
 10
120.2638299957261
 20
-146.3617520273329
 30
0.0
 11
119.7780902858961
 21
-145.9442042496593
 31
0.0
  0
LINE
  5
D3
330
70
100
AcDbEntity
  8
レイヤー 1
 62
    18
420
        0
370
    25
100
AcDbLine
 10
119.7040577988999
 20
-145.8959795274495
 30
0.0
 11
118.764524478421
 21
-145.8959795274495
 31
0.0
  0
LINE
  5
D4
330
70
100
AcDbEntity
  8
レイヤー 1
 62
    18
420
        0
370
    25
100
AcDbLine
 10
119.7642966751369
 20
-147.1582536938002
 30
0.0
 11
119.7642966751369
 21
-153.1582275811895
 31
0.0
  0
SPLINE
  5
D5
330
70
100
AcDbEntity
  8
レイヤー 1
 62
    18
420
        0
370
     9
100
AcDbSpline
210
0.0
220
0.0
230
1.0
 70
     9
 71
     3
 72
    17
 73
    13
 74
     0
 42
0.0000000001
 43
0.0000000001
 40
0.0
 40
0.0
 40
0.0
 40
0.0
 40
1.0
 40
1.0
 40
1.0
 40
2.0
 40
2.0
 40
2.0
 40
3.0
 40
3.0
 40
3.0
 40
4.0
 40
4.0
 40
4.0
 40
4.0
 10
77.86297668138806
 20
-141.8962203617826
 30
0.0
 10
77.86297668138806
 20
-141.8407636951296
 30
0.0
 10
77.81820918139918
 20
-141.7959609173632
 30
0.0
 10
77.76307001474641
 20
-141.7959609173632
 30
0.0
 10
77.70796612587118
 20
-141.7959609173632
 30
0.0
 10
77.66316334810479
 20
-141.8407636951296
 30
0.0
 10
77.66316334810479
 20
-141.8962203617826
 30
0.0
 10
77.66316334810479
 20
-141.9513242506575
 30
0.0
 10
77.70796612587118
 20
-141.9961270284242
 30
0.0
 10
77.76307001474641
 20
-141.9961270284242
 30
0.0
 10
77.81820918139918
 20
-141.9961270284242
 30
0.0
 10
77.86297668138806
 20
-141.9513242506575
 30
0.0
 10
77.86297668138806
 20
-141.8962203617826
 30
0.0
  0
CIRCLE
  5
D6
330
70
100
AcDbEntity
  8
レイヤー 1
 62
    18
420
        0
370
     9
100
AcDbCircle
 10
73.7633108490797
 20
-146.6580148050365
 30
0.0
 40
0.0999066666418783
  0
CIRCLE
  5
D7
330
70
100
AcDbEntity
  8
レイヤー 1
 62
    18
420
        0
370
     9
100
AcDbCircle
 10
73.7633108490797
 20
-147.1582536938002
 30
0.0
 40
0.0999066666418783
  0
CIRCLE
  5
D8
330
70
100
AcDbEntity
  8
レイヤー 1
 62
    18
420
        0
370
     9
100
AcDbCircle
 10
73.7633108490797
 20
-153.1582275811892
 30
0.0
 40
0.0999066666420387
  0
SPLINE
  5
D9
330
70
100
AcDbEntity
  8
レイヤー 1
 62
    18
420
        0
370
     9
100
AcDbSpline
210
0.0
220
0.0
230
1.0
 70
     9
 71
     3
 72
    17
 73
    13
 74
     0
 42
0.0000000001
 43
0.0000000001
 40
0.0
 40
0.0
 40
0.0
 40
0.0
 40
1.0
 40
1.0
 40
1.0
 40
2.0
 40
2.0
 40
2.0
 40
3.0
 40
3.0
 40
3.0
 40
4.0
 40
4.0
 40
4.0
 40
4.0
 10
98.86461276388814
 20
-141.8962203617826
 30
0.0
 10
98.86461276388814
 20
-141.8407636951296
 30
0.0
 10
98.81984526503025
 20
-141.7959609173632
 30
0.0
 10
98.76470609976998
 20
-141.7959609173632
 30
0.0
 10
98.70960221228724
 20
-141.7959609173632
 30
0.0
 10
98.66479943565247
 20
-141.8407636951296
 30
0.0
 10
98.66479943565247
 20
-141.8962203617826
 30
0.0
 10
98.66479943565247
 20
-141.9513242506575
 30
0.0
 10
98.70960221228724
 20
-141.9961270284242
 30
0.0
 10
98.76470609976998
 20
-141.9961270284242
 30
0.0
 10
98.81984526503025
 20
-141.9961270284242
 30
0.0
 10
98.86461276388814
 20
-141.9513242506575
 30
0.0
 10
98.86461276388814
 20
-141.8962203617826
 30
0.0
  0
SPLINE
  5
DA
330
70
100
AcDbEntity
  8
レイヤー 1
 62
    18
420
        0
370
     9
100
AcDbSpline
210
0.0
220
0.0
230
1.0
 70
     9
 71
     3
 72
    17
 73
    13
 74
     0
 42
0.0000000001
 43
0.0000000001
 40
0.0
 40
0.0
 40
0.0
 40
0.0
 40
1.0
 40
1.0
 40
1.0
 40
2.0
 40
2.0
 40
2.0
 40
3.0
 40
3.0
 40
3.0
 40
4.0
 40
4.0
 40
4.0
 40
4.0
 10
139.9656569930906
 20
-141.8962203617826
 30
0.0
 10
139.9656569930906
 20
-141.8407636951296
 30
0.0
 10
139.9208542164558
 20
-141.7959609173632
 30
0.0
 10
139.8657524992207
 20
-141.7959609173632
 30
0.0
 10
139.8099408859521
 20
-141.7959609173632
 30
0.0
 10
139.7651381093174
 20
-141.8407636951296
 30
0.0
 10
139.7651381093174
 20
-141.8962203617826
 30
0.0
 10
139.7651381093174
 20
-141.9513242506575
 30
0.0
 10
139.8099408859521
 20
-141.9961270284242
 30
0.0
 10
139.8657524992207
 20
-141.9961270284242
 30
0.0
 10
139.9208542164558
 20
-141.9961270284242
 30
0.0
 10
139.9656569930906
 20
-141.9513242506575
 30
0.0
 10
139.9656569930906
 20
-141.8962203617826
 30
0.0
  0
SPLINE
  5
DB
330
70
100
AcDbEntity
  8
レイヤー 1
 62
    18
420
        0
370
     9
100
AcDbSpline
210
0.0
220
0.0
230
1.0
 70
     9
 71
     3
 72
    17
 73
    13
 74
     0
 42
0.0000000001
 43
0.0000000001
 40
0.0
 40
0.0
 40
0.0
 40
0.0
 40
1.0
 40
1.0
 40
1.0
 40
2.0
 40
2.0
 40
2.0
 40
3.0
 40
3.0
 40
3.0
 40
4.0
 40
4.0
 40
4.0
 40
4.0
 10
118.9643378066566
 20
-141.8962203617826
 30
0.0
 10
118.9643378066566
 20
-141.8407636951296
 30
0.0
 10
118.9195719489017
 20
-141.7959609173632
 30
0.0
 10
118.8644311425388
 20
-141.7959609173632
 30
0.0
 10
118.8093272550557
 20
-141.7959609173632
 30
0.0
 10
118.764524478421
 20
-141.8407636951296
 30
0.0
 10
118.764524478421
 20
-141.8962203617826
 30
0.0
 10
118.764524478421
 20
-141.9513242506575
 30
0.0
 10
118.8093272550557
 20
-141.9961270284242
 30
0.0
 10
118.8644311425388
 20
-141.9961270284242
 30
0.0
 10
118.9195719489017
 20
-141.9961270284242
 30
0.0
 10
118.9643378066566
 20
-141.9513242506575
 30
0.0
 10
118.9643378066566
 20
-141.8962203617826
 30
0.0
  0
LINE
  5
DC
330
70
100
AcDbEntity
  8
レイヤー 1
 62
    18
420
        0
370
     9
100
AcDbLine
 10
73.76331084907985
 20
-146.6580148050365
 30
0.0
 11
73.76331084907985
 21
-141.4001089730176
 31
0.0
  0
LINE
  5
DD
330
70
100
AcDbEntity
  8
レイヤー 1
 62
    18
420
        0
370
     9
100
AcDbLine
 10
73.76331084907985
 20
-146.6580148050365
 30
0.0
 11
73.76331084907985
 21
-147.1582536938002
 31
0.0
  0
LINE
  5
DE
330
70
100
AcDbEntity
  8
レイヤー 1
 62
    18
420
        0
370
     9
100
AcDbLine
 10
75.22335223760356
 20
-146.6580148050365
 30
0.0
 11
72.76322112710771
 21
-146.6580148050365
 31
0.0
  0
LINE
  5
DF
330
70
100
AcDbEntity
  8
レイヤー 1
 62
    18
420
        0
370
     9
100
AcDbLine
 10
75.22335223760356
 20
-147.1582536938002
 30
0.0
 11
72.76322112710771
 21
-147.1582536938002
 31
0.0
  0
INSERT
  5
E1
330
70
100
AcDbEntity
  8
レイヤー 1
100
AcDbBlockReference
  2
Block_0
 10
0.0
 20
0.0
 30
0.0
  0
LINE
  5
EF
330
70
100
AcDbEntity
  8
レイヤー 1
 62
    18
420
        0
370
     9
100
AcDbLine
 10
77.76307001474641
 20
-141.8962203617826
 30
0.0
 11
98.76470609976998
 21
-141.8962203617826
 31
0.0
  0
LINE
  5
F0
330
70
100
AcDbEntity
  8
レイヤー 1
 62
    18
420
        0
370
     9
100
AcDbLine
 10
77.76307001474641
 20
-144.1182970278939
 30
0.0
 11
77.76307001474641
 21
-140.8960953620326
 31
0.0
  0
INSERT
  5
F2
330
70
100
AcDbEntity
  8
レイヤー 1
100
AcDbBlockReference
  2
Block_2
 10
0.0
 20
0.0
 30
0.0
  0
LINE
  5
FD
330
70
100
AcDbEntity
  8
レイヤー 1
 62
    18
420
        0
370
     9
100
AcDbLine
 10
73.76331084907985
 20
-147.1582536938002
 30
0.0
 11
73.76331084907985
 21
-153.1582275811895
 31
0.0
  0
LINE
  5
FE
330
70
100
AcDbEntity
  8
レイヤー 1
 62
    18
420
        0
370
     9
100
AcDbLine
 10
95.2252161900699
 20
-153.1582275811895
 30
0.0
 11
72.76322112710771
 21
-153.1582275811895
 31
0.0
  0
INSERT
  5
100
330
70
100
AcDbEntity
  8
レイヤー 1
100
AcDbBlockReference
  2
Block_4
 10
0.0
 20
0.0
 30
0.0
  0
LINE
  5
106
330
70
100
AcDbEntity
  8
レイヤー 1
 62
    18
420
        0
370
     9
100
AcDbLine
 10
139.8657524992207
 20
-141.8962203617826
 30
0.0
 11
118.8644311425388
 21
-141.8962203617826
 31
0.0
  0
LINE
  5
107
330
70
100
AcDbEntity
  8
レイヤー 1
 62
    18
420
        0
370
     9
100
AcDbLine
 10
139.8657524992207
 20
-144.1182970278939
 30
0.0
 11
139.8657524992207
 21
-140.8960953620326
 31
0.0
  0
INSERT
  5
109
330
70
100
AcDbEntity
  8
レイヤー 1
100
AcDbBlockReference
  2
Block_5
 10
0.0
 20
0.0
 30
0.0
  0
LINE
  5
114
330
70
100
AcDbEntity
  8
レイヤー 1
 62
    18
420
        0
370
     9
100
AcDbLine
 10
98.76470609976998
 20
-141.8962203617826
 30
0.0
 11
118.764524478421
 21
-141.8962203617826
 31
0.0
  0
LINE
  5
115
330
70
100
AcDbEntity
  8
レイヤー 1
 62
    18
420
        0
370
     9
100
AcDbLine
 10
98.76470609976998
 20
-143.3562617503066
 30
0.0
 11
98.76470609976998
 21
-140.8960953620326
 31
0.0
  0
LINE
  5
116
330
70
100
AcDbEntity
  8
レイヤー 1
 62
    18
420
        0
370
     9
100
AcDbLine
 10
118.8644311425388
 20
-143.3562617503066
 30
0.0
 11
118.8644311425388
 21
-140.8960953620326
 31
0.0
  0
INSERT
  5
118
330
70
100
AcDbEntity
  8
レイヤー 1
100
AcDbBlockReference
  2
Block_7
 10
0.0
 20
0.0
 30
0.0
  0
SPLINE
  5
124
330
70
100
AcDbEntity
  8
レイヤー 1
 62
    18
420
        0
370
     9
100
AcDbSpline
210
0.0
220
0.0
230
1.0
 70
     9
 71
     3
 72
    17
 73
    13
 74
     0
 42
0.0000000001
 43
0.0000000001
 40
0.0
 40
0.0
 40
0.0
 40
0.0
 40
1.0
 40
1.0
 40
1.0
 40
2.0
 40
2.0
 40
2.0
 40
3.0
 40
3.0
 40
3.0
 40
4.0
 40
4.0
 40
4.0
 40
4.0
 10
98.04881417358979
 20
-157.271687024605
 30
0.0
 10
98.04881417358979
 20
-157.2165478579526
 30
0.0
 10
97.99300473056916
 20
-157.171780357964
 30
0.0
 10
97.92481278786477
 20
-157.171780357964
 30
0.0
 10
97.85591639861223
 20
-157.171780357964
 30
0.0
 10
97.80077612436222
 20
-157.2165478579526
 30
0.0
 10
97.80077612436222
 20
-157.271687024605
 30
0.0
 10
97.80077612436222
 20
-157.3267909134806
 30
0.0
 10
97.85591639861223
 20
-157.3715936912473
 30
0.0
 10
97.92481278786477
 20
-157.3715936912473
 30
0.0
 10
97.99300473056916
 20
-157.3715936912473
 30
0.0
 10
98.04881417358979
 20
-157.3267909134806
 30
0.0
 10
98.04881417358979
 20
-157.271687024605
 30
0.0
  0
SPLINE
  5
125
330
70
100
AcDbEntity
  8
レイヤー 1
 62
    18
420
        0
370
     9
100
AcDbSpline
210
0.0
220
0.0
230
1.0
 70
     9
 71
     3
 72
    17
 73
    13
 74
     0
 42
0.0000000001
 43
0.0000000001
 40
0.0
 40
0.0
 40
0.0
 40
0.0
 40
1.0
 40
1.0
 40
1.0
 40
2.0
 40
2.0
 40
2.0
 40
3.0
 40
3.0
 40
3.0
 40
4.0
 40
4.0
 40
4.0
 40
4.0
 10
120.0488472234329
 20
-157.271687024605
 30
0.0
 10
120.0488472234329
 20
-157.2165478579526
 30
0.0
 10
119.9930377804123
 20
-157.171780357964
 30
0.0
 10
119.92414028217
 20
-157.171780357964
 30
0.0
 10
119.8552427839278
 20
-157.171780357964
 30
0.0
 10
119.8001388964447
 20
-157.2165478579526
 30
0.0
 10
119.8001388964447
 20
-157.271687024605
 30
0.0
 10
119.8001388964447
 20
-157.3267909134806
 30
0.0
 10
119.8552427839278
 20
-157.3715936912473
 30
0.0
 10
119.92414028217
 20
-157.3715936912473
 30
0.0
 10
119.9930377804123
 20
-157.3715936912473
 30
0.0
 10
120.0488472234329
 20
-157.3267909134806
 30
0.0
 10
120.0488472234329
 20
-157.271687024605
 30
0.0
  0
LINE
  5
126
330
70
100
AcDbEntity
  8
レイヤー 1
 62
    18
420
        0
370
     9
100
AcDbLine
 10
119.92414028217
 20
-157.271687024605
 30
0.0
 11
97.92481278786477
 21
-157.271687024605
 31
0.0
  0
LINE
  5
127
330
70
100
AcDbEntity
  8
レイヤー 1
 62
    18
420
        0
370
     9
100
AcDbLine
 10
119.92414028217
 20
-155.8116456360813
 30
0.0
 11
119.92414028217
 21
-158.2717767465778
 31
0.0
  0
LINE
  5
128
330
70
100
AcDbEntity
  8
レイヤー 1
 62
    18
420
        0
370
     9
100
AcDbLine
 10
97.92481278786477
 20
-155.8116456360813
 30
0.0
 11
97.92481278786477
 21
-158.2717767465778
 31
0.0
  0
INSERT
  5
12A
330
70
100
AcDbEntity
  8
レイヤー 1
100
AcDbBlockReference
  2
Block_9
 10
0.0
 20
0.0
 30
0.0
  0
LINE
  5
135
330
70
100
AcDbEntity
  8
レイヤー 1
 62
    18
420
        0
370
     9
100
AcDbLine
 10
117.7361772824341
 20
-150.3036203596803
 30
0.0
 11
124.7362759927356
 21
-150.3036203596803
 31
0.0
  0
INSERT
  5
137
330
70
100
AcDbEntity
  8
レイヤー 1
100
AcDbBlockReference
  2
Block_11
 10
0.0
 20
0.0
 30
0.0
  0
INSERT
  5
13D
330
70
100
AcDbEntity
  8
レイヤー 1
100
AcDbBlockReference
  2
Block_12
 10
0.0
 20
0.0
 30
0.0
  0
INSERT
  5
144
330
70
100
AcDbEntity
  8
レイヤー 1
100
AcDbBlockReference
  2
Block_13
 10
0.0
 20
0.0
 30
0.0
  0
ENDSEC
  0
SECTION
  2
OBJECTS
  0
DICTIONARY
  5
C
330
0
100
AcDbDictionary
281
     1
  3
ACAD_COLOR
350
63
  3
ACAD_DETAILVIEWSTYLE
350
6A
  3
ACAD_GROUP
350
D
  3
ACAD_LAYOUT
350
62
  3
ACAD_MATERIAL
350
10
  3
ACAD_MLEADERSTYLE
350
66
  3
ACAD_MLINESTYLE
350
5F
  3
ACAD_PLOTSETTINGS
350
61
  3
ACAD_PLOTSTYLENAME
350
E
  3
ACAD_SCALELIST
350
42
  3
ACAD_SECTIONVIEWSTYLE
350
68
  3
ACAD_TABLESTYLE
350
64
  3
ACAD_VISUALSTYLE
350
29
  3
ACDB_RECOMPOSE_DATA
350
163
  3
AcDbVariableDictionary
350
15B
  0
DICTIONARY
  5
63
102
{ACAD_REACTORS
330
C
102
}
330
C
100
AcDbDictionary
281
     1
  0
DICTIONARY
  5
6A
102
{ACAD_REACTORS
330
C
102
}
330
C
100
AcDbDictionary
281
     1
  3
Imperial24
350
6B
  0
DICTIONARY
  5
D
102
{ACAD_REACTORS
330
C
102
}
330
C
100
AcDbDictionary
281
     1
  0
DICTIONARY
  5
62
102
{ACAD_REACTORS
330
C
102
}
330
C
100
AcDbDictionary
281
     1
  3
Layout1
350
6F
  3
Layout2
350
77
  3
Model
350
73
  0
DICTIONARY
  5
10
102
{ACAD_REACTORS
330
C
102
}
330
C
100
AcDbDictionary
281
     1
  3
ByBlock
350
19
  3
ByLayer
350
11
  3
Global
350
21
  0
DICTIONARY
  5
66
102
{ACAD_REACTORS
330
C
102
}
330
C
100
AcDbDictionary
281
     1
  3
Standard
350
67
  0
DICTIONARY
  5
5F
102
{ACAD_REACTORS
330
C
102
}
330
C
100
AcDbDictionary
281
     1
  3
Standard
350
60
  0
DICTIONARY
  5
61
102
{ACAD_REACTORS
330
C
102
}
330
C
100
AcDbDictionary
281
     1
  0
ACDBDICTIONARYWDFLT
  5
E
102
{ACAD_REACTORS
330
C
102
}
330
C
100
AcDbDictionary
281
     1
  3
Normal
350
F
100
AcDbDictionaryWithDefault
340
F
  0
DICTIONARY
  5
42
102
{ACAD_REACTORS
330
C
102
}
330
C
100
AcDbDictionary
281
     1
  3
A0
350
43
  3
A1
350
44
  3
A2
350
45
  3
A3
350
46
  3
A4
350
47
  3
A5
350
48
  3
A6
350
49
  3
A7
350
4A
  3
A8
350
4B
  3
A9
350
4C
  3
B0
350
4D
  3
B1
350
4E
  3
B2
350
4F
  3
B3
350
50
  3
B4
350
51
  3
B5
350
52
  3
B6
350
53
  0
DICTIONARY
  5
68
102
{ACAD_REACTORS
330
C
102
}
330
C
100
AcDbDictionary
281
     1
  3
Imperial24
350
69
  0
DICTIONARY
  5
64
102
{ACAD_REACTORS
330
C
102
}
330
C
100
AcDbDictionary
281
     1
  3
Standard
350
65
  0
DICTIONARY
  5
29
102
{ACAD_REACTORS
330
C
102
}
330
C
100
AcDbDictionary
281
     1
  3
2dWireframe
350
2F
  3
Basic
350
2E
  3
Brighten
350
35
  3
ColorChange
350
39
  3
Conceptual
350
32
  3
Dim
350
34
  3
EdgeColorOff
350
41
  3
Facepattern
350
38
  3
Flat
350
2A
  3
FlatWithEdges
350
2B
  3
Gouraud
350
2C
  3
GouraudWithEdges
350
2D
  3
Hidden
350
31
  3
JitterOff
350
3F
  3
Linepattern
350
37
  3
OverhangOff
350
40
  3
Realistic
350
33
  3
Shaded
350
3E
  3
Shaded with edges
350
3D
  3
Shades of Gray
350
3A
  3
Sketchy
350
3B
  3
Thicken
350
36
  3
Wireframe
350
30
  3
X-Ray
350
3C
  0
XRECORD
  5
163
102
{ACAD_REACTORS
330
C
102
}
330
C
100
AcDbXrecord
280
     1
 90
        1
330
65
  0
DICTIONARY
  5
15B
102
{ACAD_REACTORS
330
C
102
}
330
C
100
AcDbDictionary
281
     1
  3
CANNOSCALE
350
160
  3
CMLEADERSTYLE
350
15D
  3
CTABLESTYLE
350
15C
  3
CVIEWDETAILSTYLE
350
15E
  3
CVIEWSECTIONSTYLE
350
15F
  0
ACDBDETAILVIEWSTYLE
  5
6B
102
{ACAD_XDICTIONARY
360
198
102
}
102
{ACAD_REACTORS
330
6A
102
}
330
6A
100
AcDbModelDocViewStyle
 70
     0
  3
Imperial24
290
     0
100
AcDbDetailViewStyle
 70
     0
 71
     0
 90
        3
 71
     1
340
55
 62
   256
 40
0.24
340
0
 62
   256
 40
0.24
300

 40
0.36
280
     3
 71
     2
340
5D
 90
       25
 62
   256
 71
     3
340
55
 62
   256
 40
0.24
 90
        1
 40
0.75
 90
        1
300
%<\AcVar ViewType \f "%tc1">% %<\AcVar ViewDetailId>%\PSCALE %<\AcVar ViewScale \f "%sn">%
 71
     4
340
5D
 90
       25
 62
   256
340
5D
 90
       25
 62
   256
280
     0
  0
LAYOUT
  5
6F
102
{ACAD_REACTORS
330
62
102
}
330
62
100
AcDbPlotSettings
  1

  2

  4

  6

 40
0.0
 41
0.0
 42
0.0
 43
0.0
 44
0.0
 45
0.0
 46
0.0
 47
0.0
 48
0.0
 49
0.0
140
0.0
141
0.0
142
1.0
143
1.0
 70
   688
 72
     0
 73
     0
 74
     5
  7

 75
    16
147
1.0
 76
     0
 77
     2
 78
   300
148
0.0
149
0.0
100
AcDbLayout
  1
Layout1
 70
     1
 71
     1
 10
0.0
 20
0.0
 11
12.0
 21
9.0
 12
0.0
 22
0.0
 32
0.0
 14
0.0
 24
0.0
 34
0.0
 15
0.0
 25
0.0
 35
0.0
146
0.0
 13
0.0
 23
0.0
 33
0.0
 16
1.0
 26
0.0
 36
0.0
 17
0.0
 27
1.0
 37
0.0
 76
     0
330
6C
  0
LAYOUT
  5
77
102
{ACAD_REACTORS
330
62
102
}
330
62
100
AcDbPlotSettings
  1

  2

  4

  6

 40
0.0
 41
0.0
 42
0.0
 43
0.0
 44
0.0
 45
0.0
 46
0.0
 47
0.0
 48
0.0
 49
0.0
140
0.0
141
0.0
142
1.0
143
1.0
 70
   688
 72
     0
 73
     0
 74
     5
  7

 75
    16
147
1.0
 76
     0
 77
     2
 78
   300
148
0.0
149
0.0
100
AcDbLayout
  1
Layout2
 70
     1
 71
     2
 10
0.0
 20
0.0
 11
12.0
 21
9.0
 12
0.0
 22
0.0
 32
0.0
 14
0.0
 24
0.0
 34
0.0
 15
0.0
 25
0.0
 35
0.0
146
0.0
 13
0.0
 23
0.0
 33
0.0
 16
1.0
 26
0.0
 36
0.0
 17
0.0
 27
1.0
 37
0.0
 76
     0
330
74
  0
LAYOUT
  5
73
102
{ACAD_REACTORS
330
62
102
}
330
62
100
AcDbPlotSettings
  1

  2

  4

  6

 40
0.0
 41
0.0
 42
0.0
 43
0.0
 44
0.0
 45
0.0
 46
0.0
 47
0.0
 48
0.0
 49
0.0
140
0.0
141
0.0
142
1.0
143
1.0
 70
  1712
 72
     0
 73
     0
 74
     0
  7

 75
     0
147
1.0
 76
     0
 77
     2
 78
   300
148
0.0
149
0.0
100
AcDbLayout
  1
Model
 70
     1
 71
     0
 10
0.0
 20
0.0
 11
12.0
 21
9.0
 12
0.0
 22
0.0
 32
0.0
 14
0.0
 24
0.0
 34
0.0
 15
0.0
 25
0.0
 35
0.0
146
0.0
 13
0.0
 23
0.0
 33
0.0
 16
1.0
 26
0.0
 36
0.0
 17
0.0
 27
1.0
 37
0.0
 76
     0
330
70
  0
MATERIAL
  5
19
102
{ACAD_XDICTIONARY
360
1A
102
}
102
{ACAD_REACTORS
330
10
102
}
330
10
100
AcDbMaterial
  1
ByBlock
 72
     0
 43
0.0208333333333333
 43
0.0
 43
0.0
 43
0.0
 43
0.0
 43
0.0208333333333333
 43
0.0
 43
0.0
 43
0.0
 43
0.0
 43
1.0
 43
0.0
 43
0.0
 43
0.0
 43
0.0
 43
1.0
 77
     0
 47
0.0208333333333333
 47
0.0
 47
0.0
 47
0.0
 47
0.0
 47
0.0208333333333333
 47
0.0
 47
0.0
 47
0.0
 47
0.0
 47
1.0
 47
0.0
 47
0.0
 47
0.0
 47
0.0
 47
1.0
171
     0
 49
0.0208333333333333
 49
0.0
 49
0.0
 49
0.0
 49
0.0
 49
0.0208333333333333
 49
0.0
 49
0.0
 49
0.0
 49
0.0
 49
1.0
 49
0.0
 49
0.0
 49
0.0
 49
0.0
 49
1.0
175
     0
142
0.0208333333333333
142
0.0
142
0.0
142
0.0
142
0.0
142
0.0208333333333333
142
0.0
142
0.0
142
0.0
142
0.0
142
1.0
142
0.0
142
0.0
142
0.0
142
0.0
142
1.0
179
     0
144
0.0208333333333333
144
0.0
144
0.0
144
0.0
144
0.0
144
0.0208333333333333
144
0.0
144
0.0
144
0.0
144
0.0
144
1.0
144
0.0
144
0.0
144
0.0
144
0.0
144
1.0
147
0.0208333333333333
147
0.0
147
0.0
147
0.0
147
0.0
147
0.0208333333333333
147
0.0
147
0.0
147
0.0
147
0.0
147
1.0
147
0.0
147
0.0
147
0.0
147
0.0
147
1.0
  0
MATERIAL
  5
11
102
{ACAD_XDICTIONARY
360
12
102
}
102
{ACAD_REACTORS
330
10
102
}
330
10
100
AcDbMaterial
  1
ByLayer
 72
     0
 43
0.0208333333333333
 43
0.0
 43
0.0
 43
0.0
 43
0.0
 43
0.0208333333333333
 43
0.0
 43
0.0
 43
0.0
 43
0.0
 43
1.0
 43
0.0
 43
0.0
 43
0.0
 43
0.0
 43
1.0
 77
     0
 47
0.0208333333333333
 47
0.0
 47
0.0
 47
0.0
 47
0.0
 47
0.0208333333333333
 47
0.0
 47
0.0
 47
0.0
 47
0.0
 47
1.0
 47
0.0
 47
0.0
 47
0.0
 47
0.0
 47
1.0
171
     0
 49
0.0208333333333333
 49
0.0
 49
0.0
 49
0.0
 49
0.0
 49
0.0208333333333333
 49
0.0
 49
0.0
 49
0.0
 49
0.0
 49
1.0
 49
0.0
 49
0.0
 49
0.0
 49
0.0
 49
1.0
175
     0
142
0.0208333333333333
142
0.0
142
0.0
142
0.0
142
0.0
142
0.0208333333333333
142
0.0
142
0.0
142
0.0
142
0.0
142
1.0
142
0.0
142
0.0
142
0.0
142
0.0
142
1.0
179
     0
144
0.0208333333333333
144
0.0
144
0.0
144
0.0
144
0.0
144
0.0208333333333333
144
0.0
144
0.0
144
0.0
144
0.0
144
1.0
144
0.0
144
0.0
144
0.0
144
0.0
144
1.0
147
0.0208333333333333
147
0.0
147
0.0
147
0.0
147
0.0
147
0.0208333333333333
147
0.0
147
0.0
147
0.0
147
0.0
147
1.0
147
0.0
147
0.0
147
0.0
147
0.0
147
1.0
  0
MATERIAL
  5
21
102
{ACAD_XDICTIONARY
360
22
102
}
102
{ACAD_REACTORS
330
10
102
}
330
10
100
AcDbMaterial
  1
Global
 72
     0
 43
0.0208333333333333
 43
0.0
 43
0.0
 43
0.0
 43
0.0
 43
0.0208333333333333
 43
0.0
 43
0.0
 43
0.0
 43
0.0
 43
1.0
 43
0.0
 43
0.0
 43
0.0
 43
0.0
 43
1.0
 77
     0
 47
0.0208333333333333
 47
0.0
 47
0.0
 47
0.0
 47
0.0
 47
0.0208333333333333
 47
0.0
 47
0.0
 47
0.0
 47
0.0
 47
1.0
 47
0.0
 47
0.0
 47
0.0
 47
0.0
 47
1.0
171
     0
 49
0.0208333333333333
 49
0.0
 49
0.0
 49
0.0
 49
0.0
 49
0.0208333333333333
 49
0.0
 49
0.0
 49
0.0
 49
0.0
 49
1.0
 49
0.0
 49
0.0
 49
0.0
 49
0.0
 49
1.0
175
     0
142
0.0208333333333333
142
0.0
142
0.0
142
0.0
142
0.0
142
0.0208333333333333
142
0.0
142
0.0
142
0.0
142
0.0
142
1.0
142
0.0
142
0.0
142
0.0
142
0.0
142
1.0
179
     0
144
0.0208333333333333
144
0.0
144
0.0
144
0.0
144
0.0
144
0.0208333333333333
144
0.0
144
0.0
144
0.0
144
0.0
144
1.0
144
0.0
144
0.0
144
0.0
144
0.0
144
1.0
147
0.0208333333333333
147
0.0
147
0.0
147
0.0
147
0.0
147
0.0208333333333333
147
0.0
147
0.0
147
0.0
147
0.0
147
1.0
147
0.0
147
0.0
147
0.0
147
0.0
147
1.0
  0
MLEADERSTYLE
  5
67
102
{ACAD_XDICTIONARY
360
194
102
}
102
{ACAD_REACTORS
330
66
102
}
330
66
100
AcDbMLeaderStyle
179
     2
170
     2
171
     1
172
     0
 90
        2
 40
0.0
 41
0.0
173
     1
 91
-1056964608
340
5B
 92
       -2
290
     1
 42
0.09
291
     1
 43
0.36
  3
Standard
 44
0.18
300

342
55
174
     1
178
     6
175
     1
176
     0
 93
-1056964608
 45
0.18
292
     0
297
     0
 46
0.18
 94
-1056964608
 47
1.0
 49
1.0
140
1.0
293
     1
141
0.0
294
     1
177
     0
142
1.0
295
     0
296
     0
143
0.125
271
     0
272
     9
273
     9
  0
MLINESTYLE
  5
60
102
{ACAD_REACTORS
330
5F
102
}
330
5F
100
AcDbMlineStyle
  2
STANDARD
 70
     0
  3

 62
   256
 51
90.0
 52
90.0
 71
     2
 49
0.5
 62
   256
  6
BYLAYER
 49
-0.5
 62
   256
  6
BYLAYER
  0
ACDBPLACEHOLDER
  5
F
102
{ACAD_REACTORS
330
E
102
}
330
E
  0
SCALE
  5
43
102
{ACAD_REACTORS
330
42
102
}
330
42
100
AcDbScale
 70
     0
300
1:1
140
1.0
141
1.0
290
     1
  0
SCALE
  5
44
102
{ACAD_REACTORS
330
42
102
}
330
42
100
AcDbScale
 70
     0
300
1/128" = 1'-0"
140
0.0078125
141
12.0
290
     0
  0
SCALE
  5
45
102
{ACAD_REACTORS
330
42
102
}
330
42
100
AcDbScale
 70
     0
300
1/64" = 1'-0"
140
0.015625
141
12.0
290
     0
  0
SCALE
  5
46
102
{ACAD_REACTORS
330
42
102
}
330
42
100
AcDbScale
 70
     0
300
1/32" = 1'-0"
140
0.03125
141
12.0
290
     0
  0
SCALE
  5
47
102
{ACAD_REACTORS
330
42
102
}
330
42
100
AcDbScale
 70
     0
300
1/16" = 1'-0"
140
0.0625
141
12.0
290
     0
  0
SCALE
  5
48
102
{ACAD_REACTORS
330
42
102
}
330
42
100
AcDbScale
 70
     0
300
3/32" = 1'-0"
140
0.09375
141
12.0
290
     0
  0
SCALE
  5
49
102
{ACAD_REACTORS
330
42
102
}
330
42
100
AcDbScale
 70
     0
300
1/8" = 1'-0"
140
0.125
141
12.0
290
     0
  0
SCALE
  5
4A
102
{ACAD_REACTORS
330
42
102
}
330
42
100
AcDbScale
 70
     0
300
3/16" = 1'-0"
140
0.1875
141
12.0
290
     0
  0
SCALE
  5
4B
102
{ACAD_REACTORS
330
42
102
}
330
42
100
AcDbScale
 70
     0
300
1/4" = 1'-0"
140
0.25
141
12.0
290
     0
  0
SCALE
  5
4C
102
{ACAD_REACTORS
330
42
102
}
330
42
100
AcDbScale
 70
     0
300
3/8" = 1'-0"
140
0.375
141
12.0
290
     0
  0
SCALE
  5
4D
102
{ACAD_REACTORS
330
42
102
}
330
42
100
AcDbScale
 70
     0
300
1/2" = 1'-0"
140
0.5
141
12.0
290
     0
  0
SCALE
  5
4E
102
{ACAD_REACTORS
330
42
102
}
330
42
100
AcDbScale
 70
     0
300
3/4" = 1'-0"
140
0.75
141
12.0
290
     0
  0
SCALE
  5
4F
102
{ACAD_REACTORS
330
42
102
}
330
42
100
AcDbScale
 70
     0
300
1" = 1'-0"
140
1.0
141
12.0
290
     0
  0
SCALE
  5
50
102
{ACAD_REACTORS
330
42
102
}
330
42
100
AcDbScale
 70
     0
300
1-1/2" = 1'-0"
140
1.5
141
12.0
290
     0
  0
SCALE
  5
51
102
{ACAD_REACTORS
330
42
102
}
330
42
100
AcDbScale
 70
     0
300
3" = 1'-0"
140
3.0
141
12.0
290
     0
  0
SCALE
  5
52
102
{ACAD_REACTORS
330
42
102
}
330
42
100
AcDbScale
 70
     0
300
6" = 1'-0"
140
6.0
141
12.0
290
     0
  0
SCALE
  5
53
102
{ACAD_REACTORS
330
42
102
}
330
42
100
AcDbScale
 70
     0
300
1'-0" = 1'-0"
140
12.0
141
12.0
290
     0
  0
ACDBSECTIONVIEWSTYLE
  5
69
102
{ACAD_XDICTIONARY
360
196
102
}
102
{ACAD_REACTORS
330
68
102
}
330
68
100
AcDbModelDocViewStyle
 70
     0
  3
Imperial24
290
     0
100
AcDbSectionViewStyle
 70
     0
 71
     0
 90
       78
 71
     1
340
55
 62
   256
 40
0.24
340
0
340
0
 62
   256
 40
0.24
300
I, O, Q, S, X, Z
 40
0.48
 90
        3
 40
0.18
 90
        1
 71
     2
340
5D
 90
       25
 62
   256
340
5D
 90
       50
 62
   256
 40
0.24
 40
0.0
 40
0.24
 71
     3
340
55
 62
   256
 40
0.24
 90
        1
 40
0.75
 90
        1
300
%<\AcVar ViewType \f "%tc1">% %<\AcVar ViewSectionStartId>%-%<\AcVar ViewSectionEndId>%\PSCALE %<\AcVar ViewScale \f "%sn">%
 71
     4
 62
   256
 62
   257
300
ANSI31
 40
1.0
 90
        0
290
     0
290
     0
 90
        6
 40
0.0
 40
1.570796326794896
 40
0.2617993877991494
 40
1.308996938995747
 40
-0.2617993877991494
 40
1.832595714594046
  0
TABLESTYLE
  5
65
102
{ACAD_XDICTIONARY
360
161
102
}
102
{ACAD_REACTORS
330
64
102
}
330
64
100
AcDbTableStyle
280
     0
  3
Standard
 70
     0
 71
     0
 40
0.06
 41
0.06
280
     0
281
     0
  7
Standard
140
0.18
170
     2
 62
     0
 63
     7
283
     0
 90
      512
 91
        0
  1

274
    -2
284
     1
 64
     0
275
    -2
285
     1
 65
     0
276
    -2
286
     1
 66
     0
277
    -2
287
     1
 67
     0
278
    -2
288
     1
 68
     0
279
    -2
289
     1
 69
     0
  7
Standard
140
0.25
170
     5
 62
     0
 63
     7
283
     0
 90
      512
 91
        0
  1

274
    -2
284
     1
 64
     0
275
    -2
285
     1
 65
     0
276
    -2
286
     1
 66
     0
277
    -2
287
     1
 67
     0
278
    -2
288
     1
 68
     0
279
    -2
289
     1
 69
     0
  7
Standard
140
0.18
170
     5
 62
     0
 63
     7
283
     0
 90
      512
 91
        0
  1

274
    -2
284
     1
 64
     0
275
    -2
285
     1
 65
     0
276
    -2
286
     1
 66
     0
277
    -2
287
     1
 67
     0
278
    -2
288
     1
 68
     0
279
    -2
289
     1
 69
     0
  0
VISUALSTYLE
  5
2F
102
{ACAD_XDICTIONARY
360
16E
102
}
102
{ACAD_REACTORS
330
29
102
}
330
29
100
AcDbVisualStyle
  2
2dWireframe
 70
     4
177
     2
291
     0
 71
     0
176
     1
 72
     2
176
     1
 73
     0
176
     1
 90
        0
176
     1
 40
0.6
176
     1
 41
30.0
176
     1
 63
     7
421
 16777215
176
     1
 74
     1
176
     1
 91
        4
176
     1
 64
     7
176
     1
 65
   257
176
     1
 75
     1
176
     1
175
     1
176
     1
 42
1.0
176
     1
 92
        0
176
     1
 66
   257
176
     1
 43
1.0
176
     1
 76
     1
176
     1
 77
     6
176
     1
 78
     2
176
     1
 67
     7
176
     1
 79
     5
176
     1
170
     0
176
     1
171
     0
176
     1
290
     0
176
     1
 93
        1
176
     1
 44
0.0
176
     1
173
     0
176
     1
1001
ACAD
1000
AcDbSavedByObjectVersion
1070
     0
  0
VISUALSTYLE
  5
2E
102
{ACAD_XDICTIONARY
360
16C
102
}
102
{ACAD_REACTORS
330
29
102
}
330
29
100
AcDbVisualStyle
  2
Basic
 70
     7
177
     2
291
     1
 71
     1
176
     1
 72
     0
176
     1
 73
     1
176
     1
 90
        0
176
     1
 40
0.6
176
     1
 41
30.0
176
     1
 63
     7
421
 16777215
176
     1
 74
     0
176
     1
 91
        4
176
     1
 64
     7
176
     1
 65
   257
176
     1
 75
     1
176
     1
175
     1
176
     1
 42
1.0
176
     1
 92
        8
176
     1
 66
     7
176
     1
 43
1.0
176
     1
 76
     1
176
     1
 77
     6
176
     1
 78
     2
176
     1
 67
     7
176
     1
 79
     5
176
     1
170
     0
176
     1
171
     0
176
     1
290
     0
176
     1
 93
        1
176
     1
 44
0.0
176
     1
173
     0
176
     1
1001
ACAD
1000
AcDbSavedByObjectVersion
1070
     0
  0
VISUALSTYLE
  5
35
102
{ACAD_XDICTIONARY
360
17A
102
}
102
{ACAD_REACTORS
330
29
102
}
330
29
100
AcDbVisualStyle
  2
Brighten
 70
    12
177
     2
291
     1
 71
     2
176
     1
 72
     2
176
     1
 73
     0
176
     1
 90
        0
176
     1
 40
0.6
176
     1
 41
30.0
176
     1
 63
     7
421
 16777215
176
     1
 74
     1
176
     1
 91
        4
176
     1
 64
     7
176
     1
 65
   257
176
     1
 75
     1
176
     1
175
     1
176
     1
 42
1.0
176
     1
 92
        8
176
     1
 66
     7
176
     1
 43
1.0
176
     1
 76
     1
176
     1
 77
     6
176
     1
 78
     2
176
     1
 67
     7
176
     1
 79
     5
176
     1
170
     0
176
     1
171
     0
176
     1
290
     0
176
     1
 93
        1
176
     1
 44
50.0
176
     1
173
     0
176
     1
1001
ACAD
1000
AcDbSavedByObjectVersion
1070
     0
  0
VISUALSTYLE
  5
39
102
{ACAD_XDICTIONARY
360
182
102
}
102
{ACAD_REACTORS
330
29
102
}
330
29
100
AcDbVisualStyle
  2
ColorChange
 70
    16
177
     2
291
     1
 71
     2
176
     1
 72
     2
176
     1
 73
     3
176
     1
 90
        0
176
     1
 40
0.6
176
     1
 41
30.0
176
     1
 63
     8
421
  8421504
176
     1
 74
     1
176
     1
 91
        4
176
     1
 64
     7
176
     1
 65
   257
176
     1
 75
     1
176
     1
175
     1
176
     1
 42
1.0
176
     1
 92
        8
176
     1
 66
     8
424
  8421504
176
     1
 43
1.0
176
     1
 76
     1
176
     1
 77
     6
176
     1
 78
     2
176
     1
 67
     7
176
     1
 79
     5
176
     1
170
     0
176
     1
171
     0
176
     1
290
     0
176
     1
 93
        1
176
     1
 44
0.0
176
     1
173
     0
176
     1
1001
ACAD
1000
AcDbSavedByObjectVersion
1070
     0
  0
VISUALSTYLE
  5
32
102
{ACAD_XDICTIONARY
360
174
102
}
102
{ACAD_REACTORS
330
29
102
}
330
29
100
AcDbVisualStyle
  2
Conceptual
 70
     9
177
     2
291
     0
 71
     3
176
     1
 72
     2
176
     1
 73
     0
176
     1
 90
        0
176
     1
 40
0.6
176
     1
 41
30.0
176
     1
 63
     7
421
 16777215
176
     1
 74
     2
176
     1
 91
        2
176
     1
 64
     7
176
     1
 65
   257
176
     1
 75
     1
176
     1
175
     1
176
     1
 42
179.0
176
     1
 92
        8
176
     1
 66
     7
176
     1
 43
1.0
176
     1
 76
     1
176
     1
 77
     6
176
     1
 78
     2
176
     1
 67
     7
176
     1
 79
     3
176
     1
170
     0
176
     1
171
     0
176
     1
290
     0
176
     1
 93
        1
176
     1
 44
0.0
176
     1
173
     0
176
     1
1001
ACAD
1000
AcDbSavedByObjectVersion
1070
     0
  0
VISUALSTYLE
  5
34
102
{ACAD_XDICTIONARY
360
178
102
}
102
{ACAD_REACTORS
330
29
102
}
330
29
100
AcDbVisualStyle
  2
Dim
 70
    11
177
     2
291
     1
 71
     2
176
     1
 72
     2
176
     1
 73
     0
176
     1
 90
        0
176
     1
 40
0.6
176
     1
 41
30.0
176
     1
 63
     7
421
 16777215
176
     1
 74
     1
176
     1
 91
        4
176
     1
 64
     7
176
     1
 65
   257
176
     1
 75
     1
176
     1
175
     1
176
     1
 42
1.0
176
     1
 92
        8
176
     1
 66
     7
176
     1
 43
1.0
176
     1
 76
     1
176
     1
 77
     6
176
     1
 78
     2
176
     1
 67
     7
176
     1
 79
     5
176
     1
170
     0
176
     1
171
     0
176
     1
290
     0
176
     1
 93
        1
176
     1
 44
-50.0
176
     1
173
     0
176
     1
1001
ACAD
1000
AcDbSavedByObjectVersion
1070
     0
  0
VISUALSTYLE
  5
41
102
{ACAD_XDICTIONARY
360
192
102
}
102
{ACAD_REACTORS
330
29
102
}
330
29
100
AcDbVisualStyle
  2
EdgeColorOff
 70
    22
177
     2
291
     1
 71
     2
176
     0
 72
     2
176
     0
 73
     0
176
     0
 90
        0
176
     0
 40
0.6
176
     0
 41
30.0
176
     0
 63
     7
421
 16777215
176
     0
 74
     1
176
     0
 91
        4
176
     0
 64
     7
176
     0
 65
   257
176
     0
 75
     1
176
     0
175
     1
176
     0
 42
1.0
176
     0
 92
        8
176
     2
 66
     7
176
     0
 43
1.0
176
     0
 76
     1
176
     0
 77
     6
176
     0
 78
     2
176
     0
 67
     7
176
     0
 79
     5
176
     0
170
     0
176
     0
171
     0
176
     0
290
     0
176
     0
 93
        1
176
     0
 44
0.0
176
     0
173
     0
176
     0
1001
ACAD
1000
AcDbSavedByObjectVersion
1070
     0
  0
VISUALSTYLE
  5
38
102
{ACAD_XDICTIONARY
360
180
102
}
102
{ACAD_REACTORS
330
29
102
}
330
29
100
AcDbVisualStyle
  2
Facepattern
 70
    15
177
     2
291
     1
 71
     2
176
     1
 72
     2
176
     1
 73
     0
176
     1
 90
        0
176
     1
 40
0.6
176
     1
 41
30.0
176
     1
 63
     7
421
 16777215
176
     1
 74
     1
176
     1
 91
        4
176
     1
 64
     7
176
     1
 65
   257
176
     1
 75
     1
176
     1
175
     1
176
     1
 42
1.0
176
     1
 92
        8
176
     1
 66
     7
176
     1
 43
1.0
176
     1
 76
     1
176
     1
 77
     6
176
     1
 78
     2
176
     1
 67
     7
176
     1
 79
     5
176
     1
170
     0
176
     1
171
     0
176
     1
290
     0
176
     1
 93
        1
176
     1
 44
0.0
176
     1
173
     0
176
     1
1001
ACAD
1000
AcDbSavedByObjectVersion
1070
     0
  0
VISUALSTYLE
  5
2A
102
{ACAD_XDICTIONARY
360
164
102
}
102
{ACAD_REACTORS
330
29
102
}
330
29
100
AcDbVisualStyle
  2
Flat
 70
     0
177
     2
291
     1
 71
     2
176
     1
 72
     1
176
     1
 73
     1
176
     1
 90
        2
176
     1
 40
0.6
176
     1
 41
30.0
176
     1
 63
     7
421
 16777215
176
     1
 74
     0
176
     1
 91
        0
176
     1
 64
     7
176
     1
 65
   257
176
     1
 75
     1
176
     1
175
     1
176
     1
 42
1.0
176
     1
 92
        8
176
     1
 66
     7
176
     1
 43
1.0
176
     1
 76
     1
176
     1
 77
     6
176
     1
 78
     2
176
     1
 67
     7
176
     1
 79
     5
176
     1
170
     0
176
     1
171
     0
176
     1
290
     0
176
     1
 93
       13
176
     1
 44
0.0
176
     1
173
     0
176
     1
1001
ACAD
1000
AcDbSavedByObjectVersion
1070
     0
  0
VISUALSTYLE
  5
2B
102
{ACAD_XDICTIONARY
360
166
102
}
102
{ACAD_REACTORS
330
29
102
}
330
29
100
AcDbVisualStyle
  2
FlatWithEdges
 70
     1
177
     2
291
     1
 71
     2
176
     1
 72
     1
176
     1
 73
     1
176
     1
 90
        2
176
     1
 40
0.6
176
     1
 41
30.0
176
     1
 63
     7
421
 16777215
176
     1
 74
     1
176
     1
 91
        0
176
     1
 64
     7
176
     1
 65
   257
176
     1
 75
     1
176
     1
175
     1
176
     1
 42
1.0
176
     1
 92
        0
176
     1
 66
   257
176
     1
 43
1.0
176
     1
 76
     1
176
     1
 77
     6
176
     1
 78
     2
176
     1
 67
     7
176
     1
 79
     5
176
     1
170
     0
176
     1
171
     0
176
     1
290
     0
176
     1
 93
       13
176
     1
 44
0.0
176
     1
173
     0
176
     1
1001
ACAD
1000
AcDbSavedByObjectVersion
1070
     0
  0
VISUALSTYLE
  5
2C
102
{ACAD_XDICTIONARY
360
168
102
}
102
{ACAD_REACTORS
330
29
102
}
330
29
100
AcDbVisualStyle
  2
Gouraud
 70
     2
177
     2
291
     1
 71
     2
176
     1
 72
     2
176
     1
 73
     1
176
     1
 90
        2
176
     1
 40
0.6
176
     1
 41
30.0
176
     1
 63
     7
421
 16777215
176
     1
 74
     0
176
     1
 91
        0
176
     1
 64
     7
176
     1
 65
   257
176
     1
 75
     1
176
     1
175
     1
176
     1
 42
1.0
176
     1
 92
        0
176
     1
 66
     7
176
     1
 43
1.0
176
     1
 76
     1
176
     1
 77
     6
176
     1
 78
     2
176
     1
 67
     7
176
     1
 79
     5
176
     1
170
     0
176
     1
171
     0
176
     1
290
     0
176
     1
 93
       13
176
     1
 44
0.0
176
     1
173
     0
176
     1
1001
ACAD
1000
AcDbSavedByObjectVersion
1070
     0
  0
VISUALSTYLE
  5
2D
102
{ACAD_XDICTIONARY
360
16A
102
}
102
{ACAD_REACTORS
330
29
102
}
330
29
100
AcDbVisualStyle
  2
GouraudWithEdges
 70
     3
177
     2
291
     1
 71
     2
176
     1
 72
     2
176
     1
 73
     1
176
     1
 90
        2
176
     1
 40
0.6
176
     1
 41
30.0
176
     1
 63
     7
421
 16777215
176
     1
 74
     1
176
     1
 91
        0
176
     1
 64
     7
176
     1
 65
   257
176
     1
 75
     1
176
     1
175
     1
176
     1
 42
1.0
176
     1
 92
        0
176
     1
 66
   257
176
     1
 43
1.0
176
     1
 76
     1
176
     1
 77
     6
176
     1
 78
     2
176
     1
 67
     7
176
     1
 79
     5
176
     1
170
     0
176
     1
171
     0
176
     1
290
     0
176
     1
 93
       13
176
     1
 44
0.0
176
     1
173
     0
176
     1
1001
ACAD
1000
AcDbSavedByObjectVersion
1070
     0
  0
VISUALSTYLE
  5
31
102
{ACAD_XDICTIONARY
360
172
102
}
102
{ACAD_REACTORS
330
29
102
}
330
29
100
AcDbVisualStyle
  2
Hidden
 70
     6
177
     2
291
     0
 71
     1
176
     1
 72
     2
176
     1
 73
     2
176
     1
 90
        0
176
     1
 40
0.6
176
     1
 41
30.0
176
     1
 63
     7
421
 16777215
176
     1
 74
     2
176
     1
 91
        2
176
     1
 64
     7
176
     1
 65
   257
176
     1
 75
     2
176
     1
175
     1
176
     1
 42
40.0
176
     1
 92
        0
176
     1
 66
   257
176
     1
 43
1.0
176
     1
 76
     1
176
     1
 77
     6
176
     1
 78
     2
176
     1
 67
     7
176
     1
 79
     3
176
     1
170
     0
176
     1
171
     0
176
     1
290
     0
176
     1
 93
        1
176
     1
 44
0.0
176
     1
173
     0
176
     1
1001
ACAD
1000
AcDbSavedByObjectVersion
1070
     0
  0
VISUALSTYLE
  5
3F
102
{ACAD_XDICTIONARY
360
18E
102
}
102
{ACAD_REACTORS
330
29
102
}
330
29
100
AcDbVisualStyle
  2
JitterOff
 70
    20
177
     2
291
     1
 71
     2
176
     0
 72
     2
176
     0
 73
     0
176
     0
 90
        0
176
     0
 40
0.6
176
     0
 41
30.0
176
     0
 63
     7
421
 16777215
176
     0
 74
     1
176
     0
 91
        4
176
     0
 64
     7
176
     0
 65
   257
176
     0
 75
     1
176
     0
175
     1
176
     0
 42
1.0
176
     0
 92
       10
176
     2
 66
     7
176
     0
 43
1.0
176
     0
 76
     1
176
     0
 77
     6
176
     0
 78
     2
176
     0
 67
     7
176
     0
 79
     5
176
     0
170
     0
176
     0
171
     0
176
     0
290
     0
176
     0
 93
        1
176
     0
 44
0.0
176
     0
173
     0
176
     0
1001
ACAD
1000
AcDbSavedByObjectVersion
1070
     0
  0
VISUALSTYLE
  5
37
102
{ACAD_XDICTIONARY
360
17E
102
}
102
{ACAD_REACTORS
330
29
102
}
330
29
100
AcDbVisualStyle
  2
Linepattern
 70
    14
177
     2
291
     1
 71
     2
176
     1
 72
     2
176
     1
 73
     0
176
     1
 90
        0
176
     1
 40
0.6
176
     1
 41
30.0
176
     1
 63
     7
421
 16777215
176
     1
 74
     1
176
     1
 91
        4
176
     1
 64
     7
176
     1
 65
   257
176
     1
 75
     7
176
     1
175
     7
176
     1
 42
1.0
176
     1
 92
        8
176
     1
 66
     7
176
     1
 43
1.0
176
     1
 76
     1
176
     1
 77
     6
176
     1
 78
     2
176
     1
 67
     7
176
     1
 79
     5
176
     1
170
     0
176
     1
171
     0
176
     1
290
     0
176
     1
 93
        1
176
     1
 44
0.0
176
     1
173
     0
176
     1
1001
ACAD
1000
AcDbSavedByObjectVersion
1070
     0
  0
VISUALSTYLE
  5
40
102
{ACAD_XDICTIONARY
360
190
102
}
102
{ACAD_REACTORS
330
29
102
}
330
29
100
AcDbVisualStyle
  2
OverhangOff
 70
    21
177
     2
291
     1
 71
     2
176
     0
 72
     2
176
     0
 73
     0
176
     0
 90
        0
176
     0
 40
0.6
176
     0
 41
30.0
176
     0
 63
     7
421
 16777215
176
     0
 74
     1
176
     0
 91
        4
176
     0
 64
     7
176
     0
 65
   257
176
     0
 75
     1
176
     0
175
     1
176
     0
 42
1.0
176
     0
 92
        9
176
     2
 66
     7
176
     0
 43
1.0
176
     0
 76
     1
176
     0
 77
     6
176
     0
 78
     2
176
     0
 67
     7
176
     0
 79
     5
176
     0
170
     0
176
     0
171
     0
176
     0
290
     0
176
     0
 93
        1
176
     0
 44
0.0
176
     0
173
     0
176
     0
1001
ACAD
1000
AcDbSavedByObjectVersion
1070
     0
  0
VISUALSTYLE
  5
33
102
{ACAD_XDICTIONARY
360
176
102
}
102
{ACAD_REACTORS
330
29
102
}
330
29
100
AcDbVisualStyle
  2
Realistic
 70
     8
177
     2
291
     0
 71
     2
176
     1
 72
     3
176
     1
 73
     0
176
     1
 90
        2
176
     1
 40
0.6
176
     1
 41
30.0
176
     1
 63
     7
421
 16777215
176
     1
 74
     0
176
     1
 91
        0
176
     1
 64
     7
176
     1
 65
   257
176
     1
 75
     1
176
     1
175
     1
176
     1
 42
1.0
176
     1
 92
        8
176
     1
 66
   257
176
     1
 43
1.0
176
     1
 76
     1
176
     1
 77
     6
176
     1
 78
     2
176
     1
 67
     7
176
     1
 79
     3
176
     1
170
     0
176
     1
171
     0
176
     1
290
     0
176
     1
 93
       13
176
     1
 44
0.0
176
     1
173
     0
176
     1
1001
ACAD
1000
AcDbSavedByObjectVersion
1070
     0
  0
VISUALSTYLE
  5
3E
102
{ACAD_XDICTIONARY
360
18C
102
}
102
{ACAD_REACTORS
330
29
102
}
330
29
100
AcDbVisualStyle
  2
Shaded
 70
    27
177
     2
291
     0
 71
     2
176
     1
 72
     2
176
     1
 73
     1
176
     1
 90
        2
176
     1
 40
0.6
176
     1
 41
30.0
176
     1
 63
     7
421
 16777215
176
     1
 74
     0
176
     1
 91
        4
176
     1
 64
     7
176
     1
 65
   257
176
     1
 75
     1
176
     1
175
     1
176
     1
 42
1.0
176
     1
 92
        8
176
     1
 66
   257
176
     1
 43
1.0
176
     1
 76
     1
176
     1
 77
     6
176
     1
 78
     2
176
     1
 67
     8
425
  7895160
176
     1
 79
     3
176
     1
170
     0
176
     1
171
     0
176
     1
290
     0
176
     1
 93
        5
176
     1
 44
0.0
176
     1
173
     0
176
     1
1001
ACAD
1000
AcDbSavedByObjectVersion
1070
     0
  0
VISUALSTYLE
  5
3D
102
{ACAD_XDICTIONARY
360
18A
102
}
102
{ACAD_REACTORS
330
29
102
}
330
29
100
AcDbVisualStyle
  2
Shaded with edges
 70
    26
177
     2
291
     0
 71
     2
176
     1
 72
     2
176
     1
 73
     1
176
     1
 90
        2
176
     1
 40
0.6
176
     1
 41
30.0
176
     1
 63
     7
421
 16777215
176
     1
 74
     1
176
     1
 91
        2
176
     1
 64
     7
176
     1
 65
   257
176
     1
 75
     2
176
     1
175
     1
176
     1
 42
1.0
176
     1
 92
        8
176
     1
 66
   257
176
     1
 43
1.0
176
     1
 76
     1
176
     1
 77
     6
176
     1
 78
     2
176
     1
 67
     7
176
     1
 79
     3
176
     1
170
     0
176
     1
171
     0
176
     1
290
     0
176
     1
 93
        5
176
     1
 44
0.0
176
     1
173
     0
176
     1
1001
ACAD
1000
AcDbSavedByObjectVersion
1070
     0
  0
VISUALSTYLE
  5
3A
102
{ACAD_XDICTIONARY
360
184
102
}
102
{ACAD_REACTORS
330
29
102
}
330
29
100
AcDbVisualStyle
  2
Shades of Gray
 70
    23
177
     2
291
     0
 71
     2
176
     1
 72
     2
176
     1
 73
     3
176
     1
 90
        0
176
     1
 40
0.6
176
     1
 41
30.0
176
     1
 63
     7
421
 16777215
176
     1
 74
     2
176
     1
 91
        2
176
     1
 64
     7
176
     1
 65
     7
176
     1
 75
     1
176
     1
175
     1
176
     1
 42
40.0
176
     1
 92
        8
176
     1
 66
     7
176
     1
 43
1.0
176
     1
 76
     1
176
     1
 77
     6
176
     1
 78
     2
176
     1
 67
     7
176
     1
 79
     3
176
     1
170
     0
176
     1
171
     0
176
     1
290
     0
176
     1
 93
        1
176
     1
 44
0.0
176
     1
173
     0
176
     1
1001
ACAD
1000
AcDbSavedByObjectVersion
1070
     0
  0
VISUALSTYLE
  5
3B
102
{ACAD_XDICTIONARY
360
186
102
}
102
{ACAD_REACTORS
330
29
102
}
330
29
100
AcDbVisualStyle
  2
Sketchy
 70
    24
177
     2
291
     0
 71
     1
176
     1
 72
     2
176
     1
 73
     2
176
     1
 90
        0
176
     1
 40
0.6
176
     1
 41
30.0
176
     1
 63
     7
421
 16777215
176
     1
 74
     2
176
     1
 91
        2
176
     1
 64
     7
176
     1
 65
     7
176
     1
 75
     1
176
     1
175
     1
176
     1
 42
40.0
176
     1
 92
       11
176
     1
 66
     7
176
     1
 43
1.0
176
     1
 76
     1
176
     1
 77
     6
176
     1
 78
     2
176
     1
 67
     7
176
     1
 79
     6
176
     1
170
     0
176
     1
171
     0
176
     1
290
     0
176
     1
 93
        1
176
     1
 44
0.0
176
     1
173
     0
176
     1
1001
ACAD
1000
AcDbSavedByObjectVersion
1070
     0
  0
VISUALSTYLE
  5
36
102
{ACAD_XDICTIONARY
360
17C
102
}
102
{ACAD_REACTORS
330
29
102
}
330
29
100
AcDbVisualStyle
  2
Thicken
 70
    13
177
     2
291
     1
 71
     2
176
     1
 72
     2
176
     1
 73
     0
176
     1
 90
        0
176
     1
 40
0.6
176
     1
 41
30.0
176
     1
 63
     7
421
 16777215
176
     1
 74
     1
176
     1
 91
        4
176
     1
 64
     7
176
     1
 65
   257
176
     1
 75
     1
176
     1
175
     1
176
     1
 42
1.0
176
     1
 92
       12
176
     1
 66
     7
176
     1
 43
1.0
176
     1
 76
     1
176
     1
 77
     6
176
     1
 78
     2
176
     1
 67
     7
176
     1
 79
     5
176
     1
170
     0
176
     1
171
     0
176
     1
290
     0
176
     1
 93
        1
176
     1
 44
0.0
176
     1
173
     0
176
     1
1001
ACAD
1000
AcDbSavedByObjectVersion
1070
     0
  0
VISUALSTYLE
  5
30
102
{ACAD_XDICTIONARY
360
170
102
}
102
{ACAD_REACTORS
330
29
102
}
330
29
100
AcDbVisualStyle
  2
Wireframe
 70
     5
177
     2
291
     0
 71
     0
176
     1
 72
     2
176
     1
 73
     0
176
     1
 90
        0
176
     1
 40
0.6
176
     1
 41
30.0
176
     1
 63
     7
421
 16777215
176
     1
 74
     1
176
     1
 91
        4
176
     1
 64
     7
176
     1
 65
   257
176
     1
 75
     1
176
     1
175
     1
176
     1
 42
1.0
176
     1
 92
        0
176
     1
 66
   257
176
     1
 43
1.0
176
     1
 76
     1
176
     1
 77
     6
176
     1
 78
     2
176
     1
 67
     7
176
     1
 79
     3
176
     1
170
     0
176
     1
171
     0
176
     1
290
     0
176
     1
 93
        1
176
     1
 44
0.0
176
     1
173
     0
176
     1
1001
ACAD
1000
AcDbSavedByObjectVersion
1070
     0
  0
VISUALSTYLE
  5
3C
102
{ACAD_XDICTIONARY
360
188
102
}
102
{ACAD_REACTORS
330
29
102
}
330
29
100
AcDbVisualStyle
  2
X-Ray
 70
    25
177
     2
291
     0
 71
     2
176
     1
 72
     2
176
     1
 73
     1
176
     1
 90
        1
176
     1
 40
0.5
176
     1
 41
30.0
176
     1
 63
     7
421
 16777215
176
     1
 74
     1
176
     1
 91
        0
176
     1
 64
     7
176
     1
 65
   257
176
     1
 75
     1
176
     1
175
     1
176
     1
 42
1.0
176
     1
 92
        8
176
     1
 66
     7
176
     1
 43
1.0
176
     1
 76
     1
176
     1
 77
     6
176
     1
 78
     2
176
     1
 67
     7
176
     1
 79
     3
176
     1
170
     0
176
     1
171
     0
176
     1
290
     0
176
     1
 93
       13
176
     1
 44
0.0
176
     1
173
     0
176
     1
1001
ACAD
1000
AcDbSavedByObjectVersion
1070
     0
  0
DICTIONARYVAR
  5
160
102
{ACAD_REACTORS
330
15B
102
}
330
15B
100
DictionaryVariables
280
     0
  1
1:1
  0
DICTIONARYVAR
  5
15D
102
{ACAD_REACTORS
330
15B
102
}
330
15B
100
DictionaryVariables
280
     0
  1
STANDARD
  0
DICTIONARYVAR
  5
15C
102
{ACAD_REACTORS
330
15B
102
}
330
15B
100
DictionaryVariables
280
     0
  1
STANDARD
  0
DICTIONARYVAR
  5
15E
102
{ACAD_REACTORS
330
15B
102
}
330
15B
100
DictionaryVariables
280
     0
  1
Imperial24
  0
DICTIONARYVAR
  5
15F
102
{ACAD_REACTORS
330
15B
102
}
330
15B
100
DictionaryVariables
280
     0
  1
Imperial24
  0
DICTIONARY
  5
198
330
6B
100
AcDbDictionary
280
     1
281
     1
  3
ACAD_XREC_ROUNDTRIP
360
199
  0
DICTIONARY
  5
1A
330
19
100
AcDbDictionary
280
     1
281
     1
  3
BUMPTILE
360
1C
  3
DIFFUSETILE
360
1B
  3
OPACITYTILE
360
1F
  3
REFLECTIONTILE
360
1E
  3
REFRACTIONTILE
360
20
  3
SPECULARTILE
360
1D
  0
DICTIONARY
  5
12
330
11
100
AcDbDictionary
280
     1
281
     1
  3
BUMPTILE
360
14
  3
DIFFUSETILE
360
13
  3
OPACITYTILE
360
17
  3
REFLECTIONTILE
360
16
  3
REFRACTIONTILE
360
18
  3
SPECULARTILE
360
15
  0
DICTIONARY
  5
22
330
21
100
AcDbDictionary
280
     1
281
     1
  3
BUMPTILE
360
24
  3
DIFFUSETILE
360
23
  3
OPACITYTILE
360
27
  3
REFLECTIONTILE
360
26
  3
REFRACTIONTILE
360
28
  3
SPECULARTILE
360
25
  0
DICTIONARY
  5
194
330
67
100
AcDbDictionary
280
     1
281
     1
  3
ACAD_XREC_ROUNDTRIP
360
195
  0
DICTIONARY
  5
196
330
69
100
AcDbDictionary
280
     1
281
     1
  3
ACAD_XREC_ROUNDTRIP
360
197
  0
DICTIONARY
  5
161
330
65
100
AcDbDictionary
280
     1
281
     1
  3
ACAD_ROUNDTRIP_2008_TABLESTYLE_CELLSTYLEMAP
360
162
  0
DICTIONARY
  5
16E
330
2F
100
AcDbDictionary
280
     1
281
     1
  3
ACAD_XREC_ROUNDTRIP
360
16F
  0
DICTIONARY
  5
16C
330
2E
100
AcDbDictionary
280
     1
281
     1
  3
ACAD_XREC_ROUNDTRIP
360
16D
  0
DICTIONARY
  5
17A
330
35
100
AcDbDictionary
280
     1
281
     1
  3
ACAD_XREC_ROUNDTRIP
360
17B
  0
DICTIONARY
  5
182
330
39
100
AcDbDictionary
280
     1
281
     1
  3
ACAD_XREC_ROUNDTRIP
360
183
  0
DICTIONARY
  5
174
330
32
100
AcDbDictionary
280
     1
281
     1
  3
ACAD_XREC_ROUNDTRIP
360
175
  0
DICTIONARY
  5
178
330
34
100
AcDbDictionary
280
     1
281
     1
  3
ACAD_XREC_ROUNDTRIP
360
179
  0
DICTIONARY
  5
192
330
41
100
AcDbDictionary
280
     1
281
     1
  3
ACAD_XREC_ROUNDTRIP
360
193
  0
DICTIONARY
  5
180
330
38
100
AcDbDictionary
280
     1
281
     1
  3
ACAD_XREC_ROUNDTRIP
360
181
  0
DICTIONARY
  5
164
330
2A
100
AcDbDictionary
280
     1
281
     1
  3
ACAD_XREC_ROUNDTRIP
360
165
  0
DICTIONARY
  5
166
330
2B
100
AcDbDictionary
280
     1
281
     1
  3
ACAD_XREC_ROUNDTRIP
360
167
  0
DICTIONARY
  5
168
330
2C
100
AcDbDictionary
280
     1
281
     1
  3
ACAD_XREC_ROUNDTRIP
360
169
  0
DICTIONARY
  5
16A
330
2D
100
AcDbDictionary
280
     1
281
     1
  3
ACAD_XREC_ROUNDTRIP
360
16B
  0
DICTIONARY
  5
172
330
31
100
AcDbDictionary
280
     1
281
     1
  3
ACAD_XREC_ROUNDTRIP
360
173
  0
DICTIONARY
  5
18E
330
3F
100
AcDbDictionary
280
     1
281
     1
  3
ACAD_XREC_ROUNDTRIP
360
18F
  0
DICTIONARY
  5
17E
330
37
100
AcDbDictionary
280
     1
281
     1
  3
ACAD_XREC_ROUNDTRIP
360
17F
  0
DICTIONARY
  5
190
330
40
100
AcDbDictionary
280
     1
281
     1
  3
ACAD_XREC_ROUNDTRIP
360
191
  0
DICTIONARY
  5
176
330
33
100
AcDbDictionary
280
     1
281
     1
  3
ACAD_XREC_ROUNDTRIP
360
177
  0
DICTIONARY
  5
18C
330
3E
100
AcDbDictionary
280
     1
281
     1
  3
ACAD_XREC_ROUNDTRIP
360
18D
  0
DICTIONARY
  5
18A
330
3D
100
AcDbDictionary
280
     1
281
     1
  3
ACAD_XREC_ROUNDTRIP
360
18B
  0
DICTIONARY
  5
184
330
3A
100
AcDbDictionary
280
     1
281
     1
  3
ACAD_XREC_ROUNDTRIP
360
185
  0
DICTIONARY
  5
186
330
3B
100
AcDbDictionary
280
     1
281
     1
  3
ACAD_XREC_ROUNDTRIP
360
187
  0
DICTIONARY
  5
17C
330
36
100
AcDbDictionary
280
     1
281
     1
  3
ACAD_XREC_ROUNDTRIP
360
17D
  0
DICTIONARY
  5
170
330
30
100
AcDbDictionary
280
     1
281
     1
  3
ACAD_XREC_ROUNDTRIP
360
171
  0
DICTIONARY
  5
188
330
3C
100
AcDbDictionary
280
     1
281
     1
  3
ACAD_XREC_ROUNDTRIP
360
189
  0
XRECORD
  5
199
102
{ACAD_REACTORS
330
198
102
}
330
198
100
AcDbXrecord
280
     1
102
DISPLAYNAME
  1
Imperial24
102
FLAGS
 90
        0
  0
XRECORD
  5
1C
102
{ACAD_REACTORS
330
1A
102
}
330
1A
100
AcDbXrecord
280
     1
270
     1
271
     1
  0
XRECORD
  5
1B
102
{ACAD_REACTORS
330
1A
102
}
330
1A
100
AcDbXrecord
280
     1
270
     1
271
     1
  0
XRECORD
  5
1F
102
{ACAD_REACTORS
330
1A
102
}
330
1A
100
AcDbXrecord
280
     1
270
     1
271
     1
  0
XRECORD
  5
1E
102
{ACAD_REACTORS
330
1A
102
}
330
1A
100
AcDbXrecord
280
     1
270
     1
271
     1
  0
XRECORD
  5
20
102
{ACAD_REACTORS
330
1A
102
}
330
1A
100
AcDbXrecord
280
     1
270
     1
271
     1
  0
XRECORD
  5
1D
102
{ACAD_REACTORS
330
1A
102
}
330
1A
100
AcDbXrecord
280
     1
270
     1
271
     1
  0
XRECORD
  5
14
102
{ACAD_REACTORS
330
12
102
}
330
12
100
AcDbXrecord
280
     1
270
     1
271
     1
  0
XRECORD
  5
13
102
{ACAD_REACTORS
330
12
102
}
330
12
100
AcDbXrecord
280
     1
270
     1
271
     1
  0
XRECORD
  5
17
102
{ACAD_REACTORS
330
12
102
}
330
12
100
AcDbXrecord
280
     1
270
     1
271
     1
  0
XRECORD
  5
16
102
{ACAD_REACTORS
330
12
102
}
330
12
100
AcDbXrecord
280
     1
270
     1
271
     1
  0
XRECORD
  5
18
102
{ACAD_REACTORS
330
12
102
}
330
12
100
AcDbXrecord
280
     1
270
     1
271
     1
  0
XRECORD
  5
15
102
{ACAD_REACTORS
330
12
102
}
330
12
100
AcDbXrecord
280
     1
270
     1
271
     1
  0
XRECORD
  5
24
102
{ACAD_REACTORS
330
22
102
}
330
22
100
AcDbXrecord
280
     1
270
     1
271
     1
  0
XRECORD
  5
23
102
{ACAD_REACTORS
330
22
102
}
330
22
100
AcDbXrecord
280
     1
270
     1
271
     1
  0
XRECORD
  5
27
102
{ACAD_REACTORS
330
22
102
}
330
22
100
AcDbXrecord
280
     1
270
     1
271
     1
  0
XRECORD
  5
26
102
{ACAD_REACTORS
330
22
102
}
330
22
100
AcDbXrecord
280
     1
270
     1
271
     1
  0
XRECORD
  5
28
102
{ACAD_REACTORS
330
22
102
}
330
22
100
AcDbXrecord
280
     1
270
     1
271
     1
  0
XRECORD
  5
25
102
{ACAD_REACTORS
330
22
102
}
330
22
100
AcDbXrecord
280
     1
270
     1
271
     1
  0
XRECORD
  5
195
102
{ACAD_REACTORS
330
194
102
}
330
194
100
AcDbXrecord
280
     1
102
ACAD_ROUNDTRIP_2012_MLEADER_STYLE
298
     1
  0
XRECORD
  5
197
102
{ACAD_REACTORS
330
196
102
}
330
196
100
AcDbXrecord
280
     1
102
DISPLAYNAME
  1
Imperial24
102
FLAGS
 90
        0
  0
CELLSTYLEMAP
  5
162
102
{ACAD_REACTORS
330
161
102
}
330
161
100
AcDbCellStyleMap
 90
        3
300
CELLSTYLE
  1
TABLEFORMAT_BEGIN
 90
        5
170
     1
 91
        0
 92
    32768
 62
   257
 93
        1
300
CONTENTFORMAT
  1
CONTENTFORMAT_BEGIN
 90
        0
 91
        0
 92
      512
 93
        0
300

 40
0.0
140
1.0
 94
        5
 62
     0
340
55
144
0.25
309
CONTENTFORMAT_END
171
     0
 94
        0
309
TABLEFORMAT_END
  1
CELLSTYLE_BEGIN
 90
        1
 91
        1
300
_TITLE
309
CELLSTYLE_END
300
CELLSTYLE
  1
TABLEFORMAT_BEGIN
 90
        5
170
     1
 91
        0
 92
        0
 62
   257
 93
        1
300
CONTENTFORMAT
  1
CONTENTFORMAT_BEGIN
 90
        0
 91
        0
 92
      512
 93
        0
300

 40
0.0
140
1.0
 94
        5
 62
     0
340
55
144
0.18
309
CONTENTFORMAT_END
171
     0
 94
        0
309
TABLEFORMAT_END
  1
CELLSTYLE_BEGIN
 90
        2
 91
        1
300
_HEADER
309
CELLSTYLE_END
300
CELLSTYLE
  1
TABLEFORMAT_BEGIN
 90
        5
170
     1
 91
        0
 92
        0
 62
   257
 93
        1
300
CONTENTFORMAT
  1
CONTENTFORMAT_BEGIN
 90
        0
 91
        0
 92
      512
 93
        0
300

 40
0.0
140
1.0
 94
        2
 62
     0
340
55
144
0.18
309
CONTENTFORMAT_END
171
     0
 94
        0
309
TABLEFORMAT_END
  1
CELLSTYLE_BEGIN
 90
        3
 91
        2
300
_DATA
309
CELLSTYLE_END
  0
XRECORD
  5
16F
102
{ACAD_REACTORS
330
16E
102
}
330
16E
100
AcDbXrecord
280
     1
102
RTVSPost2010Prop28
280
     1
102
RTVSPost2010PropOp28
 70
     1
102
RTVSPost2010Prop29
280
     1
102
RTVSPost2010PropOp29
 70
     1
102
RTVSPost2010Prop30
280
     0
102
RTVSPost2010PropOp30
 70
     1
102
RTVSPost2010Prop31
280
     0
102
RTVSPost2010PropOp31
 70
     1
102
RTVSPost2010Prop32
280
     0
102
RTVSPost2010PropOp32
 70
     1
102
RTVSPost2010Prop33
280
     0
102
RTVSPost2010PropOp33
 70
     1
102
RTVSPost2010Prop34
280
     0
102
RTVSPost2010PropOp34
 70
     1
102
RTVSPost2010Prop35
280
     0
102
RTVSPost2010PropOp35
 70
     1
102
RTVSPost2010Prop36
280
     0
102
RTVSPost2010PropOp36
 70
     1
102
RTVSPost2010Prop37
 90
       50
102
RTVSPost2010PropOp37
 70
     1
102
RTVSPost2010Prop38
140
0.0
102
RTVSPost2010PropOp38
 70
     1
102
RTVSPost2010Prop39
140
1.0
102
RTVSPost2010PropOp39
 70
     1
102
RTVSPost2010Prop40
 90
        0
102
RTVSPost2010PropOp40
 70
     1
102
RTVSPost2010Prop41ColorIndex
 90
       18
102
RTVSPost2010Prop41ColorRGB
 90
        0
102
RTVSPost2010PropOp41
 70
     1
102
RTVSPost2010Prop42
 90
       50
102
RTVSPost2010PropOp42
 70
     1
102
RTVSPost2010Prop43
 90
        3
102
RTVSPost2010PropOp43
 70
     1
102
RTVSPost2010Prop44ColorIndex
 90
        5
102
RTVSPost2010Prop44ColorRGB
 90
      255
102
RTVSPost2010PropOp44
 70
     1
102
RTVSPost2010Prop45
280
     0
102
RTVSPost2010PropOp45
 70
     1
102
RTVSPost2010Prop46
 90
       50
102
RTVSPost2010PropOp46
 70
     1
102
RTVSPost2010Prop47
 90
       50
102
RTVSPost2010PropOp47
 70
     1
102
RTVSPost2010Prop48
 90
       50
102
RTVSPost2010PropOp48
 70
     1
102
RTVSPost2010Prop49
280
     0
102
RTVSPost2010PropOp49
 70
     1
102
RTVSPost2010Prop50
 90
       50
102
RTVSPost2010PropOp50
 70
     1
102
RTVSPost2010Prop51ColorIndex
 90
      256
102
RTVSPost2010Prop51ColorRGB
 90
-16777216
102
RTVSPost2010PropOp51
 70
     0
102
RTVSPost2010Prop52
140
1.0
102
RTVSPost2010PropOp52
 70
     0
102
RTVSPost2010Prop53
 90
        2
102
RTVSPost2010PropOp53
 70
     1
102
RTVSPost2010Prop54
  1
strokes_ogs.tif
102
RTVSPost2010PropOp54
 70
     1
102
RTVSPost2010Prop55
280
     0
102
RTVSPost2010PropOp55
 70
     1
102
RTVSPost2010Prop56
140
1.0
102
RTVSPost2010PropOp56
 70
     1
102
RTVSPost2010Prop57
140
1.0
102
RTVSPost2010PropOp57
 70
     1
  0
XRECORD
  5
16D
102
{ACAD_REACTORS
330
16C
102
}
330
16C
100
AcDbXrecord
280
     1
102
RTVSPost2010Prop28
280
     0
102
RTVSPost2010PropOp28
 70
     1
102
RTVSPost2010Prop29
280
     1
102
RTVSPost2010PropOp29
 70
     1
102
RTVSPost2010Prop30
280
     1
102
RTVSPost2010PropOp30
 70
     1
102
RTVSPost2010Prop31
280
     0
102
RTVSPost2010PropOp31
 70
     1
102
RTVSPost2010Prop32
280
     0
102
RTVSPost2010PropOp32
 70
     1
102
RTVSPost2010Prop33
280
     0
102
RTVSPost2010PropOp33
 70
     1
102
RTVSPost2010Prop34
280
     0
102
RTVSPost2010PropOp34
 70
     1
102
RTVSPost2010Prop35
280
     0
102
RTVSPost2010PropOp35
 70
     1
102
RTVSPost2010Prop36
280
     0
102
RTVSPost2010PropOp36
 70
     1
102
RTVSPost2010Prop37
 90
       50
102
RTVSPost2010PropOp37
 70
     1
102
RTVSPost2010Prop38
140
0.0
102
RTVSPost2010PropOp38
 70
     1
102
RTVSPost2010Prop39
140
1.0
102
RTVSPost2010PropOp39
 70
     1
102
RTVSPost2010Prop40
 90
        0
102
RTVSPost2010PropOp40
 70
     1
102
RTVSPost2010Prop41ColorIndex
 90
       18
102
RTVSPost2010Prop41ColorRGB
 90
        0
102
RTVSPost2010PropOp41
 70
     1
102
RTVSPost2010Prop42
 90
       50
102
RTVSPost2010PropOp42
 70
     1
102
RTVSPost2010Prop43
 90
        3
102
RTVSPost2010PropOp43
 70
     1
102
RTVSPost2010Prop44ColorIndex
 90
        5
102
RTVSPost2010Prop44ColorRGB
 90
      255
102
RTVSPost2010PropOp44
 70
     1
102
RTVSPost2010Prop45
280
     0
102
RTVSPost2010PropOp45
 70
     1
102
RTVSPost2010Prop46
 90
       50
102
RTVSPost2010PropOp46
 70
     1
102
RTVSPost2010Prop47
 90
       50
102
RTVSPost2010PropOp47
 70
     1
102
RTVSPost2010Prop48
 90
       50
102
RTVSPost2010PropOp48
 70
     1
102
RTVSPost2010Prop49
280
     0
102
RTVSPost2010PropOp49
 70
     1
102
RTVSPost2010Prop50
 90
       50
102
RTVSPost2010PropOp50
 70
     1
102
RTVSPost2010Prop51ColorIndex
 90
      256
102
RTVSPost2010Prop51ColorRGB
 90
-16777216
102
RTVSPost2010PropOp51
 70
     0
102
RTVSPost2010Prop52
140
1.0
102
RTVSPost2010PropOp52
 70
     0
102
RTVSPost2010Prop53
 90
        2
102
RTVSPost2010PropOp53
 70
     1
102
RTVSPost2010Prop54
  1
strokes_ogs.tif
102
RTVSPost2010PropOp54
 70
     1
102
RTVSPost2010Prop55
280
     0
102
RTVSPost2010PropOp55
 70
     1
102
RTVSPost2010Prop56
140
1.0
102
RTVSPost2010PropOp56
 70
     1
102
RTVSPost2010Prop57
140
1.0
102
RTVSPost2010PropOp57
 70
     1
  0
XRECORD
  5
17B
102
{ACAD_REACTORS
330
17A
102
}
330
17A
100
AcDbXrecord
280
     1
102
RTVSPost2010Prop28
280
     0
102
RTVSPost2010PropOp28
 70
     1
102
RTVSPost2010Prop29
280
     1
102
RTVSPost2010PropOp29
 70
     1
102
RTVSPost2010Prop30
280
     1
102
RTVSPost2010PropOp30
 70
     1
102
RTVSPost2010Prop31
280
     0
102
RTVSPost2010PropOp31
 70
     1
102
RTVSPost2010Prop32
280
     0
102
RTVSPost2010PropOp32
 70
     1
102
RTVSPost2010Prop33
280
     0
102
RTVSPost2010PropOp33
 70
     1
102
RTVSPost2010Prop34
280
     0
102
RTVSPost2010PropOp34
 70
     1
102
RTVSPost2010Prop35
280
     0
102
RTVSPost2010PropOp35
 70
     1
102
RTVSPost2010Prop36
280
     0
102
RTVSPost2010PropOp36
 70
     1
102
RTVSPost2010Prop37
 90
       50
102
RTVSPost2010PropOp37
 70
     1
102
RTVSPost2010Prop38
140
0.0
102
RTVSPost2010PropOp38
 70
     1
102
RTVSPost2010Prop39
140
1.0
102
RTVSPost2010PropOp39
 70
     1
102
RTVSPost2010Prop40
 90
        0
102
RTVSPost2010PropOp40
 70
     1
102
RTVSPost2010Prop41ColorIndex
 90
       18
102
RTVSPost2010Prop41ColorRGB
 90
        0
102
RTVSPost2010PropOp41
 70
     1
102
RTVSPost2010Prop42
 90
       50
102
RTVSPost2010PropOp42
 70
     1
102
RTVSPost2010Prop43
 90
        3
102
RTVSPost2010PropOp43
 70
     1
102
RTVSPost2010Prop44ColorIndex
 90
        5
102
RTVSPost2010Prop44ColorRGB
 90
      255
102
RTVSPost2010PropOp44
 70
     1
102
RTVSPost2010Prop45
280
     0
102
RTVSPost2010PropOp45
 70
     1
102
RTVSPost2010Prop46
 90
       50
102
RTVSPost2010PropOp46
 70
     1
102
RTVSPost2010Prop47
 90
       50
102
RTVSPost2010PropOp47
 70
     1
102
RTVSPost2010Prop48
 90
       50
102
RTVSPost2010PropOp48
 70
     1
102
RTVSPost2010Prop49
280
     0
102
RTVSPost2010PropOp49
 70
     1
102
RTVSPost2010Prop50
 90
       50
102
RTVSPost2010PropOp50
 70
     1
102
RTVSPost2010Prop51ColorIndex
 90
      256
102
RTVSPost2010Prop51ColorRGB
 90
-16777216
102
RTVSPost2010PropOp51
 70
     0
102
RTVSPost2010Prop52
140
1.0
102
RTVSPost2010PropOp52
 70
     0
102
RTVSPost2010Prop53
 90
        2
102
RTVSPost2010PropOp53
 70
     1
102
RTVSPost2010Prop54
  1
strokes_ogs.tif
102
RTVSPost2010PropOp54
 70
     1
102
RTVSPost2010Prop55
280
     0
102
RTVSPost2010PropOp55
 70
     1
102
RTVSPost2010Prop56
140
1.0
102
RTVSPost2010PropOp56
 70
     1
102
RTVSPost2010Prop57
140
1.0
102
RTVSPost2010PropOp57
 70
     1
  0
XRECORD
  5
183
102
{ACAD_REACTORS
330
182
102
}
330
182
100
AcDbXrecord
280
     1
102
RTVSPost2010Prop28
280
     0
102
RTVSPost2010PropOp28
 70
     1
102
RTVSPost2010Prop29
280
     1
102
RTVSPost2010PropOp29
 70
     1
102
RTVSPost2010Prop30
280
     1
102
RTVSPost2010PropOp30
 70
     1
102
RTVSPost2010Prop31
280
     0
102
RTVSPost2010PropOp31
 70
     1
102
RTVSPost2010Prop32
280
     0
102
RTVSPost2010PropOp32
 70
     1
102
RTVSPost2010Prop33
280
     0
102
RTVSPost2010PropOp33
 70
     1
102
RTVSPost2010Prop34
280
     0
102
RTVSPost2010PropOp34
 70
     1
102
RTVSPost2010Prop35
280
     0
102
RTVSPost2010PropOp35
 70
     1
102
RTVSPost2010Prop36
280
     0
102
RTVSPost2010PropOp36
 70
     1
102
RTVSPost2010Prop37
 90
       50
102
RTVSPost2010PropOp37
 70
     1
102
RTVSPost2010Prop38
140
0.0
102
RTVSPost2010PropOp38
 70
     1
102
RTVSPost2010Prop39
140
1.0
102
RTVSPost2010PropOp39
 70
     1
102
RTVSPost2010Prop40
 90
        0
102
RTVSPost2010PropOp40
 70
     1
102
RTVSPost2010Prop41ColorIndex
 90
       18
102
RTVSPost2010Prop41ColorRGB
 90
        0
102
RTVSPost2010PropOp41
 70
     1
102
RTVSPost2010Prop42
 90
       50
102
RTVSPost2010PropOp42
 70
     1
102
RTVSPost2010Prop43
 90
        3
102
RTVSPost2010PropOp43
 70
     1
102
RTVSPost2010Prop44ColorIndex
 90
        5
102
RTVSPost2010Prop44ColorRGB
 90
      255
102
RTVSPost2010PropOp44
 70
     1
102
RTVSPost2010Prop45
280
     0
102
RTVSPost2010PropOp45
 70
     1
102
RTVSPost2010Prop46
 90
       50
102
RTVSPost2010PropOp46
 70
     1
102
RTVSPost2010Prop47
 90
       50
102
RTVSPost2010PropOp47
 70
     1
102
RTVSPost2010Prop48
 90
       50
102
RTVSPost2010PropOp48
 70
     1
102
RTVSPost2010Prop49
280
     0
102
RTVSPost2010PropOp49
 70
     1
102
RTVSPost2010Prop50
 90
       50
102
RTVSPost2010PropOp50
 70
     1
102
RTVSPost2010Prop51ColorIndex
 90
      256
102
RTVSPost2010Prop51ColorRGB
 90
-16777216
102
RTVSPost2010PropOp51
 70
     0
102
RTVSPost2010Prop52
140
1.0
102
RTVSPost2010PropOp52
 70
     0
102
RTVSPost2010Prop53
 90
        2
102
RTVSPost2010PropOp53
 70
     1
102
RTVSPost2010Prop54
  1
strokes_ogs.tif
102
RTVSPost2010PropOp54
 70
     1
102
RTVSPost2010Prop55
280
     0
102
RTVSPost2010PropOp55
 70
     1
102
RTVSPost2010Prop56
140
1.0
102
RTVSPost2010PropOp56
 70
     1
102
RTVSPost2010Prop57
140
1.0
102
RTVSPost2010PropOp57
 70
     1
  0
XRECORD
  5
175
102
{ACAD_REACTORS
330
174
102
}
330
174
100
AcDbXrecord
280
     1
102
RTVSPost2010Prop28
280
     0
102
RTVSPost2010PropOp28
 70
     1
102
RTVSPost2010Prop29
280
     1
102
RTVSPost2010PropOp29
 70
     1
102
RTVSPost2010Prop30
280
     1
102
RTVSPost2010PropOp30
 70
     1
102
RTVSPost2010Prop31
280
     0
102
RTVSPost2010PropOp31
 70
     1
102
RTVSPost2010Prop32
280
     0
102
RTVSPost2010PropOp32
 70
     1
102
RTVSPost2010Prop33
280
     0
102
RTVSPost2010PropOp33
 70
     1
102
RTVSPost2010Prop34
280
     0
102
RTVSPost2010PropOp34
 70
     1
102
RTVSPost2010Prop35
280
     0
102
RTVSPost2010PropOp35
 70
     1
102
RTVSPost2010Prop36
280
     0
102
RTVSPost2010PropOp36
 70
     1
102
RTVSPost2010Prop37
 90
       50
102
RTVSPost2010PropOp37
 70
     1
102
RTVSPost2010Prop38
140
0.0
102
RTVSPost2010PropOp38
 70
     1
102
RTVSPost2010Prop39
140
1.0
102
RTVSPost2010PropOp39
 70
     1
102
RTVSPost2010Prop40
 90
        0
102
RTVSPost2010PropOp40
 70
     1
102
RTVSPost2010Prop41ColorIndex
 90
       18
102
RTVSPost2010Prop41ColorRGB
 90
        0
102
RTVSPost2010PropOp41
 70
     1
102
RTVSPost2010Prop42
 90
       50
102
RTVSPost2010PropOp42
 70
     1
102
RTVSPost2010Prop43
 90
        3
102
RTVSPost2010PropOp43
 70
     1
102
RTVSPost2010Prop44ColorIndex
 90
        5
102
RTVSPost2010Prop44ColorRGB
 90
      255
102
RTVSPost2010PropOp44
 70
     1
102
RTVSPost2010Prop45
280
     0
102
RTVSPost2010PropOp45
 70
     1
102
RTVSPost2010Prop46
 90
       50
102
RTVSPost2010PropOp46
 70
     1
102
RTVSPost2010Prop47
 90
       50
102
RTVSPost2010PropOp47
 70
     1
102
RTVSPost2010Prop48
 90
       50
102
RTVSPost2010PropOp48
 70
     1
102
RTVSPost2010Prop49
280
     0
102
RTVSPost2010PropOp49
 70
     1
102
RTVSPost2010Prop50
 90
       50
102
RTVSPost2010PropOp50
 70
     1
102
RTVSPost2010Prop51ColorIndex
 90
      256
102
RTVSPost2010Prop51ColorRGB
 90
-16777216
102
RTVSPost2010PropOp51
 70
     0
102
RTVSPost2010Prop52
140
1.0
102
RTVSPost2010PropOp52
 70
     0
102
RTVSPost2010Prop53
 90
        2
102
RTVSPost2010PropOp53
 70
     1
102
RTVSPost2010Prop54
  1
strokes_ogs.tif
102
RTVSPost2010PropOp54
 70
     1
102
RTVSPost2010Prop55
280
     0
102
RTVSPost2010PropOp55
 70
     1
102
RTVSPost2010Prop56
140
1.0
102
RTVSPost2010PropOp56
 70
     1
102
RTVSPost2010Prop57
140
1.0
102
RTVSPost2010PropOp57
 70
     1
  0
XRECORD
  5
179
102
{ACAD_REACTORS
330
178
102
}
330
178
100
AcDbXrecord
280
     1
102
RTVSPost2010Prop28
280
     0
102
RTVSPost2010PropOp28
 70
     1
102
RTVSPost2010Prop29
280
     1
102
RTVSPost2010PropOp29
 70
     1
102
RTVSPost2010Prop30
280
     1
102
RTVSPost2010PropOp30
 70
     1
102
RTVSPost2010Prop31
280
     0
102
RTVSPost2010PropOp31
 70
     1
102
RTVSPost2010Prop32
280
     0
102
RTVSPost2010PropOp32
 70
     1
102
RTVSPost2010Prop33
280
     0
102
RTVSPost2010PropOp33
 70
     1
102
RTVSPost2010Prop34
280
     0
102
RTVSPost2010PropOp34
 70
     1
102
RTVSPost2010Prop35
280
     0
102
RTVSPost2010PropOp35
 70
     1
102
RTVSPost2010Prop36
280
     0
102
RTVSPost2010PropOp36
 70
     1
102
RTVSPost2010Prop37
 90
       50
102
RTVSPost2010PropOp37
 70
     1
102
RTVSPost2010Prop38
140
0.0
102
RTVSPost2010PropOp38
 70
     1
102
RTVSPost2010Prop39
140
1.0
102
RTVSPost2010PropOp39
 70
     1
102
RTVSPost2010Prop40
 90
        0
102
RTVSPost2010PropOp40
 70
     1
102
RTVSPost2010Prop41ColorIndex
 90
       18
102
RTVSPost2010Prop41ColorRGB
 90
        0
102
RTVSPost2010PropOp41
 70
     1
102
RTVSPost2010Prop42
 90
       50
102
RTVSPost2010PropOp42
 70
     1
102
RTVSPost2010Prop43
 90
        3
102
RTVSPost2010PropOp43
 70
     1
102
RTVSPost2010Prop44ColorIndex
 90
        5
102
RTVSPost2010Prop44ColorRGB
 90
      255
102
RTVSPost2010PropOp44
 70
     1
102
RTVSPost2010Prop45
280
     0
102
RTVSPost2010PropOp45
 70
     1
102
RTVSPost2010Prop46
 90
       50
102
RTVSPost2010PropOp46
 70
     1
102
RTVSPost2010Prop47
 90
       50
102
RTVSPost2010PropOp47
 70
     1
102
RTVSPost2010Prop48
 90
       50
102
RTVSPost2010PropOp48
 70
     1
102
RTVSPost2010Prop49
280
     0
102
RTVSPost2010PropOp49
 70
     1
102
RTVSPost2010Prop50
 90
       50
102
RTVSPost2010PropOp50
 70
     1
102
RTVSPost2010Prop51ColorIndex
 90
      256
102
RTVSPost2010Prop51ColorRGB
 90
-16777216
102
RTVSPost2010PropOp51
 70
     0
102
RTVSPost2010Prop52
140
1.0
102
RTVSPost2010PropOp52
 70
     0
102
RTVSPost2010Prop53
 90
        2
102
RTVSPost2010PropOp53
 70
     1
102
RTVSPost2010Prop54
  1
strokes_ogs.tif
102
RTVSPost2010PropOp54
 70
     1
102
RTVSPost2010Prop55
280
     0
102
RTVSPost2010PropOp55
 70
     1
102
RTVSPost2010Prop56
140
1.0
102
RTVSPost2010PropOp56
 70
     1
102
RTVSPost2010Prop57
140
1.0
102
RTVSPost2010PropOp57
 70
     1
  0
XRECORD
  5
193
102
{ACAD_REACTORS
330
192
102
}
330
192
100
AcDbXrecord
280
     1
102
RTVSPost2010Prop28
280
     0
102
RTVSPost2010PropOp28
 70
     0
102
RTVSPost2010Prop29
280
     1
102
RTVSPost2010PropOp29
 70
     0
102
RTVSPost2010Prop30
280
     1
102
RTVSPost2010PropOp30
 70
     0
102
RTVSPost2010Prop31
280
     0
102
RTVSPost2010PropOp31
 70
     0
102
RTVSPost2010Prop32
280
     0
102
RTVSPost2010PropOp32
 70
     0
102
RTVSPost2010Prop33
280
     0
102
RTVSPost2010PropOp33
 70
     0
102
RTVSPost2010Prop34
280
     0
102
RTVSPost2010PropOp34
 70
     0
102
RTVSPost2010Prop35
280
     0
102
RTVSPost2010PropOp35
 70
     0
102
RTVSPost2010Prop36
280
     0
102
RTVSPost2010PropOp36
 70
     0
102
RTVSPost2010Prop37
 90
       50
102
RTVSPost2010PropOp37
 70
     0
102
RTVSPost2010Prop38
140
0.0
102
RTVSPost2010PropOp38
 70
     0
102
RTVSPost2010Prop39
140
1.0
102
RTVSPost2010PropOp39
 70
     0
102
RTVSPost2010Prop40
 90
        0
102
RTVSPost2010PropOp40
 70
     0
102
RTVSPost2010Prop41ColorIndex
 90
       18
102
RTVSPost2010Prop41ColorRGB
 90
        0
102
RTVSPost2010PropOp41
 70
     0
102
RTVSPost2010Prop42
 90
       50
102
RTVSPost2010PropOp42
 70
     0
102
RTVSPost2010Prop43
 90
        3
102
RTVSPost2010PropOp43
 70
     0
102
RTVSPost2010Prop44ColorIndex
 90
        5
102
RTVSPost2010Prop44ColorRGB
 90
      255
102
RTVSPost2010PropOp44
 70
     0
102
RTVSPost2010Prop45
280
     0
102
RTVSPost2010PropOp45
 70
     0
102
RTVSPost2010Prop46
 90
       50
102
RTVSPost2010PropOp46
 70
     0
102
RTVSPost2010Prop47
 90
       50
102
RTVSPost2010PropOp47
 70
     0
102
RTVSPost2010Prop48
 90
       50
102
RTVSPost2010PropOp48
 70
     0
102
RTVSPost2010Prop49
280
     0
102
RTVSPost2010PropOp49
 70
     0
102
RTVSPost2010Prop50
 90
       50
102
RTVSPost2010PropOp50
 70
     0
102
RTVSPost2010Prop51ColorIndex
 90
      256
102
RTVSPost2010Prop51ColorRGB
 90
-16777216
102
RTVSPost2010PropOp51
 70
     0
102
RTVSPost2010Prop52
140
1.0
102
RTVSPost2010PropOp52
 70
     0
102
RTVSPost2010Prop53
 90
        2
102
RTVSPost2010PropOp53
 70
     0
102
RTVSPost2010Prop54
  1
strokes_ogs.tif
102
RTVSPost2010PropOp54
 70
     0
102
RTVSPost2010Prop55
280
     0
102
RTVSPost2010PropOp55
 70
     0
102
RTVSPost2010Prop56
140
1.0
102
RTVSPost2010PropOp56
 70
     0
102
RTVSPost2010Prop57
140
1.0
102
RTVSPost2010PropOp57
 70
     0
  0
XRECORD
  5
181
102
{ACAD_REACTORS
330
180
102
}
330
180
100
AcDbXrecord
280
     1
102
RTVSPost2010Prop28
280
     0
102
RTVSPost2010PropOp28
 70
     1
102
RTVSPost2010Prop29
280
     1
102
RTVSPost2010PropOp29
 70
     1
102
RTVSPost2010Prop30
280
     1
102
RTVSPost2010PropOp30
 70
     1
102
RTVSPost2010Prop31
280
     0
102
RTVSPost2010PropOp31
 70
     1
102
RTVSPost2010Prop32
280
     0
102
RTVSPost2010PropOp32
 70
     1
102
RTVSPost2010Prop33
280
     0
102
RTVSPost2010PropOp33
 70
     1
102
RTVSPost2010Prop34
280
     0
102
RTVSPost2010PropOp34
 70
     1
102
RTVSPost2010Prop35
280
     0
102
RTVSPost2010PropOp35
 70
     1
102
RTVSPost2010Prop36
280
     0
102
RTVSPost2010PropOp36
 70
     1
102
RTVSPost2010Prop37
 90
       50
102
RTVSPost2010PropOp37
 70
     1
102
RTVSPost2010Prop38
140
0.0
102
RTVSPost2010PropOp38
 70
     1
102
RTVSPost2010Prop39
140
1.0
102
RTVSPost2010PropOp39
 70
     1
102
RTVSPost2010Prop40
 90
        0
102
RTVSPost2010PropOp40
 70
     1
102
RTVSPost2010Prop41ColorIndex
 90
       18
102
RTVSPost2010Prop41ColorRGB
 90
        0
102
RTVSPost2010PropOp41
 70
     1
102
RTVSPost2010Prop42
 90
       50
102
RTVSPost2010PropOp42
 70
     1
102
RTVSPost2010Prop43
 90
        3
102
RTVSPost2010PropOp43
 70
     1
102
RTVSPost2010Prop44ColorIndex
 90
        5
102
RTVSPost2010Prop44ColorRGB
 90
      255
102
RTVSPost2010PropOp44
 70
     1
102
RTVSPost2010Prop45
280
     0
102
RTVSPost2010PropOp45
 70
     1
102
RTVSPost2010Prop46
 90
       50
102
RTVSPost2010PropOp46
 70
     1
102
RTVSPost2010Prop47
 90
       50
102
RTVSPost2010PropOp47
 70
     1
102
RTVSPost2010Prop48
 90
       50
102
RTVSPost2010PropOp48
 70
     1
102
RTVSPost2010Prop49
280
     0
102
RTVSPost2010PropOp49
 70
     1
102
RTVSPost2010Prop50
 90
       50
102
RTVSPost2010PropOp50
 70
     1
102
RTVSPost2010Prop51ColorIndex
 90
      256
102
RTVSPost2010Prop51ColorRGB
 90
-16777216
102
RTVSPost2010PropOp51
 70
     0
102
RTVSPost2010Prop52
140
1.0
102
RTVSPost2010PropOp52
 70
     0
102
RTVSPost2010Prop53
 90
        2
102
RTVSPost2010PropOp53
 70
     1
102
RTVSPost2010Prop54
  1
strokes_ogs.tif
102
RTVSPost2010PropOp54
 70
     1
102
RTVSPost2010Prop55
280
     0
102
RTVSPost2010PropOp55
 70
     1
102
RTVSPost2010Prop56
140
1.0
102
RTVSPost2010PropOp56
 70
     1
102
RTVSPost2010Prop57
140
1.0
102
RTVSPost2010PropOp57
 70
     1
  0
XRECORD
  5
165
102
{ACAD_REACTORS
330
164
102
}
330
164
100
AcDbXrecord
280
     1
102
RTVSPost2010Prop28
280
     0
102
RTVSPost2010PropOp28
 70
     1
102
RTVSPost2010Prop29
280
     1
102
RTVSPost2010PropOp29
 70
     1
102
RTVSPost2010Prop30
280
     1
102
RTVSPost2010PropOp30
 70
     1
102
RTVSPost2010Prop31
280
     0
102
RTVSPost2010PropOp31
 70
     1
102
RTVSPost2010Prop32
280
     0
102
RTVSPost2010PropOp32
 70
     1
102
RTVSPost2010Prop33
280
     0
102
RTVSPost2010PropOp33
 70
     1
102
RTVSPost2010Prop34
280
     0
102
RTVSPost2010PropOp34
 70
     1
102
RTVSPost2010Prop35
280
     0
102
RTVSPost2010PropOp35
 70
     1
102
RTVSPost2010Prop36
280
     0
102
RTVSPost2010PropOp36
 70
     1
102
RTVSPost2010Prop37
 90
       50
102
RTVSPost2010PropOp37
 70
     1
102
RTVSPost2010Prop38
140
0.0
102
RTVSPost2010PropOp38
 70
     1
102
RTVSPost2010Prop39
140
1.0
102
RTVSPost2010PropOp39
 70
     1
102
RTVSPost2010Prop40
 90
        0
102
RTVSPost2010PropOp40
 70
     1
102
RTVSPost2010Prop41ColorIndex
 90
       18
102
RTVSPost2010Prop41ColorRGB
 90
        0
102
RTVSPost2010PropOp41
 70
     1
102
RTVSPost2010Prop42
 90
       50
102
RTVSPost2010PropOp42
 70
     1
102
RTVSPost2010Prop43
 90
        3
102
RTVSPost2010PropOp43
 70
     1
102
RTVSPost2010Prop44ColorIndex
 90
        5
102
RTVSPost2010Prop44ColorRGB
 90
      255
102
RTVSPost2010PropOp44
 70
     1
102
RTVSPost2010Prop45
280
     0
102
RTVSPost2010PropOp45
 70
     1
102
RTVSPost2010Prop46
 90
       50
102
RTVSPost2010PropOp46
 70
     1
102
RTVSPost2010Prop47
 90
       50
102
RTVSPost2010PropOp47
 70
     1
102
RTVSPost2010Prop48
 90
       50
102
RTVSPost2010PropOp48
 70
     1
102
RTVSPost2010Prop49
280
     0
102
RTVSPost2010PropOp49
 70
     1
102
RTVSPost2010Prop50
 90
       50
102
RTVSPost2010PropOp50
 70
     1
102
RTVSPost2010Prop51ColorIndex
 90
      256
102
RTVSPost2010Prop51ColorRGB
 90
-16777216
102
RTVSPost2010PropOp51
 70
     0
102
RTVSPost2010Prop52
140
1.0
102
RTVSPost2010PropOp52
 70
     0
102
RTVSPost2010Prop53
 90
        2
102
RTVSPost2010PropOp53
 70
     1
102
RTVSPost2010Prop54
  1
strokes_ogs.tif
102
RTVSPost2010PropOp54
 70
     1
102
RTVSPost2010Prop55
280
     0
102
RTVSPost2010PropOp55
 70
     1
102
RTVSPost2010Prop56
140
1.0
102
RTVSPost2010PropOp56
 70
     1
102
RTVSPost2010Prop57
140
1.0
102
RTVSPost2010PropOp57
 70
     1
  0
XRECORD
  5
167
102
{ACAD_REACTORS
330
166
102
}
330
166
100
AcDbXrecord
280
     1
102
RTVSPost2010Prop28
280
     0
102
RTVSPost2010PropOp28
 70
     1
102
RTVSPost2010Prop29
280
     1
102
RTVSPost2010PropOp29
 70
     1
102
RTVSPost2010Prop30
280
     1
102
RTVSPost2010PropOp30
 70
     1
102
RTVSPost2010Prop31
280
     0
102
RTVSPost2010PropOp31
 70
     1
102
RTVSPost2010Prop32
280
     0
102
RTVSPost2010PropOp32
 70
     1
102
RTVSPost2010Prop33
280
     0
102
RTVSPost2010PropOp33
 70
     1
102
RTVSPost2010Prop34
280
     0
102
RTVSPost2010PropOp34
 70
     1
102
RTVSPost2010Prop35
280
     0
102
RTVSPost2010PropOp35
 70
     1
102
RTVSPost2010Prop36
280
     0
102
RTVSPost2010PropOp36
 70
     1
102
RTVSPost2010Prop37
 90
       50
102
RTVSPost2010PropOp37
 70
     1
102
RTVSPost2010Prop38
140
0.0
102
RTVSPost2010PropOp38
 70
     1
102
RTVSPost2010Prop39
140
1.0
102
RTVSPost2010PropOp39
 70
     1
102
RTVSPost2010Prop40
 90
        0
102
RTVSPost2010PropOp40
 70
     1
102
RTVSPost2010Prop41ColorIndex
 90
       18
102
RTVSPost2010Prop41ColorRGB
 90
        0
102
RTVSPost2010PropOp41
 70
     1
102
RTVSPost2010Prop42
 90
       50
102
RTVSPost2010PropOp42
 70
     1
102
RTVSPost2010Prop43
 90
        3
102
RTVSPost2010PropOp43
 70
     1
102
RTVSPost2010Prop44ColorIndex
 90
        5
102
RTVSPost2010Prop44ColorRGB
 90
      255
102
RTVSPost2010PropOp44
 70
     1
102
RTVSPost2010Prop45
280
     0
102
RTVSPost2010PropOp45
 70
     1
102
RTVSPost2010Prop46
 90
       50
102
RTVSPost2010PropOp46
 70
     1
102
RTVSPost2010Prop47
 90
       50
102
RTVSPost2010PropOp47
 70
     1
102
RTVSPost2010Prop48
 90
       50
102
RTVSPost2010PropOp48
 70
     1
102
RTVSPost2010Prop49
280
     0
102
RTVSPost2010PropOp49
 70
     1
102
RTVSPost2010Prop50
 90
       50
102
RTVSPost2010PropOp50
 70
     1
102
RTVSPost2010Prop51ColorIndex
 90
      256
102
RTVSPost2010Prop51ColorRGB
 90
-16777216
102
RTVSPost2010PropOp51
 70
     0
102
RTVSPost2010Prop52
140
1.0
102
RTVSPost2010PropOp52
 70
     0
102
RTVSPost2010Prop53
 90
        2
102
RTVSPost2010PropOp53
 70
     1
102
RTVSPost2010Prop54
  1
strokes_ogs.tif
102
RTVSPost2010PropOp54
 70
     1
102
RTVSPost2010Prop55
280
     0
102
RTVSPost2010PropOp55
 70
     1
102
RTVSPost2010Prop56
140
1.0
102
RTVSPost2010PropOp56
 70
     1
102
RTVSPost2010Prop57
140
1.0
102
RTVSPost2010PropOp57
 70
     1
  0
XRECORD
  5
169
102
{ACAD_REACTORS
330
168
102
}
330
168
100
AcDbXrecord
280
     1
102
RTVSPost2010Prop28
280
     0
102
RTVSPost2010PropOp28
 70
     1
102
RTVSPost2010Prop29
280
     1
102
RTVSPost2010PropOp29
 70
     1
102
RTVSPost2010Prop30
280
     1
102
RTVSPost2010PropOp30
 70
     1
102
RTVSPost2010Prop31
280
     0
102
RTVSPost2010PropOp31
 70
     1
102
RTVSPost2010Prop32
280
     0
102
RTVSPost2010PropOp32
 70
     1
102
RTVSPost2010Prop33
280
     0
102
RTVSPost2010PropOp33
 70
     1
102
RTVSPost2010Prop34
280
     0
102
RTVSPost2010PropOp34
 70
     1
102
RTVSPost2010Prop35
280
     0
102
RTVSPost2010PropOp35
 70
     1
102
RTVSPost2010Prop36
280
     0
102
RTVSPost2010PropOp36
 70
     1
102
RTVSPost2010Prop37
 90
       50
102
RTVSPost2010PropOp37
 70
     1
102
RTVSPost2010Prop38
140
0.0
102
RTVSPost2010PropOp38
 70
     1
102
RTVSPost2010Prop39
140
1.0
102
RTVSPost2010PropOp39
 70
     1
102
RTVSPost2010Prop40
 90
        0
102
RTVSPost2010PropOp40
 70
     1
102
RTVSPost2010Prop41ColorIndex
 90
       18
102
RTVSPost2010Prop41ColorRGB
 90
        0
102
RTVSPost2010PropOp41
 70
     1
102
RTVSPost2010Prop42
 90
       50
102
RTVSPost2010PropOp42
 70
     1
102
RTVSPost2010Prop43
 90
        3
102
RTVSPost2010PropOp43
 70
     1
102
RTVSPost2010Prop44ColorIndex
 90
        5
102
RTVSPost2010Prop44ColorRGB
 90
      255
102
RTVSPost2010PropOp44
 70
     1
102
RTVSPost2010Prop45
280
     0
102
RTVSPost2010PropOp45
 70
     1
102
RTVSPost2010Prop46
 90
       50
102
RTVSPost2010PropOp46
 70
     1
102
RTVSPost2010Prop47
 90
       50
102
RTVSPost2010PropOp47
 70
     1
102
RTVSPost2010Prop48
 90
       50
102
RTVSPost2010PropOp48
 70
     1
102
RTVSPost2010Prop49
280
     0
102
RTVSPost2010PropOp49
 70
     1
102
RTVSPost2010Prop50
 90
       50
102
RTVSPost2010PropOp50
 70
     1
102
RTVSPost2010Prop51ColorIndex
 90
      256
102
RTVSPost2010Prop51ColorRGB
 90
-16777216
102
RTVSPost2010PropOp51
 70
     0
102
RTVSPost2010Prop52
140
1.0
102
RTVSPost2010PropOp52
 70
     0
102
RTVSPost2010Prop53
 90
        2
102
RTVSPost2010PropOp53
 70
     1
102
RTVSPost2010Prop54
  1
strokes_ogs.tif
102
RTVSPost2010PropOp54
 70
     1
102
RTVSPost2010Prop55
280
     0
102
RTVSPost2010PropOp55
 70
     1
102
RTVSPost2010Prop56
140
1.0
102
RTVSPost2010PropOp56
 70
     1
102
RTVSPost2010Prop57
140
1.0
102
RTVSPost2010PropOp57
 70
     1
  0
XRECORD
  5
16B
102
{ACAD_REACTORS
330
16A
102
}
330
16A
100
AcDbXrecord
280
     1
102
RTVSPost2010Prop28
280
     0
102
RTVSPost2010PropOp28
 70
     1
102
RTVSPost2010Prop29
280
     1
102
RTVSPost2010PropOp29
 70
     1
102
RTVSPost2010Prop30
280
     1
102
RTVSPost2010PropOp30
 70
     1
102
RTVSPost2010Prop31
280
     0
102
RTVSPost2010PropOp31
 70
     1
102
RTVSPost2010Prop32
280
     0
102
RTVSPost2010PropOp32
 70
     1
102
RTVSPost2010Prop33
280
     0
102
RTVSPost2010PropOp33
 70
     1
102
RTVSPost2010Prop34
280
     0
102
RTVSPost2010PropOp34
 70
     1
102
RTVSPost2010Prop35
280
     0
102
RTVSPost2010PropOp35
 70
     1
102
RTVSPost2010Prop36
280
     0
102
RTVSPost2010PropOp36
 70
     1
102
RTVSPost2010Prop37
 90
       50
102
RTVSPost2010PropOp37
 70
     1
102
RTVSPost2010Prop38
140
0.0
102
RTVSPost2010PropOp38
 70
     1
102
RTVSPost2010Prop39
140
1.0
102
RTVSPost2010PropOp39
 70
     1
102
RTVSPost2010Prop40
 90
        0
102
RTVSPost2010PropOp40
 70
     1
102
RTVSPost2010Prop41ColorIndex
 90
       18
102
RTVSPost2010Prop41ColorRGB
 90
        0
102
RTVSPost2010PropOp41
 70
     1
102
RTVSPost2010Prop42
 90
       50
102
RTVSPost2010PropOp42
 70
     1
102
RTVSPost2010Prop43
 90
        3
102
RTVSPost2010PropOp43
 70
     1
102
RTVSPost2010Prop44ColorIndex
 90
        5
102
RTVSPost2010Prop44ColorRGB
 90
      255
102
RTVSPost2010PropOp44
 70
     1
102
RTVSPost2010Prop45
280
     0
102
RTVSPost2010PropOp45
 70
     1
102
RTVSPost2010Prop46
 90
       50
102
RTVSPost2010PropOp46
 70
     1
102
RTVSPost2010Prop47
 90
       50
102
RTVSPost2010PropOp47
 70
     1
102
RTVSPost2010Prop48
 90
       50
102
RTVSPost2010PropOp48
 70
     1
102
RTVSPost2010Prop49
280
     0
102
RTVSPost2010PropOp49
 70
     1
102
RTVSPost2010Prop50
 90
       50
102
RTVSPost2010PropOp50
 70
     1
102
RTVSPost2010Prop51ColorIndex
 90
      256
102
RTVSPost2010Prop51ColorRGB
 90
-16777216
102
RTVSPost2010PropOp51
 70
     0
102
RTVSPost2010Prop52
140
1.0
102
RTVSPost2010PropOp52
 70
     0
102
RTVSPost2010Prop53
 90
        2
102
RTVSPost2010PropOp53
 70
     1
102
RTVSPost2010Prop54
  1
strokes_ogs.tif
102
RTVSPost2010PropOp54
 70
     1
102
RTVSPost2010Prop55
280
     0
102
RTVSPost2010PropOp55
 70
     1
102
RTVSPost2010Prop56
140
1.0
102
RTVSPost2010PropOp56
 70
     1
102
RTVSPost2010Prop57
140
1.0
102
RTVSPost2010PropOp57
 70
     1
  0
XRECORD
  5
173
102
{ACAD_REACTORS
330
172
102
}
330
172
100
AcDbXrecord
280
     1
102
RTVSPost2010Prop28
280
     0
102
RTVSPost2010PropOp28
 70
     1
102
RTVSPost2010Prop29
280
     1
102
RTVSPost2010PropOp29
 70
     1
102
RTVSPost2010Prop30
280
     1
102
RTVSPost2010PropOp30
 70
     1
102
RTVSPost2010Prop31
280
     0
102
RTVSPost2010PropOp31
 70
     1
102
RTVSPost2010Prop32
280
     0
102
RTVSPost2010PropOp32
 70
     1
102
RTVSPost2010Prop33
280
     0
102
RTVSPost2010PropOp33
 70
     1
102
RTVSPost2010Prop34
280
     0
102
RTVSPost2010PropOp34
 70
     1
102
RTVSPost2010Prop35
280
     0
102
RTVSPost2010PropOp35
 70
     1
102
RTVSPost2010Prop36
280
     0
102
RTVSPost2010PropOp36
 70
     1
102
RTVSPost2010Prop37
 90
       50
102
RTVSPost2010PropOp37
 70
     1
102
RTVSPost2010Prop38
140
0.0
102
RTVSPost2010PropOp38
 70
     1
102
RTVSPost2010Prop39
140
1.0
102
RTVSPost2010PropOp39
 70
     1
102
RTVSPost2010Prop40
 90
        0
102
RTVSPost2010PropOp40
 70
     1
102
RTVSPost2010Prop41ColorIndex
 90
       18
102
RTVSPost2010Prop41ColorRGB
 90
        0
102
RTVSPost2010PropOp41
 70
     1
102
RTVSPost2010Prop42
 90
       50
102
RTVSPost2010PropOp42
 70
     1
102
RTVSPost2010Prop43
 90
        3
102
RTVSPost2010PropOp43
 70
     1
102
RTVSPost2010Prop44ColorIndex
 90
        5
102
RTVSPost2010Prop44ColorRGB
 90
      255
102
RTVSPost2010PropOp44
 70
     1
102
RTVSPost2010Prop45
280
     0
102
RTVSPost2010PropOp45
 70
     1
102
RTVSPost2010Prop46
 90
       50
102
RTVSPost2010PropOp46
 70
     1
102
RTVSPost2010Prop47
 90
       50
102
RTVSPost2010PropOp47
 70
     1
102
RTVSPost2010Prop48
 90
       50
102
RTVSPost2010PropOp48
 70
     1
102
RTVSPost2010Prop49
280
     0
102
RTVSPost2010PropOp49
 70
     1
102
RTVSPost2010Prop50
 90
       50
102
RTVSPost2010PropOp50
 70
     1
102
RTVSPost2010Prop51ColorIndex
 90
      256
102
RTVSPost2010Prop51ColorRGB
 90
-16777216
102
RTVSPost2010PropOp51
 70
     0
102
RTVSPost2010Prop52
140
1.0
102
RTVSPost2010PropOp52
 70
     0
102
RTVSPost2010Prop53
 90
        2
102
RTVSPost2010PropOp53
 70
     1
102
RTVSPost2010Prop54
  1
strokes_ogs.tif
102
RTVSPost2010PropOp54
 70
     1
102
RTVSPost2010Prop55
280
     0
102
RTVSPost2010PropOp55
 70
     1
102
RTVSPost2010Prop56
140
1.0
102
RTVSPost2010PropOp56
 70
     1
102
RTVSPost2010Prop57
140
1.0
102
RTVSPost2010PropOp57
 70
     1
  0
XRECORD
  5
18F
102
{ACAD_REACTORS
330
18E
102
}
330
18E
100
AcDbXrecord
280
     1
102
RTVSPost2010Prop28
280
     0
102
RTVSPost2010PropOp28
 70
     0
102
RTVSPost2010Prop29
280
     1
102
RTVSPost2010PropOp29
 70
     0
102
RTVSPost2010Prop30
280
     1
102
RTVSPost2010PropOp30
 70
     0
102
RTVSPost2010Prop31
280
     0
102
RTVSPost2010PropOp31
 70
     0
102
RTVSPost2010Prop32
280
     0
102
RTVSPost2010PropOp32
 70
     0
102
RTVSPost2010Prop33
280
     0
102
RTVSPost2010PropOp33
 70
     0
102
RTVSPost2010Prop34
280
     0
102
RTVSPost2010PropOp34
 70
     0
102
RTVSPost2010Prop35
280
     0
102
RTVSPost2010PropOp35
 70
     0
102
RTVSPost2010Prop36
280
     0
102
RTVSPost2010PropOp36
 70
     0
102
RTVSPost2010Prop37
 90
       50
102
RTVSPost2010PropOp37
 70
     0
102
RTVSPost2010Prop38
140
0.0
102
RTVSPost2010PropOp38
 70
     0
102
RTVSPost2010Prop39
140
1.0
102
RTVSPost2010PropOp39
 70
     0
102
RTVSPost2010Prop40
 90
        0
102
RTVSPost2010PropOp40
 70
     0
102
RTVSPost2010Prop41ColorIndex
 90
       18
102
RTVSPost2010Prop41ColorRGB
 90
        0
102
RTVSPost2010PropOp41
 70
     0
102
RTVSPost2010Prop42
 90
       50
102
RTVSPost2010PropOp42
 70
     0
102
RTVSPost2010Prop43
 90
        3
102
RTVSPost2010PropOp43
 70
     0
102
RTVSPost2010Prop44ColorIndex
 90
        5
102
RTVSPost2010Prop44ColorRGB
 90
      255
102
RTVSPost2010PropOp44
 70
     0
102
RTVSPost2010Prop45
280
     0
102
RTVSPost2010PropOp45
 70
     0
102
RTVSPost2010Prop46
 90
       50
102
RTVSPost2010PropOp46
 70
     0
102
RTVSPost2010Prop47
 90
       50
102
RTVSPost2010PropOp47
 70
     0
102
RTVSPost2010Prop48
 90
       50
102
RTVSPost2010PropOp48
 70
     0
102
RTVSPost2010Prop49
280
     0
102
RTVSPost2010PropOp49
 70
     0
102
RTVSPost2010Prop50
 90
       50
102
RTVSPost2010PropOp50
 70
     0
102
RTVSPost2010Prop51ColorIndex
 90
      256
102
RTVSPost2010Prop51ColorRGB
 90
-16777216
102
RTVSPost2010PropOp51
 70
     0
102
RTVSPost2010Prop52
140
1.0
102
RTVSPost2010PropOp52
 70
     0
102
RTVSPost2010Prop53
 90
        2
102
RTVSPost2010PropOp53
 70
     0
102
RTVSPost2010Prop54
  1
strokes_ogs.tif
102
RTVSPost2010PropOp54
 70
     0
102
RTVSPost2010Prop55
280
     0
102
RTVSPost2010PropOp55
 70
     0
102
RTVSPost2010Prop56
140
1.0
102
RTVSPost2010PropOp56
 70
     0
102
RTVSPost2010Prop57
140
1.0
102
RTVSPost2010PropOp57
 70
     0
  0
XRECORD
  5
17F
102
{ACAD_REACTORS
330
17E
102
}
330
17E
100
AcDbXrecord
280
     1
102
RTVSPost2010Prop28
280
     0
102
RTVSPost2010PropOp28
 70
     1
102
RTVSPost2010Prop29
280
     1
102
RTVSPost2010PropOp29
 70
     1
102
RTVSPost2010Prop30
280
     1
102
RTVSPost2010PropOp30
 70
     1
102
RTVSPost2010Prop31
280
     0
102
RTVSPost2010PropOp31
 70
     1
102
RTVSPost2010Prop32
280
     0
102
RTVSPost2010PropOp32
 70
     1
102
RTVSPost2010Prop33
280
     0
102
RTVSPost2010PropOp33
 70
     1
102
RTVSPost2010Prop34
280
     0
102
RTVSPost2010PropOp34
 70
     1
102
RTVSPost2010Prop35
280
     0
102
RTVSPost2010PropOp35
 70
     1
102
RTVSPost2010Prop36
280
     0
102
RTVSPost2010PropOp36
 70
     1
102
RTVSPost2010Prop37
 90
       50
102
RTVSPost2010PropOp37
 70
     1
102
RTVSPost2010Prop38
140
0.0
102
RTVSPost2010PropOp38
 70
     1
102
RTVSPost2010Prop39
140
1.0
102
RTVSPost2010PropOp39
 70
     1
102
RTVSPost2010Prop40
 90
        0
102
RTVSPost2010PropOp40
 70
     1
102
RTVSPost2010Prop41ColorIndex
 90
       18
102
RTVSPost2010Prop41ColorRGB
 90
        0
102
RTVSPost2010PropOp41
 70
     1
102
RTVSPost2010Prop42
 90
       50
102
RTVSPost2010PropOp42
 70
     1
102
RTVSPost2010Prop43
 90
        3
102
RTVSPost2010PropOp43
 70
     1
102
RTVSPost2010Prop44ColorIndex
 90
        5
102
RTVSPost2010Prop44ColorRGB
 90
      255
102
RTVSPost2010PropOp44
 70
     1
102
RTVSPost2010Prop45
280
     0
102
RTVSPost2010PropOp45
 70
     1
102
RTVSPost2010Prop46
 90
       50
102
RTVSPost2010PropOp46
 70
     1
102
RTVSPost2010Prop47
 90
       50
102
RTVSPost2010PropOp47
 70
     1
102
RTVSPost2010Prop48
 90
       50
102
RTVSPost2010PropOp48
 70
     1
102
RTVSPost2010Prop49
280
     0
102
RTVSPost2010PropOp49
 70
     1
102
RTVSPost2010Prop50
 90
       50
102
RTVSPost2010PropOp50
 70
     1
102
RTVSPost2010Prop51ColorIndex
 90
      256
102
RTVSPost2010Prop51ColorRGB
 90
-16777216
102
RTVSPost2010PropOp51
 70
     0
102
RTVSPost2010Prop52
140
1.0
102
RTVSPost2010PropOp52
 70
     0
102
RTVSPost2010Prop53
 90
        2
102
RTVSPost2010PropOp53
 70
     1
102
RTVSPost2010Prop54
  1
strokes_ogs.tif
102
RTVSPost2010PropOp54
 70
     1
102
RTVSPost2010Prop55
280
     0
102
RTVSPost2010PropOp55
 70
     1
102
RTVSPost2010Prop56
140
1.0
102
RTVSPost2010PropOp56
 70
     1
102
RTVSPost2010Prop57
140
1.0
102
RTVSPost2010PropOp57
 70
     1
  0
XRECORD
  5
191
102
{ACAD_REACTORS
330
190
102
}
330
190
100
AcDbXrecord
280
     1
102
RTVSPost2010Prop28
280
     0
102
RTVSPost2010PropOp28
 70
     0
102
RTVSPost2010Prop29
280
     1
102
RTVSPost2010PropOp29
 70
     0
102
RTVSPost2010Prop30
280
     1
102
RTVSPost2010PropOp30
 70
     0
102
RTVSPost2010Prop31
280
     0
102
RTVSPost2010PropOp31
 70
     0
102
RTVSPost2010Prop32
280
     0
102
RTVSPost2010PropOp32
 70
     0
102
RTVSPost2010Prop33
280
     0
102
RTVSPost2010PropOp33
 70
     0
102
RTVSPost2010Prop34
280
     0
102
RTVSPost2010PropOp34
 70
     0
102
RTVSPost2010Prop35
280
     0
102
RTVSPost2010PropOp35
 70
     0
102
RTVSPost2010Prop36
280
     0
102
RTVSPost2010PropOp36
 70
     0
102
RTVSPost2010Prop37
 90
       50
102
RTVSPost2010PropOp37
 70
     0
102
RTVSPost2010Prop38
140
0.0
102
RTVSPost2010PropOp38
 70
     0
102
RTVSPost2010Prop39
140
1.0
102
RTVSPost2010PropOp39
 70
     0
102
RTVSPost2010Prop40
 90
        0
102
RTVSPost2010PropOp40
 70
     0
102
RTVSPost2010Prop41ColorIndex
 90
       18
102
RTVSPost2010Prop41ColorRGB
 90
        0
102
RTVSPost2010PropOp41
 70
     0
102
RTVSPost2010Prop42
 90
       50
102
RTVSPost2010PropOp42
 70
     0
102
RTVSPost2010Prop43
 90
        3
102
RTVSPost2010PropOp43
 70
     0
102
RTVSPost2010Prop44ColorIndex
 90
        5
102
RTVSPost2010Prop44ColorRGB
 90
      255
102
RTVSPost2010PropOp44
 70
     0
102
RTVSPost2010Prop45
280
     0
102
RTVSPost2010PropOp45
 70
     0
102
RTVSPost2010Prop46
 90
       50
102
RTVSPost2010PropOp46
 70
     0
102
RTVSPost2010Prop47
 90
       50
102
RTVSPost2010PropOp47
 70
     0
102
RTVSPost2010Prop48
 90
       50
102
RTVSPost2010PropOp48
 70
     0
102
RTVSPost2010Prop49
280
     0
102
RTVSPost2010PropOp49
 70
     0
102
RTVSPost2010Prop50
 90
       50
102
RTVSPost2010PropOp50
 70
     0
102
RTVSPost2010Prop51ColorIndex
 90
      256
102
RTVSPost2010Prop51ColorRGB
 90
-16777216
102
RTVSPost2010PropOp51
 70
     0
102
RTVSPost2010Prop52
140
1.0
102
RTVSPost2010PropOp52
 70
     0
102
RTVSPost2010Prop53
 90
        2
102
RTVSPost2010PropOp53
 70
     0
102
RTVSPost2010Prop54
  1
strokes_ogs.tif
102
RTVSPost2010PropOp54
 70
     0
102
RTVSPost2010Prop55
280
     0
102
RTVSPost2010PropOp55
 70
     0
102
RTVSPost2010Prop56
140
1.0
102
RTVSPost2010PropOp56
 70
     0
102
RTVSPost2010Prop57
140
1.0
102
RTVSPost2010PropOp57
 70
     0
  0
XRECORD
  5
177
102
{ACAD_REACTORS
330
176
102
}
330
176
100
AcDbXrecord
280
     1
102
RTVSPost2010Prop28
280
     0
102
RTVSPost2010PropOp28
 70
     1
102
RTVSPost2010Prop29
280
     1
102
RTVSPost2010PropOp29
 70
     1
102
RTVSPost2010Prop30
280
     1
102
RTVSPost2010PropOp30
 70
     1
102
RTVSPost2010Prop31
280
     0
102
RTVSPost2010PropOp31
 70
     1
102
RTVSPost2010Prop32
280
     0
102
RTVSPost2010PropOp32
 70
     1
102
RTVSPost2010Prop33
280
     0
102
RTVSPost2010PropOp33
 70
     1
102
RTVSPost2010Prop34
280
     0
102
RTVSPost2010PropOp34
 70
     1
102
RTVSPost2010Prop35
280
     0
102
RTVSPost2010PropOp35
 70
     1
102
RTVSPost2010Prop36
280
     0
102
RTVSPost2010PropOp36
 70
     1
102
RTVSPost2010Prop37
 90
       50
102
RTVSPost2010PropOp37
 70
     1
102
RTVSPost2010Prop38
140
0.0
102
RTVSPost2010PropOp38
 70
     1
102
RTVSPost2010Prop39
140
1.0
102
RTVSPost2010PropOp39
 70
     1
102
RTVSPost2010Prop40
 90
        0
102
RTVSPost2010PropOp40
 70
     1
102
RTVSPost2010Prop41ColorIndex
 90
       18
102
RTVSPost2010Prop41ColorRGB
 90
        0
102
RTVSPost2010PropOp41
 70
     1
102
RTVSPost2010Prop42
 90
       50
102
RTVSPost2010PropOp42
 70
     1
102
RTVSPost2010Prop43
 90
        3
102
RTVSPost2010PropOp43
 70
     1
102
RTVSPost2010Prop44ColorIndex
 90
        5
102
RTVSPost2010Prop44ColorRGB
 90
      255
102
RTVSPost2010PropOp44
 70
     1
102
RTVSPost2010Prop45
280
     0
102
RTVSPost2010PropOp45
 70
     1
102
RTVSPost2010Prop46
 90
       50
102
RTVSPost2010PropOp46
 70
     1
102
RTVSPost2010Prop47
 90
       50
102
RTVSPost2010PropOp47
 70
     1
102
RTVSPost2010Prop48
 90
       50
102
RTVSPost2010PropOp48
 70
     1
102
RTVSPost2010Prop49
280
     0
102
RTVSPost2010PropOp49
 70
     1
102
RTVSPost2010Prop50
 90
       50
102
RTVSPost2010PropOp50
 70
     1
102
RTVSPost2010Prop51ColorIndex
 90
      256
102
RTVSPost2010Prop51ColorRGB
 90
-16777216
102
RTVSPost2010PropOp51
 70
     0
102
RTVSPost2010Prop52
140
1.0
102
RTVSPost2010PropOp52
 70
     0
102
RTVSPost2010Prop53
 90
        2
102
RTVSPost2010PropOp53
 70
     1
102
RTVSPost2010Prop54
  1
strokes_ogs.tif
102
RTVSPost2010PropOp54
 70
     1
102
RTVSPost2010Prop55
280
     0
102
RTVSPost2010PropOp55
 70
     1
102
RTVSPost2010Prop56
140
1.0
102
RTVSPost2010PropOp56
 70
     1
102
RTVSPost2010Prop57
140
1.0
102
RTVSPost2010PropOp57
 70
     1
  0
XRECORD
  5
18D
102
{ACAD_REACTORS
330
18C
102
}
330
18C
100
AcDbXrecord
280
     1
102
RTVSPost2010Prop28
280
     0
102
RTVSPost2010PropOp28
 70
     1
102
RTVSPost2010Prop29
280
     1
102
RTVSPost2010PropOp29
 70
     1
102
RTVSPost2010Prop30
280
     1
102
RTVSPost2010PropOp30
 70
     1
102
RTVSPost2010Prop31
280
     0
102
RTVSPost2010PropOp31
 70
     1
102
RTVSPost2010Prop32
280
     0
102
RTVSPost2010PropOp32
 70
     1
102
RTVSPost2010Prop33
280
     0
102
RTVSPost2010PropOp33
 70
     1
102
RTVSPost2010Prop34
280
     0
102
RTVSPost2010PropOp34
 70
     1
102
RTVSPost2010Prop35
280
     0
102
RTVSPost2010PropOp35
 70
     1
102
RTVSPost2010Prop36
280
     0
102
RTVSPost2010PropOp36
 70
     1
102
RTVSPost2010Prop37
 90
       50
102
RTVSPost2010PropOp37
 70
     1
102
RTVSPost2010Prop38
140
0.0
102
RTVSPost2010PropOp38
 70
     1
102
RTVSPost2010Prop39
140
1.0
102
RTVSPost2010PropOp39
 70
     1
102
RTVSPost2010Prop40
 90
        0
102
RTVSPost2010PropOp40
 70
     1
102
RTVSPost2010Prop41ColorIndex
 90
       18
102
RTVSPost2010Prop41ColorRGB
 90
        0
102
RTVSPost2010PropOp41
 70
     1
102
RTVSPost2010Prop42
 90
       50
102
RTVSPost2010PropOp42
 70
     1
102
RTVSPost2010Prop43
 90
        3
102
RTVSPost2010PropOp43
 70
     1
102
RTVSPost2010Prop44ColorIndex
 90
        5
102
RTVSPost2010Prop44ColorRGB
 90
      255
102
RTVSPost2010PropOp44
 70
     1
102
RTVSPost2010Prop45
280
     0
102
RTVSPost2010PropOp45
 70
     1
102
RTVSPost2010Prop46
 90
       50
102
RTVSPost2010PropOp46
 70
     1
102
RTVSPost2010Prop47
 90
       50
102
RTVSPost2010PropOp47
 70
     1
102
RTVSPost2010Prop48
 90
       50
102
RTVSPost2010PropOp48
 70
     1
102
RTVSPost2010Prop49
280
     0
102
RTVSPost2010PropOp49
 70
     1
102
RTVSPost2010Prop50
 90
       50
102
RTVSPost2010PropOp50
 70
     1
102
RTVSPost2010Prop51ColorIndex
 90
      256
102
RTVSPost2010Prop51ColorRGB
 90
-16777216
102
RTVSPost2010PropOp51
 70
     0
102
RTVSPost2010Prop52
140
1.0
102
RTVSPost2010PropOp52
 70
     0
102
RTVSPost2010Prop53
 90
        2
102
RTVSPost2010PropOp53
 70
     1
102
RTVSPost2010Prop54
  1
strokes_ogs.tif
102
RTVSPost2010PropOp54
 70
     1
102
RTVSPost2010Prop55
280
     0
102
RTVSPost2010PropOp55
 70
     1
102
RTVSPost2010Prop56
140
1.0
102
RTVSPost2010PropOp56
 70
     1
102
RTVSPost2010Prop57
140
1.0
102
RTVSPost2010PropOp57
 70
     1
  0
XRECORD
  5
18B
102
{ACAD_REACTORS
330
18A
102
}
330
18A
100
AcDbXrecord
280
     1
102
RTVSPost2010Prop28
280
     0
102
RTVSPost2010PropOp28
 70
     1
102
RTVSPost2010Prop29
280
     1
102
RTVSPost2010PropOp29
 70
     1
102
RTVSPost2010Prop30
280
     1
102
RTVSPost2010PropOp30
 70
     1
102
RTVSPost2010Prop31
280
     0
102
RTVSPost2010PropOp31
 70
     1
102
RTVSPost2010Prop32
280
     0
102
RTVSPost2010PropOp32
 70
     1
102
RTVSPost2010Prop33
280
     0
102
RTVSPost2010PropOp33
 70
     1
102
RTVSPost2010Prop34
280
     0
102
RTVSPost2010PropOp34
 70
     1
102
RTVSPost2010Prop35
280
     0
102
RTVSPost2010PropOp35
 70
     1
102
RTVSPost2010Prop36
280
     0
102
RTVSPost2010PropOp36
 70
     1
102
RTVSPost2010Prop37
 90
       50
102
RTVSPost2010PropOp37
 70
     1
102
RTVSPost2010Prop38
140
0.0
102
RTVSPost2010PropOp38
 70
     1
102
RTVSPost2010Prop39
140
1.0
102
RTVSPost2010PropOp39
 70
     1
102
RTVSPost2010Prop40
 90
        0
102
RTVSPost2010PropOp40
 70
     1
102
RTVSPost2010Prop41ColorIndex
 90
       18
102
RTVSPost2010Prop41ColorRGB
 90
        0
102
RTVSPost2010PropOp41
 70
     1
102
RTVSPost2010Prop42
 90
       50
102
RTVSPost2010PropOp42
 70
     1
102
RTVSPost2010Prop43
 90
        3
102
RTVSPost2010PropOp43
 70
     1
102
RTVSPost2010Prop44ColorIndex
 90
        5
102
RTVSPost2010Prop44ColorRGB
 90
      255
102
RTVSPost2010PropOp44
 70
     1
102
RTVSPost2010Prop45
280
     0
102
RTVSPost2010PropOp45
 70
     1
102
RTVSPost2010Prop46
 90
       50
102
RTVSPost2010PropOp46
 70
     1
102
RTVSPost2010Prop47
 90
       50
102
RTVSPost2010PropOp47
 70
     1
102
RTVSPost2010Prop48
 90
       50
102
RTVSPost2010PropOp48
 70
     1
102
RTVSPost2010Prop49
280
     0
102
RTVSPost2010PropOp49
 70
     1
102
RTVSPost2010Prop50
 90
       50
102
RTVSPost2010PropOp50
 70
     1
102
RTVSPost2010Prop51ColorIndex
 90
      256
102
RTVSPost2010Prop51ColorRGB
 90
-16777216
102
RTVSPost2010PropOp51
 70
     0
102
RTVSPost2010Prop52
140
1.0
102
RTVSPost2010PropOp52
 70
     0
102
RTVSPost2010Prop53
 90
        2
102
RTVSPost2010PropOp53
 70
     1
102
RTVSPost2010Prop54
  1
strokes_ogs.tif
102
RTVSPost2010PropOp54
 70
     1
102
RTVSPost2010Prop55
280
     0
102
RTVSPost2010PropOp55
 70
     1
102
RTVSPost2010Prop56
140
1.0
102
RTVSPost2010PropOp56
 70
     1
102
RTVSPost2010Prop57
140
1.0
102
RTVSPost2010PropOp57
 70
     1
  0
XRECORD
  5
185
102
{ACAD_REACTORS
330
184
102
}
330
184
100
AcDbXrecord
280
     1
102
RTVSPost2010Prop28
280
     0
102
RTVSPost2010PropOp28
 70
     1
102
RTVSPost2010Prop29
280
     1
102
RTVSPost2010PropOp29
 70
     1
102
RTVSPost2010Prop30
280
     1
102
RTVSPost2010PropOp30
 70
     1
102
RTVSPost2010Prop31
280
     0
102
RTVSPost2010PropOp31
 70
     1
102
RTVSPost2010Prop32
280
     0
102
RTVSPost2010PropOp32
 70
     1
102
RTVSPost2010Prop33
280
     0
102
RTVSPost2010PropOp33
 70
     1
102
RTVSPost2010Prop34
280
     0
102
RTVSPost2010PropOp34
 70
     1
102
RTVSPost2010Prop35
280
     0
102
RTVSPost2010PropOp35
 70
     1
102
RTVSPost2010Prop36
280
     0
102
RTVSPost2010PropOp36
 70
     1
102
RTVSPost2010Prop37
 90
       50
102
RTVSPost2010PropOp37
 70
     1
102
RTVSPost2010Prop38
140
0.0
102
RTVSPost2010PropOp38
 70
     1
102
RTVSPost2010Prop39
140
1.0
102
RTVSPost2010PropOp39
 70
     1
102
RTVSPost2010Prop40
 90
        0
102
RTVSPost2010PropOp40
 70
     1
102
RTVSPost2010Prop41ColorIndex
 90
       18
102
RTVSPost2010Prop41ColorRGB
 90
        0
102
RTVSPost2010PropOp41
 70
     1
102
RTVSPost2010Prop42
 90
       50
102
RTVSPost2010PropOp42
 70
     1
102
RTVSPost2010Prop43
 90
        3
102
RTVSPost2010PropOp43
 70
     1
102
RTVSPost2010Prop44ColorIndex
 90
        5
102
RTVSPost2010Prop44ColorRGB
 90
      255
102
RTVSPost2010PropOp44
 70
     1
102
RTVSPost2010Prop45
280
     0
102
RTVSPost2010PropOp45
 70
     1
102
RTVSPost2010Prop46
 90
       50
102
RTVSPost2010PropOp46
 70
     1
102
RTVSPost2010Prop47
 90
       50
102
RTVSPost2010PropOp47
 70
     1
102
RTVSPost2010Prop48
 90
       50
102
RTVSPost2010PropOp48
 70
     1
102
RTVSPost2010Prop49
280
     0
102
RTVSPost2010PropOp49
 70
     1
102
RTVSPost2010Prop50
 90
       50
102
RTVSPost2010PropOp50
 70
     1
102
RTVSPost2010Prop51ColorIndex
 90
      256
102
RTVSPost2010Prop51ColorRGB
 90
-16777216
102
RTVSPost2010PropOp51
 70
     0
102
RTVSPost2010Prop52
140
1.0
102
RTVSPost2010PropOp52
 70
     0
102
RTVSPost2010Prop53
 90
        2
102
RTVSPost2010PropOp53
 70
     1
102
RTVSPost2010Prop54
  1
strokes_ogs.tif
102
RTVSPost2010PropOp54
 70
     1
102
RTVSPost2010Prop55
280
     0
102
RTVSPost2010PropOp55
 70
     1
102
RTVSPost2010Prop56
140
1.0
102
RTVSPost2010PropOp56
 70
     1
102
RTVSPost2010Prop57
140
1.0
102
RTVSPost2010PropOp57
 70
     1
  0
XRECORD
  5
187
102
{ACAD_REACTORS
330
186
102
}
330
186
100
AcDbXrecord
280
     1
102
RTVSPost2010Prop28
280
     0
102
RTVSPost2010PropOp28
 70
     1
102
RTVSPost2010Prop29
280
     1
102
RTVSPost2010PropOp29
 70
     1
102
RTVSPost2010Prop30
280
     1
102
RTVSPost2010PropOp30
 70
     1
102
RTVSPost2010Prop31
280
     0
102
RTVSPost2010PropOp31
 70
     1
102
RTVSPost2010Prop32
280
     0
102
RTVSPost2010PropOp32
 70
     1
102
RTVSPost2010Prop33
280
     0
102
RTVSPost2010PropOp33
 70
     1
102
RTVSPost2010Prop34
280
     0
102
RTVSPost2010PropOp34
 70
     1
102
RTVSPost2010Prop35
280
     0
102
RTVSPost2010PropOp35
 70
     1
102
RTVSPost2010Prop36
280
     0
102
RTVSPost2010PropOp36
 70
     1
102
RTVSPost2010Prop37
 90
       50
102
RTVSPost2010PropOp37
 70
     1
102
RTVSPost2010Prop38
140
0.0
102
RTVSPost2010PropOp38
 70
     1
102
RTVSPost2010Prop39
140
1.0
102
RTVSPost2010PropOp39
 70
     1
102
RTVSPost2010Prop40
 90
        0
102
RTVSPost2010PropOp40
 70
     1
102
RTVSPost2010Prop41ColorIndex
 90
       18
102
RTVSPost2010Prop41ColorRGB
 90
        0
102
RTVSPost2010PropOp41
 70
     1
102
RTVSPost2010Prop42
 90
       50
102
RTVSPost2010PropOp42
 70
     1
102
RTVSPost2010Prop43
 90
        3
102
RTVSPost2010PropOp43
 70
     1
102
RTVSPost2010Prop44ColorIndex
 90
        5
102
RTVSPost2010Prop44ColorRGB
 90
      255
102
RTVSPost2010PropOp44
 70
     1
102
RTVSPost2010Prop45
280
     0
102
RTVSPost2010PropOp45
 70
     1
102
RTVSPost2010Prop46
 90
       50
102
RTVSPost2010PropOp46
 70
     1
102
RTVSPost2010Prop47
 90
       50
102
RTVSPost2010PropOp47
 70
     1
102
RTVSPost2010Prop48
 90
       50
102
RTVSPost2010PropOp48
 70
     1
102
RTVSPost2010Prop49
280
     0
102
RTVSPost2010PropOp49
 70
     1
102
RTVSPost2010Prop50
 90
       50
102
RTVSPost2010PropOp50
 70
     1
102
RTVSPost2010Prop51ColorIndex
 90
      256
102
RTVSPost2010Prop51ColorRGB
 90
-16777216
102
RTVSPost2010PropOp51
 70
     0
102
RTVSPost2010Prop52
140
1.0
102
RTVSPost2010PropOp52
 70
     0
102
RTVSPost2010Prop53
 90
        2
102
RTVSPost2010PropOp53
 70
     1
102
RTVSPost2010Prop54
  1
strokes_ogs.tif
102
RTVSPost2010PropOp54
 70
     1
102
RTVSPost2010Prop55
280
     0
102
RTVSPost2010PropOp55
 70
     1
102
RTVSPost2010Prop56
140
1.0
102
RTVSPost2010PropOp56
 70
     1
102
RTVSPost2010Prop57
140
1.0
102
RTVSPost2010PropOp57
 70
     1
  0
XRECORD
  5
17D
102
{ACAD_REACTORS
330
17C
102
}
330
17C
100
AcDbXrecord
280
     1
102
RTVSPost2010Prop28
280
     0
102
RTVSPost2010PropOp28
 70
     1
102
RTVSPost2010Prop29
280
     1
102
RTVSPost2010PropOp29
 70
     1
102
RTVSPost2010Prop30
280
     1
102
RTVSPost2010PropOp30
 70
     1
102
RTVSPost2010Prop31
280
     0
102
RTVSPost2010PropOp31
 70
     1
102
RTVSPost2010Prop32
280
     0
102
RTVSPost2010PropOp32
 70
     1
102
RTVSPost2010Prop33
280
     0
102
RTVSPost2010PropOp33
 70
     1
102
RTVSPost2010Prop34
280
     0
102
RTVSPost2010PropOp34
 70
     1
102
RTVSPost2010Prop35
280
     0
102
RTVSPost2010PropOp35
 70
     1
102
RTVSPost2010Prop36
280
     0
102
RTVSPost2010PropOp36
 70
     1
102
RTVSPost2010Prop37
 90
       50
102
RTVSPost2010PropOp37
 70
     1
102
RTVSPost2010Prop38
140
0.0
102
RTVSPost2010PropOp38
 70
     1
102
RTVSPost2010Prop39
140
1.0
102
RTVSPost2010PropOp39
 70
     1
102
RTVSPost2010Prop40
 90
        0
102
RTVSPost2010PropOp40
 70
     1
102
RTVSPost2010Prop41ColorIndex
 90
       18
102
RTVSPost2010Prop41ColorRGB
 90
        0
102
RTVSPost2010PropOp41
 70
     1
102
RTVSPost2010Prop42
 90
       50
102
RTVSPost2010PropOp42
 70
     1
102
RTVSPost2010Prop43
 90
        3
102
RTVSPost2010PropOp43
 70
     1
102
RTVSPost2010Prop44ColorIndex
 90
        5
102
RTVSPost2010Prop44ColorRGB
 90
      255
102
RTVSPost2010PropOp44
 70
     1
102
RTVSPost2010Prop45
280
     0
102
RTVSPost2010PropOp45
 70
     1
102
RTVSPost2010Prop46
 90
       50
102
RTVSPost2010PropOp46
 70
     1
102
RTVSPost2010Prop47
 90
       50
102
RTVSPost2010PropOp47
 70
     1
102
RTVSPost2010Prop48
 90
       50
102
RTVSPost2010PropOp48
 70
     1
102
RTVSPost2010Prop49
280
     0
102
RTVSPost2010PropOp49
 70
     1
102
RTVSPost2010Prop50
 90
       50
102
RTVSPost2010PropOp50
 70
     1
102
RTVSPost2010Prop51ColorIndex
 90
      256
102
RTVSPost2010Prop51ColorRGB
 90
-16777216
102
RTVSPost2010PropOp51
 70
     0
102
RTVSPost2010Prop52
140
1.0
102
RTVSPost2010PropOp52
 70
     0
102
RTVSPost2010Prop53
 90
        2
102
RTVSPost2010PropOp53
 70
     1
102
RTVSPost2010Prop54
  1
strokes_ogs.tif
102
RTVSPost2010PropOp54
 70
     1
102
RTVSPost2010Prop55
280
     0
102
RTVSPost2010PropOp55
 70
     1
102
RTVSPost2010Prop56
140
1.0
102
RTVSPost2010PropOp56
 70
     1
102
RTVSPost2010Prop57
140
1.0
102
RTVSPost2010PropOp57
 70
     1
  0
XRECORD
  5
171
102
{ACAD_REACTORS
330
170
102
}
330
170
100
AcDbXrecord
280
     1
102
RTVSPost2010Prop28
280
     0
102
RTVSPost2010PropOp28
 70
     1
102
RTVSPost2010Prop29
280
     1
102
RTVSPost2010PropOp29
 70
     1
102
RTVSPost2010Prop30
280
     1
102
RTVSPost2010PropOp30
 70
     1
102
RTVSPost2010Prop31
280
     0
102
RTVSPost2010PropOp31
 70
     1
102
RTVSPost2010Prop32
280
     0
102
RTVSPost2010PropOp32
 70
     1
102
RTVSPost2010Prop33
280
     0
102
RTVSPost2010PropOp33
 70
     1
102
RTVSPost2010Prop34
280
     0
102
RTVSPost2010PropOp34
 70
     1
102
RTVSPost2010Prop35
280
     0
102
RTVSPost2010PropOp35
 70
     1
102
RTVSPost2010Prop36
280
     0
102
RTVSPost2010PropOp36
 70
     1
102
RTVSPost2010Prop37
 90
       50
102
RTVSPost2010PropOp37
 70
     1
102
RTVSPost2010Prop38
140
0.0
102
RTVSPost2010PropOp38
 70
     1
102
RTVSPost2010Prop39
140
1.0
102
RTVSPost2010PropOp39
 70
     1
102
RTVSPost2010Prop40
 90
        0
102
RTVSPost2010PropOp40
 70
     1
102
RTVSPost2010Prop41ColorIndex
 90
       18
102
RTVSPost2010Prop41ColorRGB
 90
        0
102
RTVSPost2010PropOp41
 70
     1
102
RTVSPost2010Prop42
 90
       50
102
RTVSPost2010PropOp42
 70
     1
102
RTVSPost2010Prop43
 90
        3
102
RTVSPost2010PropOp43
 70
     1
102
RTVSPost2010Prop44ColorIndex
 90
        5
102
RTVSPost2010Prop44ColorRGB
 90
      255
102
RTVSPost2010PropOp44
 70
     1
102
RTVSPost2010Prop45
280
     0
102
RTVSPost2010PropOp45
 70
     1
102
RTVSPost2010Prop46
 90
       50
102
RTVSPost2010PropOp46
 70
     1
102
RTVSPost2010Prop47
 90
       50
102
RTVSPost2010PropOp47
 70
     1
102
RTVSPost2010Prop48
 90
       50
102
RTVSPost2010PropOp48
 70
     1
102
RTVSPost2010Prop49
280
     0
102
RTVSPost2010PropOp49
 70
     1
102
RTVSPost2010Prop50
 90
       50
102
RTVSPost2010PropOp50
 70
     1
102
RTVSPost2010Prop51ColorIndex
 90
      256
102
RTVSPost2010Prop51ColorRGB
 90
-16777216
102
RTVSPost2010PropOp51
 70
     0
102
RTVSPost2010Prop52
140
1.0
102
RTVSPost2010PropOp52
 70
     0
102
RTVSPost2010Prop53
 90
        2
102
RTVSPost2010PropOp53
 70
     1
102
RTVSPost2010Prop54
  1
strokes_ogs.tif
102
RTVSPost2010PropOp54
 70
     1
102
RTVSPost2010Prop55
280
     0
102
RTVSPost2010PropOp55
 70
     1
102
RTVSPost2010Prop56
140
1.0
102
RTVSPost2010PropOp56
 70
     1
102
RTVSPost2010Prop57
140
1.0
102
RTVSPost2010PropOp57
 70
     1
  0
XRECORD
  5
189
102
{ACAD_REACTORS
330
188
102
}
330
188
100
AcDbXrecord
280
     1
102
RTVSPost2010Prop28
280
     0
102
RTVSPost2010PropOp28
 70
     1
102
RTVSPost2010Prop29
280
     1
102
RTVSPost2010PropOp29
 70
     1
102
RTVSPost2010Prop30
280
     1
102
RTVSPost2010PropOp30
 70
     1
102
RTVSPost2010Prop31
280
     0
102
RTVSPost2010PropOp31
 70
     1
102
RTVSPost2010Prop32
280
     0
102
RTVSPost2010PropOp32
 70
     1
102
RTVSPost2010Prop33
280
     0
102
RTVSPost2010PropOp33
 70
     1
102
RTVSPost2010Prop34
280
     0
102
RTVSPost2010PropOp34
 70
     1
102
RTVSPost2010Prop35
280
     0
102
RTVSPost2010PropOp35
 70
     1
102
RTVSPost2010Prop36
280
     0
102
RTVSPost2010PropOp36
 70
     1
102
RTVSPost2010Prop37
 90
       50
102
RTVSPost2010PropOp37
 70
     1
102
RTVSPost2010Prop38
140
0.0
102
RTVSPost2010PropOp38
 70
     1
102
RTVSPost2010Prop39
140
1.0
102
RTVSPost2010PropOp39
 70
     1
102
RTVSPost2010Prop40
 90
        0
102
RTVSPost2010PropOp40
 70
     1
102
RTVSPost2010Prop41ColorIndex
 90
       18
102
RTVSPost2010Prop41ColorRGB
 90
        0
102
RTVSPost2010PropOp41
 70
     1
102
RTVSPost2010Prop42
 90
       50
102
RTVSPost2010PropOp42
 70
     1
102
RTVSPost2010Prop43
 90
        3
102
RTVSPost2010PropOp43
 70
     1
102
RTVSPost2010Prop44ColorIndex
 90
        5
102
RTVSPost2010Prop44ColorRGB
 90
      255
102
RTVSPost2010PropOp44
 70
     1
102
RTVSPost2010Prop45
280
     0
102
RTVSPost2010PropOp45
 70
     1
102
RTVSPost2010Prop46
 90
       50
102
RTVSPost2010PropOp46
 70
     1
102
RTVSPost2010Prop47
 90
       50
102
RTVSPost2010PropOp47
 70
     1
102
RTVSPost2010Prop48
 90
       50
102
RTVSPost2010PropOp48
 70
     1
102
RTVSPost2010Prop49
280
     0
102
RTVSPost2010PropOp49
 70
     1
102
RTVSPost2010Prop50
 90
       50
102
RTVSPost2010PropOp50
 70
     1
102
RTVSPost2010Prop51ColorIndex
 90
      256
102
RTVSPost2010Prop51ColorRGB
 90
-16777216
102
RTVSPost2010PropOp51
 70
     0
102
RTVSPost2010Prop52
140
1.0
102
RTVSPost2010PropOp52
 70
     0
102
RTVSPost2010Prop53
 90
        2
102
RTVSPost2010PropOp53
 70
     1
102
RTVSPost2010Prop54
  1
strokes_ogs.tif
102
RTVSPost2010PropOp54
 70
     1
102
RTVSPost2010Prop55
280
     0
102
RTVSPost2010PropOp55
 70
     1
102
RTVSPost2010Prop56
140
1.0
102
RTVSPost2010PropOp56
 70
     1
102
RTVSPost2010Prop57
140
1.0
102
RTVSPost2010PropOp57
 70
     1
  0
ENDSEC
  0
EOF
