  0
SECTION
  2
HEADER
  9
$ACADVER
  1
AC1024
  9
$ACADMAINTVER
 70
   226
  9
$DWGCODEPAGE
  3
ANSI_932
  9
$INSBASE
 10
0.0
 20
0.0
 30
0.0
  9
$EXTMIN
 10
1.000000000000000E+20
 20
1.000000000000000E+20
 30
1.000000000000000E+20
  9
$EXTMAX
 10
-1.000000000000000E+20
 20
-1.000000000000000E+20
 30
-1.000000000000000E+20
  9
$LIMMIN
 10
0.0
 20
0.0
  9
$LIMMAX
 10
12.0
 20
9.0
  9
$ORTHOMODE
 70
     0
  9
$REGENMODE
 70
     1
  9
$FILLMODE
 70
     1
  9
$QTEXTMODE
 70
     0
  9
$MIRRTEXT
 70
     0
  9
$LTSCALE
 40
1.0
  9
$ATTMODE
 70
     1
  9
$TEXTSIZE
 40
0.2
  9
$TRACEWID
 40
0.05
  9
$TEXTSTYLE
  7
Standard
  9
$CLAYER
  8
0
  9
$CELTYPE
  6
ByLayer
  9
$CECOLOR
 62
   256
  9
$CELTSCALE
 40
1.0
  9
$DISPSILH
 70
     0
  9
$DIMSCALE
 40
1.0
  9
$DIMASZ
 40
0.18
  9
$DIMEXO
 40
0.0625
  9
$DIMDLI
 40
0.38
  9
$DIMRND
 40
0.0
  9
$DIMDLE
 40
0.0
  9
$DIMEXE
 40
0.18
  9
$DIMTP
 40
0.0
  9
$DIMTM
 40
0.0
  9
$DIMTXT
 40
0.18
  9
$DIMCEN
 40
0.09
  9
$DIMTSZ
 40
0.0
  9
$DIMTOL
 70
     0
  9
$DIMLIM
 70
     0
  9
$DIMTIH
 70
     1
  9
$DIMTOH
 70
     1
  9
$DIMSE1
 70
     0
  9
$DIMSE2
 70
     0
  9
$DIMTAD
 70
     0
  9
$DIMZIN
 70
     0
  9
$DIMBLK
  1

  9
$DIMASO
 70
     1
  9
$DIMSHO
 70
     1
  9
$DIMPOST
  1

  9
$DIMAPOST
  1

  9
$DIMALT
 70
     0
  9
$DIMALTD
 70
     2
  9
$DIMALTF
 40
25.4
  9
$DIMLFAC
 40
1.0
  9
$DIMTOFL
 70
     0
  9
$DIMTVP
 40
0.0
  9
$DIMTIX
 70
     0
  9
$DIMSOXD
 70
     0
  9
$DIMSAH
 70
     0
  9
$DIMBLK1
  1

  9
$DIMBLK2
  1

  9
$DIMSTYLE
  2
Standard
  9
$DIMCLRD
 70
     0
  9
$DIMCLRE
 70
     0
  9
$DIMCLRT
 70
     0
  9
$DIMTFAC
 40
1.0
  9
$DIMGAP
 40
0.09
  9
$DIMJUST
 70
     0
  9
$DIMSD1
 70
     0
  9
$DIMSD2
 70
     0
  9
$DIMTOLJ
 70
     1
  9
$DIMTZIN
 70
     0
  9
$DIMALTZ
 70
     0
  9
$DIMALTTZ
 70
     0
  9
$DIMUPT
 70
     0
  9
$DIMDEC
 70
     4
  9
$DIMTDEC
 70
     4
  9
$DIMALTU
 70
     2
  9
$DIMALTTD
 70
     2
  9
$DIMTXSTY
  7
Standard
  9
$DIMAUNIT
 70
     0
  9
$DIMADEC
 70
     0
  9
$DIMALTRND
 40
0.0
  9
$DIMAZIN
 70
     0
  9
$DIMDSEP
 70
    46
  9
$DIMATFIT
 70
     3
  9
$DIMFRAC
 70
     0
  9
$DIMLDRBLK
  1

  9
$DIMLUNIT
 70
     2
  9
$DIMLWD
 70
    -2
  9
$DIMLWE
 70
    -2
  9
$DIMTMOVE
 70
     0
  9
$DIMFXL
 40
1.0
  9
$DIMFXLON
 70
     0
  9
$DIMJOGANG
 40
0.7853981633974483
  9
$DIMTFILL
 70
     0
  9
$DIMTFILLCLR
 70
     0
  9
$DIMARCSYM
 70
     0
  9
$DIMLTYPE
  6

  9
$DIMLTEX1
  6

  9
$DIMLTEX2
  6

  9
$DIMTXTDIRECTION
 70
     0
  9
$LUNITS
 70
     2
  9
$LUPREC
 70
     4
  9
$SKETCHINC
 40
0.1
  9
$FILLETRAD
 40
0.0
  9
$AUNITS
 70
     0
  9
$AUPREC
 70
     0
  9
$MENU
  1
.
  9
$ELEVATION
 40
0.0
  9
$PELEVATION
 40
0.0
  9
$THICKNESS
 40
0.0
  9
$LIMCHECK
 70
     0
  9
$CHAMFERA
 40
0.0
  9
$CHAMFERB
 40
0.0
  9
$CHAMFERC
 40
0.0
  9
$CHAMFERD
 40
0.0
  9
$SKPOLY
 70
     0
  9
$TDCREATE
 40
2459569.503946759
  9
$TDUCREATE
 40
2459569.128946760
  9
$TDUPDATE
 40
2459569.503946759
  9
$TDUUPDATE
 40
2459569.128946760
  9
$TDINDWG
 40
0.0000000000
  9
$TDUSRTIMER
 40
0.0000000000
  9
$USRTIMER
 70
     1
  9
$ANGBASE
 50
0.0
  9
$ANGDIR
 70
     0
  9
$PDMODE
 70
     0
  9
$PDSIZE
 40
0.0
  9
$PLINEWID
 40
0.0
  9
$SPLFRAME
 70
     0
  9
$SPLINETYPE
 70
     6
  9
$SPLINESEGS
 70
     8
  9
$HANDSEED
  5
1C0
  9
$SURFTAB1
 70
     6
  9
$SURFTAB2
 70
     6
  9
$SURFTYPE
 70
     6
  9
$SURFU
 70
     6
  9
$SURFV
 70
     6
  9
$UCSBASE
  2

  9
$UCSNAME
  2

  9
$UCSORG
 10
0.0
 20
0.0
 30
0.0
  9
$UCSXDIR
 10
1.0
 20
0.0
 30
0.0
  9
$UCSYDIR
 10
0.0
 20
1.0
 30
0.0
  9
$UCSORTHOREF
  2

  9
$UCSORTHOVIEW
 70
     0
  9
$UCSORGTOP
 10
0.0
 20
0.0
 30
0.0
  9
$UCSORGBOTTOM
 10
0.0
 20
0.0
 30
0.0
  9
$UCSORGLEFT
 10
0.0
 20
0.0
 30
0.0
  9
$UCSORGRIGHT
 10
0.0
 20
0.0
 30
0.0
  9
$UCSORGFRONT
 10
0.0
 20
0.0
 30
0.0
  9
$UCSORGBACK
 10
0.0
 20
0.0
 30
0.0
  9
$PUCSBASE
  2

  9
$PUCSNAME
  2

  9
$PUCSORG
 10
0.0
 20
0.0
 30
0.0
  9
$PUCSXDIR
 10
1.0
 20
0.0
 30
0.0
  9
$PUCSYDIR
 10
0.0
 20
1.0
 30
0.0
  9
$PUCSORTHOREF
  2

  9
$PUCSORTHOVIEW
 70
     0
  9
$PUCSORGTOP
 10
0.0
 20
0.0
 30
0.0
  9
$PUCSORGBOTTOM
 10
0.0
 20
0.0
 30
0.0
  9
$PUCSORGLEFT
 10
0.0
 20
0.0
 30
0.0
  9
$PUCSORGRIGHT
 10
0.0
 20
0.0
 30
0.0
  9
$PUCSORGFRONT
 10
0.0
 20
0.0
 30
0.0
  9
$PUCSORGBACK
 10
0.0
 20
0.0
 30
0.0
  9
$USERI1
 70
     0
  9
$USERI2
 70
     0
  9
$USERI3
 70
     0
  9
$USERI4
 70
     0
  9
$USERI5
 70
     0
  9
$USERR1
 40
0.0
  9
$USERR2
 40
0.0
  9
$USERR3
 40
0.0
  9
$USERR4
 40
0.0
  9
$USERR5
 40
0.0
  9
$WORLDVIEW
 70
     1
  9
$SHADEDGE
 70
     3
  9
$SHADEDIF
 70
    70
  9
$TILEMODE
 70
     1
  9
$MAXACTVP
 70
    64
  9
$PINSBASE
 10
0.0
 20
0.0
 30
0.0
  9
$PLIMCHECK
 70
     0
  9
$PEXTMIN
 10
1.000000000000000E+20
 20
1.000000000000000E+20
 30
1.000000000000000E+20
  9
$PEXTMAX
 10
-1.000000000000000E+20
 20
-1.000000000000000E+20
 30
-1.000000000000000E+20
  9
$PLIMMIN
 10
0.0
 20
0.0
  9
$PLIMMAX
 10
12.0
 20
9.0
  9
$UNITMODE
 70
     0
  9
$VISRETAIN
 70
     1
  9
$PLINEGEN
 70
     0
  9
$PSLTSCALE
 70
     1
  9
$TREEDEPTH
 70
  3020
  9
$CMLSTYLE
  2
Standard
  9
$CMLJUST
 70
     0
  9
$CMLSCALE
 40
1.0
  9
$PROXYGRAPHICS
 70
     1
  9
$MEASUREMENT
 70
     0
  9
$CELWEIGHT
370
    -1
  9
$ENDCAPS
280
     0
  9
$JOINSTYLE
280
     0
  9
$LWDISPLAY
290
     1
  9
$INSUNITS
 70
     4
  9
$HYPERLINKBASE
  1

  9
$STYLESHEET
  1

  9
$XEDIT
290
     1
  9
$CEPSNTYPE
380
     0
  9
$PSTYLEMODE
290
     1
  9
$FINGERPRINTGUID
  2
{1050C99B-B2BA-1F44-83A1-0907E29D7519}
  9
$VERSIONGUID
  2
{CDDB68B2-DC44-0A47-8604-1449E30F944F}
  9
$EXTNAMES
290
     1
  9
$PSVPSCALE
 40
0.0
  9
$OLESTARTUP
290
     0
  9
$SORTENTS
280
   127
  9
$INDEXCTL
280
     0
  9
$HIDETEXT
280
     1
  9
$XCLIPFRAME
280
     2
  9
$HALOGAP
280
     0
  9
$OBSCOLOR
 70
   257
  9
$OBSLTYPE
280
     0
  9
$INTERSECTIONDISPLAY
280
     0
  9
$INTERSECTIONCOLOR
 70
   257
  9
$DIMASSOC
280
     2
  9
$PROJECTNAME
  1

  9
$CAMERADISPLAY
290
     0
  9
$LENSLENGTH
 40
50.0
  9
$CAMERAHEIGHT
 40
0.0
  9
$STEPSPERSEC
 40
2.0
  9
$STEPSIZE
 40
6.0
  9
$3DDWFPREC
 40
2.0
  9
$PSOLWIDTH
 40
0.25
  9
$PSOLHEIGHT
 40
4.0
  9
$LOFTANG1
 40
1.570796326794896
  9
$LOFTANG2
 40
1.570796326794896
  9
$LOFTMAG1
 40
0.0
  9
$LOFTMAG2
 40
0.0
  9
$LOFTPARAM
 70
     7
  9
$LOFTNORMALS
280
     1
  9
$LATITUDE
 40
37.795
  9
$LONGITUDE
 40
-122.394
  9
$NORTHDIRECTION
 40
0.0
  9
$TIMEZONE
 70
 -8000
  9
$LIGHTGLYPHDISPLAY
280
     1
  9
$TILEMODELIGHTSYNCH
280
     1
  9
$CMATERIAL
347
11
  9
$SOLIDHIST
280
     0
  9
$SHOWHIST
280
     1
  9
$DWFFRAME
280
     2
  9
$DGNFRAME
280
     0
  9
$REALWORLDSCALE
290
     1
  9
$INTERFERECOLOR
 62
     1
  9
$INTERFEREOBJVS
345
33
  9
$INTERFEREVPVS
346
30
  9
$CSHADOW
280
     0
  9
$SHADOWPLANELOCATION
 40
0.0
  0
ENDSEC
  0
SECTION
  2
CLASSES
  0
CLASS
  1
ACDBDICTIONARYWDFLT
  2
AcDbDictionaryWithDefault
  3
ObjectDBX Classes
 90
        0
 91
        1
280
     0
281
     0
  0
CLASS
  1
MATERIAL
  2
AcDbMaterial
  3
ObjectDBX Classes
 90
     1153
 91
        3
280
     0
281
     0
  0
CLASS
  1
VISUALSTYLE
  2
AcDbVisualStyle
  3
ObjectDBX Classes
 90
     4095
 91
       24
280
     0
281
     0
  0
CLASS
  1
SCALE
  2
AcDbScale
  3
ObjectDBX Classes
 90
     1153
 91
       17
280
     0
281
     0
  0
CLASS
  1
TABLESTYLE
  2
AcDbTableStyle
  3
ObjectDBX Classes
 90
     4095
 91
        1
280
     0
281
     0
  0
CLASS
  1
MLEADERSTYLE
  2
AcDbMLeaderStyle
  3
ACDB_MLEADERSTYLE_CLASS
 90
     4095
 91
        1
280
     0
281
     0
  0
CLASS
  1
ACDBSECTIONVIEWSTYLE
  2
AcDbSectionViewStyle
  3
ObjectDBX Classes
 90
     1025
 91
        1
280
     0
281
     0
  0
CLASS
  1
ACDBDETAILVIEWSTYLE
  2
AcDbDetailViewStyle
  3
ObjectDBX Classes
 90
     1025
 91
        1
280
     0
281
     0
  0
CLASS
  1
DICTIONARYVAR
  2
AcDbDictionaryVar
  3
ObjectDBX Classes
 90
        0
 91
        5
280
     0
281
     0
  0
CLASS
  1
CELLSTYLEMAP
  2
AcDbCellStyleMap
  3
ObjectDBX Classes
 90
     1152
 91
        1
280
     0
281
     0
  0
ENDSEC
  0
SECTION
  2
TABLES
  0
TABLE
  2
VPORT
  5
8
330
0
100
AcDbSymbolTable
 70
     1
  0
VPORT
  5
57
330
8
100
AcDbSymbolTableRecord
100
AcDbViewportTableRecord
  2
*Active
 70
     0
 10
0.0
 20
0.0
 11
1.0
 21
1.0
 12
0.0
 22
0.0
 13
0.0
 23
0.0
 14
1.0
 24
1.0
 15
0.0
 25
0.0
 16
0.0
 26
0.0
 36
1.0
 17
104.9999999737534
 27
-148.4999999628701
 37
0.0
 40
302.939999924255
 41
0.7070707070707534
 42
50.0
 43
0.0
 44
0.0
 50
0.0
 51
0.0
 71
     0
 72
   100
 73
     1
 74
     0
 75
     1
 76
     0
 77
     0
 78
     0
281
     0
 65
     1
110
0.0
120
0.0
130
0.0
111
1.0
121
0.0
131
0.0
112
0.0
122
1.0
132
0.0
 79
     0
146
0.0
 60
     3
 61
     5
292
     1
282
     1
141
0.0
142
0.0
 63
   250
421
  3355443
  0
ENDTAB
  0
TABLE
  2
LTYPE
  5
5
330
0
100
AcDbSymbolTable
 70
     3
  0
LTYPE
  5
5B
330
5
100
AcDbSymbolTableRecord
100
AcDbLinetypeTableRecord
  2
ByBlock
 70
     0
  3

 72
    65
 73
     0
 40
0.0
  0
LTYPE
  5
5C
330
5
100
AcDbSymbolTableRecord
100
AcDbLinetypeTableRecord
  2
ByLayer
 70
     0
  3

 72
    65
 73
     0
 40
0.0
  0
LTYPE
  5
5D
330
5
100
AcDbSymbolTableRecord
100
AcDbLinetypeTableRecord
  2
Continuous
 70
     0
  3
Solid line
 72
    65
 73
     0
 40
0.0
  0
LTYPE
  5
7A
330
5
100
AcDbSymbolTableRecord
100
AcDbLinetypeTableRecord
  2
AI-Linetype-0
 70
     0
  3
Adobe Illustrator Linetype No. 0
 72
    65
 73
     2
 40
1.411111110758333
 49
0.7055555553791667
 74
     0
 49
-0.7055555553791667
 74
     0
  0
LTYPE
  5
7C
330
5
100
AcDbSymbolTableRecord
100
AcDbLinetypeTableRecord
  2
AI-Linetype-1
 70
     0
  3
Adobe Illustrator Linetype No. 1
 72
    65
 73
     2
 40
1.411111110758333
 49
0.7055555553791667
 74
     0
 49
-0.7055555553791667
 74
     0
  0
ENDTAB
  0
TABLE
  2
LAYER
  5
2
330
0
100
AcDbSymbolTable
 70
     2
  0
LAYER
  5
54
330
2
100
AcDbSymbolTableRecord
100
AcDbLayerTableRecord
  2
0
 70
     0
 62
     7
  6
Continuous
370
    -3
390
F
347
21
  0
LAYER
  5
78
330
2
100
AcDbSymbolTableRecord
100
AcDbLayerTableRecord
  2
レイヤー 1
 70
     0
 62
     7
  6
Continuous
370
     0
390
F
347
21
  0
ENDTAB
  0
TABLE
  2
STYLE
  5
3
330
0
100
AcDbSymbolTable
 70
     2
  0
STYLE
  5
55
330
3
100
AcDbSymbolTableRecord
100
AcDbTextStyleTableRecord
  2
Standard
 70
     0
 40
0.0
 41
1.0
 50
0.0
 71
     0
 42
0.2
  3
txt
  4

  0
STYLE
  5
5A
330
3
100
AcDbSymbolTableRecord
100
AcDbTextStyleTableRecord
  2
Annotative
 70
     0
 40
0.0
 41
1.0
 50
0.0
 71
     0
 42
0.2
  3
txt
  4

1001
AcadAnnotative
1000
AnnotativeData
1002
{
1070
     1
1070
     1
1002
}
  0
ENDTAB
  0
TABLE
  2
VIEW
  5
6
330
0
100
AcDbSymbolTable
 70
     0
  0
ENDTAB
  0
TABLE
  2
UCS
  5
7
330
0
100
AcDbSymbolTable
 70
     0
  0
ENDTAB
  0
TABLE
  2
APPID
  5
9
330
0
100
AcDbSymbolTable
 70
     2
  0
APPID
  5
56
330
9
100
AcDbSymbolTableRecord
100
AcDbRegAppTableRecord
  2
ACAD
 70
     0
  0
APPID
  5
5E
330
9
100
AcDbSymbolTableRecord
100
AcDbRegAppTableRecord
  2
AcadAnnotative
 70
     0
  0
ENDTAB
  0
TABLE
  2
DIMSTYLE
  5
A
330
0
100
AcDbSymbolTable
 70
     2
100
AcDbDimStyleTable
 71
     0
  0
DIMSTYLE
105
58
330
A
100
AcDbSymbolTableRecord
100
AcDbDimStyleTableRecord
  2
Standard
 70
     0
340
55
  0
DIMSTYLE
105
59
330
A
100
AcDbSymbolTableRecord
100
AcDbDimStyleTableRecord
  2
Annotative
 70
     0
340
55
1001
AcadAnnotative
1000
AnnotativeData
1002
{
1070
     1
1070
     1
1002
}
  0
ENDTAB
  0
TABLE
  2
BLOCK_RECORD
  5
1
330
0
100
AcDbSymbolTable
 70
    19
  0
BLOCK_RECORD
  5
70
330
1
100
AcDbSymbolTableRecord
100
AcDbBlockTableRecord
  2
*Model_Space
340
73
 70
     0
280
     1
281
     0
  0
BLOCK_RECORD
  5
6C
330
1
100
AcDbSymbolTableRecord
100
AcDbBlockTableRecord
  2
*Paper_Space
340
6F
 70
     0
280
     1
281
     0
  0
BLOCK_RECORD
  5
74
330
1
100
AcDbSymbolTableRecord
100
AcDbBlockTableRecord
  2
*Paper_Space0
340
77
 70
     0
280
     1
281
     0
  0
BLOCK_RECORD
  5
7D
330
1
100
AcDbSymbolTableRecord
100
AcDbBlockTableRecord
  2
Block_0
340
0
102
{BLKREFS
331
7E
102
}
 70
     0
280
     1
281
     0
  0
BLOCK_RECORD
  5
EB
330
1
100
AcDbSymbolTableRecord
100
AcDbBlockTableRecord
  2
Block_1
340
0
102
{BLKREFS
331
EC
102
}
 70
     0
280
     1
281
     0
  0
BLOCK_RECORD
  5
EF
330
1
100
AcDbSymbolTableRecord
100
AcDbBlockTableRecord
  2
Block_2
340
0
102
{BLKREFS
331
F0
102
}
 70
     0
280
     1
281
     0
  0
BLOCK_RECORD
  5
FC
330
1
100
AcDbSymbolTableRecord
100
AcDbBlockTableRecord
  2
Block_3
340
0
102
{BLKREFS
331
FD
102
}
 70
     0
280
     1
281
     0
  0
BLOCK_RECORD
  5
100
330
1
100
AcDbSymbolTableRecord
100
AcDbBlockTableRecord
  2
Block_4
340
0
102
{BLKREFS
331
101
102
}
 70
     0
280
     1
281
     0
  0
BLOCK_RECORD
  5
10A
330
1
100
AcDbSymbolTableRecord
100
AcDbBlockTableRecord
  2
Block_5
340
0
102
{BLKREFS
331
10B
102
}
 70
     0
280
     1
281
     0
  0
BLOCK_RECORD
  5
113
330
1
100
AcDbSymbolTableRecord
100
AcDbBlockTableRecord
  2
Block_6
340
0
102
{BLKREFS
331
114
102
}
 70
     0
280
     1
281
     0
  0
BLOCK_RECORD
  5
117
330
1
100
AcDbSymbolTableRecord
100
AcDbBlockTableRecord
  2
Block_7
340
0
102
{BLKREFS
331
118
102
}
 70
     0
280
     1
281
     0
  0
BLOCK_RECORD
  5
122
330
1
100
AcDbSymbolTableRecord
100
AcDbBlockTableRecord
  2
Block_8
340
0
102
{BLKREFS
331
123
102
}
 70
     0
280
     1
281
     0
  0
BLOCK_RECORD
  5
126
330
1
100
AcDbSymbolTableRecord
100
AcDbBlockTableRecord
  2
Block_9
340
0
102
{BLKREFS
331
127
102
}
 70
     0
280
     1
281
     0
  0
BLOCK_RECORD
  5
134
330
1
100
AcDbSymbolTableRecord
100
AcDbBlockTableRecord
  2
Block_10
340
0
102
{BLKREFS
331
135
102
}
 70
     0
280
     1
281
     0
  0
BLOCK_RECORD
  5
138
330
1
100
AcDbSymbolTableRecord
100
AcDbBlockTableRecord
  2
Block_11
340
0
102
{BLKREFS
331
139
102
}
 70
     0
280
     1
281
     0
  0
BLOCK_RECORD
  5
141
330
1
100
AcDbSymbolTableRecord
100
AcDbBlockTableRecord
  2
Block_12
340
0
102
{BLKREFS
331
142
102
}
 70
     0
280
     1
281
     0
  0
BLOCK_RECORD
  5
147
330
1
100
AcDbSymbolTableRecord
100
AcDbBlockTableRecord
  2
Block_13
340
0
102
{BLKREFS
331
148
102
}
 70
     0
280
     1
281
     0
  0
BLOCK_RECORD
  5
14E
330
1
100
AcDbSymbolTableRecord
100
AcDbBlockTableRecord
  2
Block_14
340
0
102
{BLKREFS
331
14F
102
}
 70
     0
280
     1
281
     0
  0
BLOCK_RECORD
  5
152
330
1
100
AcDbSymbolTableRecord
100
AcDbBlockTableRecord
  2
Block_15
340
0
102
{BLKREFS
331
153
102
}
 70
     0
280
     1
281
     0
  0
BLOCK_RECORD
  5
166
330
1
100
AcDbSymbolTableRecord
100
AcDbBlockTableRecord
  2
Block_16
340
0
102
{BLKREFS
331
167
102
}
 70
     0
280
     1
281
     0
  0
BLOCK_RECORD
  5
16A
330
1
100
AcDbSymbolTableRecord
100
AcDbBlockTableRecord
  2
Block_17
340
0
102
{BLKREFS
331
16B
102
}
 70
     0
280
     1
281
     0
  0
ENDTAB
  0
ENDSEC
  0
SECTION
  2
BLOCKS
  0
BLOCK
  5
71
330
70
100
AcDbEntity
  8
0
100
AcDbBlockBegin
  2
*Model_Space
 70
     0
 10
0.0
 20
0.0
 30
0.0
  3
*Model_Space
  1

  0
ENDBLK
  5
72
330
70
100
AcDbEntity
  8
0
100
AcDbBlockEnd
  0
BLOCK
  5
6D
330
6C
100
AcDbEntity
 67
     1
  8
0
100
AcDbBlockBegin
  2
*Paper_Space
 70
     0
 10
0.0
 20
0.0
 30
0.0
  3
*Paper_Space
  1

  0
ENDBLK
  5
6E
330
6C
100
AcDbEntity
 67
     1
  8
0
100
AcDbBlockEnd
  0
BLOCK
  5
75
330
74
100
AcDbEntity
 67
     1
  8
0
100
AcDbBlockBegin
  2
*Paper_Space0
 70
     0
 10
0.0
 20
0.0
 30
0.0
  3
*Paper_Space0
  1

  0
ENDBLK
  5
76
330
74
100
AcDbEntity
 67
     1
  8
0
100
AcDbBlockEnd
  0
BLOCK
  5
7F
330
7D
100
AcDbEntity
  8
0
100
AcDbBlockBegin
  2
Block_0
 70
     0
 10
0.0
 20
0.0
 30
0.0
  3
Block_0
  1

  0
LINE
  5
81
330
7D
100
AcDbEntity
  8
レイヤー 1
 62
    18
420
        0
370
     9
100
AcDbLine
 10
126.2655453216673
 20
-148.5335225823453
 30
0.0
 11
127.0768636343021
 21
-149.1178284155327
 31
0.0
  0
LINE
  5
82
330
7D
100
AcDbEntity
  8
レイヤー 1
 62
    18
420
        0
370
     9
100
AcDbLine
 10
126.2655453216673
 20
-148.5335225823453
 30
0.0
 11
128.8431866447951
 21
-151.6906367482227
 31
0.0
  0
LINE
  5
83
330
7D
100
AcDbEntity
  8
レイヤー 1
 62
    18
420
        0
370
     9
100
AcDbLine
 10
126.2655453216673
 20
-148.5335225823453
 30
0.0
 11
126.6758611445326
 21
-149.4454531376725
 31
0.0
  0
ENDBLK
  5
80
330
7D
100
AcDbEntity
  8
0
100
AcDbBlockEnd
  0
BLOCK
  5
ED
330
EB
100
AcDbEntity
  8
0
100
AcDbBlockBegin
  2
Block_1
 70
     0
 10
0.0
 20
0.0
 30
0.0
  3
Block_1
  1

  0
INSERT
  5
F0
330
EB
100
AcDbEntity
  8
レイヤー 1
100
AcDbBlockReference
  2
Block_2
 10
0.0
 20
0.0
 30
0.0
  0
ENDBLK
  5
EE
330
EB
100
AcDbEntity
  8
0
100
AcDbBlockEnd
  0
BLOCK
  5
F1
330
EF
100
AcDbEntity
  8
0
100
AcDbBlockBegin
  2
Block_2
 70
     0
 10
0.0
 20
0.0
 30
0.0
  3
Block_2
  1

  0
SPLINE
  5
F3
330
EF
100
AcDbEntity
  8
レイヤー 1
100
AcDbSpline
210
0.0
220
0.0
230
1.0
 70
     9
 71
     3
 72
    17
 73
    13
 74
     0
 42
0.0000000001
 43
0.0000000001
 40
0.0
 40
0.0
 40
0.0
 40
0.0
 40
1.0
 40
1.0
 40
1.0
 40
2.0
 40
2.0
 40
2.0
 40
3.0
 40
3.0
 40
3.0
 40
4.0
 40
4.0
 40
4.0
 40
4.0
 10
73.09562443919137
 20
-147.8119940494185
 30
0.0
 10
73.09562443919137
 20
-148.0617634720991
 30
0.0
 10
73.37898354285318
 20
-148.10827226115
 30
0.0
 10
73.72383760092668
 20
-148.10827226115
 30
0.0
 10
74.0433702071836
 20
-148.10827226115
 30
0.0
 10
74.35222301743626
 20
-148.0720987585549
 30
0.0
 10
74.35222301743626
 20
-147.8119940494185
 30
0.0
 10
74.35222301743626
 20
-147.5642916840291
 30
0.0
 10
74.07075871629134
 20
-147.515715837687
 30
0.0
 10
73.72383760092668
 20
-147.515715837687
 30
0.0
 10
73.40447724944403
 20
-147.515715837687
 30
0.0
 10
73.09562443919137
 20
-147.5539563975733
 30
0.0
 10
73.09562443919137
 20
-147.8119940494185
 30
0.0
  0
SPLINE
  5
F4
330
EF
100
AcDbEntity
  8
レイヤー 1
100
AcDbSpline
210
0.0
220
0.0
230
1.0
 70
     9
 71
     3
 72
    29
 73
    25
 74
     0
 42
0.0000000001
 43
0.0000000001
 40
0.0
 40
0.0
 40
0.0
 40
0.0
 40
1.0
 40
1.0
 40
1.0
 40
2.0
 40
2.0
 40
2.0
 40
3.0
 40
3.0
 40
3.0
 40
4.0
 40
4.0
 40
4.0
 40
5.0
 40
5.0
 40
5.0
 40
6.0
 40
6.0
 40
6.0
 40
7.0
 40
7.0
 40
7.0
 40
8.0
 40
8.0
 40
8.0
 40
8.0
 10
74.31828882690654
 20
-147.4140855208722
 30
0.0
 10
74.52775063240974
 20
-147.522261519109
 30
0.0
 10
74.54687091235287
 20
-147.6955498220171
 30
0.0
 10
74.54687091235287
 20
-147.8119940494185
 30
0.0
 10
74.54687091235287
 20
-147.9728800085797
 30
0.0
 10
74.500362123302
 20
-148.1144734330235
 30
0.0
 10
74.31828882690654
 20
-148.2095580684163
 30
0.0
 10
74.1238131867642
 20
-148.3132554425224
 30
0.0
 10
73.886790617379
 20
-148.3325479772398
 30
0.0
 10
73.72383760092668
 20
-148.3325479772398
 30
0.0
 10
73.5800048644175
 20
-148.3325479772398
 30
0.0
 10
73.32834063922
 20
-148.3153224998135
 30
0.0
 10
73.12938637494681
 20
-148.2095580684163
 30
0.0
 10
72.92629799609135
 20
-148.101726579728
 30
0.0
 10
72.90304360156591
 20
-147.9408406205669
 30
0.0
 10
72.90304360156591
 20
-147.8119940494185
 30
0.0
 10
72.90304360156591
 20
-147.6531751475485
 30
0.0
 10
72.94748533332563
 20
-147.5095146658136
 30
0.0
 10
73.12938637494681
 20
-147.4140855208722
 30
0.0
 10
73.32196721257229
 20
-147.314866770897
 30
0.0
 10
73.55037704324435
 20
-147.2914401215972
 30
0.0
 10
73.72383760092668
 20
-147.2914401215972
 30
0.0
 10
73.89523110131786
 20
-147.2914401215972
 30
0.0
 10
74.12588024405533
 20
-147.3127997136058
 30
0.0
 10
74.31828882690654
 20
-147.4140855208722
 30
0.0
  0
HATCH
  5
F5
330
EF
100
AcDbEntity
  8
レイヤー 1
 62
    18
420
        0
440
 33554687
100
AcDbHatch
 10
0.0
 20
0.0
 30
0.0
210
0.0
220
0.0
230
1.0
  2
SOLID
 70
     1
 71
     1
 91
        2
 92
        1
 93
        1
 72
     4
 94
        3
 73
     0
 74
     0
 95
       17
 96
       13
 40
0.0
 40
0.0
 40
0.0
 40
0.0
 40
1.0
 40
1.0
 40
1.0
 40
2.0
 40
2.0
 40
2.0
 40
3.0
 40
3.0
 40
3.0
 40
4.0
 40
4.0
 40
4.0
 40
4.0
 10
73.09562443919137
 20
-147.8119940494185
 10
73.09562443919137
 20
-148.0617634720991
 10
73.37898354285318
 20
-148.10827226115
 10
73.72383760092668
 20
-148.10827226115
 10
74.0433702071836
 20
-148.10827226115
 10
74.35222301743626
 20
-148.0720987585549
 10
74.35222301743626
 20
-147.8119940494185
 10
74.35222301743626
 20
-147.5642916840291
 10
74.07075871629134
 20
-147.515715837687
 10
73.72383760092668
 20
-147.515715837687
 10
73.40447724944403
 20
-147.515715837687
 10
73.09562443919137
 20
-147.5539563975733
 10
73.09562443919137
 20
-147.8119940494185
 97
        0
 97
        1
330
F3
 92
        1
 93
        1
 72
     4
 94
        3
 73
     0
 74
     0
 95
       29
 96
       25
 40
0.0
 40
0.0
 40
0.0
 40
0.0
 40
1.0
 40
1.0
 40
1.0
 40
2.0
 40
2.0
 40
2.0
 40
3.0
 40
3.0
 40
3.0
 40
4.0
 40
4.0
 40
4.0
 40
5.0
 40
5.0
 40
5.0
 40
6.0
 40
6.0
 40
6.0
 40
7.0
 40
7.0
 40
7.0
 40
8.0
 40
8.0
 40
8.0
 40
8.0
 10
74.31828882690654
 20
-147.4140855208722
 10
74.52775063240974
 20
-147.522261519109
 10
74.54687091235287
 20
-147.6955498220171
 10
74.54687091235287
 20
-147.8119940494185
 10
74.54687091235287
 20
-147.9728800085797
 10
74.500362123302
 20
-148.1144734330235
 10
74.31828882690654
 20
-148.2095580684163
 10
74.1238131867642
 20
-148.3132554425224
 10
73.886790617379
 20
-148.3325479772398
 10
73.72383760092668
 20
-148.3325479772398
 10
73.5800048644175
 20
-148.3325479772398
 10
73.32834063922
 20
-148.3153224998135
 10
73.12938637494681
 20
-148.2095580684163
 10
72.92629799609135
 20
-148.101726579728
 10
72.90304360156591
 20
-147.9408406205669
 10
72.90304360156591
 20
-147.8119940494185
 10
72.90304360156591
 20
-147.6531751475485
 10
72.94748533332563
 20
-147.5095146658136
 10
73.12938637494681
 20
-147.4140855208722
 10
73.32196721257229
 20
-147.314866770897
 10
73.55037704324435
 20
-147.2914401215972
 10
73.72383760092668
 20
-147.2914401215972
 10
73.89523110131786
 20
-147.2914401215972
 10
74.12588024405533
 20
-147.3127997136058
 10
74.31828882690654
 20
-147.4140855208722
 97
        0
 97
        1
330
F4
 75
     2
 76
     1
 98
        1
 10
0.0
 20
0.0
450
        0
451
        0
460
0.0
461
0.0
452
        0
462
0.0
453
        0
470

  0
SPLINE
  5
F6
330
EF
100
AcDbEntity
  8
レイヤー 1
100
AcDbSpline
210
0.0
220
0.0
230
1.0
 70
    11
 71
     3
 72
    17
 73
    13
 74
     0
 42
0.0000000001
 43
0.0000000001
 40
0.0
 40
0.0
 40
0.0
 40
0.0
 40
1.0
 40
1.0
 40
1.0
 40
2.0
 40
2.0
 40
2.0
 40
3.0
 40
3.0
 40
3.0
 40
4.0
 40
4.0
 40
4.0
 40
4.0
 10
74.49605575394542
 20
-147.0750881251236
 30
0.0
 10
74.49605575394542
 20
-147.0750881251236
 30
0.0
 10
74.24439152874794
 20
-147.0750881251236
 30
0.0
 10
74.24439152874794
 20
-147.0750881251236
 30
0.0
 10
74.24439152874794
 20
-147.0750881251236
 30
0.0
 10
74.24439152874794
 20
-146.8232516451518
 30
0.0
 10
74.24439152874794
 20
-146.8232516451518
 30
0.0
 10
74.24439152874794
 20
-146.8232516451518
 30
0.0
 10
74.49605575394542
 20
-146.8232516451518
 30
0.0
 10
74.49605575394542
 20
-146.8232516451518
 30
0.0
 10
74.49605575394542
 20
-146.8232516451518
 30
0.0
 10
74.49605575394542
 20
-147.0750881251236
 30
0.0
 10
74.49605575394542
 20
-147.0750881251236
 30
0.0
  0
HATCH
  5
F7
330
EF
100
AcDbEntity
  8
レイヤー 1
 62
    18
420
        0
440
 33554687
100
AcDbHatch
 10
0.0
 20
0.0
 30
0.0
210
0.0
220
0.0
230
1.0
  2
SOLID
 70
     1
 71
     1
 91
        1
 92
        1
 93
        1
 72
     4
 94
        3
 73
     0
 74
     0
 95
       17
 96
       13
 40
0.0
 40
0.0
 40
0.0
 40
0.0
 40
1.0
 40
1.0
 40
1.0
 40
2.0
 40
2.0
 40
2.0
 40
3.0
 40
3.0
 40
3.0
 40
4.0
 40
4.0
 40
4.0
 40
4.0
 10
74.49605575394542
 20
-147.0750881251236
 10
74.49605575394542
 20
-147.0750881251236
 10
74.24439152874794
 20
-147.0750881251236
 10
74.24439152874794
 20
-147.0750881251236
 10
74.24439152874794
 20
-147.0750881251236
 10
74.24439152874794
 20
-146.8232516451518
 10
74.24439152874794
 20
-146.8232516451518
 10
74.24439152874794
 20
-146.8232516451518
 10
74.49605575394542
 20
-146.8232516451518
 10
74.49605575394542
 20
-146.8232516451518
 10
74.49605575394542
 20
-146.8232516451518
 10
74.49605575394542
 20
-147.0750881251236
 10
74.49605575394542
 20
-147.0750881251236
 97
        0
 97
        1
330
F6
 75
     2
 76
     1
 98
        1
 10
0.0
 20
0.0
450
        0
451
        0
460
0.0
461
0.0
452
        0
462
0.0
453
        0
470

  0
SPLINE
  5
F8
330
EF
100
AcDbEntity
  8
レイヤー 1
100
AcDbSpline
210
0.0
220
0.0
230
1.0
 70
     9
 71
     3
 72
    53
 73
    49
 74
     0
 42
0.0000000001
 43
0.0000000001
 40
0.0
 40
0.0
 40
0.0
 40
0.0
 40
1.0
 40
1.0
 40
1.0
 40
2.0
 40
2.0
 40
2.0
 40
3.0
 40
3.0
 40
3.0
 40
4.0
 40
4.0
 40
4.0
 40
5.0
 40
5.0
 40
5.0
 40
6.0
 40
6.0
 40
6.0
 40
7.0
 40
7.0
 40
7.0
 40
8.0
 40
8.0
 40
8.0
 40
9.0
 40
9.0
 40
9.0
 40
10.0
 40
10.0
 40
10.0
 40
11.0
 40
11.0
 40
11.0
 40
12.0
 40
12.0
 40
12.0
 40
13.0
 40
13.0
 40
13.0
 40
14.0
 40
14.0
 40
14.0
 40
15.0
 40
15.0
 40
15.0
 40
16.0
 40
16.0
 40
16.0
 40
16.0
 10
74.54687091235287
 20
-146.1059827651228
 30
0.0
 10
74.54687091235287
 20
-146.184186432638
 30
0.0
 10
74.52998994447515
 20
-146.2858167494528
 30
0.0
 10
74.46642793277229
 20
-146.3874470662677
 30
0.0
 10
74.35635713201856
 20
-146.5607353691758
 30
0.0
 10
74.2252712488048
 20
-146.5820949611843
 30
0.0
 10
74.11743976011648
 20
-146.6010429863532
 30
0.0
 10
74.11743976011648
 20
-146.6010429863532
 30
0.0
 10
74.11743976011648
 20
-146.3788343275546
 30
0.0
 10
74.11743976011648
 20
-146.3788343275546
 30
0.0
 10
74.31622176961539
 20
-146.3240573093391
 30
0.0
 10
74.34584959078854
 20
-146.1969332859334
 30
0.0
 10
74.34584959078854
 20
-146.1039157078316
 30
0.0
 10
74.34584959078854
 20
-145.964389340679
 30
0.0
 10
74.24645858603908
 20
-145.812116120231
 30
0.0
 10
74.01374238601047
 20
-145.812116120231
 30
0.0
 10
73.75777179145639
 20
-145.812116120231
 30
0.0
 10
73.68800860788008
 20
-145.991950104561
 30
0.0
 10
73.68800860788008
 20
-146.1125284465448
 30
0.0
 10
73.68800860788008
 20
-146.1442233250091
 30
0.0
 10
73.68800860788008
 20
-146.2858167494528
 30
0.0
 10
73.81702743380269
 20
-146.3747002129723
 30
0.0
 10
73.81702743380269
 20
-146.3747002129723
 30
0.0
 10
73.79790715385955
 20
-146.55040008272
 30
0.0
 10
73.79790715385955
 20
-146.55040008272
 30
0.0
 10
73.79790715385955
 20
-146.55040008272
 30
0.0
 10
72.9517917026822
 20
-146.4298217407363
 30
0.0
 10
72.9517917026822
 20
-146.4298217407363
 30
0.0
 10
72.9517917026822
 20
-146.4298217407363
 30
0.0
 10
72.9517917026822
 20
-145.6512301610698
 30
0.0
 10
72.9517917026822
 20
-145.6512301610698
 30
0.0
 10
72.9517917026822
 20
-145.6512301610698
 30
0.0
 10
73.14643959759881
 20
-145.6512301610698
 30
0.0
 10
73.14643959759881
 20
-145.6512301610698
 30
0.0
 10
73.14643959759881
 20
-145.6512301610698
 30
0.0
 10
73.14643959759881
 20
-146.266868724284
 30
0.0
 10
73.14643959759881
 20
-146.266868724284
 30
0.0
 10
73.14643959759881
 20
-146.266868724284
 30
0.0
 10
73.56949732318749
 20
-146.3323255385037
 30
0.0
 10
73.56949732318749
 20
-146.3323255385037
 30
0.0
 10
73.53556313265778
 20
-146.2710028388663
 30
0.0
 10
73.49542777025462
 20
-146.1886650567688
 30
0.0
 10
73.49542777025462
 20
-146.0701537720762
 30
0.0
 10
73.49542777025462
 20
-145.8162502348133
 30
0.0
 10
73.68163518123236
 20
-145.5792276654281
 30
0.0
 10
73.99462210606732
 20
-145.5792276654281
 30
0.0
 10
74.3120876550331
 20
-145.5792276654281
 30
0.0
 10
74.54687091235287
 20
-145.8035033815179
 30
0.0
 10
74.54687091235287
 20
-146.1059827651228
 30
0.0
  0
HATCH
  5
F9
330
EF
100
AcDbEntity
  8
レイヤー 1
 62
    18
420
        0
440
 33554687
100
AcDbHatch
 10
0.0
 20
0.0
 30
0.0
210
0.0
220
0.0
230
1.0
  2
SOLID
 70
     1
 71
     1
 91
        1
 92
        1
 93
        1
 72
     4
 94
        3
 73
     0
 74
     0
 95
       53
 96
       49
 40
0.0
 40
0.0
 40
0.0
 40
0.0
 40
1.0
 40
1.0
 40
1.0
 40
2.0
 40
2.0
 40
2.0
 40
3.0
 40
3.0
 40
3.0
 40
4.0
 40
4.0
 40
4.0
 40
5.0
 40
5.0
 40
5.0
 40
6.0
 40
6.0
 40
6.0
 40
7.0
 40
7.0
 40
7.0
 40
8.0
 40
8.0
 40
8.0
 40
9.0
 40
9.0
 40
9.0
 40
10.0
 40
10.0
 40
10.0
 40
11.0
 40
11.0
 40
11.0
 40
12.0
 40
12.0
 40
12.0
 40
13.0
 40
13.0
 40
13.0
 40
14.0
 40
14.0
 40
14.0
 40
15.0
 40
15.0
 40
15.0
 40
16.0
 40
16.0
 40
16.0
 40
16.0
 10
74.54687091235287
 20
-146.1059827651228
 10
74.54687091235287
 20
-146.184186432638
 10
74.52998994447515
 20
-146.2858167494528
 10
74.46642793277229
 20
-146.3874470662677
 10
74.35635713201856
 20
-146.5607353691758
 10
74.2252712488048
 20
-146.5820949611843
 10
74.11743976011648
 20
-146.6010429863532
 10
74.11743976011648
 20
-146.6010429863532
 10
74.11743976011648
 20
-146.3788343275546
 10
74.11743976011648
 20
-146.3788343275546
 10
74.31622176961539
 20
-146.3240573093391
 10
74.34584959078854
 20
-146.1969332859334
 10
74.34584959078854
 20
-146.1039157078316
 10
74.34584959078854
 20
-145.964389340679
 10
74.24645858603908
 20
-145.812116120231
 10
74.01374238601047
 20
-145.812116120231
 10
73.75777179145639
 20
-145.812116120231
 10
73.68800860788008
 20
-145.991950104561
 10
73.68800860788008
 20
-146.1125284465448
 10
73.68800860788008
 20
-146.1442233250091
 10
73.68800860788008
 20
-146.2858167494528
 10
73.81702743380269
 20
-146.3747002129723
 10
73.81702743380269
 20
-146.3747002129723
 10
73.79790715385955
 20
-146.55040008272
 10
73.79790715385955
 20
-146.55040008272
 10
73.79790715385955
 20
-146.55040008272
 10
72.9517917026822
 20
-146.4298217407363
 10
72.9517917026822
 20
-146.4298217407363
 10
72.9517917026822
 20
-146.4298217407363
 10
72.9517917026822
 20
-145.6512301610698
 10
72.9517917026822
 20
-145.6512301610698
 10
72.9517917026822
 20
-145.6512301610698
 10
73.14643959759881
 20
-145.6512301610698
 10
73.14643959759881
 20
-145.6512301610698
 10
73.14643959759881
 20
-145.6512301610698
 10
73.14643959759881
 20
-146.266868724284
 10
73.14643959759881
 20
-146.266868724284
 10
73.14643959759881
 20
-146.266868724284
 10
73.56949732318749
 20
-146.3323255385037
 10
73.56949732318749
 20
-146.3323255385037
 10
73.53556313265778
 20
-146.2710028388663
 10
73.49542777025462
 20
-146.1886650567688
 10
73.49542777025462
 20
-146.0701537720762
 10
73.49542777025462
 20
-145.8162502348133
 10
73.68163518123236
 20
-145.5792276654281
 10
73.99462210606732
 20
-145.5792276654281
 10
74.3120876550331
 20
-145.5792276654281
 10
74.54687091235287
 20
-145.8035033815179
 10
74.54687091235287
 20
-146.1059827651228
 97
        0
 97
        1
330
F8
 75
     2
 76
     1
 98
        1
 10
0.0
 20
0.0
450
        0
451
        0
460
0.0
461
0.0
452
        0
462
0.0
453
        0
470

  0
ENDBLK
  5
F2
330
EF
100
AcDbEntity
  8
0
100
AcDbBlockEnd
  0
BLOCK
  5
FE
330
FC
100
AcDbEntity
  8
0
100
AcDbBlockBegin
  2
Block_3
 70
     0
 10
0.0
 20
0.0
 30
0.0
  3
Block_3
  1

  0
INSERT
  5
101
330
FC
100
AcDbEntity
  8
レイヤー 1
100
AcDbBlockReference
  2
Block_4
 10
0.0
 20
0.0
 30
0.0
  0
ENDBLK
  5
FF
330
FC
100
AcDbEntity
  8
0
100
AcDbBlockEnd
  0
BLOCK
  5
102
330
100
100
AcDbEntity
  8
0
100
AcDbBlockBegin
  2
Block_4
 70
     0
 10
0.0
 20
0.0
 30
0.0
  3
Block_4
  1

  0
SPLINE
  5
104
330
100
100
AcDbEntity
  8
レイヤー 1
100
AcDbSpline
210
0.0
220
0.0
230
1.0
 70
     9
 71
     3
 72
    44
 73
    40
 74
     0
 42
0.0000000001
 43
0.0000000001
 40
0.0
 40
0.0
 40
0.0
 40
0.0
 40
1.0
 40
1.0
 40
1.0
 40
2.0
 40
2.0
 40
2.0
 40
3.0
 40
3.0
 40
3.0
 40
4.0
 40
4.0
 40
4.0
 40
5.0
 40
5.0
 40
5.0
 40
6.0
 40
6.0
 40
6.0
 40
7.0
 40
7.0
 40
7.0
 40
8.0
 40
8.0
 40
8.0
 40
9.0
 40
9.0
 40
9.0
 40
10.0
 40
10.0
 40
10.0
 40
11.0
 40
11.0
 40
11.0
 40
12.0
 40
12.0
 40
12.0
 40
13.0
 40
13.0
 40
13.0
 40
13.0
 10
89.86927759255005
 20
-140.599686651048
 30
0.0
 10
89.651375303108
 20
-140.7583332981437
 30
0.0
 10
89.55818547023199
 20
-140.8324028510766
 30
0.0
 10
89.50960962388995
 20
-140.9762355875858
 30
0.0
 10
89.50960962388995
 20
-140.9762355875858
 30
0.0
 10
90.28802894878216
 20
-140.9762355875858
 30
0.0
 10
90.28802894878216
 20
-140.9762355875858
 30
0.0
 10
90.28802894878216
 20
-140.9762355875858
 30
0.0
 10
90.28802894878216
 20
-141.1813910237324
 30
0.0
 10
90.28802894878216
 20
-141.1813910237324
 30
0.0
 10
90.28802894878216
 20
-141.1813910237324
 30
0.0
 10
89.26001245598362
 20
-141.1813910237324
 30
0.0
 10
89.26001245598362
 20
-141.1813910237324
 30
0.0
 10
89.2917073344479
 20
-140.8237901123635
 30
0.0
 10
89.35716414866766
 20
-140.7455864448483
 30
0.0
 10
89.74232582391859
 20
-140.4472411758257
 30
0.0
 10
89.99829641847265
 20
-140.2484591663267
 30
0.0
 10
90.0637532326924
 20
-140.1807630400416
 30
0.0
 10
90.0637532326924
 20
-140.0433037301801
 30
0.0
 10
90.0637532326924
 20
-139.9247924454875
 30
0.0
 10
89.99192299182494
 20
-139.7935343074995
 30
0.0
 10
89.79520803961717
 20
-139.7935343074995
 30
0.0
 10
89.53493107570656
 20
-139.7935343074995
 30
0.0
 10
89.52649059176769
 20
-140.024183450237
 30
0.0
 10
89.52218422241113
 20
-140.1406276776384
 30
0.0
 10
89.52218422241113
 20
-140.1406276776384
 30
0.0
 10
89.29808076109562
 20
-140.1406276776384
 30
0.0
 10
89.29808076109562
 20
-140.1406276776384
 30
0.0
 10
89.30652124503449
 20
-140.013675909007
 30
0.0
 10
89.31702878626451
 20
-139.9015380509621
 30
0.0
 10
89.39747176584509
 20
-139.7830267662695
 30
0.0
 10
89.50737031182454
 20
-139.6223130618826
 30
0.0
 10
89.69357772280231
 20
-139.5883788713529
 30
0.0
 10
89.81002195020375
 20
-139.5883788713529
 30
0.0
 10
90.0871798819921
 20
-139.5883788713529
 30
0.0
 10
90.29440237542988
 20
-139.7725192250395
 30
0.0
 10
90.29440237542988
 20
-140.0453707874713
 30
0.0
 10
90.29440237542988
 20
-140.2737806181433
 30
0.0
 10
90.1781304028027
 20
-140.3733438776671
 30
0.0
 10
89.86927759255005
 20
-140.599686651048
 30
0.0
  0
HATCH
  5
105
330
100
100
AcDbEntity
  8
レイヤー 1
 62
    18
420
        0
440
 33554687
100
AcDbHatch
 10
0.0
 20
0.0
 30
0.0
210
0.0
220
0.0
230
1.0
  2
SOLID
 70
     1
 71
     1
 91
        1
 92
        1
 93
        1
 72
     4
 94
        3
 73
     0
 74
     0
 95
       44
 96
       40
 40
0.0
 40
0.0
 40
0.0
 40
0.0
 40
1.0
 40
1.0
 40
1.0
 40
2.0
 40
2.0
 40
2.0
 40
3.0
 40
3.0
 40
3.0
 40
4.0
 40
4.0
 40
4.0
 40
5.0
 40
5.0
 40
5.0
 40
6.0
 40
6.0
 40
6.0
 40
7.0
 40
7.0
 40
7.0
 40
8.0
 40
8.0
 40
8.0
 40
9.0
 40
9.0
 40
9.0
 40
10.0
 40
10.0
 40
10.0
 40
11.0
 40
11.0
 40
11.0
 40
12.0
 40
12.0
 40
12.0
 40
13.0
 40
13.0
 40
13.0
 40
13.0
 10
89.86927759255005
 20
-140.599686651048
 10
89.651375303108
 20
-140.7583332981437
 10
89.55818547023199
 20
-140.8324028510766
 10
89.50960962388995
 20
-140.9762355875858
 10
89.50960962388995
 20
-140.9762355875858
 10
90.28802894878216
 20
-140.9762355875858
 10
90.28802894878216
 20
-140.9762355875858
 10
90.28802894878216
 20
-140.9762355875858
 10
90.28802894878216
 20
-141.1813910237324
 10
90.28802894878216
 20
-141.1813910237324
 10
90.28802894878216
 20
-141.1813910237324
 10
89.26001245598362
 20
-141.1813910237324
 10
89.26001245598362
 20
-141.1813910237324
 10
89.2917073344479
 20
-140.8237901123635
 10
89.35716414866766
 20
-140.7455864448483
 10
89.74232582391859
 20
-140.4472411758257
 10
89.99829641847265
 20
-140.2484591663267
 10
90.0637532326924
 20
-140.1807630400416
 10
90.0637532326924
 20
-140.0433037301801
 10
90.0637532326924
 20
-139.9247924454875
 10
89.99192299182494
 20
-139.7935343074995
 10
89.79520803961717
 20
-139.7935343074995
 10
89.53493107570656
 20
-139.7935343074995
 10
89.52649059176769
 20
-140.024183450237
 10
89.52218422241113
 20
-140.1406276776384
 10
89.52218422241113
 20
-140.1406276776384
 10
89.29808076109562
 20
-140.1406276776384
 10
89.29808076109562
 20
-140.1406276776384
 10
89.30652124503449
 20
-140.013675909007
 10
89.31702878626451
 20
-139.9015380509621
 10
89.39747176584509
 20
-139.7830267662695
 10
89.50737031182454
 20
-139.6223130618826
 10
89.69357772280231
 20
-139.5883788713529
 10
89.81002195020375
 20
-139.5883788713529
 10
90.0871798819921
 20
-139.5883788713529
 10
90.29440237542988
 20
-139.7725192250395
 10
90.29440237542988
 20
-140.0453707874713
 10
90.29440237542988
 20
-140.2737806181433
 10
90.1781304028027
 20
-140.3733438776671
 10
89.86927759255005
 20
-140.599686651048
 97
        0
 97
        1
330
104
 75
     2
 76
     1
 98
        1
 10
0.0
 20
0.0
450
        0
451
        0
460
0.0
461
0.0
452
        0
462
0.0
453
        0
470

  0
SPLINE
  5
106
330
100
100
AcDbEntity
  8
レイヤー 1
100
AcDbSpline
210
0.0
220
0.0
230
1.0
 70
    11
 71
     3
 72
    26
 73
    22
 74
     0
 42
0.0000000001
 43
0.0000000001
 40
0.0
 40
0.0
 40
0.0
 40
0.0
 40
1.0
 40
1.0
 40
1.0
 40
2.0
 40
2.0
 40
2.0
 40
3.0
 40
3.0
 40
3.0
 40
4.0
 40
4.0
 40
4.0
 40
5.0
 40
5.0
 40
5.0
 40
6.0
 40
6.0
 40
6.0
 40
7.0
 40
7.0
 40
7.0
 40
7.0
 10
90.90435653109336
 20
-141.1813910237324
 30
0.0
 10
90.90435653109336
 20
-141.1813910237324
 30
0.0
 10
90.90435653109336
 20
-140.0770656659356
 30
0.0
 10
90.90435653109336
 20
-140.0770656659356
 30
0.0
 10
90.90435653109336
 20
-140.0770656659356
 30
0.0
 10
90.57431638360643
 20
-140.0770656659356
 30
0.0
 10
90.57431638360643
 20
-140.0770656659356
 30
0.0
 10
90.57431638360643
 20
-140.0770656659356
 30
0.0
 10
90.57431638360643
 20
-139.9289265600699
 30
0.0
 10
90.57431638360643
 20
-139.9289265600699
 30
0.0
 10
90.90642358838451
 20
-139.9142849042575
 30
0.0
 10
90.95293237743538
 20
-139.7513318878052
 30
0.0
 10
90.98256019860853
 20
-139.6371269724692
 30
0.0
 10
90.98256019860853
 20
-139.6371269724692
 30
0.0
 10
91.12863224718312
 20
-139.6371269724692
 30
0.0
 10
91.12863224718312
 20
-139.6371269724692
 30
0.0
 10
91.12863224718312
 20
-139.6371269724692
 30
0.0
 10
91.12863224718312
 20
-141.1813910237324
 30
0.0
 10
91.12863224718312
 20
-141.1813910237324
 30
0.0
 10
91.12863224718312
 20
-141.1813910237324
 30
0.0
 10
90.90435653109336
 20
-141.1813910237324
 30
0.0
 10
90.90435653109336
 20
-141.1813910237324
 30
0.0
  0
HATCH
  5
107
330
100
100
AcDbEntity
  8
レイヤー 1
 62
    18
420
        0
440
 33554687
100
AcDbHatch
 10
0.0
 20
0.0
 30
0.0
210
0.0
220
0.0
230
1.0
  2
SOLID
 70
     1
 71
     1
 91
        1
 92
        1
 93
        1
 72
     4
 94
        3
 73
     0
 74
     0
 95
       26
 96
       22
 40
0.0
 40
0.0
 40
0.0
 40
0.0
 40
1.0
 40
1.0
 40
1.0
 40
2.0
 40
2.0
 40
2.0
 40
3.0
 40
3.0
 40
3.0
 40
4.0
 40
4.0
 40
4.0
 40
5.0
 40
5.0
 40
5.0
 40
6.0
 40
6.0
 40
6.0
 40
7.0
 40
7.0
 40
7.0
 40
7.0
 10
90.90435653109336
 20
-141.1813910237324
 10
90.90435653109336
 20
-141.1813910237324
 10
90.90435653109336
 20
-140.0770656659356
 10
90.90435653109336
 20
-140.0770656659356
 10
90.90435653109336
 20
-140.0770656659356
 10
90.57431638360643
 20
-140.0770656659356
 10
90.57431638360643
 20
-140.0770656659356
 10
90.57431638360643
 20
-140.0770656659356
 10
90.57431638360643
 20
-139.9289265600699
 10
90.57431638360643
 20
-139.9289265600699
 10
90.90642358838451
 20
-139.9142849042575
 10
90.95293237743538
 20
-139.7513318878052
 10
90.98256019860853
 20
-139.6371269724692
 10
90.98256019860853
 20
-139.6371269724692
 10
91.12863224718312
 20
-139.6371269724692
 10
91.12863224718312
 20
-139.6371269724692
 10
91.12863224718312
 20
-139.6371269724692
 10
91.12863224718312
 20
-141.1813910237324
 10
91.12863224718312
 20
-141.1813910237324
 10
91.12863224718312
 20
-141.1813910237324
 10
90.90435653109336
 20
-141.1813910237324
 10
90.90435653109336
 20
-141.1813910237324
 97
        0
 97
        1
330
106
 75
     2
 76
     1
 98
        1
 10
0.0
 20
0.0
450
        0
451
        0
460
0.0
461
0.0
452
        0
462
0.0
453
        0
470

  0
ENDBLK
  5
103
330
100
100
AcDbEntity
  8
0
100
AcDbBlockEnd
  0
BLOCK
  5
10C
330
10A
100
AcDbEntity
  8
0
100
AcDbBlockBegin
  2
Block_5
 70
     0
 10
0.0
 20
0.0
 30
0.0
  3
Block_5
  1

  0
SPLINE
  5
10E
330
10A
100
AcDbEntity
  8
レイヤー 1
100
AcDbSpline
210
0.0
220
0.0
230
1.0
 70
     9
 71
     3
 72
    17
 73
    13
 74
     0
 42
0.0000000001
 43
0.0000000001
 40
0.0
 40
0.0
 40
0.0
 40
0.0
 40
1.0
 40
1.0
 40
1.0
 40
2.0
 40
2.0
 40
2.0
 40
3.0
 40
3.0
 40
3.0
 40
4.0
 40
4.0
 40
4.0
 40
4.0
 10
74.41836885075305
 20
-150.1338161517026
 30
0.0
 10
74.41836885075305
 20
-150.3959879181302
 30
0.0
 10
74.62989771354739
 20
-150.4338839684679
 30
0.0
 10
74.74616968617457
 20
-150.4338839684679
 30
0.0
 10
74.92186955592231
 20
-150.4338839684679
 30
0.0
 10
75.08465031760036
 20
-150.338799333075
 30
0.0
 10
75.08465031760036
 20
-150.1548312341627
 30
0.0
 10
75.08465031760036
 20
-150.0342528921789
 30
0.0
 10
75.02539467525408
 20
-149.8585530224312
 30
0.0
 10
74.73979625952686
 20
-149.8585530224312
 30
0.0
 10
74.51569279821136
 20
-149.8585530224312
 30
0.0
 10
74.41836885075305
 20
-149.9980793895838
 30
0.0
 10
74.41836885075305
 20
-150.1338161517026
 30
0.0
  0
SPLINE
  5
10F
330
10A
100
AcDbEntity
  8
レイヤー 1
100
AcDbSpline
210
0.0
220
0.0
230
1.0
 70
     9
 71
     3
 72
    32
 73
    28
 74
     0
 42
0.0000000001
 43
0.0000000001
 40
0.0
 40
0.0
 40
0.0
 40
0.0
 40
1.0
 40
1.0
 40
1.0
 40
2.0
 40
2.0
 40
2.0
 40
3.0
 40
3.0
 40
3.0
 40
4.0
 40
4.0
 40
4.0
 40
5.0
 40
5.0
 40
5.0
 40
6.0
 40
6.0
 40
6.0
 40
7.0
 40
7.0
 40
7.0
 40
8.0
 40
8.0
 40
8.0
 40
9.0
 40
9.0
 40
9.0
 40
9.0
 10
75.27723115522583
 20
-150.1506971195804
 30
0.0
 10
75.27723115522583
 20
-150.6667724232708
 30
0.0
 10
74.72291529164913
 20
-150.6753851619839
 30
0.0
 10
74.50931937156365
 20
-150.6753851619839
 30
0.0
 10
74.27867022882617
 20
-150.6753851619839
 30
0.0
 10
73.63133678714773
 20
-150.6560926272665
 30
0.0
 10
73.63133678714773
 20
-150.1124565596941
 30
0.0
 10
73.63133678714773
 20
-149.939168256786
 30
0.0
 10
73.70109997072403
 20
-149.6935329486877
 30
0.0
 10
74.03320717550212
 20
-149.65563689835
 30
0.0
 10
74.03320717550212
 20
-149.65563689835
 30
0.0
 10
74.03320717550212
 20
-149.8692328184354
 30
0.0
 10
74.03320717550212
 20
-149.8692328184354
 30
0.0
 10
73.97619084522124
 20
-149.8799126144397
 30
0.0
 10
73.82805173935548
 20
-149.911607492904
 30
0.0
 10
73.82805173935548
 20
-150.1145236169852
 30
0.0
 10
73.82805173935548
 20
-150.4066677141344
 30
0.0
 10
74.15602482955127
 20
-150.4466308217633
 30
0.0
 10
74.3611802656979
 20
-150.4593776750587
 30
0.0
 10
74.28297659818273
 20
-150.366360096957
 30
0.0
 10
74.22372095583644
 20
-150.2984917158976
 30
0.0
 10
74.22372095583644
 20
-150.1165906742764
 30
0.0
 10
74.22372095583644
 20
-149.9367566899463
 30
0.0
 10
74.33155244452476
 20
-149.6342773063414
 30
0.0
 10
74.73772920223571
 20
-149.6342773063414
 30
0.0
 10
75.05726180849262
 20
-149.6342773063414
 30
0.0
 10
75.27723115522583
 20
-149.8334038253888
 30
0.0
 10
75.27723115522583
 20
-150.1506971195804
 30
0.0
  0
HATCH
  5
110
330
10A
100
AcDbEntity
  8
レイヤー 1
 62
    18
420
        0
440
 33554687
100
AcDbHatch
 10
0.0
 20
0.0
 30
0.0
210
0.0
220
0.0
230
1.0
  2
SOLID
 70
     1
 71
     1
 91
        2
 92
        1
 93
        1
 72
     4
 94
        3
 73
     0
 74
     0
 95
       17
 96
       13
 40
0.0
 40
0.0
 40
0.0
 40
0.0
 40
1.0
 40
1.0
 40
1.0
 40
2.0
 40
2.0
 40
2.0
 40
3.0
 40
3.0
 40
3.0
 40
4.0
 40
4.0
 40
4.0
 40
4.0
 10
74.41836885075305
 20
-150.1338161517026
 10
74.41836885075305
 20
-150.3959879181302
 10
74.62989771354739
 20
-150.4338839684679
 10
74.74616968617457
 20
-150.4338839684679
 10
74.92186955592231
 20
-150.4338839684679
 10
75.08465031760036
 20
-150.338799333075
 10
75.08465031760036
 20
-150.1548312341627
 10
75.08465031760036
 20
-150.0342528921789
 10
75.02539467525408
 20
-149.8585530224312
 10
74.73979625952686
 20
-149.8585530224312
 10
74.51569279821136
 20
-149.8585530224312
 10
74.41836885075305
 20
-149.9980793895838
 10
74.41836885075305
 20
-150.1338161517026
 97
        0
 97
        1
330
10E
 92
        1
 93
        1
 72
     4
 94
        3
 73
     0
 74
     0
 95
       32
 96
       28
 40
0.0
 40
0.0
 40
0.0
 40
0.0
 40
1.0
 40
1.0
 40
1.0
 40
2.0
 40
2.0
 40
2.0
 40
3.0
 40
3.0
 40
3.0
 40
4.0
 40
4.0
 40
4.0
 40
5.0
 40
5.0
 40
5.0
 40
6.0
 40
6.0
 40
6.0
 40
7.0
 40
7.0
 40
7.0
 40
8.0
 40
8.0
 40
8.0
 40
9.0
 40
9.0
 40
9.0
 40
9.0
 10
75.27723115522583
 20
-150.1506971195804
 10
75.27723115522583
 20
-150.6667724232708
 10
74.72291529164913
 20
-150.6753851619839
 10
74.50931937156365
 20
-150.6753851619839
 10
74.27867022882617
 20
-150.6753851619839
 10
73.63133678714773
 20
-150.6560926272665
 10
73.63133678714773
 20
-150.1124565596941
 10
73.63133678714773
 20
-149.939168256786
 10
73.70109997072403
 20
-149.6935329486877
 10
74.03320717550212
 20
-149.65563689835
 10
74.03320717550212
 20
-149.65563689835
 10
74.03320717550212
 20
-149.8692328184354
 10
74.03320717550212
 20
-149.8692328184354
 10
73.97619084522124
 20
-149.8799126144397
 10
73.82805173935548
 20
-149.911607492904
 10
73.82805173935548
 20
-150.1145236169852
 10
73.82805173935548
 20
-150.4066677141344
 10
74.15602482955127
 20
-150.4466308217633
 10
74.3611802656979
 20
-150.4593776750587
 10
74.28297659818273
 20
-150.366360096957
 10
74.22372095583644
 20
-150.2984917158976
 10
74.22372095583644
 20
-150.1165906742764
 10
74.22372095583644
 20
-149.9367566899463
 10
74.33155244452476
 20
-149.6342773063414
 10
74.73772920223571
 20
-149.6342773063414
 10
75.05726180849262
 20
-149.6342773063414
 10
75.27723115522583
 20
-149.8334038253888
 10
75.27723115522583
 20
-150.1506971195804
 97
        0
 97
        1
330
10F
 75
     2
 76
     1
 98
        1
 10
0.0
 20
0.0
450
        0
451
        0
460
0.0
461
0.0
452
        0
462
0.0
453
        0
470

  0
ENDBLK
  5
10D
330
10A
100
AcDbEntity
  8
0
100
AcDbBlockEnd
  0
BLOCK
  5
115
330
113
100
AcDbEntity
  8
0
100
AcDbBlockBegin
  2
Block_6
 70
     0
 10
0.0
 20
0.0
 30
0.0
  3
Block_6
  1

  0
INSERT
  5
118
330
113
100
AcDbEntity
  8
レイヤー 1
100
AcDbBlockReference
  2
Block_7
 10
0.0
 20
0.0
 30
0.0
  0
ENDBLK
  5
116
330
113
100
AcDbEntity
  8
0
100
AcDbBlockEnd
  0
BLOCK
  5
119
330
117
100
AcDbEntity
  8
0
100
AcDbBlockBegin
  2
Block_7
 70
     0
 10
0.0
 20
0.0
 30
0.0
  3
Block_7
  1

  0
SPLINE
  5
11B
330
117
100
AcDbEntity
  8
レイヤー 1
100
AcDbSpline
210
0.0
220
0.0
230
1.0
 70
     9
 71
     3
 72
    44
 73
    40
 74
     0
 42
0.0000000001
 43
0.0000000001
 40
0.0
 40
0.0
 40
0.0
 40
0.0
 40
1.0
 40
1.0
 40
1.0
 40
2.0
 40
2.0
 40
2.0
 40
3.0
 40
3.0
 40
3.0
 40
4.0
 40
4.0
 40
4.0
 40
5.0
 40
5.0
 40
5.0
 40
6.0
 40
6.0
 40
6.0
 40
7.0
 40
7.0
 40
7.0
 40
8.0
 40
8.0
 40
8.0
 40
9.0
 40
9.0
 40
9.0
 40
10.0
 40
10.0
 40
10.0
 40
11.0
 40
11.0
 40
11.0
 40
12.0
 40
12.0
 40
12.0
 40
13.0
 40
13.0
 40
13.0
 40
13.0
 10
120.9707383595143
 20
-140.599686651048
 30
0.0
 10
120.7530083248465
 20
-140.7583332981437
 30
0.0
 10
120.6599907467447
 20
-140.8324028510766
 30
0.0
 10
120.6110703908542
 20
-140.9762355875858
 30
0.0
 10
120.6110703908542
 20
-140.9762355875858
 30
0.0
 10
121.3896619705206
 20
-140.9762355875858
 30
0.0
 10
121.3896619705206
 20
-140.9762355875858
 30
0.0
 10
121.3896619705206
 20
-140.9762355875858
 30
0.0
 10
121.3896619705206
 20
-141.1813910237324
 30
0.0
 10
121.3896619705206
 20
-141.1813910237324
 30
0.0
 10
121.3896619705206
 20
-141.1813910237324
 30
0.0
 10
120.3616454777221
 20
-141.1813910237324
 30
0.0
 10
120.3616454777221
 20
-141.1813910237324
 30
0.0
 10
120.3933403561864
 20
-140.8237901123635
 30
0.0
 10
120.4587971704061
 20
-140.7455864448483
 30
0.0
 10
120.843958845657
 20
-140.4472411758257
 30
0.0
 10
121.0999294402111
 20
-140.2484591663267
 30
0.0
 10
121.1653862544309
 20
-140.1807630400416
 30
0.0
 10
121.1653862544309
 20
-140.0433037301801
 30
0.0
 10
121.1653862544309
 20
-139.9247924454875
 30
0.0
 10
121.0933837587891
 20
-139.7935343074995
 30
0.0
 10
120.8966688065814
 20
-139.7935343074995
 30
0.0
 10
120.636564097445
 20
-139.7935343074995
 30
0.0
 10
120.6282958682804
 20
-140.024183450237
 30
0.0
 10
120.6238172441496
 20
-140.1406276776384
 30
0.0
 10
120.6238172441496
 20
-140.1406276776384
 30
0.0
 10
120.3995415280598
 20
-140.1406276776384
 30
0.0
 10
120.3995415280598
 20
-140.1406276776384
 30
0.0
 10
120.4081542667729
 20
-140.013675909007
 30
0.0
 10
120.4188340627772
 20
-139.9015380509621
 30
0.0
 10
120.4991047875835
 20
-139.7830267662695
 30
0.0
 10
120.609003333563
 20
-139.6223130618826
 30
0.0
 10
120.795382999315
 20
-139.5883788713529
 30
0.0
 10
120.911482717168
 20
-139.5883788713529
 30
0.0
 10
121.1888129037306
 20
-139.5883788713529
 30
0.0
 10
121.3962076519426
 20
-139.7725192250395
 30
0.0
 10
121.3962076519426
 20
-140.0453707874713
 30
0.0
 10
121.3962076519426
 20
-140.2737806181433
 30
0.0
 10
121.2797634245411
 20
-140.3733438776671
 30
0.0
 10
120.9707383595143
 20
-140.599686651048
 30
0.0
  0
HATCH
  5
11C
330
117
100
AcDbEntity
  8
レイヤー 1
 62
    18
420
        0
440
 33554687
100
AcDbHatch
 10
0.0
 20
0.0
 30
0.0
210
0.0
220
0.0
230
1.0
  2
SOLID
 70
     1
 71
     1
 91
        1
 92
        1
 93
        1
 72
     4
 94
        3
 73
     0
 74
     0
 95
       44
 96
       40
 40
0.0
 40
0.0
 40
0.0
 40
0.0
 40
1.0
 40
1.0
 40
1.0
 40
2.0
 40
2.0
 40
2.0
 40
3.0
 40
3.0
 40
3.0
 40
4.0
 40
4.0
 40
4.0
 40
5.0
 40
5.0
 40
5.0
 40
6.0
 40
6.0
 40
6.0
 40
7.0
 40
7.0
 40
7.0
 40
8.0
 40
8.0
 40
8.0
 40
9.0
 40
9.0
 40
9.0
 40
10.0
 40
10.0
 40
10.0
 40
11.0
 40
11.0
 40
11.0
 40
12.0
 40
12.0
 40
12.0
 40
13.0
 40
13.0
 40
13.0
 40
13.0
 10
120.9707383595143
 20
-140.599686651048
 10
120.7530083248465
 20
-140.7583332981437
 10
120.6599907467447
 20
-140.8324028510766
 10
120.6110703908542
 20
-140.9762355875858
 10
120.6110703908542
 20
-140.9762355875858
 10
121.3896619705206
 20
-140.9762355875858
 10
121.3896619705206
 20
-140.9762355875858
 10
121.3896619705206
 20
-140.9762355875858
 10
121.3896619705206
 20
-141.1813910237324
 10
121.3896619705206
 20
-141.1813910237324
 10
121.3896619705206
 20
-141.1813910237324
 10
120.3616454777221
 20
-141.1813910237324
 10
120.3616454777221
 20
-141.1813910237324
 10
120.3933403561864
 20
-140.8237901123635
 10
120.4587971704061
 20
-140.7455864448483
 10
120.843958845657
 20
-140.4472411758257
 10
121.0999294402111
 20
-140.2484591663267
 10
121.1653862544309
 20
-140.1807630400416
 10
121.1653862544309
 20
-140.0433037301801
 10
121.1653862544309
 20
-139.9247924454875
 10
121.0933837587891
 20
-139.7935343074995
 10
120.8966688065814
 20
-139.7935343074995
 10
120.636564097445
 20
-139.7935343074995
 10
120.6282958682804
 20
-140.024183450237
 10
120.6238172441496
 20
-140.1406276776384
 10
120.6238172441496
 20
-140.1406276776384
 10
120.3995415280598
 20
-140.1406276776384
 10
120.3995415280598
 20
-140.1406276776384
 10
120.4081542667729
 20
-140.013675909007
 10
120.4188340627772
 20
-139.9015380509621
 10
120.4991047875835
 20
-139.7830267662695
 10
120.609003333563
 20
-139.6223130618826
 10
120.795382999315
 20
-139.5883788713529
 10
120.911482717168
 20
-139.5883788713529
 10
121.1888129037306
 20
-139.5883788713529
 10
121.3962076519426
 20
-139.7725192250395
 10
121.3962076519426
 20
-140.0453707874713
 10
121.3962076519426
 20
-140.2737806181433
 10
121.2797634245411
 20
-140.3733438776671
 10
120.9707383595143
 20
-140.599686651048
 97
        0
 97
        1
330
11B
 75
     2
 76
     1
 98
        1
 10
0.0
 20
0.0
450
        0
451
        0
460
0.0
461
0.0
452
        0
462
0.0
453
        0
470

  0
SPLINE
  5
11D
330
117
100
AcDbEntity
  8
レイヤー 1
100
AcDbSpline
210
0.0
220
0.0
230
1.0
 70
    11
 71
     3
 72
    26
 73
    22
 74
     0
 42
0.0000000001
 43
0.0000000001
 40
0.0
 40
0.0
 40
0.0
 40
0.0
 40
1.0
 40
1.0
 40
1.0
 40
2.0
 40
2.0
 40
2.0
 40
3.0
 40
3.0
 40
3.0
 40
4.0
 40
4.0
 40
4.0
 40
5.0
 40
5.0
 40
5.0
 40
6.0
 40
6.0
 40
6.0
 40
7.0
 40
7.0
 40
7.0
 40
7.0
 10
122.0059895528318
 20
-141.1813910237324
 30
0.0
 10
122.0059895528318
 20
-141.1813910237324
 30
0.0
 10
122.0059895528318
 20
-140.0770656659356
 30
0.0
 10
122.0059895528318
 20
-140.0770656659356
 30
0.0
 10
122.0059895528318
 20
-140.0770656659356
 30
0.0
 10
121.6759494053449
 20
-140.0770656659356
 30
0.0
 10
121.6759494053449
 20
-140.0770656659356
 30
0.0
 10
121.6759494053449
 20
-140.0770656659356
 30
0.0
 10
121.6759494053449
 20
-139.9289265600699
 30
0.0
 10
121.6759494053449
 20
-139.9289265600699
 30
0.0
 10
122.008056610123
 20
-139.9142849042575
 30
0.0
 10
122.0545653991738
 20
-139.7513318878052
 30
0.0
 10
122.084193220347
 20
-139.6371269724692
 30
0.0
 10
122.084193220347
 20
-139.6371269724692
 30
0.0
 10
122.2302652689216
 20
-139.6371269724692
 30
0.0
 10
122.2302652689216
 20
-139.6371269724692
 30
0.0
 10
122.2302652689216
 20
-139.6371269724692
 30
0.0
 10
122.2302652689216
 20
-141.1813910237324
 30
0.0
 10
122.2302652689216
 20
-141.1813910237324
 30
0.0
 10
122.2302652689216
 20
-141.1813910237324
 30
0.0
 10
122.0059895528318
 20
-141.1813910237324
 30
0.0
 10
122.0059895528318
 20
-141.1813910237324
 30
0.0
  0
HATCH
  5
11E
330
117
100
AcDbEntity
  8
レイヤー 1
 62
    18
420
        0
440
 33554687
100
AcDbHatch
 10
0.0
 20
0.0
 30
0.0
210
0.0
220
0.0
230
1.0
  2
SOLID
 70
     1
 71
     1
 91
        1
 92
        1
 93
        1
 72
     4
 94
        3
 73
     0
 74
     0
 95
       26
 96
       22
 40
0.0
 40
0.0
 40
0.0
 40
0.0
 40
1.0
 40
1.0
 40
1.0
 40
2.0
 40
2.0
 40
2.0
 40
3.0
 40
3.0
 40
3.0
 40
4.0
 40
4.0
 40
4.0
 40
5.0
 40
5.0
 40
5.0
 40
6.0
 40
6.0
 40
6.0
 40
7.0
 40
7.0
 40
7.0
 40
7.0
 10
122.0059895528318
 20
-141.1813910237324
 10
122.0059895528318
 20
-141.1813910237324
 10
122.0059895528318
 20
-140.0770656659356
 10
122.0059895528318
 20
-140.0770656659356
 10
122.0059895528318
 20
-140.0770656659356
 10
121.6759494053449
 20
-140.0770656659356
 10
121.6759494053449
 20
-140.0770656659356
 10
121.6759494053449
 20
-140.0770656659356
 10
121.6759494053449
 20
-139.9289265600699
 10
121.6759494053449
 20
-139.9289265600699
 10
122.008056610123
 20
-139.9142849042575
 10
122.0545653991738
 20
-139.7513318878052
 10
122.084193220347
 20
-139.6371269724692
 10
122.084193220347
 20
-139.6371269724692
 10
122.2302652689216
 20
-139.6371269724692
 10
122.2302652689216
 20
-139.6371269724692
 10
122.2302652689216
 20
-139.6371269724692
 10
122.2302652689216
 20
-141.1813910237324
 10
122.2302652689216
 20
-141.1813910237324
 10
122.2302652689216
 20
-141.1813910237324
 10
122.0059895528318
 20
-141.1813910237324
 10
122.0059895528318
 20
-141.1813910237324
 97
        0
 97
        1
330
11D
 75
     2
 76
     1
 98
        1
 10
0.0
 20
0.0
450
        0
451
        0
460
0.0
461
0.0
452
        0
462
0.0
453
        0
470

  0
ENDBLK
  5
11A
330
117
100
AcDbEntity
  8
0
100
AcDbBlockEnd
  0
BLOCK
  5
124
330
122
100
AcDbEntity
  8
0
100
AcDbBlockBegin
  2
Block_8
 70
     0
 10
0.0
 20
0.0
 30
0.0
  3
Block_8
  1

  0
INSERT
  5
127
330
122
100
AcDbEntity
  8
レイヤー 1
100
AcDbBlockReference
  2
Block_9
 10
0.0
 20
0.0
 30
0.0
  0
ENDBLK
  5
125
330
122
100
AcDbEntity
  8
0
100
AcDbBlockEnd
  0
BLOCK
  5
128
330
126
100
AcDbEntity
  8
0
100
AcDbBlockBegin
  2
Block_9
 70
     0
 10
0.0
 20
0.0
 30
0.0
  3
Block_9
  1

  0
SPLINE
  5
12A
330
126
100
AcDbEntity
  8
レイヤー 1
100
AcDbSpline
210
0.0
220
0.0
230
1.0
 70
    11
 71
     3
 72
    26
 73
    22
 74
     0
 42
0.0000000001
 43
0.0000000001
 40
0.0
 40
0.0
 40
0.0
 40
0.0
 40
1.0
 40
1.0
 40
1.0
 40
2.0
 40
2.0
 40
2.0
 40
3.0
 40
3.0
 40
3.0
 40
4.0
 40
4.0
 40
4.0
 40
5.0
 40
5.0
 40
5.0
 40
6.0
 40
6.0
 40
6.0
 40
7.0
 40
7.0
 40
7.0
 40
7.0
 10
105.3527424866826
 20
-141.1813910237324
 30
0.0
 10
105.3527424866826
 20
-141.1813910237324
 30
0.0
 10
105.3527424866826
 20
-140.0770656659356
 30
0.0
 10
105.3527424866826
 20
-140.0770656659356
 30
0.0
 10
105.3527424866826
 20
-140.0770656659356
 30
0.0
 10
105.0227023391957
 20
-140.0770656659356
 30
0.0
 10
105.0227023391957
 20
-140.0770656659356
 30
0.0
 10
105.0227023391957
 20
-140.0770656659356
 30
0.0
 10
105.0227023391957
 20
-139.9290988148441
 30
0.0
 10
105.0227023391957
 20
-139.9290988148441
 30
0.0
 10
105.3548095439738
 20
-139.9142849042575
 30
0.0
 10
105.4013183330247
 20
-139.7513318878052
 30
0.0
 10
105.4309461541978
 20
-139.6371269724692
 30
0.0
 10
105.4309461541978
 20
-139.6371269724692
 30
0.0
 10
105.5770182027724
 20
-139.6371269724692
 30
0.0
 10
105.5770182027724
 20
-139.6371269724692
 30
0.0
 10
105.5770182027724
 20
-139.6371269724692
 30
0.0
 10
105.5770182027724
 20
-141.1813910237324
 30
0.0
 10
105.5770182027724
 20
-141.1813910237324
 30
0.0
 10
105.5770182027724
 20
-141.1813910237324
 30
0.0
 10
105.3527424866826
 20
-141.1813910237324
 30
0.0
 10
105.3527424866826
 20
-141.1813910237324
 30
0.0
  0
HATCH
  5
12B
330
126
100
AcDbEntity
  8
レイヤー 1
 62
    18
420
        0
440
 33554687
100
AcDbHatch
 10
0.0
 20
0.0
 30
0.0
210
0.0
220
0.0
230
1.0
  2
SOLID
 70
     1
 71
     1
 91
        1
 92
        1
 93
        1
 72
     4
 94
        3
 73
     0
 74
     0
 95
       26
 96
       22
 40
0.0
 40
0.0
 40
0.0
 40
0.0
 40
1.0
 40
1.0
 40
1.0
 40
2.0
 40
2.0
 40
2.0
 40
3.0
 40
3.0
 40
3.0
 40
4.0
 40
4.0
 40
4.0
 40
5.0
 40
5.0
 40
5.0
 40
6.0
 40
6.0
 40
6.0
 40
7.0
 40
7.0
 40
7.0
 40
7.0
 10
105.3527424866826
 20
-141.1813910237324
 10
105.3527424866826
 20
-141.1813910237324
 10
105.3527424866826
 20
-140.0770656659356
 10
105.3527424866826
 20
-140.0770656659356
 10
105.3527424866826
 20
-140.0770656659356
 10
105.0227023391957
 20
-140.0770656659356
 10
105.0227023391957
 20
-140.0770656659356
 10
105.0227023391957
 20
-140.0770656659356
 10
105.0227023391957
 20
-139.9290988148441
 10
105.0227023391957
 20
-139.9290988148441
 10
105.3548095439738
 20
-139.9142849042575
 10
105.4013183330247
 20
-139.7513318878052
 10
105.4309461541978
 20
-139.6371269724692
 10
105.4309461541978
 20
-139.6371269724692
 10
105.5770182027724
 20
-139.6371269724692
 10
105.5770182027724
 20
-139.6371269724692
 10
105.5770182027724
 20
-139.6371269724692
 10
105.5770182027724
 20
-141.1813910237324
 10
105.5770182027724
 20
-141.1813910237324
 10
105.5770182027724
 20
-141.1813910237324
 10
105.3527424866826
 20
-141.1813910237324
 10
105.3527424866826
 20
-141.1813910237324
 97
        0
 97
        1
330
12A
 75
     2
 76
     1
 98
        1
 10
0.0
 20
0.0
450
        0
451
        0
460
0.0
461
0.0
452
        0
462
0.0
453
        0
470

  0
SPLINE
  5
12C
330
126
100
AcDbEntity
  8
レイヤー 1
100
AcDbSpline
210
0.0
220
0.0
230
1.0
 70
     9
 71
     3
 72
    17
 73
    13
 74
     0
 42
0.0000000001
 43
0.0000000001
 40
0.0
 40
0.0
 40
0.0
 40
0.0
 40
1.0
 40
1.0
 40
1.0
 40
2.0
 40
2.0
 40
2.0
 40
3.0
 40
3.0
 40
3.0
 40
4.0
 40
4.0
 40
4.0
 40
4.0
 10
106.578162950786
 20
-139.7809597089783
 30
0.0
 10
106.3287380376539
 20
-139.7809597089783
 30
0.0
 10
106.2818847390545
 20
-140.0644910674144
 30
0.0
 10
106.2818847390545
 20
-140.4091728707137
 30
0.0
 10
106.2818847390545
 20
-140.7287054769706
 30
0.0
 10
106.3180582416496
 20
-141.0375582872232
 30
0.0
 10
106.578162950786
 20
-141.0375582872232
 30
0.0
 10
106.8258653161755
 20
-141.0375582872232
 30
0.0
 10
106.8744411625175
 20
-140.7560939860783
 30
0.0
 10
106.8744411625175
 20
-140.4091728707137
 30
0.0
 10
106.8744411625175
 20
-140.089812519231
 30
0.0
 10
106.8362006026312
 20
-139.7809597089783
 30
0.0
 10
106.578162950786
 20
-139.7809597089783
 30
0.0
  0
SPLINE
  5
12D
330
126
100
AcDbEntity
  8
レイヤー 1
100
AcDbSpline
210
0.0
220
0.0
230
1.0
 70
     9
 71
     3
 72
    29
 73
    25
 74
     0
 42
0.0000000001
 43
0.0000000001
 40
0.0
 40
0.0
 40
0.0
 40
0.0
 40
1.0
 40
1.0
 40
1.0
 40
2.0
 40
2.0
 40
2.0
 40
3.0
 40
3.0
 40
3.0
 40
4.0
 40
4.0
 40
4.0
 40
5.0
 40
5.0
 40
5.0
 40
6.0
 40
6.0
 40
6.0
 40
7.0
 40
7.0
 40
7.0
 40
8.0
 40
8.0
 40
8.0
 40
8.0
 10
106.9760714793323
 20
-141.0036240966935
 30
0.0
 10
106.8678954810955
 20
-141.2130859021967
 30
0.0
 10
106.6946071781874
 20
-141.2322061821399
 30
0.0
 10
106.578162950786
 20
-141.2322061821399
 30
0.0
 10
106.4172769916248
 20
-141.2322061821399
 30
0.0
 10
106.2756835671811
 20
-141.185697393089
 30
0.0
 10
106.1805989317882
 20
-141.0036240966935
 30
0.0
 10
106.0769015576821
 20
-140.8089762017769
 30
0.0
 10
106.0579535325133
 20
-140.572125887166
 30
0.0
 10
106.0579535325133
 20
-140.4091728707137
 30
0.0
 10
106.0579535325133
 20
-140.2653401342045
 30
0.0
 10
106.074834500391
 20
-140.013675909007
 30
0.0
 10
106.1805989317882
 20
-139.8147216447338
 30
0.0
 10
106.2884304204765
 20
-139.6116332658783
 30
0.0
 10
106.4493163796377
 20
-139.5883788713529
 30
0.0
 10
106.578162950786
 20
-139.5883788713529
 30
0.0
 10
106.736981852656
 20
-139.5883788713529
 30
0.0
 10
106.8806423343909
 20
-139.6328206031126
 30
0.0
 10
106.9760714793323
 20
-139.8147216447338
 30
0.0
 10
107.0752902293075
 20
-140.0073024823593
 30
0.0
 10
107.0987168786073
 20
-140.2357123130313
 30
0.0
 10
107.0987168786073
 20
-140.4091728707137
 30
0.0
 10
107.0987168786073
 20
-140.5805663711048
 30
0.0
 10
107.0773572865987
 20
-140.8112155138423
 30
0.0
 10
106.9760714793323
 20
-141.0036240966935
 30
0.0
  0
HATCH
  5
12E
330
126
100
AcDbEntity
  8
レイヤー 1
 62
    18
420
        0
440
 33554687
100
AcDbHatch
 10
0.0
 20
0.0
 30
0.0
210
0.0
220
0.0
230
1.0
  2
SOLID
 70
     1
 71
     1
 91
        2
 92
        1
 93
        1
 72
     4
 94
        3
 73
     0
 74
     0
 95
       17
 96
       13
 40
0.0
 40
0.0
 40
0.0
 40
0.0
 40
1.0
 40
1.0
 40
1.0
 40
2.0
 40
2.0
 40
2.0
 40
3.0
 40
3.0
 40
3.0
 40
4.0
 40
4.0
 40
4.0
 40
4.0
 10
106.578162950786
 20
-139.7809597089783
 10
106.3287380376539
 20
-139.7809597089783
 10
106.2818847390545
 20
-140.0644910674144
 10
106.2818847390545
 20
-140.4091728707137
 10
106.2818847390545
 20
-140.7287054769706
 10
106.3180582416496
 20
-141.0375582872232
 10
106.578162950786
 20
-141.0375582872232
 10
106.8258653161755
 20
-141.0375582872232
 10
106.8744411625175
 20
-140.7560939860783
 10
106.8744411625175
 20
-140.4091728707137
 10
106.8744411625175
 20
-140.089812519231
 10
106.8362006026312
 20
-139.7809597089783
 10
106.578162950786
 20
-139.7809597089783
 97
        0
 97
        1
330
12C
 92
        1
 93
        1
 72
     4
 94
        3
 73
     0
 74
     0
 95
       29
 96
       25
 40
0.0
 40
0.0
 40
0.0
 40
0.0
 40
1.0
 40
1.0
 40
1.0
 40
2.0
 40
2.0
 40
2.0
 40
3.0
 40
3.0
 40
3.0
 40
4.0
 40
4.0
 40
4.0
 40
5.0
 40
5.0
 40
5.0
 40
6.0
 40
6.0
 40
6.0
 40
7.0
 40
7.0
 40
7.0
 40
8.0
 40
8.0
 40
8.0
 40
8.0
 10
106.9760714793323
 20
-141.0036240966935
 10
106.8678954810955
 20
-141.2130859021967
 10
106.6946071781874
 20
-141.2322061821399
 10
106.578162950786
 20
-141.2322061821399
 10
106.4172769916248
 20
-141.2322061821399
 10
106.2756835671811
 20
-141.185697393089
 10
106.1805989317882
 20
-141.0036240966935
 10
106.0769015576821
 20
-140.8089762017769
 10
106.0579535325133
 20
-140.572125887166
 10
106.0579535325133
 20
-140.4091728707137
 10
106.0579535325133
 20
-140.2653401342045
 10
106.074834500391
 20
-140.013675909007
 10
106.1805989317882
 20
-139.8147216447338
 10
106.2884304204765
 20
-139.6116332658783
 10
106.4493163796377
 20
-139.5883788713529
 10
106.578162950786
 20
-139.5883788713529
 10
106.736981852656
 20
-139.5883788713529
 10
106.8806423343909
 20
-139.6328206031126
 10
106.9760714793323
 20
-139.8147216447338
 10
107.0752902293075
 20
-140.0073024823593
 10
107.0987168786073
 20
-140.2357123130313
 10
107.0987168786073
 20
-140.4091728707137
 10
107.0987168786073
 20
-140.5805663711048
 10
107.0773572865987
 20
-140.8112155138423
 10
106.9760714793323
 20
-141.0036240966935
 97
        0
 97
        1
330
12D
 75
     2
 76
     1
 98
        1
 10
0.0
 20
0.0
450
        0
451
        0
460
0.0
461
0.0
452
        0
462
0.0
453
        0
470

  0
ENDBLK
  5
129
330
126
100
AcDbEntity
  8
0
100
AcDbBlockEnd
  0
BLOCK
  5
136
330
134
100
AcDbEntity
  8
0
100
AcDbBlockBegin
  2
Block_10
 70
     0
 10
0.0
 20
0.0
 30
0.0
  3
Block_10
  1

  0
INSERT
  5
139
330
134
100
AcDbEntity
  8
レイヤー 1
100
AcDbBlockReference
  2
Block_11
 10
0.0
 20
0.0
 30
0.0
  0
ENDBLK
  5
137
330
134
100
AcDbEntity
  8
0
100
AcDbBlockEnd
  0
BLOCK
  5
13A
330
138
100
AcDbEntity
  8
0
100
AcDbBlockBegin
  2
Block_11
 70
     0
 10
0.0
 20
0.0
 30
0.0
  3
Block_11
  1

  0
SPLINE
  5
13C
330
138
100
AcDbEntity
  8
レイヤー 1
100
AcDbSpline
210
0.0
220
0.0
230
1.0
 70
    11
 71
     3
 72
    26
 73
    22
 74
     0
 42
0.0000000001
 43
0.0000000001
 40
0.0
 40
0.0
 40
0.0
 40
0.0
 40
1.0
 40
1.0
 40
1.0
 40
2.0
 40
2.0
 40
2.0
 40
3.0
 40
3.0
 40
3.0
 40
4.0
 40
4.0
 40
4.0
 40
5.0
 40
5.0
 40
5.0
 40
6.0
 40
6.0
 40
6.0
 40
7.0
 40
7.0
 40
7.0
 40
7.0
 10
105.4524780009806
 20
-156.557196683951
 30
0.0
 10
105.4524780009806
 20
-156.557196683951
 30
0.0
 10
105.4524780009806
 20
-155.4530435809284
 30
0.0
 10
105.4524780009806
 20
-155.4530435809284
 30
0.0
 10
105.4524780009806
 20
-155.4530435809284
 30
0.0
 10
105.1224378534937
 20
-155.4530435809284
 30
0.0
 10
105.1224378534937
 20
-155.4530435809284
 30
0.0
 10
105.1224378534937
 20
-155.4530435809284
 30
0.0
 10
105.1224378534937
 20
-155.3049044750626
 30
0.0
 10
105.1224378534937
 20
-155.3049044750626
 30
0.0
 10
105.4545450582718
 20
-155.2900905644761
 30
0.0
 10
105.5012261020969
 20
-155.1271375480237
 30
0.0
 10
105.5308539232701
 20
-155.0127603779135
 30
0.0
 10
105.5308539232701
 20
-155.0127603779135
 30
0.0
 10
105.6769259718446
 20
-155.0127603779135
 30
0.0
 10
105.6769259718446
 20
-155.0127603779135
 30
0.0
 10
105.6769259718446
 20
-155.0127603779135
 30
0.0
 10
105.6769259718446
 20
-156.557196683951
 30
0.0
 10
105.6769259718446
 20
-156.557196683951
 30
0.0
 10
105.6769259718446
 20
-156.557196683951
 30
0.0
 10
105.4524780009806
 20
-156.557196683951
 30
0.0
 10
105.4524780009806
 20
-156.557196683951
 30
0.0
  0
HATCH
  5
13D
330
138
100
AcDbEntity
  8
レイヤー 1
 62
    18
420
        0
440
 33554687
100
AcDbHatch
 10
0.0
 20
0.0
 30
0.0
210
0.0
220
0.0
230
1.0
  2
SOLID
 70
     1
 71
     1
 91
        1
 92
        1
 93
        1
 72
     4
 94
        3
 73
     0
 74
     0
 95
       26
 96
       22
 40
0.0
 40
0.0
 40
0.0
 40
0.0
 40
1.0
 40
1.0
 40
1.0
 40
2.0
 40
2.0
 40
2.0
 40
3.0
 40
3.0
 40
3.0
 40
4.0
 40
4.0
 40
4.0
 40
5.0
 40
5.0
 40
5.0
 40
6.0
 40
6.0
 40
6.0
 40
7.0
 40
7.0
 40
7.0
 40
7.0
 10
105.4524780009806
 20
-156.557196683951
 10
105.4524780009806
 20
-156.557196683951
 10
105.4524780009806
 20
-155.4530435809284
 10
105.4524780009806
 20
-155.4530435809284
 10
105.4524780009806
 20
-155.4530435809284
 10
105.1224378534937
 20
-155.4530435809284
 10
105.1224378534937
 20
-155.4530435809284
 10
105.1224378534937
 20
-155.4530435809284
 10
105.1224378534937
 20
-155.3049044750626
 10
105.1224378534937
 20
-155.3049044750626
 10
105.4545450582718
 20
-155.2900905644761
 10
105.5012261020969
 20
-155.1271375480237
 10
105.5308539232701
 20
-155.0127603779135
 10
105.5308539232701
 20
-155.0127603779135
 10
105.6769259718446
 20
-155.0127603779135
 10
105.6769259718446
 20
-155.0127603779135
 10
105.6769259718446
 20
-155.0127603779135
 10
105.6769259718446
 20
-156.557196683951
 10
105.6769259718446
 20
-156.557196683951
 10
105.6769259718446
 20
-156.557196683951
 10
105.4524780009806
 20
-156.557196683951
 10
105.4524780009806
 20
-156.557196683951
 97
        0
 97
        1
330
13C
 75
     2
 76
     1
 98
        1
 10
0.0
 20
0.0
450
        0
451
        0
460
0.0
461
0.0
452
        0
462
0.0
453
        0
470

  0
SPLINE
  5
13E
330
138
100
AcDbEntity
  8
レイヤー 1
100
AcDbSpline
210
0.0
220
0.0
230
1.0
 70
     9
 71
     3
 72
    44
 73
    40
 74
     0
 42
0.0000000001
 43
0.0000000001
 40
0.0
 40
0.0
 40
0.0
 40
0.0
 40
1.0
 40
1.0
 40
1.0
 40
2.0
 40
2.0
 40
2.0
 40
3.0
 40
3.0
 40
3.0
 40
4.0
 40
4.0
 40
4.0
 40
5.0
 40
5.0
 40
5.0
 40
6.0
 40
6.0
 40
6.0
 40
7.0
 40
7.0
 40
7.0
 40
8.0
 40
8.0
 40
8.0
 40
9.0
 40
9.0
 40
9.0
 40
10.0
 40
10.0
 40
10.0
 40
11.0
 40
11.0
 40
11.0
 40
12.0
 40
12.0
 40
12.0
 40
13.0
 40
13.0
 40
13.0
 40
13.0
 10
106.77108829796
 20
-155.9753200564923
 30
0.0
 10
106.5533582632922
 20
-156.1341389583623
 30
0.0
 10
106.4603406851905
 20
-156.2082085112951
 30
0.0
 10
106.4114203292999
 20
-156.3518689930301
 30
0.0
 10
106.4114203292999
 20
-156.3518689930301
 30
0.0
 10
107.1900119089664
 20
-156.3518689930301
 30
0.0
 10
107.1900119089664
 20
-156.3518689930301
 30
0.0
 10
107.1900119089664
 20
-156.3518689930301
 30
0.0
 10
107.1900119089664
 20
-156.557196683951
 30
0.0
 10
107.1900119089664
 20
-156.557196683951
 30
0.0
 10
107.1900119089664
 20
-156.557196683951
 30
0.0
 10
106.1619954161678
 20
-156.557196683951
 30
0.0
 10
106.1619954161678
 20
-156.557196683951
 30
0.0
 10
106.1936902946321
 20
-156.199595772582
 30
0.0
 10
106.2591471088519
 20
-156.1213921050669
 30
0.0
 10
106.6443087841028
 20
-155.8230468360442
 30
0.0
 10
106.9002793786568
 20
-155.6242648265453
 30
0.0
 10
106.9657361928766
 20
-155.5563964454859
 30
0.0
 10
106.9657361928766
 20
-155.4189371356244
 30
0.0
 10
106.9657361928766
 20
-155.3004258509318
 30
0.0
 10
106.8937336972349
 20
-155.1695122224923
 30
0.0
 10
106.6970187450271
 20
-155.1695122224923
 30
0.0
 10
106.4369140358907
 20
-155.1695122224923
 30
0.0
 10
106.4283012971776
 20
-155.3999891104556
 30
0.0
 10
106.4241671825953
 20
-155.516433337857
 30
0.0
 10
106.4241671825953
 20
-155.516433337857
 30
0.0
 10
106.1998914665056
 20
-155.516433337857
 30
0.0
 10
106.1998914665056
 20
-155.516433337857
 30
0.0
 10
106.2085042052187
 20
-155.3893093144513
 30
0.0
 10
106.219184001223
 20
-155.2773437111806
 30
0.0
 10
106.2994547260293
 20
-155.1588324264881
 30
0.0
 10
106.4093532720087
 20
-154.9979464673269
 30
0.0
 10
106.5957329377608
 20
-154.9641845315714
 30
0.0
 10
106.7118326556137
 20
-154.9641845315714
 30
0.0
 10
106.9891628421763
 20
-154.9641845315714
 30
0.0
 10
107.1965575903883
 20
-155.1481526304838
 30
0.0
 10
107.1965575903883
 20
-155.4210041929156
 30
0.0
 10
107.1965575903883
 20
-155.6497585331362
 30
0.0
 10
107.0801133629869
 20
-155.7489772831113
 30
0.0
 10
106.77108829796
 20
-155.9753200564923
 30
0.0
  0
HATCH
  5
13F
330
138
100
AcDbEntity
  8
レイヤー 1
 62
    18
420
        0
440
 33554687
100
AcDbHatch
 10
0.0
 20
0.0
 30
0.0
210
0.0
220
0.0
230
1.0
  2
SOLID
 70
     1
 71
     1
 91
        1
 92
        1
 93
        1
 72
     4
 94
        3
 73
     0
 74
     0
 95
       44
 96
       40
 40
0.0
 40
0.0
 40
0.0
 40
0.0
 40
1.0
 40
1.0
 40
1.0
 40
2.0
 40
2.0
 40
2.0
 40
3.0
 40
3.0
 40
3.0
 40
4.0
 40
4.0
 40
4.0
 40
5.0
 40
5.0
 40
5.0
 40
6.0
 40
6.0
 40
6.0
 40
7.0
 40
7.0
 40
7.0
 40
8.0
 40
8.0
 40
8.0
 40
9.0
 40
9.0
 40
9.0
 40
10.0
 40
10.0
 40
10.0
 40
11.0
 40
11.0
 40
11.0
 40
12.0
 40
12.0
 40
12.0
 40
13.0
 40
13.0
 40
13.0
 40
13.0
 10
106.77108829796
 20
-155.9753200564923
 10
106.5533582632922
 20
-156.1341389583623
 10
106.4603406851905
 20
-156.2082085112951
 10
106.4114203292999
 20
-156.3518689930301
 10
106.4114203292999
 20
-156.3518689930301
 10
107.1900119089664
 20
-156.3518689930301
 10
107.1900119089664
 20
-156.3518689930301
 10
107.1900119089664
 20
-156.3518689930301
 10
107.1900119089664
 20
-156.557196683951
 10
107.1900119089664
 20
-156.557196683951
 10
107.1900119089664
 20
-156.557196683951
 10
106.1619954161678
 20
-156.557196683951
 10
106.1619954161678
 20
-156.557196683951
 10
106.1936902946321
 20
-156.199595772582
 10
106.2591471088519
 20
-156.1213921050669
 10
106.6443087841028
 20
-155.8230468360442
 10
106.9002793786568
 20
-155.6242648265453
 10
106.9657361928766
 20
-155.5563964454859
 10
106.9657361928766
 20
-155.4189371356244
 10
106.9657361928766
 20
-155.3004258509318
 10
106.8937336972349
 20
-155.1695122224923
 10
106.6970187450271
 20
-155.1695122224923
 10
106.4369140358907
 20
-155.1695122224923
 10
106.4283012971776
 20
-155.3999891104556
 10
106.4241671825953
 20
-155.516433337857
 10
106.4241671825953
 20
-155.516433337857
 10
106.1998914665056
 20
-155.516433337857
 10
106.1998914665056
 20
-155.516433337857
 10
106.2085042052187
 20
-155.3893093144513
 10
106.219184001223
 20
-155.2773437111806
 10
106.2994547260293
 20
-155.1588324264881
 10
106.4093532720087
 20
-154.9979464673269
 10
106.5957329377608
 20
-154.9641845315714
 10
106.7118326556137
 20
-154.9641845315714
 10
106.9891628421763
 20
-154.9641845315714
 10
107.1965575903883
 20
-155.1481526304838
 10
107.1965575903883
 20
-155.4210041929156
 10
107.1965575903883
 20
-155.6497585331362
 10
107.0801133629869
 20
-155.7489772831113
 10
106.77108829796
 20
-155.9753200564923
 97
        0
 97
        1
330
13E
 75
     2
 76
     1
 98
        1
 10
0.0
 20
0.0
450
        0
451
        0
460
0.0
461
0.0
452
        0
462
0.0
453
        0
470

  0
ENDBLK
  5
13B
330
138
100
AcDbEntity
  8
0
100
AcDbBlockEnd
  0
BLOCK
  5
143
330
141
100
AcDbEntity
  8
0
100
AcDbBlockBegin
  2
Block_12
 70
     0
 10
0.0
 20
0.0
 30
0.0
  3
Block_12
  1

  0
SPLINE
  5
145
330
141
100
AcDbEntity
  8
レイヤー 1
100
AcDbSpline
210
0.0
220
0.0
230
1.0
 70
    11
 71
     3
 72
    26
 73
    22
 74
     0
 42
0.0000000001
 43
0.0000000001
 40
0.0
 40
0.0
 40
0.0
 40
0.0
 40
1.0
 40
1.0
 40
1.0
 40
2.0
 40
2.0
 40
2.0
 40
3.0
 40
3.0
 40
3.0
 40
4.0
 40
4.0
 40
4.0
 40
5.0
 40
5.0
 40
5.0
 40
6.0
 40
6.0
 40
6.0
 40
7.0
 40
7.0
 40
7.0
 40
7.0
 10
113.8731526408025
 20
-149.5343695372692
 30
0.0
 10
113.8731526408025
 20
-149.5343695372692
 30
0.0
 10
113.8731526408025
 20
-148.4302164342466
 30
0.0
 10
113.8731526408025
 20
-148.4302164342466
 30
0.0
 10
113.8731526408025
 20
-148.4302164342466
 30
0.0
 10
113.5431124933156
 20
-148.4302164342466
 30
0.0
 10
113.5431124933156
 20
-148.4302164342466
 30
0.0
 10
113.5431124933156
 20
-148.4302164342466
 30
0.0
 10
113.5431124933156
 20
-148.2820773283808
 30
0.0
 10
113.5431124933156
 20
-148.2820773283808
 30
0.0
 10
113.8752196980937
 20
-148.2674356725685
 30
0.0
 10
113.9217284871445
 20
-148.1044826561162
 30
0.0
 10
113.9513563083177
 20
-147.9902777407802
 30
0.0
 10
113.9513563083177
 20
-147.9902777407802
 30
0.0
 10
114.0974283568923
 20
-147.9902777407802
 30
0.0
 10
114.0974283568923
 20
-147.9902777407802
 30
0.0
 10
114.0974283568923
 20
-147.9902777407802
 30
0.0
 10
114.0974283568923
 20
-149.5343695372692
 30
0.0
 10
114.0974283568923
 20
-149.5343695372692
 30
0.0
 10
114.0974283568923
 20
-149.5343695372692
 30
0.0
 10
113.8731526408025
 20
-149.5343695372692
 30
0.0
 10
113.8731526408025
 20
-149.5343695372692
 30
0.0
  0
HATCH
  5
146
330
141
100
AcDbEntity
  8
レイヤー 1
 62
    18
420
        0
440
 33554687
100
AcDbHatch
 10
0.0
 20
0.0
 30
0.0
210
0.0
220
0.0
230
1.0
  2
SOLID
 70
     1
 71
     1
 91
        1
 92
        1
 93
        1
 72
     4
 94
        3
 73
     0
 74
     0
 95
       26
 96
       22
 40
0.0
 40
0.0
 40
0.0
 40
0.0
 40
1.0
 40
1.0
 40
1.0
 40
2.0
 40
2.0
 40
2.0
 40
3.0
 40
3.0
 40
3.0
 40
4.0
 40
4.0
 40
4.0
 40
5.0
 40
5.0
 40
5.0
 40
6.0
 40
6.0
 40
6.0
 40
7.0
 40
7.0
 40
7.0
 40
7.0
 10
113.8731526408025
 20
-149.5343695372692
 10
113.8731526408025
 20
-149.5343695372692
 10
113.8731526408025
 20
-148.4302164342466
 10
113.8731526408025
 20
-148.4302164342466
 10
113.8731526408025
 20
-148.4302164342466
 10
113.5431124933156
 20
-148.4302164342466
 10
113.5431124933156
 20
-148.4302164342466
 10
113.5431124933156
 20
-148.4302164342466
 10
113.5431124933156
 20
-148.2820773283808
 10
113.5431124933156
 20
-148.2820773283808
 10
113.8752196980937
 20
-148.2674356725685
 10
113.9217284871445
 20
-148.1044826561162
 10
113.9513563083177
 20
-147.9902777407802
 10
113.9513563083177
 20
-147.9902777407802
 10
114.0974283568923
 20
-147.9902777407802
 10
114.0974283568923
 20
-147.9902777407802
 10
114.0974283568923
 20
-147.9902777407802
 10
114.0974283568923
 20
-149.5343695372692
 10
114.0974283568923
 20
-149.5343695372692
 10
114.0974283568923
 20
-149.5343695372692
 10
113.8731526408025
 20
-149.5343695372692
 10
113.8731526408025
 20
-149.5343695372692
 97
        0
 97
        1
330
145
 75
     2
 76
     1
 98
        1
 10
0.0
 20
0.0
450
        0
451
        0
460
0.0
461
0.0
452
        0
462
0.0
453
        0
470

  0
ENDBLK
  5
144
330
141
100
AcDbEntity
  8
0
100
AcDbBlockEnd
  0
BLOCK
  5
149
330
147
100
AcDbEntity
  8
0
100
AcDbBlockBegin
  2
Block_13
 70
     0
 10
0.0
 20
0.0
 30
0.0
  3
Block_13
  1

  0
LWPOLYLINE
  5
14B
330
147
100
AcDbEntity
  8
レイヤー 1
 62
   250
420
  2299925
370
     9
100
AcDbPolyline
 90
        4
 70
     1
 43
0.0
 10
112.397322064364
 20
-152.8881409145902
 10
112.9592264944731
 20
-152.8812617479251
 10
112.0686742949707
 20
-152.5656667480041
 10
112.3728745649877
 20
-153.4799961922194
  0
HATCH
  5
14C
330
147
100
AcDbEntity
  8
レイヤー 1
 62
   250
420
  2299925
440
 33554687
100
AcDbHatch
 10
0.0
 20
0.0
 30
0.0
210
0.0
220
0.0
230
1.0
  2
SOLID
 70
     1
 71
     1
 91
        1
 92
        1
 93
        4
 72
     1
 10
112.397322064364
 20
-152.8881409145902
 11
112.9592264944731
 21
-152.8812617479251
 72
     1
 10
112.9592264944731
 20
-152.8812617479251
 11
112.0686742949707
 21
-152.5656667480041
 72
     1
 10
112.0686742949707
 20
-152.5656667480041
 11
112.3728745649877
 21
-153.4799961922194
 72
     1
 10
112.3728745649877
 20
-153.4799961922194
 11
112.397322064364
 21
-152.8881409145902
 97
        1
330
14B
 75
     2
 76
     1
 98
        1
 10
0.0
 20
0.0
450
        0
451
        0
460
0.0
461
0.0
452
        0
462
0.0
453
        0
470

  0
LINE
  5
14D
330
147
100
AcDbEntity
  8
レイヤー 1
 62
   250
420
  2299925
370
     9
100
AcDbLine
 10
112.397322064364
 20
-152.8881409145902
 30
0.0
 11
114.8016436696913
 21
-155.2776459139928
 31
0.0
  0
ENDBLK
  5
14A
330
147
100
AcDbEntity
  8
0
100
AcDbBlockEnd
  0
BLOCK
  5
150
330
14E
100
AcDbEntity
  8
0
100
AcDbBlockBegin
  2
Block_14
 70
     0
 10
0.0
 20
0.0
 30
0.0
  3
Block_14
  1

  0
INSERT
  5
153
330
14E
100
AcDbEntity
  8
レイヤー 1
100
AcDbBlockReference
  2
Block_15
 10
0.0
 20
0.0
 30
0.0
  0
ENDBLK
  5
151
330
14E
100
AcDbEntity
  8
0
100
AcDbBlockEnd
  0
BLOCK
  5
154
330
152
100
AcDbEntity
  8
0
100
AcDbBlockBegin
  2
Block_15
 70
     0
 10
0.0
 20
0.0
 30
0.0
  3
Block_15
  1

  0
SPLINE
  5
156
330
152
100
AcDbEntity
  8
レイヤー 1
100
AcDbSpline
210
0.0
220
0.0
230
1.0
 70
     9
 71
     3
 72
    38
 73
    34
 74
     0
 42
0.0000000001
 43
0.0000000001
 40
0.0
 40
0.0
 40
0.0
 40
0.0
 40
1.0
 40
1.0
 40
1.0
 40
2.0
 40
2.0
 40
2.0
 40
3.0
 40
3.0
 40
3.0
 40
4.0
 40
4.0
 40
4.0
 40
5.0
 40
5.0
 40
5.0
 40
6.0
 40
6.0
 40
6.0
 40
7.0
 40
7.0
 40
7.0
 40
8.0
 40
8.0
 40
8.0
 40
9.0
 40
9.0
 40
9.0
 40
10.0
 40
10.0
 40
10.0
 40
11.0
 40
11.0
 40
11.0
 40
11.0
 10
115.3335286169999
 20
-156.3580701649035
 30
0.0
 10
115.4265461951017
 20
-156.2354247656286
 30
0.0
 10
115.5516031612163
 20
-156.0555907812986
 30
0.0
 10
115.6466877966092
 20
-155.607039349119
 30
0.0
 10
115.6466877966092
 20
-155.607039349119
 30
0.0
 10
115.8137749276437
 20
-155.6263318838365
 30
0.0
 10
115.8137749276437
 20
-155.6263318838365
 30
0.0
 10
115.7882812210529
 20
-155.7469102258202
 30
0.0
 10
115.7651990813017
 20
-155.8378607466308
 30
0.0
 10
115.7269585214155
 20
-155.9456922353191
 30
0.0
 10
115.7269585214155
 20
-155.9456922353191
 30
0.0
 10
116.355343937925
 20
-155.9456922353191
 30
0.0
 10
116.355343937925
 20
-155.9456922353191
 30
0.0
 10
116.355343937925
 20
-155.9456922353191
 30
0.0
 10
116.355343937925
 20
-156.0979654557672
 30
0.0
 10
116.355343937925
 20
-156.0979654557672
 30
0.0
 10
116.3215820021696
 20
-156.2399033897594
 30
0.0
 10
116.2261528572282
 20
-156.4979410416047
 30
0.0
 10
116.1520833042953
 20
-156.6164523262973
 30
0.0
 10
116.1520833042953
 20
-156.6164523262973
 30
0.0
 10
115.9998100838472
 20
-156.5379041492336
 30
0.0
 10
115.9998100838472
 20
-156.5379041492336
 30
0.0
 10
116.0952392287887
 20
-156.4025118966632
 30
0.0
 10
116.1606960430084
 20
-156.2144096831686
 30
0.0
 10
116.1882568068904
 20
-156.1041666276406
 30
0.0
 10
116.1882568068904
 20
-156.1041666276406
 30
0.0
 10
115.6697699363603
 20
-156.1041666276406
 30
0.0
 10
115.6697699363603
 20
-156.1041666276406
 30
0.0
 10
115.5705511863851
 20
-156.3456678211566
 30
0.0
 10
115.4964816334522
 20
-156.4342067751275
 30
0.0
 10
115.458241073566
 20
-156.4786485068873
 30
0.0
 10
115.458241073566
 20
-156.4786485068873
 30
0.0
 10
115.3335286169999
 20
-156.3580701649035
 30
0.0
 10
115.3335286169999
 20
-156.3580701649035
 30
0.0
  0
SPLINE
  5
157
330
152
100
AcDbEntity
  8
レイヤー 1
100
AcDbSpline
210
0.0
220
0.0
230
1.0
 70
     9
 71
     3
 72
    38
 73
    34
 74
     0
 42
0.0000000001
 43
0.0000000001
 40
0.0
 40
0.0
 40
0.0
 40
0.0
 40
1.0
 40
1.0
 40
1.0
 40
2.0
 40
2.0
 40
2.0
 40
3.0
 40
3.0
 40
3.0
 40
4.0
 40
4.0
 40
4.0
 40
5.0
 40
5.0
 40
5.0
 40
6.0
 40
6.0
 40
6.0
 40
7.0
 40
7.0
 40
7.0
 40
8.0
 40
8.0
 40
8.0
 40
9.0
 40
9.0
 40
9.0
 40
10.0
 40
10.0
 40
10.0
 40
11.0
 40
11.0
 40
11.0
 40
11.0
 10
115.2191514468897
 20
-157.4308728990103
 30
0.0
 10
115.3018337385356
 20
-157.3778184285375
 30
0.0
 10
115.4668538122791
 20
-157.2699869398492
 30
0.0
 10
115.5726182436763
 20
-157.0625921916371
 30
0.0
 10
115.720757349542
 20
-156.7707926040364
 30
0.0
 10
115.720757349542
 20
-156.5444498306555
 30
0.0
 10
115.720757349542
 20
-156.4597004817184
 30
0.0
 10
115.720757349542
 20
-156.4597004817184
 30
0.0
 10
115.720757349542
 20
-156.2250894791729
 30
0.0
 10
115.720757349542
 20
-156.2250894791729
 30
0.0
 10
115.720757349542
 20
-156.2250894791729
 30
0.0
 10
115.8857774232855
 20
-156.2250894791729
 30
0.0
 10
115.8857774232855
 20
-156.2250894791729
 30
0.0
 10
115.8857774232855
 20
-156.2250894791729
 30
0.0
 10
115.8857774232855
 20
-156.4514322525538
 30
0.0
 10
115.8857774232855
 20
-156.4514322525538
 30
0.0
 10
115.8857774232855
 20
-156.6502142620527
 30
0.0
 10
115.9512342375052
 20
-156.8872368314379
 30
0.0
 10
116.0528645543201
 20
-157.060525134346
 30
0.0
 10
116.1693087817216
 20
-157.2593071438449
 30
0.0
 10
116.2981553528699
 20
-157.3588704033686
 30
0.0
 10
116.382904701807
 20
-157.420193103006
 30
0.0
 10
116.382904701807
 20
-157.420193103006
 30
0.0
 10
116.2750732131187
 20
-157.5703992661629
 30
0.0
 10
116.2750732131187
 20
-157.5703992661629
 30
0.0
 10
116.0973062860798
 20
-157.441208185466
 30
0.0
 10
115.8985242765809
 20
-157.2021185587897
 30
0.0
 10
115.8199760995172
 20
-156.8489962715516
 30
0.0
 10
115.7545192852975
 20
-157.0880858982279
 30
0.0
 10
115.6528889684826
 20
-157.3568033460774
 30
0.0
 10
115.3442084130042
 20
-157.5662651515806
 30
0.0
 10
115.3442084130042
 20
-157.5662651515806
 30
0.0
 10
115.2191514468897
 20
-157.4308728990103
 30
0.0
 10
115.2191514468897
 20
-157.4308728990103
 30
0.0
  0
SPLINE
  5
158
330
152
100
AcDbEntity
  8
レイヤー 1
100
AcDbSpline
210
0.0
220
0.0
230
1.0
 70
    11
 71
     3
 72
    17
 73
    13
 74
     0
 42
0.0000000001
 43
0.0000000001
 40
0.0
 40
0.0
 40
0.0
 40
0.0
 40
1.0
 40
1.0
 40
1.0
 40
2.0
 40
2.0
 40
2.0
 40
3.0
 40
3.0
 40
3.0
 40
4.0
 40
4.0
 40
4.0
 40
4.0
 10
115.1771212819696
 20
-156.5423827733644
 30
0.0
 10
115.1771212819696
 20
-156.5423827733644
 30
0.0
 10
114.9655924191752
 20
-156.5423827733644
 30
0.0
 10
114.9655924191752
 20
-156.5423827733644
 30
0.0
 10
114.9655924191752
 20
-156.5423827733644
 30
0.0
 10
114.9655924191752
 20
-156.7494330120279
 30
0.0
 10
114.9655924191752
 20
-156.7494330120279
 30
0.0
 10
114.9655924191752
 20
-156.7494330120279
 30
0.0
 10
115.1771212819696
 20
-156.7494330120279
 30
0.0
 10
115.1771212819696
 20
-156.7494330120279
 30
0.0
 10
115.1771212819696
 20
-156.7494330120279
 30
0.0
 10
115.1771212819696
 20
-156.5423827733644
 30
0.0
 10
115.1771212819696
 20
-156.5423827733644
 30
0.0
  0
SPLINE
  5
159
330
152
100
AcDbEntity
  8
レイヤー 1
100
AcDbSpline
210
0.0
220
0.0
230
1.0
 70
    11
 71
     3
 72
    17
 73
    13
 74
     0
 42
0.0000000001
 43
0.0000000001
 40
0.0
 40
0.0
 40
0.0
 40
0.0
 40
1.0
 40
1.0
 40
1.0
 40
2.0
 40
2.0
 40
2.0
 40
3.0
 40
3.0
 40
3.0
 40
4.0
 40
4.0
 40
4.0
 40
4.0
 10
115.1771212819696
 20
-156.2164767404597
 30
0.0
 10
115.1771212819696
 20
-156.2164767404597
 30
0.0
 10
114.9655924191752
 20
-156.2164767404597
 30
0.0
 10
114.9655924191752
 20
-156.2164767404597
 30
0.0
 10
114.9655924191752
 20
-156.2164767404597
 30
0.0
 10
114.9655924191752
 20
-156.419392864541
 30
0.0
 10
114.9655924191752
 20
-156.419392864541
 30
0.0
 10
114.9655924191752
 20
-156.419392864541
 30
0.0
 10
115.1771212819696
 20
-156.419392864541
 30
0.0
 10
115.1771212819696
 20
-156.419392864541
 30
0.0
 10
115.1771212819696
 20
-156.419392864541
 30
0.0
 10
115.1771212819696
 20
-156.2164767404597
 30
0.0
 10
115.1771212819696
 20
-156.2164767404597
 30
0.0
  0
SPLINE
  5
15A
330
152
100
AcDbEntity
  8
レイヤー 1
100
AcDbSpline
210
0.0
220
0.0
230
1.0
 70
    11
 71
     3
 72
    17
 73
    13
 74
     0
 42
0.0000000001
 43
0.0000000001
 40
0.0
 40
0.0
 40
0.0
 40
0.0
 40
1.0
 40
1.0
 40
1.0
 40
2.0
 40
2.0
 40
2.0
 40
3.0
 40
3.0
 40
3.0
 40
4.0
 40
4.0
 40
4.0
 40
4.0
 10
114.8109076318875
 20
-156.5423827733644
 30
0.0
 10
114.8109076318875
 20
-156.5423827733644
 30
0.0
 10
114.603857393224
 20
-156.5423827733644
 30
0.0
 10
114.603857393224
 20
-156.5423827733644
 30
0.0
 10
114.603857393224
 20
-156.5423827733644
 30
0.0
 10
114.603857393224
 20
-156.7494330120279
 30
0.0
 10
114.603857393224
 20
-156.7494330120279
 30
0.0
 10
114.603857393224
 20
-156.7494330120279
 30
0.0
 10
114.8109076318875
 20
-156.7494330120279
 30
0.0
 10
114.8109076318875
 20
-156.7494330120279
 30
0.0
 10
114.8109076318875
 20
-156.7494330120279
 30
0.0
 10
114.8109076318875
 20
-156.5423827733644
 30
0.0
 10
114.8109076318875
 20
-156.5423827733644
 30
0.0
  0
SPLINE
  5
15B
330
152
100
AcDbEntity
  8
レイヤー 1
100
AcDbSpline
210
0.0
220
0.0
230
1.0
 70
    11
 71
     3
 72
    17
 73
    13
 74
     0
 42
0.0000000001
 43
0.0000000001
 40
0.0
 40
0.0
 40
0.0
 40
0.0
 40
1.0
 40
1.0
 40
1.0
 40
2.0
 40
2.0
 40
2.0
 40
3.0
 40
3.0
 40
3.0
 40
4.0
 40
4.0
 40
4.0
 40
4.0
 10
114.8109076318875
 20
-156.2164767404597
 30
0.0
 10
114.8109076318875
 20
-156.2164767404597
 30
0.0
 10
114.603857393224
 20
-156.2164767404597
 30
0.0
 10
114.603857393224
 20
-156.2164767404597
 30
0.0
 10
114.603857393224
 20
-156.2164767404597
 30
0.0
 10
114.603857393224
 20
-156.419392864541
 30
0.0
 10
114.603857393224
 20
-156.419392864541
 30
0.0
 10
114.603857393224
 20
-156.419392864541
 30
0.0
 10
114.8109076318875
 20
-156.419392864541
 30
0.0
 10
114.8109076318875
 20
-156.419392864541
 30
0.0
 10
114.8109076318875
 20
-156.419392864541
 30
0.0
 10
114.8109076318875
 20
-156.2164767404597
 30
0.0
 10
114.8109076318875
 20
-156.2164767404597
 30
0.0
  0
SPLINE
  5
15C
330
152
100
AcDbEntity
  8
レイヤー 1
100
AcDbSpline
210
0.0
220
0.0
230
1.0
 70
    11
 71
     3
 72
    89
 73
    85
 74
     0
 42
0.0000000001
 43
0.0000000001
 40
0.0
 40
0.0
 40
0.0
 40
0.0
 40
1.0
 40
1.0
 40
1.0
 40
2.0
 40
2.0
 40
2.0
 40
3.0
 40
3.0
 40
3.0
 40
4.0
 40
4.0
 40
4.0
 40
5.0
 40
5.0
 40
5.0
 40
6.0
 40
6.0
 40
6.0
 40
7.0
 40
7.0
 40
7.0
 40
8.0
 40
8.0
 40
8.0
 40
9.0
 40
9.0
 40
9.0
 40
10.0
 40
10.0
 40
10.0
 40
11.0
 40
11.0
 40
11.0
 40
12.0
 40
12.0
 40
12.0
 40
13.0
 40
13.0
 40
13.0
 40
14.0
 40
14.0
 40
14.0
 40
15.0
 40
15.0
 40
15.0
 40
16.0
 40
16.0
 40
16.0
 40
17.0
 40
17.0
 40
17.0
 40
18.0
 40
18.0
 40
18.0
 40
19.0
 40
19.0
 40
19.0
 40
20.0
 40
20.0
 40
20.0
 40
21.0
 40
21.0
 40
21.0
 40
22.0
 40
22.0
 40
22.0
 40
23.0
 40
23.0
 40
23.0
 40
24.0
 40
24.0
 40
24.0
 40
25.0
 40
25.0
 40
25.0
 40
26.0
 40
26.0
 40
26.0
 40
27.0
 40
27.0
 40
27.0
 40
28.0
 40
28.0
 40
28.0
 40
28.0
 10
114.8109076318875
 20
-155.7679253082802
 30
0.0
 10
114.8109076318875
 20
-155.7679253082802
 30
0.0
 10
114.8109076318875
 20
-155.607039349119
 30
0.0
 10
114.8109076318875
 20
-155.607039349119
 30
0.0
 10
114.8109076318875
 20
-155.607039349119
 30
0.0
 10
114.9655924191752
 20
-155.607039349119
 30
0.0
 10
114.9655924191752
 20
-155.607039349119
 30
0.0
 10
114.9655924191752
 20
-155.607039349119
 30
0.0
 10
114.9655924191752
 20
-155.7679253082802
 30
0.0
 10
114.9655924191752
 20
-155.7679253082802
 30
0.0
 10
114.9655924191752
 20
-155.7679253082802
 30
0.0
 10
115.3590223235908
 20
-155.7679253082802
 30
0.0
 10
115.3590223235908
 20
-155.7679253082802
 30
0.0
 10
115.3590223235908
 20
-155.7679253082802
 30
0.0
 10
115.3590223235908
 20
-155.9222655860194
 30
0.0
 10
115.3590223235908
 20
-155.9222655860194
 30
0.0
 10
115.3590223235908
 20
-155.9222655860194
 30
0.0
 10
114.9655924191752
 20
-155.9222655860194
 30
0.0
 10
114.9655924191752
 20
-155.9222655860194
 30
0.0
 10
114.9655924191752
 20
-155.9222655860194
 30
0.0
 10
114.9655924191752
 20
-156.0769503733071
 30
0.0
 10
114.9655924191752
 20
-156.0769503733071
 30
0.0
 10
114.9655924191752
 20
-156.0769503733071
 30
0.0
 10
115.3207817637045
 20
-156.0769503733071
 30
0.0
 10
115.3207817637045
 20
-156.0769503733071
 30
0.0
 10
115.3207817637045
 20
-156.0769503733071
 30
0.0
 10
115.3207817637045
 20
-156.889303888729
 30
0.0
 10
115.3207817637045
 20
-156.889303888729
 30
0.0
 10
115.3207817637045
 20
-156.889303888729
 30
0.0
 10
114.9655924191752
 20
-156.889303888729
 30
0.0
 10
114.9655924191752
 20
-156.889303888729
 30
0.0
 10
114.9655924191752
 20
-156.889303888729
 30
0.0
 10
114.9655924191752
 20
-157.0584580770548
 30
0.0
 10
114.9655924191752
 20
-157.0584580770548
 30
0.0
 10
114.9655924191752
 20
-157.0584580770548
 30
0.0
 10
115.3738362341774
 20
-157.0584580770548
 30
0.0
 10
115.3738362341774
 20
-157.0584580770548
 30
0.0
 10
115.3738362341774
 20
-157.0584580770548
 30
0.0
 10
115.3738362341774
 20
-157.212798354794
 30
0.0
 10
115.3738362341774
 20
-157.212798354794
 30
0.0
 10
115.3738362341774
 20
-157.212798354794
 30
0.0
 10
114.9655924191752
 20
-157.212798354794
 30
0.0
 10
114.9655924191752
 20
-157.212798354794
 30
0.0
 10
114.9655924191752
 20
-157.212798354794
 30
0.0
 10
114.9655924191752
 20
-157.5662651515806
 30
0.0
 10
114.9655924191752
 20
-157.5662651515806
 30
0.0
 10
114.9655924191752
 20
-157.5662651515806
 30
0.0
 10
114.8109076318875
 20
-157.5662651515806
 30
0.0
 10
114.8109076318875
 20
-157.5662651515806
 30
0.0
 10
114.8109076318875
 20
-157.5662651515806
 30
0.0
 10
114.8109076318875
 20
-157.212798354794
 30
0.0
 10
114.8109076318875
 20
-157.212798354794
 30
0.0
 10
114.8109076318875
 20
-157.212798354794
 30
0.0
 10
114.4005967595943
 20
-157.212798354794
 30
0.0
 10
114.4005967595943
 20
-157.212798354794
 30
0.0
 10
114.4005967595943
 20
-157.212798354794
 30
0.0
 10
114.4005967595943
 20
-157.0584580770548
 30
0.0
 10
114.4005967595943
 20
-157.0584580770548
 30
0.0
 10
114.4005967595943
 20
-157.0584580770548
 30
0.0
 10
114.8109076318875
 20
-157.0584580770548
 30
0.0
 10
114.8109076318875
 20
-157.0584580770548
 30
0.0
 10
114.8109076318875
 20
-157.0584580770548
 30
0.0
 10
114.8109076318875
 20
-156.889303888729
 30
0.0
 10
114.8109076318875
 20
-156.889303888729
 30
0.0
 10
114.8109076318875
 20
-156.889303888729
 30
0.0
 10
114.4619194592317
 20
-156.889303888729
 30
0.0
 10
114.4619194592317
 20
-156.889303888729
 30
0.0
 10
114.4619194592317
 20
-156.889303888729
 30
0.0
 10
114.4619194592317
 20
-156.0769503733071
 30
0.0
 10
114.4619194592317
 20
-156.0769503733071
 30
0.0
 10
114.4619194592317
 20
-156.0769503733071
 30
0.0
 10
114.8109076318875
 20
-156.0769503733071
 30
0.0
 10
114.8109076318875
 20
-156.0769503733071
 30
0.0
 10
114.8109076318875
 20
-156.0769503733071
 30
0.0
 10
114.8109076318875
 20
-155.9222655860194
 30
0.0
 10
114.8109076318875
 20
-155.9222655860194
 30
0.0
 10
114.8109076318875
 20
-155.9222655860194
 30
0.0
 10
114.4216118420543
 20
-155.9222655860194
 30
0.0
 10
114.4216118420543
 20
-155.9222655860194
 30
0.0
 10
114.4216118420543
 20
-155.9222655860194
 30
0.0
 10
114.4216118420543
 20
-155.7679253082802
 30
0.0
 10
114.4216118420543
 20
-155.7679253082802
 30
0.0
 10
114.4216118420543
 20
-155.7679253082802
 30
0.0
 10
114.8109076318875
 20
-155.7679253082802
 30
0.0
 10
114.8109076318875
 20
-155.7679253082802
 30
0.0
  0
HATCH
  5
15D
330
152
100
AcDbEntity
  8
レイヤー 1
 62
    12
420
 15007762
440
 33554687
100
AcDbHatch
 10
0.0
 20
0.0
 30
0.0
210
0.0
220
0.0
230
1.0
  2
SOLID
 70
     1
 71
     1
 91
        7
 92
        1
 93
        1
 72
     4
 94
        3
 73
     0
 74
     0
 95
       38
 96
       34
 40
0.0
 40
0.0
 40
0.0
 40
0.0
 40
1.0
 40
1.0
 40
1.0
 40
2.0
 40
2.0
 40
2.0
 40
3.0
 40
3.0
 40
3.0
 40
4.0
 40
4.0
 40
4.0
 40
5.0
 40
5.0
 40
5.0
 40
6.0
 40
6.0
 40
6.0
 40
7.0
 40
7.0
 40
7.0
 40
8.0
 40
8.0
 40
8.0
 40
9.0
 40
9.0
 40
9.0
 40
10.0
 40
10.0
 40
10.0
 40
11.0
 40
11.0
 40
11.0
 40
11.0
 10
115.3335286169999
 20
-156.3580701649035
 10
115.4265461951017
 20
-156.2354247656286
 10
115.5516031612163
 20
-156.0555907812986
 10
115.6466877966092
 20
-155.607039349119
 10
115.6466877966092
 20
-155.607039349119
 10
115.8137749276437
 20
-155.6263318838365
 10
115.8137749276437
 20
-155.6263318838365
 10
115.7882812210529
 20
-155.7469102258202
 10
115.7651990813017
 20
-155.8378607466308
 10
115.7269585214155
 20
-155.9456922353191
 10
115.7269585214155
 20
-155.9456922353191
 10
116.355343937925
 20
-155.9456922353191
 10
116.355343937925
 20
-155.9456922353191
 10
116.355343937925
 20
-155.9456922353191
 10
116.355343937925
 20
-156.0979654557672
 10
116.355343937925
 20
-156.0979654557672
 10
116.3215820021696
 20
-156.2399033897594
 10
116.2261528572282
 20
-156.4979410416047
 10
116.1520833042953
 20
-156.6164523262973
 10
116.1520833042953
 20
-156.6164523262973
 10
115.9998100838472
 20
-156.5379041492336
 10
115.9998100838472
 20
-156.5379041492336
 10
116.0952392287887
 20
-156.4025118966632
 10
116.1606960430084
 20
-156.2144096831686
 10
116.1882568068904
 20
-156.1041666276406
 10
116.1882568068904
 20
-156.1041666276406
 10
115.6697699363603
 20
-156.1041666276406
 10
115.6697699363603
 20
-156.1041666276406
 10
115.5705511863851
 20
-156.3456678211566
 10
115.4964816334522
 20
-156.4342067751275
 10
115.458241073566
 20
-156.4786485068873
 10
115.458241073566
 20
-156.4786485068873
 10
115.3335286169999
 20
-156.3580701649035
 10
115.3335286169999
 20
-156.3580701649035
 97
        0
 97
        1
330
156
 92
        1
 93
        1
 72
     4
 94
        3
 73
     0
 74
     0
 95
       38
 96
       34
 40
0.0
 40
0.0
 40
0.0
 40
0.0
 40
1.0
 40
1.0
 40
1.0
 40
2.0
 40
2.0
 40
2.0
 40
3.0
 40
3.0
 40
3.0
 40
4.0
 40
4.0
 40
4.0
 40
5.0
 40
5.0
 40
5.0
 40
6.0
 40
6.0
 40
6.0
 40
7.0
 40
7.0
 40
7.0
 40
8.0
 40
8.0
 40
8.0
 40
9.0
 40
9.0
 40
9.0
 40
10.0
 40
10.0
 40
10.0
 40
11.0
 40
11.0
 40
11.0
 40
11.0
 10
115.2191514468897
 20
-157.4308728990103
 10
115.3018337385356
 20
-157.3778184285375
 10
115.4668538122791
 20
-157.2699869398492
 10
115.5726182436763
 20
-157.0625921916371
 10
115.720757349542
 20
-156.7707926040364
 10
115.720757349542
 20
-156.5444498306555
 10
115.720757349542
 20
-156.4597004817184
 10
115.720757349542
 20
-156.4597004817184
 10
115.720757349542
 20
-156.2250894791729
 10
115.720757349542
 20
-156.2250894791729
 10
115.720757349542
 20
-156.2250894791729
 10
115.8857774232855
 20
-156.2250894791729
 10
115.8857774232855
 20
-156.2250894791729
 10
115.8857774232855
 20
-156.2250894791729
 10
115.8857774232855
 20
-156.4514322525538
 10
115.8857774232855
 20
-156.4514322525538
 10
115.8857774232855
 20
-156.6502142620527
 10
115.9512342375052
 20
-156.8872368314379
 10
116.0528645543201
 20
-157.060525134346
 10
116.1693087817216
 20
-157.2593071438449
 10
116.2981553528699
 20
-157.3588704033686
 10
116.382904701807
 20
-157.420193103006
 10
116.382904701807
 20
-157.420193103006
 10
116.2750732131187
 20
-157.5703992661629
 10
116.2750732131187
 20
-157.5703992661629
 10
116.0973062860798
 20
-157.441208185466
 10
115.8985242765809
 20
-157.2021185587897
 10
115.8199760995172
 20
-156.8489962715516
 10
115.7545192852975
 20
-157.0880858982279
 10
115.6528889684826
 20
-157.3568033460774
 10
115.3442084130042
 20
-157.5662651515806
 10
115.3442084130042
 20
-157.5662651515806
 10
115.2191514468897
 20
-157.4308728990103
 10
115.2191514468897
 20
-157.4308728990103
 97
        0
 97
        1
330
157
 92
        1
 93
        1
 72
     4
 94
        3
 73
     0
 74
     0
 95
       17
 96
       13
 40
0.0
 40
0.0
 40
0.0
 40
0.0
 40
1.0
 40
1.0
 40
1.0
 40
2.0
 40
2.0
 40
2.0
 40
3.0
 40
3.0
 40
3.0
 40
4.0
 40
4.0
 40
4.0
 40
4.0
 10
115.1771212819696
 20
-156.5423827733644
 10
115.1771212819696
 20
-156.5423827733644
 10
114.9655924191752
 20
-156.5423827733644
 10
114.9655924191752
 20
-156.5423827733644
 10
114.9655924191752
 20
-156.5423827733644
 10
114.9655924191752
 20
-156.7494330120279
 10
114.9655924191752
 20
-156.7494330120279
 10
114.9655924191752
 20
-156.7494330120279
 10
115.1771212819696
 20
-156.7494330120279
 10
115.1771212819696
 20
-156.7494330120279
 10
115.1771212819696
 20
-156.7494330120279
 10
115.1771212819696
 20
-156.5423827733644
 10
115.1771212819696
 20
-156.5423827733644
 97
        0
 97
        1
330
158
 92
        1
 93
        1
 72
     4
 94
        3
 73
     0
 74
     0
 95
       17
 96
       13
 40
0.0
 40
0.0
 40
0.0
 40
0.0
 40
1.0
 40
1.0
 40
1.0
 40
2.0
 40
2.0
 40
2.0
 40
3.0
 40
3.0
 40
3.0
 40
4.0
 40
4.0
 40
4.0
 40
4.0
 10
115.1771212819696
 20
-156.2164767404597
 10
115.1771212819696
 20
-156.2164767404597
 10
114.9655924191752
 20
-156.2164767404597
 10
114.9655924191752
 20
-156.2164767404597
 10
114.9655924191752
 20
-156.2164767404597
 10
114.9655924191752
 20
-156.419392864541
 10
114.9655924191752
 20
-156.419392864541
 10
114.9655924191752
 20
-156.419392864541
 10
115.1771212819696
 20
-156.419392864541
 10
115.1771212819696
 20
-156.419392864541
 10
115.1771212819696
 20
-156.419392864541
 10
115.1771212819696
 20
-156.2164767404597
 10
115.1771212819696
 20
-156.2164767404597
 97
        0
 97
        1
330
159
 92
        1
 93
        1
 72
     4
 94
        3
 73
     0
 74
     0
 95
       17
 96
       13
 40
0.0
 40
0.0
 40
0.0
 40
0.0
 40
1.0
 40
1.0
 40
1.0
 40
2.0
 40
2.0
 40
2.0
 40
3.0
 40
3.0
 40
3.0
 40
4.0
 40
4.0
 40
4.0
 40
4.0
 10
114.8109076318875
 20
-156.5423827733644
 10
114.8109076318875
 20
-156.5423827733644
 10
114.603857393224
 20
-156.5423827733644
 10
114.603857393224
 20
-156.5423827733644
 10
114.603857393224
 20
-156.5423827733644
 10
114.603857393224
 20
-156.7494330120279
 10
114.603857393224
 20
-156.7494330120279
 10
114.603857393224
 20
-156.7494330120279
 10
114.8109076318875
 20
-156.7494330120279
 10
114.8109076318875
 20
-156.7494330120279
 10
114.8109076318875
 20
-156.7494330120279
 10
114.8109076318875
 20
-156.5423827733644
 10
114.8109076318875
 20
-156.5423827733644
 97
        0
 97
        1
330
15A
 92
        1
 93
        1
 72
     4
 94
        3
 73
     0
 74
     0
 95
       17
 96
       13
 40
0.0
 40
0.0
 40
0.0
 40
0.0
 40
1.0
 40
1.0
 40
1.0
 40
2.0
 40
2.0
 40
2.0
 40
3.0
 40
3.0
 40
3.0
 40
4.0
 40
4.0
 40
4.0
 40
4.0
 10
114.8109076318875
 20
-156.2164767404597
 10
114.8109076318875
 20
-156.2164767404597
 10
114.603857393224
 20
-156.2164767404597
 10
114.603857393224
 20
-156.2164767404597
 10
114.603857393224
 20
-156.2164767404597
 10
114.603857393224
 20
-156.419392864541
 10
114.603857393224
 20
-156.419392864541
 10
114.603857393224
 20
-156.419392864541
 10
114.8109076318875
 20
-156.419392864541
 10
114.8109076318875
 20
-156.419392864541
 10
114.8109076318875
 20
-156.419392864541
 10
114.8109076318875
 20
-156.2164767404597
 10
114.8109076318875
 20
-156.2164767404597
 97
        0
 97
        1
330
15B
 92
        1
 93
        1
 72
     4
 94
        3
 73
     0
 74
     0
 95
       89
 96
       85
 40
0.0
 40
0.0
 40
0.0
 40
0.0
 40
1.0
 40
1.0
 40
1.0
 40
2.0
 40
2.0
 40
2.0
 40
3.0
 40
3.0
 40
3.0
 40
4.0
 40
4.0
 40
4.0
 40
5.0
 40
5.0
 40
5.0
 40
6.0
 40
6.0
 40
6.0
 40
7.0
 40
7.0
 40
7.0
 40
8.0
 40
8.0
 40
8.0
 40
9.0
 40
9.0
 40
9.0
 40
10.0
 40
10.0
 40
10.0
 40
11.0
 40
11.0
 40
11.0
 40
12.0
 40
12.0
 40
12.0
 40
13.0
 40
13.0
 40
13.0
 40
14.0
 40
14.0
 40
14.0
 40
15.0
 40
15.0
 40
15.0
 40
16.0
 40
16.0
 40
16.0
 40
17.0
 40
17.0
 40
17.0
 40
18.0
 40
18.0
 40
18.0
 40
19.0
 40
19.0
 40
19.0
 40
20.0
 40
20.0
 40
20.0
 40
21.0
 40
21.0
 40
21.0
 40
22.0
 40
22.0
 40
22.0
 40
23.0
 40
23.0
 40
23.0
 40
24.0
 40
24.0
 40
24.0
 40
25.0
 40
25.0
 40
25.0
 40
26.0
 40
26.0
 40
26.0
 40
27.0
 40
27.0
 40
27.0
 40
28.0
 40
28.0
 40
28.0
 40
28.0
 10
114.8109076318875
 20
-155.7679253082802
 10
114.8109076318875
 20
-155.7679253082802
 10
114.8109076318875
 20
-155.607039349119
 10
114.8109076318875
 20
-155.607039349119
 10
114.8109076318875
 20
-155.607039349119
 10
114.9655924191752
 20
-155.607039349119
 10
114.9655924191752
 20
-155.607039349119
 10
114.9655924191752
 20
-155.607039349119
 10
114.9655924191752
 20
-155.7679253082802
 10
114.9655924191752
 20
-155.7679253082802
 10
114.9655924191752
 20
-155.7679253082802
 10
115.3590223235908
 20
-155.7679253082802
 10
115.3590223235908
 20
-155.7679253082802
 10
115.3590223235908
 20
-155.7679253082802
 10
115.3590223235908
 20
-155.9222655860194
 10
115.3590223235908
 20
-155.9222655860194
 10
115.3590223235908
 20
-155.9222655860194
 10
114.9655924191752
 20
-155.9222655860194
 10
114.9655924191752
 20
-155.9222655860194
 10
114.9655924191752
 20
-155.9222655860194
 10
114.9655924191752
 20
-156.0769503733071
 10
114.9655924191752
 20
-156.0769503733071
 10
114.9655924191752
 20
-156.0769503733071
 10
115.3207817637045
 20
-156.0769503733071
 10
115.3207817637045
 20
-156.0769503733071
 10
115.3207817637045
 20
-156.0769503733071
 10
115.3207817637045
 20
-156.889303888729
 10
115.3207817637045
 20
-156.889303888729
 10
115.3207817637045
 20
-156.889303888729
 10
114.9655924191752
 20
-156.889303888729
 10
114.9655924191752
 20
-156.889303888729
 10
114.9655924191752
 20
-156.889303888729
 10
114.9655924191752
 20
-157.0584580770548
 10
114.9655924191752
 20
-157.0584580770548
 10
114.9655924191752
 20
-157.0584580770548
 10
115.3738362341774
 20
-157.0584580770548
 10
115.3738362341774
 20
-157.0584580770548
 10
115.3738362341774
 20
-157.0584580770548
 10
115.3738362341774
 20
-157.212798354794
 10
115.3738362341774
 20
-157.212798354794
 10
115.3738362341774
 20
-157.212798354794
 10
114.9655924191752
 20
-157.212798354794
 10
114.9655924191752
 20
-157.212798354794
 10
114.9655924191752
 20
-157.212798354794
 10
114.9655924191752
 20
-157.5662651515806
 10
114.9655924191752
 20
-157.5662651515806
 10
114.9655924191752
 20
-157.5662651515806
 10
114.8109076318875
 20
-157.5662651515806
 10
114.8109076318875
 20
-157.5662651515806
 10
114.8109076318875
 20
-157.5662651515806
 10
114.8109076318875
 20
-157.212798354794
 10
114.8109076318875
 20
-157.212798354794
 10
114.8109076318875
 20
-157.212798354794
 10
114.4005967595943
 20
-157.212798354794
 10
114.4005967595943
 20
-157.212798354794
 10
114.4005967595943
 20
-157.212798354794
 10
114.4005967595943
 20
-157.0584580770548
 10
114.4005967595943
 20
-157.0584580770548
 10
114.4005967595943
 20
-157.0584580770548
 10
114.8109076318875
 20
-157.0584580770548
 10
114.8109076318875
 20
-157.0584580770548
 10
114.8109076318875
 20
-157.0584580770548
 10
114.8109076318875
 20
-156.889303888729
 10
114.8109076318875
 20
-156.889303888729
 10
114.8109076318875
 20
-156.889303888729
 10
114.4619194592317
 20
-156.889303888729
 10
114.4619194592317
 20
-156.889303888729
 10
114.4619194592317
 20
-156.889303888729
 10
114.4619194592317
 20
-156.0769503733071
 10
114.4619194592317
 20
-156.0769503733071
 10
114.4619194592317
 20
-156.0769503733071
 10
114.8109076318875
 20
-156.0769503733071
 10
114.8109076318875
 20
-156.0769503733071
 10
114.8109076318875
 20
-156.0769503733071
 10
114.8109076318875
 20
-155.9222655860194
 10
114.8109076318875
 20
-155.9222655860194
 10
114.8109076318875
 20
-155.9222655860194
 10
114.4216118420543
 20
-155.9222655860194
 10
114.4216118420543
 20
-155.9222655860194
 10
114.4216118420543
 20
-155.9222655860194
 10
114.4216118420543
 20
-155.7679253082802
 10
114.4216118420543
 20
-155.7679253082802
 10
114.4216118420543
 20
-155.7679253082802
 10
114.8109076318875
 20
-155.7679253082802
 10
114.8109076318875
 20
-155.7679253082802
 97
        0
 97
        1
330
15C
 75
     2
 76
     1
 98
        1
 10
0.0
 20
0.0
450
        0
451
        0
460
0.0
461
0.0
452
        0
462
0.0
453
        0
470

  0
SPLINE
  5
15E
330
152
100
AcDbEntity
  8
レイヤー 1
100
AcDbSpline
210
0.0
220
0.0
230
1.0
 70
     9
 71
     3
 72
    17
 73
    13
 74
     0
 42
0.0000000001
 43
0.0000000001
 40
0.0
 40
0.0
 40
0.0
 40
0.0
 40
1.0
 40
1.0
 40
1.0
 40
2.0
 40
2.0
 40
2.0
 40
3.0
 40
3.0
 40
3.0
 40
4.0
 40
4.0
 40
4.0
 40
4.0
 10
117.8481038116838
 20
-157.2572400865538
 30
0.0
 10
118.0679009036427
 20
-157.3695501993729
 30
0.0
 10
118.3345512942011
 20
-157.4074462497106
 30
0.0
 10
118.4633978653494
 20
-157.4181260457149
 30
0.0
 10
118.4633978653494
 20
-157.4181260457149
 30
0.0
 10
118.3938069365474
 20
-157.5724663234541
 30
0.0
 10
118.3938069365474
 20
-157.5724663234541
 30
0.0
 10
118.2732285945636
 20
-157.5576524128675
 30
0.0
 10
118.0107123185876
 20
-157.5173447956901
 30
0.0
 10
117.7464734948689
 20
-157.371617256664
 30
0.0
 10
117.7464734948689
 20
-157.371617256664
 30
0.0
 10
117.8481038116838
 20
-157.2572400865538
 30
0.0
 10
117.8481038116838
 20
-157.2572400865538
 30
0.0
  0
SPLINE
  5
15F
330
152
100
AcDbEntity
  8
レイヤー 1
100
AcDbSpline
210
0.0
220
0.0
230
1.0
 70
    11
 71
     3
 72
    50
 73
    46
 74
     0
 42
0.0000000001
 43
0.0000000001
 40
0.0
 40
0.0
 40
0.0
 40
0.0
 40
1.0
 40
1.0
 40
1.0
 40
2.0
 40
2.0
 40
2.0
 40
3.0
 40
3.0
 40
3.0
 40
4.0
 40
4.0
 40
4.0
 40
5.0
 40
5.0
 40
5.0
 40
6.0
 40
6.0
 40
6.0
 40
7.0
 40
7.0
 40
7.0
 40
8.0
 40
8.0
 40
8.0
 40
9.0
 40
9.0
 40
9.0
 40
10.0
 40
10.0
 40
10.0
 40
11.0
 40
11.0
 40
11.0
 40
12.0
 40
12.0
 40
12.0
 40
13.0
 40
13.0
 40
13.0
 40
14.0
 40
14.0
 40
14.0
 40
15.0
 40
15.0
 40
15.0
 40
15.0
 10
117.7357936988646
 20
-155.9053846181417
 30
0.0
 10
117.7357936988646
 20
-155.9053846181417
 30
0.0
 10
118.4720106040625
 20
-155.9053846181417
 30
0.0
 10
118.4720106040625
 20
-155.9053846181417
 30
0.0
 10
118.4720106040625
 20
-155.9053846181417
 30
0.0
 10
118.4720106040625
 20
-156.0304415842563
 30
0.0
 10
118.4720106040625
 20
-156.0304415842563
 30
0.0
 10
118.4720106040625
 20
-156.0304415842563
 30
0.0
 10
118.1419704565756
 20
-156.0304415842563
 30
0.0
 10
118.1419704565756
 20
-156.0304415842563
 30
0.0
 10
118.1419704565756
 20
-156.0304415842563
 30
0.0
 10
118.1419704565756
 20
-156.3053602039792
 30
0.0
 10
118.1419704565756
 20
-156.3053602039792
 30
0.0
 10
118.1419704565756
 20
-156.3053602039792
 30
0.0
 10
117.9855631215453
 20
-156.3053602039792
 30
0.0
 10
117.9855631215453
 20
-156.3053602039792
 30
0.0
 10
117.9855631215453
 20
-156.3053602039792
 30
0.0
 10
117.9855631215453
 20
-156.0304415842563
 30
0.0
 10
117.9855631215453
 20
-156.0304415842563
 30
0.0
 10
117.9855631215453
 20
-156.0304415842563
 30
0.0
 10
117.7209797882781
 20
-156.0304415842563
 30
0.0
 10
117.7209797882781
 20
-156.0304415842563
 30
0.0
 10
117.6954860816872
 20
-156.1592881554046
 30
0.0
 10
117.6448431780541
 20
-156.2502386762152
 30
0.0
 10
117.54769148537
 20
-156.3329209678612
 30
0.0
 10
117.54769148537
 20
-156.3329209678612
 30
0.0
 10
117.4247015765466
 20
-156.2250894791729
 30
0.0
 10
117.4247015765466
 20
-156.2250894791729
 30
0.0
 10
117.5600938291169
 20
-156.1148464236449
 30
0.0
 10
117.5835204784166
 20
-155.9773871137834
 30
0.0
 10
117.5835204784166
 20
-155.9033175608505
 30
0.0
 10
117.5835204784166
 20
-155.9033175608505
 30
0.0
 10
117.5835204784166
 20
-155.6600938195919
 30
0.0
 10
117.5835204784166
 20
-155.6600938195919
 30
0.0
 10
118.0530869930562
 20
-155.6600938195919
 30
0.0
 10
118.2201741240908
 20
-155.6197862024145
 30
0.0
 10
118.3641791153742
 20
-155.5774115279459
 30
0.0
 10
118.3641791153742
 20
-155.5774115279459
 30
0.0
 10
118.4234347577205
 20
-155.7152153473559
 30
0.0
 10
118.4234347577205
 20
-155.7152153473559
 30
0.0
 10
118.1526502525799
 20
-155.784806276158
 30
0.0
 10
117.8374240156795
 20
-155.7892849002888
 30
0.0
 10
117.7357936988646
 20
-155.7892849002888
 30
0.0
 10
117.7357936988646
 20
-155.7892849002888
 30
0.0
 10
117.7357936988646
 20
-155.9053846181417
 30
0.0
 10
117.7357936988646
 20
-155.9053846181417
 30
0.0
  0
SPLINE
  5
160
330
152
100
AcDbEntity
  8
レイヤー 1
100
AcDbSpline
210
0.0
220
0.0
230
1.0
 70
    11
 71
     3
 72
    17
 73
    13
 74
     0
 42
0.0000000001
 43
0.0000000001
 40
0.0
 40
0.0
 40
0.0
 40
0.0
 40
1.0
 40
1.0
 40
1.0
 40
2.0
 40
2.0
 40
2.0
 40
3.0
 40
3.0
 40
3.0
 40
4.0
 40
4.0
 40
4.0
 40
4.0
 10
118.072035018225
 20
-156.9757757854088
 30
0.0
 10
118.072035018225
 20
-156.9757757854088
 30
0.0
 10
116.9127603874384
 20
-156.9757757854088
 30
0.0
 10
116.9127603874384
 20
-156.9757757854088
 30
0.0
 10
116.9127603874384
 20
-156.9757757854088
 30
0.0
 10
116.9127603874384
 20
-157.11564666211
 30
0.0
 10
116.9127603874384
 20
-157.11564666211
 30
0.0
 10
116.9127603874384
 20
-157.11564666211
 30
0.0
 10
118.072035018225
 20
-157.11564666211
 30
0.0
 10
118.072035018225
 20
-157.11564666211
 30
0.0
 10
118.072035018225
 20
-157.11564666211
 30
0.0
 10
118.072035018225
 20
-156.9757757854088
 30
0.0
 10
118.072035018225
 20
-156.9757757854088
 30
0.0
  0
SPLINE
  5
161
330
152
100
AcDbEntity
  8
レイヤー 1
100
AcDbSpline
210
0.0
220
0.0
230
1.0
 70
    11
 71
     3
 72
    17
 73
    13
 74
     0
 42
0.0000000001
 43
0.0000000001
 40
0.0
 40
0.0
 40
0.0
 40
0.0
 40
1.0
 40
1.0
 40
1.0
 40
2.0
 40
2.0
 40
2.0
 40
3.0
 40
3.0
 40
3.0
 40
4.0
 40
4.0
 40
4.0
 40
4.0
 10
118.072035018225
 20
-156.7242838149856
 30
0.0
 10
118.072035018225
 20
-156.7242838149856
 30
0.0
 10
116.9127603874384
 20
-156.7242838149856
 30
0.0
 10
116.9127603874384
 20
-156.7242838149856
 30
0.0
 10
116.9127603874384
 20
-156.7242838149856
 30
0.0
 10
116.9127603874384
 20
-156.8658772394293
 30
0.0
 10
116.9127603874384
 20
-156.8658772394293
 30
0.0
 10
116.9127603874384
 20
-156.8658772394293
 30
0.0
 10
118.072035018225
 20
-156.8658772394293
 30
0.0
 10
118.072035018225
 20
-156.8658772394293
 30
0.0
 10
118.072035018225
 20
-156.8658772394293
 30
0.0
 10
118.072035018225
 20
-156.7242838149856
 30
0.0
 10
118.072035018225
 20
-156.7242838149856
 30
0.0
  0
SPLINE
  5
162
330
152
100
AcDbEntity
  8
レイヤー 1
100
AcDbSpline
210
0.0
220
0.0
230
1.0
 70
    11
 71
     3
 72
    17
 73
    13
 74
     0
 42
0.0000000001
 43
0.0000000001
 40
0.0
 40
0.0
 40
0.0
 40
0.0
 40
1.0
 40
1.0
 40
1.0
 40
2.0
 40
2.0
 40
2.0
 40
3.0
 40
3.0
 40
3.0
 40
4.0
 40
4.0
 40
4.0
 40
4.0
 10
118.072035018225
 20
-156.4851941883092
 30
0.0
 10
118.072035018225
 20
-156.4851941883092
 30
0.0
 10
116.9127603874384
 20
-156.4851941883092
 30
0.0
 10
116.9127603874384
 20
-156.4851941883092
 30
0.0
 10
116.9127603874384
 20
-156.4851941883092
 30
0.0
 10
116.9127603874384
 20
-156.6140407594576
 30
0.0
 10
116.9127603874384
 20
-156.6140407594576
 30
0.0
 10
116.9127603874384
 20
-156.6140407594576
 30
0.0
 10
118.072035018225
 20
-156.6140407594576
 30
0.0
 10
118.072035018225
 20
-156.6140407594576
 30
0.0
 10
118.072035018225
 20
-156.6140407594576
 30
0.0
 10
118.072035018225
 20
-156.4851941883092
 30
0.0
 10
118.072035018225
 20
-156.4851941883092
 30
0.0
  0
SPLINE
  5
163
330
152
100
AcDbEntity
  8
レイヤー 1
100
AcDbSpline
210
0.0
220
0.0
230
1.0
 70
    11
 71
     3
 72
    32
 73
    28
 74
     0
 42
0.0000000001
 43
0.0000000001
 40
0.0
 40
0.0
 40
0.0
 40
0.0
 40
1.0
 40
1.0
 40
1.0
 40
2.0
 40
2.0
 40
2.0
 40
3.0
 40
3.0
 40
3.0
 40
4.0
 40
4.0
 40
4.0
 40
5.0
 40
5.0
 40
5.0
 40
6.0
 40
6.0
 40
6.0
 40
7.0
 40
7.0
 40
7.0
 40
8.0
 40
8.0
 40
8.0
 40
9.0
 40
9.0
 40
9.0
 40
9.0
 10
116.7436061991127
 20
-157.2510389146803
 30
0.0
 10
116.7436061991127
 20
-157.2510389146803
 30
0.0
 10
116.7436061991127
 20
-156.3518689930301
 30
0.0
 10
116.7436061991127
 20
-156.3518689930301
 30
0.0
 10
116.7436061991127
 20
-156.3518689930301
 30
0.0
 10
118.2415337160993
 20
-156.3518689930301
 30
0.0
 10
118.2415337160993
 20
-156.3518689930301
 30
0.0
 10
118.2415337160993
 20
-156.3518689930301
 30
0.0
 10
118.2415337160993
 20
-157.2510389146803
 30
0.0
 10
118.2415337160993
 20
-157.2510389146803
 30
0.0
 10
118.2415337160993
 20
-157.2510389146803
 30
0.0
 10
117.0970729958993
 20
-157.2510389146803
 30
0.0
 10
117.0970729958993
 20
-157.2510389146803
 30
0.0
 10
117.0970729958993
 20
-157.2510389146803
 30
0.0
 10
117.2028374272965
 20
-157.3609374606597
 30
0.0
 10
117.2028374272965
 20
-157.3609374606597
 30
0.0
 10
117.037817353553
 20
-157.4560220960526
 30
0.0
 10
116.8727972798096
 20
-157.5173447956901
 30
0.0
 10
116.5765190680781
 20
-157.5683322088718
 30
0.0
 10
116.5765190680781
 20
-157.5683322088718
 30
0.0
 10
116.5110622538583
 20
-157.4160589884237
 30
0.0
 10
116.5110622538583
 20
-157.4160589884237
 30
0.0
 10
116.8896782476873
 20
-157.3630045179509
 30
0.0
 10
117.0123236469622
 20
-157.29548064644
 30
0.0
 10
117.0925943717685
 20
-157.2510389146803
 30
0.0
 10
117.0925943717685
 20
-157.2510389146803
 30
0.0
 10
116.7436061991127
 20
-157.2510389146803
 30
0.0
 10
116.7436061991127
 20
-157.2510389146803
 30
0.0
  0
SPLINE
  5
164
330
152
100
AcDbEntity
  8
レイヤー 1
100
AcDbSpline
210
0.0
220
0.0
230
1.0
 70
    11
 71
     3
 72
    50
 73
    46
 74
     0
 42
0.0000000001
 43
0.0000000001
 40
0.0
 40
0.0
 40
0.0
 40
0.0
 40
1.0
 40
1.0
 40
1.0
 40
2.0
 40
2.0
 40
2.0
 40
3.0
 40
3.0
 40
3.0
 40
4.0
 40
4.0
 40
4.0
 40
5.0
 40
5.0
 40
5.0
 40
6.0
 40
6.0
 40
6.0
 40
7.0
 40
7.0
 40
7.0
 40
8.0
 40
8.0
 40
8.0
 40
9.0
 40
9.0
 40
9.0
 40
10.0
 40
10.0
 40
10.0
 40
11.0
 40
11.0
 40
11.0
 40
12.0
 40
12.0
 40
12.0
 40
13.0
 40
13.0
 40
13.0
 40
14.0
 40
14.0
 40
14.0
 40
15.0
 40
15.0
 40
15.0
 40
15.0
 10
116.8283555480498
 20
-155.9053846181417
 30
0.0
 10
116.8283555480498
 20
-155.9053846181417
 30
0.0
 10
117.4798231043106
 20
-155.9053846181417
 30
0.0
 10
117.4798231043106
 20
-155.9053846181417
 30
0.0
 10
117.4798231043106
 20
-155.9053846181417
 30
0.0
 10
117.4798231043106
 20
-156.0304415842563
 30
0.0
 10
117.4798231043106
 20
-156.0304415842563
 30
0.0
 10
117.4798231043106
 20
-156.0304415842563
 30
0.0
 10
117.2028374272965
 20
-156.0304415842563
 30
0.0
 10
117.2028374272965
 20
-156.0304415842563
 30
0.0
 10
117.2028374272965
 20
-156.0304415842563
 30
0.0
 10
117.2028374272965
 20
-156.3053602039792
 30
0.0
 10
117.2028374272965
 20
-156.3053602039792
 30
0.0
 10
117.2028374272965
 20
-156.3053602039792
 30
0.0
 10
117.0419514681353
 20
-156.3053602039792
 30
0.0
 10
117.0419514681353
 20
-156.3053602039792
 30
0.0
 10
117.0419514681353
 20
-156.3053602039792
 30
0.0
 10
117.0419514681353
 20
-156.0304415842563
 30
0.0
 10
117.0419514681353
 20
-156.0304415842563
 30
0.0
 10
117.0419514681353
 20
-156.0304415842563
 30
0.0
 10
116.8218098666279
 20
-156.0304415842563
 30
0.0
 10
116.8218098666279
 20
-156.0304415842563
 30
0.0
 10
116.8114745801721
 20
-156.1000325130583
 30
0.0
 10
116.7859808735813
 20
-156.2946804079749
 30
0.0
 10
116.6316405958421
 20
-156.4448865711318
 30
0.0
 10
116.6316405958421
 20
-156.4448865711318
 30
0.0
 10
116.5089951965672
 20
-156.3349880251523
 30
0.0
 10
116.5089951965672
 20
-156.3349880251523
 30
0.0
 10
116.6295735385509
 20
-156.2354247656286
 30
0.0
 10
116.671603703471
 20
-156.0304415842563
 30
0.0
 10
116.671603703471
 20
-155.9477592926103
 30
0.0
 10
116.671603703471
 20
-155.9477592926103
 30
0.0
 10
116.671603703471
 20
-155.662160876883
 30
0.0
 10
116.671603703471
 20
-155.662160876883
 30
0.0
 10
117.1563286382456
 20
-155.662160876883
 30
0.0
 10
117.3106689159848
 20
-155.6156520878322
 30
0.0
 10
117.4057535513777
 20
-155.5880913239502
 30
0.0
 10
117.4057535513777
 20
-155.5880913239502
 30
0.0
 10
117.4588080218506
 20
-155.7276176911028
 30
0.0
 10
117.4588080218506
 20
-155.7276176911028
 30
0.0
 10
117.2493462163474
 20
-155.7765380469934
 30
0.0
 10
117.086393199895
 20
-155.7868733334491
 30
0.0
 10
116.8283555480498
 20
-155.7913519575799
 30
0.0
 10
116.8283555480498
 20
-155.7913519575799
 30
0.0
 10
116.8283555480498
 20
-155.9053846181417
 30
0.0
 10
116.8283555480498
 20
-155.9053846181417
 30
0.0
  0
HATCH
  5
165
330
152
100
AcDbEntity
  8
レイヤー 1
 62
    12
420
 15007762
440
 33554687
100
AcDbHatch
 10
0.0
 20
0.0
 30
0.0
210
0.0
220
0.0
230
1.0
  2
SOLID
 70
     1
 71
     1
 91
        7
 92
        1
 93
        1
 72
     4
 94
        3
 73
     0
 74
     0
 95
       17
 96
       13
 40
0.0
 40
0.0
 40
0.0
 40
0.0
 40
1.0
 40
1.0
 40
1.0
 40
2.0
 40
2.0
 40
2.0
 40
3.0
 40
3.0
 40
3.0
 40
4.0
 40
4.0
 40
4.0
 40
4.0
 10
117.8481038116838
 20
-157.2572400865538
 10
118.0679009036427
 20
-157.3695501993729
 10
118.3345512942011
 20
-157.4074462497106
 10
118.4633978653494
 20
-157.4181260457149
 10
118.4633978653494
 20
-157.4181260457149
 10
118.3938069365474
 20
-157.5724663234541
 10
118.3938069365474
 20
-157.5724663234541
 10
118.2732285945636
 20
-157.5576524128675
 10
118.0107123185876
 20
-157.5173447956901
 10
117.7464734948689
 20
-157.371617256664
 10
117.7464734948689
 20
-157.371617256664
 10
117.8481038116838
 20
-157.2572400865538
 10
117.8481038116838
 20
-157.2572400865538
 97
        0
 97
        1
330
15E
 92
        1
 93
        1
 72
     4
 94
        3
 73
     0
 74
     0
 95
       50
 96
       46
 40
0.0
 40
0.0
 40
0.0
 40
0.0
 40
1.0
 40
1.0
 40
1.0
 40
2.0
 40
2.0
 40
2.0
 40
3.0
 40
3.0
 40
3.0
 40
4.0
 40
4.0
 40
4.0
 40
5.0
 40
5.0
 40
5.0
 40
6.0
 40
6.0
 40
6.0
 40
7.0
 40
7.0
 40
7.0
 40
8.0
 40
8.0
 40
8.0
 40
9.0
 40
9.0
 40
9.0
 40
10.0
 40
10.0
 40
10.0
 40
11.0
 40
11.0
 40
11.0
 40
12.0
 40
12.0
 40
12.0
 40
13.0
 40
13.0
 40
13.0
 40
14.0
 40
14.0
 40
14.0
 40
15.0
 40
15.0
 40
15.0
 40
15.0
 10
117.7357936988646
 20
-155.9053846181417
 10
117.7357936988646
 20
-155.9053846181417
 10
118.4720106040625
 20
-155.9053846181417
 10
118.4720106040625
 20
-155.9053846181417
 10
118.4720106040625
 20
-155.9053846181417
 10
118.4720106040625
 20
-156.0304415842563
 10
118.4720106040625
 20
-156.0304415842563
 10
118.4720106040625
 20
-156.0304415842563
 10
118.1419704565756
 20
-156.0304415842563
 10
118.1419704565756
 20
-156.0304415842563
 10
118.1419704565756
 20
-156.0304415842563
 10
118.1419704565756
 20
-156.3053602039792
 10
118.1419704565756
 20
-156.3053602039792
 10
118.1419704565756
 20
-156.3053602039792
 10
117.9855631215453
 20
-156.3053602039792
 10
117.9855631215453
 20
-156.3053602039792
 10
117.9855631215453
 20
-156.3053602039792
 10
117.9855631215453
 20
-156.0304415842563
 10
117.9855631215453
 20
-156.0304415842563
 10
117.9855631215453
 20
-156.0304415842563
 10
117.7209797882781
 20
-156.0304415842563
 10
117.7209797882781
 20
-156.0304415842563
 10
117.6954860816872
 20
-156.1592881554046
 10
117.6448431780541
 20
-156.2502386762152
 10
117.54769148537
 20
-156.3329209678612
 10
117.54769148537
 20
-156.3329209678612
 10
117.4247015765466
 20
-156.2250894791729
 10
117.4247015765466
 20
-156.2250894791729
 10
117.5600938291169
 20
-156.1148464236449
 10
117.5835204784166
 20
-155.9773871137834
 10
117.5835204784166
 20
-155.9033175608505
 10
117.5835204784166
 20
-155.9033175608505
 10
117.5835204784166
 20
-155.6600938195919
 10
117.5835204784166
 20
-155.6600938195919
 10
118.0530869930562
 20
-155.6600938195919
 10
118.2201741240908
 20
-155.6197862024145
 10
118.3641791153742
 20
-155.5774115279459
 10
118.3641791153742
 20
-155.5774115279459
 10
118.4234347577205
 20
-155.7152153473559
 10
118.4234347577205
 20
-155.7152153473559
 10
118.1526502525799
 20
-155.784806276158
 10
117.8374240156795
 20
-155.7892849002888
 10
117.7357936988646
 20
-155.7892849002888
 10
117.7357936988646
 20
-155.7892849002888
 10
117.7357936988646
 20
-155.9053846181417
 10
117.7357936988646
 20
-155.9053846181417
 97
        0
 97
        1
330
15F
 92
        1
 93
        1
 72
     4
 94
        3
 73
     0
 74
     0
 95
       17
 96
       13
 40
0.0
 40
0.0
 40
0.0
 40
0.0
 40
1.0
 40
1.0
 40
1.0
 40
2.0
 40
2.0
 40
2.0
 40
3.0
 40
3.0
 40
3.0
 40
4.0
 40
4.0
 40
4.0
 40
4.0
 10
118.072035018225
 20
-156.9757757854088
 10
118.072035018225
 20
-156.9757757854088
 10
116.9127603874384
 20
-156.9757757854088
 10
116.9127603874384
 20
-156.9757757854088
 10
116.9127603874384
 20
-156.9757757854088
 10
116.9127603874384
 20
-157.11564666211
 10
116.9127603874384
 20
-157.11564666211
 10
116.9127603874384
 20
-157.11564666211
 10
118.072035018225
 20
-157.11564666211
 10
118.072035018225
 20
-157.11564666211
 10
118.072035018225
 20
-157.11564666211
 10
118.072035018225
 20
-156.9757757854088
 10
118.072035018225
 20
-156.9757757854088
 97
        0
 97
        1
330
160
 92
        1
 93
        1
 72
     4
 94
        3
 73
     0
 74
     0
 95
       17
 96
       13
 40
0.0
 40
0.0
 40
0.0
 40
0.0
 40
1.0
 40
1.0
 40
1.0
 40
2.0
 40
2.0
 40
2.0
 40
3.0
 40
3.0
 40
3.0
 40
4.0
 40
4.0
 40
4.0
 40
4.0
 10
118.072035018225
 20
-156.7242838149856
 10
118.072035018225
 20
-156.7242838149856
 10
116.9127603874384
 20
-156.7242838149856
 10
116.9127603874384
 20
-156.7242838149856
 10
116.9127603874384
 20
-156.7242838149856
 10
116.9127603874384
 20
-156.8658772394293
 10
116.9127603874384
 20
-156.8658772394293
 10
116.9127603874384
 20
-156.8658772394293
 10
118.072035018225
 20
-156.8658772394293
 10
118.072035018225
 20
-156.8658772394293
 10
118.072035018225
 20
-156.8658772394293
 10
118.072035018225
 20
-156.7242838149856
 10
118.072035018225
 20
-156.7242838149856
 97
        0
 97
        1
330
161
 92
        1
 93
        1
 72
     4
 94
        3
 73
     0
 74
     0
 95
       17
 96
       13
 40
0.0
 40
0.0
 40
0.0
 40
0.0
 40
1.0
 40
1.0
 40
1.0
 40
2.0
 40
2.0
 40
2.0
 40
3.0
 40
3.0
 40
3.0
 40
4.0
 40
4.0
 40
4.0
 40
4.0
 10
118.072035018225
 20
-156.4851941883092
 10
118.072035018225
 20
-156.4851941883092
 10
116.9127603874384
 20
-156.4851941883092
 10
116.9127603874384
 20
-156.4851941883092
 10
116.9127603874384
 20
-156.4851941883092
 10
116.9127603874384
 20
-156.6140407594576
 10
116.9127603874384
 20
-156.6140407594576
 10
116.9127603874384
 20
-156.6140407594576
 10
118.072035018225
 20
-156.6140407594576
 10
118.072035018225
 20
-156.6140407594576
 10
118.072035018225
 20
-156.6140407594576
 10
118.072035018225
 20
-156.4851941883092
 10
118.072035018225
 20
-156.4851941883092
 97
        0
 97
        1
330
162
 92
        1
 93
        1
 72
     4
 94
        3
 73
     0
 74
     0
 95
       32
 96
       28
 40
0.0
 40
0.0
 40
0.0
 40
0.0
 40
1.0
 40
1.0
 40
1.0
 40
2.0
 40
2.0
 40
2.0
 40
3.0
 40
3.0
 40
3.0
 40
4.0
 40
4.0
 40
4.0
 40
5.0
 40
5.0
 40
5.0
 40
6.0
 40
6.0
 40
6.0
 40
7.0
 40
7.0
 40
7.0
 40
8.0
 40
8.0
 40
8.0
 40
9.0
 40
9.0
 40
9.0
 40
9.0
 10
116.7436061991127
 20
-157.2510389146803
 10
116.7436061991127
 20
-157.2510389146803
 10
116.7436061991127
 20
-156.3518689930301
 10
116.7436061991127
 20
-156.3518689930301
 10
116.7436061991127
 20
-156.3518689930301
 10
118.2415337160993
 20
-156.3518689930301
 10
118.2415337160993
 20
-156.3518689930301
 10
118.2415337160993
 20
-156.3518689930301
 10
118.2415337160993
 20
-157.2510389146803
 10
118.2415337160993
 20
-157.2510389146803
 10
118.2415337160993
 20
-157.2510389146803
 10
117.0970729958993
 20
-157.2510389146803
 10
117.0970729958993
 20
-157.2510389146803
 10
117.0970729958993
 20
-157.2510389146803
 10
117.2028374272965
 20
-157.3609374606597
 10
117.2028374272965
 20
-157.3609374606597
 10
117.037817353553
 20
-157.4560220960526
 10
116.8727972798096
 20
-157.5173447956901
 10
116.5765190680781
 20
-157.5683322088718
 10
116.5765190680781
 20
-157.5683322088718
 10
116.5110622538583
 20
-157.4160589884237
 10
116.5110622538583
 20
-157.4160589884237
 10
116.8896782476873
 20
-157.3630045179509
 10
117.0123236469622
 20
-157.29548064644
 10
117.0925943717685
 20
-157.2510389146803
 10
117.0925943717685
 20
-157.2510389146803
 10
116.7436061991127
 20
-157.2510389146803
 10
116.7436061991127
 20
-157.2510389146803
 97
        0
 97
        1
330
163
 92
        1
 93
        1
 72
     4
 94
        3
 73
     0
 74
     0
 95
       50
 96
       46
 40
0.0
 40
0.0
 40
0.0
 40
0.0
 40
1.0
 40
1.0
 40
1.0
 40
2.0
 40
2.0
 40
2.0
 40
3.0
 40
3.0
 40
3.0
 40
4.0
 40
4.0
 40
4.0
 40
5.0
 40
5.0
 40
5.0
 40
6.0
 40
6.0
 40
6.0
 40
7.0
 40
7.0
 40
7.0
 40
8.0
 40
8.0
 40
8.0
 40
9.0
 40
9.0
 40
9.0
 40
10.0
 40
10.0
 40
10.0
 40
11.0
 40
11.0
 40
11.0
 40
12.0
 40
12.0
 40
12.0
 40
13.0
 40
13.0
 40
13.0
 40
14.0
 40
14.0
 40
14.0
 40
15.0
 40
15.0
 40
15.0
 40
15.0
 10
116.8283555480498
 20
-155.9053846181417
 10
116.8283555480498
 20
-155.9053846181417
 10
117.4798231043106
 20
-155.9053846181417
 10
117.4798231043106
 20
-155.9053846181417
 10
117.4798231043106
 20
-155.9053846181417
 10
117.4798231043106
 20
-156.0304415842563
 10
117.4798231043106
 20
-156.0304415842563
 10
117.4798231043106
 20
-156.0304415842563
 10
117.2028374272965
 20
-156.0304415842563
 10
117.2028374272965
 20
-156.0304415842563
 10
117.2028374272965
 20
-156.0304415842563
 10
117.2028374272965
 20
-156.3053602039792
 10
117.2028374272965
 20
-156.3053602039792
 10
117.2028374272965
 20
-156.3053602039792
 10
117.0419514681353
 20
-156.3053602039792
 10
117.0419514681353
 20
-156.3053602039792
 10
117.0419514681353
 20
-156.3053602039792
 10
117.0419514681353
 20
-156.0304415842563
 10
117.0419514681353
 20
-156.0304415842563
 10
117.0419514681353
 20
-156.0304415842563
 10
116.8218098666279
 20
-156.0304415842563
 10
116.8218098666279
 20
-156.0304415842563
 10
116.8114745801721
 20
-156.1000325130583
 10
116.7859808735813
 20
-156.2946804079749
 10
116.6316405958421
 20
-156.4448865711318
 10
116.6316405958421
 20
-156.4448865711318
 10
116.5089951965672
 20
-156.3349880251523
 10
116.5089951965672
 20
-156.3349880251523
 10
116.6295735385509
 20
-156.2354247656286
 10
116.671603703471
 20
-156.0304415842563
 10
116.671603703471
 20
-155.9477592926103
 10
116.671603703471
 20
-155.9477592926103
 10
116.671603703471
 20
-155.662160876883
 10
116.671603703471
 20
-155.662160876883
 10
117.1563286382456
 20
-155.662160876883
 10
117.3106689159848
 20
-155.6156520878322
 10
117.4057535513777
 20
-155.5880913239502
 10
117.4057535513777
 20
-155.5880913239502
 10
117.4588080218506
 20
-155.7276176911028
 10
117.4588080218506
 20
-155.7276176911028
 10
117.2493462163474
 20
-155.7765380469934
 10
117.086393199895
 20
-155.7868733334491
 10
116.8283555480498
 20
-155.7913519575799
 10
116.8283555480498
 20
-155.7913519575799
 10
116.8283555480498
 20
-155.9053846181417
 10
116.8283555480498
 20
-155.9053846181417
 97
        0
 97
        1
330
164
 75
     2
 76
     1
 98
        1
 10
0.0
 20
0.0
450
        0
451
        0
460
0.0
461
0.0
452
        0
462
0.0
453
        0
470

  0
ENDBLK
  5
155
330
152
100
AcDbEntity
  8
0
100
AcDbBlockEnd
  0
BLOCK
  5
168
330
166
100
AcDbEntity
  8
0
100
AcDbBlockBegin
  2
Block_16
 70
     0
 10
0.0
 20
0.0
 30
0.0
  3
Block_16
  1

  0
INSERT
  5
16B
330
166
100
AcDbEntity
  8
レイヤー 1
100
AcDbBlockReference
  2
Block_17
 10
0.0
 20
0.0
 30
0.0
  0
ENDBLK
  5
169
330
166
100
AcDbEntity
  8
0
100
AcDbBlockEnd
  0
BLOCK
  5
16C
330
16A
100
AcDbEntity
  8
0
100
AcDbBlockBegin
  2
Block_17
 70
     0
 10
0.0
 20
0.0
 30
0.0
  3
Block_17
  1

  0
SPLINE
  5
16E
330
16A
100
AcDbEntity
  8
レイヤー 1
100
AcDbSpline
210
0.0
220
0.0
230
1.0
 70
     9
 71
     3
 72
    17
 73
    13
 74
     0
 42
0.0000000001
 43
0.0000000001
 40
0.0
 40
0.0
 40
0.0
 40
0.0
 40
1.0
 40
1.0
 40
1.0
 40
2.0
 40
2.0
 40
2.0
 40
3.0
 40
3.0
 40
3.0
 40
4.0
 40
4.0
 40
4.0
 40
4.0
 10
127.1825900289682
 20
-153.6671060813749
 30
0.0
 10
127.1657090610905
 20
-153.696733902548
 30
0.0
 10
127.1150661574573
 20
-153.7897514806498
 30
0.0
 10
127.1043863614531
 20
-153.8086995058186
 30
0.0
 10
127.2949001417874
 20
-153.8679551481649
 30
0.0
 10
127.3159152242474
 20
-153.8741563200384
 30
0.0
 10
127.3879177198891
 20
-153.9017170839204
 30
0.0
 10
127.4430392476531
 20
-153.8149006776921
 30
0.0
 10
127.4661213874043
 20
-153.7408311247592
 30
0.0
 10
127.4809352979909
 20
-153.6671060813749
 30
0.0
 10
127.4809352979909
 20
-153.6671060813749
 30
0.0
 10
127.1825900289682
 20
-153.6671060813749
 30
0.0
 10
127.1825900289682
 20
-153.6671060813749
 30
0.0
  0
SPLINE
  5
16F
330
16A
100
AcDbEntity
  8
レイヤー 1
100
AcDbSpline
210
0.0
220
0.0
230
1.0
 70
    11
 71
     3
 72
    20
 73
    16
 74
     0
 42
0.0000000001
 43
0.0000000001
 40
0.0
 40
0.0
 40
0.0
 40
0.0
 40
1.0
 40
1.0
 40
1.0
 40
2.0
 40
2.0
 40
2.0
 40
3.0
 40
3.0
 40
3.0
 40
4.0
 40
4.0
 40
4.0
 40
5.0
 40
5.0
 40
5.0
 40
5.0
 10
127.1192002720396
 20
-152.8165120060667
 30
0.0
 10
127.1192002720396
 20
-152.8165120060667
 30
0.0
 10
127.0875053935753
 20
-152.8165120060667
 30
0.0
 10
127.0875053935753
 20
-152.8165120060667
 30
0.0
 10
127.1340141826262
 20
-152.9160752655904
 30
0.0
 10
127.1657090610905
 20
-152.9963459903967
 30
0.0
 10
127.199470996846
 20
-153.1231255042539
 30
0.0
 10
127.199470996846
 20
-153.1231255042539
 30
0.0
 10
127.406865745058
 20
-153.1231255042539
 30
0.0
 10
127.406865745058
 20
-153.1231255042539
 30
0.0
 10
127.4385606235223
 20
-153.0301079261522
 30
0.0
 10
127.461987272822
 20
-152.9457030867636
 30
0.0
 10
127.4850694125732
 20
-152.8165120060667
 30
0.0
 10
127.4850694125732
 20
-152.8165120060667
 30
0.0
 10
127.1192002720396
 20
-152.8165120060667
 30
0.0
 10
127.1192002720396
 20
-152.8165120060667
 30
0.0
  0
SPLINE
  5
170
330
16A
100
AcDbEntity
  8
レイヤー 1
100
AcDbSpline
210
0.0
220
0.0
230
1.0
 70
     9
 71
     3
 72
   242
 73
   238
 74
     0
 42
0.0000000001
 43
0.0000000001
 40
0.0
 40
0.0
 40
0.0
 40
0.0
 40
1.0
 40
1.0
 40
1.0
 40
2.0
 40
2.0
 40
2.0
 40
3.0
 40
3.0
 40
3.0
 40
4.0
 40
4.0
 40
4.0
 40
5.0
 40
5.0
 40
5.0
 40
6.0
 40
6.0
 40
6.0
 40
7.0
 40
7.0
 40
7.0
 40
8.0
 40
8.0
 40
8.0
 40
9.0
 40
9.0
 40
9.0
 40
10.0
 40
10.0
 40
10.0
 40
11.0
 40
11.0
 40
11.0
 40
12.0
 40
12.0
 40
12.0
 40
13.0
 40
13.0
 40
13.0
 40
14.0
 40
14.0
 40
14.0
 40
15.0
 40
15.0
 40
15.0
 40
16.0
 40
16.0
 40
16.0
 40
17.0
 40
17.0
 40
17.0
 40
18.0
 40
18.0
 40
18.0
 40
19.0
 40
19.0
 40
19.0
 40
20.0
 40
20.0
 40
20.0
 40
21.0
 40
21.0
 40
21.0
 40
22.0
 40
22.0
 40
22.0
 40
23.0
 40
23.0
 40
23.0
 40
24.0
 40
24.0
 40
24.0
 40
25.0
 40
25.0
 40
25.0
 40
26.0
 40
26.0
 40
26.0
 40
27.0
 40
27.0
 40
27.0
 40
28.0
 40
28.0
 40
28.0
 40
29.0
 40
29.0
 40
29.0
 40
30.0
 40
30.0
 40
30.0
 40
31.0
 40
31.0
 40
31.0
 40
32.0
 40
32.0
 40
32.0
 40
33.0
 40
33.0
 40
33.0
 40
34.0
 40
34.0
 40
34.0
 40
35.0
 40
35.0
 40
35.0
 40
36.0
 40
36.0
 40
36.0
 40
37.0
 40
37.0
 40
37.0
 40
38.0
 40
38.0
 40
38.0
 40
39.0
 40
39.0
 40
39.0
 40
40.0
 40
40.0
 40
40.0
 40
41.0
 40
41.0
 40
41.0
 40
42.0
 40
42.0
 40
42.0
 40
43.0
 40
43.0
 40
43.0
 40
44.0
 40
44.0
 40
44.0
 40
45.0
 40
45.0
 40
45.0
 40
46.0
 40
46.0
 40
46.0
 40
47.0
 40
47.0
 40
47.0
 40
48.0
 40
48.0
 40
48.0
 40
49.0
 40
49.0
 40
49.0
 40
50.0
 40
50.0
 40
50.0
 40
51.0
 40
51.0
 40
51.0
 40
52.0
 40
52.0
 40
52.0
 40
53.0
 40
53.0
 40
53.0
 40
54.0
 40
54.0
 40
54.0
 40
55.0
 40
55.0
 40
55.0
 40
56.0
 40
56.0
 40
56.0
 40
57.0
 40
57.0
 40
57.0
 40
58.0
 40
58.0
 40
58.0
 40
59.0
 40
59.0
 40
59.0
 40
60.0
 40
60.0
 40
60.0
 40
61.0
 40
61.0
 40
61.0
 40
62.0
 40
62.0
 40
62.0
 40
63.0
 40
63.0
 40
63.0
 40
64.0
 40
64.0
 40
64.0
 40
65.0
 40
65.0
 40
65.0
 40
66.0
 40
66.0
 40
66.0
 40
67.0
 40
67.0
 40
67.0
 40
68.0
 40
68.0
 40
68.0
 40
69.0
 40
69.0
 40
69.0
 40
70.0
 40
70.0
 40
70.0
 40
71.0
 40
71.0
 40
71.0
 40
72.0
 40
72.0
 40
72.0
 40
73.0
 40
73.0
 40
73.0
 40
74.0
 40
74.0
 40
74.0
 40
75.0
 40
75.0
 40
75.0
 40
76.0
 40
76.0
 40
76.0
 40
77.0
 40
77.0
 40
77.0
 40
78.0
 40
78.0
 40
78.0
 40
79.0
 40
79.0
 40
79.0
 40
79.0
 10
127.7475856885492
 20
-153.2819444061239
 30
0.0
 10
127.7475856885492
 20
-153.2819444061239
 30
0.0
 10
127.4936821512863
 20
-153.2819444061239
 30
0.0
 10
127.4936821512863
 20
-153.2819444061239
 30
0.0
 10
127.4936821512863
 20
-153.2819444061239
 30
0.0
 10
127.2166964742722
 20
-153.2819444061239
 30
0.0
 10
127.2166964742722
 20
-153.2819444061239
 30
0.0
 10
127.2166964742722
 20
-153.2819444061239
 30
0.0
 10
127.3434759881294
 20
-153.3243190805925
 30
0.0
 10
127.3434759881294
 20
-153.3243190805925
 30
0.0
 10
127.3541557841337
 20
-153.3284531951748
 30
0.0
 10
127.3665581278806
 20
-153.3346543670483
 30
0.0
 10
127.3665581278806
 20
-153.3474012203437
 30
0.0
 10
127.3665581278806
 20
-153.3687608123522
 30
0.0
 10
127.3348632494163
 20
-153.3749619842257
 30
0.0
 10
127.3138481669562
 20
-153.379096098808
 30
0.0
 10
127.303168370952
 20
-153.4025227481077
 30
0.0
 10
127.2735405497788
 20
-153.4679795623274
 30
0.0
 10
127.2545925246099
 20
-153.5124212940871
 30
0.0
 10
127.2545925246099
 20
-153.5124212940871
 30
0.0
 10
127.5253770297506
 20
-153.5124212940871
 30
0.0
 10
127.5253770297506
 20
-153.5124212940871
 30
0.0
 10
127.6163275505612
 20
-153.5124212940871
 30
0.0
 10
127.8130425027689
 20
-153.5082871795049
 30
0.0
 10
127.9549804367612
 20
-153.4996744407917
 30
0.0
 10
127.9549804367612
 20
-153.4996744407917
 30
0.0
 10
127.9549804367612
 20
-153.6774413678306
 30
0.0
 10
127.9549804367612
 20
-153.6774413678306
 30
0.0
 10
127.8722981451152
 20
-153.6733072532483
 30
0.0
 10
127.8512830626552
 20
-153.6733072532483
 30
0.0
 10
127.6714490783252
 20
-153.669173138666
 30
0.0
 10
127.6397541998609
 20
-153.8235134164052
 30
0.0
 10
127.5953124681012
 20
-153.9037841412115
 30
0.0
 10
127.5508707363414
 20
-153.9737195795621
 30
0.0
 10
127.6714490783252
 20
-154.0329752219084
 30
0.0
 10
127.7772135097223
 20
-154.1004990934193
 30
0.0
 10
127.8809108838284
 20
-154.1831813850653
 30
0.0
 10
127.8809108838284
 20
-154.1831813850653
 30
0.0
 10
127.7623995991358
 20
-154.3502685160999
 30
0.0
 10
127.7623995991358
 20
-154.3502685160999
 30
0.0
 10
127.7389729498361
 20
-154.331320490931
 30
0.0
 10
127.7262260965406
 20
-154.3227077522179
 30
0.0
 10
127.61426049327
 20
-154.2383029128293
 30
0.0
 10
127.565684646928
 20
-154.200062352943
 30
0.0
 10
127.5064290045817
 20
-154.1642333598964
 30
0.0
 10
127.4258137702269
 20
-154.1197916281367
 30
0.0
 10
127.2142849074325
 20
-154.3058267843402
 30
0.0
 10
127.0093017260602
 20
-154.3292534336399
 30
0.0
 10
126.7192246862021
 20
-154.358881254813
 30
0.0
 10
126.7192246862021
 20
-154.358881254813
 30
0.0
 10
126.6158718216446
 20
-154.179047270483
 30
0.0
 10
126.6158718216446
 20
-154.179047270483
 30
0.0
 10
126.9331651158361
 20
-154.1745686463522
 30
0.0
 10
127.1085204760354
 20
-154.1494194493099
 30
0.0
 10
127.2607936964834
 20
-154.0391763937819
 30
0.0
 10
127.1426269213393
 20
-153.9885334901487
 30
0.0
 10
127.0537434578199
 20
-153.9609727262667
 30
0.0
 10
127.0175699552248
 20
-153.9482258729712
 30
0.0
 10
126.9986219300559
 20
-153.9757866368533
 30
0.0
 10
126.9838080194693
 20
-153.9947346620221
 30
0.0
 10
126.9562472555873
 20
-154.0288411073261
 30
0.0
 10
126.9562472555873
 20
-154.0288411073261
 30
0.0
 10
126.7595323033795
 20
-153.9461588156801
 30
0.0
 10
126.7595323033795
 20
-153.9461588156801
 30
0.0
 10
126.8422145950255
 20
-153.8658880908738
 30
0.0
 10
126.903537294663
 20
-153.7704589459324
 30
0.0
 10
126.9607258797181
 20
-153.669173138666
 30
0.0
 10
126.7702120993838
 20
-153.6733072532483
 30
0.0
 10
126.7488525073753
 20
-153.6733072532483
 30
0.0
 10
126.6665147252778
 20
-153.6774413678306
 30
0.0
 10
126.6665147252778
 20
-153.6774413678306
 30
0.0
 10
126.6665147252778
 20
-153.4996744407917
 30
0.0
 10
126.6665147252778
 20
-153.4996744407917
 30
0.0
 10
126.8060410924304
 20
-153.5062201222137
 30
0.0
 10
127.0155028979336
 20
-153.510354236796
 30
0.0
 10
127.0409966045245
 20
-153.510354236796
 30
0.0
 10
127.0578775724022
 20
-153.4765923010406
 30
0.0
 10
127.1129991001662
 20
-153.3560139590568
 30
0.0
 10
127.1319471253351
 20
-153.2819444061239
 30
0.0
 10
127.1129991001662
 20
-153.2819444061239
 30
0.0
 10
126.9352321731273
 20
-153.2881455779974
 30
0.0
 10
126.7405842782107
 20
-153.3008924312928
 30
0.0
 10
126.7405842782107
 20
-153.3008924312928
 30
0.0
 10
126.7405842782107
 20
-153.434217626572
 30
0.0
 10
126.7405842782107
 20
-153.434217626572
 30
0.0
 10
126.6920084318686
 20
-153.4597113331628
 30
0.0
 10
126.6327527895223
 20
-153.4914062116271
 30
0.0
 10
126.4994275942432
 20
-153.5568630258469
 30
0.0
 10
126.4994275942432
 20
-153.5568630258469
 30
0.0
 10
126.4994275942432
 20
-153.7029350744215
 30
0.0
 10
126.4994275942432
 20
-153.7029350744215
 30
0.0
 10
126.4994275942432
 20
-153.7029350744215
 30
0.0
 10
126.4994275942432
 20
-154.1704345317699
 30
0.0
 10
126.4994275942432
 20
-154.1704345317699
 30
0.0
 10
126.4994275942432
 20
-154.2972140456271
 30
0.0
 10
126.4632540916481
 20
-154.3564696879734
 30
0.0
 10
126.1800672427605
 20
-154.3482014588088
 30
0.0
 10
126.1800672427605
 20
-154.3482014588088
 30
0.0
 10
126.0763698686545
 20
-154.1408067105967
 30
0.0
 10
126.0763698686545
 20
-154.1408067105967
 30
0.0
 10
126.1397596255831
 20
-154.1535535638921
 30
0.0
 10
126.1883354719251
 20
-154.1576876784745
 30
0.0
 10
126.2286430891025
 20
-154.1576876784745
 30
0.0
 10
126.3047796993266
 20
-154.1576876784745
 30
0.0
 10
126.3154594953308
 20
-154.1346055387233
 30
0.0
 10
126.3154594953308
 20
-154.068804214955
 30
0.0
 10
126.3154594953308
 20
-154.068804214955
 30
0.0
 10
126.3154594953308
 20
-153.6395453174929
 30
0.0
 10
126.3154594953308
 20
-153.6395453174929
 30
0.0
 10
126.2179632930983
 20
-153.6795084251218
 30
0.0
 10
126.2010823252206
 20
-153.6860541065437
 30
0.0
 10
126.1545735361697
 20
-153.7050021317126
 30
0.0
 10
126.1504394215874
 20
-153.7260172141726
 30
0.0
 10
126.1459607974565
 20
-153.7556450353458
 30
0.0
 10
126.1270127722877
 20
-153.7556450353458
 30
0.0
 10
126.1187445431231
 20
-153.7556450353458
 30
0.0
 10
126.1080647471188
 20
-153.7515109207635
 30
0.0
 10
126.1015190656968
 20
-153.7284287810123
 30
0.0
 10
126.1015190656968
 20
-153.7284287810123
 30
0.0
 10
126.0488091047725
 20
-153.5358479433869
 30
0.0
 10
126.0488091047725
 20
-153.5358479433869
 30
0.0
 10
126.1948811533471
 20
-153.489339154336
 30
0.0
 10
126.2603379675669
 20
-153.4659125050363
 30
0.0
 10
126.3154594953308
 20
-153.4448974225762
 30
0.0
 10
126.3154594953308
 20
-153.4448974225762
 30
0.0
 10
126.3154594953308
 20
-153.0321749834433
 30
0.0
 10
126.3154594953308
 20
-153.0321749834433
 30
0.0
 10
126.3154594953308
 20
-153.0321749834433
 30
0.0
 10
126.262405024858
 20
-153.0321749834433
 30
0.0
 10
126.262405024858
 20
-153.0321749834433
 30
0.0
 10
126.262405024858
 20
-153.0321749834433
 30
0.0
 10
126.1842013573428
 20
-153.0321749834433
 30
0.0
 10
126.1842013573428
 20
-153.0321749834433
 30
0.0
 10
126.1163329762834
 20
-153.0321749834433
 30
0.0
 10
126.1080647471188
 20
-153.0321749834433
 30
0.0
 10
126.0718912445237
 20
-153.0387206648653
 30
0.0
 10
126.0718912445237
 20
-153.0387206648653
 30
0.0
 10
126.0718912445237
 20
-152.8440727699487
 30
0.0
 10
126.0718912445237
 20
-152.8440727699487
 30
0.0
 10
126.0994520084057
 20
-152.8502739418222
 30
0.0
 10
126.1080647471188
 20
-152.8502739418222
 30
0.0
 10
126.1776556759208
 20
-152.8502739418222
 30
0.0
 10
126.1776556759208
 20
-152.8502739418222
 30
0.0
 10
126.3109808712
 20
-152.8502739418222
 30
0.0
 10
126.3109808712
 20
-152.8502739418222
 30
0.0
 10
126.3109808712
 20
-152.7806830130201
 30
0.0
 10
126.3109808712
 20
-152.6980007213741
 30
0.0
 10
126.3089138139089
 20
-152.6938666067918
 30
0.0
 10
126.3006455847443
 20
-152.5140326224617
 30
0.0
 10
126.3006455847443
 20
-152.4950845972929
 30
0.0
 10
126.2982340179046
 20
-152.448575808242
 30
0.0
 10
126.2982340179046
 20
-152.448575808242
 30
0.0
 10
126.5142415048298
 20
-152.4568440374066
 30
0.0
 10
126.5142415048298
 20
-152.4568440374066
 30
0.0
 10
126.524921300834
 20
-152.4568440374066
 30
0.0
 10
126.545936383294
 20
-152.4589110946978
 30
0.0
 10
126.545936383294
 20
-152.4757920625755
 30
0.0
 10
126.545936383294
 20
-152.4950845972929
 30
0.0
 10
126.5311224727075
 20
-152.5054198837486
 30
0.0
 10
126.5056287661166
 20
-152.524712418466
 30
0.0
 10
126.5056287661166
 20
-152.5753553220992
 30
0.0
 10
126.4994275942432
 20
-152.8037651527713
 30
0.0
 10
126.5014946515343
 20
-152.8502739418222
 30
0.0
 10
126.6306857322312
 20
-152.8502739418222
 30
0.0
 10
126.6430880759781
 20
-152.8502739418222
 30
0.0
 10
126.7405842782107
 20
-152.8420057126576
 30
0.0
 10
126.7405842782107
 20
-152.8420057126576
 30
0.0
 10
126.7405842782107
 20
-153.0366536075742
 30
0.0
 10
126.7405842782107
 20
-153.0366536075742
 30
0.0
 10
126.7023437183244
 20
-153.0342420407345
 30
0.0
 10
126.6348198468135
 20
-153.0301079261522
 30
0.0
 10
126.4994275942432
 20
-153.0321749834433
 30
0.0
 10
126.4994275942432
 20
-153.0321749834433
 30
0.0
 10
126.4994275942432
 20
-153.3708278696434
 30
0.0
 10
126.4994275942432
 20
-153.3708278696434
 30
0.0
 10
126.5542046124586
 20
-153.3474012203437
 30
0.0
 10
126.6200059362269
 20
-153.3198404564617
 30
0.0
 10
126.668581782569
 20
-153.2967583167105
 30
0.0
 10
126.668581782569
 20
-153.2967583167105
 30
0.0
 10
126.668581782569
 20
-153.1189913896716
 30
0.0
 10
126.668581782569
 20
-153.1189913896716
 30
0.0
 10
126.7829589526792
 20
-153.131738242967
 30
0.0
 10
126.9014702373718
 20
-153.131738242967
 30
0.0
 10
127.0175699552248
 20
-153.131738242967
 30
0.0
 10
126.9944878154736
 20
-153.0366536075742
 30
0.0
 10
126.9669270515916
 20
-152.9539713159282
 30
0.0
 10
126.903537294663
 20
-152.820646120649
 30
0.0
 10
126.8590955629033
 20
-152.8227131779401
 30
0.0
 10
126.7764132712573
 20
-152.827191802071
 30
0.0
 10
126.7385172209195
 20
-152.8292588593621
 30
0.0
 10
126.7385172209195
 20
-152.8292588593621
 30
0.0
 10
126.7385172209195
 20
-152.6494248750321
 30
0.0
 10
126.7385172209195
 20
-152.6494248750321
 30
0.0
 10
126.8632296774856
 20
-152.6576931041967
 30
0.0
 10
127.0368624899422
 20
-152.6621717283275
 30
0.0
 10
127.1192002720396
 20
-152.6621717283275
 30
0.0
 10
127.1192002720396
 20
-152.6621717283275
 30
0.0
 10
127.2018825636856
 20
-152.6621717283275
 30
0.0
 10
127.2018825636856
 20
-152.6621717283275
 30
0.0
 10
127.2018825636856
 20
-152.4992187118752
 30
0.0
 10
127.2018825636856
 20
-152.4885389158709
 30
0.0
 10
127.199470996846
 20
-152.4337618976554
 30
0.0
 10
127.199470996846
 20
-152.4337618976554
 30
0.0
 10
127.4237467129357
 20
-152.4589110946978
 30
0.0
 10
127.4237467129357
 20
-152.4589110946978
 30
0.0
 10
127.4282253370665
 20
-152.4589110946978
 30
0.0
 10
127.4492404195266
 20
-152.4609781519889
 30
0.0
 10
127.4492404195266
 20
-152.4782036294152
 30
0.0
 10
127.4492404195266
 20
-152.4926730304532
 30
0.0
 10
127.4385606235223
 20
-152.5012857691663
 30
0.0
 10
127.4109998596403
 20
-152.5160996797529
 30
0.0
 10
127.4047986877668
 20
-152.5815564939726
 30
0.0
 10
127.4027316304757
 20
-152.6029160859812
 30
0.0
 10
127.4027316304757
 20
-152.6621717283275
 30
0.0
 10
127.4027316304757
 20
-152.6621717283275
 30
0.0
 10
127.4978162658686
 20
-152.6621717283275
 30
0.0
 10
127.4978162658686
 20
-152.6621717283275
 30
0.0
 10
127.5804985575146
 20
-152.6621717283275
 30
0.0
 10
127.7537868604226
 20
-152.6576931041967
 30
0.0
 10
127.8788438265372
 20
-152.6494248750321
 30
0.0
 10
127.8788438265372
 20
-152.6494248750321
 30
0.0
 10
127.8788438265372
 20
-152.8292588593621
 30
0.0
 10
127.8788438265372
 20
-152.8292588593621
 30
0.0
 10
127.8492160053641
 20
-152.827191802071
 30
0.0
 10
127.7307047206715
 20
-152.8227131779401
 30
0.0
 10
127.6903971034941
 20
-152.820646120649
 30
0.0
 10
127.6755831929075
 20
-152.8716335338307
 30
0.0
 10
127.641821257152
 20
-152.9835991371013
 30
0.0
 10
127.5760199333838
 20
-153.1231255042539
 30
0.0
 10
127.6183946078523
 20
-153.1231255042539
 30
0.0
 10
127.8957247944149
 20
-153.1041774790851
 30
0.0
 10
127.9570474940524
 20
-153.1021104217939
 30
0.0
 10
127.9570474940524
 20
-153.1021104217939
 30
0.0
 10
127.9570474940524
 20
-153.2860785207063
 30
0.0
 10
127.9570474940524
 20
-153.2860785207063
 30
0.0
 10
127.9274196728792
 20
-153.2860785207063
 30
0.0
 10
127.9105387050015
 20
-153.2819444061239
 30
0.0
 10
127.7475856885492
 20
-153.2819444061239
 30
0.0
  0
HATCH
  5
171
330
16A
100
AcDbEntity
  8
レイヤー 1
 62
    18
420
        0
440
 33554687
100
AcDbHatch
 10
0.0
 20
0.0
 30
0.0
210
0.0
220
0.0
230
1.0
  2
SOLID
 70
     1
 71
     1
 91
        3
 92
        1
 93
        1
 72
     4
 94
        3
 73
     0
 74
     0
 95
       17
 96
       13
 40
0.0
 40
0.0
 40
0.0
 40
0.0
 40
1.0
 40
1.0
 40
1.0
 40
2.0
 40
2.0
 40
2.0
 40
3.0
 40
3.0
 40
3.0
 40
4.0
 40
4.0
 40
4.0
 40
4.0
 10
127.1825900289682
 20
-153.6671060813749
 10
127.1657090610905
 20
-153.696733902548
 10
127.1150661574573
 20
-153.7897514806498
 10
127.1043863614531
 20
-153.8086995058186
 10
127.2949001417874
 20
-153.8679551481649
 10
127.3159152242474
 20
-153.8741563200384
 10
127.3879177198891
 20
-153.9017170839204
 10
127.4430392476531
 20
-153.8149006776921
 10
127.4661213874043
 20
-153.7408311247592
 10
127.4809352979909
 20
-153.6671060813749
 10
127.4809352979909
 20
-153.6671060813749
 10
127.1825900289682
 20
-153.6671060813749
 10
127.1825900289682
 20
-153.6671060813749
 97
        0
 97
        1
330
16E
 92
        1
 93
        1
 72
     4
 94
        3
 73
     0
 74
     0
 95
       20
 96
       16
 40
0.0
 40
0.0
 40
0.0
 40
0.0
 40
1.0
 40
1.0
 40
1.0
 40
2.0
 40
2.0
 40
2.0
 40
3.0
 40
3.0
 40
3.0
 40
4.0
 40
4.0
 40
4.0
 40
5.0
 40
5.0
 40
5.0
 40
5.0
 10
127.1192002720396
 20
-152.8165120060667
 10
127.1192002720396
 20
-152.8165120060667
 10
127.0875053935753
 20
-152.8165120060667
 10
127.0875053935753
 20
-152.8165120060667
 10
127.1340141826262
 20
-152.9160752655904
 10
127.1657090610905
 20
-152.9963459903967
 10
127.199470996846
 20
-153.1231255042539
 10
127.199470996846
 20
-153.1231255042539
 10
127.406865745058
 20
-153.1231255042539
 10
127.406865745058
 20
-153.1231255042539
 10
127.4385606235223
 20
-153.0301079261522
 10
127.461987272822
 20
-152.9457030867636
 10
127.4850694125732
 20
-152.8165120060667
 10
127.4850694125732
 20
-152.8165120060667
 10
127.1192002720396
 20
-152.8165120060667
 10
127.1192002720396
 20
-152.8165120060667
 97
        0
 97
        1
330
16F
 92
        1
 93
        1
 72
     4
 94
        3
 73
     0
 74
     0
 95
      242
 96
      238
 40
0.0
 40
0.0
 40
0.0
 40
0.0
 40
1.0
 40
1.0
 40
1.0
 40
2.0
 40
2.0
 40
2.0
 40
3.0
 40
3.0
 40
3.0
 40
4.0
 40
4.0
 40
4.0
 40
5.0
 40
5.0
 40
5.0
 40
6.0
 40
6.0
 40
6.0
 40
7.0
 40
7.0
 40
7.0
 40
8.0
 40
8.0
 40
8.0
 40
9.0
 40
9.0
 40
9.0
 40
10.0
 40
10.0
 40
10.0
 40
11.0
 40
11.0
 40
11.0
 40
12.0
 40
12.0
 40
12.0
 40
13.0
 40
13.0
 40
13.0
 40
14.0
 40
14.0
 40
14.0
 40
15.0
 40
15.0
 40
15.0
 40
16.0
 40
16.0
 40
16.0
 40
17.0
 40
17.0
 40
17.0
 40
18.0
 40
18.0
 40
18.0
 40
19.0
 40
19.0
 40
19.0
 40
20.0
 40
20.0
 40
20.0
 40
21.0
 40
21.0
 40
21.0
 40
22.0
 40
22.0
 40
22.0
 40
23.0
 40
23.0
 40
23.0
 40
24.0
 40
24.0
 40
24.0
 40
25.0
 40
25.0
 40
25.0
 40
26.0
 40
26.0
 40
26.0
 40
27.0
 40
27.0
 40
27.0
 40
28.0
 40
28.0
 40
28.0
 40
29.0
 40
29.0
 40
29.0
 40
30.0
 40
30.0
 40
30.0
 40
31.0
 40
31.0
 40
31.0
 40
32.0
 40
32.0
 40
32.0
 40
33.0
 40
33.0
 40
33.0
 40
34.0
 40
34.0
 40
34.0
 40
35.0
 40
35.0
 40
35.0
 40
36.0
 40
36.0
 40
36.0
 40
37.0
 40
37.0
 40
37.0
 40
38.0
 40
38.0
 40
38.0
 40
39.0
 40
39.0
 40
39.0
 40
40.0
 40
40.0
 40
40.0
 40
41.0
 40
41.0
 40
41.0
 40
42.0
 40
42.0
 40
42.0
 40
43.0
 40
43.0
 40
43.0
 40
44.0
 40
44.0
 40
44.0
 40
45.0
 40
45.0
 40
45.0
 40
46.0
 40
46.0
 40
46.0
 40
47.0
 40
47.0
 40
47.0
 40
48.0
 40
48.0
 40
48.0
 40
49.0
 40
49.0
 40
49.0
 40
50.0
 40
50.0
 40
50.0
 40
51.0
 40
51.0
 40
51.0
 40
52.0
 40
52.0
 40
52.0
 40
53.0
 40
53.0
 40
53.0
 40
54.0
 40
54.0
 40
54.0
 40
55.0
 40
55.0
 40
55.0
 40
56.0
 40
56.0
 40
56.0
 40
57.0
 40
57.0
 40
57.0
 40
58.0
 40
58.0
 40
58.0
 40
59.0
 40
59.0
 40
59.0
 40
60.0
 40
60.0
 40
60.0
 40
61.0
 40
61.0
 40
61.0
 40
62.0
 40
62.0
 40
62.0
 40
63.0
 40
63.0
 40
63.0
 40
64.0
 40
64.0
 40
64.0
 40
65.0
 40
65.0
 40
65.0
 40
66.0
 40
66.0
 40
66.0
 40
67.0
 40
67.0
 40
67.0
 40
68.0
 40
68.0
 40
68.0
 40
69.0
 40
69.0
 40
69.0
 40
70.0
 40
70.0
 40
70.0
 40
71.0
 40
71.0
 40
71.0
 40
72.0
 40
72.0
 40
72.0
 40
73.0
 40
73.0
 40
73.0
 40
74.0
 40
74.0
 40
74.0
 40
75.0
 40
75.0
 40
75.0
 40
76.0
 40
76.0
 40
76.0
 40
77.0
 40
77.0
 40
77.0
 40
78.0
 40
78.0
 40
78.0
 40
79.0
 40
79.0
 40
79.0
 40
79.0
 10
127.7475856885492
 20
-153.2819444061239
 10
127.7475856885492
 20
-153.2819444061239
 10
127.4936821512863
 20
-153.2819444061239
 10
127.4936821512863
 20
-153.2819444061239
 10
127.4936821512863
 20
-153.2819444061239
 10
127.2166964742722
 20
-153.2819444061239
 10
127.2166964742722
 20
-153.2819444061239
 10
127.2166964742722
 20
-153.2819444061239
 10
127.3434759881294
 20
-153.3243190805925
 10
127.3434759881294
 20
-153.3243190805925
 10
127.3541557841337
 20
-153.3284531951748
 10
127.3665581278806
 20
-153.3346543670483
 10
127.3665581278806
 20
-153.3474012203437
 10
127.3665581278806
 20
-153.3687608123522
 10
127.3348632494163
 20
-153.3749619842257
 10
127.3138481669562
 20
-153.379096098808
 10
127.303168370952
 20
-153.4025227481077
 10
127.2735405497788
 20
-153.4679795623274
 10
127.2545925246099
 20
-153.5124212940871
 10
127.2545925246099
 20
-153.5124212940871
 10
127.5253770297506
 20
-153.5124212940871
 10
127.5253770297506
 20
-153.5124212940871
 10
127.6163275505612
 20
-153.5124212940871
 10
127.8130425027689
 20
-153.5082871795049
 10
127.9549804367612
 20
-153.4996744407917
 10
127.9549804367612
 20
-153.4996744407917
 10
127.9549804367612
 20
-153.6774413678306
 10
127.9549804367612
 20
-153.6774413678306
 10
127.8722981451152
 20
-153.6733072532483
 10
127.8512830626552
 20
-153.6733072532483
 10
127.6714490783252
 20
-153.669173138666
 10
127.6397541998609
 20
-153.8235134164052
 10
127.5953124681012
 20
-153.9037841412115
 10
127.5508707363414
 20
-153.9737195795621
 10
127.6714490783252
 20
-154.0329752219084
 10
127.7772135097223
 20
-154.1004990934193
 10
127.8809108838284
 20
-154.1831813850653
 10
127.8809108838284
 20
-154.1831813850653
 10
127.7623995991358
 20
-154.3502685160999
 10
127.7623995991358
 20
-154.3502685160999
 10
127.7389729498361
 20
-154.331320490931
 10
127.7262260965406
 20
-154.3227077522179
 10
127.61426049327
 20
-154.2383029128293
 10
127.565684646928
 20
-154.200062352943
 10
127.5064290045817
 20
-154.1642333598964
 10
127.4258137702269
 20
-154.1197916281367
 10
127.2142849074325
 20
-154.3058267843402
 10
127.0093017260602
 20
-154.3292534336399
 10
126.7192246862021
 20
-154.358881254813
 10
126.7192246862021
 20
-154.358881254813
 10
126.6158718216446
 20
-154.179047270483
 10
126.6158718216446
 20
-154.179047270483
 10
126.9331651158361
 20
-154.1745686463522
 10
127.1085204760354
 20
-154.1494194493099
 10
127.2607936964834
 20
-154.0391763937819
 10
127.1426269213393
 20
-153.9885334901487
 10
127.0537434578199
 20
-153.9609727262667
 10
127.0175699552248
 20
-153.9482258729712
 10
126.9986219300559
 20
-153.9757866368533
 10
126.9838080194693
 20
-153.9947346620221
 10
126.9562472555873
 20
-154.0288411073261
 10
126.9562472555873
 20
-154.0288411073261
 10
126.7595323033795
 20
-153.9461588156801
 10
126.7595323033795
 20
-153.9461588156801
 10
126.8422145950255
 20
-153.8658880908738
 10
126.903537294663
 20
-153.7704589459324
 10
126.9607258797181
 20
-153.669173138666
 10
126.7702120993838
 20
-153.6733072532483
 10
126.7488525073753
 20
-153.6733072532483
 10
126.6665147252778
 20
-153.6774413678306
 10
126.6665147252778
 20
-153.6774413678306
 10
126.6665147252778
 20
-153.4996744407917
 10
126.6665147252778
 20
-153.4996744407917
 10
126.8060410924304
 20
-153.5062201222137
 10
127.0155028979336
 20
-153.510354236796
 10
127.0409966045245
 20
-153.510354236796
 10
127.0578775724022
 20
-153.4765923010406
 10
127.1129991001662
 20
-153.3560139590568
 10
127.1319471253351
 20
-153.2819444061239
 10
127.1129991001662
 20
-153.2819444061239
 10
126.9352321731273
 20
-153.2881455779974
 10
126.7405842782107
 20
-153.3008924312928
 10
126.7405842782107
 20
-153.3008924312928
 10
126.7405842782107
 20
-153.434217626572
 10
126.7405842782107
 20
-153.434217626572
 10
126.6920084318686
 20
-153.4597113331628
 10
126.6327527895223
 20
-153.4914062116271
 10
126.4994275942432
 20
-153.5568630258469
 10
126.4994275942432
 20
-153.5568630258469
 10
126.4994275942432
 20
-153.7029350744215
 10
126.4994275942432
 20
-153.7029350744215
 10
126.4994275942432
 20
-153.7029350744215
 10
126.4994275942432
 20
-154.1704345317699
 10
126.4994275942432
 20
-154.1704345317699
 10
126.4994275942432
 20
-154.2972140456271
 10
126.4632540916481
 20
-154.3564696879734
 10
126.1800672427605
 20
-154.3482014588088
 10
126.1800672427605
 20
-154.3482014588088
 10
126.0763698686545
 20
-154.1408067105967
 10
126.0763698686545
 20
-154.1408067105967
 10
126.1397596255831
 20
-154.1535535638921
 10
126.1883354719251
 20
-154.1576876784745
 10
126.2286430891025
 20
-154.1576876784745
 10
126.3047796993266
 20
-154.1576876784745
 10
126.3154594953308
 20
-154.1346055387233
 10
126.3154594953308
 20
-154.068804214955
 10
126.3154594953308
 20
-154.068804214955
 10
126.3154594953308
 20
-153.6395453174929
 10
126.3154594953308
 20
-153.6395453174929
 10
126.2179632930983
 20
-153.6795084251218
 10
126.2010823252206
 20
-153.6860541065437
 10
126.1545735361697
 20
-153.7050021317126
 10
126.1504394215874
 20
-153.7260172141726
 10
126.1459607974565
 20
-153.7556450353458
 10
126.1270127722877
 20
-153.7556450353458
 10
126.1187445431231
 20
-153.7556450353458
 10
126.1080647471188
 20
-153.7515109207635
 10
126.1015190656968
 20
-153.7284287810123
 10
126.1015190656968
 20
-153.7284287810123
 10
126.0488091047725
 20
-153.5358479433869
 10
126.0488091047725
 20
-153.5358479433869
 10
126.1948811533471
 20
-153.489339154336
 10
126.2603379675669
 20
-153.4659125050363
 10
126.3154594953308
 20
-153.4448974225762
 10
126.3154594953308
 20
-153.4448974225762
 10
126.3154594953308
 20
-153.0321749834433
 10
126.3154594953308
 20
-153.0321749834433
 10
126.3154594953308
 20
-153.0321749834433
 10
126.262405024858
 20
-153.0321749834433
 10
126.262405024858
 20
-153.0321749834433
 10
126.262405024858
 20
-153.0321749834433
 10
126.1842013573428
 20
-153.0321749834433
 10
126.1842013573428
 20
-153.0321749834433
 10
126.1163329762834
 20
-153.0321749834433
 10
126.1080647471188
 20
-153.0321749834433
 10
126.0718912445237
 20
-153.0387206648653
 10
126.0718912445237
 20
-153.0387206648653
 10
126.0718912445237
 20
-152.8440727699487
 10
126.0718912445237
 20
-152.8440727699487
 10
126.0994520084057
 20
-152.8502739418222
 10
126.1080647471188
 20
-152.8502739418222
 10
126.1776556759208
 20
-152.8502739418222
 10
126.1776556759208
 20
-152.8502739418222
 10
126.3109808712
 20
-152.8502739418222
 10
126.3109808712
 20
-152.8502739418222
 10
126.3109808712
 20
-152.7806830130201
 10
126.3109808712
 20
-152.6980007213741
 10
126.3089138139089
 20
-152.6938666067918
 10
126.3006455847443
 20
-152.5140326224617
 10
126.3006455847443
 20
-152.4950845972929
 10
126.2982340179046
 20
-152.448575808242
 10
126.2982340179046
 20
-152.448575808242
 10
126.5142415048298
 20
-152.4568440374066
 10
126.5142415048298
 20
-152.4568440374066
 10
126.524921300834
 20
-152.4568440374066
 10
126.545936383294
 20
-152.4589110946978
 10
126.545936383294
 20
-152.4757920625755
 10
126.545936383294
 20
-152.4950845972929
 10
126.5311224727075
 20
-152.5054198837486
 10
126.5056287661166
 20
-152.524712418466
 10
126.5056287661166
 20
-152.5753553220992
 10
126.4994275942432
 20
-152.8037651527713
 10
126.5014946515343
 20
-152.8502739418222
 10
126.6306857322312
 20
-152.8502739418222
 10
126.6430880759781
 20
-152.8502739418222
 10
126.7405842782107
 20
-152.8420057126576
 10
126.7405842782107
 20
-152.8420057126576
 10
126.7405842782107
 20
-153.0366536075742
 10
126.7405842782107
 20
-153.0366536075742
 10
126.7023437183244
 20
-153.0342420407345
 10
126.6348198468135
 20
-153.0301079261522
 10
126.4994275942432
 20
-153.0321749834433
 10
126.4994275942432
 20
-153.0321749834433
 10
126.4994275942432
 20
-153.3708278696434
 10
126.4994275942432
 20
-153.3708278696434
 10
126.5542046124586
 20
-153.3474012203437
 10
126.6200059362269
 20
-153.3198404564617
 10
126.668581782569
 20
-153.2967583167105
 10
126.668581782569
 20
-153.2967583167105
 10
126.668581782569
 20
-153.1189913896716
 10
126.668581782569
 20
-153.1189913896716
 10
126.7829589526792
 20
-153.131738242967
 10
126.9014702373718
 20
-153.131738242967
 10
127.0175699552248
 20
-153.131738242967
 10
126.9944878154736
 20
-153.0366536075742
 10
126.9669270515916
 20
-152.9539713159282
 10
126.903537294663
 20
-152.820646120649
 10
126.8590955629033
 20
-152.8227131779401
 10
126.7764132712573
 20
-152.827191802071
 10
126.7385172209195
 20
-152.8292588593621
 10
126.7385172209195
 20
-152.8292588593621
 10
126.7385172209195
 20
-152.6494248750321
 10
126.7385172209195
 20
-152.6494248750321
 10
126.8632296774856
 20
-152.6576931041967
 10
127.0368624899422
 20
-152.6621717283275
 10
127.1192002720396
 20
-152.6621717283275
 10
127.1192002720396
 20
-152.6621717283275
 10
127.2018825636856
 20
-152.6621717283275
 10
127.2018825636856
 20
-152.6621717283275
 10
127.2018825636856
 20
-152.4992187118752
 10
127.2018825636856
 20
-152.4885389158709
 10
127.199470996846
 20
-152.4337618976554
 10
127.199470996846
 20
-152.4337618976554
 10
127.4237467129357
 20
-152.4589110946978
 10
127.4237467129357
 20
-152.4589110946978
 10
127.4282253370665
 20
-152.4589110946978
 10
127.4492404195266
 20
-152.4609781519889
 10
127.4492404195266
 20
-152.4782036294152
 10
127.4492404195266
 20
-152.4926730304532
 10
127.4385606235223
 20
-152.5012857691663
 10
127.4109998596403
 20
-152.5160996797529
 10
127.4047986877668
 20
-152.5815564939726
 10
127.4027316304757
 20
-152.6029160859812
 10
127.4027316304757
 20
-152.6621717283275
 10
127.4027316304757
 20
-152.6621717283275
 10
127.4978162658686
 20
-152.6621717283275
 10
127.4978162658686
 20
-152.6621717283275
 10
127.5804985575146
 20
-152.6621717283275
 10
127.7537868604226
 20
-152.6576931041967
 10
127.8788438265372
 20
-152.6494248750321
 10
127.8788438265372
 20
-152.6494248750321
 10
127.8788438265372
 20
-152.8292588593621
 10
127.8788438265372
 20
-152.8292588593621
 10
127.8492160053641
 20
-152.827191802071
 10
127.7307047206715
 20
-152.8227131779401
 10
127.6903971034941
 20
-152.820646120649
 10
127.6755831929075
 20
-152.8716335338307
 10
127.641821257152
 20
-152.9835991371013
 10
127.5760199333838
 20
-153.1231255042539
 10
127.6183946078523
 20
-153.1231255042539
 10
127.8957247944149
 20
-153.1041774790851
 10
127.9570474940524
 20
-153.1021104217939
 10
127.9570474940524
 20
-153.1021104217939
 10
127.9570474940524
 20
-153.2860785207063
 10
127.9570474940524
 20
-153.2860785207063
 10
127.9274196728792
 20
-153.2860785207063
 10
127.9105387050015
 20
-153.2819444061239
 10
127.7475856885492
 20
-153.2819444061239
 97
        0
 97
        1
330
170
 75
     2
 76
     1
 98
        1
 10
0.0
 20
0.0
450
        0
451
        0
460
0.0
461
0.0
452
        0
462
0.0
453
        0
470

  0
SPLINE
  5
172
330
16A
100
AcDbEntity
  8
レイヤー 1
100
AcDbSpline
210
0.0
220
0.0
230
1.0
 70
    11
 71
     3
 72
    17
 73
    13
 74
     0
 42
0.0000000001
 43
0.0000000001
 40
0.0
 40
0.0
 40
0.0
 40
0.0
 40
1.0
 40
1.0
 40
1.0
 40
2.0
 40
2.0
 40
2.0
 40
3.0
 40
3.0
 40
3.0
 40
4.0
 40
4.0
 40
4.0
 40
4.0
 10
129.6041476455503
 20
-154.0815510682504
 30
0.0
 10
129.6041476455503
 20
-154.0815510682504
 30
0.0
 10
128.8975585615256
 20
-154.0815510682504
 30
0.0
 10
128.8975585615256
 20
-154.0815510682504
 30
0.0
 10
128.8975585615256
 20
-154.0815510682504
 30
0.0
 10
128.8975585615256
 20
-154.1959282383607
 30
0.0
 10
128.8975585615256
 20
-154.1959282383607
 30
0.0
 10
128.8975585615256
 20
-154.1959282383607
 30
0.0
 10
129.6041476455503
 20
-154.1959282383607
 30
0.0
 10
129.6041476455503
 20
-154.1959282383607
 30
0.0
 10
129.6041476455503
 20
-154.1959282383607
 30
0.0
 10
129.6041476455503
 20
-154.0815510682504
 30
0.0
 10
129.6041476455503
 20
-154.0815510682504
 30
0.0
  0
SPLINE
  5
173
330
16A
100
AcDbEntity
  8
レイヤー 1
100
AcDbSpline
210
0.0
220
0.0
230
1.0
 70
    11
 71
     3
 72
    17
 73
    13
 74
     0
 42
0.0000000001
 43
0.0000000001
 40
0.0
 40
0.0
 40
0.0
 40
0.0
 40
1.0
 40
1.0
 40
1.0
 40
2.0
 40
2.0
 40
2.0
 40
3.0
 40
3.0
 40
3.0
 40
4.0
 40
4.0
 40
4.0
 40
4.0
 10
129.6041476455503
 20
-153.8383273269918
 30
0.0
 10
129.6041476455503
 20
-153.8383273269918
 30
0.0
 10
128.8975585615256
 20
-153.8383273269918
 30
0.0
 10
128.8975585615256
 20
-153.8383273269918
 30
0.0
 10
128.8975585615256
 20
-153.8383273269918
 30
0.0
 10
128.8975585615256
 20
-153.9527044971021
 30
0.0
 10
128.8975585615256
 20
-153.9527044971021
 30
0.0
 10
128.8975585615256
 20
-153.9527044971021
 30
0.0
 10
129.6041476455503
 20
-153.9527044971021
 30
0.0
 10
129.6041476455503
 20
-153.9527044971021
 30
0.0
 10
129.6041476455503
 20
-153.9527044971021
 30
0.0
 10
129.6041476455503
 20
-153.8383273269918
 30
0.0
 10
129.6041476455503
 20
-153.8383273269918
 30
0.0
  0
SPLINE
  5
174
330
16A
100
AcDbEntity
  8
レイヤー 1
100
AcDbSpline
210
0.0
220
0.0
230
1.0
 70
    11
 71
     3
 72
    17
 73
    13
 74
     0
 42
0.0000000001
 43
0.0000000001
 40
0.0
 40
0.0
 40
0.0
 40
0.0
 40
1.0
 40
1.0
 40
1.0
 40
2.0
 40
2.0
 40
2.0
 40
3.0
 40
3.0
 40
3.0
 40
4.0
 40
4.0
 40
4.0
 40
4.0
 10
129.6041476455503
 20
-153.6054388721889
 30
0.0
 10
129.6041476455503
 20
-153.6054388721889
 30
0.0
 10
128.8975585615256
 20
-153.6054388721889
 30
0.0
 10
128.8975585615256
 20
-153.6054388721889
 30
0.0
 10
128.8975585615256
 20
-153.6054388721889
 30
0.0
 10
128.8975585615256
 20
-153.7136148704258
 30
0.0
 10
128.8975585615256
 20
-153.7136148704258
 30
0.0
 10
128.8975585615256
 20
-153.7136148704258
 30
0.0
 10
129.6041476455503
 20
-153.7136148704258
 30
0.0
 10
129.6041476455503
 20
-153.7136148704258
 30
0.0
 10
129.6041476455503
 20
-153.7136148704258
 30
0.0
 10
129.6041476455503
 20
-153.6054388721889
 30
0.0
 10
129.6041476455503
 20
-153.6054388721889
 30
0.0
  0
SPLINE
  5
175
330
16A
100
AcDbEntity
  8
レイヤー 1
100
AcDbSpline
210
0.0
220
0.0
230
1.0
 70
     9
 71
     3
 72
   203
 73
   199
 74
     0
 42
0.0000000001
 43
0.0000000001
 40
0.0
 40
0.0
 40
0.0
 40
0.0
 40
1.0
 40
1.0
 40
1.0
 40
2.0
 40
2.0
 40
2.0
 40
3.0
 40
3.0
 40
3.0
 40
4.0
 40
4.0
 40
4.0
 40
5.0
 40
5.0
 40
5.0
 40
6.0
 40
6.0
 40
6.0
 40
7.0
 40
7.0
 40
7.0
 40
8.0
 40
8.0
 40
8.0
 40
9.0
 40
9.0
 40
9.0
 40
10.0
 40
10.0
 40
10.0
 40
11.0
 40
11.0
 40
11.0
 40
12.0
 40
12.0
 40
12.0
 40
13.0
 40
13.0
 40
13.0
 40
14.0
 40
14.0
 40
14.0
 40
15.0
 40
15.0
 40
15.0
 40
16.0
 40
16.0
 40
16.0
 40
17.0
 40
17.0
 40
17.0
 40
18.0
 40
18.0
 40
18.0
 40
19.0
 40
19.0
 40
19.0
 40
20.0
 40
20.0
 40
20.0
 40
21.0
 40
21.0
 40
21.0
 40
22.0
 40
22.0
 40
22.0
 40
23.0
 40
23.0
 40
23.0
 40
24.0
 40
24.0
 40
24.0
 40
25.0
 40
25.0
 40
25.0
 40
26.0
 40
26.0
 40
26.0
 40
27.0
 40
27.0
 40
27.0
 40
28.0
 40
28.0
 40
28.0
 40
29.0
 40
29.0
 40
29.0
 40
30.0
 40
30.0
 40
30.0
 40
31.0
 40
31.0
 40
31.0
 40
32.0
 40
32.0
 40
32.0
 40
33.0
 40
33.0
 40
33.0
 40
34.0
 40
34.0
 40
34.0
 40
35.0
 40
35.0
 40
35.0
 40
36.0
 40
36.0
 40
36.0
 40
37.0
 40
37.0
 40
37.0
 40
38.0
 40
38.0
 40
38.0
 40
39.0
 40
39.0
 40
39.0
 40
40.0
 40
40.0
 40
40.0
 40
41.0
 40
41.0
 40
41.0
 40
42.0
 40
42.0
 40
42.0
 40
43.0
 40
43.0
 40
43.0
 40
44.0
 40
44.0
 40
44.0
 40
45.0
 40
45.0
 40
45.0
 40
46.0
 40
46.0
 40
46.0
 40
47.0
 40
47.0
 40
47.0
 40
48.0
 40
48.0
 40
48.0
 40
49.0
 40
49.0
 40
49.0
 40
50.0
 40
50.0
 40
50.0
 40
51.0
 40
51.0
 40
51.0
 40
52.0
 40
52.0
 40
52.0
 40
53.0
 40
53.0
 40
53.0
 40
54.0
 40
54.0
 40
54.0
 40
55.0
 40
55.0
 40
55.0
 40
56.0
 40
56.0
 40
56.0
 40
57.0
 40
57.0
 40
57.0
 40
58.0
 40
58.0
 40
58.0
 40
59.0
 40
59.0
 40
59.0
 40
60.0
 40
60.0
 40
60.0
 40
61.0
 40
61.0
 40
61.0
 40
62.0
 40
62.0
 40
62.0
 40
63.0
 40
63.0
 40
63.0
 40
64.0
 40
64.0
 40
64.0
 40
65.0
 40
65.0
 40
65.0
 40
66.0
 40
66.0
 40
66.0
 40
66.0
 10
129.4391275718069
 20
-153.3494682776348
 30
0.0
 10
129.4391275718069
 20
-153.3494682776348
 30
0.0
 10
128.8803330840993
 20
-153.3494682776348
 30
0.0
 10
128.8803330840993
 20
-153.3494682776348
 30
0.0
 10
128.8699977976436
 20
-153.3939100093945
 30
0.0
 10
128.8613850589305
 20
-153.4259493974074
 30
0.0
 10
128.8486382056351
 20
-153.4638454477451
 30
0.0
 10
128.8741319122259
 20
-153.4638454477451
 30
0.0
 10
128.8889458228125
 20
-153.4659125050363
 30
0.0
 10
128.8951469946859
 20
-153.4659125050363
 30
0.0
 10
128.8951469946859
 20
-153.4659125050363
 30
0.0
 10
129.0835937177291
 20
-153.4659125050363
 30
0.0
 10
129.0835937177291
 20
-153.4659125050363
 30
0.0
 10
129.0835937177291
 20
-153.4659125050363
 30
0.0
 10
129.4580755969757
 20
-153.4659125050363
 30
0.0
 10
129.4580755969757
 20
-153.4659125050363
 30
0.0
 10
129.5087185006089
 20
-153.4659125050363
 30
0.0
 10
129.792249859045
 20
-153.4531656517408
 30
0.0
 10
129.8239447375093
 20
-153.4531656517408
 30
0.0
 10
129.8218776802181
 20
-153.4807264156229
 30
0.0
 10
129.819810622927
 20
-153.4996744407917
 30
0.0
 10
129.819810622927
 20
-153.5293022619649
 30
0.0
 10
129.8177435656358
 20
-153.5613416499777
 30
0.0
 10
129.8177435656358
 20
-153.696733902548
 30
0.0
 10
129.8177435656358
 20
-153.7239501568815
 30
0.0
 10
129.8177435656358
 20
-153.7239501568815
 30
0.0
 10
129.8177435656358
 20
-153.9695854649798
 30
0.0
 10
129.8177435656358
 20
-153.9695854649798
 30
0.0
 10
129.8177435656358
 20
-154.0140271967395
 30
0.0
 10
129.8218776802181
 20
-154.2107421489473
 30
0.0
 10
129.8260117948004
 20
-154.3630153693953
 30
0.0
 10
129.8260117948004
 20
-154.3630153693953
 30
0.0
 10
129.5996690214195
 20
-154.3630153693953
 30
0.0
 10
129.5996690214195
 20
-154.3630153693953
 30
0.0
 10
129.5996690214195
 20
-154.3630153693953
 30
0.0
 10
129.6017360787107
 20
-154.3292534336399
 30
0.0
 10
129.6017360787107
 20
-154.3292534336399
 30
0.0
 10
129.6017360787107
 20
-154.3292534336399
 30
0.0
 10
128.8996256188168
 20
-154.3292534336399
 30
0.0
 10
128.8996256188168
 20
-154.3292534336399
 30
0.0
 10
128.8996256188168
 20
-154.3292534336399
 30
0.0
 10
128.9016926761079
 20
-154.3630153693953
 30
0.0
 10
128.9016926761079
 20
-154.3630153693953
 30
0.0
 10
128.9016926761079
 20
-154.3630153693953
 30
0.0
 10
128.6836181318916
 20
-154.3630153693953
 30
0.0
 10
128.6836181318916
 20
-154.3630153693953
 30
0.0
 10
128.6880967560224
 20
-154.3078938416313
 30
0.0
 10
128.6880967560224
 20
-154.2951469883359
 30
0.0
 10
128.6942979278959
 20
-154.1811143277741
 30
0.0
 10
128.696364985187
 20
-154.1535535638921
 30
0.0
 10
128.6984320424781
 20
-154.020228368613
 30
0.0
 10
128.6984320424781
 20
-154.0012803434441
 30
0.0
 10
128.6984320424781
 20
-154.0012803434441
 30
0.0
 10
128.6984320424781
 20
-153.7980197098144
 30
0.0
 10
128.6984320424781
 20
-153.7980197098144
 30
0.0
 10
128.5589056753255
 20
-154.047789132495
 30
0.0
 10
128.3897514869998
 20
-154.179047270483
 30
0.0
 10
128.2839870556026
 20
-154.2445040847028
 30
0.0
 10
128.2839870556026
 20
-154.2445040847028
 30
0.0
 10
128.110354243146
 20
-154.1049777175501
 30
0.0
 10
128.110354243146
 20
-154.1049777175501
 30
0.0
 10
128.1992377066655
 20
-154.0539903043684
 30
0.0
 10
128.3432426979489
 20
-153.9675184076887
 30
0.0
 10
128.4807020078104
 20
-153.7728705127721
 30
0.0
 10
128.5716525286209
 20
-153.6457464893663
 30
0.0
 10
128.6371093428407
 20
-153.5020860076314
 30
0.0
 10
128.6708712785961
 20
-153.3494682776348
 30
0.0
 10
128.4424614479241
 20
-153.3518798444745
 30
0.0
 10
128.262627463594
 20
-153.358081016348
 30
0.0
 10
128.1675428282011
 20
-153.3601480736391
 30
0.0
 10
128.1675428282011
 20
-153.3601480736391
 30
0.0
 10
128.1675428282011
 20
-153.1823811466002
 30
0.0
 10
128.1675428282011
 20
-153.1823811466002
 30
0.0
 10
128.3642577804089
 20
-153.1889268280222
 30
0.0
 10
128.647789138845
 20
-153.1930609426045
 30
0.0
 10
128.7979953020019
 20
-153.1930609426045
 30
0.0
 10
128.7979953020019
 20
-153.1930609426045
 30
0.0
 10
129.0115912220874
 20
-153.1930609426045
 30
0.0
 10
129.0115912220874
 20
-153.1930609426045
 30
0.0
 10
129.0115912220874
 20
-153.1930609426045
 30
0.0
 10
129.0115912220874
 20
-153.0852294539162
 30
0.0
 10
129.0115912220874
 20
-153.0852294539162
 30
0.0
 10
129.0115912220874
 20
-153.0852294539162
 30
0.0
 10
128.8655191735128
 20
-153.0852294539162
 30
0.0
 10
128.8655191735128
 20
-153.0852294539162
 30
0.0
 10
128.696364985187
 20
-153.0852294539162
 30
0.0
 10
128.5272107968612
 20
-153.0893635684985
 30
0.0
 10
128.3601236658266
 20
-153.0959092499205
 30
0.0
 10
128.3601236658266
 20
-153.0959092499205
 30
0.0
 10
128.3601236658266
 20
-152.924343494755
 30
0.0
 10
128.3601236658266
 20
-152.924343494755
 30
0.0
 10
128.5144639435658
 20
-152.9350232907593
 30
0.0
 10
128.7004990997693
 20
-152.9350232907593
 30
0.0
 10
128.8655191735128
 20
-152.9350232907593
 30
0.0
 10
128.8655191735128
 20
-152.9350232907593
 30
0.0
 10
129.0115912220874
 20
-152.9350232907593
 30
0.0
 10
129.0115912220874
 20
-152.9350232907593
 30
0.0
 10
129.0115912220874
 20
-152.9350232907593
 30
0.0
 10
129.0115912220874
 20
-152.8165120060667
 30
0.0
 10
129.0115912220874
 20
-152.8165120060667
 30
0.0
 10
129.0115912220874
 20
-152.8165120060667
 30
0.0
 10
128.8803330840993
 20
-152.8165120060667
 30
0.0
 10
128.8803330840993
 20
-152.8165120060667
 30
0.0
 10
128.8338242950485
 20
-152.8165120060667
 30
0.0
 10
128.6309081709672
 20
-152.8251247447798
 30
0.0
 10
128.5885334964987
 20
-152.8251247447798
 30
0.0
 10
128.3856173724175
 20
-152.8292588593621
 30
0.0
 10
128.3091362526449
 20
-152.8313259166533
 30
0.0
 10
128.2309325851298
 20
-152.8333929739444
 30
0.0
 10
128.2309325851298
 20
-152.8333929739444
 30
0.0
 10
128.2309325851298
 20
-152.6494248750321
 30
0.0
 10
128.2309325851298
 20
-152.6494248750321
 30
0.0
 10
128.3453097552401
 20
-152.6576931041967
 30
0.0
 10
128.3897514869998
 20
-152.6576931041967
 30
0.0
 10
128.772501595411
 20
-152.6663058429098
 30
0.0
 10
128.7091118384824
 20
-152.5712212075169
 30
0.0
 10
128.6815510746004
 20
-152.5436604436349
 30
0.0
 10
128.6457220815538
 20
-152.5074869410398
 30
0.0
 10
128.6457220815538
 20
-152.5074869410398
 30
0.0
 10
128.821077441753
 20
-152.4251491589423
 30
0.0
 10
128.821077441753
 20
-152.4251491589423
 30
0.0
 10
128.8613850589305
 20
-152.4609781519889
 30
0.0
 10
128.9058267906902
 20
-152.5033528264575
 30
0.0
 10
128.9798963436231
 20
-152.6135958819855
 30
0.0
 10
128.9798963436231
 20
-152.6135958819855
 30
0.0
 10
128.8655191735128
 20
-152.668372900201
 30
0.0
 10
128.8655191735128
 20
-152.668372900201
 30
0.0
 10
128.8655191735128
 20
-152.668372900201
 30
0.0
 10
128.876198969517
 20
-152.668372900201
 30
0.0
 10
128.876198969517
 20
-152.668372900201
 30
0.0
 10
128.876198969517
 20
-152.668372900201
 30
0.0
 10
129.3988199546294
 20
-152.668372900201
 30
0.0
 10
129.3988199546294
 20
-152.668372900201
 30
0.0
 10
129.3988199546294
 20
-152.668372900201
 30
0.0
 10
129.3037353192366
 20
-152.6239311684412
 30
0.0
 10
129.3037353192366
 20
-152.6239311684412
 30
0.0
 10
129.33095157357
 20
-152.5860351181035
 30
0.0
 10
129.3881401586252
 20
-152.5054198837486
 30
0.0
 10
129.4029540692118
 20
-152.4313503308158
 30
0.0
 10
129.4029540692118
 20
-152.4313503308158
 30
0.0
 10
129.6165499892972
 20
-152.4950845972929
 30
0.0
 10
129.6165499892972
 20
-152.4950845972929
 30
0.0
 10
129.6251627280104
 20
-152.497151654584
 30
0.0
 10
129.6461778104704
 20
-152.5074869410398
 30
0.0
 10
129.6461778104704
 20
-152.5288465330483
 30
0.0
 10
129.6461778104704
 20
-152.5667425833861
 30
0.0
 10
129.5807209962506
 20
-152.5667425833861
 30
0.0
 10
129.5617729710818
 20
-152.5667425833861
 30
0.0
 10
129.5510931750775
 20
-152.5860351181035
 30
0.0
 10
129.5276665257778
 20
-152.6259982257324
 30
0.0
 10
129.4980387046046
 20
-152.6663058429098
 30
0.0
 10
129.8980142904422
 20
-152.6601046710364
 30
0.0
 10
129.9276421116153
 20
-152.6576931041967
 30
0.0
 10
130.0037787218393
 20
-152.6514919323232
 30
0.0
 10
130.0037787218393
 20
-152.6514919323232
 30
0.0
 10
130.0037787218393
 20
-152.8333929739444
 30
0.0
 10
130.0037787218393
 20
-152.8333929739444
 30
0.0
 10
129.9848306966704
 20
-152.8333929739444
 30
0.0
 10
129.9593369900796
 20
-152.8313259166533
 30
0.0
 10
129.7395398981207
 20
-152.8227131779401
 30
0.0
 10
129.688552484939
 20
-152.820646120649
 30
0.0
 10
129.46875539298
 20
-152.8165120060667
 30
0.0
 10
129.4243136612203
 20
-152.8165120060667
 30
0.0
 10
129.4243136612203
 20
-152.8165120060667
 30
0.0
 10
129.2083061742951
 20
-152.8165120060667
 30
0.0
 10
129.2083061742951
 20
-152.8165120060667
 30
0.0
 10
129.2083061742951
 20
-152.8165120060667
 30
0.0
 10
129.2083061742951
 20
-152.9350232907593
 30
0.0
 10
129.2083061742951
 20
-152.9350232907593
 30
0.0
 10
129.2083061742951
 20
-152.9350232907593
 30
0.0
 10
129.3819389867517
 20
-152.9350232907593
 30
0.0
 10
129.3819389867517
 20
-152.9350232907593
 30
0.0
 10
129.544892003204
 20
-152.9350232907593
 30
0.0
 10
129.7350612739898
 20
-152.9350232907593
 30
0.0
 10
129.8918131185687
 20
-152.924343494755
 30
0.0
 10
129.8918131185687
 20
-152.924343494755
 30
0.0
 10
129.8918131185687
 20
-153.0959092499205
 30
0.0
 10
129.8918131185687
 20
-153.0959092499205
 30
0.0
 10
129.6823513130655
 20
-153.0872965112073
 30
0.0
 10
129.4856363608577
 20
-153.0852294539162
 30
0.0
 10
129.3819389867517
 20
-153.0852294539162
 30
0.0
 10
129.3819389867517
 20
-153.0852294539162
 30
0.0
 10
129.2083061742951
 20
-153.0852294539162
 30
0.0
 10
129.2083061742951
 20
-153.0852294539162
 30
0.0
 10
129.2083061742951
 20
-153.0852294539162
 30
0.0
 10
129.2083061742951
 20
-153.1930609426045
 30
0.0
 10
129.2083061742951
 20
-153.1930609426045
 30
0.0
 10
129.2083061742951
 20
-153.1930609426045
 30
0.0
 10
129.4391275718069
 20
-153.1930609426045
 30
0.0
 10
129.4391275718069
 20
-153.1930609426045
 30
0.0
 10
129.5721082575375
 20
-153.1930609426045
 30
0.0
 10
129.8601182401044
 20
-153.1889268280222
 30
0.0
 10
130.0692355360591
 20
-153.1823811466002
 30
0.0
 10
130.0692355360591
 20
-153.1823811466002
 30
0.0
 10
130.0692355360591
 20
-153.3601480736391
 30
0.0
 10
130.0692355360591
 20
-153.3601480736391
 30
0.0
 10
129.8769992079821
 20
-153.3539469017657
 30
0.0
 10
129.5638400283729
 20
-153.3494682776348
 30
0.0
 10
129.4391275718069
 20
-153.3494682776348
 30
0.0
  0
HATCH
  5
176
330
16A
100
AcDbEntity
  8
レイヤー 1
 62
    18
420
        0
440
 33554687
100
AcDbHatch
 10
0.0
 20
0.0
 30
0.0
210
0.0
220
0.0
230
1.0
  2
SOLID
 70
     1
 71
     1
 91
        4
 92
        1
 93
        1
 72
     4
 94
        3
 73
     0
 74
     0
 95
       17
 96
       13
 40
0.0
 40
0.0
 40
0.0
 40
0.0
 40
1.0
 40
1.0
 40
1.0
 40
2.0
 40
2.0
 40
2.0
 40
3.0
 40
3.0
 40
3.0
 40
4.0
 40
4.0
 40
4.0
 40
4.0
 10
129.6041476455503
 20
-154.0815510682504
 10
129.6041476455503
 20
-154.0815510682504
 10
128.8975585615256
 20
-154.0815510682504
 10
128.8975585615256
 20
-154.0815510682504
 10
128.8975585615256
 20
-154.0815510682504
 10
128.8975585615256
 20
-154.1959282383607
 10
128.8975585615256
 20
-154.1959282383607
 10
128.8975585615256
 20
-154.1959282383607
 10
129.6041476455503
 20
-154.1959282383607
 10
129.6041476455503
 20
-154.1959282383607
 10
129.6041476455503
 20
-154.1959282383607
 10
129.6041476455503
 20
-154.0815510682504
 10
129.6041476455503
 20
-154.0815510682504
 97
        0
 97
        1
330
172
 92
        1
 93
        1
 72
     4
 94
        3
 73
     0
 74
     0
 95
       17
 96
       13
 40
0.0
 40
0.0
 40
0.0
 40
0.0
 40
1.0
 40
1.0
 40
1.0
 40
2.0
 40
2.0
 40
2.0
 40
3.0
 40
3.0
 40
3.0
 40
4.0
 40
4.0
 40
4.0
 40
4.0
 10
129.6041476455503
 20
-153.8383273269918
 10
129.6041476455503
 20
-153.8383273269918
 10
128.8975585615256
 20
-153.8383273269918
 10
128.8975585615256
 20
-153.8383273269918
 10
128.8975585615256
 20
-153.8383273269918
 10
128.8975585615256
 20
-153.9527044971021
 10
128.8975585615256
 20
-153.9527044971021
 10
128.8975585615256
 20
-153.9527044971021
 10
129.6041476455503
 20
-153.9527044971021
 10
129.6041476455503
 20
-153.9527044971021
 10
129.6041476455503
 20
-153.9527044971021
 10
129.6041476455503
 20
-153.8383273269918
 10
129.6041476455503
 20
-153.8383273269918
 97
        0
 97
        1
330
173
 92
        1
 93
        1
 72
     4
 94
        3
 73
     0
 74
     0
 95
       17
 96
       13
 40
0.0
 40
0.0
 40
0.0
 40
0.0
 40
1.0
 40
1.0
 40
1.0
 40
2.0
 40
2.0
 40
2.0
 40
3.0
 40
3.0
 40
3.0
 40
4.0
 40
4.0
 40
4.0
 40
4.0
 10
129.6041476455503
 20
-153.6054388721889
 10
129.6041476455503
 20
-153.6054388721889
 10
128.8975585615256
 20
-153.6054388721889
 10
128.8975585615256
 20
-153.6054388721889
 10
128.8975585615256
 20
-153.6054388721889
 10
128.8975585615256
 20
-153.7136148704258
 10
128.8975585615256
 20
-153.7136148704258
 10
128.8975585615256
 20
-153.7136148704258
 10
129.6041476455503
 20
-153.7136148704258
 10
129.6041476455503
 20
-153.7136148704258
 10
129.6041476455503
 20
-153.7136148704258
 10
129.6041476455503
 20
-153.6054388721889
 10
129.6041476455503
 20
-153.6054388721889
 97
        0
 97
        1
330
174
 92
        1
 93
        1
 72
     4
 94
        3
 73
     0
 74
     0
 95
      203
 96
      199
 40
0.0
 40
0.0
 40
0.0
 40
0.0
 40
1.0
 40
1.0
 40
1.0
 40
2.0
 40
2.0
 40
2.0
 40
3.0
 40
3.0
 40
3.0
 40
4.0
 40
4.0
 40
4.0
 40
5.0
 40
5.0
 40
5.0
 40
6.0
 40
6.0
 40
6.0
 40
7.0
 40
7.0
 40
7.0
 40
8.0
 40
8.0
 40
8.0
 40
9.0
 40
9.0
 40
9.0
 40
10.0
 40
10.0
 40
10.0
 40
11.0
 40
11.0
 40
11.0
 40
12.0
 40
12.0
 40
12.0
 40
13.0
 40
13.0
 40
13.0
 40
14.0
 40
14.0
 40
14.0
 40
15.0
 40
15.0
 40
15.0
 40
16.0
 40
16.0
 40
16.0
 40
17.0
 40
17.0
 40
17.0
 40
18.0
 40
18.0
 40
18.0
 40
19.0
 40
19.0
 40
19.0
 40
20.0
 40
20.0
 40
20.0
 40
21.0
 40
21.0
 40
21.0
 40
22.0
 40
22.0
 40
22.0
 40
23.0
 40
23.0
 40
23.0
 40
24.0
 40
24.0
 40
24.0
 40
25.0
 40
25.0
 40
25.0
 40
26.0
 40
26.0
 40
26.0
 40
27.0
 40
27.0
 40
27.0
 40
28.0
 40
28.0
 40
28.0
 40
29.0
 40
29.0
 40
29.0
 40
30.0
 40
30.0
 40
30.0
 40
31.0
 40
31.0
 40
31.0
 40
32.0
 40
32.0
 40
32.0
 40
33.0
 40
33.0
 40
33.0
 40
34.0
 40
34.0
 40
34.0
 40
35.0
 40
35.0
 40
35.0
 40
36.0
 40
36.0
 40
36.0
 40
37.0
 40
37.0
 40
37.0
 40
38.0
 40
38.0
 40
38.0
 40
39.0
 40
39.0
 40
39.0
 40
40.0
 40
40.0
 40
40.0
 40
41.0
 40
41.0
 40
41.0
 40
42.0
 40
42.0
 40
42.0
 40
43.0
 40
43.0
 40
43.0
 40
44.0
 40
44.0
 40
44.0
 40
45.0
 40
45.0
 40
45.0
 40
46.0
 40
46.0
 40
46.0
 40
47.0
 40
47.0
 40
47.0
 40
48.0
 40
48.0
 40
48.0
 40
49.0
 40
49.0
 40
49.0
 40
50.0
 40
50.0
 40
50.0
 40
51.0
 40
51.0
 40
51.0
 40
52.0
 40
52.0
 40
52.0
 40
53.0
 40
53.0
 40
53.0
 40
54.0
 40
54.0
 40
54.0
 40
55.0
 40
55.0
 40
55.0
 40
56.0
 40
56.0
 40
56.0
 40
57.0
 40
57.0
 40
57.0
 40
58.0
 40
58.0
 40
58.0
 40
59.0
 40
59.0
 40
59.0
 40
60.0
 40
60.0
 40
60.0
 40
61.0
 40
61.0
 40
61.0
 40
62.0
 40
62.0
 40
62.0
 40
63.0
 40
63.0
 40
63.0
 40
64.0
 40
64.0
 40
64.0
 40
65.0
 40
65.0
 40
65.0
 40
66.0
 40
66.0
 40
66.0
 40
66.0
 10
129.4391275718069
 20
-153.3494682776348
 10
129.4391275718069
 20
-153.3494682776348
 10
128.8803330840993
 20
-153.3494682776348
 10
128.8803330840993
 20
-153.3494682776348
 10
128.8699977976436
 20
-153.3939100093945
 10
128.8613850589305
 20
-153.4259493974074
 10
128.8486382056351
 20
-153.4638454477451
 10
128.8741319122259
 20
-153.4638454477451
 10
128.8889458228125
 20
-153.4659125050363
 10
128.8951469946859
 20
-153.4659125050363
 10
128.8951469946859
 20
-153.4659125050363
 10
129.0835937177291
 20
-153.4659125050363
 10
129.0835937177291
 20
-153.4659125050363
 10
129.0835937177291
 20
-153.4659125050363
 10
129.4580755969757
 20
-153.4659125050363
 10
129.4580755969757
 20
-153.4659125050363
 10
129.5087185006089
 20
-153.4659125050363
 10
129.792249859045
 20
-153.4531656517408
 10
129.8239447375093
 20
-153.4531656517408
 10
129.8218776802181
 20
-153.4807264156229
 10
129.819810622927
 20
-153.4996744407917
 10
129.819810622927
 20
-153.5293022619649
 10
129.8177435656358
 20
-153.5613416499777
 10
129.8177435656358
 20
-153.696733902548
 10
129.8177435656358
 20
-153.7239501568815
 10
129.8177435656358
 20
-153.7239501568815
 10
129.8177435656358
 20
-153.9695854649798
 10
129.8177435656358
 20
-153.9695854649798
 10
129.8177435656358
 20
-154.0140271967395
 10
129.8218776802181
 20
-154.2107421489473
 10
129.8260117948004
 20
-154.3630153693953
 10
129.8260117948004
 20
-154.3630153693953
 10
129.5996690214195
 20
-154.3630153693953
 10
129.5996690214195
 20
-154.3630153693953
 10
129.5996690214195
 20
-154.3630153693953
 10
129.6017360787107
 20
-154.3292534336399
 10
129.6017360787107
 20
-154.3292534336399
 10
129.6017360787107
 20
-154.3292534336399
 10
128.8996256188168
 20
-154.3292534336399
 10
128.8996256188168
 20
-154.3292534336399
 10
128.8996256188168
 20
-154.3292534336399
 10
128.9016926761079
 20
-154.3630153693953
 10
128.9016926761079
 20
-154.3630153693953
 10
128.9016926761079
 20
-154.3630153693953
 10
128.6836181318916
 20
-154.3630153693953
 10
128.6836181318916
 20
-154.3630153693953
 10
128.6880967560224
 20
-154.3078938416313
 10
128.6880967560224
 20
-154.2951469883359
 10
128.6942979278959
 20
-154.1811143277741
 10
128.696364985187
 20
-154.1535535638921
 10
128.6984320424781
 20
-154.020228368613
 10
128.6984320424781
 20
-154.0012803434441
 10
128.6984320424781
 20
-154.0012803434441
 10
128.6984320424781
 20
-153.7980197098144
 10
128.6984320424781
 20
-153.7980197098144
 10
128.5589056753255
 20
-154.047789132495
 10
128.3897514869998
 20
-154.179047270483
 10
128.2839870556026
 20
-154.2445040847028
 10
128.2839870556026
 20
-154.2445040847028
 10
128.110354243146
 20
-154.1049777175501
 10
128.110354243146
 20
-154.1049777175501
 10
128.1992377066655
 20
-154.0539903043684
 10
128.3432426979489
 20
-153.9675184076887
 10
128.4807020078104
 20
-153.7728705127721
 10
128.5716525286209
 20
-153.6457464893663
 10
128.6371093428407
 20
-153.5020860076314
 10
128.6708712785961
 20
-153.3494682776348
 10
128.4424614479241
 20
-153.3518798444745
 10
128.262627463594
 20
-153.358081016348
 10
128.1675428282011
 20
-153.3601480736391
 10
128.1675428282011
 20
-153.3601480736391
 10
128.1675428282011
 20
-153.1823811466002
 10
128.1675428282011
 20
-153.1823811466002
 10
128.3642577804089
 20
-153.1889268280222
 10
128.647789138845
 20
-153.1930609426045
 10
128.7979953020019
 20
-153.1930609426045
 10
128.7979953020019
 20
-153.1930609426045
 10
129.0115912220874
 20
-153.1930609426045
 10
129.0115912220874
 20
-153.1930609426045
 10
129.0115912220874
 20
-153.1930609426045
 10
129.0115912220874
 20
-153.0852294539162
 10
129.0115912220874
 20
-153.0852294539162
 10
129.0115912220874
 20
-153.0852294539162
 10
128.8655191735128
 20
-153.0852294539162
 10
128.8655191735128
 20
-153.0852294539162
 10
128.696364985187
 20
-153.0852294539162
 10
128.5272107968612
 20
-153.0893635684985
 10
128.3601236658266
 20
-153.0959092499205
 10
128.3601236658266
 20
-153.0959092499205
 10
128.3601236658266
 20
-152.924343494755
 10
128.3601236658266
 20
-152.924343494755
 10
128.5144639435658
 20
-152.9350232907593
 10
128.7004990997693
 20
-152.9350232907593
 10
128.8655191735128
 20
-152.9350232907593
 10
128.8655191735128
 20
-152.9350232907593
 10
129.0115912220874
 20
-152.9350232907593
 10
129.0115912220874
 20
-152.9350232907593
 10
129.0115912220874
 20
-152.9350232907593
 10
129.0115912220874
 20
-152.8165120060667
 10
129.0115912220874
 20
-152.8165120060667
 10
129.0115912220874
 20
-152.8165120060667
 10
128.8803330840993
 20
-152.8165120060667
 10
128.8803330840993
 20
-152.8165120060667
 10
128.8338242950485
 20
-152.8165120060667
 10
128.6309081709672
 20
-152.8251247447798
 10
128.5885334964987
 20
-152.8251247447798
 10
128.3856173724175
 20
-152.8292588593621
 10
128.3091362526449
 20
-152.8313259166533
 10
128.2309325851298
 20
-152.8333929739444
 10
128.2309325851298
 20
-152.8333929739444
 10
128.2309325851298
 20
-152.6494248750321
 10
128.2309325851298
 20
-152.6494248750321
 10
128.3453097552401
 20
-152.6576931041967
 10
128.3897514869998
 20
-152.6576931041967
 10
128.772501595411
 20
-152.6663058429098
 10
128.7091118384824
 20
-152.5712212075169
 10
128.6815510746004
 20
-152.5436604436349
 10
128.6457220815538
 20
-152.5074869410398
 10
128.6457220815538
 20
-152.5074869410398
 10
128.821077441753
 20
-152.4251491589423
 10
128.821077441753
 20
-152.4251491589423
 10
128.8613850589305
 20
-152.4609781519889
 10
128.9058267906902
 20
-152.5033528264575
 10
128.9798963436231
 20
-152.6135958819855
 10
128.9798963436231
 20
-152.6135958819855
 10
128.8655191735128
 20
-152.668372900201
 10
128.8655191735128
 20
-152.668372900201
 10
128.8655191735128
 20
-152.668372900201
 10
128.876198969517
 20
-152.668372900201
 10
128.876198969517
 20
-152.668372900201
 10
128.876198969517
 20
-152.668372900201
 10
129.3988199546294
 20
-152.668372900201
 10
129.3988199546294
 20
-152.668372900201
 10
129.3988199546294
 20
-152.668372900201
 10
129.3037353192366
 20
-152.6239311684412
 10
129.3037353192366
 20
-152.6239311684412
 10
129.33095157357
 20
-152.5860351181035
 10
129.3881401586252
 20
-152.5054198837486
 10
129.4029540692118
 20
-152.4313503308158
 10
129.4029540692118
 20
-152.4313503308158
 10
129.6165499892972
 20
-152.4950845972929
 10
129.6165499892972
 20
-152.4950845972929
 10
129.6251627280104
 20
-152.497151654584
 10
129.6461778104704
 20
-152.5074869410398
 10
129.6461778104704
 20
-152.5288465330483
 10
129.6461778104704
 20
-152.5667425833861
 10
129.5807209962506
 20
-152.5667425833861
 10
129.5617729710818
 20
-152.5667425833861
 10
129.5510931750775
 20
-152.5860351181035
 10
129.5276665257778
 20
-152.6259982257324
 10
129.4980387046046
 20
-152.6663058429098
 10
129.8980142904422
 20
-152.6601046710364
 10
129.9276421116153
 20
-152.6576931041967
 10
130.0037787218393
 20
-152.6514919323232
 10
130.0037787218393
 20
-152.6514919323232
 10
130.0037787218393
 20
-152.8333929739444
 10
130.0037787218393
 20
-152.8333929739444
 10
129.9848306966704
 20
-152.8333929739444
 10
129.9593369900796
 20
-152.8313259166533
 10
129.7395398981207
 20
-152.8227131779401
 10
129.688552484939
 20
-152.820646120649
 10
129.46875539298
 20
-152.8165120060667
 10
129.4243136612203
 20
-152.8165120060667
 10
129.4243136612203
 20
-152.8165120060667
 10
129.2083061742951
 20
-152.8165120060667
 10
129.2083061742951
 20
-152.8165120060667
 10
129.2083061742951
 20
-152.8165120060667
 10
129.2083061742951
 20
-152.9350232907593
 10
129.2083061742951
 20
-152.9350232907593
 10
129.2083061742951
 20
-152.9350232907593
 10
129.3819389867517
 20
-152.9350232907593
 10
129.3819389867517
 20
-152.9350232907593
 10
129.544892003204
 20
-152.9350232907593
 10
129.7350612739898
 20
-152.9350232907593
 10
129.8918131185687
 20
-152.924343494755
 10
129.8918131185687
 20
-152.924343494755
 10
129.8918131185687
 20
-153.0959092499205
 10
129.8918131185687
 20
-153.0959092499205
 10
129.6823513130655
 20
-153.0872965112073
 10
129.4856363608577
 20
-153.0852294539162
 10
129.3819389867517
 20
-153.0852294539162
 10
129.3819389867517
 20
-153.0852294539162
 10
129.2083061742951
 20
-153.0852294539162
 10
129.2083061742951
 20
-153.0852294539162
 10
129.2083061742951
 20
-153.0852294539162
 10
129.2083061742951
 20
-153.1930609426045
 10
129.2083061742951
 20
-153.1930609426045
 10
129.2083061742951
 20
-153.1930609426045
 10
129.4391275718069
 20
-153.1930609426045
 10
129.4391275718069
 20
-153.1930609426045
 10
129.5721082575375
 20
-153.1930609426045
 10
129.8601182401044
 20
-153.1889268280222
 10
130.0692355360591
 20
-153.1823811466002
 10
130.0692355360591
 20
-153.1823811466002
 10
130.0692355360591
 20
-153.3601480736391
 10
130.0692355360591
 20
-153.3601480736391
 10
129.8769992079821
 20
-153.3539469017657
 10
129.5638400283729
 20
-153.3494682776348
 10
129.4391275718069
 20
-153.3494682776348
 97
        0
 97
        1
330
175
 75
     2
 76
     1
 98
        1
 10
0.0
 20
0.0
450
        0
451
        0
460
0.0
461
0.0
452
        0
462
0.0
453
        0
470

  0
SPLINE
  5
177
330
16A
100
AcDbEntity
  8
レイヤー 1
100
AcDbSpline
210
0.0
220
0.0
230
1.0
 70
     9
 71
     3
 72
    29
 73
    25
 74
     0
 42
0.0000000001
 43
0.0000000001
 40
0.0
 40
0.0
 40
0.0
 40
0.0
 40
1.0
 40
1.0
 40
1.0
 40
2.0
 40
2.0
 40
2.0
 40
3.0
 40
3.0
 40
3.0
 40
4.0
 40
4.0
 40
4.0
 40
5.0
 40
5.0
 40
5.0
 40
6.0
 40
6.0
 40
6.0
 40
7.0
 40
7.0
 40
7.0
 40
8.0
 40
8.0
 40
8.0
 40
8.0
 10
131.3142930444284
 20
-152.7975639808978
 30
0.0
 10
131.3142930444284
 20
-152.7975639808978
 30
0.0
 10
130.9611707571902
 20
-152.7975639808978
 30
0.0
 10
130.9611707571902
 20
-152.7975639808978
 30
0.0
 10
130.8488606443711
 20
-152.7975639808978
 30
0.0
 10
130.7093342772185
 20
-152.8037651527713
 30
0.0
 10
130.6015027885301
 20
-152.8165120060667
 30
0.0
 10
130.6015027885301
 20
-152.8165120060667
 30
0.0
 10
130.6015027885301
 20
-152.5815564939726
 30
0.0
 10
130.6015027885301
 20
-152.5815564939726
 30
0.0
 10
130.7196695636742
 20
-152.5963704045592
 30
0.0
 10
130.9039821721351
 20
-152.6008490286901
 30
0.0
 10
130.9611707571902
 20
-152.6008490286901
 30
0.0
 10
130.9611707571902
 20
-152.6008490286901
 30
0.0
 10
131.3142930444284
 20
-152.6008490286901
 30
0.0
 10
131.3142930444284
 20
-152.6008490286901
 30
0.0
 10
131.3332410695972
 20
-152.6008490286901
 30
0.0
 10
131.536501703227
 20
-152.6008490286901
 30
0.0
 10
131.6780951276707
 20
-152.5815564939726
 30
0.0
 10
131.6780951276707
 20
-152.5815564939726
 30
0.0
 10
131.6780951276707
 20
-152.8165120060667
 30
0.0
 10
131.6780951276707
 20
-152.8165120060667
 30
0.0
 10
131.5216877926404
 20
-152.7975639808978
 30
0.0
 10
131.3311740123061
 20
-152.7975639808978
 30
0.0
 10
131.3142930444284
 20
-152.7975639808978
 30
0.0
  0
SPLINE
  5
178
330
16A
100
AcDbEntity
  8
レイヤー 1
100
AcDbSpline
210
0.0
220
0.0
230
1.0
 70
     9
 71
     3
 72
    47
 73
    43
 74
     0
 42
0.0000000001
 43
0.0000000001
 40
0.0
 40
0.0
 40
0.0
 40
0.0
 40
1.0
 40
1.0
 40
1.0
 40
2.0
 40
2.0
 40
2.0
 40
3.0
 40
3.0
 40
3.0
 40
4.0
 40
4.0
 40
4.0
 40
5.0
 40
5.0
 40
5.0
 40
6.0
 40
6.0
 40
6.0
 40
7.0
 40
7.0
 40
7.0
 40
8.0
 40
8.0
 40
8.0
 40
9.0
 40
9.0
 40
9.0
 40
10.0
 40
10.0
 40
10.0
 40
11.0
 40
11.0
 40
11.0
 40
12.0
 40
12.0
 40
12.0
 40
13.0
 40
13.0
 40
13.0
 40
14.0
 40
14.0
 40
14.0
 40
14.0
 10
131.4159233612432
 20
-153.3263861378837
 30
0.0
 10
131.4159233612432
 20
-153.3263861378837
 30
0.0
 10
131.3142930444284
 20
-153.3263861378837
 30
0.0
 10
131.3142930444284
 20
-153.3263861378837
 30
0.0
 10
131.3142930444284
 20
-153.413202544112
 30
0.0
 10
131.2932779619683
 20
-153.8024983339452
 30
0.0
 10
131.096218500212
 20
-154.0222954259041
 30
0.0
 10
130.943945279764
 20
-154.1914496142299
 30
0.0
 10
130.7368950411005
 20
-154.2613850525805
 30
0.0
 10
130.6521456921633
 20
-154.2889458164625
 30
0.0
 10
130.6521456921633
 20
-154.2889458164625
 30
0.0
 10
130.4574977972467
 20
-154.1218586854278
 30
0.0
 10
130.4574977972467
 20
-154.1218586854278
 30
0.0
 10
130.5546494899308
 20
-154.1091118321324
 30
0.0
 10
130.7303493596785
 20
-154.0856851828327
 30
0.0
 10
130.9187960827217
 20
-153.8975829693381
 30
0.0
 10
130.9928656356545
 20
-153.8255804736964
 30
0.0
 10
131.096218500212
 20
-153.6860541065437
 30
0.0
 10
131.096218500212
 20
-153.3263861378837
 30
0.0
 10
131.096218500212
 20
-153.3263861378837
 30
0.0
 10
130.8657416122488
 20
-153.3263861378837
 30
0.0
 10
130.8657416122488
 20
-153.3263861378837
 30
0.0
 10
130.6797064560453
 20
-153.3263861378837
 30
0.0
 10
130.4933267902933
 20
-153.330520252466
 30
0.0
 10
130.3072916340898
 20
-153.3453341630526
 30
0.0
 10
130.3072916340898
 20
-153.3453341630526
 30
0.0
 10
130.3072916340898
 20
-153.1255370710936
 30
0.0
 10
130.3072916340898
 20
-153.1255370710936
 30
0.0
 10
130.495738357133
 20
-153.1403509816802
 30
0.0
 10
130.7813367728602
 20
-153.1444850962625
 30
0.0
 10
130.8657416122488
 20
-153.1444850962625
 30
0.0
 10
130.8657416122488
 20
-153.1444850962625
 30
0.0
 10
131.4159233612432
 20
-153.1444850962625
 30
0.0
 10
131.4159233612432
 20
-153.1444850962625
 30
0.0
 10
131.4348713864121
 20
-153.1444850962625
 30
0.0
 10
131.7521646806036
 20
-153.1444850962625
 30
0.0
 10
131.9805745112757
 20
-153.1255370710936
 30
0.0
 10
131.9805745112757
 20
-153.1255370710936
 30
0.0
 10
131.9805745112757
 20
-153.3453341630526
 30
0.0
 10
131.9805745112757
 20
-153.3453341630526
 30
0.0
 10
131.792472297781
 20
-153.330520252466
 30
0.0
 10
131.6040255747378
 20
-153.3263861378837
 30
0.0
 10
131.4159233612432
 20
-153.3263861378837
 30
0.0
  0
HATCH
  5
179
330
16A
100
AcDbEntity
  8
レイヤー 1
 62
    18
420
        0
440
 33554687
100
AcDbHatch
 10
0.0
 20
0.0
 30
0.0
210
0.0
220
0.0
230
1.0
  2
SOLID
 70
     1
 71
     1
 91
        2
 92
        1
 93
        1
 72
     4
 94
        3
 73
     0
 74
     0
 95
       29
 96
       25
 40
0.0
 40
0.0
 40
0.0
 40
0.0
 40
1.0
 40
1.0
 40
1.0
 40
2.0
 40
2.0
 40
2.0
 40
3.0
 40
3.0
 40
3.0
 40
4.0
 40
4.0
 40
4.0
 40
5.0
 40
5.0
 40
5.0
 40
6.0
 40
6.0
 40
6.0
 40
7.0
 40
7.0
 40
7.0
 40
8.0
 40
8.0
 40
8.0
 40
8.0
 10
131.3142930444284
 20
-152.7975639808978
 10
131.3142930444284
 20
-152.7975639808978
 10
130.9611707571902
 20
-152.7975639808978
 10
130.9611707571902
 20
-152.7975639808978
 10
130.8488606443711
 20
-152.7975639808978
 10
130.7093342772185
 20
-152.8037651527713
 10
130.6015027885301
 20
-152.8165120060667
 10
130.6015027885301
 20
-152.8165120060667
 10
130.6015027885301
 20
-152.5815564939726
 10
130.6015027885301
 20
-152.5815564939726
 10
130.7196695636742
 20
-152.5963704045592
 10
130.9039821721351
 20
-152.6008490286901
 10
130.9611707571902
 20
-152.6008490286901
 10
130.9611707571902
 20
-152.6008490286901
 10
131.3142930444284
 20
-152.6008490286901
 10
131.3142930444284
 20
-152.6008490286901
 10
131.3332410695972
 20
-152.6008490286901
 10
131.536501703227
 20
-152.6008490286901
 10
131.6780951276707
 20
-152.5815564939726
 10
131.6780951276707
 20
-152.5815564939726
 10
131.6780951276707
 20
-152.8165120060667
 10
131.6780951276707
 20
-152.8165120060667
 10
131.5216877926404
 20
-152.7975639808978
 10
131.3311740123061
 20
-152.7975639808978
 10
131.3142930444284
 20
-152.7975639808978
 97
        0
 97
        1
330
177
 92
        1
 93
        1
 72
     4
 94
        3
 73
     0
 74
     0
 95
       47
 96
       43
 40
0.0
 40
0.0
 40
0.0
 40
0.0
 40
1.0
 40
1.0
 40
1.0
 40
2.0
 40
2.0
 40
2.0
 40
3.0
 40
3.0
 40
3.0
 40
4.0
 40
4.0
 40
4.0
 40
5.0
 40
5.0
 40
5.0
 40
6.0
 40
6.0
 40
6.0
 40
7.0
 40
7.0
 40
7.0
 40
8.0
 40
8.0
 40
8.0
 40
9.0
 40
9.0
 40
9.0
 40
10.0
 40
10.0
 40
10.0
 40
11.0
 40
11.0
 40
11.0
 40
12.0
 40
12.0
 40
12.0
 40
13.0
 40
13.0
 40
13.0
 40
14.0
 40
14.0
 40
14.0
 40
14.0
 10
131.4159233612432
 20
-153.3263861378837
 10
131.4159233612432
 20
-153.3263861378837
 10
131.3142930444284
 20
-153.3263861378837
 10
131.3142930444284
 20
-153.3263861378837
 10
131.3142930444284
 20
-153.413202544112
 10
131.2932779619683
 20
-153.8024983339452
 10
131.096218500212
 20
-154.0222954259041
 10
130.943945279764
 20
-154.1914496142299
 10
130.7368950411005
 20
-154.2613850525805
 10
130.6521456921633
 20
-154.2889458164625
 10
130.6521456921633
 20
-154.2889458164625
 10
130.4574977972467
 20
-154.1218586854278
 10
130.4574977972467
 20
-154.1218586854278
 10
130.5546494899308
 20
-154.1091118321324
 10
130.7303493596785
 20
-154.0856851828327
 10
130.9187960827217
 20
-153.8975829693381
 10
130.9928656356545
 20
-153.8255804736964
 10
131.096218500212
 20
-153.6860541065437
 10
131.096218500212
 20
-153.3263861378837
 10
131.096218500212
 20
-153.3263861378837
 10
130.8657416122488
 20
-153.3263861378837
 10
130.8657416122488
 20
-153.3263861378837
 10
130.6797064560453
 20
-153.3263861378837
 10
130.4933267902933
 20
-153.330520252466
 10
130.3072916340898
 20
-153.3453341630526
 10
130.3072916340898
 20
-153.3453341630526
 10
130.3072916340898
 20
-153.1255370710936
 10
130.3072916340898
 20
-153.1255370710936
 10
130.495738357133
 20
-153.1403509816802
 10
130.7813367728602
 20
-153.1444850962625
 10
130.8657416122488
 20
-153.1444850962625
 10
130.8657416122488
 20
-153.1444850962625
 10
131.4159233612432
 20
-153.1444850962625
 10
131.4159233612432
 20
-153.1444850962625
 10
131.4348713864121
 20
-153.1444850962625
 10
131.7521646806036
 20
-153.1444850962625
 10
131.9805745112757
 20
-153.1255370710936
 10
131.9805745112757
 20
-153.1255370710936
 10
131.9805745112757
 20
-153.3453341630526
 10
131.9805745112757
 20
-153.3453341630526
 10
131.792472297781
 20
-153.330520252466
 10
131.6040255747378
 20
-153.3263861378837
 10
131.4159233612432
 20
-153.3263861378837
 97
        0
 97
        1
330
178
 75
     2
 76
     1
 98
        1
 10
0.0
 20
0.0
450
        0
451
        0
460
0.0
461
0.0
452
        0
462
0.0
453
        0
470

  0
SPLINE
  5
17A
330
16A
100
AcDbEntity
  8
レイヤー 1
100
AcDbSpline
210
0.0
220
0.0
230
1.0
 70
     9
 71
     3
 72
    29
 73
    25
 74
     0
 42
0.0000000001
 43
0.0000000001
 40
0.0
 40
0.0
 40
0.0
 40
0.0
 40
1.0
 40
1.0
 40
1.0
 40
2.0
 40
2.0
 40
2.0
 40
3.0
 40
3.0
 40
3.0
 40
4.0
 40
4.0
 40
4.0
 40
5.0
 40
5.0
 40
5.0
 40
6.0
 40
6.0
 40
6.0
 40
7.0
 40
7.0
 40
7.0
 40
8.0
 40
8.0
 40
8.0
 40
8.0
 10
133.2618055222401
 20
-153.489339154336
 30
0.0
 10
133.2618055222401
 20
-153.489339154336
 30
0.0
 10
132.777425097014
 20
-153.489339154336
 30
0.0
 10
132.777425097014
 20
-153.489339154336
 30
0.0
 10
132.749864333132
 20
-153.489339154336
 30
0.0
 10
132.4325710389404
 20
-153.489339154336
 30
0.0
 10
132.2210421761461
 20
-153.5144883513783
 30
0.0
 10
132.2210421761461
 20
-153.5144883513783
 30
0.0
 10
132.2210421761461
 20
-153.2840114634151
 30
0.0
 10
132.2210421761461
 20
-153.2840114634151
 30
0.0
 10
132.3795165684676
 20
-153.3074381127148
 30
0.0
 10
132.5700303488019
 20
-153.3095051700059
 30
0.0
 10
132.777425097014
 20
-153.3095051700059
 30
0.0
 10
132.777425097014
 20
-153.3095051700059
 30
0.0
 10
133.2618055222401
 20
-153.3095051700059
 30
0.0
 10
133.2618055222401
 20
-153.3095051700059
 30
0.0
 10
133.4478406784436
 20
-153.3095051700059
 30
0.0
 10
133.6342203441956
 20
-153.3074381127148
 30
0.0
 10
133.8181884431079
 20
-153.2840114634151
 30
0.0
 10
133.8181884431079
 20
-153.2840114634151
 30
0.0
 10
133.8181884431079
 20
-153.5144883513783
 30
0.0
 10
133.8181884431079
 20
-153.5144883513783
 30
0.0
 10
133.6342203441956
 20
-153.4914062116271
 30
0.0
 10
133.3865179788061
 20
-153.489339154336
 30
0.0
 10
133.2618055222401
 20
-153.489339154336
 30
0.0
  0
HATCH
  5
17B
330
16A
100
AcDbEntity
  8
レイヤー 1
 62
    18
420
        0
440
 33554687
100
AcDbHatch
 10
0.0
 20
0.0
 30
0.0
210
0.0
220
0.0
230
1.0
  2
SOLID
 70
     1
 71
     1
 91
        1
 92
        1
 93
        1
 72
     4
 94
        3
 73
     0
 74
     0
 95
       29
 96
       25
 40
0.0
 40
0.0
 40
0.0
 40
0.0
 40
1.0
 40
1.0
 40
1.0
 40
2.0
 40
2.0
 40
2.0
 40
3.0
 40
3.0
 40
3.0
 40
4.0
 40
4.0
 40
4.0
 40
5.0
 40
5.0
 40
5.0
 40
6.0
 40
6.0
 40
6.0
 40
7.0
 40
7.0
 40
7.0
 40
8.0
 40
8.0
 40
8.0
 40
8.0
 10
133.2618055222401
 20
-153.489339154336
 10
133.2618055222401
 20
-153.489339154336
 10
132.777425097014
 20
-153.489339154336
 10
132.777425097014
 20
-153.489339154336
 10
132.749864333132
 20
-153.489339154336
 10
132.4325710389404
 20
-153.489339154336
 10
132.2210421761461
 20
-153.5144883513783
 10
132.2210421761461
 20
-153.5144883513783
 10
132.2210421761461
 20
-153.2840114634151
 10
132.2210421761461
 20
-153.2840114634151
 10
132.3795165684676
 20
-153.3074381127148
 10
132.5700303488019
 20
-153.3095051700059
 10
132.777425097014
 20
-153.3095051700059
 10
132.777425097014
 20
-153.3095051700059
 10
133.2618055222401
 20
-153.3095051700059
 10
133.2618055222401
 20
-153.3095051700059
 10
133.4478406784436
 20
-153.3095051700059
 10
133.6342203441956
 20
-153.3074381127148
 10
133.8181884431079
 20
-153.2840114634151
 10
133.8181884431079
 20
-153.2840114634151
 10
133.8181884431079
 20
-153.5144883513783
 10
133.8181884431079
 20
-153.5144883513783
 10
133.6342203441956
 20
-153.4914062116271
 10
133.3865179788061
 20
-153.489339154336
 10
133.2618055222401
 20
-153.489339154336
 97
        0
 97
        1
330
17A
 75
     2
 76
     1
 98
        1
 10
0.0
 20
0.0
450
        0
451
        0
460
0.0
461
0.0
452
        0
462
0.0
453
        0
470

  0
SPLINE
  5
17C
330
16A
100
AcDbEntity
  8
レイヤー 1
100
AcDbSpline
210
0.0
220
0.0
230
1.0
 70
     9
 71
     3
 72
    47
 73
    43
 74
     0
 42
0.0000000001
 43
0.0000000001
 40
0.0
 40
0.0
 40
0.0
 40
0.0
 40
1.0
 40
1.0
 40
1.0
 40
2.0
 40
2.0
 40
2.0
 40
3.0
 40
3.0
 40
3.0
 40
4.0
 40
4.0
 40
4.0
 40
5.0
 40
5.0
 40
5.0
 40
6.0
 40
6.0
 40
6.0
 40
7.0
 40
7.0
 40
7.0
 40
8.0
 40
8.0
 40
8.0
 40
9.0
 40
9.0
 40
9.0
 40
10.0
 40
10.0
 40
10.0
 40
11.0
 40
11.0
 40
11.0
 40
12.0
 40
12.0
 40
12.0
 40
13.0
 40
13.0
 40
13.0
 40
14.0
 40
14.0
 40
14.0
 40
14.0
 10
135.4818250529351
 20
-152.8947156735819
 30
0.0
 10
135.4118896145845
 20
-153.1741129174356
 30
0.0
 10
135.3357530043605
 20
-153.4786593583317
 30
0.0
 10
135.0225938247513
 20
-153.8107665631098
 30
0.0
 10
134.7859157649146
 20
-154.0605359857904
 30
0.0
 10
134.5402804568163
 20
-154.1597547357656
 30
0.0
 10
134.4345160254191
 20
-154.2021294102342
 30
0.0
 10
134.4345160254191
 20
-154.2021294102342
 30
0.0
 10
134.2398681305025
 20
-154.020228368613
 30
0.0
 10
134.2398681305025
 20
-154.020228368613
 30
0.0
 10
134.4262477962545
 20
-153.9737195795621
 30
0.0
 10
134.7879828222058
 20
-153.8807020014604
 30
0.0
 10
135.0839165243887
 20
-153.3856417802299
 30
0.0
 10
135.2448024835499
 20
-153.1189913896716
 30
0.0
 10
135.2575493368453
 20
-152.9457030867636
 30
0.0
 10
135.2661620755585
 20
-152.854752565953
 30
0.0
 10
135.2661620755585
 20
-152.854752565953
 30
0.0
 10
134.7604220583238
 20
-152.854752565953
 30
0.0
 10
134.7604220583238
 20
-152.854752565953
 30
0.0
 10
134.6419107736312
 20
-152.854752565953
 30
0.0
 10
134.2209201053337
 20
-152.8737005911218
 30
0.0
 10
134.0686468848856
 20
-152.8843803871261
 30
0.0
 10
134.0686468848856
 20
-152.8843803871261
 30
0.0
 10
134.0686468848856
 20
-152.6749185816229
 30
0.0
 10
134.0686468848856
 20
-152.6749185816229
 30
0.0
 10
134.2102403093293
 20
-152.6873209253698
 30
0.0
 10
134.487570495892
 20
-152.6917995495006
 30
0.0
 10
134.6040147232934
 20
-152.6917995495006
 30
0.0
 10
134.6040147232934
 20
-152.6917995495006
 30
0.0
 10
134.9592040678227
 20
-152.6917995495006
 30
0.0
 10
134.9592040678227
 20
-152.6917995495006
 30
0.0
 10
134.9867648317047
 20
-152.6917995495006
 30
0.0
 10
135.1476507908659
 20
-152.6897324922095
 30
0.0
 10
135.2575493368453
 20
-152.6749185816229
 30
0.0
 10
135.3147379219005
 20
-152.668372900201
 30
0.0
 10
135.3316188897782
 20
-152.6494248750321
 30
0.0
 10
135.3547010295294
 20
-152.6259982257324
 30
0.0
 10
135.3547010295294
 20
-152.6259982257324
 30
0.0
 10
135.5431477525725
 20
-152.7762043888893
 30
0.0
 10
135.5431477525725
 20
-152.7762043888893
 30
0.0
 10
135.528333841986
 20
-152.8058322100624
 30
0.0
 10
135.5176540459817
 20
-152.8251247447798
 30
0.0
 10
135.4818250529351
 20
-152.8947156735819
 30
0.0
  0
HATCH
  5
17D
330
16A
100
AcDbEntity
  8
レイヤー 1
 62
    18
420
        0
440
 33554687
100
AcDbHatch
 10
0.0
 20
0.0
 30
0.0
210
0.0
220
0.0
230
1.0
  2
SOLID
 70
     1
 71
     1
 91
        1
 92
        1
 93
        1
 72
     4
 94
        3
 73
     0
 74
     0
 95
       47
 96
       43
 40
0.0
 40
0.0
 40
0.0
 40
0.0
 40
1.0
 40
1.0
 40
1.0
 40
2.0
 40
2.0
 40
2.0
 40
3.0
 40
3.0
 40
3.0
 40
4.0
 40
4.0
 40
4.0
 40
5.0
 40
5.0
 40
5.0
 40
6.0
 40
6.0
 40
6.0
 40
7.0
 40
7.0
 40
7.0
 40
8.0
 40
8.0
 40
8.0
 40
9.0
 40
9.0
 40
9.0
 40
10.0
 40
10.0
 40
10.0
 40
11.0
 40
11.0
 40
11.0
 40
12.0
 40
12.0
 40
12.0
 40
13.0
 40
13.0
 40
13.0
 40
14.0
 40
14.0
 40
14.0
 40
14.0
 10
135.4818250529351
 20
-152.8947156735819
 10
135.4118896145845
 20
-153.1741129174356
 10
135.3357530043605
 20
-153.4786593583317
 10
135.0225938247513
 20
-153.8107665631098
 10
134.7859157649146
 20
-154.0605359857904
 10
134.5402804568163
 20
-154.1597547357656
 10
134.4345160254191
 20
-154.2021294102342
 10
134.4345160254191
 20
-154.2021294102342
 10
134.2398681305025
 20
-154.020228368613
 10
134.2398681305025
 20
-154.020228368613
 10
134.4262477962545
 20
-153.9737195795621
 10
134.7879828222058
 20
-153.8807020014604
 10
135.0839165243887
 20
-153.3856417802299
 10
135.2448024835499
 20
-153.1189913896716
 10
135.2575493368453
 20
-152.9457030867636
 10
135.2661620755585
 20
-152.854752565953
 10
135.2661620755585
 20
-152.854752565953
 10
134.7604220583238
 20
-152.854752565953
 10
134.7604220583238
 20
-152.854752565953
 10
134.6419107736312
 20
-152.854752565953
 10
134.2209201053337
 20
-152.8737005911218
 10
134.0686468848856
 20
-152.8843803871261
 10
134.0686468848856
 20
-152.8843803871261
 10
134.0686468848856
 20
-152.6749185816229
 10
134.0686468848856
 20
-152.6749185816229
 10
134.2102403093293
 20
-152.6873209253698
 10
134.487570495892
 20
-152.6917995495006
 10
134.6040147232934
 20
-152.6917995495006
 10
134.6040147232934
 20
-152.6917995495006
 10
134.9592040678227
 20
-152.6917995495006
 10
134.9592040678227
 20
-152.6917995495006
 10
134.9867648317047
 20
-152.6917995495006
 10
135.1476507908659
 20
-152.6897324922095
 10
135.2575493368453
 20
-152.6749185816229
 10
135.3147379219005
 20
-152.668372900201
 10
135.3316188897782
 20
-152.6494248750321
 10
135.3547010295294
 20
-152.6259982257324
 10
135.3547010295294
 20
-152.6259982257324
 10
135.5431477525725
 20
-152.7762043888893
 10
135.5431477525725
 20
-152.7762043888893
 10
135.528333841986
 20
-152.8058322100624
 10
135.5176540459817
 20
-152.8251247447798
 10
135.4818250529351
 20
-152.8947156735819
 97
        0
 97
        1
330
17C
 75
     2
 76
     1
 98
        1
 10
0.0
 20
0.0
450
        0
451
        0
460
0.0
461
0.0
452
        0
462
0.0
453
        0
470

  0
SPLINE
  5
17E
330
16A
100
AcDbEntity
  8
レイヤー 1
100
AcDbSpline
210
0.0
220
0.0
230
1.0
 70
    11
 71
     3
 72
    17
 73
    13
 74
     0
 42
0.0000000001
 43
0.0000000001
 40
0.0
 40
0.0
 40
0.0
 40
0.0
 40
1.0
 40
1.0
 40
1.0
 40
2.0
 40
2.0
 40
2.0
 40
3.0
 40
3.0
 40
3.0
 40
4.0
 40
4.0
 40
4.0
 40
4.0
 10
135.8721543714139
 20
-152.6769856389141
 30
0.0
 10
135.8721543714139
 20
-152.7362412812604
 30
0.0
 10
135.9186631604647
 20
-152.7827500703113
 30
0.0
 10
135.977918802811
 20
-152.7827500703113
 30
0.0
 10
136.0371744451573
 20
-152.7827500703113
 30
0.0
 10
136.0857502914994
 20
-152.7362412812604
 30
0.0
 10
136.0857502914994
 20
-152.6769856389141
 30
0.0
 10
136.0857502914994
 20
-152.6177299965678
 30
0.0
 10
136.0371744451573
 20
-152.5691541502258
 30
0.0
 10
135.977918802811
 20
-152.5691541502258
 30
0.0
 10
135.9186631604647
 20
-152.5691541502258
 30
0.0
 10
135.8721543714139
 20
-152.6177299965678
 30
0.0
 10
135.8721543714139
 20
-152.6769856389141
 30
0.0
  0
SPLINE
  5
17F
330
16A
100
AcDbEntity
  8
レイヤー 1
100
AcDbSpline
210
0.0
220
0.0
230
1.0
 70
     9
 71
     3
 72
    17
 73
    13
 74
     0
 42
0.0000000001
 43
0.0000000001
 40
0.0
 40
0.0
 40
0.0
 40
0.0
 40
1.0
 40
1.0
 40
1.0
 40
2.0
 40
2.0
 40
2.0
 40
3.0
 40
3.0
 40
3.0
 40
4.0
 40
4.0
 40
4.0
 40
4.0
 10
136.1873806083143
 20
-152.6769856389141
 30
0.0
 10
136.1873806083143
 20
-152.7910182994759
 30
0.0
 10
136.0943630302125
 20
-152.8864474444173
 30
0.0
 10
135.977918802811
 20
-152.8864474444173
 30
0.0
 10
135.8638861422493
 20
-152.8864474444173
 30
0.0
 10
135.7684569973079
 20
-152.7910182994759
 30
0.0
 10
135.7684569973079
 20
-152.6769856389141
 30
0.0
 10
135.7684569973079
 20
-152.5605414115126
 30
0.0
 10
135.8638861422493
 20
-152.4675238334109
 30
0.0
 10
135.977918802811
 20
-152.4675238334109
 30
0.0
 10
136.0922959729213
 20
-152.4675238334109
 30
0.0
 10
136.1873806083143
 20
-152.5605414115126
 30
0.0
 10
136.1873806083143
 20
-152.6769856389141
 30
0.0
  0
HATCH
  5
180
330
16A
100
AcDbEntity
  8
レイヤー 1
 62
    18
420
        0
440
 33554687
100
AcDbHatch
 10
0.0
 20
0.0
 30
0.0
210
0.0
220
0.0
230
1.0
  2
SOLID
 70
     1
 71
     1
 91
        2
 92
        1
 93
        1
 72
     4
 94
        3
 73
     0
 74
     0
 95
       17
 96
       13
 40
0.0
 40
0.0
 40
0.0
 40
0.0
 40
1.0
 40
1.0
 40
1.0
 40
2.0
 40
2.0
 40
2.0
 40
3.0
 40
3.0
 40
3.0
 40
4.0
 40
4.0
 40
4.0
 40
4.0
 10
135.8721543714139
 20
-152.6769856389141
 10
135.8721543714139
 20
-152.7362412812604
 10
135.9186631604647
 20
-152.7827500703113
 10
135.977918802811
 20
-152.7827500703113
 10
136.0371744451573
 20
-152.7827500703113
 10
136.0857502914994
 20
-152.7362412812604
 10
136.0857502914994
 20
-152.6769856389141
 10
136.0857502914994
 20
-152.6177299965678
 10
136.0371744451573
 20
-152.5691541502258
 10
135.977918802811
 20
-152.5691541502258
 10
135.9186631604647
 20
-152.5691541502258
 10
135.8721543714139
 20
-152.6177299965678
 10
135.8721543714139
 20
-152.6769856389141
 97
        0
 97
        1
330
17E
 92
        1
 93
        1
 72
     4
 94
        3
 73
     0
 74
     0
 95
       17
 96
       13
 40
0.0
 40
0.0
 40
0.0
 40
0.0
 40
1.0
 40
1.0
 40
1.0
 40
2.0
 40
2.0
 40
2.0
 40
3.0
 40
3.0
 40
3.0
 40
4.0
 40
4.0
 40
4.0
 40
4.0
 10
136.1873806083143
 20
-152.6769856389141
 10
136.1873806083143
 20
-152.7910182994759
 10
136.0943630302125
 20
-152.8864474444173
 10
135.977918802811
 20
-152.8864474444173
 10
135.8638861422493
 20
-152.8864474444173
 10
135.7684569973079
 20
-152.7910182994759
 10
135.7684569973079
 20
-152.6769856389141
 10
135.7684569973079
 20
-152.5605414115126
 10
135.8638861422493
 20
-152.4675238334109
 10
135.977918802811
 20
-152.4675238334109
 10
136.0922959729213
 20
-152.4675238334109
 10
136.1873806083143
 20
-152.5605414115126
 10
136.1873806083143
 20
-152.6769856389141
 97
        0
 97
        1
330
17F
 75
     2
 76
     1
 98
        1
 10
0.0
 20
0.0
450
        0
451
        0
460
0.0
461
0.0
452
        0
462
0.0
453
        0
470

  0
ENDBLK
  5
16D
330
16A
100
AcDbEntity
  8
0
100
AcDbBlockEnd
  0
ENDSEC
  0
SECTION
  2
ENTITIES
  0
LINE
  5
79
330
70
100
AcDbEntity
  8
レイヤー 1
  6
AI-Linetype-0
 62
   154
420
    23468
370
    25
100
AcDbLine
 10
79.94039435533363
 20
-148.1583786935502
 30
0.0
 11
94.94032584306244
 21
-148.1583786935502
 31
0.0
  0
LINE
  5
7B
330
70
100
AcDbEntity
  8
レイヤー 1
  6
AI-Linetype-1
 62
   154
420
    23468
370
    25
100
AcDbLine
 10
116.9445216705775
 20
-148.1583786935502
 30
0.0
 11
131.9444560101195
 21
-148.1583786935502
 31
0.0
  0
INSERT
  5
7E
330
70
100
AcDbEntity
  8
レイヤー 1
100
AcDbBlockReference
  2
Block_0
 10
0.0
 20
0.0
 30
0.0
  0
LINE
  5
84
330
70
100
AcDbEntity
  8
レイヤー 1
 62
    18
420
        0
370
    25
100
AcDbLine
 10
111.9425562426327
 20
-153.1582275811895
 30
0.0
 11
99.94193849323846
 21
-153.1582275811895
 31
0.0
  0
LINE
  5
85
330
70
100
AcDbEntity
  8
レイヤー 1
 62
    18
420
        0
370
    25
100
AcDbLine
 10
79.94039435533363
 20
-146.6580148050365
 30
0.0
 11
79.94039435533363
 21
-147.1582536938002
 31
0.0
  0
LINE
  5
86
330
70
100
AcDbEntity
  8
レイヤー 1
 62
    18
420
        0
370
    25
100
AcDbLine
 10
100.8776109693674
 20
-147.1582536938002
 30
0.0
 11
79.94039435533363
 21
-147.1582536938002
 31
0.0
  0
LINE
  5
87
330
70
100
AcDbEntity
  8
レイヤー 1
 62
    18
420
        0
370
    25
100
AcDbLine
 10
79.94039435533363
 20
-146.6580148050365
 30
0.0
 11
80.45439157742746
 21
-147.0400731382742
 31
0.0
  0
LINE
  5
88
330
70
100
AcDbEntity
  8
レイヤー 1
 62
    18
420
        0
370
    25
100
AcDbLine
 10
80.45439157742746
 20
-147.0400731382742
 30
0.0
 11
80.93981379952841
 21
-146.6225606383785
 31
0.0
  0
LINE
  5
89
330
70
100
AcDbEntity
  8
レイヤー 1
 62
    18
420
        0
370
    25
100
AcDbLine
 10
81.45381102162225
 20
-147.0046189716165
 30
0.0
 11
81.93958602150031
 21
-146.5867184161652
 31
0.0
  0
LINE
  5
8A
330
70
100
AcDbEntity
  8
レイヤー 1
 62
    18
420
        0
370
    25
100
AcDbLine
 10
80.93981379952841
 20
-146.6225606383785
 30
0.0
 11
81.45381102162225
 21
-147.0046189716165
 31
0.0
  0
LINE
  5
8B
330
70
100
AcDbEntity
  8
レイヤー 1
 62
    18
420
        0
370
    25
100
AcDbLine
 10
81.93958602150031
 20
-146.5867184161652
 30
0.0
 11
82.45358324359415
 21
-146.9687767494033
 31
0.0
  0
LINE
  5
8C
330
70
100
AcDbEntity
  8
レイヤー 1
 62
    18
420
        0
370
    25
100
AcDbLine
 10
82.45358324359415
 20
-146.9687767494033
 30
0.0
 11
82.93865268791732
 21
-146.5512289717298
 31
0.0
  0
LINE
  5
8D
330
70
100
AcDbEntity
  8
レイヤー 1
 62
    18
420
        0
370
    25
100
AcDbLine
 10
82.93865268791732
 20
-146.5512289717298
 30
0.0
 11
83.45268224724776
 21
-146.93293452719
 31
0.0
  0
LINE
  5
8E
330
70
100
AcDbEntity
  8
レイヤー 1
 62
    18
420
        0
370
    25
100
AcDbLine
 10
83.45268224724776
 20
-146.93293452719
 30
0.0
 11
83.93842490988987
 21
-146.5153867495165
 31
0.0
  0
LINE
  5
8F
330
70
100
AcDbEntity
  8
レイヤー 1
 62
    18
420
        0
370
    25
100
AcDbLine
 10
83.93842490988987
 20
-146.5153867495165
 30
0.0
 11
84.45242213198371
 21
-146.8971275827546
 31
0.0
  0
LINE
  5
90
330
70
100
AcDbEntity
  8
レイヤー 1
 62
    18
420
        0
370
    25
100
AcDbLine
 10
84.45242213198371
 20
-146.8971275827546
 30
0.0
 11
84.93749157630688
 21
-146.4795798050811
 31
0.0
  0
LINE
  5
91
330
70
100
AcDbEntity
  8
レイヤー 1
 62
    18
420
        0
370
    25
100
AcDbLine
 10
84.93749157630688
 20
-146.4795798050811
 30
0.0
 11
85.45152108514235
 21
-146.8616381383188
 31
0.0
  0
LINE
  5
92
330
70
100
AcDbEntity
  8
レイヤー 1
 62
    18
420
        0
370
    25
100
AcDbLine
 10
85.45152108514235
 20
-146.8616381383188
 30
0.0
 11
85.93726379827879
 21
-146.4440903606456
 31
0.0
  0
LINE
  5
93
330
70
100
AcDbEntity
  8
レイヤー 1
 62
    18
420
        0
370
    25
100
AcDbLine
 10
85.93726379827879
 20
-146.4440903606456
 30
0.0
 11
86.45058772632038
 21
-146.8261486938833
 31
0.0
  0
LINE
  5
94
330
70
100
AcDbEntity
  8
レイヤー 1
 62
    18
420
        0
370
    25
100
AcDbLine
 10
86.45058772632038
 20
-146.8261486938833
 30
0.0
 11
86.93636271392723
 21
-146.4082481384324
 31
0.0
  0
LINE
  5
95
330
70
100
AcDbEntity
  8
レイヤー 1
 62
    18
420
        0
370
    25
100
AcDbLine
 10
87.45035992303629
 20
-146.7903064716701
 30
0.0
 11
87.93542935510558
 21
-146.3727586939966
 31
0.0
  0
LINE
  5
96
330
70
100
AcDbEntity
  8
レイヤー 1
 62
    18
420
        0
370
    25
100
AcDbLine
 10
86.93636271392723
 20
-146.4082481384324
 30
0.0
 11
87.45035992303629
 21
-146.7903064716701
 31
0.0
  0
LINE
  5
97
330
70
100
AcDbEntity
  8
レイヤー 1
 62
    18
420
        0
370
    25
100
AcDbLine
 10
87.93542935510558
 20
-146.3727586939966
 30
0.0
 11
88.44942656421464
 21
-146.7544995272347
 31
0.0
  0
LINE
  5
98
330
70
100
AcDbEntity
  8
レイヤー 1
 62
    18
420
        0
370
    25
100
AcDbLine
 10
88.44942656421464
 20
-146.7544995272347
 30
0.0
 11
88.93520155182148
 21
-146.3369517495615
 31
0.0
  0
LINE
  5
99
330
70
100
AcDbEntity
  8
レイヤー 1
 62
    18
420
        0
370
    25
100
AcDbLine
 10
89.44919876093054
 20
-146.7186573050214
 30
0.0
 11
89.93391541523106
 21
-146.3011095273482
 31
0.0
  0
LINE
  5
9A
330
70
100
AcDbEntity
  8
レイヤー 1
 62
    18
420
        0
370
    25
100
AcDbLine
 10
88.93520155182148
 20
-146.3369517495615
 30
0.0
 11
89.44919876093054
 21
-146.7186573050214
 31
0.0
  0
LINE
  5
9B
330
70
100
AcDbEntity
  8
レイヤー 1
 62
    18
420
        0
370
    25
100
AcDbLine
 10
90.447947902117
 20
-146.6831678605856
 30
0.0
 11
90.93368761194696
 21
-146.2656200829124
 31
0.0
  0
LINE
  5
9C
330
70
100
AcDbEntity
  8
レイヤー 1
 62
    18
420
        0
370
    25
100
AcDbLine
 10
89.93391541523106
 20
-146.3011095273482
 30
0.0
 11
90.447947902117
 21
-146.6831678605856
 31
0.0
  0
LINE
  5
9D
330
70
100
AcDbEntity
  8
レイヤー 1
 62
    18
420
        0
370
    25
100
AcDbLine
 10
90.93368761194696
 20
-146.2656200829124
 30
0.0
 11
91.44768482105602
 21
-146.6476784161501
 31
0.0
  0
LINE
  5
9E
330
70
100
AcDbEntity
  8
レイヤー 1
 62
    18
420
        0
370
    25
100
AcDbLine
 10
91.44768482105602
 20
-146.6476784161501
 30
0.0
 11
91.93275425312533
 21
-146.2298131384767
 31
0.0
  0
LINE
  5
9F
330
70
100
AcDbEntity
  8
レイヤー 1
 62
    18
420
        0
370
    25
100
AcDbLine
 10
91.93275425312533
 20
-146.2298131384767
 30
0.0
 11
92.44678674001127
 21
-146.6118714717147
 31
0.0
  0
LINE
  5
A0
330
70
100
AcDbEntity
  8
レイヤー 1
 62
    18
420
        0
370
    25
100
AcDbLine
 10
92.44678674001127
 20
-146.6118714717147
 30
0.0
 11
92.93185617208056
 21
-146.1943236940412
 31
0.0
  0
LINE
  5
A1
330
70
100
AcDbEntity
  8
レイヤー 1
 62
    18
420
        0
370
    25
100
AcDbLine
 10
92.93185617208056
 20
-146.1943236940412
 30
0.0
 11
93.4458533811896
 21
-146.5760292495015
 31
0.0
  0
LINE
  5
A2
330
70
100
AcDbEntity
  8
レイヤー 1
 62
    18
420
        0
370
    25
100
AcDbLine
 10
93.4458533811896
 20
-146.5760292495015
 30
0.0
 11
93.93162836879646
 21
-146.158481471828
 31
0.0
  0
LINE
  5
A3
330
70
100
AcDbEntity
  8
レイヤー 1
 62
    18
420
        0
370
    25
100
AcDbLine
 10
93.93162836879646
 20
-146.158481471828
 30
0.0
 11
94.44562557790552
 21
-146.540222305066
 31
0.0
  0
LINE
  5
A4
330
70
100
AcDbEntity
  8
レイヤー 1
 62
    18
420
        0
370
    25
100
AcDbLine
 10
94.44562557790552
 20
-146.540222305066
 30
0.0
 11
94.93069500997481
 21
-146.1226745273926
 31
0.0
  0
LINE
  5
A5
330
70
100
AcDbEntity
  8
レイヤー 1
 62
    18
420
        0
370
    25
100
AcDbLine
 10
94.93069500997481
 20
-146.1226745273926
 30
0.0
 11
95.44469221908387
 21
-146.5047328606303
 31
0.0
  0
LINE
  5
A6
330
70
100
AcDbEntity
  8
レイヤー 1
 62
    18
420
        0
370
    25
100
AcDbLine
 10
95.44469221908387
 20
-146.5047328606303
 30
0.0
 11
95.93046720669072
 21
-146.0871850829571
 31
0.0
  0
LINE
  5
A7
330
70
100
AcDbEntity
  8
レイヤー 1
 62
    18
420
        0
370
    25
100
AcDbLine
 10
95.93046720669072
 20
-146.0871850829571
 30
0.0
 11
96.44446441579979
 21
-146.4692434161951
 31
0.0
  0
LINE
  5
A8
330
70
100
AcDbEntity
  8
レイヤー 1
 62
    18
420
        0
370
    25
100
AcDbLine
 10
96.44446441579979
 20
-146.4692434161951
 30
0.0
 11
96.92953384786939
 21
-146.0513428607438
 31
0.0
  0
LINE
  5
A9
330
70
100
AcDbEntity
  8
レイヤー 1
 62
    18
420
        0
370
    25
100
AcDbLine
 10
96.92953384786939
 20
-146.0513428607438
 30
0.0
 11
97.44353105697813
 21
-146.4334011939818
 31
0.0
  0
LINE
  5
AA
330
70
100
AcDbEntity
  8
レイヤー 1
 62
    18
420
        0
370
    25
100
AcDbLine
 10
97.44353105697813
 20
-146.4334011939818
 30
0.0
 11
97.92930604458499
 21
-146.015853416308
 31
0.0
  0
LINE
  5
AB
330
70
100
AcDbEntity
  8
レイヤー 1
 62
    18
420
        0
370
    25
100
AcDbLine
 10
97.92930604458499
 20
-146.015853416308
 30
0.0
 11
98.44330325369405
 21
-146.3975942495461
 31
0.0
  0
LINE
  5
AC
330
70
100
AcDbEntity
  8
レイヤー 1
 62
    18
420
        0
370
    25
100
AcDbLine
 10
98.44330325369405
 20
-146.3975942495461
 30
0.0
 11
98.92837268576334
 21
-145.9800464718729
 31
0.0
  0
LINE
  5
AD
330
70
100
AcDbEntity
  8
レイヤー 1
 62
    18
420
        0
370
    25
100
AcDbLine
 10
98.92837268576334
 20
-145.9800464718729
 30
0.0
 11
99.44240517264928
 21
-146.3617520273329
 31
0.0
  0
LINE
  5
AE
330
70
100
AcDbEntity
  8
レイヤー 1
 62
    18
420
        0
370
    25
100
AcDbLine
 10
99.44240517264928
 20
-146.3617520273329
 30
0.0
 11
99.92814488247924
 21
-145.9442042496593
 31
0.0
  0
LINE
  5
AF
330
70
100
AcDbEntity
  8
レイヤー 1
 62
    18
420
        0
370
    25
100
AcDbLine
 10
100.0021420916972
 20
-145.8959795274495
 30
0.0
 11
100.9417106899543
 21
-145.8959795274495
 31
0.0
  0
LINE
  5
B0
330
70
100
AcDbEntity
  8
レイヤー 1
 62
    18
420
        0
370
    25
100
AcDbLine
 10
100.9417106899543
 20
-145.8959795274495
 30
0.0
 11
100.9417106899543
 21
-152.1581378592167
 31
0.0
  0
LINE
  5
B1
330
70
100
AcDbEntity
  8
レイヤー 1
 62
    18
420
        0
370
    25
100
AcDbLine
 10
99.94193849323846
 20
-147.1582536938002
 30
0.0
 11
99.94193849323846
 21
-153.1582275811895
 31
0.0
  0
LINE
  5
B2
330
70
100
AcDbEntity
  8
レイヤー 1
 62
    18
420
        0
370
    25
100
AcDbLine
 10
110.9428193236937
 20
-152.1581378592167
 30
0.0
 11
100.9417106899543
 21
-152.1581378592167
 31
0.0
  0
LINE
  5
B3
330
70
100
AcDbEntity
  8
レイヤー 1
 62
    18
420
        0
370
    25
100
AcDbLine
 10
121.9498776781647
 20
-146.3011095273482
 30
0.0
 11
121.4365860116264
 21
-146.6831678605856
 31
0.0
  0
LINE
  5
B4
330
70
100
AcDbEntity
  8
レイヤー 1
 62
    18
420
        0
370
    25
100
AcDbLine
 10
126.9473276769151
 20
-146.4795798050811
 30
0.0
 11
126.4333304548212
 21
-146.8616381383188
 31
0.0
  0
LINE
  5
B5
330
70
100
AcDbEntity
  8
レイヤー 1
 62
    18
420
        0
370
    25
100
AcDbLine
 10
122.4356526780434
 20
-146.7186573050214
 30
0.0
 11
121.9498776781647
 21
-146.3011095273482
 31
0.0
  0
LINE
  5
B6
330
70
100
AcDbEntity
  8
レイヤー 1
 62
    18
420
        0
370
    25
100
AcDbLine
 10
123.4347193444598
 20
-146.7544995272347
 30
0.0
 11
122.9496499001366
 21
-146.3369517495615
 31
0.0
  0
LINE
  5
B7
330
70
100
AcDbEntity
  8
レイヤー 1
 62
    18
420
        0
370
    25
100
AcDbLine
 10
121.4365860116264
 20
-146.6831678605856
 30
0.0
 11
120.9508110117477
 21
-146.2656200829124
 31
0.0
  0
LINE
  5
B8
330
70
100
AcDbEntity
  8
レイヤー 1
 62
    18
420
        0
370
    25
100
AcDbLine
 10
122.9496499001366
 20
-146.3369517495615
 30
0.0
 11
122.4356526780434
 21
-146.7186573050214
 31
0.0
  0
LINE
  5
B9
330
70
100
AcDbEntity
  8
レイヤー 1
 62
    18
420
        0
370
    25
100
AcDbLine
 10
130.9443310356348
 20
-146.6225606383785
 30
0.0
 11
130.4303338265258
 21
-147.0046189716165
 31
0.0
  0
LINE
  5
BA
330
70
100
AcDbEntity
  8
レイヤー 1
 62
    18
420
        0
370
    25
100
AcDbLine
 10
123.9487165665536
 20
-146.3727586939966
 30
0.0
 11
123.4347193444598
 21
-146.7544995272347
 31
0.0
  0
LINE
  5
BB
330
70
100
AcDbEntity
  8
レイヤー 1
 62
    18
420
        0
370
    25
100
AcDbLine
 10
124.9484887885262
 20
-146.4082481384324
 30
0.0
 11
124.4344915664323
 21
-146.7903064716701
 31
0.0
  0
LINE
  5
BC
330
70
100
AcDbEntity
  8
レイヤー 1
 62
    18
420
        0
370
    25
100
AcDbLine
 10
110.9428193236937
 20
-145.8959795274495
 30
0.0
 11
110.9428193236937
 21
-152.1581378592167
 31
0.0
  0
LINE
  5
BD
330
70
100
AcDbEntity
  8
レイヤー 1
 62
    18
420
        0
370
    25
100
AcDbLine
 10
124.4344915664323
 20
-146.7903064716701
 30
0.0
 11
123.9487165665536
 21
-146.3727586939966
 31
0.0
  0
LINE
  5
BE
330
70
100
AcDbEntity
  8
レイヤー 1
 62
    18
420
        0
370
    25
100
AcDbLine
 10
125.4335582328493
 20
-146.8261486938833
 30
0.0
 11
124.9484887885262
 21
-146.4082481384324
 31
0.0
  0
LINE
  5
BF
330
70
100
AcDbEntity
  8
レイヤー 1
 62
    18
420
        0
370
    25
100
AcDbLine
 10
130.4303338265258
 20
-147.0046189716165
 30
0.0
 11
129.9452643944565
 21
-146.5867184161652
 31
0.0
  0
LINE
  5
C0
330
70
100
AcDbEntity
  8
レイヤー 1
 62
    18
420
        0
370
    25
100
AcDbLine
 10
125.9475867186679
 20
-146.4440903606456
 30
0.0
 11
125.4335582328493
 21
-146.8261486938833
 31
0.0
  0
LINE
  5
C1
330
70
100
AcDbEntity
  8
レイヤー 1
 62
    18
420
        0
370
    25
100
AcDbLine
 10
126.4333304548212
 20
-146.8616381383188
 30
0.0
 11
125.9475867186679
 21
-146.4440903606456
 31
0.0
  0
LINE
  5
C2
330
70
100
AcDbEntity
  8
レイヤー 1
 62
    18
420
        0
370
    25
100
AcDbLine
 10
131.4301060232417
 20
-147.0400731382742
 30
0.0
 11
130.9443310356348
 21
-146.6225606383785
 31
0.0
  0
LINE
  5
C3
330
70
100
AcDbEntity
  8
レイヤー 1
 62
    18
420
        0
370
    25
100
AcDbLine
 10
127.9464255565622
 20
-146.5153867495165
 30
0.0
 11
127.4323971212382
 21
-146.8971275827546
 31
0.0
  0
LINE
  5
C4
330
70
100
AcDbEntity
  8
レイヤー 1
 62
    18
420
        0
370
    25
100
AcDbLine
 10
128.9454921977406
 20
-146.5512289717298
 30
0.0
 11
128.4314949886315
 21
-146.93293452719
 31
0.0
  0
LINE
  5
C5
330
70
100
AcDbEntity
  8
レイヤー 1
 62
    18
420
        0
370
    25
100
AcDbLine
 10
128.4314949886315
 20
-146.93293452719
 30
0.0
 11
127.9464255565622
 21
-146.5153867495165
 31
0.0
  0
LINE
  5
C6
330
70
100
AcDbEntity
  8
レイヤー 1
 62
    18
420
        0
370
    25
100
AcDbLine
 10
131.9441032323507
 20
-146.6580148050365
 30
0.0
 11
131.4301060232417
 21
-147.0400731382742
 31
0.0
  0
LINE
  5
C7
330
70
100
AcDbEntity
  8
レイヤー 1
 62
    18
420
        0
370
    25
100
AcDbLine
 10
127.4323971212382
 20
-146.8971275827546
 30
0.0
 11
126.9473276769151
 21
-146.4795798050811
 31
0.0
  0
LINE
  5
C8
330
70
100
AcDbEntity
  8
レイヤー 1
 62
    18
420
        0
370
    25
100
AcDbLine
 10
129.9452643944565
 20
-146.5867184161652
 30
0.0
 11
129.4312671853474
 21
-146.9687767494033
 31
0.0
  0
LINE
  5
C9
330
70
100
AcDbEntity
  8
レイヤー 1
 62
    18
420
        0
370
    25
100
AcDbLine
 10
129.4312671853474
 20
-146.9687767494033
 30
0.0
 11
128.9454921977406
 21
-146.5512289717298
 31
0.0
  0
LINE
  5
CA
330
70
100
AcDbEntity
  8
レイヤー 1
 62
    18
420
        0
370
    25
100
AcDbLine
 10
131.9441032323507
 20
-146.6580148050365
 30
0.0
 11
131.9441032323507
 21
-147.1582536938002
 31
0.0
  0
LINE
  5
CB
330
70
100
AcDbEntity
  8
レイヤー 1
 62
    18
420
        0
370
    25
100
AcDbLine
 10
111.0530623764367
 20
-147.1582536938002
 30
0.0
 11
131.9441032323507
 21
-147.1582536938002
 31
0.0
  0
LINE
  5
CC
330
70
100
AcDbEntity
  8
レイヤー 1
 62
    18
420
        0
370
    25
100
AcDbLine
 10
120.9508110117477
 20
-146.2656200829124
 30
0.0
 11
120.4368137896538
 21
-146.6476784161501
 31
0.0
  0
LINE
  5
CD
330
70
100
AcDbEntity
  8
レイヤー 1
 62
    18
420
        0
370
    25
100
AcDbLine
 10
120.4368137896538
 20
-146.6476784161501
 30
0.0
 11
119.9517443453307
 21
-146.2298131384767
 31
0.0
  0
LINE
  5
CE
330
70
100
AcDbEntity
  8
レイヤー 1
 62
    18
420
        0
370
    25
100
AcDbLine
 10
119.9517443453307
 20
-146.2298131384767
 30
0.0
 11
119.4377079958599
 21
-146.6118714717147
 31
0.0
  0
LINE
  5
CF
330
70
100
AcDbEntity
  8
レイヤー 1
 62
    18
420
        0
370
    25
100
AcDbLine
 10
119.4377079958599
 20
-146.6118714717147
 30
0.0
 11
118.9519721233588
 21
-146.1943236940412
 31
0.0
  0
LINE
  5
D0
330
70
100
AcDbEntity
  8
レイヤー 1
 62
    18
420
        0
370
    25
100
AcDbLine
 10
118.9519721233588
 20
-146.1943236940412
 30
0.0
 11
118.4379749012649
 21
-146.5760292495015
 31
0.0
  0
LINE
  5
D1
330
70
100
AcDbEntity
  8
レイヤー 1
 62
    18
420
        0
370
    25
100
AcDbLine
 10
118.4379749012649
 20
-146.5760292495015
 30
0.0
 11
117.9529054569417
 21
-146.158481471828
 31
0.0
  0
LINE
  5
D2
330
70
100
AcDbEntity
  8
レイヤー 1
 62
    18
420
        0
370
    25
100
AcDbLine
 10
117.9529054569417
 20
-146.158481471828
 30
0.0
 11
117.4388691579656
 21
-146.540222305066
 31
0.0
  0
LINE
  5
D3
330
70
100
AcDbEntity
  8
レイヤー 1
 62
    18
420
        0
370
    25
100
AcDbLine
 10
117.4388691579656
 20
-146.540222305066
 30
0.0
 11
116.9531332349692
 21
-146.1226745273926
 31
0.0
  0
LINE
  5
D4
330
70
100
AcDbEntity
  8
レイヤー 1
 62
    18
420
        0
370
    25
100
AcDbLine
 10
116.9531332349692
 20
-146.1226745273926
 30
0.0
 11
116.4390969612497
 21
-146.5047328606303
 31
0.0
  0
LINE
  5
D5
330
70
100
AcDbEntity
  8
レイヤー 1
 62
    18
420
        0
370
    25
100
AcDbLine
 10
116.4390969612497
 20
-146.5047328606303
 30
0.0
 11
115.9540275291805
 21
-146.0871850829571
 31
0.0
  0
LINE
  5
D6
330
70
100
AcDbEntity
  8
レイヤー 1
 62
    18
420
        0
370
    25
100
AcDbLine
 10
115.9540275291805
 20
-146.0871850829571
 30
0.0
 11
115.4400303200714
 21
-146.4692434161951
 31
0.0
  0
LINE
  5
D7
330
70
100
AcDbEntity
  8
レイヤー 1
 62
    18
420
        0
370
    25
100
AcDbLine
 10
115.4400303200714
 20
-146.4692434161951
 30
0.0
 11
114.9549608880021
 21
-146.0513428607438
 31
0.0
  0
LINE
  5
D8
330
70
100
AcDbEntity
  8
レイヤー 1
 62
    18
420
        0
370
    25
100
AcDbLine
 10
114.9549608880021
 20
-146.0513428607438
 30
0.0
 11
114.440963678893
 21
-146.4334011939818
 31
0.0
  0
LINE
  5
D9
330
70
100
AcDbEntity
  8
レイヤー 1
 62
    18
420
        0
370
    25
100
AcDbLine
 10
114.440963678893
 20
-146.4334011939818
 30
0.0
 11
113.9551886912862
 21
-146.015853416308
 31
0.0
  0
LINE
  5
DA
330
70
100
AcDbEntity
  8
レイヤー 1
 62
    18
420
        0
370
    25
100
AcDbLine
 10
113.9551886912862
 20
-146.015853416308
 30
0.0
 11
113.4411914821771
 21
-146.3975942495461
 31
0.0
  0
LINE
  5
DB
330
70
100
AcDbEntity
  8
レイヤー 1
 62
    18
420
        0
370
    25
100
AcDbLine
 10
113.4411914821771
 20
-146.3975942495461
 30
0.0
 11
112.9561220501078
 21
-145.9800464718729
 31
0.0
  0
LINE
  5
DC
330
70
100
AcDbEntity
  8
レイヤー 1
 62
    18
420
        0
370
    25
100
AcDbLine
 10
112.9561220501078
 20
-145.9800464718729
 30
0.0
 11
112.4421248409988
 21
-146.3617520273329
 31
0.0
  0
LINE
  5
DD
330
70
100
AcDbEntity
  8
レイヤー 1
 62
    18
420
        0
370
    25
100
AcDbLine
 10
112.4421248409988
 20
-146.3617520273329
 30
0.0
 11
111.9563498533919
 21
-145.9442042496593
 31
0.0
  0
LINE
  5
DE
330
70
100
AcDbEntity
  8
レイヤー 1
 62
    18
420
        0
370
    25
100
AcDbLine
 10
111.8823526441739
 20
-145.8959795274495
 30
0.0
 11
110.9428193236937
 21
-145.8959795274495
 31
0.0
  0
LINE
  5
DF
330
70
100
AcDbEntity
  8
レイヤー 1
 62
    18
420
        0
370
    25
100
AcDbLine
 10
111.9425562426327
 20
-147.1582536938002
 30
0.0
 11
111.9425562426327
 21
-153.1582275811895
 31
0.0
  0
SPLINE
  5
E0
330
70
100
AcDbEntity
  8
レイヤー 1
 62
    18
420
        0
370
     9
100
AcDbSpline
210
0.0
220
0.0
230
1.0
 70
     9
 71
     3
 72
    17
 73
    13
 74
     0
 42
0.0000000001
 43
0.0000000001
 40
0.0
 40
0.0
 40
0.0
 40
0.0
 40
1.0
 40
1.0
 40
1.0
 40
2.0
 40
2.0
 40
2.0
 40
3.0
 40
3.0
 40
3.0
 40
4.0
 40
4.0
 40
4.0
 40
4.0
 10
80.04029816763827
 20
-141.8962203617826
 30
0.0
 10
80.04029816763827
 20
-141.8407636951296
 30
0.0
 10
79.9955306687807
 20
-141.7959609173632
 30
0.0
 10
79.94039435533363
 20
-141.7959609173632
 30
0.0
 10
79.88528761603736
 20
-141.7959609173632
 30
0.0
 10
79.84048483940259
 20
-141.8407636951296
 30
0.0
 10
79.84048483940259
 20
-141.8962203617826
 30
0.0
 10
79.84048483940259
 20
-141.9513242506575
 30
0.0
 10
79.88528761603736
 20
-141.9961270284242
 30
0.0
 10
79.94039435533363
 20
-141.9961270284242
 30
0.0
 10
79.9955306687807
 20
-141.9961270284242
 30
0.0
 10
80.04029816763827
 20
-141.9513242506575
 30
0.0
 10
80.04029816763827
 20
-141.8962203617826
 30
0.0
  0
CIRCLE
  5
E1
330
70
100
AcDbEntity
  8
レイヤー 1
 62
    18
420
        0
370
     9
100
AcDbCircle
 10
75.94027966112733
 20
-146.6580148050365
 30
0.0
 40
0.0999066653797365
  0
CIRCLE
  5
E2
330
70
100
AcDbEntity
  8
レイヤー 1
 62
    18
420
        0
370
     9
100
AcDbCircle
 10
75.94027966112733
 20
-147.1582536938002
 30
0.0
 40
0.0999066653797365
  0
CIRCLE
  5
E3
330
70
100
AcDbEntity
  8
レイヤー 1
 62
    18
420
        0
370
     9
100
AcDbCircle
 10
75.94027966112733
 20
-153.1582275811892
 30
0.0
 40
0.0999066653798969
  0
SPLINE
  5
E4
330
70
100
AcDbEntity
  8
レイヤー 1
 62
    18
420
        0
370
     9
100
AcDbSpline
210
0.0
220
0.0
230
1.0
 70
     9
 71
     3
 72
    17
 73
    13
 74
     0
 42
0.0000000001
 43
0.0000000001
 40
0.0
 40
0.0
 40
0.0
 40
0.0
 40
1.0
 40
1.0
 40
1.0
 40
2.0
 40
2.0
 40
2.0
 40
3.0
 40
3.0
 40
3.0
 40
4.0
 40
4.0
 40
4.0
 40
4.0
 10
101.0416173540722
 20
-141.8962203617826
 30
0.0
 10
101.0416173540722
 20
-141.8407636951296
 30
0.0
 10
100.9968145774374
 20
-141.7959609173632
 30
0.0
 10
100.9417106899543
 20
-141.7959609173632
 30
0.0
 10
100.8865749056526
 20
-141.7959609173632
 30
0.0
 10
100.8417721278862
 20
-141.8407636951296
 30
0.0
 10
100.8417721278862
 20
-141.8962203617826
 30
0.0
 10
100.8417721278862
 20
-141.9513242506575
 30
0.0
 10
100.8865749056526
 20
-141.9961270284242
 30
0.0
 10
100.9417106899543
 20
-141.9961270284242
 30
0.0
 10
100.9968145774374
 20
-141.9961270284242
 30
0.0
 10
101.0416173540722
 20
-141.9513242506575
 30
0.0
 10
101.0416173540722
 20
-141.8962203617826
 30
0.0
  0
SPLINE
  5
E5
330
70
100
AcDbEntity
  8
レイヤー 1
 62
    18
420
        0
370
     9
100
AcDbSpline
210
0.0
220
0.0
230
1.0
 70
     9
 71
     3
 72
    17
 73
    13
 74
     0
 42
0.0000000001
 43
0.0000000001
 40
0.0
 40
0.0
 40
0.0
 40
0.0
 40
1.0
 40
1.0
 40
1.0
 40
2.0
 40
2.0
 40
2.0
 40
3.0
 40
3.0
 40
3.0
 40
4.0
 40
4.0
 40
4.0
 40
4.0
 10
132.1439165605864
 20
-141.8962203617826
 30
0.0
 10
132.1439165605864
 20
-141.8407636951296
 30
0.0
 10
132.0991490617285
 20
-141.7959609173632
 30
0.0
 10
132.0440098964686
 20
-141.7959609173632
 30
0.0
 10
131.9882004534479
 20
-141.7959609173632
 30
0.0
 10
131.9434329545901
 20
-141.8407636951296
 30
0.0
 10
131.9434329545901
 20
-141.8962203617826
 30
0.0
 10
131.9434329545901
 20
-141.9513242506575
 30
0.0
 10
131.9882004534479
 20
-141.9961270284242
 30
0.0
 10
132.0440098964686
 20
-141.9961270284242
 30
0.0
 10
132.0991490617285
 20
-141.9961270284242
 30
0.0
 10
132.1439165605864
 20
-141.9513242506575
 30
0.0
 10
132.1439165605864
 20
-141.8962203617826
 30
0.0
  0
SPLINE
  5
E6
330
70
100
AcDbEntity
  8
レイヤー 1
 62
    18
420
        0
370
     9
100
AcDbSpline
210
0.0
220
0.0
230
1.0
 70
     9
 71
     3
 72
    17
 73
    13
 74
     0
 42
0.0000000001
 43
0.0000000001
 40
0.0
 40
0.0
 40
0.0
 40
0.0
 40
1.0
 40
1.0
 40
1.0
 40
2.0
 40
2.0
 40
2.0
 40
3.0
 40
3.0
 40
3.0
 40
4.0
 40
4.0
 40
4.0
 40
4.0
 10
111.1426326519294
 20
-141.8962203617826
 30
0.0
 10
111.1426326519294
 20
-141.8407636951296
 30
0.0
 10
111.0978298752946
 20
-141.7959609173632
 30
0.0
 10
111.0427259878115
 20
-141.7959609173632
 30
0.0
 10
110.9875868225516
 20
-141.7959609173632
 30
0.0
 10
110.9428193236937
 20
-141.8407636951296
 30
0.0
 10
110.9428193236937
 20
-141.8962203617826
 30
0.0
 10
110.9428193236937
 20
-141.9513242506575
 30
0.0
 10
110.9875868225516
 20
-141.9961270284242
 30
0.0
 10
111.0427259878115
 20
-141.9961270284242
 30
0.0
 10
111.0978298752946
 20
-141.9961270284242
 30
0.0
 10
111.1426326519294
 20
-141.9513242506575
 30
0.0
 10
111.1426326519294
 20
-141.8962203617826
 30
0.0
  0
LINE
  5
E7
330
70
100
AcDbEntity
  8
レイヤー 1
 62
    18
420
        0
370
     9
100
AcDbLine
 10
75.94027966112733
 20
-146.6580148050365
 30
0.0
 11
75.94027966112733
 21
-141.4001089730176
 31
0.0
  0
LINE
  5
E8
330
70
100
AcDbEntity
  8
レイヤー 1
 62
    18
420
        0
370
     9
100
AcDbLine
 10
75.94027966112733
 20
-146.6580148050365
 30
0.0
 11
75.94027966112733
 21
-147.1582536938002
 31
0.0
  0
LINE
  5
E9
330
70
100
AcDbEntity
  8
レイヤー 1
 62
    18
420
        0
370
     9
100
AcDbLine
 10
77.40032101276748
 20
-146.6580148050365
 30
0.0
 11
74.94018996441953
 21
-146.6580148050365
 31
0.0
  0
LINE
  5
EA
330
70
100
AcDbEntity
  8
レイヤー 1
 62
    18
420
        0
370
     9
100
AcDbLine
 10
77.40032101276748
 20
-147.1582536938002
 30
0.0
 11
74.94018996441953
 21
-147.1582536938002
 31
0.0
  0
INSERT
  5
EC
330
70
100
AcDbEntity
  8
レイヤー 1
100
AcDbBlockReference
  2
Block_1
 10
0.0
 20
0.0
 30
0.0
  0
LINE
  5
FA
330
70
100
AcDbEntity
  8
レイヤー 1
 62
    18
420
        0
370
     9
100
AcDbLine
 10
79.94039435533363
 20
-141.8962203617826
 30
0.0
 11
100.9417106899543
 21
-141.8962203617826
 31
0.0
  0
LINE
  5
FB
330
70
100
AcDbEntity
  8
レイヤー 1
 62
    18
420
        0
370
     9
100
AcDbLine
 10
79.94039435533363
 20
-144.1182970278939
 30
0.0
 11
79.94039435533363
 21
-140.8960953620326
 31
0.0
  0
INSERT
  5
FD
330
70
100
AcDbEntity
  8
レイヤー 1
100
AcDbBlockReference
  2
Block_3
 10
0.0
 20
0.0
 30
0.0
  0
LINE
  5
108
330
70
100
AcDbEntity
  8
レイヤー 1
 62
    18
420
        0
370
     9
100
AcDbLine
 10
75.94027966112733
 20
-147.1582536938002
 30
0.0
 11
75.94027966112733
 21
-153.1582275811895
 31
0.0
  0
LINE
  5
109
330
70
100
AcDbEntity
  8
レイヤー 1
 62
    18
420
        0
370
     9
100
AcDbLine
 10
97.40218879541281
 20
-153.1582275811895
 30
0.0
 11
74.94018996441953
 21
-153.1582275811895
 31
0.0
  0
INSERT
  5
10B
330
70
100
AcDbEntity
  8
レイヤー 1
100
AcDbBlockReference
  2
Block_5
 10
0.0
 20
0.0
 30
0.0
  0
LINE
  5
111
330
70
100
AcDbEntity
  8
レイヤー 1
 62
    18
420
        0
370
     9
100
AcDbLine
 10
132.0440098964686
 20
-141.8962203617826
 30
0.0
 11
111.0427259878115
 21
-141.8962203617826
 31
0.0
  0
LINE
  5
112
330
70
100
AcDbEntity
  8
レイヤー 1
 62
    18
420
        0
370
     9
100
AcDbLine
 10
132.0440098964686
 20
-144.1182970278939
 30
0.0
 11
132.0440098964686
 21
-140.8960953620326
 31
0.0
  0
INSERT
  5
114
330
70
100
AcDbEntity
  8
レイヤー 1
100
AcDbBlockReference
  2
Block_6
 10
0.0
 20
0.0
 30
0.0
  0
LINE
  5
11F
330
70
100
AcDbEntity
  8
レイヤー 1
 62
    18
420
        0
370
     9
100
AcDbLine
 10
100.9417106899543
 20
-141.8962203617826
 30
0.0
 11
110.9428193236937
 21
-141.8962203617826
 31
0.0
  0
LINE
  5
120
330
70
100
AcDbEntity
  8
レイヤー 1
 62
    18
420
        0
370
     9
100
AcDbLine
 10
100.9417106899543
 20
-143.3562617503066
 30
0.0
 11
100.9417106899543
 21
-140.8960953620326
 31
0.0
  0
LINE
  5
121
330
70
100
AcDbEntity
  8
レイヤー 1
 62
    18
420
        0
370
     9
100
AcDbLine
 10
111.0427259878115
 20
-143.3562617503066
 30
0.0
 11
111.0427259878115
 21
-140.8960953620326
 31
0.0
  0
INSERT
  5
123
330
70
100
AcDbEntity
  8
レイヤー 1
100
AcDbBlockReference
  2
Block_8
 10
0.0
 20
0.0
 30
0.0
  0
SPLINE
  5
12F
330
70
100
AcDbEntity
  8
レイヤー 1
 62
    18
420
        0
370
     9
100
AcDbSpline
210
0.0
220
0.0
230
1.0
 70
     9
 71
     3
 72
    17
 73
    13
 74
     0
 42
0.0000000001
 43
0.0000000001
 40
0.0
 40
0.0
 40
0.0
 40
0.0
 40
1.0
 40
1.0
 40
1.0
 40
2.0
 40
2.0
 40
2.0
 40
3.0
 40
3.0
 40
3.0
 40
4.0
 40
4.0
 40
4.0
 40
4.0
 10
100.2258221280402
 20
-157.271687024605
 30
0.0
 10
100.2258221280402
 20
-157.2165478579526
 30
0.0
 10
100.1700093207532
 20
-157.171780357964
 30
0.0
 10
100.1017821002716
 20
-157.171780357964
 30
0.0
 10
100.0328846020293
 20
-157.171780357964
 30
0.0
 10
99.97774543676939
 20
-157.2165478579526
 30
0.0
 10
99.97774543676939
 20
-157.271687024605
 30
0.0
 10
99.97774543676939
 20
-157.3267909134806
 30
0.0
 10
100.0328846020293
 20
-157.3715936912473
 30
0.0
 10
100.1017821002716
 20
-157.3715936912473
 30
0.0
 10
100.1700093207532
 20
-157.3715936912473
 30
0.0
 10
100.2258221280402
 20
-157.3267909134806
 30
0.0
 10
100.2258221280402
 20
-157.271687024605
 30
0.0
  0
SPLINE
  5
130
330
70
100
AcDbEntity
  8
レイヤー 1
 62
    18
420
        0
370
     9
100
AcDbSpline
210
0.0
220
0.0
230
1.0
 70
     9
 71
     3
 72
    17
 73
    13
 74
     0
 42
0.0000000001
 43
0.0000000001
 40
0.0
 40
0.0
 40
0.0
 40
0.0
 40
1.0
 40
1.0
 40
1.0
 40
2.0
 40
2.0
 40
2.0
 40
3.0
 40
3.0
 40
3.0
 40
4.0
 40
4.0
 40
4.0
 40
4.0
 10
112.2271420687057
 20
-157.271687024605
 30
0.0
 10
112.2271420687057
 20
-157.2165478579526
 30
0.0
 10
112.171332625685
 20
-157.171780357964
 30
0.0
 10
112.1024387917374
 20
-157.171780357964
 30
0.0
 10
112.0335376292005
 20
-157.171780357964
 30
0.0
 10
111.9783984639405
 20
-157.2165478579526
 30
0.0
 10
111.9783984639405
 20
-157.271687024605
 30
0.0
 10
111.9783984639405
 20
-157.3267909134806
 30
0.0
 10
112.0335376292005
 20
-157.3715936912473
 30
0.0
 10
112.1024387917374
 20
-157.3715936912473
 30
0.0
 10
112.171332625685
 20
-157.3715936912473
 30
0.0
 10
112.2271420687057
 20
-157.3267909134806
 30
0.0
 10
112.2271420687057
 20
-157.271687024605
 30
0.0
  0
LINE
  5
131
330
70
100
AcDbEntity
  8
レイヤー 1
 62
    18
420
        0
370
     9
100
AcDbLine
 10
112.1024387917374
 20
-157.271687024605
 30
0.0
 11
100.1017821002716
 21
-157.271687024605
 31
0.0
  0
LINE
  5
132
330
70
100
AcDbEntity
  8
レイヤー 1
 62
    18
420
        0
370
     9
100
AcDbLine
 10
112.1024387917374
 20
-155.8116456360813
 30
0.0
 11
112.1024387917374
 21
-158.2717767465778
 31
0.0
  0
LINE
  5
133
330
70
100
AcDbEntity
  8
レイヤー 1
 62
    18
420
        0
370
     9
100
AcDbLine
 10
100.1017821002716
 20
-155.8116456360813
 30
0.0
 11
100.1017821002716
 21
-158.2717767465778
 31
0.0
  0
INSERT
  5
135
330
70
100
AcDbEntity
  8
レイヤー 1
100
AcDbBlockReference
  2
Block_10
 10
0.0
 20
0.0
 30
0.0
  0
LINE
  5
140
330
70
100
AcDbEntity
  8
レイヤー 1
 62
    18
420
        0
370
     9
100
AcDbLine
 10
109.9140840721611
 20
-150.3036203596803
 30
0.0
 11
116.9145355602314
 21
-150.3036203596803
 31
0.0
  0
INSERT
  5
142
330
70
100
AcDbEntity
  8
レイヤー 1
100
AcDbBlockReference
  2
Block_12
 10
0.0
 20
0.0
 30
0.0
  0
INSERT
  5
148
330
70
100
AcDbEntity
  8
レイヤー 1
100
AcDbBlockReference
  2
Block_13
 10
0.0
 20
0.0
 30
0.0
  0
INSERT
  5
14F
330
70
100
AcDbEntity
  8
レイヤー 1
100
AcDbBlockReference
  2
Block_14
 10
0.0
 20
0.0
 30
0.0
  0
INSERT
  5
167
330
70
100
AcDbEntity
  8
レイヤー 1
100
AcDbBlockReference
  2
Block_16
 10
0.0
 20
0.0
 30
0.0
  0
ENDSEC
  0
SECTION
  2
OBJECTS
  0
DICTIONARY
  5
C
330
0
100
AcDbDictionary
281
     1
  3
ACAD_COLOR
350
63
  3
ACAD_DETAILVIEWSTYLE
350
6A
  3
ACAD_GROUP
350
D
  3
ACAD_LAYOUT
350
62
  3
ACAD_MATERIAL
350
10
  3
ACAD_MLEADERSTYLE
350
66
  3
ACAD_MLINESTYLE
350
5F
  3
ACAD_PLOTSETTINGS
350
61
  3
ACAD_PLOTSTYLENAME
350
E
  3
ACAD_SCALELIST
350
42
  3
ACAD_SECTIONVIEWSTYLE
350
68
  3
ACAD_TABLESTYLE
350
64
  3
ACAD_VISUALSTYLE
350
29
  3
ACDB_RECOMPOSE_DATA
350
189
  3
AcDbVariableDictionary
350
181
  0
DICTIONARY
  5
63
102
{ACAD_REACTORS
330
C
102
}
330
C
100
AcDbDictionary
281
     1
  0
DICTIONARY
  5
6A
102
{ACAD_REACTORS
330
C
102
}
330
C
100
AcDbDictionary
281
     1
  3
Imperial24
350
6B
  0
DICTIONARY
  5
D
102
{ACAD_REACTORS
330
C
102
}
330
C
100
AcDbDictionary
281
     1
  0
DICTIONARY
  5
62
102
{ACAD_REACTORS
330
C
102
}
330
C
100
AcDbDictionary
281
     1
  3
Layout1
350
6F
  3
Layout2
350
77
  3
Model
350
73
  0
DICTIONARY
  5
10
102
{ACAD_REACTORS
330
C
102
}
330
C
100
AcDbDictionary
281
     1
  3
ByBlock
350
19
  3
ByLayer
350
11
  3
Global
350
21
  0
DICTIONARY
  5
66
102
{ACAD_REACTORS
330
C
102
}
330
C
100
AcDbDictionary
281
     1
  3
Standard
350
67
  0
DICTIONARY
  5
5F
102
{ACAD_REACTORS
330
C
102
}
330
C
100
AcDbDictionary
281
     1
  3
Standard
350
60
  0
DICTIONARY
  5
61
102
{ACAD_REACTORS
330
C
102
}
330
C
100
AcDbDictionary
281
     1
  0
ACDBDICTIONARYWDFLT
  5
E
102
{ACAD_REACTORS
330
C
102
}
330
C
100
AcDbDictionary
281
     1
  3
Normal
350
F
100
AcDbDictionaryWithDefault
340
F
  0
DICTIONARY
  5
42
102
{ACAD_REACTORS
330
C
102
}
330
C
100
AcDbDictionary
281
     1
  3
A0
350
43
  3
A1
350
44
  3
A2
350
45
  3
A3
350
46
  3
A4
350
47
  3
A5
350
48
  3
A6
350
49
  3
A7
350
4A
  3
A8
350
4B
  3
A9
350
4C
  3
B0
350
4D
  3
B1
350
4E
  3
B2
350
4F
  3
B3
350
50
  3
B4
350
51
  3
B5
350
52
  3
B6
350
53
  0
DICTIONARY
  5
68
102
{ACAD_REACTORS
330
C
102
}
330
C
100
AcDbDictionary
281
     1
  3
Imperial24
350
69
  0
DICTIONARY
  5
64
102
{ACAD_REACTORS
330
C
102
}
330
C
100
AcDbDictionary
281
     1
  3
Standard
350
65
  0
DICTIONARY
  5
29
102
{ACAD_REACTORS
330
C
102
}
330
C
100
AcDbDictionary
281
     1
  3
2dWireframe
350
2F
  3
Basic
350
2E
  3
Brighten
350
35
  3
ColorChange
350
39
  3
Conceptual
350
32
  3
Dim
350
34
  3
EdgeColorOff
350
41
  3
Facepattern
350
38
  3
Flat
350
2A
  3
FlatWithEdges
350
2B
  3
Gouraud
350
2C
  3
GouraudWithEdges
350
2D
  3
Hidden
350
31
  3
JitterOff
350
3F
  3
Linepattern
350
37
  3
OverhangOff
350
40
  3
Realistic
350
33
  3
Shaded
350
3E
  3
Shaded with edges
350
3D
  3
Shades of Gray
350
3A
  3
Sketchy
350
3B
  3
Thicken
350
36
  3
Wireframe
350
30
  3
X-Ray
350
3C
  0
XRECORD
  5
189
102
{ACAD_REACTORS
330
C
102
}
330
C
100
AcDbXrecord
280
     1
 90
        1
330
65
  0
DICTIONARY
  5
181
102
{ACAD_REACTORS
330
C
102
}
330
C
100
AcDbDictionary
281
     1
  3
CANNOSCALE
350
186
  3
CMLEADERSTYLE
350
183
  3
CTABLESTYLE
350
182
  3
CVIEWDETAILSTYLE
350
184
  3
CVIEWSECTIONSTYLE
350
185
  0
ACDBDETAILVIEWSTYLE
  5
6B
102
{ACAD_XDICTIONARY
360
1BE
102
}
102
{ACAD_REACTORS
330
6A
102
}
330
6A
100
AcDbModelDocViewStyle
 70
     0
  3
Imperial24
290
     0
100
AcDbDetailViewStyle
 70
     0
 71
     0
 90
        3
 71
     1
340
55
 62
   256
 40
0.24
340
0
 62
   256
 40
0.24
300

 40
0.36
280
     3
 71
     2
340
5D
 90
       25
 62
   256
 71
     3
340
55
 62
   256
 40
0.24
 90
        1
 40
0.75
 90
        1
300
%<\AcVar ViewType \f "%tc1">% %<\AcVar ViewDetailId>%\PSCALE %<\AcVar ViewScale \f "%sn">%
 71
     4
340
5D
 90
       25
 62
   256
340
5D
 90
       25
 62
   256
280
     0
  0
LAYOUT
  5
6F
102
{ACAD_REACTORS
330
62
102
}
330
62
100
AcDbPlotSettings
  1

  2

  4

  6

 40
0.0
 41
0.0
 42
0.0
 43
0.0
 44
0.0
 45
0.0
 46
0.0
 47
0.0
 48
0.0
 49
0.0
140
0.0
141
0.0
142
1.0
143
1.0
 70
   688
 72
     0
 73
     0
 74
     5
  7

 75
    16
147
1.0
 76
     0
 77
     2
 78
   300
148
0.0
149
0.0
100
AcDbLayout
  1
Layout1
 70
     1
 71
     1
 10
0.0
 20
0.0
 11
12.0
 21
9.0
 12
0.0
 22
0.0
 32
0.0
 14
0.0
 24
0.0
 34
0.0
 15
0.0
 25
0.0
 35
0.0
146
0.0
 13
0.0
 23
0.0
 33
0.0
 16
1.0
 26
0.0
 36
0.0
 17
0.0
 27
1.0
 37
0.0
 76
     0
330
6C
  0
LAYOUT
  5
77
102
{ACAD_REACTORS
330
62
102
}
330
62
100
AcDbPlotSettings
  1

  2

  4

  6

 40
0.0
 41
0.0
 42
0.0
 43
0.0
 44
0.0
 45
0.0
 46
0.0
 47
0.0
 48
0.0
 49
0.0
140
0.0
141
0.0
142
1.0
143
1.0
 70
   688
 72
     0
 73
     0
 74
     5
  7

 75
    16
147
1.0
 76
     0
 77
     2
 78
   300
148
0.0
149
0.0
100
AcDbLayout
  1
Layout2
 70
     1
 71
     2
 10
0.0
 20
0.0
 11
12.0
 21
9.0
 12
0.0
 22
0.0
 32
0.0
 14
0.0
 24
0.0
 34
0.0
 15
0.0
 25
0.0
 35
0.0
146
0.0
 13
0.0
 23
0.0
 33
0.0
 16
1.0
 26
0.0
 36
0.0
 17
0.0
 27
1.0
 37
0.0
 76
     0
330
74
  0
LAYOUT
  5
73
102
{ACAD_REACTORS
330
62
102
}
330
62
100
AcDbPlotSettings
  1

  2

  4

  6

 40
0.0
 41
0.0
 42
0.0
 43
0.0
 44
0.0
 45
0.0
 46
0.0
 47
0.0
 48
0.0
 49
0.0
140
0.0
141
0.0
142
1.0
143
1.0
 70
  1712
 72
     0
 73
     0
 74
     0
  7

 75
     0
147
1.0
 76
     0
 77
     2
 78
   300
148
0.0
149
0.0
100
AcDbLayout
  1
Model
 70
     1
 71
     0
 10
0.0
 20
0.0
 11
12.0
 21
9.0
 12
0.0
 22
0.0
 32
0.0
 14
0.0
 24
0.0
 34
0.0
 15
0.0
 25
0.0
 35
0.0
146
0.0
 13
0.0
 23
0.0
 33
0.0
 16
1.0
 26
0.0
 36
0.0
 17
0.0
 27
1.0
 37
0.0
 76
     0
330
70
  0
MATERIAL
  5
19
102
{ACAD_XDICTIONARY
360
1A
102
}
102
{ACAD_REACTORS
330
10
102
}
330
10
100
AcDbMaterial
  1
ByBlock
 72
     0
 43
0.0208333333333333
 43
0.0
 43
0.0
 43
0.0
 43
0.0
 43
0.0208333333333333
 43
0.0
 43
0.0
 43
0.0
 43
0.0
 43
1.0
 43
0.0
 43
0.0
 43
0.0
 43
0.0
 43
1.0
 77
     0
 47
0.0208333333333333
 47
0.0
 47
0.0
 47
0.0
 47
0.0
 47
0.0208333333333333
 47
0.0
 47
0.0
 47
0.0
 47
0.0
 47
1.0
 47
0.0
 47
0.0
 47
0.0
 47
0.0
 47
1.0
171
     0
 49
0.0208333333333333
 49
0.0
 49
0.0
 49
0.0
 49
0.0
 49
0.0208333333333333
 49
0.0
 49
0.0
 49
0.0
 49
0.0
 49
1.0
 49
0.0
 49
0.0
 49
0.0
 49
0.0
 49
1.0
175
     0
142
0.0208333333333333
142
0.0
142
0.0
142
0.0
142
0.0
142
0.0208333333333333
142
0.0
142
0.0
142
0.0
142
0.0
142
1.0
142
0.0
142
0.0
142
0.0
142
0.0
142
1.0
179
     0
144
0.0208333333333333
144
0.0
144
0.0
144
0.0
144
0.0
144
0.0208333333333333
144
0.0
144
0.0
144
0.0
144
0.0
144
1.0
144
0.0
144
0.0
144
0.0
144
0.0
144
1.0
147
0.0208333333333333
147
0.0
147
0.0
147
0.0
147
0.0
147
0.0208333333333333
147
0.0
147
0.0
147
0.0
147
0.0
147
1.0
147
0.0
147
0.0
147
0.0
147
0.0
147
1.0
  0
MATERIAL
  5
11
102
{ACAD_XDICTIONARY
360
12
102
}
102
{ACAD_REACTORS
330
10
102
}
330
10
100
AcDbMaterial
  1
ByLayer
 72
     0
 43
0.0208333333333333
 43
0.0
 43
0.0
 43
0.0
 43
0.0
 43
0.0208333333333333
 43
0.0
 43
0.0
 43
0.0
 43
0.0
 43
1.0
 43
0.0
 43
0.0
 43
0.0
 43
0.0
 43
1.0
 77
     0
 47
0.0208333333333333
 47
0.0
 47
0.0
 47
0.0
 47
0.0
 47
0.0208333333333333
 47
0.0
 47
0.0
 47
0.0
 47
0.0
 47
1.0
 47
0.0
 47
0.0
 47
0.0
 47
0.0
 47
1.0
171
     0
 49
0.0208333333333333
 49
0.0
 49
0.0
 49
0.0
 49
0.0
 49
0.0208333333333333
 49
0.0
 49
0.0
 49
0.0
 49
0.0
 49
1.0
 49
0.0
 49
0.0
 49
0.0
 49
0.0
 49
1.0
175
     0
142
0.0208333333333333
142
0.0
142
0.0
142
0.0
142
0.0
142
0.0208333333333333
142
0.0
142
0.0
142
0.0
142
0.0
142
1.0
142
0.0
142
0.0
142
0.0
142
0.0
142
1.0
179
     0
144
0.0208333333333333
144
0.0
144
0.0
144
0.0
144
0.0
144
0.0208333333333333
144
0.0
144
0.0
144
0.0
144
0.0
144
1.0
144
0.0
144
0.0
144
0.0
144
0.0
144
1.0
147
0.0208333333333333
147
0.0
147
0.0
147
0.0
147
0.0
147
0.0208333333333333
147
0.0
147
0.0
147
0.0
147
0.0
147
1.0
147
0.0
147
0.0
147
0.0
147
0.0
147
1.0
  0
MATERIAL
  5
21
102
{ACAD_XDICTIONARY
360
22
102
}
102
{ACAD_REACTORS
330
10
102
}
330
10
100
AcDbMaterial
  1
Global
 72
     0
 43
0.0208333333333333
 43
0.0
 43
0.0
 43
0.0
 43
0.0
 43
0.0208333333333333
 43
0.0
 43
0.0
 43
0.0
 43
0.0
 43
1.0
 43
0.0
 43
0.0
 43
0.0
 43
0.0
 43
1.0
 77
     0
 47
0.0208333333333333
 47
0.0
 47
0.0
 47
0.0
 47
0.0
 47
0.0208333333333333
 47
0.0
 47
0.0
 47
0.0
 47
0.0
 47
1.0
 47
0.0
 47
0.0
 47
0.0
 47
0.0
 47
1.0
171
     0
 49
0.0208333333333333
 49
0.0
 49
0.0
 49
0.0
 49
0.0
 49
0.0208333333333333
 49
0.0
 49
0.0
 49
0.0
 49
0.0
 49
1.0
 49
0.0
 49
0.0
 49
0.0
 49
0.0
 49
1.0
175
     0
142
0.0208333333333333
142
0.0
142
0.0
142
0.0
142
0.0
142
0.0208333333333333
142
0.0
142
0.0
142
0.0
142
0.0
142
1.0
142
0.0
142
0.0
142
0.0
142
0.0
142
1.0
179
     0
144
0.0208333333333333
144
0.0
144
0.0
144
0.0
144
0.0
144
0.0208333333333333
144
0.0
144
0.0
144
0.0
144
0.0
144
1.0
144
0.0
144
0.0
144
0.0
144
0.0
144
1.0
147
0.0208333333333333
147
0.0
147
0.0
147
0.0
147
0.0
147
0.0208333333333333
147
0.0
147
0.0
147
0.0
147
0.0
147
1.0
147
0.0
147
0.0
147
0.0
147
0.0
147
1.0
  0
MLEADERSTYLE
  5
67
102
{ACAD_XDICTIONARY
360
1BA
102
}
102
{ACAD_REACTORS
330
66
102
}
330
66
100
AcDbMLeaderStyle
179
     2
170
     2
171
     1
172
     0
 90
        2
 40
0.0
 41
0.0
173
     1
 91
-1056964608
340
5B
 92
       -2
290
     1
 42
0.09
291
     1
 43
0.36
  3
Standard
 44
0.18
300

342
55
174
     1
178
     6
175
     1
176
     0
 93
-1056964608
 45
0.18
292
     0
297
     0
 46
0.18
 94
-1056964608
 47
1.0
 49
1.0
140
1.0
293
     1
141
0.0
294
     1
177
     0
142
1.0
295
     0
296
     0
143
0.125
271
     0
272
     9
273
     9
  0
MLINESTYLE
  5
60
102
{ACAD_REACTORS
330
5F
102
}
330
5F
100
AcDbMlineStyle
  2
STANDARD
 70
     0
  3

 62
   256
 51
90.0
 52
90.0
 71
     2
 49
0.5
 62
   256
  6
BYLAYER
 49
-0.5
 62
   256
  6
BYLAYER
  0
ACDBPLACEHOLDER
  5
F
102
{ACAD_REACTORS
330
E
102
}
330
E
  0
SCALE
  5
43
102
{ACAD_REACTORS
330
42
102
}
330
42
100
AcDbScale
 70
     0
300
1:1
140
1.0
141
1.0
290
     1
  0
SCALE
  5
44
102
{ACAD_REACTORS
330
42
102
}
330
42
100
AcDbScale
 70
     0
300
1/128" = 1'-0"
140
0.0078125
141
12.0
290
     0
  0
SCALE
  5
45
102
{ACAD_REACTORS
330
42
102
}
330
42
100
AcDbScale
 70
     0
300
1/64" = 1'-0"
140
0.015625
141
12.0
290
     0
  0
SCALE
  5
46
102
{ACAD_REACTORS
330
42
102
}
330
42
100
AcDbScale
 70
     0
300
1/32" = 1'-0"
140
0.03125
141
12.0
290
     0
  0
SCALE
  5
47
102
{ACAD_REACTORS
330
42
102
}
330
42
100
AcDbScale
 70
     0
300
1/16" = 1'-0"
140
0.0625
141
12.0
290
     0
  0
SCALE
  5
48
102
{ACAD_REACTORS
330
42
102
}
330
42
100
AcDbScale
 70
     0
300
3/32" = 1'-0"
140
0.09375
141
12.0
290
     0
  0
SCALE
  5
49
102
{ACAD_REACTORS
330
42
102
}
330
42
100
AcDbScale
 70
     0
300
1/8" = 1'-0"
140
0.125
141
12.0
290
     0
  0
SCALE
  5
4A
102
{ACAD_REACTORS
330
42
102
}
330
42
100
AcDbScale
 70
     0
300
3/16" = 1'-0"
140
0.1875
141
12.0
290
     0
  0
SCALE
  5
4B
102
{ACAD_REACTORS
330
42
102
}
330
42
100
AcDbScale
 70
     0
300
1/4" = 1'-0"
140
0.25
141
12.0
290
     0
  0
SCALE
  5
4C
102
{ACAD_REACTORS
330
42
102
}
330
42
100
AcDbScale
 70
     0
300
3/8" = 1'-0"
140
0.375
141
12.0
290
     0
  0
SCALE
  5
4D
102
{ACAD_REACTORS
330
42
102
}
330
42
100
AcDbScale
 70
     0
300
1/2" = 1'-0"
140
0.5
141
12.0
290
     0
  0
SCALE
  5
4E
102
{ACAD_REACTORS
330
42
102
}
330
42
100
AcDbScale
 70
     0
300
3/4" = 1'-0"
140
0.75
141
12.0
290
     0
  0
SCALE
  5
4F
102
{ACAD_REACTORS
330
42
102
}
330
42
100
AcDbScale
 70
     0
300
1" = 1'-0"
140
1.0
141
12.0
290
     0
  0
SCALE
  5
50
102
{ACAD_REACTORS
330
42
102
}
330
42
100
AcDbScale
 70
     0
300
1-1/2" = 1'-0"
140
1.5
141
12.0
290
     0
  0
SCALE
  5
51
102
{ACAD_REACTORS
330
42
102
}
330
42
100
AcDbScale
 70
     0
300
3" = 1'-0"
140
3.0
141
12.0
290
     0
  0
SCALE
  5
52
102
{ACAD_REACTORS
330
42
102
}
330
42
100
AcDbScale
 70
     0
300
6" = 1'-0"
140
6.0
141
12.0
290
     0
  0
SCALE
  5
53
102
{ACAD_REACTORS
330
42
102
}
330
42
100
AcDbScale
 70
     0
300
1'-0" = 1'-0"
140
12.0
141
12.0
290
     0
  0
ACDBSECTIONVIEWSTYLE
  5
69
102
{ACAD_XDICTIONARY
360
1BC
102
}
102
{ACAD_REACTORS
330
68
102
}
330
68
100
AcDbModelDocViewStyle
 70
     0
  3
Imperial24
290
     0
100
AcDbSectionViewStyle
 70
     0
 71
     0
 90
       78
 71
     1
340
55
 62
   256
 40
0.24
340
0
340
0
 62
   256
 40
0.24
300
I, O, Q, S, X, Z
 40
0.48
 90
        3
 40
0.18
 90
        1
 71
     2
340
5D
 90
       25
 62
   256
340
5D
 90
       50
 62
   256
 40
0.24
 40
0.0
 40
0.24
 71
     3
340
55
 62
   256
 40
0.24
 90
        1
 40
0.75
 90
        1
300
%<\AcVar ViewType \f "%tc1">% %<\AcVar ViewSectionStartId>%-%<\AcVar ViewSectionEndId>%\PSCALE %<\AcVar ViewScale \f "%sn">%
 71
     4
 62
   256
 62
   257
300
ANSI31
 40
1.0
 90
        0
290
     0
290
     0
 90
        6
 40
0.0
 40
1.570796326794896
 40
0.2617993877991494
 40
1.308996938995747
 40
-0.2617993877991494
 40
1.832595714594046
  0
TABLESTYLE
  5
65
102
{ACAD_XDICTIONARY
360
187
102
}
102
{ACAD_REACTORS
330
64
102
}
330
64
100
AcDbTableStyle
280
     0
  3
Standard
 70
     0
 71
     0
 40
0.06
 41
0.06
280
     0
281
     0
  7
Standard
140
0.18
170
     2
 62
     0
 63
     7
283
     0
 90
      512
 91
        0
  1

274
    -2
284
     1
 64
     0
275
    -2
285
     1
 65
     0
276
    -2
286
     1
 66
     0
277
    -2
287
     1
 67
     0
278
    -2
288
     1
 68
     0
279
    -2
289
     1
 69
     0
  7
Standard
140
0.25
170
     5
 62
     0
 63
     7
283
     0
 90
      512
 91
        0
  1

274
    -2
284
     1
 64
     0
275
    -2
285
     1
 65
     0
276
    -2
286
     1
 66
     0
277
    -2
287
     1
 67
     0
278
    -2
288
     1
 68
     0
279
    -2
289
     1
 69
     0
  7
Standard
140
0.18
170
     5
 62
     0
 63
     7
283
     0
 90
      512
 91
        0
  1

274
    -2
284
     1
 64
     0
275
    -2
285
     1
 65
     0
276
    -2
286
     1
 66
     0
277
    -2
287
     1
 67
     0
278
    -2
288
     1
 68
     0
279
    -2
289
     1
 69
     0
  0
VISUALSTYLE
  5
2F
102
{ACAD_XDICTIONARY
360
194
102
}
102
{ACAD_REACTORS
330
29
102
}
330
29
100
AcDbVisualStyle
  2
2dWireframe
 70
     4
177
     2
291
     0
 71
     0
176
     1
 72
     2
176
     1
 73
     0
176
     1
 90
        0
176
     1
 40
0.6
176
     1
 41
30.0
176
     1
 63
     7
421
 16777215
176
     1
 74
     1
176
     1
 91
        4
176
     1
 64
     7
176
     1
 65
   257
176
     1
 75
     1
176
     1
175
     1
176
     1
 42
1.0
176
     1
 92
        0
176
     1
 66
   257
176
     1
 43
1.0
176
     1
 76
     1
176
     1
 77
     6
176
     1
 78
     2
176
     1
 67
     7
176
     1
 79
     5
176
     1
170
     0
176
     1
171
     0
176
     1
290
     0
176
     1
 93
        1
176
     1
 44
0.0
176
     1
173
     0
176
     1
1001
ACAD
1000
AcDbSavedByObjectVersion
1070
     0
  0
VISUALSTYLE
  5
2E
102
{ACAD_XDICTIONARY
360
192
102
}
102
{ACAD_REACTORS
330
29
102
}
330
29
100
AcDbVisualStyle
  2
Basic
 70
     7
177
     2
291
     1
 71
     1
176
     1
 72
     0
176
     1
 73
     1
176
     1
 90
        0
176
     1
 40
0.6
176
     1
 41
30.0
176
     1
 63
     7
421
 16777215
176
     1
 74
     0
176
     1
 91
        4
176
     1
 64
     7
176
     1
 65
   257
176
     1
 75
     1
176
     1
175
     1
176
     1
 42
1.0
176
     1
 92
        8
176
     1
 66
     7
176
     1
 43
1.0
176
     1
 76
     1
176
     1
 77
     6
176
     1
 78
     2
176
     1
 67
     7
176
     1
 79
     5
176
     1
170
     0
176
     1
171
     0
176
     1
290
     0
176
     1
 93
        1
176
     1
 44
0.0
176
     1
173
     0
176
     1
1001
ACAD
1000
AcDbSavedByObjectVersion
1070
     0
  0
VISUALSTYLE
  5
35
102
{ACAD_XDICTIONARY
360
1A0
102
}
102
{ACAD_REACTORS
330
29
102
}
330
29
100
AcDbVisualStyle
  2
Brighten
 70
    12
177
     2
291
     1
 71
     2
176
     1
 72
     2
176
     1
 73
     0
176
     1
 90
        0
176
     1
 40
0.6
176
     1
 41
30.0
176
     1
 63
     7
421
 16777215
176
     1
 74
     1
176
     1
 91
        4
176
     1
 64
     7
176
     1
 65
   257
176
     1
 75
     1
176
     1
175
     1
176
     1
 42
1.0
176
     1
 92
        8
176
     1
 66
     7
176
     1
 43
1.0
176
     1
 76
     1
176
     1
 77
     6
176
     1
 78
     2
176
     1
 67
     7
176
     1
 79
     5
176
     1
170
     0
176
     1
171
     0
176
     1
290
     0
176
     1
 93
        1
176
     1
 44
50.0
176
     1
173
     0
176
     1
1001
ACAD
1000
AcDbSavedByObjectVersion
1070
     0
  0
VISUALSTYLE
  5
39
102
{ACAD_XDICTIONARY
360
1A8
102
}
102
{ACAD_REACTORS
330
29
102
}
330
29
100
AcDbVisualStyle
  2
ColorChange
 70
    16
177
     2
291
     1
 71
     2
176
     1
 72
     2
176
     1
 73
     3
176
     1
 90
        0
176
     1
 40
0.6
176
     1
 41
30.0
176
     1
 63
     8
421
  8421504
176
     1
 74
     1
176
     1
 91
        4
176
     1
 64
     7
176
     1
 65
   257
176
     1
 75
     1
176
     1
175
     1
176
     1
 42
1.0
176
     1
 92
        8
176
     1
 66
     8
424
  8421504
176
     1
 43
1.0
176
     1
 76
     1
176
     1
 77
     6
176
     1
 78
     2
176
     1
 67
     7
176
     1
 79
     5
176
     1
170
     0
176
     1
171
     0
176
     1
290
     0
176
     1
 93
        1
176
     1
 44
0.0
176
     1
173
     0
176
     1
1001
ACAD
1000
AcDbSavedByObjectVersion
1070
     0
  0
VISUALSTYLE
  5
32
102
{ACAD_XDICTIONARY
360
19A
102
}
102
{ACAD_REACTORS
330
29
102
}
330
29
100
AcDbVisualStyle
  2
Conceptual
 70
     9
177
     2
291
     0
 71
     3
176
     1
 72
     2
176
     1
 73
     0
176
     1
 90
        0
176
     1
 40
0.6
176
     1
 41
30.0
176
     1
 63
     7
421
 16777215
176
     1
 74
     2
176
     1
 91
        2
176
     1
 64
     7
176
     1
 65
   257
176
     1
 75
     1
176
     1
175
     1
176
     1
 42
179.0
176
     1
 92
        8
176
     1
 66
     7
176
     1
 43
1.0
176
     1
 76
     1
176
     1
 77
     6
176
     1
 78
     2
176
     1
 67
     7
176
     1
 79
     3
176
     1
170
     0
176
     1
171
     0
176
     1
290
     0
176
     1
 93
        1
176
     1
 44
0.0
176
     1
173
     0
176
     1
1001
ACAD
1000
AcDbSavedByObjectVersion
1070
     0
  0
VISUALSTYLE
  5
34
102
{ACAD_XDICTIONARY
360
19E
102
}
102
{ACAD_REACTORS
330
29
102
}
330
29
100
AcDbVisualStyle
  2
Dim
 70
    11
177
     2
291
     1
 71
     2
176
     1
 72
     2
176
     1
 73
     0
176
     1
 90
        0
176
     1
 40
0.6
176
     1
 41
30.0
176
     1
 63
     7
421
 16777215
176
     1
 74
     1
176
     1
 91
        4
176
     1
 64
     7
176
     1
 65
   257
176
     1
 75
     1
176
     1
175
     1
176
     1
 42
1.0
176
     1
 92
        8
176
     1
 66
     7
176
     1
 43
1.0
176
     1
 76
     1
176
     1
 77
     6
176
     1
 78
     2
176
     1
 67
     7
176
     1
 79
     5
176
     1
170
     0
176
     1
171
     0
176
     1
290
     0
176
     1
 93
        1
176
     1
 44
-50.0
176
     1
173
     0
176
     1
1001
ACAD
1000
AcDbSavedByObjectVersion
1070
     0
  0
VISUALSTYLE
  5
41
102
{ACAD_XDICTIONARY
360
1B8
102
}
102
{ACAD_REACTORS
330
29
102
}
330
29
100
AcDbVisualStyle
  2
EdgeColorOff
 70
    22
177
     2
291
     1
 71
     2
176
     0
 72
     2
176
     0
 73
     0
176
     0
 90
        0
176
     0
 40
0.6
176
     0
 41
30.0
176
     0
 63
     7
421
 16777215
176
     0
 74
     1
176
     0
 91
        4
176
     0
 64
     7
176
     0
 65
   257
176
     0
 75
     1
176
     0
175
     1
176
     0
 42
1.0
176
     0
 92
        8
176
     2
 66
     7
176
     0
 43
1.0
176
     0
 76
     1
176
     0
 77
     6
176
     0
 78
     2
176
     0
 67
     7
176
     0
 79
     5
176
     0
170
     0
176
     0
171
     0
176
     0
290
     0
176
     0
 93
        1
176
     0
 44
0.0
176
     0
173
     0
176
     0
1001
ACAD
1000
AcDbSavedByObjectVersion
1070
     0
  0
VISUALSTYLE
  5
38
102
{ACAD_XDICTIONARY
360
1A6
102
}
102
{ACAD_REACTORS
330
29
102
}
330
29
100
AcDbVisualStyle
  2
Facepattern
 70
    15
177
     2
291
     1
 71
     2
176
     1
 72
     2
176
     1
 73
     0
176
     1
 90
        0
176
     1
 40
0.6
176
     1
 41
30.0
176
     1
 63
     7
421
 16777215
176
     1
 74
     1
176
     1
 91
        4
176
     1
 64
     7
176
     1
 65
   257
176
     1
 75
     1
176
     1
175
     1
176
     1
 42
1.0
176
     1
 92
        8
176
     1
 66
     7
176
     1
 43
1.0
176
     1
 76
     1
176
     1
 77
     6
176
     1
 78
     2
176
     1
 67
     7
176
     1
 79
     5
176
     1
170
     0
176
     1
171
     0
176
     1
290
     0
176
     1
 93
        1
176
     1
 44
0.0
176
     1
173
     0
176
     1
1001
ACAD
1000
AcDbSavedByObjectVersion
1070
     0
  0
VISUALSTYLE
  5
2A
102
{ACAD_XDICTIONARY
360
18A
102
}
102
{ACAD_REACTORS
330
29
102
}
330
29
100
AcDbVisualStyle
  2
Flat
 70
     0
177
     2
291
     1
 71
     2
176
     1
 72
     1
176
     1
 73
     1
176
     1
 90
        2
176
     1
 40
0.6
176
     1
 41
30.0
176
     1
 63
     7
421
 16777215
176
     1
 74
     0
176
     1
 91
        0
176
     1
 64
     7
176
     1
 65
   257
176
     1
 75
     1
176
     1
175
     1
176
     1
 42
1.0
176
     1
 92
        8
176
     1
 66
     7
176
     1
 43
1.0
176
     1
 76
     1
176
     1
 77
     6
176
     1
 78
     2
176
     1
 67
     7
176
     1
 79
     5
176
     1
170
     0
176
     1
171
     0
176
     1
290
     0
176
     1
 93
       13
176
     1
 44
0.0
176
     1
173
     0
176
     1
1001
ACAD
1000
AcDbSavedByObjectVersion
1070
     0
  0
VISUALSTYLE
  5
2B
102
{ACAD_XDICTIONARY
360
18C
102
}
102
{ACAD_REACTORS
330
29
102
}
330
29
100
AcDbVisualStyle
  2
FlatWithEdges
 70
     1
177
     2
291
     1
 71
     2
176
     1
 72
     1
176
     1
 73
     1
176
     1
 90
        2
176
     1
 40
0.6
176
     1
 41
30.0
176
     1
 63
     7
421
 16777215
176
     1
 74
     1
176
     1
 91
        0
176
     1
 64
     7
176
     1
 65
   257
176
     1
 75
     1
176
     1
175
     1
176
     1
 42
1.0
176
     1
 92
        0
176
     1
 66
   257
176
     1
 43
1.0
176
     1
 76
     1
176
     1
 77
     6
176
     1
 78
     2
176
     1
 67
     7
176
     1
 79
     5
176
     1
170
     0
176
     1
171
     0
176
     1
290
     0
176
     1
 93
       13
176
     1
 44
0.0
176
     1
173
     0
176
     1
1001
ACAD
1000
AcDbSavedByObjectVersion
1070
     0
  0
VISUALSTYLE
  5
2C
102
{ACAD_XDICTIONARY
360
18E
102
}
102
{ACAD_REACTORS
330
29
102
}
330
29
100
AcDbVisualStyle
  2
Gouraud
 70
     2
177
     2
291
     1
 71
     2
176
     1
 72
     2
176
     1
 73
     1
176
     1
 90
        2
176
     1
 40
0.6
176
     1
 41
30.0
176
     1
 63
     7
421
 16777215
176
     1
 74
     0
176
     1
 91
        0
176
     1
 64
     7
176
     1
 65
   257
176
     1
 75
     1
176
     1
175
     1
176
     1
 42
1.0
176
     1
 92
        0
176
     1
 66
     7
176
     1
 43
1.0
176
     1
 76
     1
176
     1
 77
     6
176
     1
 78
     2
176
     1
 67
     7
176
     1
 79
     5
176
     1
170
     0
176
     1
171
     0
176
     1
290
     0
176
     1
 93
       13
176
     1
 44
0.0
176
     1
173
     0
176
     1
1001
ACAD
1000
AcDbSavedByObjectVersion
1070
     0
  0
VISUALSTYLE
  5
2D
102
{ACAD_XDICTIONARY
360
190
102
}
102
{ACAD_REACTORS
330
29
102
}
330
29
100
AcDbVisualStyle
  2
GouraudWithEdges
 70
     3
177
     2
291
     1
 71
     2
176
     1
 72
     2
176
     1
 73
     1
176
     1
 90
        2
176
     1
 40
0.6
176
     1
 41
30.0
176
     1
 63
     7
421
 16777215
176
     1
 74
     1
176
     1
 91
        0
176
     1
 64
     7
176
     1
 65
   257
176
     1
 75
     1
176
     1
175
     1
176
     1
 42
1.0
176
     1
 92
        0
176
     1
 66
   257
176
     1
 43
1.0
176
     1
 76
     1
176
     1
 77
     6
176
     1
 78
     2
176
     1
 67
     7
176
     1
 79
     5
176
     1
170
     0
176
     1
171
     0
176
     1
290
     0
176
     1
 93
       13
176
     1
 44
0.0
176
     1
173
     0
176
     1
1001
ACAD
1000
AcDbSavedByObjectVersion
1070
     0
  0
VISUALSTYLE
  5
31
102
{ACAD_XDICTIONARY
360
198
102
}
102
{ACAD_REACTORS
330
29
102
}
330
29
100
AcDbVisualStyle
  2
Hidden
 70
     6
177
     2
291
     0
 71
     1
176
     1
 72
     2
176
     1
 73
     2
176
     1
 90
        0
176
     1
 40
0.6
176
     1
 41
30.0
176
     1
 63
     7
421
 16777215
176
     1
 74
     2
176
     1
 91
        2
176
     1
 64
     7
176
     1
 65
   257
176
     1
 75
     2
176
     1
175
     1
176
     1
 42
40.0
176
     1
 92
        0
176
     1
 66
   257
176
     1
 43
1.0
176
     1
 76
     1
176
     1
 77
     6
176
     1
 78
     2
176
     1
 67
     7
176
     1
 79
     3
176
     1
170
     0
176
     1
171
     0
176
     1
290
     0
176
     1
 93
        1
176
     1
 44
0.0
176
     1
173
     0
176
     1
1001
ACAD
1000
AcDbSavedByObjectVersion
1070
     0
  0
VISUALSTYLE
  5
3F
102
{ACAD_XDICTIONARY
360
1B4
102
}
102
{ACAD_REACTORS
330
29
102
}
330
29
100
AcDbVisualStyle
  2
JitterOff
 70
    20
177
     2
291
     1
 71
     2
176
     0
 72
     2
176
     0
 73
     0
176
     0
 90
        0
176
     0
 40
0.6
176
     0
 41
30.0
176
     0
 63
     7
421
 16777215
176
     0
 74
     1
176
     0
 91
        4
176
     0
 64
     7
176
     0
 65
   257
176
     0
 75
     1
176
     0
175
     1
176
     0
 42
1.0
176
     0
 92
       10
176
     2
 66
     7
176
     0
 43
1.0
176
     0
 76
     1
176
     0
 77
     6
176
     0
 78
     2
176
     0
 67
     7
176
     0
 79
     5
176
     0
170
     0
176
     0
171
     0
176
     0
290
     0
176
     0
 93
        1
176
     0
 44
0.0
176
     0
173
     0
176
     0
1001
ACAD
1000
AcDbSavedByObjectVersion
1070
     0
  0
VISUALSTYLE
  5
37
102
{ACAD_XDICTIONARY
360
1A4
102
}
102
{ACAD_REACTORS
330
29
102
}
330
29
100
AcDbVisualStyle
  2
Linepattern
 70
    14
177
     2
291
     1
 71
     2
176
     1
 72
     2
176
     1
 73
     0
176
     1
 90
        0
176
     1
 40
0.6
176
     1
 41
30.0
176
     1
 63
     7
421
 16777215
176
     1
 74
     1
176
     1
 91
        4
176
     1
 64
     7
176
     1
 65
   257
176
     1
 75
     7
176
     1
175
     7
176
     1
 42
1.0
176
     1
 92
        8
176
     1
 66
     7
176
     1
 43
1.0
176
     1
 76
     1
176
     1
 77
     6
176
     1
 78
     2
176
     1
 67
     7
176
     1
 79
     5
176
     1
170
     0
176
     1
171
     0
176
     1
290
     0
176
     1
 93
        1
176
     1
 44
0.0
176
     1
173
     0
176
     1
1001
ACAD
1000
AcDbSavedByObjectVersion
1070
     0
  0
VISUALSTYLE
  5
40
102
{ACAD_XDICTIONARY
360
1B6
102
}
102
{ACAD_REACTORS
330
29
102
}
330
29
100
AcDbVisualStyle
  2
OverhangOff
 70
    21
177
     2
291
     1
 71
     2
176
     0
 72
     2
176
     0
 73
     0
176
     0
 90
        0
176
     0
 40
0.6
176
     0
 41
30.0
176
     0
 63
     7
421
 16777215
176
     0
 74
     1
176
     0
 91
        4
176
     0
 64
     7
176
     0
 65
   257
176
     0
 75
     1
176
     0
175
     1
176
     0
 42
1.0
176
     0
 92
        9
176
     2
 66
     7
176
     0
 43
1.0
176
     0
 76
     1
176
     0
 77
     6
176
     0
 78
     2
176
     0
 67
     7
176
     0
 79
     5
176
     0
170
     0
176
     0
171
     0
176
     0
290
     0
176
     0
 93
        1
176
     0
 44
0.0
176
     0
173
     0
176
     0
1001
ACAD
1000
AcDbSavedByObjectVersion
1070
     0
  0
VISUALSTYLE
  5
33
102
{ACAD_XDICTIONARY
360
19C
102
}
102
{ACAD_REACTORS
330
29
102
}
330
29
100
AcDbVisualStyle
  2
Realistic
 70
     8
177
     2
291
     0
 71
     2
176
     1
 72
     3
176
     1
 73
     0
176
     1
 90
        2
176
     1
 40
0.6
176
     1
 41
30.0
176
     1
 63
     7
421
 16777215
176
     1
 74
     0
176
     1
 91
        0
176
     1
 64
     7
176
     1
 65
   257
176
     1
 75
     1
176
     1
175
     1
176
     1
 42
1.0
176
     1
 92
        8
176
     1
 66
   257
176
     1
 43
1.0
176
     1
 76
     1
176
     1
 77
     6
176
     1
 78
     2
176
     1
 67
     7
176
     1
 79
     3
176
     1
170
     0
176
     1
171
     0
176
     1
290
     0
176
     1
 93
       13
176
     1
 44
0.0
176
     1
173
     0
176
     1
1001
ACAD
1000
AcDbSavedByObjectVersion
1070
     0
  0
VISUALSTYLE
  5
3E
102
{ACAD_XDICTIONARY
360
1B2
102
}
102
{ACAD_REACTORS
330
29
102
}
330
29
100
AcDbVisualStyle
  2
Shaded
 70
    27
177
     2
291
     0
 71
     2
176
     1
 72
     2
176
     1
 73
     1
176
     1
 90
        2
176
     1
 40
0.6
176
     1
 41
30.0
176
     1
 63
     7
421
 16777215
176
     1
 74
     0
176
     1
 91
        4
176
     1
 64
     7
176
     1
 65
   257
176
     1
 75
     1
176
     1
175
     1
176
     1
 42
1.0
176
     1
 92
        8
176
     1
 66
   257
176
     1
 43
1.0
176
     1
 76
     1
176
     1
 77
     6
176
     1
 78
     2
176
     1
 67
     8
425
  7895160
176
     1
 79
     3
176
     1
170
     0
176
     1
171
     0
176
     1
290
     0
176
     1
 93
        5
176
     1
 44
0.0
176
     1
173
     0
176
     1
1001
ACAD
1000
AcDbSavedByObjectVersion
1070
     0
  0
VISUALSTYLE
  5
3D
102
{ACAD_XDICTIONARY
360
1B0
102
}
102
{ACAD_REACTORS
330
29
102
}
330
29
100
AcDbVisualStyle
  2
Shaded with edges
 70
    26
177
     2
291
     0
 71
     2
176
     1
 72
     2
176
     1
 73
     1
176
     1
 90
        2
176
     1
 40
0.6
176
     1
 41
30.0
176
     1
 63
     7
421
 16777215
176
     1
 74
     1
176
     1
 91
        2
176
     1
 64
     7
176
     1
 65
   257
176
     1
 75
     2
176
     1
175
     1
176
     1
 42
1.0
176
     1
 92
        8
176
     1
 66
   257
176
     1
 43
1.0
176
     1
 76
     1
176
     1
 77
     6
176
     1
 78
     2
176
     1
 67
     7
176
     1
 79
     3
176
     1
170
     0
176
     1
171
     0
176
     1
290
     0
176
     1
 93
        5
176
     1
 44
0.0
176
     1
173
     0
176
     1
1001
ACAD
1000
AcDbSavedByObjectVersion
1070
     0
  0
VISUALSTYLE
  5
3A
102
{ACAD_XDICTIONARY
360
1AA
102
}
102
{ACAD_REACTORS
330
29
102
}
330
29
100
AcDbVisualStyle
  2
Shades of Gray
 70
    23
177
     2
291
     0
 71
     2
176
     1
 72
     2
176
     1
 73
     3
176
     1
 90
        0
176
     1
 40
0.6
176
     1
 41
30.0
176
     1
 63
     7
421
 16777215
176
     1
 74
     2
176
     1
 91
        2
176
     1
 64
     7
176
     1
 65
     7
176
     1
 75
     1
176
     1
175
     1
176
     1
 42
40.0
176
     1
 92
        8
176
     1
 66
     7
176
     1
 43
1.0
176
     1
 76
     1
176
     1
 77
     6
176
     1
 78
     2
176
     1
 67
     7
176
     1
 79
     3
176
     1
170
     0
176
     1
171
     0
176
     1
290
     0
176
     1
 93
        1
176
     1
 44
0.0
176
     1
173
     0
176
     1
1001
ACAD
1000
AcDbSavedByObjectVersion
1070
     0
  0
VISUALSTYLE
  5
3B
102
{ACAD_XDICTIONARY
360
1AC
102
}
102
{ACAD_REACTORS
330
29
102
}
330
29
100
AcDbVisualStyle
  2
Sketchy
 70
    24
177
     2
291
     0
 71
     1
176
     1
 72
     2
176
     1
 73
     2
176
     1
 90
        0
176
     1
 40
0.6
176
     1
 41
30.0
176
     1
 63
     7
421
 16777215
176
     1
 74
     2
176
     1
 91
        2
176
     1
 64
     7
176
     1
 65
     7
176
     1
 75
     1
176
     1
175
     1
176
     1
 42
40.0
176
     1
 92
       11
176
     1
 66
     7
176
     1
 43
1.0
176
     1
 76
     1
176
     1
 77
     6
176
     1
 78
     2
176
     1
 67
     7
176
     1
 79
     6
176
     1
170
     0
176
     1
171
     0
176
     1
290
     0
176
     1
 93
        1
176
     1
 44
0.0
176
     1
173
     0
176
     1
1001
ACAD
1000
AcDbSavedByObjectVersion
1070
     0
  0
VISUALSTYLE
  5
36
102
{ACAD_XDICTIONARY
360
1A2
102
}
102
{ACAD_REACTORS
330
29
102
}
330
29
100
AcDbVisualStyle
  2
Thicken
 70
    13
177
     2
291
     1
 71
     2
176
     1
 72
     2
176
     1
 73
     0
176
     1
 90
        0
176
     1
 40
0.6
176
     1
 41
30.0
176
     1
 63
     7
421
 16777215
176
     1
 74
     1
176
     1
 91
        4
176
     1
 64
     7
176
     1
 65
   257
176
     1
 75
     1
176
     1
175
     1
176
     1
 42
1.0
176
     1
 92
       12
176
     1
 66
     7
176
     1
 43
1.0
176
     1
 76
     1
176
     1
 77
     6
176
     1
 78
     2
176
     1
 67
     7
176
     1
 79
     5
176
     1
170
     0
176
     1
171
     0
176
     1
290
     0
176
     1
 93
        1
176
     1
 44
0.0
176
     1
173
     0
176
     1
1001
ACAD
1000
AcDbSavedByObjectVersion
1070
     0
  0
VISUALSTYLE
  5
30
102
{ACAD_XDICTIONARY
360
196
102
}
102
{ACAD_REACTORS
330
29
102
}
330
29
100
AcDbVisualStyle
  2
Wireframe
 70
     5
177
     2
291
     0
 71
     0
176
     1
 72
     2
176
     1
 73
     0
176
     1
 90
        0
176
     1
 40
0.6
176
     1
 41
30.0
176
     1
 63
     7
421
 16777215
176
     1
 74
     1
176
     1
 91
        4
176
     1
 64
     7
176
     1
 65
   257
176
     1
 75
     1
176
     1
175
     1
176
     1
 42
1.0
176
     1
 92
        0
176
     1
 66
   257
176
     1
 43
1.0
176
     1
 76
     1
176
     1
 77
     6
176
     1
 78
     2
176
     1
 67
     7
176
     1
 79
     3
176
     1
170
     0
176
     1
171
     0
176
     1
290
     0
176
     1
 93
        1
176
     1
 44
0.0
176
     1
173
     0
176
     1
1001
ACAD
1000
AcDbSavedByObjectVersion
1070
     0
  0
VISUALSTYLE
  5
3C
102
{ACAD_XDICTIONARY
360
1AE
102
}
102
{ACAD_REACTORS
330
29
102
}
330
29
100
AcDbVisualStyle
  2
X-Ray
 70
    25
177
     2
291
     0
 71
     2
176
     1
 72
     2
176
     1
 73
     1
176
     1
 90
        1
176
     1
 40
0.5
176
     1
 41
30.0
176
     1
 63
     7
421
 16777215
176
     1
 74
     1
176
     1
 91
        0
176
     1
 64
     7
176
     1
 65
   257
176
     1
 75
     1
176
     1
175
     1
176
     1
 42
1.0
176
     1
 92
        8
176
     1
 66
     7
176
     1
 43
1.0
176
     1
 76
     1
176
     1
 77
     6
176
     1
 78
     2
176
     1
 67
     7
176
     1
 79
     3
176
     1
170
     0
176
     1
171
     0
176
     1
290
     0
176
     1
 93
       13
176
     1
 44
0.0
176
     1
173
     0
176
     1
1001
ACAD
1000
AcDbSavedByObjectVersion
1070
     0
  0
DICTIONARYVAR
  5
186
102
{ACAD_REACTORS
330
181
102
}
330
181
100
DictionaryVariables
280
     0
  1
1:1
  0
DICTIONARYVAR
  5
183
102
{ACAD_REACTORS
330
181
102
}
330
181
100
DictionaryVariables
280
     0
  1
STANDARD
  0
DICTIONARYVAR
  5
182
102
{ACAD_REACTORS
330
181
102
}
330
181
100
DictionaryVariables
280
     0
  1
STANDARD
  0
DICTIONARYVAR
  5
184
102
{ACAD_REACTORS
330
181
102
}
330
181
100
DictionaryVariables
280
     0
  1
Imperial24
  0
DICTIONARYVAR
  5
185
102
{ACAD_REACTORS
330
181
102
}
330
181
100
DictionaryVariables
280
     0
  1
Imperial24
  0
DICTIONARY
  5
1BE
330
6B
100
AcDbDictionary
280
     1
281
     1
  3
ACAD_XREC_ROUNDTRIP
360
1BF
  0
DICTIONARY
  5
1A
330
19
100
AcDbDictionary
280
     1
281
     1
  3
BUMPTILE
360
1C
  3
DIFFUSETILE
360
1B
  3
OPACITYTILE
360
1F
  3
REFLECTIONTILE
360
1E
  3
REFRACTIONTILE
360
20
  3
SPECULARTILE
360
1D
  0
DICTIONARY
  5
12
330
11
100
AcDbDictionary
280
     1
281
     1
  3
BUMPTILE
360
14
  3
DIFFUSETILE
360
13
  3
OPACITYTILE
360
17
  3
REFLECTIONTILE
360
16
  3
REFRACTIONTILE
360
18
  3
SPECULARTILE
360
15
  0
DICTIONARY
  5
22
330
21
100
AcDbDictionary
280
     1
281
     1
  3
BUMPTILE
360
24
  3
DIFFUSETILE
360
23
  3
OPACITYTILE
360
27
  3
REFLECTIONTILE
360
26
  3
REFRACTIONTILE
360
28
  3
SPECULARTILE
360
25
  0
DICTIONARY
  5
1BA
330
67
100
AcDbDictionary
280
     1
281
     1
  3
ACAD_XREC_ROUNDTRIP
360
1BB
  0
DICTIONARY
  5
1BC
330
69
100
AcDbDictionary
280
     1
281
     1
  3
ACAD_XREC_ROUNDTRIP
360
1BD
  0
DICTIONARY
  5
187
330
65
100
AcDbDictionary
280
     1
281
     1
  3
ACAD_ROUNDTRIP_2008_TABLESTYLE_CELLSTYLEMAP
360
188
  0
DICTIONARY
  5
194
330
2F
100
AcDbDictionary
280
     1
281
     1
  3
ACAD_XREC_ROUNDTRIP
360
195
  0
DICTIONARY
  5
192
330
2E
100
AcDbDictionary
280
     1
281
     1
  3
ACAD_XREC_ROUNDTRIP
360
193
  0
DICTIONARY
  5
1A0
330
35
100
AcDbDictionary
280
     1
281
     1
  3
ACAD_XREC_ROUNDTRIP
360
1A1
  0
DICTIONARY
  5
1A8
330
39
100
AcDbDictionary
280
     1
281
     1
  3
ACAD_XREC_ROUNDTRIP
360
1A9
  0
DICTIONARY
  5
19A
330
32
100
AcDbDictionary
280
     1
281
     1
  3
ACAD_XREC_ROUNDTRIP
360
19B
  0
DICTIONARY
  5
19E
330
34
100
AcDbDictionary
280
     1
281
     1
  3
ACAD_XREC_ROUNDTRIP
360
19F
  0
DICTIONARY
  5
1B8
330
41
100
AcDbDictionary
280
     1
281
     1
  3
ACAD_XREC_ROUNDTRIP
360
1B9
  0
DICTIONARY
  5
1A6
330
38
100
AcDbDictionary
280
     1
281
     1
  3
ACAD_XREC_ROUNDTRIP
360
1A7
  0
DICTIONARY
  5
18A
330
2A
100
AcDbDictionary
280
     1
281
     1
  3
ACAD_XREC_ROUNDTRIP
360
18B
  0
DICTIONARY
  5
18C
330
2B
100
AcDbDictionary
280
     1
281
     1
  3
ACAD_XREC_ROUNDTRIP
360
18D
  0
DICTIONARY
  5
18E
330
2C
100
AcDbDictionary
280
     1
281
     1
  3
ACAD_XREC_ROUNDTRIP
360
18F
  0
DICTIONARY
  5
190
330
2D
100
AcDbDictionary
280
     1
281
     1
  3
ACAD_XREC_ROUNDTRIP
360
191
  0
DICTIONARY
  5
198
330
31
100
AcDbDictionary
280
     1
281
     1
  3
ACAD_XREC_ROUNDTRIP
360
199
  0
DICTIONARY
  5
1B4
330
3F
100
AcDbDictionary
280
     1
281
     1
  3
ACAD_XREC_ROUNDTRIP
360
1B5
  0
DICTIONARY
  5
1A4
330
37
100
AcDbDictionary
280
     1
281
     1
  3
ACAD_XREC_ROUNDTRIP
360
1A5
  0
DICTIONARY
  5
1B6
330
40
100
AcDbDictionary
280
     1
281
     1
  3
ACAD_XREC_ROUNDTRIP
360
1B7
  0
DICTIONARY
  5
19C
330
33
100
AcDbDictionary
280
     1
281
     1
  3
ACAD_XREC_ROUNDTRIP
360
19D
  0
DICTIONARY
  5
1B2
330
3E
100
AcDbDictionary
280
     1
281
     1
  3
ACAD_XREC_ROUNDTRIP
360
1B3
  0
DICTIONARY
  5
1B0
330
3D
100
AcDbDictionary
280
     1
281
     1
  3
ACAD_XREC_ROUNDTRIP
360
1B1
  0
DICTIONARY
  5
1AA
330
3A
100
AcDbDictionary
280
     1
281
     1
  3
ACAD_XREC_ROUNDTRIP
360
1AB
  0
DICTIONARY
  5
1AC
330
3B
100
AcDbDictionary
280
     1
281
     1
  3
ACAD_XREC_ROUNDTRIP
360
1AD
  0
DICTIONARY
  5
1A2
330
36
100
AcDbDictionary
280
     1
281
     1
  3
ACAD_XREC_ROUNDTRIP
360
1A3
  0
DICTIONARY
  5
196
330
30
100
AcDbDictionary
280
     1
281
     1
  3
ACAD_XREC_ROUNDTRIP
360
197
  0
DICTIONARY
  5
1AE
330
3C
100
AcDbDictionary
280
     1
281
     1
  3
ACAD_XREC_ROUNDTRIP
360
1AF
  0
XRECORD
  5
1BF
102
{ACAD_REACTORS
330
1BE
102
}
330
1BE
100
AcDbXrecord
280
     1
102
DISPLAYNAME
  1
Imperial24
102
FLAGS
 90
        0
  0
XRECORD
  5
1C
102
{ACAD_REACTORS
330
1A
102
}
330
1A
100
AcDbXrecord
280
     1
270
     1
271
     1
  0
XRECORD
  5
1B
102
{ACAD_REACTORS
330
1A
102
}
330
1A
100
AcDbXrecord
280
     1
270
     1
271
     1
  0
XRECORD
  5
1F
102
{ACAD_REACTORS
330
1A
102
}
330
1A
100
AcDbXrecord
280
     1
270
     1
271
     1
  0
XRECORD
  5
1E
102
{ACAD_REACTORS
330
1A
102
}
330
1A
100
AcDbXrecord
280
     1
270
     1
271
     1
  0
XRECORD
  5
20
102
{ACAD_REACTORS
330
1A
102
}
330
1A
100
AcDbXrecord
280
     1
270
     1
271
     1
  0
XRECORD
  5
1D
102
{ACAD_REACTORS
330
1A
102
}
330
1A
100
AcDbXrecord
280
     1
270
     1
271
     1
  0
XRECORD
  5
14
102
{ACAD_REACTORS
330
12
102
}
330
12
100
AcDbXrecord
280
     1
270
     1
271
     1
  0
XRECORD
  5
13
102
{ACAD_REACTORS
330
12
102
}
330
12
100
AcDbXrecord
280
     1
270
     1
271
     1
  0
XRECORD
  5
17
102
{ACAD_REACTORS
330
12
102
}
330
12
100
AcDbXrecord
280
     1
270
     1
271
     1
  0
XRECORD
  5
16
102
{ACAD_REACTORS
330
12
102
}
330
12
100
AcDbXrecord
280
     1
270
     1
271
     1
  0
XRECORD
  5
18
102
{ACAD_REACTORS
330
12
102
}
330
12
100
AcDbXrecord
280
     1
270
     1
271
     1
  0
XRECORD
  5
15
102
{ACAD_REACTORS
330
12
102
}
330
12
100
AcDbXrecord
280
     1
270
     1
271
     1
  0
XRECORD
  5
24
102
{ACAD_REACTORS
330
22
102
}
330
22
100
AcDbXrecord
280
     1
270
     1
271
     1
  0
XRECORD
  5
23
102
{ACAD_REACTORS
330
22
102
}
330
22
100
AcDbXrecord
280
     1
270
     1
271
     1
  0
XRECORD
  5
27
102
{ACAD_REACTORS
330
22
102
}
330
22
100
AcDbXrecord
280
     1
270
     1
271
     1
  0
XRECORD
  5
26
102
{ACAD_REACTORS
330
22
102
}
330
22
100
AcDbXrecord
280
     1
270
     1
271
     1
  0
XRECORD
  5
28
102
{ACAD_REACTORS
330
22
102
}
330
22
100
AcDbXrecord
280
     1
270
     1
271
     1
  0
XRECORD
  5
25
102
{ACAD_REACTORS
330
22
102
}
330
22
100
AcDbXrecord
280
     1
270
     1
271
     1
  0
XRECORD
  5
1BB
102
{ACAD_REACTORS
330
1BA
102
}
330
1BA
100
AcDbXrecord
280
     1
102
ACAD_ROUNDTRIP_2012_MLEADER_STYLE
298
     1
  0
XRECORD
  5
1BD
102
{ACAD_REACTORS
330
1BC
102
}
330
1BC
100
AcDbXrecord
280
     1
102
DISPLAYNAME
  1
Imperial24
102
FLAGS
 90
        0
  0
CELLSTYLEMAP
  5
188
102
{ACAD_REACTORS
330
187
102
}
330
187
100
AcDbCellStyleMap
 90
        3
300
CELLSTYLE
  1
TABLEFORMAT_BEGIN
 90
        5
170
     1
 91
        0
 92
    32768
 62
   257
 93
        1
300
CONTENTFORMAT
  1
CONTENTFORMAT_BEGIN
 90
        0
 91
        0
 92
      512
 93
        0
300

 40
0.0
140
1.0
 94
        5
 62
     0
340
55
144
0.25
309
CONTENTFORMAT_END
171
     0
 94
        0
309
TABLEFORMAT_END
  1
CELLSTYLE_BEGIN
 90
        1
 91
        1
300
_TITLE
309
CELLSTYLE_END
300
CELLSTYLE
  1
TABLEFORMAT_BEGIN
 90
        5
170
     1
 91
        0
 92
        0
 62
   257
 93
        1
300
CONTENTFORMAT
  1
CONTENTFORMAT_BEGIN
 90
        0
 91
        0
 92
      512
 93
        0
300

 40
0.0
140
1.0
 94
        5
 62
     0
340
55
144
0.18
309
CONTENTFORMAT_END
171
     0
 94
        0
309
TABLEFORMAT_END
  1
CELLSTYLE_BEGIN
 90
        2
 91
        1
300
_HEADER
309
CELLSTYLE_END
300
CELLSTYLE
  1
TABLEFORMAT_BEGIN
 90
        5
170
     1
 91
        0
 92
        0
 62
   257
 93
        1
300
CONTENTFORMAT
  1
CONTENTFORMAT_BEGIN
 90
        0
 91
        0
 92
      512
 93
        0
300

 40
0.0
140
1.0
 94
        2
 62
     0
340
55
144
0.18
309
CONTENTFORMAT_END
171
     0
 94
        0
309
TABLEFORMAT_END
  1
CELLSTYLE_BEGIN
 90
        3
 91
        2
300
_DATA
309
CELLSTYLE_END
  0
XRECORD
  5
195
102
{ACAD_REACTORS
330
194
102
}
330
194
100
AcDbXrecord
280
     1
102
RTVSPost2010Prop28
280
     1
102
RTVSPost2010PropOp28
 70
     1
102
RTVSPost2010Prop29
280
     1
102
RTVSPost2010PropOp29
 70
     1
102
RTVSPost2010Prop30
280
     0
102
RTVSPost2010PropOp30
 70
     1
102
RTVSPost2010Prop31
280
     0
102
RTVSPost2010PropOp31
 70
     1
102
RTVSPost2010Prop32
280
     0
102
RTVSPost2010PropOp32
 70
     1
102
RTVSPost2010Prop33
280
     0
102
RTVSPost2010PropOp33
 70
     1
102
RTVSPost2010Prop34
280
     0
102
RTVSPost2010PropOp34
 70
     1
102
RTVSPost2010Prop35
280
     0
102
RTVSPost2010PropOp35
 70
     1
102
RTVSPost2010Prop36
280
     0
102
RTVSPost2010PropOp36
 70
     1
102
RTVSPost2010Prop37
 90
       50
102
RTVSPost2010PropOp37
 70
     1
102
RTVSPost2010Prop38
140
0.0
102
RTVSPost2010PropOp38
 70
     1
102
RTVSPost2010Prop39
140
1.0
102
RTVSPost2010PropOp39
 70
     1
102
RTVSPost2010Prop40
 90
        0
102
RTVSPost2010PropOp40
 70
     1
102
RTVSPost2010Prop41ColorIndex
 90
       18
102
RTVSPost2010Prop41ColorRGB
 90
        0
102
RTVSPost2010PropOp41
 70
     1
102
RTVSPost2010Prop42
 90
       50
102
RTVSPost2010PropOp42
 70
     1
102
RTVSPost2010Prop43
 90
        3
102
RTVSPost2010PropOp43
 70
     1
102
RTVSPost2010Prop44ColorIndex
 90
        5
102
RTVSPost2010Prop44ColorRGB
 90
      255
102
RTVSPost2010PropOp44
 70
     1
102
RTVSPost2010Prop45
280
     0
102
RTVSPost2010PropOp45
 70
     1
102
RTVSPost2010Prop46
 90
       50
102
RTVSPost2010PropOp46
 70
     1
102
RTVSPost2010Prop47
 90
       50
102
RTVSPost2010PropOp47
 70
     1
102
RTVSPost2010Prop48
 90
       50
102
RTVSPost2010PropOp48
 70
     1
102
RTVSPost2010Prop49
280
     0
102
RTVSPost2010PropOp49
 70
     1
102
RTVSPost2010Prop50
 90
       50
102
RTVSPost2010PropOp50
 70
     1
102
RTVSPost2010Prop51ColorIndex
 90
      256
102
RTVSPost2010Prop51ColorRGB
 90
-16777216
102
RTVSPost2010PropOp51
 70
     0
102
RTVSPost2010Prop52
140
1.0
102
RTVSPost2010PropOp52
 70
     0
102
RTVSPost2010Prop53
 90
        2
102
RTVSPost2010PropOp53
 70
     1
102
RTVSPost2010Prop54
  1
strokes_ogs.tif
102
RTVSPost2010PropOp54
 70
     1
102
RTVSPost2010Prop55
280
     0
102
RTVSPost2010PropOp55
 70
     1
102
RTVSPost2010Prop56
140
1.0
102
RTVSPost2010PropOp56
 70
     1
102
RTVSPost2010Prop57
140
1.0
102
RTVSPost2010PropOp57
 70
     1
  0
XRECORD
  5
193
102
{ACAD_REACTORS
330
192
102
}
330
192
100
AcDbXrecord
280
     1
102
RTVSPost2010Prop28
280
     0
102
RTVSPost2010PropOp28
 70
     1
102
RTVSPost2010Prop29
280
     1
102
RTVSPost2010PropOp29
 70
     1
102
RTVSPost2010Prop30
280
     1
102
RTVSPost2010PropOp30
 70
     1
102
RTVSPost2010Prop31
280
     0
102
RTVSPost2010PropOp31
 70
     1
102
RTVSPost2010Prop32
280
     0
102
RTVSPost2010PropOp32
 70
     1
102
RTVSPost2010Prop33
280
     0
102
RTVSPost2010PropOp33
 70
     1
102
RTVSPost2010Prop34
280
     0
102
RTVSPost2010PropOp34
 70
     1
102
RTVSPost2010Prop35
280
     0
102
RTVSPost2010PropOp35
 70
     1
102
RTVSPost2010Prop36
280
     0
102
RTVSPost2010PropOp36
 70
     1
102
RTVSPost2010Prop37
 90
       50
102
RTVSPost2010PropOp37
 70
     1
102
RTVSPost2010Prop38
140
0.0
102
RTVSPost2010PropOp38
 70
     1
102
RTVSPost2010Prop39
140
1.0
102
RTVSPost2010PropOp39
 70
     1
102
RTVSPost2010Prop40
 90
        0
102
RTVSPost2010PropOp40
 70
     1
102
RTVSPost2010Prop41ColorIndex
 90
       18
102
RTVSPost2010Prop41ColorRGB
 90
        0
102
RTVSPost2010PropOp41
 70
     1
102
RTVSPost2010Prop42
 90
       50
102
RTVSPost2010PropOp42
 70
     1
102
RTVSPost2010Prop43
 90
        3
102
RTVSPost2010PropOp43
 70
     1
102
RTVSPost2010Prop44ColorIndex
 90
        5
102
RTVSPost2010Prop44ColorRGB
 90
      255
102
RTVSPost2010PropOp44
 70
     1
102
RTVSPost2010Prop45
280
     0
102
RTVSPost2010PropOp45
 70
     1
102
RTVSPost2010Prop46
 90
       50
102
RTVSPost2010PropOp46
 70
     1
102
RTVSPost2010Prop47
 90
       50
102
RTVSPost2010PropOp47
 70
     1
102
RTVSPost2010Prop48
 90
       50
102
RTVSPost2010PropOp48
 70
     1
102
RTVSPost2010Prop49
280
     0
102
RTVSPost2010PropOp49
 70
     1
102
RTVSPost2010Prop50
 90
       50
102
RTVSPost2010PropOp50
 70
     1
102
RTVSPost2010Prop51ColorIndex
 90
      256
102
RTVSPost2010Prop51ColorRGB
 90
-16777216
102
RTVSPost2010PropOp51
 70
     0
102
RTVSPost2010Prop52
140
1.0
102
RTVSPost2010PropOp52
 70
     0
102
RTVSPost2010Prop53
 90
        2
102
RTVSPost2010PropOp53
 70
     1
102
RTVSPost2010Prop54
  1
strokes_ogs.tif
102
RTVSPost2010PropOp54
 70
     1
102
RTVSPost2010Prop55
280
     0
102
RTVSPost2010PropOp55
 70
     1
102
RTVSPost2010Prop56
140
1.0
102
RTVSPost2010PropOp56
 70
     1
102
RTVSPost2010Prop57
140
1.0
102
RTVSPost2010PropOp57
 70
     1
  0
XRECORD
  5
1A1
102
{ACAD_REACTORS
330
1A0
102
}
330
1A0
100
AcDbXrecord
280
     1
102
RTVSPost2010Prop28
280
     0
102
RTVSPost2010PropOp28
 70
     1
102
RTVSPost2010Prop29
280
     1
102
RTVSPost2010PropOp29
 70
     1
102
RTVSPost2010Prop30
280
     1
102
RTVSPost2010PropOp30
 70
     1
102
RTVSPost2010Prop31
280
     0
102
RTVSPost2010PropOp31
 70
     1
102
RTVSPost2010Prop32
280
     0
102
RTVSPost2010PropOp32
 70
     1
102
RTVSPost2010Prop33
280
     0
102
RTVSPost2010PropOp33
 70
     1
102
RTVSPost2010Prop34
280
     0
102
RTVSPost2010PropOp34
 70
     1
102
RTVSPost2010Prop35
280
     0
102
RTVSPost2010PropOp35
 70
     1
102
RTVSPost2010Prop36
280
     0
102
RTVSPost2010PropOp36
 70
     1
102
RTVSPost2010Prop37
 90
       50
102
RTVSPost2010PropOp37
 70
     1
102
RTVSPost2010Prop38
140
0.0
102
RTVSPost2010PropOp38
 70
     1
102
RTVSPost2010Prop39
140
1.0
102
RTVSPost2010PropOp39
 70
     1
102
RTVSPost2010Prop40
 90
        0
102
RTVSPost2010PropOp40
 70
     1
102
RTVSPost2010Prop41ColorIndex
 90
       18
102
RTVSPost2010Prop41ColorRGB
 90
        0
102
RTVSPost2010PropOp41
 70
     1
102
RTVSPost2010Prop42
 90
       50
102
RTVSPost2010PropOp42
 70
     1
102
RTVSPost2010Prop43
 90
        3
102
RTVSPost2010PropOp43
 70
     1
102
RTVSPost2010Prop44ColorIndex
 90
        5
102
RTVSPost2010Prop44ColorRGB
 90
      255
102
RTVSPost2010PropOp44
 70
     1
102
RTVSPost2010Prop45
280
     0
102
RTVSPost2010PropOp45
 70
     1
102
RTVSPost2010Prop46
 90
       50
102
RTVSPost2010PropOp46
 70
     1
102
RTVSPost2010Prop47
 90
       50
102
RTVSPost2010PropOp47
 70
     1
102
RTVSPost2010Prop48
 90
       50
102
RTVSPost2010PropOp48
 70
     1
102
RTVSPost2010Prop49
280
     0
102
RTVSPost2010PropOp49
 70
     1
102
RTVSPost2010Prop50
 90
       50
102
RTVSPost2010PropOp50
 70
     1
102
RTVSPost2010Prop51ColorIndex
 90
      256
102
RTVSPost2010Prop51ColorRGB
 90
-16777216
102
RTVSPost2010PropOp51
 70
     0
102
RTVSPost2010Prop52
140
1.0
102
RTVSPost2010PropOp52
 70
     0
102
RTVSPost2010Prop53
 90
        2
102
RTVSPost2010PropOp53
 70
     1
102
RTVSPost2010Prop54
  1
strokes_ogs.tif
102
RTVSPost2010PropOp54
 70
     1
102
RTVSPost2010Prop55
280
     0
102
RTVSPost2010PropOp55
 70
     1
102
RTVSPost2010Prop56
140
1.0
102
RTVSPost2010PropOp56
 70
     1
102
RTVSPost2010Prop57
140
1.0
102
RTVSPost2010PropOp57
 70
     1
  0
XRECORD
  5
1A9
102
{ACAD_REACTORS
330
1A8
102
}
330
1A8
100
AcDbXrecord
280
     1
102
RTVSPost2010Prop28
280
     0
102
RTVSPost2010PropOp28
 70
     1
102
RTVSPost2010Prop29
280
     1
102
RTVSPost2010PropOp29
 70
     1
102
RTVSPost2010Prop30
280
     1
102
RTVSPost2010PropOp30
 70
     1
102
RTVSPost2010Prop31
280
     0
102
RTVSPost2010PropOp31
 70
     1
102
RTVSPost2010Prop32
280
     0
102
RTVSPost2010PropOp32
 70
     1
102
RTVSPost2010Prop33
280
     0
102
RTVSPost2010PropOp33
 70
     1
102
RTVSPost2010Prop34
280
     0
102
RTVSPost2010PropOp34
 70
     1
102
RTVSPost2010Prop35
280
     0
102
RTVSPost2010PropOp35
 70
     1
102
RTVSPost2010Prop36
280
     0
102
RTVSPost2010PropOp36
 70
     1
102
RTVSPost2010Prop37
 90
       50
102
RTVSPost2010PropOp37
 70
     1
102
RTVSPost2010Prop38
140
0.0
102
RTVSPost2010PropOp38
 70
     1
102
RTVSPost2010Prop39
140
1.0
102
RTVSPost2010PropOp39
 70
     1
102
RTVSPost2010Prop40
 90
        0
102
RTVSPost2010PropOp40
 70
     1
102
RTVSPost2010Prop41ColorIndex
 90
       18
102
RTVSPost2010Prop41ColorRGB
 90
        0
102
RTVSPost2010PropOp41
 70
     1
102
RTVSPost2010Prop42
 90
       50
102
RTVSPost2010PropOp42
 70
     1
102
RTVSPost2010Prop43
 90
        3
102
RTVSPost2010PropOp43
 70
     1
102
RTVSPost2010Prop44ColorIndex
 90
        5
102
RTVSPost2010Prop44ColorRGB
 90
      255
102
RTVSPost2010PropOp44
 70
     1
102
RTVSPost2010Prop45
280
     0
102
RTVSPost2010PropOp45
 70
     1
102
RTVSPost2010Prop46
 90
       50
102
RTVSPost2010PropOp46
 70
     1
102
RTVSPost2010Prop47
 90
       50
102
RTVSPost2010PropOp47
 70
     1
102
RTVSPost2010Prop48
 90
       50
102
RTVSPost2010PropOp48
 70
     1
102
RTVSPost2010Prop49
280
     0
102
RTVSPost2010PropOp49
 70
     1
102
RTVSPost2010Prop50
 90
       50
102
RTVSPost2010PropOp50
 70
     1
102
RTVSPost2010Prop51ColorIndex
 90
      256
102
RTVSPost2010Prop51ColorRGB
 90
-16777216
102
RTVSPost2010PropOp51
 70
     0
102
RTVSPost2010Prop52
140
1.0
102
RTVSPost2010PropOp52
 70
     0
102
RTVSPost2010Prop53
 90
        2
102
RTVSPost2010PropOp53
 70
     1
102
RTVSPost2010Prop54
  1
strokes_ogs.tif
102
RTVSPost2010PropOp54
 70
     1
102
RTVSPost2010Prop55
280
     0
102
RTVSPost2010PropOp55
 70
     1
102
RTVSPost2010Prop56
140
1.0
102
RTVSPost2010PropOp56
 70
     1
102
RTVSPost2010Prop57
140
1.0
102
RTVSPost2010PropOp57
 70
     1
  0
XRECORD
  5
19B
102
{ACAD_REACTORS
330
19A
102
}
330
19A
100
AcDbXrecord
280
     1
102
RTVSPost2010Prop28
280
     0
102
RTVSPost2010PropOp28
 70
     1
102
RTVSPost2010Prop29
280
     1
102
RTVSPost2010PropOp29
 70
     1
102
RTVSPost2010Prop30
280
     1
102
RTVSPost2010PropOp30
 70
     1
102
RTVSPost2010Prop31
280
     0
102
RTVSPost2010PropOp31
 70
     1
102
RTVSPost2010Prop32
280
     0
102
RTVSPost2010PropOp32
 70
     1
102
RTVSPost2010Prop33
280
     0
102
RTVSPost2010PropOp33
 70
     1
102
RTVSPost2010Prop34
280
     0
102
RTVSPost2010PropOp34
 70
     1
102
RTVSPost2010Prop35
280
     0
102
RTVSPost2010PropOp35
 70
     1
102
RTVSPost2010Prop36
280
     0
102
RTVSPost2010PropOp36
 70
     1
102
RTVSPost2010Prop37
 90
       50
102
RTVSPost2010PropOp37
 70
     1
102
RTVSPost2010Prop38
140
0.0
102
RTVSPost2010PropOp38
 70
     1
102
RTVSPost2010Prop39
140
1.0
102
RTVSPost2010PropOp39
 70
     1
102
RTVSPost2010Prop40
 90
        0
102
RTVSPost2010PropOp40
 70
     1
102
RTVSPost2010Prop41ColorIndex
 90
       18
102
RTVSPost2010Prop41ColorRGB
 90
        0
102
RTVSPost2010PropOp41
 70
     1
102
RTVSPost2010Prop42
 90
       50
102
RTVSPost2010PropOp42
 70
     1
102
RTVSPost2010Prop43
 90
        3
102
RTVSPost2010PropOp43
 70
     1
102
RTVSPost2010Prop44ColorIndex
 90
        5
102
RTVSPost2010Prop44ColorRGB
 90
      255
102
RTVSPost2010PropOp44
 70
     1
102
RTVSPost2010Prop45
280
     0
102
RTVSPost2010PropOp45
 70
     1
102
RTVSPost2010Prop46
 90
       50
102
RTVSPost2010PropOp46
 70
     1
102
RTVSPost2010Prop47
 90
       50
102
RTVSPost2010PropOp47
 70
     1
102
RTVSPost2010Prop48
 90
       50
102
RTVSPost2010PropOp48
 70
     1
102
RTVSPost2010Prop49
280
     0
102
RTVSPost2010PropOp49
 70
     1
102
RTVSPost2010Prop50
 90
       50
102
RTVSPost2010PropOp50
 70
     1
102
RTVSPost2010Prop51ColorIndex
 90
      256
102
RTVSPost2010Prop51ColorRGB
 90
-16777216
102
RTVSPost2010PropOp51
 70
     0
102
RTVSPost2010Prop52
140
1.0
102
RTVSPost2010PropOp52
 70
     0
102
RTVSPost2010Prop53
 90
        2
102
RTVSPost2010PropOp53
 70
     1
102
RTVSPost2010Prop54
  1
strokes_ogs.tif
102
RTVSPost2010PropOp54
 70
     1
102
RTVSPost2010Prop55
280
     0
102
RTVSPost2010PropOp55
 70
     1
102
RTVSPost2010Prop56
140
1.0
102
RTVSPost2010PropOp56
 70
     1
102
RTVSPost2010Prop57
140
1.0
102
RTVSPost2010PropOp57
 70
     1
  0
XRECORD
  5
19F
102
{ACAD_REACTORS
330
19E
102
}
330
19E
100
AcDbXrecord
280
     1
102
RTVSPost2010Prop28
280
     0
102
RTVSPost2010PropOp28
 70
     1
102
RTVSPost2010Prop29
280
     1
102
RTVSPost2010PropOp29
 70
     1
102
RTVSPost2010Prop30
280
     1
102
RTVSPost2010PropOp30
 70
     1
102
RTVSPost2010Prop31
280
     0
102
RTVSPost2010PropOp31
 70
     1
102
RTVSPost2010Prop32
280
     0
102
RTVSPost2010PropOp32
 70
     1
102
RTVSPost2010Prop33
280
     0
102
RTVSPost2010PropOp33
 70
     1
102
RTVSPost2010Prop34
280
     0
102
RTVSPost2010PropOp34
 70
     1
102
RTVSPost2010Prop35
280
     0
102
RTVSPost2010PropOp35
 70
     1
102
RTVSPost2010Prop36
280
     0
102
RTVSPost2010PropOp36
 70
     1
102
RTVSPost2010Prop37
 90
       50
102
RTVSPost2010PropOp37
 70
     1
102
RTVSPost2010Prop38
140
0.0
102
RTVSPost2010PropOp38
 70
     1
102
RTVSPost2010Prop39
140
1.0
102
RTVSPost2010PropOp39
 70
     1
102
RTVSPost2010Prop40
 90
        0
102
RTVSPost2010PropOp40
 70
     1
102
RTVSPost2010Prop41ColorIndex
 90
       18
102
RTVSPost2010Prop41ColorRGB
 90
        0
102
RTVSPost2010PropOp41
 70
     1
102
RTVSPost2010Prop42
 90
       50
102
RTVSPost2010PropOp42
 70
     1
102
RTVSPost2010Prop43
 90
        3
102
RTVSPost2010PropOp43
 70
     1
102
RTVSPost2010Prop44ColorIndex
 90
        5
102
RTVSPost2010Prop44ColorRGB
 90
      255
102
RTVSPost2010PropOp44
 70
     1
102
RTVSPost2010Prop45
280
     0
102
RTVSPost2010PropOp45
 70
     1
102
RTVSPost2010Prop46
 90
       50
102
RTVSPost2010PropOp46
 70
     1
102
RTVSPost2010Prop47
 90
       50
102
RTVSPost2010PropOp47
 70
     1
102
RTVSPost2010Prop48
 90
       50
102
RTVSPost2010PropOp48
 70
     1
102
RTVSPost2010Prop49
280
     0
102
RTVSPost2010PropOp49
 70
     1
102
RTVSPost2010Prop50
 90
       50
102
RTVSPost2010PropOp50
 70
     1
102
RTVSPost2010Prop51ColorIndex
 90
      256
102
RTVSPost2010Prop51ColorRGB
 90
-16777216
102
RTVSPost2010PropOp51
 70
     0
102
RTVSPost2010Prop52
140
1.0
102
RTVSPost2010PropOp52
 70
     0
102
RTVSPost2010Prop53
 90
        2
102
RTVSPost2010PropOp53
 70
     1
102
RTVSPost2010Prop54
  1
strokes_ogs.tif
102
RTVSPost2010PropOp54
 70
     1
102
RTVSPost2010Prop55
280
     0
102
RTVSPost2010PropOp55
 70
     1
102
RTVSPost2010Prop56
140
1.0
102
RTVSPost2010PropOp56
 70
     1
102
RTVSPost2010Prop57
140
1.0
102
RTVSPost2010PropOp57
 70
     1
  0
XRECORD
  5
1B9
102
{ACAD_REACTORS
330
1B8
102
}
330
1B8
100
AcDbXrecord
280
     1
102
RTVSPost2010Prop28
280
     0
102
RTVSPost2010PropOp28
 70
     0
102
RTVSPost2010Prop29
280
     1
102
RTVSPost2010PropOp29
 70
     0
102
RTVSPost2010Prop30
280
     1
102
RTVSPost2010PropOp30
 70
     0
102
RTVSPost2010Prop31
280
     0
102
RTVSPost2010PropOp31
 70
     0
102
RTVSPost2010Prop32
280
     0
102
RTVSPost2010PropOp32
 70
     0
102
RTVSPost2010Prop33
280
     0
102
RTVSPost2010PropOp33
 70
     0
102
RTVSPost2010Prop34
280
     0
102
RTVSPost2010PropOp34
 70
     0
102
RTVSPost2010Prop35
280
     0
102
RTVSPost2010PropOp35
 70
     0
102
RTVSPost2010Prop36
280
     0
102
RTVSPost2010PropOp36
 70
     0
102
RTVSPost2010Prop37
 90
       50
102
RTVSPost2010PropOp37
 70
     0
102
RTVSPost2010Prop38
140
0.0
102
RTVSPost2010PropOp38
 70
     0
102
RTVSPost2010Prop39
140
1.0
102
RTVSPost2010PropOp39
 70
     0
102
RTVSPost2010Prop40
 90
        0
102
RTVSPost2010PropOp40
 70
     0
102
RTVSPost2010Prop41ColorIndex
 90
       18
102
RTVSPost2010Prop41ColorRGB
 90
        0
102
RTVSPost2010PropOp41
 70
     0
102
RTVSPost2010Prop42
 90
       50
102
RTVSPost2010PropOp42
 70
     0
102
RTVSPost2010Prop43
 90
        3
102
RTVSPost2010PropOp43
 70
     0
102
RTVSPost2010Prop44ColorIndex
 90
        5
102
RTVSPost2010Prop44ColorRGB
 90
      255
102
RTVSPost2010PropOp44
 70
     0
102
RTVSPost2010Prop45
280
     0
102
RTVSPost2010PropOp45
 70
     0
102
RTVSPost2010Prop46
 90
       50
102
RTVSPost2010PropOp46
 70
     0
102
RTVSPost2010Prop47
 90
       50
102
RTVSPost2010PropOp47
 70
     0
102
RTVSPost2010Prop48
 90
       50
102
RTVSPost2010PropOp48
 70
     0
102
RTVSPost2010Prop49
280
     0
102
RTVSPost2010PropOp49
 70
     0
102
RTVSPost2010Prop50
 90
       50
102
RTVSPost2010PropOp50
 70
     0
102
RTVSPost2010Prop51ColorIndex
 90
      256
102
RTVSPost2010Prop51ColorRGB
 90
-16777216
102
RTVSPost2010PropOp51
 70
     0
102
RTVSPost2010Prop52
140
1.0
102
RTVSPost2010PropOp52
 70
     0
102
RTVSPost2010Prop53
 90
        2
102
RTVSPost2010PropOp53
 70
     0
102
RTVSPost2010Prop54
  1
strokes_ogs.tif
102
RTVSPost2010PropOp54
 70
     0
102
RTVSPost2010Prop55
280
     0
102
RTVSPost2010PropOp55
 70
     0
102
RTVSPost2010Prop56
140
1.0
102
RTVSPost2010PropOp56
 70
     0
102
RTVSPost2010Prop57
140
1.0
102
RTVSPost2010PropOp57
 70
     0
  0
XRECORD
  5
1A7
102
{ACAD_REACTORS
330
1A6
102
}
330
1A6
100
AcDbXrecord
280
     1
102
RTVSPost2010Prop28
280
     0
102
RTVSPost2010PropOp28
 70
     1
102
RTVSPost2010Prop29
280
     1
102
RTVSPost2010PropOp29
 70
     1
102
RTVSPost2010Prop30
280
     1
102
RTVSPost2010PropOp30
 70
     1
102
RTVSPost2010Prop31
280
     0
102
RTVSPost2010PropOp31
 70
     1
102
RTVSPost2010Prop32
280
     0
102
RTVSPost2010PropOp32
 70
     1
102
RTVSPost2010Prop33
280
     0
102
RTVSPost2010PropOp33
 70
     1
102
RTVSPost2010Prop34
280
     0
102
RTVSPost2010PropOp34
 70
     1
102
RTVSPost2010Prop35
280
     0
102
RTVSPost2010PropOp35
 70
     1
102
RTVSPost2010Prop36
280
     0
102
RTVSPost2010PropOp36
 70
     1
102
RTVSPost2010Prop37
 90
       50
102
RTVSPost2010PropOp37
 70
     1
102
RTVSPost2010Prop38
140
0.0
102
RTVSPost2010PropOp38
 70
     1
102
RTVSPost2010Prop39
140
1.0
102
RTVSPost2010PropOp39
 70
     1
102
RTVSPost2010Prop40
 90
        0
102
RTVSPost2010PropOp40
 70
     1
102
RTVSPost2010Prop41ColorIndex
 90
       18
102
RTVSPost2010Prop41ColorRGB
 90
        0
102
RTVSPost2010PropOp41
 70
     1
102
RTVSPost2010Prop42
 90
       50
102
RTVSPost2010PropOp42
 70
     1
102
RTVSPost2010Prop43
 90
        3
102
RTVSPost2010PropOp43
 70
     1
102
RTVSPost2010Prop44ColorIndex
 90
        5
102
RTVSPost2010Prop44ColorRGB
 90
      255
102
RTVSPost2010PropOp44
 70
     1
102
RTVSPost2010Prop45
280
     0
102
RTVSPost2010PropOp45
 70
     1
102
RTVSPost2010Prop46
 90
       50
102
RTVSPost2010PropOp46
 70
     1
102
RTVSPost2010Prop47
 90
       50
102
RTVSPost2010PropOp47
 70
     1
102
RTVSPost2010Prop48
 90
       50
102
RTVSPost2010PropOp48
 70
     1
102
RTVSPost2010Prop49
280
     0
102
RTVSPost2010PropOp49
 70
     1
102
RTVSPost2010Prop50
 90
       50
102
RTVSPost2010PropOp50
 70
     1
102
RTVSPost2010Prop51ColorIndex
 90
      256
102
RTVSPost2010Prop51ColorRGB
 90
-16777216
102
RTVSPost2010PropOp51
 70
     0
102
RTVSPost2010Prop52
140
1.0
102
RTVSPost2010PropOp52
 70
     0
102
RTVSPost2010Prop53
 90
        2
102
RTVSPost2010PropOp53
 70
     1
102
RTVSPost2010Prop54
  1
strokes_ogs.tif
102
RTVSPost2010PropOp54
 70
     1
102
RTVSPost2010Prop55
280
     0
102
RTVSPost2010PropOp55
 70
     1
102
RTVSPost2010Prop56
140
1.0
102
RTVSPost2010PropOp56
 70
     1
102
RTVSPost2010Prop57
140
1.0
102
RTVSPost2010PropOp57
 70
     1
  0
XRECORD
  5
18B
102
{ACAD_REACTORS
330
18A
102
}
330
18A
100
AcDbXrecord
280
     1
102
RTVSPost2010Prop28
280
     0
102
RTVSPost2010PropOp28
 70
     1
102
RTVSPost2010Prop29
280
     1
102
RTVSPost2010PropOp29
 70
     1
102
RTVSPost2010Prop30
280
     1
102
RTVSPost2010PropOp30
 70
     1
102
RTVSPost2010Prop31
280
     0
102
RTVSPost2010PropOp31
 70
     1
102
RTVSPost2010Prop32
280
     0
102
RTVSPost2010PropOp32
 70
     1
102
RTVSPost2010Prop33
280
     0
102
RTVSPost2010PropOp33
 70
     1
102
RTVSPost2010Prop34
280
     0
102
RTVSPost2010PropOp34
 70
     1
102
RTVSPost2010Prop35
280
     0
102
RTVSPost2010PropOp35
 70
     1
102
RTVSPost2010Prop36
280
     0
102
RTVSPost2010PropOp36
 70
     1
102
RTVSPost2010Prop37
 90
       50
102
RTVSPost2010PropOp37
 70
     1
102
RTVSPost2010Prop38
140
0.0
102
RTVSPost2010PropOp38
 70
     1
102
RTVSPost2010Prop39
140
1.0
102
RTVSPost2010PropOp39
 70
     1
102
RTVSPost2010Prop40
 90
        0
102
RTVSPost2010PropOp40
 70
     1
102
RTVSPost2010Prop41ColorIndex
 90
       18
102
RTVSPost2010Prop41ColorRGB
 90
        0
102
RTVSPost2010PropOp41
 70
     1
102
RTVSPost2010Prop42
 90
       50
102
RTVSPost2010PropOp42
 70
     1
102
RTVSPost2010Prop43
 90
        3
102
RTVSPost2010PropOp43
 70
     1
102
RTVSPost2010Prop44ColorIndex
 90
        5
102
RTVSPost2010Prop44ColorRGB
 90
      255
102
RTVSPost2010PropOp44
 70
     1
102
RTVSPost2010Prop45
280
     0
102
RTVSPost2010PropOp45
 70
     1
102
RTVSPost2010Prop46
 90
       50
102
RTVSPost2010PropOp46
 70
     1
102
RTVSPost2010Prop47
 90
       50
102
RTVSPost2010PropOp47
 70
     1
102
RTVSPost2010Prop48
 90
       50
102
RTVSPost2010PropOp48
 70
     1
102
RTVSPost2010Prop49
280
     0
102
RTVSPost2010PropOp49
 70
     1
102
RTVSPost2010Prop50
 90
       50
102
RTVSPost2010PropOp50
 70
     1
102
RTVSPost2010Prop51ColorIndex
 90
      256
102
RTVSPost2010Prop51ColorRGB
 90
-16777216
102
RTVSPost2010PropOp51
 70
     0
102
RTVSPost2010Prop52
140
1.0
102
RTVSPost2010PropOp52
 70
     0
102
RTVSPost2010Prop53
 90
        2
102
RTVSPost2010PropOp53
 70
     1
102
RTVSPost2010Prop54
  1
strokes_ogs.tif
102
RTVSPost2010PropOp54
 70
     1
102
RTVSPost2010Prop55
280
     0
102
RTVSPost2010PropOp55
 70
     1
102
RTVSPost2010Prop56
140
1.0
102
RTVSPost2010PropOp56
 70
     1
102
RTVSPost2010Prop57
140
1.0
102
RTVSPost2010PropOp57
 70
     1
  0
XRECORD
  5
18D
102
{ACAD_REACTORS
330
18C
102
}
330
18C
100
AcDbXrecord
280
     1
102
RTVSPost2010Prop28
280
     0
102
RTVSPost2010PropOp28
 70
     1
102
RTVSPost2010Prop29
280
     1
102
RTVSPost2010PropOp29
 70
     1
102
RTVSPost2010Prop30
280
     1
102
RTVSPost2010PropOp30
 70
     1
102
RTVSPost2010Prop31
280
     0
102
RTVSPost2010PropOp31
 70
     1
102
RTVSPost2010Prop32
280
     0
102
RTVSPost2010PropOp32
 70
     1
102
RTVSPost2010Prop33
280
     0
102
RTVSPost2010PropOp33
 70
     1
102
RTVSPost2010Prop34
280
     0
102
RTVSPost2010PropOp34
 70
     1
102
RTVSPost2010Prop35
280
     0
102
RTVSPost2010PropOp35
 70
     1
102
RTVSPost2010Prop36
280
     0
102
RTVSPost2010PropOp36
 70
     1
102
RTVSPost2010Prop37
 90
       50
102
RTVSPost2010PropOp37
 70
     1
102
RTVSPost2010Prop38
140
0.0
102
RTVSPost2010PropOp38
 70
     1
102
RTVSPost2010Prop39
140
1.0
102
RTVSPost2010PropOp39
 70
     1
102
RTVSPost2010Prop40
 90
        0
102
RTVSPost2010PropOp40
 70
     1
102
RTVSPost2010Prop41ColorIndex
 90
       18
102
RTVSPost2010Prop41ColorRGB
 90
        0
102
RTVSPost2010PropOp41
 70
     1
102
RTVSPost2010Prop42
 90
       50
102
RTVSPost2010PropOp42
 70
     1
102
RTVSPost2010Prop43
 90
        3
102
RTVSPost2010PropOp43
 70
     1
102
RTVSPost2010Prop44ColorIndex
 90
        5
102
RTVSPost2010Prop44ColorRGB
 90
      255
102
RTVSPost2010PropOp44
 70
     1
102
RTVSPost2010Prop45
280
     0
102
RTVSPost2010PropOp45
 70
     1
102
RTVSPost2010Prop46
 90
       50
102
RTVSPost2010PropOp46
 70
     1
102
RTVSPost2010Prop47
 90
       50
102
RTVSPost2010PropOp47
 70
     1
102
RTVSPost2010Prop48
 90
       50
102
RTVSPost2010PropOp48
 70
     1
102
RTVSPost2010Prop49
280
     0
102
RTVSPost2010PropOp49
 70
     1
102
RTVSPost2010Prop50
 90
       50
102
RTVSPost2010PropOp50
 70
     1
102
RTVSPost2010Prop51ColorIndex
 90
      256
102
RTVSPost2010Prop51ColorRGB
 90
-16777216
102
RTVSPost2010PropOp51
 70
     0
102
RTVSPost2010Prop52
140
1.0
102
RTVSPost2010PropOp52
 70
     0
102
RTVSPost2010Prop53
 90
        2
102
RTVSPost2010PropOp53
 70
     1
102
RTVSPost2010Prop54
  1
strokes_ogs.tif
102
RTVSPost2010PropOp54
 70
     1
102
RTVSPost2010Prop55
280
     0
102
RTVSPost2010PropOp55
 70
     1
102
RTVSPost2010Prop56
140
1.0
102
RTVSPost2010PropOp56
 70
     1
102
RTVSPost2010Prop57
140
1.0
102
RTVSPost2010PropOp57
 70
     1
  0
XRECORD
  5
18F
102
{ACAD_REACTORS
330
18E
102
}
330
18E
100
AcDbXrecord
280
     1
102
RTVSPost2010Prop28
280
     0
102
RTVSPost2010PropOp28
 70
     1
102
RTVSPost2010Prop29
280
     1
102
RTVSPost2010PropOp29
 70
     1
102
RTVSPost2010Prop30
280
     1
102
RTVSPost2010PropOp30
 70
     1
102
RTVSPost2010Prop31
280
     0
102
RTVSPost2010PropOp31
 70
     1
102
RTVSPost2010Prop32
280
     0
102
RTVSPost2010PropOp32
 70
     1
102
RTVSPost2010Prop33
280
     0
102
RTVSPost2010PropOp33
 70
     1
102
RTVSPost2010Prop34
280
     0
102
RTVSPost2010PropOp34
 70
     1
102
RTVSPost2010Prop35
280
     0
102
RTVSPost2010PropOp35
 70
     1
102
RTVSPost2010Prop36
280
     0
102
RTVSPost2010PropOp36
 70
     1
102
RTVSPost2010Prop37
 90
       50
102
RTVSPost2010PropOp37
 70
     1
102
RTVSPost2010Prop38
140
0.0
102
RTVSPost2010PropOp38
 70
     1
102
RTVSPost2010Prop39
140
1.0
102
RTVSPost2010PropOp39
 70
     1
102
RTVSPost2010Prop40
 90
        0
102
RTVSPost2010PropOp40
 70
     1
102
RTVSPost2010Prop41ColorIndex
 90
       18
102
RTVSPost2010Prop41ColorRGB
 90
        0
102
RTVSPost2010PropOp41
 70
     1
102
RTVSPost2010Prop42
 90
       50
102
RTVSPost2010PropOp42
 70
     1
102
RTVSPost2010Prop43
 90
        3
102
RTVSPost2010PropOp43
 70
     1
102
RTVSPost2010Prop44ColorIndex
 90
        5
102
RTVSPost2010Prop44ColorRGB
 90
      255
102
RTVSPost2010PropOp44
 70
     1
102
RTVSPost2010Prop45
280
     0
102
RTVSPost2010PropOp45
 70
     1
102
RTVSPost2010Prop46
 90
       50
102
RTVSPost2010PropOp46
 70
     1
102
RTVSPost2010Prop47
 90
       50
102
RTVSPost2010PropOp47
 70
     1
102
RTVSPost2010Prop48
 90
       50
102
RTVSPost2010PropOp48
 70
     1
102
RTVSPost2010Prop49
280
     0
102
RTVSPost2010PropOp49
 70
     1
102
RTVSPost2010Prop50
 90
       50
102
RTVSPost2010PropOp50
 70
     1
102
RTVSPost2010Prop51ColorIndex
 90
      256
102
RTVSPost2010Prop51ColorRGB
 90
-16777216
102
RTVSPost2010PropOp51
 70
     0
102
RTVSPost2010Prop52
140
1.0
102
RTVSPost2010PropOp52
 70
     0
102
RTVSPost2010Prop53
 90
        2
102
RTVSPost2010PropOp53
 70
     1
102
RTVSPost2010Prop54
  1
strokes_ogs.tif
102
RTVSPost2010PropOp54
 70
     1
102
RTVSPost2010Prop55
280
     0
102
RTVSPost2010PropOp55
 70
     1
102
RTVSPost2010Prop56
140
1.0
102
RTVSPost2010PropOp56
 70
     1
102
RTVSPost2010Prop57
140
1.0
102
RTVSPost2010PropOp57
 70
     1
  0
XRECORD
  5
191
102
{ACAD_REACTORS
330
190
102
}
330
190
100
AcDbXrecord
280
     1
102
RTVSPost2010Prop28
280
     0
102
RTVSPost2010PropOp28
 70
     1
102
RTVSPost2010Prop29
280
     1
102
RTVSPost2010PropOp29
 70
     1
102
RTVSPost2010Prop30
280
     1
102
RTVSPost2010PropOp30
 70
     1
102
RTVSPost2010Prop31
280
     0
102
RTVSPost2010PropOp31
 70
     1
102
RTVSPost2010Prop32
280
     0
102
RTVSPost2010PropOp32
 70
     1
102
RTVSPost2010Prop33
280
     0
102
RTVSPost2010PropOp33
 70
     1
102
RTVSPost2010Prop34
280
     0
102
RTVSPost2010PropOp34
 70
     1
102
RTVSPost2010Prop35
280
     0
102
RTVSPost2010PropOp35
 70
     1
102
RTVSPost2010Prop36
280
     0
102
RTVSPost2010PropOp36
 70
     1
102
RTVSPost2010Prop37
 90
       50
102
RTVSPost2010PropOp37
 70
     1
102
RTVSPost2010Prop38
140
0.0
102
RTVSPost2010PropOp38
 70
     1
102
RTVSPost2010Prop39
140
1.0
102
RTVSPost2010PropOp39
 70
     1
102
RTVSPost2010Prop40
 90
        0
102
RTVSPost2010PropOp40
 70
     1
102
RTVSPost2010Prop41ColorIndex
 90
       18
102
RTVSPost2010Prop41ColorRGB
 90
        0
102
RTVSPost2010PropOp41
 70
     1
102
RTVSPost2010Prop42
 90
       50
102
RTVSPost2010PropOp42
 70
     1
102
RTVSPost2010Prop43
 90
        3
102
RTVSPost2010PropOp43
 70
     1
102
RTVSPost2010Prop44ColorIndex
 90
        5
102
RTVSPost2010Prop44ColorRGB
 90
      255
102
RTVSPost2010PropOp44
 70
     1
102
RTVSPost2010Prop45
280
     0
102
RTVSPost2010PropOp45
 70
     1
102
RTVSPost2010Prop46
 90
       50
102
RTVSPost2010PropOp46
 70
     1
102
RTVSPost2010Prop47
 90
       50
102
RTVSPost2010PropOp47
 70
     1
102
RTVSPost2010Prop48
 90
       50
102
RTVSPost2010PropOp48
 70
     1
102
RTVSPost2010Prop49
280
     0
102
RTVSPost2010PropOp49
 70
     1
102
RTVSPost2010Prop50
 90
       50
102
RTVSPost2010PropOp50
 70
     1
102
RTVSPost2010Prop51ColorIndex
 90
      256
102
RTVSPost2010Prop51ColorRGB
 90
-16777216
102
RTVSPost2010PropOp51
 70
     0
102
RTVSPost2010Prop52
140
1.0
102
RTVSPost2010PropOp52
 70
     0
102
RTVSPost2010Prop53
 90
        2
102
RTVSPost2010PropOp53
 70
     1
102
RTVSPost2010Prop54
  1
strokes_ogs.tif
102
RTVSPost2010PropOp54
 70
     1
102
RTVSPost2010Prop55
280
     0
102
RTVSPost2010PropOp55
 70
     1
102
RTVSPost2010Prop56
140
1.0
102
RTVSPost2010PropOp56
 70
     1
102
RTVSPost2010Prop57
140
1.0
102
RTVSPost2010PropOp57
 70
     1
  0
XRECORD
  5
199
102
{ACAD_REACTORS
330
198
102
}
330
198
100
AcDbXrecord
280
     1
102
RTVSPost2010Prop28
280
     0
102
RTVSPost2010PropOp28
 70
     1
102
RTVSPost2010Prop29
280
     1
102
RTVSPost2010PropOp29
 70
     1
102
RTVSPost2010Prop30
280
     1
102
RTVSPost2010PropOp30
 70
     1
102
RTVSPost2010Prop31
280
     0
102
RTVSPost2010PropOp31
 70
     1
102
RTVSPost2010Prop32
280
     0
102
RTVSPost2010PropOp32
 70
     1
102
RTVSPost2010Prop33
280
     0
102
RTVSPost2010PropOp33
 70
     1
102
RTVSPost2010Prop34
280
     0
102
RTVSPost2010PropOp34
 70
     1
102
RTVSPost2010Prop35
280
     0
102
RTVSPost2010PropOp35
 70
     1
102
RTVSPost2010Prop36
280
     0
102
RTVSPost2010PropOp36
 70
     1
102
RTVSPost2010Prop37
 90
       50
102
RTVSPost2010PropOp37
 70
     1
102
RTVSPost2010Prop38
140
0.0
102
RTVSPost2010PropOp38
 70
     1
102
RTVSPost2010Prop39
140
1.0
102
RTVSPost2010PropOp39
 70
     1
102
RTVSPost2010Prop40
 90
        0
102
RTVSPost2010PropOp40
 70
     1
102
RTVSPost2010Prop41ColorIndex
 90
       18
102
RTVSPost2010Prop41ColorRGB
 90
        0
102
RTVSPost2010PropOp41
 70
     1
102
RTVSPost2010Prop42
 90
       50
102
RTVSPost2010PropOp42
 70
     1
102
RTVSPost2010Prop43
 90
        3
102
RTVSPost2010PropOp43
 70
     1
102
RTVSPost2010Prop44ColorIndex
 90
        5
102
RTVSPost2010Prop44ColorRGB
 90
      255
102
RTVSPost2010PropOp44
 70
     1
102
RTVSPost2010Prop45
280
     0
102
RTVSPost2010PropOp45
 70
     1
102
RTVSPost2010Prop46
 90
       50
102
RTVSPost2010PropOp46
 70
     1
102
RTVSPost2010Prop47
 90
       50
102
RTVSPost2010PropOp47
 70
     1
102
RTVSPost2010Prop48
 90
       50
102
RTVSPost2010PropOp48
 70
     1
102
RTVSPost2010Prop49
280
     0
102
RTVSPost2010PropOp49
 70
     1
102
RTVSPost2010Prop50
 90
       50
102
RTVSPost2010PropOp50
 70
     1
102
RTVSPost2010Prop51ColorIndex
 90
      256
102
RTVSPost2010Prop51ColorRGB
 90
-16777216
102
RTVSPost2010PropOp51
 70
     0
102
RTVSPost2010Prop52
140
1.0
102
RTVSPost2010PropOp52
 70
     0
102
RTVSPost2010Prop53
 90
        2
102
RTVSPost2010PropOp53
 70
     1
102
RTVSPost2010Prop54
  1
strokes_ogs.tif
102
RTVSPost2010PropOp54
 70
     1
102
RTVSPost2010Prop55
280
     0
102
RTVSPost2010PropOp55
 70
     1
102
RTVSPost2010Prop56
140
1.0
102
RTVSPost2010PropOp56
 70
     1
102
RTVSPost2010Prop57
140
1.0
102
RTVSPost2010PropOp57
 70
     1
  0
XRECORD
  5
1B5
102
{ACAD_REACTORS
330
1B4
102
}
330
1B4
100
AcDbXrecord
280
     1
102
RTVSPost2010Prop28
280
     0
102
RTVSPost2010PropOp28
 70
     0
102
RTVSPost2010Prop29
280
     1
102
RTVSPost2010PropOp29
 70
     0
102
RTVSPost2010Prop30
280
     1
102
RTVSPost2010PropOp30
 70
     0
102
RTVSPost2010Prop31
280
     0
102
RTVSPost2010PropOp31
 70
     0
102
RTVSPost2010Prop32
280
     0
102
RTVSPost2010PropOp32
 70
     0
102
RTVSPost2010Prop33
280
     0
102
RTVSPost2010PropOp33
 70
     0
102
RTVSPost2010Prop34
280
     0
102
RTVSPost2010PropOp34
 70
     0
102
RTVSPost2010Prop35
280
     0
102
RTVSPost2010PropOp35
 70
     0
102
RTVSPost2010Prop36
280
     0
102
RTVSPost2010PropOp36
 70
     0
102
RTVSPost2010Prop37
 90
       50
102
RTVSPost2010PropOp37
 70
     0
102
RTVSPost2010Prop38
140
0.0
102
RTVSPost2010PropOp38
 70
     0
102
RTVSPost2010Prop39
140
1.0
102
RTVSPost2010PropOp39
 70
     0
102
RTVSPost2010Prop40
 90
        0
102
RTVSPost2010PropOp40
 70
     0
102
RTVSPost2010Prop41ColorIndex
 90
       18
102
RTVSPost2010Prop41ColorRGB
 90
        0
102
RTVSPost2010PropOp41
 70
     0
102
RTVSPost2010Prop42
 90
       50
102
RTVSPost2010PropOp42
 70
     0
102
RTVSPost2010Prop43
 90
        3
102
RTVSPost2010PropOp43
 70
     0
102
RTVSPost2010Prop44ColorIndex
 90
        5
102
RTVSPost2010Prop44ColorRGB
 90
      255
102
RTVSPost2010PropOp44
 70
     0
102
RTVSPost2010Prop45
280
     0
102
RTVSPost2010PropOp45
 70
     0
102
RTVSPost2010Prop46
 90
       50
102
RTVSPost2010PropOp46
 70
     0
102
RTVSPost2010Prop47
 90
       50
102
RTVSPost2010PropOp47
 70
     0
102
RTVSPost2010Prop48
 90
       50
102
RTVSPost2010PropOp48
 70
     0
102
RTVSPost2010Prop49
280
     0
102
RTVSPost2010PropOp49
 70
     0
102
RTVSPost2010Prop50
 90
       50
102
RTVSPost2010PropOp50
 70
     0
102
RTVSPost2010Prop51ColorIndex
 90
      256
102
RTVSPost2010Prop51ColorRGB
 90
-16777216
102
RTVSPost2010PropOp51
 70
     0
102
RTVSPost2010Prop52
140
1.0
102
RTVSPost2010PropOp52
 70
     0
102
RTVSPost2010Prop53
 90
        2
102
RTVSPost2010PropOp53
 70
     0
102
RTVSPost2010Prop54
  1
strokes_ogs.tif
102
RTVSPost2010PropOp54
 70
     0
102
RTVSPost2010Prop55
280
     0
102
RTVSPost2010PropOp55
 70
     0
102
RTVSPost2010Prop56
140
1.0
102
RTVSPost2010PropOp56
 70
     0
102
RTVSPost2010Prop57
140
1.0
102
RTVSPost2010PropOp57
 70
     0
  0
XRECORD
  5
1A5
102
{ACAD_REACTORS
330
1A4
102
}
330
1A4
100
AcDbXrecord
280
     1
102
RTVSPost2010Prop28
280
     0
102
RTVSPost2010PropOp28
 70
     1
102
RTVSPost2010Prop29
280
     1
102
RTVSPost2010PropOp29
 70
     1
102
RTVSPost2010Prop30
280
     1
102
RTVSPost2010PropOp30
 70
     1
102
RTVSPost2010Prop31
280
     0
102
RTVSPost2010PropOp31
 70
     1
102
RTVSPost2010Prop32
280
     0
102
RTVSPost2010PropOp32
 70
     1
102
RTVSPost2010Prop33
280
     0
102
RTVSPost2010PropOp33
 70
     1
102
RTVSPost2010Prop34
280
     0
102
RTVSPost2010PropOp34
 70
     1
102
RTVSPost2010Prop35
280
     0
102
RTVSPost2010PropOp35
 70
     1
102
RTVSPost2010Prop36
280
     0
102
RTVSPost2010PropOp36
 70
     1
102
RTVSPost2010Prop37
 90
       50
102
RTVSPost2010PropOp37
 70
     1
102
RTVSPost2010Prop38
140
0.0
102
RTVSPost2010PropOp38
 70
     1
102
RTVSPost2010Prop39
140
1.0
102
RTVSPost2010PropOp39
 70
     1
102
RTVSPost2010Prop40
 90
        0
102
RTVSPost2010PropOp40
 70
     1
102
RTVSPost2010Prop41ColorIndex
 90
       18
102
RTVSPost2010Prop41ColorRGB
 90
        0
102
RTVSPost2010PropOp41
 70
     1
102
RTVSPost2010Prop42
 90
       50
102
RTVSPost2010PropOp42
 70
     1
102
RTVSPost2010Prop43
 90
        3
102
RTVSPost2010PropOp43
 70
     1
102
RTVSPost2010Prop44ColorIndex
 90
        5
102
RTVSPost2010Prop44ColorRGB
 90
      255
102
RTVSPost2010PropOp44
 70
     1
102
RTVSPost2010Prop45
280
     0
102
RTVSPost2010PropOp45
 70
     1
102
RTVSPost2010Prop46
 90
       50
102
RTVSPost2010PropOp46
 70
     1
102
RTVSPost2010Prop47
 90
       50
102
RTVSPost2010PropOp47
 70
     1
102
RTVSPost2010Prop48
 90
       50
102
RTVSPost2010PropOp48
 70
     1
102
RTVSPost2010Prop49
280
     0
102
RTVSPost2010PropOp49
 70
     1
102
RTVSPost2010Prop50
 90
       50
102
RTVSPost2010PropOp50
 70
     1
102
RTVSPost2010Prop51ColorIndex
 90
      256
102
RTVSPost2010Prop51ColorRGB
 90
-16777216
102
RTVSPost2010PropOp51
 70
     0
102
RTVSPost2010Prop52
140
1.0
102
RTVSPost2010PropOp52
 70
     0
102
RTVSPost2010Prop53
 90
        2
102
RTVSPost2010PropOp53
 70
     1
102
RTVSPost2010Prop54
  1
strokes_ogs.tif
102
RTVSPost2010PropOp54
 70
     1
102
RTVSPost2010Prop55
280
     0
102
RTVSPost2010PropOp55
 70
     1
102
RTVSPost2010Prop56
140
1.0
102
RTVSPost2010PropOp56
 70
     1
102
RTVSPost2010Prop57
140
1.0
102
RTVSPost2010PropOp57
 70
     1
  0
XRECORD
  5
1B7
102
{ACAD_REACTORS
330
1B6
102
}
330
1B6
100
AcDbXrecord
280
     1
102
RTVSPost2010Prop28
280
     0
102
RTVSPost2010PropOp28
 70
     0
102
RTVSPost2010Prop29
280
     1
102
RTVSPost2010PropOp29
 70
     0
102
RTVSPost2010Prop30
280
     1
102
RTVSPost2010PropOp30
 70
     0
102
RTVSPost2010Prop31
280
     0
102
RTVSPost2010PropOp31
 70
     0
102
RTVSPost2010Prop32
280
     0
102
RTVSPost2010PropOp32
 70
     0
102
RTVSPost2010Prop33
280
     0
102
RTVSPost2010PropOp33
 70
     0
102
RTVSPost2010Prop34
280
     0
102
RTVSPost2010PropOp34
 70
     0
102
RTVSPost2010Prop35
280
     0
102
RTVSPost2010PropOp35
 70
     0
102
RTVSPost2010Prop36
280
     0
102
RTVSPost2010PropOp36
 70
     0
102
RTVSPost2010Prop37
 90
       50
102
RTVSPost2010PropOp37
 70
     0
102
RTVSPost2010Prop38
140
0.0
102
RTVSPost2010PropOp38
 70
     0
102
RTVSPost2010Prop39
140
1.0
102
RTVSPost2010PropOp39
 70
     0
102
RTVSPost2010Prop40
 90
        0
102
RTVSPost2010PropOp40
 70
     0
102
RTVSPost2010Prop41ColorIndex
 90
       18
102
RTVSPost2010Prop41ColorRGB
 90
        0
102
RTVSPost2010PropOp41
 70
     0
102
RTVSPost2010Prop42
 90
       50
102
RTVSPost2010PropOp42
 70
     0
102
RTVSPost2010Prop43
 90
        3
102
RTVSPost2010PropOp43
 70
     0
102
RTVSPost2010Prop44ColorIndex
 90
        5
102
RTVSPost2010Prop44ColorRGB
 90
      255
102
RTVSPost2010PropOp44
 70
     0
102
RTVSPost2010Prop45
280
     0
102
RTVSPost2010PropOp45
 70
     0
102
RTVSPost2010Prop46
 90
       50
102
RTVSPost2010PropOp46
 70
     0
102
RTVSPost2010Prop47
 90
       50
102
RTVSPost2010PropOp47
 70
     0
102
RTVSPost2010Prop48
 90
       50
102
RTVSPost2010PropOp48
 70
     0
102
RTVSPost2010Prop49
280
     0
102
RTVSPost2010PropOp49
 70
     0
102
RTVSPost2010Prop50
 90
       50
102
RTVSPost2010PropOp50
 70
     0
102
RTVSPost2010Prop51ColorIndex
 90
      256
102
RTVSPost2010Prop51ColorRGB
 90
-16777216
102
RTVSPost2010PropOp51
 70
     0
102
RTVSPost2010Prop52
140
1.0
102
RTVSPost2010PropOp52
 70
     0
102
RTVSPost2010Prop53
 90
        2
102
RTVSPost2010PropOp53
 70
     0
102
RTVSPost2010Prop54
  1
strokes_ogs.tif
102
RTVSPost2010PropOp54
 70
     0
102
RTVSPost2010Prop55
280
     0
102
RTVSPost2010PropOp55
 70
     0
102
RTVSPost2010Prop56
140
1.0
102
RTVSPost2010PropOp56
 70
     0
102
RTVSPost2010Prop57
140
1.0
102
RTVSPost2010PropOp57
 70
     0
  0
XRECORD
  5
19D
102
{ACAD_REACTORS
330
19C
102
}
330
19C
100
AcDbXrecord
280
     1
102
RTVSPost2010Prop28
280
     0
102
RTVSPost2010PropOp28
 70
     1
102
RTVSPost2010Prop29
280
     1
102
RTVSPost2010PropOp29
 70
     1
102
RTVSPost2010Prop30
280
     1
102
RTVSPost2010PropOp30
 70
     1
102
RTVSPost2010Prop31
280
     0
102
RTVSPost2010PropOp31
 70
     1
102
RTVSPost2010Prop32
280
     0
102
RTVSPost2010PropOp32
 70
     1
102
RTVSPost2010Prop33
280
     0
102
RTVSPost2010PropOp33
 70
     1
102
RTVSPost2010Prop34
280
     0
102
RTVSPost2010PropOp34
 70
     1
102
RTVSPost2010Prop35
280
     0
102
RTVSPost2010PropOp35
 70
     1
102
RTVSPost2010Prop36
280
     0
102
RTVSPost2010PropOp36
 70
     1
102
RTVSPost2010Prop37
 90
       50
102
RTVSPost2010PropOp37
 70
     1
102
RTVSPost2010Prop38
140
0.0
102
RTVSPost2010PropOp38
 70
     1
102
RTVSPost2010Prop39
140
1.0
102
RTVSPost2010PropOp39
 70
     1
102
RTVSPost2010Prop40
 90
        0
102
RTVSPost2010PropOp40
 70
     1
102
RTVSPost2010Prop41ColorIndex
 90
       18
102
RTVSPost2010Prop41ColorRGB
 90
        0
102
RTVSPost2010PropOp41
 70
     1
102
RTVSPost2010Prop42
 90
       50
102
RTVSPost2010PropOp42
 70
     1
102
RTVSPost2010Prop43
 90
        3
102
RTVSPost2010PropOp43
 70
     1
102
RTVSPost2010Prop44ColorIndex
 90
        5
102
RTVSPost2010Prop44ColorRGB
 90
      255
102
RTVSPost2010PropOp44
 70
     1
102
RTVSPost2010Prop45
280
     0
102
RTVSPost2010PropOp45
 70
     1
102
RTVSPost2010Prop46
 90
       50
102
RTVSPost2010PropOp46
 70
     1
102
RTVSPost2010Prop47
 90
       50
102
RTVSPost2010PropOp47
 70
     1
102
RTVSPost2010Prop48
 90
       50
102
RTVSPost2010PropOp48
 70
     1
102
RTVSPost2010Prop49
280
     0
102
RTVSPost2010PropOp49
 70
     1
102
RTVSPost2010Prop50
 90
       50
102
RTVSPost2010PropOp50
 70
     1
102
RTVSPost2010Prop51ColorIndex
 90
      256
102
RTVSPost2010Prop51ColorRGB
 90
-16777216
102
RTVSPost2010PropOp51
 70
     0
102
RTVSPost2010Prop52
140
1.0
102
RTVSPost2010PropOp52
 70
     0
102
RTVSPost2010Prop53
 90
        2
102
RTVSPost2010PropOp53
 70
     1
102
RTVSPost2010Prop54
  1
strokes_ogs.tif
102
RTVSPost2010PropOp54
 70
     1
102
RTVSPost2010Prop55
280
     0
102
RTVSPost2010PropOp55
 70
     1
102
RTVSPost2010Prop56
140
1.0
102
RTVSPost2010PropOp56
 70
     1
102
RTVSPost2010Prop57
140
1.0
102
RTVSPost2010PropOp57
 70
     1
  0
XRECORD
  5
1B3
102
{ACAD_REACTORS
330
1B2
102
}
330
1B2
100
AcDbXrecord
280
     1
102
RTVSPost2010Prop28
280
     0
102
RTVSPost2010PropOp28
 70
     1
102
RTVSPost2010Prop29
280
     1
102
RTVSPost2010PropOp29
 70
     1
102
RTVSPost2010Prop30
280
     1
102
RTVSPost2010PropOp30
 70
     1
102
RTVSPost2010Prop31
280
     0
102
RTVSPost2010PropOp31
 70
     1
102
RTVSPost2010Prop32
280
     0
102
RTVSPost2010PropOp32
 70
     1
102
RTVSPost2010Prop33
280
     0
102
RTVSPost2010PropOp33
 70
     1
102
RTVSPost2010Prop34
280
     0
102
RTVSPost2010PropOp34
 70
     1
102
RTVSPost2010Prop35
280
     0
102
RTVSPost2010PropOp35
 70
     1
102
RTVSPost2010Prop36
280
     0
102
RTVSPost2010PropOp36
 70
     1
102
RTVSPost2010Prop37
 90
       50
102
RTVSPost2010PropOp37
 70
     1
102
RTVSPost2010Prop38
140
0.0
102
RTVSPost2010PropOp38
 70
     1
102
RTVSPost2010Prop39
140
1.0
102
RTVSPost2010PropOp39
 70
     1
102
RTVSPost2010Prop40
 90
        0
102
RTVSPost2010PropOp40
 70
     1
102
RTVSPost2010Prop41ColorIndex
 90
       18
102
RTVSPost2010Prop41ColorRGB
 90
        0
102
RTVSPost2010PropOp41
 70
     1
102
RTVSPost2010Prop42
 90
       50
102
RTVSPost2010PropOp42
 70
     1
102
RTVSPost2010Prop43
 90
        3
102
RTVSPost2010PropOp43
 70
     1
102
RTVSPost2010Prop44ColorIndex
 90
        5
102
RTVSPost2010Prop44ColorRGB
 90
      255
102
RTVSPost2010PropOp44
 70
     1
102
RTVSPost2010Prop45
280
     0
102
RTVSPost2010PropOp45
 70
     1
102
RTVSPost2010Prop46
 90
       50
102
RTVSPost2010PropOp46
 70
     1
102
RTVSPost2010Prop47
 90
       50
102
RTVSPost2010PropOp47
 70
     1
102
RTVSPost2010Prop48
 90
       50
102
RTVSPost2010PropOp48
 70
     1
102
RTVSPost2010Prop49
280
     0
102
RTVSPost2010PropOp49
 70
     1
102
RTVSPost2010Prop50
 90
       50
102
RTVSPost2010PropOp50
 70
     1
102
RTVSPost2010Prop51ColorIndex
 90
      256
102
RTVSPost2010Prop51ColorRGB
 90
-16777216
102
RTVSPost2010PropOp51
 70
     0
102
RTVSPost2010Prop52
140
1.0
102
RTVSPost2010PropOp52
 70
     0
102
RTVSPost2010Prop53
 90
        2
102
RTVSPost2010PropOp53
 70
     1
102
RTVSPost2010Prop54
  1
strokes_ogs.tif
102
RTVSPost2010PropOp54
 70
     1
102
RTVSPost2010Prop55
280
     0
102
RTVSPost2010PropOp55
 70
     1
102
RTVSPost2010Prop56
140
1.0
102
RTVSPost2010PropOp56
 70
     1
102
RTVSPost2010Prop57
140
1.0
102
RTVSPost2010PropOp57
 70
     1
  0
XRECORD
  5
1B1
102
{ACAD_REACTORS
330
1B0
102
}
330
1B0
100
AcDbXrecord
280
     1
102
RTVSPost2010Prop28
280
     0
102
RTVSPost2010PropOp28
 70
     1
102
RTVSPost2010Prop29
280
     1
102
RTVSPost2010PropOp29
 70
     1
102
RTVSPost2010Prop30
280
     1
102
RTVSPost2010PropOp30
 70
     1
102
RTVSPost2010Prop31
280
     0
102
RTVSPost2010PropOp31
 70
     1
102
RTVSPost2010Prop32
280
     0
102
RTVSPost2010PropOp32
 70
     1
102
RTVSPost2010Prop33
280
     0
102
RTVSPost2010PropOp33
 70
     1
102
RTVSPost2010Prop34
280
     0
102
RTVSPost2010PropOp34
 70
     1
102
RTVSPost2010Prop35
280
     0
102
RTVSPost2010PropOp35
 70
     1
102
RTVSPost2010Prop36
280
     0
102
RTVSPost2010PropOp36
 70
     1
102
RTVSPost2010Prop37
 90
       50
102
RTVSPost2010PropOp37
 70
     1
102
RTVSPost2010Prop38
140
0.0
102
RTVSPost2010PropOp38
 70
     1
102
RTVSPost2010Prop39
140
1.0
102
RTVSPost2010PropOp39
 70
     1
102
RTVSPost2010Prop40
 90
        0
102
RTVSPost2010PropOp40
 70
     1
102
RTVSPost2010Prop41ColorIndex
 90
       18
102
RTVSPost2010Prop41ColorRGB
 90
        0
102
RTVSPost2010PropOp41
 70
     1
102
RTVSPost2010Prop42
 90
       50
102
RTVSPost2010PropOp42
 70
     1
102
RTVSPost2010Prop43
 90
        3
102
RTVSPost2010PropOp43
 70
     1
102
RTVSPost2010Prop44ColorIndex
 90
        5
102
RTVSPost2010Prop44ColorRGB
 90
      255
102
RTVSPost2010PropOp44
 70
     1
102
RTVSPost2010Prop45
280
     0
102
RTVSPost2010PropOp45
 70
     1
102
RTVSPost2010Prop46
 90
       50
102
RTVSPost2010PropOp46
 70
     1
102
RTVSPost2010Prop47
 90
       50
102
RTVSPost2010PropOp47
 70
     1
102
RTVSPost2010Prop48
 90
       50
102
RTVSPost2010PropOp48
 70
     1
102
RTVSPost2010Prop49
280
     0
102
RTVSPost2010PropOp49
 70
     1
102
RTVSPost2010Prop50
 90
       50
102
RTVSPost2010PropOp50
 70
     1
102
RTVSPost2010Prop51ColorIndex
 90
      256
102
RTVSPost2010Prop51ColorRGB
 90
-16777216
102
RTVSPost2010PropOp51
 70
     0
102
RTVSPost2010Prop52
140
1.0
102
RTVSPost2010PropOp52
 70
     0
102
RTVSPost2010Prop53
 90
        2
102
RTVSPost2010PropOp53
 70
     1
102
RTVSPost2010Prop54
  1
strokes_ogs.tif
102
RTVSPost2010PropOp54
 70
     1
102
RTVSPost2010Prop55
280
     0
102
RTVSPost2010PropOp55
 70
     1
102
RTVSPost2010Prop56
140
1.0
102
RTVSPost2010PropOp56
 70
     1
102
RTVSPost2010Prop57
140
1.0
102
RTVSPost2010PropOp57
 70
     1
  0
XRECORD
  5
1AB
102
{ACAD_REACTORS
330
1AA
102
}
330
1AA
100
AcDbXrecord
280
     1
102
RTVSPost2010Prop28
280
     0
102
RTVSPost2010PropOp28
 70
     1
102
RTVSPost2010Prop29
280
     1
102
RTVSPost2010PropOp29
 70
     1
102
RTVSPost2010Prop30
280
     1
102
RTVSPost2010PropOp30
 70
     1
102
RTVSPost2010Prop31
280
     0
102
RTVSPost2010PropOp31
 70
     1
102
RTVSPost2010Prop32
280
     0
102
RTVSPost2010PropOp32
 70
     1
102
RTVSPost2010Prop33
280
     0
102
RTVSPost2010PropOp33
 70
     1
102
RTVSPost2010Prop34
280
     0
102
RTVSPost2010PropOp34
 70
     1
102
RTVSPost2010Prop35
280
     0
102
RTVSPost2010PropOp35
 70
     1
102
RTVSPost2010Prop36
280
     0
102
RTVSPost2010PropOp36
 70
     1
102
RTVSPost2010Prop37
 90
       50
102
RTVSPost2010PropOp37
 70
     1
102
RTVSPost2010Prop38
140
0.0
102
RTVSPost2010PropOp38
 70
     1
102
RTVSPost2010Prop39
140
1.0
102
RTVSPost2010PropOp39
 70
     1
102
RTVSPost2010Prop40
 90
        0
102
RTVSPost2010PropOp40
 70
     1
102
RTVSPost2010Prop41ColorIndex
 90
       18
102
RTVSPost2010Prop41ColorRGB
 90
        0
102
RTVSPost2010PropOp41
 70
     1
102
RTVSPost2010Prop42
 90
       50
102
RTVSPost2010PropOp42
 70
     1
102
RTVSPost2010Prop43
 90
        3
102
RTVSPost2010PropOp43
 70
     1
102
RTVSPost2010Prop44ColorIndex
 90
        5
102
RTVSPost2010Prop44ColorRGB
 90
      255
102
RTVSPost2010PropOp44
 70
     1
102
RTVSPost2010Prop45
280
     0
102
RTVSPost2010PropOp45
 70
     1
102
RTVSPost2010Prop46
 90
       50
102
RTVSPost2010PropOp46
 70
     1
102
RTVSPost2010Prop47
 90
       50
102
RTVSPost2010PropOp47
 70
     1
102
RTVSPost2010Prop48
 90
       50
102
RTVSPost2010PropOp48
 70
     1
102
RTVSPost2010Prop49
280
     0
102
RTVSPost2010PropOp49
 70
     1
102
RTVSPost2010Prop50
 90
       50
102
RTVSPost2010PropOp50
 70
     1
102
RTVSPost2010Prop51ColorIndex
 90
      256
102
RTVSPost2010Prop51ColorRGB
 90
-16777216
102
RTVSPost2010PropOp51
 70
     0
102
RTVSPost2010Prop52
140
1.0
102
RTVSPost2010PropOp52
 70
     0
102
RTVSPost2010Prop53
 90
        2
102
RTVSPost2010PropOp53
 70
     1
102
RTVSPost2010Prop54
  1
strokes_ogs.tif
102
RTVSPost2010PropOp54
 70
     1
102
RTVSPost2010Prop55
280
     0
102
RTVSPost2010PropOp55
 70
     1
102
RTVSPost2010Prop56
140
1.0
102
RTVSPost2010PropOp56
 70
     1
102
RTVSPost2010Prop57
140
1.0
102
RTVSPost2010PropOp57
 70
     1
  0
XRECORD
  5
1AD
102
{ACAD_REACTORS
330
1AC
102
}
330
1AC
100
AcDbXrecord
280
     1
102
RTVSPost2010Prop28
280
     0
102
RTVSPost2010PropOp28
 70
     1
102
RTVSPost2010Prop29
280
     1
102
RTVSPost2010PropOp29
 70
     1
102
RTVSPost2010Prop30
280
     1
102
RTVSPost2010PropOp30
 70
     1
102
RTVSPost2010Prop31
280
     0
102
RTVSPost2010PropOp31
 70
     1
102
RTVSPost2010Prop32
280
     0
102
RTVSPost2010PropOp32
 70
     1
102
RTVSPost2010Prop33
280
     0
102
RTVSPost2010PropOp33
 70
     1
102
RTVSPost2010Prop34
280
     0
102
RTVSPost2010PropOp34
 70
     1
102
RTVSPost2010Prop35
280
     0
102
RTVSPost2010PropOp35
 70
     1
102
RTVSPost2010Prop36
280
     0
102
RTVSPost2010PropOp36
 70
     1
102
RTVSPost2010Prop37
 90
       50
102
RTVSPost2010PropOp37
 70
     1
102
RTVSPost2010Prop38
140
0.0
102
RTVSPost2010PropOp38
 70
     1
102
RTVSPost2010Prop39
140
1.0
102
RTVSPost2010PropOp39
 70
     1
102
RTVSPost2010Prop40
 90
        0
102
RTVSPost2010PropOp40
 70
     1
102
RTVSPost2010Prop41ColorIndex
 90
       18
102
RTVSPost2010Prop41ColorRGB
 90
        0
102
RTVSPost2010PropOp41
 70
     1
102
RTVSPost2010Prop42
 90
       50
102
RTVSPost2010PropOp42
 70
     1
102
RTVSPost2010Prop43
 90
        3
102
RTVSPost2010PropOp43
 70
     1
102
RTVSPost2010Prop44ColorIndex
 90
        5
102
RTVSPost2010Prop44ColorRGB
 90
      255
102
RTVSPost2010PropOp44
 70
     1
102
RTVSPost2010Prop45
280
     0
102
RTVSPost2010PropOp45
 70
     1
102
RTVSPost2010Prop46
 90
       50
102
RTVSPost2010PropOp46
 70
     1
102
RTVSPost2010Prop47
 90
       50
102
RTVSPost2010PropOp47
 70
     1
102
RTVSPost2010Prop48
 90
       50
102
RTVSPost2010PropOp48
 70
     1
102
RTVSPost2010Prop49
280
     0
102
RTVSPost2010PropOp49
 70
     1
102
RTVSPost2010Prop50
 90
       50
102
RTVSPost2010PropOp50
 70
     1
102
RTVSPost2010Prop51ColorIndex
 90
      256
102
RTVSPost2010Prop51ColorRGB
 90
-16777216
102
RTVSPost2010PropOp51
 70
     0
102
RTVSPost2010Prop52
140
1.0
102
RTVSPost2010PropOp52
 70
     0
102
RTVSPost2010Prop53
 90
        2
102
RTVSPost2010PropOp53
 70
     1
102
RTVSPost2010Prop54
  1
strokes_ogs.tif
102
RTVSPost2010PropOp54
 70
     1
102
RTVSPost2010Prop55
280
     0
102
RTVSPost2010PropOp55
 70
     1
102
RTVSPost2010Prop56
140
1.0
102
RTVSPost2010PropOp56
 70
     1
102
RTVSPost2010Prop57
140
1.0
102
RTVSPost2010PropOp57
 70
     1
  0
XRECORD
  5
1A3
102
{ACAD_REACTORS
330
1A2
102
}
330
1A2
100
AcDbXrecord
280
     1
102
RTVSPost2010Prop28
280
     0
102
RTVSPost2010PropOp28
 70
     1
102
RTVSPost2010Prop29
280
     1
102
RTVSPost2010PropOp29
 70
     1
102
RTVSPost2010Prop30
280
     1
102
RTVSPost2010PropOp30
 70
     1
102
RTVSPost2010Prop31
280
     0
102
RTVSPost2010PropOp31
 70
     1
102
RTVSPost2010Prop32
280
     0
102
RTVSPost2010PropOp32
 70
     1
102
RTVSPost2010Prop33
280
     0
102
RTVSPost2010PropOp33
 70
     1
102
RTVSPost2010Prop34
280
     0
102
RTVSPost2010PropOp34
 70
     1
102
RTVSPost2010Prop35
280
     0
102
RTVSPost2010PropOp35
 70
     1
102
RTVSPost2010Prop36
280
     0
102
RTVSPost2010PropOp36
 70
     1
102
RTVSPost2010Prop37
 90
       50
102
RTVSPost2010PropOp37
 70
     1
102
RTVSPost2010Prop38
140
0.0
102
RTVSPost2010PropOp38
 70
     1
102
RTVSPost2010Prop39
140
1.0
102
RTVSPost2010PropOp39
 70
     1
102
RTVSPost2010Prop40
 90
        0
102
RTVSPost2010PropOp40
 70
     1
102
RTVSPost2010Prop41ColorIndex
 90
       18
102
RTVSPost2010Prop41ColorRGB
 90
        0
102
RTVSPost2010PropOp41
 70
     1
102
RTVSPost2010Prop42
 90
       50
102
RTVSPost2010PropOp42
 70
     1
102
RTVSPost2010Prop43
 90
        3
102
RTVSPost2010PropOp43
 70
     1
102
RTVSPost2010Prop44ColorIndex
 90
        5
102
RTVSPost2010Prop44ColorRGB
 90
      255
102
RTVSPost2010PropOp44
 70
     1
102
RTVSPost2010Prop45
280
     0
102
RTVSPost2010PropOp45
 70
     1
102
RTVSPost2010Prop46
 90
       50
102
RTVSPost2010PropOp46
 70
     1
102
RTVSPost2010Prop47
 90
       50
102
RTVSPost2010PropOp47
 70
     1
102
RTVSPost2010Prop48
 90
       50
102
RTVSPost2010PropOp48
 70
     1
102
RTVSPost2010Prop49
280
     0
102
RTVSPost2010PropOp49
 70
     1
102
RTVSPost2010Prop50
 90
       50
102
RTVSPost2010PropOp50
 70
     1
102
RTVSPost2010Prop51ColorIndex
 90
      256
102
RTVSPost2010Prop51ColorRGB
 90
-16777216
102
RTVSPost2010PropOp51
 70
     0
102
RTVSPost2010Prop52
140
1.0
102
RTVSPost2010PropOp52
 70
     0
102
RTVSPost2010Prop53
 90
        2
102
RTVSPost2010PropOp53
 70
     1
102
RTVSPost2010Prop54
  1
strokes_ogs.tif
102
RTVSPost2010PropOp54
 70
     1
102
RTVSPost2010Prop55
280
     0
102
RTVSPost2010PropOp55
 70
     1
102
RTVSPost2010Prop56
140
1.0
102
RTVSPost2010PropOp56
 70
     1
102
RTVSPost2010Prop57
140
1.0
102
RTVSPost2010PropOp57
 70
     1
  0
XRECORD
  5
197
102
{ACAD_REACTORS
330
196
102
}
330
196
100
AcDbXrecord
280
     1
102
RTVSPost2010Prop28
280
     0
102
RTVSPost2010PropOp28
 70
     1
102
RTVSPost2010Prop29
280
     1
102
RTVSPost2010PropOp29
 70
     1
102
RTVSPost2010Prop30
280
     1
102
RTVSPost2010PropOp30
 70
     1
102
RTVSPost2010Prop31
280
     0
102
RTVSPost2010PropOp31
 70
     1
102
RTVSPost2010Prop32
280
     0
102
RTVSPost2010PropOp32
 70
     1
102
RTVSPost2010Prop33
280
     0
102
RTVSPost2010PropOp33
 70
     1
102
RTVSPost2010Prop34
280
     0
102
RTVSPost2010PropOp34
 70
     1
102
RTVSPost2010Prop35
280
     0
102
RTVSPost2010PropOp35
 70
     1
102
RTVSPost2010Prop36
280
     0
102
RTVSPost2010PropOp36
 70
     1
102
RTVSPost2010Prop37
 90
       50
102
RTVSPost2010PropOp37
 70
     1
102
RTVSPost2010Prop38
140
0.0
102
RTVSPost2010PropOp38
 70
     1
102
RTVSPost2010Prop39
140
1.0
102
RTVSPost2010PropOp39
 70
     1
102
RTVSPost2010Prop40
 90
        0
102
RTVSPost2010PropOp40
 70
     1
102
RTVSPost2010Prop41ColorIndex
 90
       18
102
RTVSPost2010Prop41ColorRGB
 90
        0
102
RTVSPost2010PropOp41
 70
     1
102
RTVSPost2010Prop42
 90
       50
102
RTVSPost2010PropOp42
 70
     1
102
RTVSPost2010Prop43
 90
        3
102
RTVSPost2010PropOp43
 70
     1
102
RTVSPost2010Prop44ColorIndex
 90
        5
102
RTVSPost2010Prop44ColorRGB
 90
      255
102
RTVSPost2010PropOp44
 70
     1
102
RTVSPost2010Prop45
280
     0
102
RTVSPost2010PropOp45
 70
     1
102
RTVSPost2010Prop46
 90
       50
102
RTVSPost2010PropOp46
 70
     1
102
RTVSPost2010Prop47
 90
       50
102
RTVSPost2010PropOp47
 70
     1
102
RTVSPost2010Prop48
 90
       50
102
RTVSPost2010PropOp48
 70
     1
102
RTVSPost2010Prop49
280
     0
102
RTVSPost2010PropOp49
 70
     1
102
RTVSPost2010Prop50
 90
       50
102
RTVSPost2010PropOp50
 70
     1
102
RTVSPost2010Prop51ColorIndex
 90
      256
102
RTVSPost2010Prop51ColorRGB
 90
-16777216
102
RTVSPost2010PropOp51
 70
     0
102
RTVSPost2010Prop52
140
1.0
102
RTVSPost2010PropOp52
 70
     0
102
RTVSPost2010Prop53
 90
        2
102
RTVSPost2010PropOp53
 70
     1
102
RTVSPost2010Prop54
  1
strokes_ogs.tif
102
RTVSPost2010PropOp54
 70
     1
102
RTVSPost2010Prop55
280
     0
102
RTVSPost2010PropOp55
 70
     1
102
RTVSPost2010Prop56
140
1.0
102
RTVSPost2010PropOp56
 70
     1
102
RTVSPost2010Prop57
140
1.0
102
RTVSPost2010PropOp57
 70
     1
  0
XRECORD
  5
1AF
102
{ACAD_REACTORS
330
1AE
102
}
330
1AE
100
AcDbXrecord
280
     1
102
RTVSPost2010Prop28
280
     0
102
RTVSPost2010PropOp28
 70
     1
102
RTVSPost2010Prop29
280
     1
102
RTVSPost2010PropOp29
 70
     1
102
RTVSPost2010Prop30
280
     1
102
RTVSPost2010PropOp30
 70
     1
102
RTVSPost2010Prop31
280
     0
102
RTVSPost2010PropOp31
 70
     1
102
RTVSPost2010Prop32
280
     0
102
RTVSPost2010PropOp32
 70
     1
102
RTVSPost2010Prop33
280
     0
102
RTVSPost2010PropOp33
 70
     1
102
RTVSPost2010Prop34
280
     0
102
RTVSPost2010PropOp34
 70
     1
102
RTVSPost2010Prop35
280
     0
102
RTVSPost2010PropOp35
 70
     1
102
RTVSPost2010Prop36
280
     0
102
RTVSPost2010PropOp36
 70
     1
102
RTVSPost2010Prop37
 90
       50
102
RTVSPost2010PropOp37
 70
     1
102
RTVSPost2010Prop38
140
0.0
102
RTVSPost2010PropOp38
 70
     1
102
RTVSPost2010Prop39
140
1.0
102
RTVSPost2010PropOp39
 70
     1
102
RTVSPost2010Prop40
 90
        0
102
RTVSPost2010PropOp40
 70
     1
102
RTVSPost2010Prop41ColorIndex
 90
       18
102
RTVSPost2010Prop41ColorRGB
 90
        0
102
RTVSPost2010PropOp41
 70
     1
102
RTVSPost2010Prop42
 90
       50
102
RTVSPost2010PropOp42
 70
     1
102
RTVSPost2010Prop43
 90
        3
102
RTVSPost2010PropOp43
 70
     1
102
RTVSPost2010Prop44ColorIndex
 90
        5
102
RTVSPost2010Prop44ColorRGB
 90
      255
102
RTVSPost2010PropOp44
 70
     1
102
RTVSPost2010Prop45
280
     0
102
RTVSPost2010PropOp45
 70
     1
102
RTVSPost2010Prop46
 90
       50
102
RTVSPost2010PropOp46
 70
     1
102
RTVSPost2010Prop47
 90
       50
102
RTVSPost2010PropOp47
 70
     1
102
RTVSPost2010Prop48
 90
       50
102
RTVSPost2010PropOp48
 70
     1
102
RTVSPost2010Prop49
280
     0
102
RTVSPost2010PropOp49
 70
     1
102
RTVSPost2010Prop50
 90
       50
102
RTVSPost2010PropOp50
 70
     1
102
RTVSPost2010Prop51ColorIndex
 90
      256
102
RTVSPost2010Prop51ColorRGB
 90
-16777216
102
RTVSPost2010PropOp51
 70
     0
102
RTVSPost2010Prop52
140
1.0
102
RTVSPost2010PropOp52
 70
     0
102
RTVSPost2010Prop53
 90
        2
102
RTVSPost2010PropOp53
 70
     1
102
RTVSPost2010Prop54
  1
strokes_ogs.tif
102
RTVSPost2010PropOp54
 70
     1
102
RTVSPost2010Prop55
280
     0
102
RTVSPost2010PropOp55
 70
     1
102
RTVSPost2010Prop56
140
1.0
102
RTVSPost2010PropOp56
 70
     1
102
RTVSPost2010Prop57
140
1.0
102
RTVSPost2010PropOp57
 70
     1
  0
ENDSEC
  0
EOF
