  0
SECTION
  2
HEADER
  9
$ACADVER
  1
AC1024
  9
$ACADMAINTVER
 70
   226
  9
$DWGCODEPAGE
  3
ANSI_932
  9
$INSBASE
 10
0.0
 20
0.0
 30
0.0
  9
$EXTMIN
 10
1.000000000000000E+20
 20
1.000000000000000E+20
 30
1.000000000000000E+20
  9
$EXTMAX
 10
-1.000000000000000E+20
 20
-1.000000000000000E+20
 30
-1.000000000000000E+20
  9
$LIMMIN
 10
0.0
 20
0.0
  9
$LIMMAX
 10
12.0
 20
9.0
  9
$ORTHOMODE
 70
     0
  9
$REGENMODE
 70
     1
  9
$FILLMODE
 70
     1
  9
$QTEXTMODE
 70
     0
  9
$MIRRTEXT
 70
     0
  9
$LTSCALE
 40
1.0
  9
$ATTMODE
 70
     1
  9
$TEXTSIZE
 40
0.2
  9
$TRACEWID
 40
0.05
  9
$TEXTSTYLE
  7
Standard
  9
$CLAYER
  8
0
  9
$CELTYPE
  6
ByLayer
  9
$CECOLOR
 62
   256
  9
$CELTSCALE
 40
1.0
  9
$DISPSILH
 70
     0
  9
$DIMSCALE
 40
1.0
  9
$DIMASZ
 40
0.18
  9
$DIMEXO
 40
0.0625
  9
$DIMDLI
 40
0.38
  9
$DIMRND
 40
0.0
  9
$DIMDLE
 40
0.0
  9
$DIMEXE
 40
0.18
  9
$DIMTP
 40
0.0
  9
$DIMTM
 40
0.0
  9
$DIMTXT
 40
0.18
  9
$DIMCEN
 40
0.09
  9
$DIMTSZ
 40
0.0
  9
$DIMTOL
 70
     0
  9
$DIMLIM
 70
     0
  9
$DIMTIH
 70
     1
  9
$DIMTOH
 70
     1
  9
$DIMSE1
 70
     0
  9
$DIMSE2
 70
     0
  9
$DIMTAD
 70
     0
  9
$DIMZIN
 70
     0
  9
$DIMBLK
  1

  9
$DIMASO
 70
     1
  9
$DIMSHO
 70
     1
  9
$DIMPOST
  1

  9
$DIMAPOST
  1

  9
$DIMALT
 70
     0
  9
$DIMALTD
 70
     2
  9
$DIMALTF
 40
25.4
  9
$DIMLFAC
 40
1.0
  9
$DIMTOFL
 70
     0
  9
$DIMTVP
 40
0.0
  9
$DIMTIX
 70
     0
  9
$DIMSOXD
 70
     0
  9
$DIMSAH
 70
     0
  9
$DIMBLK1
  1

  9
$DIMBLK2
  1

  9
$DIMSTYLE
  2
Standard
  9
$DIMCLRD
 70
     0
  9
$DIMCLRE
 70
     0
  9
$DIMCLRT
 70
     0
  9
$DIMTFAC
 40
1.0
  9
$DIMGAP
 40
0.09
  9
$DIMJUST
 70
     0
  9
$DIMSD1
 70
     0
  9
$DIMSD2
 70
     0
  9
$DIMTOLJ
 70
     1
  9
$DIMTZIN
 70
     0
  9
$DIMALTZ
 70
     0
  9
$DIMALTTZ
 70
     0
  9
$DIMUPT
 70
     0
  9
$DIMDEC
 70
     4
  9
$DIMTDEC
 70
     4
  9
$DIMALTU
 70
     2
  9
$DIMALTTD
 70
     2
  9
$DIMTXSTY
  7
Standard
  9
$DIMAUNIT
 70
     0
  9
$DIMADEC
 70
     0
  9
$DIMALTRND
 40
0.0
  9
$DIMAZIN
 70
     0
  9
$DIMDSEP
 70
    46
  9
$DIMATFIT
 70
     3
  9
$DIMFRAC
 70
     0
  9
$DIMLDRBLK
  1

  9
$DIMLUNIT
 70
     2
  9
$DIMLWD
 70
    -2
  9
$DIMLWE
 70
    -2
  9
$DIMTMOVE
 70
     0
  9
$DIMFXL
 40
1.0
  9
$DIMFXLON
 70
     0
  9
$DIMJOGANG
 40
0.7853981633974483
  9
$DIMTFILL
 70
     0
  9
$DIMTFILLCLR
 70
     0
  9
$DIMARCSYM
 70
     0
  9
$DIMLTYPE
  6

  9
$DIMLTEX1
  6

  9
$DIMLTEX2
  6

  9
$DIMTXTDIRECTION
 70
     0
  9
$LUNITS
 70
     2
  9
$LUPREC
 70
     4
  9
$SKETCHINC
 40
0.1
  9
$FILLETRAD
 40
0.0
  9
$AUNITS
 70
     0
  9
$AUPREC
 70
     0
  9
$MENU
  1
.
  9
$ELEVATION
 40
0.0
  9
$PELEVATION
 40
0.0
  9
$THICKNESS
 40
0.0
  9
$LIMCHECK
 70
     0
  9
$CHAMFERA
 40
0.0
  9
$CHAMFERB
 40
0.0
  9
$CHAMFERC
 40
0.0
  9
$CHAMFERD
 40
0.0
  9
$SKPOLY
 70
     0
  9
$TDCREATE
 40
2459569.503854167
  9
$TDUCREATE
 40
2459569.128854167
  9
$TDUPDATE
 40
2459569.503854167
  9
$TDUUPDATE
 40
2459569.128854167
  9
$TDINDWG
 40
0.0000000000
  9
$TDUSRTIMER
 40
0.0000000000
  9
$USRTIMER
 70
     1
  9
$ANGBASE
 50
0.0
  9
$ANGDIR
 70
     0
  9
$PDMODE
 70
     0
  9
$PDSIZE
 40
0.0
  9
$PLINEWID
 40
0.0
  9
$SPLFRAME
 70
     0
  9
$SPLINETYPE
 70
     6
  9
$SPLINESEGS
 70
     8
  9
$HANDSEED
  5
19A
  9
$SURFTAB1
 70
     6
  9
$SURFTAB2
 70
     6
  9
$SURFTYPE
 70
     6
  9
$SURFU
 70
     6
  9
$SURFV
 70
     6
  9
$UCSBASE
  2

  9
$UCSNAME
  2

  9
$UCSORG
 10
0.0
 20
0.0
 30
0.0
  9
$UCSXDIR
 10
1.0
 20
0.0
 30
0.0
  9
$UCSYDIR
 10
0.0
 20
1.0
 30
0.0
  9
$UCSORTHOREF
  2

  9
$UCSORTHOVIEW
 70
     0
  9
$UCSORGTOP
 10
0.0
 20
0.0
 30
0.0
  9
$UCSORGBOTTOM
 10
0.0
 20
0.0
 30
0.0
  9
$UCSORGLEFT
 10
0.0
 20
0.0
 30
0.0
  9
$UCSORGRIGHT
 10
0.0
 20
0.0
 30
0.0
  9
$UCSORGFRONT
 10
0.0
 20
0.0
 30
0.0
  9
$UCSORGBACK
 10
0.0
 20
0.0
 30
0.0
  9
$PUCSBASE
  2

  9
$PUCSNAME
  2

  9
$PUCSORG
 10
0.0
 20
0.0
 30
0.0
  9
$PUCSXDIR
 10
1.0
 20
0.0
 30
0.0
  9
$PUCSYDIR
 10
0.0
 20
1.0
 30
0.0
  9
$PUCSORTHOREF
  2

  9
$PUCSORTHOVIEW
 70
     0
  9
$PUCSORGTOP
 10
0.0
 20
0.0
 30
0.0
  9
$PUCSORGBOTTOM
 10
0.0
 20
0.0
 30
0.0
  9
$PUCSORGLEFT
 10
0.0
 20
0.0
 30
0.0
  9
$PUCSORGRIGHT
 10
0.0
 20
0.0
 30
0.0
  9
$PUCSORGFRONT
 10
0.0
 20
0.0
 30
0.0
  9
$PUCSORGBACK
 10
0.0
 20
0.0
 30
0.0
  9
$USERI1
 70
     0
  9
$USERI2
 70
     0
  9
$USERI3
 70
     0
  9
$USERI4
 70
     0
  9
$USERI5
 70
     0
  9
$USERR1
 40
0.0
  9
$USERR2
 40
0.0
  9
$USERR3
 40
0.0
  9
$USERR4
 40
0.0
  9
$USERR5
 40
0.0
  9
$WORLDVIEW
 70
     1
  9
$SHADEDGE
 70
     3
  9
$SHADEDIF
 70
    70
  9
$TILEMODE
 70
     1
  9
$MAXACTVP
 70
    64
  9
$PINSBASE
 10
0.0
 20
0.0
 30
0.0
  9
$PLIMCHECK
 70
     0
  9
$PEXTMIN
 10
1.000000000000000E+20
 20
1.000000000000000E+20
 30
1.000000000000000E+20
  9
$PEXTMAX
 10
-1.000000000000000E+20
 20
-1.000000000000000E+20
 30
-1.000000000000000E+20
  9
$PLIMMIN
 10
0.0
 20
0.0
  9
$PLIMMAX
 10
12.0
 20
9.0
  9
$UNITMODE
 70
     0
  9
$VISRETAIN
 70
     1
  9
$PLINEGEN
 70
     0
  9
$PSLTSCALE
 70
     1
  9
$TREEDEPTH
 70
  3020
  9
$CMLSTYLE
  2
Standard
  9
$CMLJUST
 70
     0
  9
$CMLSCALE
 40
1.0
  9
$PROXYGRAPHICS
 70
     1
  9
$MEASUREMENT
 70
     0
  9
$CELWEIGHT
370
    -1
  9
$ENDCAPS
280
     0
  9
$JOINSTYLE
280
     0
  9
$LWDISPLAY
290
     1
  9
$INSUNITS
 70
     4
  9
$HYPERLINKBASE
  1

  9
$STYLESHEET
  1

  9
$XEDIT
290
     1
  9
$CEPSNTYPE
380
     0
  9
$PSTYLEMODE
290
     1
  9
$FINGERPRINTGUID
  2
{25488D96-AF4A-9D43-BA71-187BBA335D05}
  9
$VERSIONGUID
  2
{972021F0-5F2D-EF44-96D9-E91DCFBF44E7}
  9
$EXTNAMES
290
     1
  9
$PSVPSCALE
 40
0.0
  9
$OLESTARTUP
290
     0
  9
$SORTENTS
280
   127
  9
$INDEXCTL
280
     0
  9
$HIDETEXT
280
     1
  9
$XCLIPFRAME
280
     2
  9
$HALOGAP
280
     0
  9
$OBSCOLOR
 70
   257
  9
$OBSLTYPE
280
     0
  9
$INTERSECTIONDISPLAY
280
     0
  9
$INTERSECTIONCOLOR
 70
   257
  9
$DIMASSOC
280
     2
  9
$PROJECTNAME
  1

  9
$CAMERADISPLAY
290
     0
  9
$LENSLENGTH
 40
50.0
  9
$CAMERAHEIGHT
 40
0.0
  9
$STEPSPERSEC
 40
2.0
  9
$STEPSIZE
 40
6.0
  9
$3DDWFPREC
 40
2.0
  9
$PSOLWIDTH
 40
0.25
  9
$PSOLHEIGHT
 40
4.0
  9
$LOFTANG1
 40
1.570796326794896
  9
$LOFTANG2
 40
1.570796326794896
  9
$LOFTMAG1
 40
0.0
  9
$LOFTMAG2
 40
0.0
  9
$LOFTPARAM
 70
     7
  9
$LOFTNORMALS
280
     1
  9
$LATITUDE
 40
37.795
  9
$LONGITUDE
 40
-122.394
  9
$NORTHDIRECTION
 40
0.0
  9
$TIMEZONE
 70
 -8000
  9
$LIGHTGLYPHDISPLAY
280
     1
  9
$TILEMODELIGHTSYNCH
280
     1
  9
$CMATERIAL
347
11
  9
$SOLIDHIST
280
     0
  9
$SHOWHIST
280
     1
  9
$DWFFRAME
280
     2
  9
$DGNFRAME
280
     0
  9
$REALWORLDSCALE
290
     1
  9
$INTERFERECOLOR
 62
     1
  9
$INTERFEREOBJVS
345
33
  9
$INTERFEREVPVS
346
30
  9
$CSHADOW
280
     0
  9
$SHADOWPLANELOCATION
 40
0.0
  0
ENDSEC
  0
SECTION
  2
CLASSES
  0
CLASS
  1
ACDBDICTIONARYWDFLT
  2
AcDbDictionaryWithDefault
  3
ObjectDBX Classes
 90
        0
 91
        1
280
     0
281
     0
  0
CLASS
  1
MATERIAL
  2
AcDbMaterial
  3
ObjectDBX Classes
 90
     1153
 91
        3
280
     0
281
     0
  0
CLASS
  1
VISUALSTYLE
  2
AcDbVisualStyle
  3
ObjectDBX Classes
 90
     4095
 91
       24
280
     0
281
     0
  0
CLASS
  1
SCALE
  2
AcDbScale
  3
ObjectDBX Classes
 90
     1153
 91
       17
280
     0
281
     0
  0
CLASS
  1
TABLESTYLE
  2
AcDbTableStyle
  3
ObjectDBX Classes
 90
     4095
 91
        1
280
     0
281
     0
  0
CLASS
  1
MLEADERSTYLE
  2
AcDbMLeaderStyle
  3
ACDB_MLEADERSTYLE_CLASS
 90
     4095
 91
        1
280
     0
281
     0
  0
CLASS
  1
ACDBSECTIONVIEWSTYLE
  2
AcDbSectionViewStyle
  3
ObjectDBX Classes
 90
     1025
 91
        1
280
     0
281
     0
  0
CLASS
  1
ACDBDETAILVIEWSTYLE
  2
AcDbDetailViewStyle
  3
ObjectDBX Classes
 90
     1025
 91
        1
280
     0
281
     0
  0
CLASS
  1
DICTIONARYVAR
  2
AcDbDictionaryVar
  3
ObjectDBX Classes
 90
        0
 91
        5
280
     0
281
     0
  0
CLASS
  1
CELLSTYLEMAP
  2
AcDbCellStyleMap
  3
ObjectDBX Classes
 90
     1152
 91
        1
280
     0
281
     0
  0
ENDSEC
  0
SECTION
  2
TABLES
  0
TABLE
  2
VPORT
  5
8
330
0
100
AcDbSymbolTable
 70
     1
  0
VPORT
  5
57
330
8
100
AcDbSymbolTableRecord
100
AcDbViewportTableRecord
  2
*Active
 70
     0
 10
0.0
 20
0.0
 11
1.0
 21
1.0
 12
0.0
 22
0.0
 13
0.0
 23
0.0
 14
1.0
 24
1.0
 15
0.0
 25
0.0
 16
0.0
 26
0.0
 36
1.0
 17
104.9999999737534
 27
-148.4999999628701
 37
0.0
 40
302.939999924255
 41
0.7070707070707534
 42
50.0
 43
0.0
 44
0.0
 50
0.0
 51
0.0
 71
     0
 72
   100
 73
     1
 74
     0
 75
     1
 76
     0
 77
     0
 78
     0
281
     0
 65
     1
110
0.0
120
0.0
130
0.0
111
1.0
121
0.0
131
0.0
112
0.0
122
1.0
132
0.0
 79
     0
146
0.0
 60
     3
 61
     5
292
     1
282
     1
141
0.0
142
0.0
 63
   250
421
  3355443
  0
ENDTAB
  0
TABLE
  2
LTYPE
  5
5
330
0
100
AcDbSymbolTable
 70
     1
  0
LTYPE
  5
5B
330
5
100
AcDbSymbolTableRecord
100
AcDbLinetypeTableRecord
  2
ByBlock
 70
     0
  3

 72
    65
 73
     0
 40
0.0
  0
LTYPE
  5
5C
330
5
100
AcDbSymbolTableRecord
100
AcDbLinetypeTableRecord
  2
ByLayer
 70
     0
  3

 72
    65
 73
     0
 40
0.0
  0
LTYPE
  5
5D
330
5
100
AcDbSymbolTableRecord
100
AcDbLinetypeTableRecord
  2
Continuous
 70
     0
  3
Solid line
 72
    65
 73
     0
 40
0.0
  0
ENDTAB
  0
TABLE
  2
LAYER
  5
2
330
0
100
AcDbSymbolTable
 70
     2
  0
LAYER
  5
54
330
2
100
AcDbSymbolTableRecord
100
AcDbLayerTableRecord
  2
0
 70
     0
 62
     7
  6
Continuous
370
    -3
390
F
347
21
  0
LAYER
  5
78
330
2
100
AcDbSymbolTableRecord
100
AcDbLayerTableRecord
  2
レイヤー 1
 70
     0
 62
     7
  6
Continuous
370
     0
390
F
347
21
  0
ENDTAB
  0
TABLE
  2
STYLE
  5
3
330
0
100
AcDbSymbolTable
 70
     2
  0
STYLE
  5
55
330
3
100
AcDbSymbolTableRecord
100
AcDbTextStyleTableRecord
  2
Standard
 70
     0
 40
0.0
 41
1.0
 50
0.0
 71
     0
 42
0.2
  3
txt
  4

  0
STYLE
  5
5A
330
3
100
AcDbSymbolTableRecord
100
AcDbTextStyleTableRecord
  2
Annotative
 70
     0
 40
0.0
 41
1.0
 50
0.0
 71
     0
 42
0.2
  3
txt
  4

1001
AcadAnnotative
1000
AnnotativeData
1002
{
1070
     1
1070
     1
1002
}
  0
ENDTAB
  0
TABLE
  2
VIEW
  5
6
330
0
100
AcDbSymbolTable
 70
     0
  0
ENDTAB
  0
TABLE
  2
UCS
  5
7
330
0
100
AcDbSymbolTable
 70
     0
  0
ENDTAB
  0
TABLE
  2
APPID
  5
9
330
0
100
AcDbSymbolTable
 70
     2
  0
APPID
  5
56
330
9
100
AcDbSymbolTableRecord
100
AcDbRegAppTableRecord
  2
ACAD
 70
     0
  0
APPID
  5
5E
330
9
100
AcDbSymbolTableRecord
100
AcDbRegAppTableRecord
  2
AcadAnnotative
 70
     0
  0
ENDTAB
  0
TABLE
  2
DIMSTYLE
  5
A
330
0
100
AcDbSymbolTable
 70
     2
100
AcDbDimStyleTable
 71
     0
  0
DIMSTYLE
105
58
330
A
100
AcDbSymbolTableRecord
100
AcDbDimStyleTableRecord
  2
Standard
 70
     0
340
55
  0
DIMSTYLE
105
59
330
A
100
AcDbSymbolTableRecord
100
AcDbDimStyleTableRecord
  2
Annotative
 70
     0
340
55
1001
AcadAnnotative
1000
AnnotativeData
1002
{
1070
     1
1070
     1
1002
}
  0
ENDTAB
  0
TABLE
  2
BLOCK_RECORD
  5
1
330
0
100
AcDbSymbolTable
 70
    16
  0
BLOCK_RECORD
  5
70
330
1
100
AcDbSymbolTableRecord
100
AcDbBlockTableRecord
  2
*Model_Space
340
73
 70
     0
280
     1
281
     0
  0
BLOCK_RECORD
  5
6C
330
1
100
AcDbSymbolTableRecord
100
AcDbBlockTableRecord
  2
*Paper_Space
340
6F
 70
     0
280
     1
281
     0
  0
BLOCK_RECORD
  5
74
330
1
100
AcDbSymbolTableRecord
100
AcDbBlockTableRecord
  2
*Paper_Space0
340
77
 70
     0
280
     1
281
     0
  0
BLOCK_RECORD
  5
E0
330
1
100
AcDbSymbolTableRecord
100
AcDbBlockTableRecord
  2
Block_0
340
0
102
{BLKREFS
331
E1
102
}
 70
     0
280
     1
281
     0
  0
BLOCK_RECORD
  5
E4
330
1
100
AcDbSymbolTableRecord
100
AcDbBlockTableRecord
  2
Block_1
340
0
102
{BLKREFS
331
E5
102
}
 70
     0
280
     1
281
     0
  0
BLOCK_RECORD
  5
F1
330
1
100
AcDbSymbolTableRecord
100
AcDbBlockTableRecord
  2
Block_2
340
0
102
{BLKREFS
331
F2
102
}
 70
     0
280
     1
281
     0
  0
BLOCK_RECORD
  5
F5
330
1
100
AcDbSymbolTableRecord
100
AcDbBlockTableRecord
  2
Block_3
340
0
102
{BLKREFS
331
F6
102
}
 70
     0
280
     1
281
     0
  0
BLOCK_RECORD
  5
FF
330
1
100
AcDbSymbolTableRecord
100
AcDbBlockTableRecord
  2
Block_4
340
0
102
{BLKREFS
331
100
102
}
 70
     0
280
     1
281
     0
  0
BLOCK_RECORD
  5
108
330
1
100
AcDbSymbolTableRecord
100
AcDbBlockTableRecord
  2
Block_5
340
0
102
{BLKREFS
331
109
102
}
 70
     0
280
     1
281
     0
  0
BLOCK_RECORD
  5
10C
330
1
100
AcDbSymbolTableRecord
100
AcDbBlockTableRecord
  2
Block_6
340
0
102
{BLKREFS
331
10D
102
}
 70
     0
280
     1
281
     0
  0
BLOCK_RECORD
  5
117
330
1
100
AcDbSymbolTableRecord
100
AcDbBlockTableRecord
  2
Block_7
340
0
102
{BLKREFS
331
118
102
}
 70
     0
280
     1
281
     0
  0
BLOCK_RECORD
  5
11B
330
1
100
AcDbSymbolTableRecord
100
AcDbBlockTableRecord
  2
Block_8
340
0
102
{BLKREFS
331
11C
102
}
 70
     0
280
     1
281
     0
  0
BLOCK_RECORD
  5
129
330
1
100
AcDbSymbolTableRecord
100
AcDbBlockTableRecord
  2
Block_9
340
0
102
{BLKREFS
331
12A
102
}
 70
     0
280
     1
281
     0
  0
BLOCK_RECORD
  5
12D
330
1
100
AcDbSymbolTableRecord
100
AcDbBlockTableRecord
  2
Block_10
340
0
102
{BLKREFS
331
12E
102
}
 70
     0
280
     1
281
     0
  0
BLOCK_RECORD
  5
136
330
1
100
AcDbSymbolTableRecord
100
AcDbBlockTableRecord
  2
Block_11
340
0
102
{BLKREFS
331
137
102
}
 70
     0
280
     1
281
     0
  0
BLOCK_RECORD
  5
13C
330
1
100
AcDbSymbolTableRecord
100
AcDbBlockTableRecord
  2
Block_12
340
0
102
{BLKREFS
331
13D
102
}
 70
     0
280
     1
281
     0
  0
BLOCK_RECORD
  5
143
330
1
100
AcDbSymbolTableRecord
100
AcDbBlockTableRecord
  2
Block_13
340
0
102
{BLKREFS
331
144
102
}
 70
     0
280
     1
281
     0
  0
BLOCK_RECORD
  5
147
330
1
100
AcDbSymbolTableRecord
100
AcDbBlockTableRecord
  2
Block_14
340
0
102
{BLKREFS
331
148
102
}
 70
     0
280
     1
281
     0
  0
ENDTAB
  0
ENDSEC
  0
SECTION
  2
BLOCKS
  0
BLOCK
  5
71
330
70
100
AcDbEntity
  8
0
100
AcDbBlockBegin
  2
*Model_Space
 70
     0
 10
0.0
 20
0.0
 30
0.0
  3
*Model_Space
  1

  0
ENDBLK
  5
72
330
70
100
AcDbEntity
  8
0
100
AcDbBlockEnd
  0
BLOCK
  5
6D
330
6C
100
AcDbEntity
 67
     1
  8
0
100
AcDbBlockBegin
  2
*Paper_Space
 70
     0
 10
0.0
 20
0.0
 30
0.0
  3
*Paper_Space
  1

  0
ENDBLK
  5
6E
330
6C
100
AcDbEntity
 67
     1
  8
0
100
AcDbBlockEnd
  0
BLOCK
  5
75
330
74
100
AcDbEntity
 67
     1
  8
0
100
AcDbBlockBegin
  2
*Paper_Space0
 70
     0
 10
0.0
 20
0.0
 30
0.0
  3
*Paper_Space0
  1

  0
ENDBLK
  5
76
330
74
100
AcDbEntity
 67
     1
  8
0
100
AcDbBlockEnd
  0
BLOCK
  5
E2
330
E0
100
AcDbEntity
  8
0
100
AcDbBlockBegin
  2
Block_0
 70
     0
 10
0.0
 20
0.0
 30
0.0
  3
Block_0
  1

  0
INSERT
  5
E5
330
E0
100
AcDbEntity
  8
レイヤー 1
100
AcDbBlockReference
  2
Block_1
 10
0.0
 20
0.0
 30
0.0
  0
ENDBLK
  5
E3
330
E0
100
AcDbEntity
  8
0
100
AcDbBlockEnd
  0
BLOCK
  5
E6
330
E4
100
AcDbEntity
  8
0
100
AcDbBlockBegin
  2
Block_1
 70
     0
 10
0.0
 20
0.0
 30
0.0
  3
Block_1
  1

  0
SPLINE
  5
E8
330
E4
100
AcDbEntity
  8
レイヤー 1
100
AcDbSpline
210
0.0
220
0.0
230
1.0
 70
     9
 71
     3
 72
    17
 73
    13
 74
     0
 42
0.0000000001
 43
0.0000000001
 40
0.0
 40
0.0
 40
0.0
 40
0.0
 40
1.0
 40
1.0
 40
1.0
 40
2.0
 40
2.0
 40
2.0
 40
3.0
 40
3.0
 40
3.0
 40
4.0
 40
4.0
 40
4.0
 40
4.0
 10
75.91870793457935
 20
-147.8119940494185
 30
0.0
 10
75.91870793457935
 20
-148.0617634720991
 30
0.0
 10
76.20206703824115
 20
-148.10827226115
 30
0.0
 10
76.54692109631466
 20
-148.10827226115
 30
0.0
 10
76.86645370257159
 20
-148.10827226115
 30
0.0
 10
77.17530651282423
 20
-148.0720987585549
 30
0.0
 10
77.17530651282423
 20
-147.8119940494185
 30
0.0
 10
77.17530651282423
 20
-147.5642916840291
 30
0.0
 10
76.89384221167933
 20
-147.515715837687
 30
0.0
 10
76.54692109631466
 20
-147.515715837687
 30
0.0
 10
76.227560744832
 20
-147.515715837687
 30
0.0
 10
75.91870793457935
 20
-147.5539563975733
 30
0.0
 10
75.91870793457935
 20
-147.8119940494185
 30
0.0
  0
SPLINE
  5
E9
330
E4
100
AcDbEntity
  8
レイヤー 1
100
AcDbSpline
210
0.0
220
0.0
230
1.0
 70
     9
 71
     3
 72
    29
 73
    25
 74
     0
 42
0.0000000001
 43
0.0000000001
 40
0.0
 40
0.0
 40
0.0
 40
0.0
 40
1.0
 40
1.0
 40
1.0
 40
2.0
 40
2.0
 40
2.0
 40
3.0
 40
3.0
 40
3.0
 40
4.0
 40
4.0
 40
4.0
 40
5.0
 40
5.0
 40
5.0
 40
6.0
 40
6.0
 40
6.0
 40
7.0
 40
7.0
 40
7.0
 40
8.0
 40
8.0
 40
8.0
 40
8.0
 10
77.14137232229451
 20
-147.4140855208722
 30
0.0
 10
77.35083412779771
 20
-147.522261519109
 30
0.0
 10
77.36995440774085
 20
-147.6955498220171
 30
0.0
 10
77.36995440774085
 20
-147.8119940494185
 30
0.0
 10
77.36995440774085
 20
-147.9728800085797
 30
0.0
 10
77.32344561868997
 20
-148.1144734330235
 30
0.0
 10
77.14137232229451
 20
-148.2095580684163
 30
0.0
 10
76.94689668215217
 20
-148.3132554425224
 30
0.0
 10
76.70987411276698
 20
-148.3325479772398
 30
0.0
 10
76.54692109631466
 20
-148.3325479772398
 30
0.0
 10
76.40308835980547
 20
-148.3325479772398
 30
0.0
 10
76.15142413460798
 20
-148.3153224998135
 30
0.0
 10
75.95246987033481
 20
-148.2095580684163
 30
0.0
 10
75.74938149147932
 20
-148.101726579728
 30
0.0
 10
75.72612709695389
 20
-147.9408406205669
 30
0.0
 10
75.72612709695389
 20
-147.8119940494185
 30
0.0
 10
75.72612709695389
 20
-147.6531751475485
 30
0.0
 10
75.7705688287136
 20
-147.5095146658136
 30
0.0
 10
75.95246987033481
 20
-147.4140855208722
 30
0.0
 10
76.14505070796027
 20
-147.314866770897
 30
0.0
 10
76.37346053863232
 20
-147.2914401215972
 30
0.0
 10
76.54692109631466
 20
-147.2914401215972
 30
0.0
 10
76.71831459670584
 20
-147.2914401215972
 30
0.0
 10
76.94896373944331
 20
-147.3127997136058
 30
0.0
 10
77.14137232229451
 20
-147.4140855208722
 30
0.0
  0
HATCH
  5
EA
330
E4
100
AcDbEntity
  8
レイヤー 1
 62
    18
420
        0
440
 33554687
100
AcDbHatch
 10
0.0
 20
0.0
 30
0.0
210
0.0
220
0.0
230
1.0
  2
SOLID
 70
     1
 71
     1
 91
        2
 92
        1
 93
        1
 72
     4
 94
        3
 73
     0
 74
     0
 95
       17
 96
       13
 40
0.0
 40
0.0
 40
0.0
 40
0.0
 40
1.0
 40
1.0
 40
1.0
 40
2.0
 40
2.0
 40
2.0
 40
3.0
 40
3.0
 40
3.0
 40
4.0
 40
4.0
 40
4.0
 40
4.0
 10
75.91870793457935
 20
-147.8119940494185
 10
75.91870793457935
 20
-148.0617634720991
 10
76.20206703824115
 20
-148.10827226115
 10
76.54692109631466
 20
-148.10827226115
 10
76.86645370257159
 20
-148.10827226115
 10
77.17530651282423
 20
-148.0720987585549
 10
77.17530651282423
 20
-147.8119940494185
 10
77.17530651282423
 20
-147.5642916840291
 10
76.89384221167933
 20
-147.515715837687
 10
76.54692109631466
 20
-147.515715837687
 10
76.227560744832
 20
-147.515715837687
 10
75.91870793457935
 20
-147.5539563975733
 10
75.91870793457935
 20
-147.8119940494185
 97
        0
 97
        1
330
E8
 92
        1
 93
        1
 72
     4
 94
        3
 73
     0
 74
     0
 95
       29
 96
       25
 40
0.0
 40
0.0
 40
0.0
 40
0.0
 40
1.0
 40
1.0
 40
1.0
 40
2.0
 40
2.0
 40
2.0
 40
3.0
 40
3.0
 40
3.0
 40
4.0
 40
4.0
 40
4.0
 40
5.0
 40
5.0
 40
5.0
 40
6.0
 40
6.0
 40
6.0
 40
7.0
 40
7.0
 40
7.0
 40
8.0
 40
8.0
 40
8.0
 40
8.0
 10
77.14137232229451
 20
-147.4140855208722
 10
77.35083412779771
 20
-147.522261519109
 10
77.36995440774085
 20
-147.6955498220171
 10
77.36995440774085
 20
-147.8119940494185
 10
77.36995440774085
 20
-147.9728800085797
 10
77.32344561868997
 20
-148.1144734330235
 10
77.14137232229451
 20
-148.2095580684163
 10
76.94689668215217
 20
-148.3132554425224
 10
76.70987411276698
 20
-148.3325479772398
 10
76.54692109631466
 20
-148.3325479772398
 10
76.40308835980547
 20
-148.3325479772398
 10
76.15142413460798
 20
-148.3153224998135
 10
75.95246987033481
 20
-148.2095580684163
 10
75.74938149147932
 20
-148.101726579728
 10
75.72612709695389
 20
-147.9408406205669
 10
75.72612709695389
 20
-147.8119940494185
 10
75.72612709695389
 20
-147.6531751475485
 10
75.7705688287136
 20
-147.5095146658136
 10
75.95246987033481
 20
-147.4140855208722
 10
76.14505070796027
 20
-147.314866770897
 10
76.37346053863232
 20
-147.2914401215972
 10
76.54692109631466
 20
-147.2914401215972
 10
76.71831459670584
 20
-147.2914401215972
 10
76.94896373944331
 20
-147.3127997136058
 10
77.14137232229451
 20
-147.4140855208722
 97
        0
 97
        1
330
E9
 75
     2
 76
     1
 98
        1
 10
0.0
 20
0.0
450
        0
451
        0
460
0.0
461
0.0
452
        0
462
0.0
453
        0
470

  0
SPLINE
  5
EB
330
E4
100
AcDbEntity
  8
レイヤー 1
100
AcDbSpline
210
0.0
220
0.0
230
1.0
 70
    11
 71
     3
 72
    17
 73
    13
 74
     0
 42
0.0000000001
 43
0.0000000001
 40
0.0
 40
0.0
 40
0.0
 40
0.0
 40
1.0
 40
1.0
 40
1.0
 40
2.0
 40
2.0
 40
2.0
 40
3.0
 40
3.0
 40
3.0
 40
4.0
 40
4.0
 40
4.0
 40
4.0
 10
77.31913924933341
 20
-147.0750881251236
 30
0.0
 10
77.31913924933341
 20
-147.0750881251236
 30
0.0
 10
77.06747502413591
 20
-147.0750881251236
 30
0.0
 10
77.06747502413591
 20
-147.0750881251236
 30
0.0
 10
77.06747502413591
 20
-147.0750881251236
 30
0.0
 10
77.06747502413591
 20
-146.8232516451518
 30
0.0
 10
77.06747502413591
 20
-146.8232516451518
 30
0.0
 10
77.06747502413591
 20
-146.8232516451518
 30
0.0
 10
77.31913924933341
 20
-146.8232516451518
 30
0.0
 10
77.31913924933341
 20
-146.8232516451518
 30
0.0
 10
77.31913924933341
 20
-146.8232516451518
 30
0.0
 10
77.31913924933341
 20
-147.0750881251236
 30
0.0
 10
77.31913924933341
 20
-147.0750881251236
 30
0.0
  0
HATCH
  5
EC
330
E4
100
AcDbEntity
  8
レイヤー 1
 62
    18
420
        0
440
 33554687
100
AcDbHatch
 10
0.0
 20
0.0
 30
0.0
210
0.0
220
0.0
230
1.0
  2
SOLID
 70
     1
 71
     1
 91
        1
 92
        1
 93
        1
 72
     4
 94
        3
 73
     0
 74
     0
 95
       17
 96
       13
 40
0.0
 40
0.0
 40
0.0
 40
0.0
 40
1.0
 40
1.0
 40
1.0
 40
2.0
 40
2.0
 40
2.0
 40
3.0
 40
3.0
 40
3.0
 40
4.0
 40
4.0
 40
4.0
 40
4.0
 10
77.31913924933341
 20
-147.0750881251236
 10
77.31913924933341
 20
-147.0750881251236
 10
77.06747502413591
 20
-147.0750881251236
 10
77.06747502413591
 20
-147.0750881251236
 10
77.06747502413591
 20
-147.0750881251236
 10
77.06747502413591
 20
-146.8232516451518
 10
77.06747502413591
 20
-146.8232516451518
 10
77.06747502413591
 20
-146.8232516451518
 10
77.31913924933341
 20
-146.8232516451518
 10
77.31913924933341
 20
-146.8232516451518
 10
77.31913924933341
 20
-146.8232516451518
 10
77.31913924933341
 20
-147.0750881251236
 10
77.31913924933341
 20
-147.0750881251236
 97
        0
 97
        1
330
EB
 75
     2
 76
     1
 98
        1
 10
0.0
 20
0.0
450
        0
451
        0
460
0.0
461
0.0
452
        0
462
0.0
453
        0
470

  0
SPLINE
  5
ED
330
E4
100
AcDbEntity
  8
レイヤー 1
100
AcDbSpline
210
0.0
220
0.0
230
1.0
 70
     9
 71
     3
 72
    53
 73
    49
 74
     0
 42
0.0000000001
 43
0.0000000001
 40
0.0
 40
0.0
 40
0.0
 40
0.0
 40
1.0
 40
1.0
 40
1.0
 40
2.0
 40
2.0
 40
2.0
 40
3.0
 40
3.0
 40
3.0
 40
4.0
 40
4.0
 40
4.0
 40
5.0
 40
5.0
 40
5.0
 40
6.0
 40
6.0
 40
6.0
 40
7.0
 40
7.0
 40
7.0
 40
8.0
 40
8.0
 40
8.0
 40
9.0
 40
9.0
 40
9.0
 40
10.0
 40
10.0
 40
10.0
 40
11.0
 40
11.0
 40
11.0
 40
12.0
 40
12.0
 40
12.0
 40
13.0
 40
13.0
 40
13.0
 40
14.0
 40
14.0
 40
14.0
 40
15.0
 40
15.0
 40
15.0
 40
16.0
 40
16.0
 40
16.0
 40
16.0
 10
77.36995440774085
 20
-146.1059827651228
 30
0.0
 10
77.36995440774085
 20
-146.184186432638
 30
0.0
 10
77.35307343986312
 20
-146.2858167494528
 30
0.0
 10
77.28951142816026
 20
-146.3874470662677
 30
0.0
 10
77.17944062740653
 20
-146.5607353691758
 30
0.0
 10
77.04835474419278
 20
-146.5820949611843
 30
0.0
 10
76.94052325550446
 20
-146.6010429863532
 30
0.0
 10
76.94052325550446
 20
-146.6010429863532
 30
0.0
 10
76.94052325550446
 20
-146.3788343275546
 30
0.0
 10
76.94052325550446
 20
-146.3788343275546
 30
0.0
 10
77.13930526500337
 20
-146.3240573093391
 30
0.0
 10
77.16893308617652
 20
-146.1969332859334
 30
0.0
 10
77.16893308617652
 20
-146.1039157078316
 30
0.0
 10
77.16893308617652
 20
-145.964389340679
 30
0.0
 10
77.06954208142706
 20
-145.812116120231
 30
0.0
 10
76.83682588139844
 20
-145.812116120231
 30
0.0
 10
76.58085528684437
 20
-145.812116120231
 30
0.0
 10
76.51109210326807
 20
-145.991950104561
 30
0.0
 10
76.51109210326807
 20
-146.1125284465448
 30
0.0
 10
76.51109210326807
 20
-146.1442233250091
 30
0.0
 10
76.51109210326807
 20
-146.2858167494528
 30
0.0
 10
76.64011092919067
 20
-146.3747002129723
 30
0.0
 10
76.64011092919067
 20
-146.3747002129723
 30
0.0
 10
76.62099064924753
 20
-146.55040008272
 30
0.0
 10
76.62099064924753
 20
-146.55040008272
 30
0.0
 10
76.62099064924753
 20
-146.55040008272
 30
0.0
 10
75.77487519807018
 20
-146.4298217407363
 30
0.0
 10
75.77487519807018
 20
-146.4298217407363
 30
0.0
 10
75.77487519807018
 20
-146.4298217407363
 30
0.0
 10
75.77487519807018
 20
-145.6512301610698
 30
0.0
 10
75.77487519807018
 20
-145.6512301610698
 30
0.0
 10
75.77487519807018
 20
-145.6512301610698
 30
0.0
 10
75.96952309298679
 20
-145.6512301610698
 30
0.0
 10
75.96952309298679
 20
-145.6512301610698
 30
0.0
 10
75.96952309298679
 20
-145.6512301610698
 30
0.0
 10
75.96952309298679
 20
-146.266868724284
 30
0.0
 10
75.96952309298679
 20
-146.266868724284
 30
0.0
 10
75.96952309298679
 20
-146.266868724284
 30
0.0
 10
76.39258081857547
 20
-146.3323255385037
 30
0.0
 10
76.39258081857547
 20
-146.3323255385037
 30
0.0
 10
76.35864662804576
 20
-146.2710028388663
 30
0.0
 10
76.3185112656426
 20
-146.1886650567688
 30
0.0
 10
76.3185112656426
 20
-146.0701537720762
 30
0.0
 10
76.3185112656426
 20
-145.8162502348133
 30
0.0
 10
76.50471867662036
 20
-145.5792276654281
 30
0.0
 10
76.8177056014553
 20
-145.5792276654281
 30
0.0
 10
77.13517115042107
 20
-145.5792276654281
 30
0.0
 10
77.36995440774085
 20
-145.8035033815179
 30
0.0
 10
77.36995440774085
 20
-146.1059827651228
 30
0.0
  0
HATCH
  5
EE
330
E4
100
AcDbEntity
  8
レイヤー 1
 62
    18
420
        0
440
 33554687
100
AcDbHatch
 10
0.0
 20
0.0
 30
0.0
210
0.0
220
0.0
230
1.0
  2
SOLID
 70
     1
 71
     1
 91
        1
 92
        1
 93
        1
 72
     4
 94
        3
 73
     0
 74
     0
 95
       53
 96
       49
 40
0.0
 40
0.0
 40
0.0
 40
0.0
 40
1.0
 40
1.0
 40
1.0
 40
2.0
 40
2.0
 40
2.0
 40
3.0
 40
3.0
 40
3.0
 40
4.0
 40
4.0
 40
4.0
 40
5.0
 40
5.0
 40
5.0
 40
6.0
 40
6.0
 40
6.0
 40
7.0
 40
7.0
 40
7.0
 40
8.0
 40
8.0
 40
8.0
 40
9.0
 40
9.0
 40
9.0
 40
10.0
 40
10.0
 40
10.0
 40
11.0
 40
11.0
 40
11.0
 40
12.0
 40
12.0
 40
12.0
 40
13.0
 40
13.0
 40
13.0
 40
14.0
 40
14.0
 40
14.0
 40
15.0
 40
15.0
 40
15.0
 40
16.0
 40
16.0
 40
16.0
 40
16.0
 10
77.36995440774085
 20
-146.1059827651228
 10
77.36995440774085
 20
-146.184186432638
 10
77.35307343986312
 20
-146.2858167494528
 10
77.28951142816026
 20
-146.3874470662677
 10
77.17944062740653
 20
-146.5607353691758
 10
77.04835474419278
 20
-146.5820949611843
 10
76.94052325550446
 20
-146.6010429863532
 10
76.94052325550446
 20
-146.6010429863532
 10
76.94052325550446
 20
-146.3788343275546
 10
76.94052325550446
 20
-146.3788343275546
 10
77.13930526500337
 20
-146.3240573093391
 10
77.16893308617652
 20
-146.1969332859334
 10
77.16893308617652
 20
-146.1039157078316
 10
77.16893308617652
 20
-145.964389340679
 10
77.06954208142706
 20
-145.812116120231
 10
76.83682588139844
 20
-145.812116120231
 10
76.58085528684437
 20
-145.812116120231
 10
76.51109210326807
 20
-145.991950104561
 10
76.51109210326807
 20
-146.1125284465448
 10
76.51109210326807
 20
-146.1442233250091
 10
76.51109210326807
 20
-146.2858167494528
 10
76.64011092919067
 20
-146.3747002129723
 10
76.64011092919067
 20
-146.3747002129723
 10
76.62099064924753
 20
-146.55040008272
 10
76.62099064924753
 20
-146.55040008272
 10
76.62099064924753
 20
-146.55040008272
 10
75.77487519807018
 20
-146.4298217407363
 10
75.77487519807018
 20
-146.4298217407363
 10
75.77487519807018
 20
-146.4298217407363
 10
75.77487519807018
 20
-145.6512301610698
 10
75.77487519807018
 20
-145.6512301610698
 10
75.77487519807018
 20
-145.6512301610698
 10
75.96952309298679
 20
-145.6512301610698
 10
75.96952309298679
 20
-145.6512301610698
 10
75.96952309298679
 20
-145.6512301610698
 10
75.96952309298679
 20
-146.266868724284
 10
75.96952309298679
 20
-146.266868724284
 10
75.96952309298679
 20
-146.266868724284
 10
76.39258081857547
 20
-146.3323255385037
 10
76.39258081857547
 20
-146.3323255385037
 10
76.35864662804576
 20
-146.2710028388663
 10
76.3185112656426
 20
-146.1886650567688
 10
76.3185112656426
 20
-146.0701537720762
 10
76.3185112656426
 20
-145.8162502348133
 10
76.50471867662036
 20
-145.5792276654281
 10
76.8177056014553
 20
-145.5792276654281
 10
77.13517115042107
 20
-145.5792276654281
 10
77.36995440774085
 20
-145.8035033815179
 10
77.36995440774085
 20
-146.1059827651228
 97
        0
 97
        1
330
ED
 75
     2
 76
     1
 98
        1
 10
0.0
 20
0.0
450
        0
451
        0
460
0.0
461
0.0
452
        0
462
0.0
453
        0
470

  0
ENDBLK
  5
E7
330
E4
100
AcDbEntity
  8
0
100
AcDbBlockEnd
  0
BLOCK
  5
F3
330
F1
100
AcDbEntity
  8
0
100
AcDbBlockBegin
  2
Block_2
 70
     0
 10
0.0
 20
0.0
 30
0.0
  3
Block_2
  1

  0
INSERT
  5
F6
330
F1
100
AcDbEntity
  8
レイヤー 1
100
AcDbBlockReference
  2
Block_3
 10
0.0
 20
0.0
 30
0.0
  0
ENDBLK
  5
F4
330
F1
100
AcDbEntity
  8
0
100
AcDbBlockEnd
  0
BLOCK
  5
F7
330
F5
100
AcDbEntity
  8
0
100
AcDbBlockBegin
  2
Block_3
 70
     0
 10
0.0
 20
0.0
 30
0.0
  3
Block_3
  1

  0
SPLINE
  5
F9
330
F5
100
AcDbEntity
  8
レイヤー 1
100
AcDbSpline
210
0.0
220
0.0
230
1.0
 70
     9
 71
     3
 72
    44
 73
    40
 74
     0
 42
0.0000000001
 43
0.0000000001
 40
0.0
 40
0.0
 40
0.0
 40
0.0
 40
1.0
 40
1.0
 40
1.0
 40
2.0
 40
2.0
 40
2.0
 40
3.0
 40
3.0
 40
3.0
 40
4.0
 40
4.0
 40
4.0
 40
5.0
 40
5.0
 40
5.0
 40
6.0
 40
6.0
 40
6.0
 40
7.0
 40
7.0
 40
7.0
 40
8.0
 40
8.0
 40
8.0
 40
9.0
 40
9.0
 40
9.0
 40
10.0
 40
10.0
 40
10.0
 40
11.0
 40
11.0
 40
11.0
 40
12.0
 40
12.0
 40
12.0
 40
13.0
 40
13.0
 40
13.0
 40
13.0
 10
92.69236108793803
 20
-140.599686651048
 30
0.0
 10
92.47445879849598
 20
-140.7583332981437
 30
0.0
 10
92.38126896561997
 20
-140.8324028510766
 30
0.0
 10
92.33269311927795
 20
-140.9762355875858
 30
0.0
 10
92.33269311927795
 20
-140.9762355875858
 30
0.0
 10
93.11111244417014
 20
-140.9762355875858
 30
0.0
 10
93.11111244417014
 20
-140.9762355875858
 30
0.0
 10
93.11111244417014
 20
-140.9762355875858
 30
0.0
 10
93.11111244417014
 20
-141.1813910237324
 30
0.0
 10
93.11111244417014
 20
-141.1813910237324
 30
0.0
 10
93.11111244417014
 20
-141.1813910237324
 30
0.0
 10
92.08309595137158
 20
-141.1813910237324
 30
0.0
 10
92.08309595137158
 20
-141.1813910237324
 30
0.0
 10
92.11479082983588
 20
-140.8237901123635
 30
0.0
 10
92.18024764405564
 20
-140.7455864448483
 30
0.0
 10
92.56540931930656
 20
-140.4472411758257
 30
0.0
 10
92.82137991386063
 20
-140.2484591663267
 30
0.0
 10
92.88683672808039
 20
-140.1807630400416
 30
0.0
 10
92.88683672808039
 20
-140.0433037301801
 30
0.0
 10
92.88683672808039
 20
-139.9247924454875
 30
0.0
 10
92.81500648721292
 20
-139.7935343074995
 30
0.0
 10
92.61829153500515
 20
-139.7935343074995
 30
0.0
 10
92.35801457109452
 20
-139.7935343074995
 30
0.0
 10
92.34957408715565
 20
-140.024183450237
 30
0.0
 10
92.34526771779909
 20
-140.1406276776384
 30
0.0
 10
92.34526771779909
 20
-140.1406276776384
 30
0.0
 10
92.12116425648359
 20
-140.1406276776384
 30
0.0
 10
92.12116425648359
 20
-140.1406276776384
 30
0.0
 10
92.12960474042246
 20
-140.013675909007
 30
0.0
 10
92.14011228165247
 20
-139.9015380509621
 30
0.0
 10
92.22055526123305
 20
-139.7830267662695
 30
0.0
 10
92.33045380721254
 20
-139.6223130618826
 30
0.0
 10
92.51666121819027
 20
-139.5883788713529
 30
0.0
 10
92.63310544559173
 20
-139.5883788713529
 30
0.0
 10
92.91026337738008
 20
-139.5883788713529
 30
0.0
 10
93.11748587081785
 20
-139.7725192250395
 30
0.0
 10
93.11748587081785
 20
-140.0453707874713
 30
0.0
 10
93.11748587081785
 20
-140.2737806181433
 30
0.0
 10
93.00121389819066
 20
-140.3733438776671
 30
0.0
 10
92.69236108793803
 20
-140.599686651048
 30
0.0
  0
HATCH
  5
FA
330
F5
100
AcDbEntity
  8
レイヤー 1
 62
    18
420
        0
440
 33554687
100
AcDbHatch
 10
0.0
 20
0.0
 30
0.0
210
0.0
220
0.0
230
1.0
  2
SOLID
 70
     1
 71
     1
 91
        1
 92
        1
 93
        1
 72
     4
 94
        3
 73
     0
 74
     0
 95
       44
 96
       40
 40
0.0
 40
0.0
 40
0.0
 40
0.0
 40
1.0
 40
1.0
 40
1.0
 40
2.0
 40
2.0
 40
2.0
 40
3.0
 40
3.0
 40
3.0
 40
4.0
 40
4.0
 40
4.0
 40
5.0
 40
5.0
 40
5.0
 40
6.0
 40
6.0
 40
6.0
 40
7.0
 40
7.0
 40
7.0
 40
8.0
 40
8.0
 40
8.0
 40
9.0
 40
9.0
 40
9.0
 40
10.0
 40
10.0
 40
10.0
 40
11.0
 40
11.0
 40
11.0
 40
12.0
 40
12.0
 40
12.0
 40
13.0
 40
13.0
 40
13.0
 40
13.0
 10
92.69236108793803
 20
-140.599686651048
 10
92.47445879849598
 20
-140.7583332981437
 10
92.38126896561997
 20
-140.8324028510766
 10
92.33269311927795
 20
-140.9762355875858
 10
92.33269311927795
 20
-140.9762355875858
 10
93.11111244417014
 20
-140.9762355875858
 10
93.11111244417014
 20
-140.9762355875858
 10
93.11111244417014
 20
-140.9762355875858
 10
93.11111244417014
 20
-141.1813910237324
 10
93.11111244417014
 20
-141.1813910237324
 10
93.11111244417014
 20
-141.1813910237324
 10
92.08309595137158
 20
-141.1813910237324
 10
92.08309595137158
 20
-141.1813910237324
 10
92.11479082983588
 20
-140.8237901123635
 10
92.18024764405564
 20
-140.7455864448483
 10
92.56540931930656
 20
-140.4472411758257
 10
92.82137991386063
 20
-140.2484591663267
 10
92.88683672808039
 20
-140.1807630400416
 10
92.88683672808039
 20
-140.0433037301801
 10
92.88683672808039
 20
-139.9247924454875
 10
92.81500648721292
 20
-139.7935343074995
 10
92.61829153500515
 20
-139.7935343074995
 10
92.35801457109452
 20
-139.7935343074995
 10
92.34957408715565
 20
-140.024183450237
 10
92.34526771779909
 20
-140.1406276776384
 10
92.34526771779909
 20
-140.1406276776384
 10
92.12116425648359
 20
-140.1406276776384
 10
92.12116425648359
 20
-140.1406276776384
 10
92.12960474042246
 20
-140.013675909007
 10
92.14011228165247
 20
-139.9015380509621
 10
92.22055526123305
 20
-139.7830267662695
 10
92.33045380721254
 20
-139.6223130618826
 10
92.51666121819027
 20
-139.5883788713529
 10
92.63310544559173
 20
-139.5883788713529
 10
92.91026337738008
 20
-139.5883788713529
 10
93.11748587081785
 20
-139.7725192250395
 10
93.11748587081785
 20
-140.0453707874713
 10
93.11748587081785
 20
-140.2737806181433
 10
93.00121389819066
 20
-140.3733438776671
 10
92.69236108793803
 20
-140.599686651048
 97
        0
 97
        1
330
F9
 75
     2
 76
     1
 98
        1
 10
0.0
 20
0.0
450
        0
451
        0
460
0.0
461
0.0
452
        0
462
0.0
453
        0
470

  0
SPLINE
  5
FB
330
F5
100
AcDbEntity
  8
レイヤー 1
100
AcDbSpline
210
0.0
220
0.0
230
1.0
 70
    11
 71
     3
 72
    26
 73
    22
 74
     0
 42
0.0000000001
 43
0.0000000001
 40
0.0
 40
0.0
 40
0.0
 40
0.0
 40
1.0
 40
1.0
 40
1.0
 40
2.0
 40
2.0
 40
2.0
 40
3.0
 40
3.0
 40
3.0
 40
4.0
 40
4.0
 40
4.0
 40
5.0
 40
5.0
 40
5.0
 40
6.0
 40
6.0
 40
6.0
 40
7.0
 40
7.0
 40
7.0
 40
7.0
 10
93.72744002648133
 20
-141.1813910237324
 30
0.0
 10
93.72744002648133
 20
-141.1813910237324
 30
0.0
 10
93.72744002648133
 20
-140.0770656659356
 30
0.0
 10
93.72744002648133
 20
-140.0770656659356
 30
0.0
 10
93.72744002648133
 20
-140.0770656659356
 30
0.0
 10
93.3973998789944
 20
-140.0770656659356
 30
0.0
 10
93.3973998789944
 20
-140.0770656659356
 30
0.0
 10
93.3973998789944
 20
-140.0770656659356
 30
0.0
 10
93.3973998789944
 20
-139.9289265600699
 30
0.0
 10
93.3973998789944
 20
-139.9289265600699
 30
0.0
 10
93.72950708377249
 20
-139.9142849042575
 30
0.0
 10
93.77601587282336
 20
-139.7513318878052
 30
0.0
 10
93.80564369399651
 20
-139.6371269724692
 30
0.0
 10
93.80564369399651
 20
-139.6371269724692
 30
0.0
 10
93.9517157425711
 20
-139.6371269724692
 30
0.0
 10
93.9517157425711
 20
-139.6371269724692
 30
0.0
 10
93.9517157425711
 20
-139.6371269724692
 30
0.0
 10
93.9517157425711
 20
-141.1813910237324
 30
0.0
 10
93.9517157425711
 20
-141.1813910237324
 30
0.0
 10
93.9517157425711
 20
-141.1813910237324
 30
0.0
 10
93.72744002648133
 20
-141.1813910237324
 30
0.0
 10
93.72744002648133
 20
-141.1813910237324
 30
0.0
  0
HATCH
  5
FC
330
F5
100
AcDbEntity
  8
レイヤー 1
 62
    18
420
        0
440
 33554687
100
AcDbHatch
 10
0.0
 20
0.0
 30
0.0
210
0.0
220
0.0
230
1.0
  2
SOLID
 70
     1
 71
     1
 91
        1
 92
        1
 93
        1
 72
     4
 94
        3
 73
     0
 74
     0
 95
       26
 96
       22
 40
0.0
 40
0.0
 40
0.0
 40
0.0
 40
1.0
 40
1.0
 40
1.0
 40
2.0
 40
2.0
 40
2.0
 40
3.0
 40
3.0
 40
3.0
 40
4.0
 40
4.0
 40
4.0
 40
5.0
 40
5.0
 40
5.0
 40
6.0
 40
6.0
 40
6.0
 40
7.0
 40
7.0
 40
7.0
 40
7.0
 10
93.72744002648133
 20
-141.1813910237324
 10
93.72744002648133
 20
-141.1813910237324
 10
93.72744002648133
 20
-140.0770656659356
 10
93.72744002648133
 20
-140.0770656659356
 10
93.72744002648133
 20
-140.0770656659356
 10
93.3973998789944
 20
-140.0770656659356
 10
93.3973998789944
 20
-140.0770656659356
 10
93.3973998789944
 20
-140.0770656659356
 10
93.3973998789944
 20
-139.9289265600699
 10
93.3973998789944
 20
-139.9289265600699
 10
93.72950708377249
 20
-139.9142849042575
 10
93.77601587282336
 20
-139.7513318878052
 10
93.80564369399651
 20
-139.6371269724692
 10
93.80564369399651
 20
-139.6371269724692
 10
93.9517157425711
 20
-139.6371269724692
 10
93.9517157425711
 20
-139.6371269724692
 10
93.9517157425711
 20
-139.6371269724692
 10
93.9517157425711
 20
-141.1813910237324
 10
93.9517157425711
 20
-141.1813910237324
 10
93.9517157425711
 20
-141.1813910237324
 10
93.72744002648133
 20
-141.1813910237324
 10
93.72744002648133
 20
-141.1813910237324
 97
        0
 97
        1
330
FB
 75
     2
 76
     1
 98
        1
 10
0.0
 20
0.0
450
        0
451
        0
460
0.0
461
0.0
452
        0
462
0.0
453
        0
470

  0
ENDBLK
  5
F8
330
F5
100
AcDbEntity
  8
0
100
AcDbBlockEnd
  0
BLOCK
  5
101
330
FF
100
AcDbEntity
  8
0
100
AcDbBlockBegin
  2
Block_4
 70
     0
 10
0.0
 20
0.0
 30
0.0
  3
Block_4
  1

  0
SPLINE
  5
103
330
FF
100
AcDbEntity
  8
レイヤー 1
100
AcDbSpline
210
0.0
220
0.0
230
1.0
 70
     9
 71
     3
 72
    17
 73
    13
 74
     0
 42
0.0000000001
 43
0.0000000001
 40
0.0
 40
0.0
 40
0.0
 40
0.0
 40
1.0
 40
1.0
 40
1.0
 40
2.0
 40
2.0
 40
2.0
 40
3.0
 40
3.0
 40
3.0
 40
4.0
 40
4.0
 40
4.0
 40
4.0
 10
77.24145234614103
 20
-150.1338161517026
 30
0.0
 10
77.24145234614103
 20
-150.3959879181302
 30
0.0
 10
77.45298120893536
 20
-150.4338839684679
 30
0.0
 10
77.56925318156254
 20
-150.4338839684679
 30
0.0
 10
77.74478079653603
 20
-150.4338839684679
 30
0.0
 10
77.90773381298835
 20
-150.338799333075
 30
0.0
 10
77.90773381298835
 20
-150.1548312341627
 30
0.0
 10
77.90773381298835
 20
-150.0342528921789
 30
0.0
 10
77.84847817064205
 20
-149.8585530224312
 30
0.0
 10
77.56287975491485
 20
-149.8585530224312
 30
0.0
 10
77.33860403882506
 20
-149.8585530224312
 30
0.0
 10
77.24145234614103
 20
-149.9980793895838
 30
0.0
 10
77.24145234614103
 20
-150.1338161517026
 30
0.0
  0
SPLINE
  5
104
330
FF
100
AcDbEntity
  8
レイヤー 1
100
AcDbSpline
210
0.0
220
0.0
230
1.0
 70
     9
 71
     3
 72
    32
 73
    28
 74
     0
 42
0.0000000001
 43
0.0000000001
 40
0.0
 40
0.0
 40
0.0
 40
0.0
 40
1.0
 40
1.0
 40
1.0
 40
2.0
 40
2.0
 40
2.0
 40
3.0
 40
3.0
 40
3.0
 40
4.0
 40
4.0
 40
4.0
 40
5.0
 40
5.0
 40
5.0
 40
6.0
 40
6.0
 40
6.0
 40
7.0
 40
7.0
 40
7.0
 40
8.0
 40
8.0
 40
8.0
 40
9.0
 40
9.0
 40
9.0
 40
9.0
 10
78.10031465061381
 20
-150.1506971195804
 30
0.0
 10
78.10031465061381
 20
-150.6667724232708
 30
0.0
 10
77.54599878703712
 20
-150.6753851619839
 30
0.0
 10
77.33240286695163
 20
-150.6753851619839
 30
0.0
 10
77.10175372421415
 20
-150.6753851619839
 30
0.0
 10
76.45442028253571
 20
-150.6560926272665
 30
0.0
 10
76.45442028253571
 20
-150.1124565596941
 30
0.0
 10
76.45442028253571
 20
-149.939168256786
 30
0.0
 10
76.52418346611201
 20
-149.6935329486877
 30
0.0
 10
76.8562906708901
 20
-149.65563689835
 30
0.0
 10
76.8562906708901
 20
-149.65563689835
 30
0.0
 10
76.8562906708901
 20
-149.8692328184354
 30
0.0
 10
76.8562906708901
 20
-149.8692328184354
 30
0.0
 10
76.79927434060921
 20
-149.8799126144397
 30
0.0
 10
76.65113523474346
 20
-149.911607492904
 30
0.0
 10
76.65113523474346
 20
-150.1145236169852
 30
0.0
 10
76.65113523474346
 20
-150.4066677141344
 30
0.0
 10
76.97910832493924
 20
-150.4466308217633
 30
0.0
 10
77.18426376108588
 20
-150.4593776750587
 30
0.0
 10
77.1060600935707
 20
-150.366360096957
 30
0.0
 10
77.04680445122441
 20
-150.2984917158976
 30
0.0
 10
77.04680445122441
 20
-150.1165906742764
 30
0.0
 10
77.04680445122441
 20
-149.9367566899463
 30
0.0
 10
77.15463593991273
 20
-149.6342773063414
 30
0.0
 10
77.56081269762368
 20
-149.6342773063414
 30
0.0
 10
77.88017304910635
 20
-149.6342773063414
 30
0.0
 10
78.10031465061381
 20
-149.8334038253888
 30
0.0
 10
78.10031465061381
 20
-150.1506971195804
 30
0.0
  0
HATCH
  5
105
330
FF
100
AcDbEntity
  8
レイヤー 1
 62
    18
420
        0
440
 33554687
100
AcDbHatch
 10
0.0
 20
0.0
 30
0.0
210
0.0
220
0.0
230
1.0
  2
SOLID
 70
     1
 71
     1
 91
        2
 92
        1
 93
        1
 72
     4
 94
        3
 73
     0
 74
     0
 95
       17
 96
       13
 40
0.0
 40
0.0
 40
0.0
 40
0.0
 40
1.0
 40
1.0
 40
1.0
 40
2.0
 40
2.0
 40
2.0
 40
3.0
 40
3.0
 40
3.0
 40
4.0
 40
4.0
 40
4.0
 40
4.0
 10
77.24145234614103
 20
-150.1338161517026
 10
77.24145234614103
 20
-150.3959879181302
 10
77.45298120893536
 20
-150.4338839684679
 10
77.56925318156254
 20
-150.4338839684679
 10
77.74478079653603
 20
-150.4338839684679
 10
77.90773381298835
 20
-150.338799333075
 10
77.90773381298835
 20
-150.1548312341627
 10
77.90773381298835
 20
-150.0342528921789
 10
77.84847817064205
 20
-149.8585530224312
 10
77.56287975491485
 20
-149.8585530224312
 10
77.33860403882506
 20
-149.8585530224312
 10
77.24145234614103
 20
-149.9980793895838
 10
77.24145234614103
 20
-150.1338161517026
 97
        0
 97
        1
330
103
 92
        1
 93
        1
 72
     4
 94
        3
 73
     0
 74
     0
 95
       32
 96
       28
 40
0.0
 40
0.0
 40
0.0
 40
0.0
 40
1.0
 40
1.0
 40
1.0
 40
2.0
 40
2.0
 40
2.0
 40
3.0
 40
3.0
 40
3.0
 40
4.0
 40
4.0
 40
4.0
 40
5.0
 40
5.0
 40
5.0
 40
6.0
 40
6.0
 40
6.0
 40
7.0
 40
7.0
 40
7.0
 40
8.0
 40
8.0
 40
8.0
 40
9.0
 40
9.0
 40
9.0
 40
9.0
 10
78.10031465061381
 20
-150.1506971195804
 10
78.10031465061381
 20
-150.6667724232708
 10
77.54599878703712
 20
-150.6753851619839
 10
77.33240286695163
 20
-150.6753851619839
 10
77.10175372421415
 20
-150.6753851619839
 10
76.45442028253571
 20
-150.6560926272665
 10
76.45442028253571
 20
-150.1124565596941
 10
76.45442028253571
 20
-149.939168256786
 10
76.52418346611201
 20
-149.6935329486877
 10
76.8562906708901
 20
-149.65563689835
 10
76.8562906708901
 20
-149.65563689835
 10
76.8562906708901
 20
-149.8692328184354
 10
76.8562906708901
 20
-149.8692328184354
 10
76.79927434060921
 20
-149.8799126144397
 10
76.65113523474346
 20
-149.911607492904
 10
76.65113523474346
 20
-150.1145236169852
 10
76.65113523474346
 20
-150.4066677141344
 10
76.97910832493924
 20
-150.4466308217633
 10
77.18426376108588
 20
-150.4593776750587
 10
77.1060600935707
 20
-150.366360096957
 10
77.04680445122441
 20
-150.2984917158976
 10
77.04680445122441
 20
-150.1165906742764
 10
77.04680445122441
 20
-149.9367566899463
 10
77.15463593991273
 20
-149.6342773063414
 10
77.56081269762368
 20
-149.6342773063414
 10
77.88017304910635
 20
-149.6342773063414
 10
78.10031465061381
 20
-149.8334038253888
 10
78.10031465061381
 20
-150.1506971195804
 97
        0
 97
        1
330
104
 75
     2
 76
     1
 98
        1
 10
0.0
 20
0.0
450
        0
451
        0
460
0.0
461
0.0
452
        0
462
0.0
453
        0
470

  0
ENDBLK
  5
102
330
FF
100
AcDbEntity
  8
0
100
AcDbBlockEnd
  0
BLOCK
  5
10A
330
108
100
AcDbEntity
  8
0
100
AcDbBlockBegin
  2
Block_5
 70
     0
 10
0.0
 20
0.0
 30
0.0
  3
Block_5
  1

  0
INSERT
  5
10D
330
108
100
AcDbEntity
  8
レイヤー 1
100
AcDbBlockReference
  2
Block_6
 10
0.0
 20
0.0
 30
0.0
  0
ENDBLK
  5
10B
330
108
100
AcDbEntity
  8
0
100
AcDbBlockEnd
  0
BLOCK
  5
10E
330
10C
100
AcDbEntity
  8
0
100
AcDbBlockBegin
  2
Block_6
 70
     0
 10
0.0
 20
0.0
 30
0.0
  3
Block_6
  1

  0
SPLINE
  5
110
330
10C
100
AcDbEntity
  8
レイヤー 1
100
AcDbSpline
210
0.0
220
0.0
230
1.0
 70
     9
 71
     3
 72
    44
 73
    40
 74
     0
 42
0.0000000001
 43
0.0000000001
 40
0.0
 40
0.0
 40
0.0
 40
0.0
 40
1.0
 40
1.0
 40
1.0
 40
2.0
 40
2.0
 40
2.0
 40
3.0
 40
3.0
 40
3.0
 40
4.0
 40
4.0
 40
4.0
 40
5.0
 40
5.0
 40
5.0
 40
6.0
 40
6.0
 40
6.0
 40
7.0
 40
7.0
 40
7.0
 40
8.0
 40
8.0
 40
8.0
 40
9.0
 40
9.0
 40
9.0
 40
10.0
 40
10.0
 40
10.0
 40
11.0
 40
11.0
 40
11.0
 40
12.0
 40
12.0
 40
12.0
 40
13.0
 40
13.0
 40
13.0
 40
13.0
 10
123.7936496001279
 20
-140.599686651048
 30
0.0
 10
123.5759195654602
 20
-140.7583332981437
 30
0.0
 10
123.4829019873584
 20
-140.8324028510766
 30
0.0
 10
123.4339816314679
 20
-140.9762355875858
 30
0.0
 10
123.4339816314679
 20
-140.9762355875858
 30
0.0
 10
124.2125732111343
 20
-140.9762355875858
 30
0.0
 10
124.2125732111343
 20
-140.9762355875858
 30
0.0
 10
124.2125732111343
 20
-140.9762355875858
 30
0.0
 10
124.2125732111343
 20
-141.1813910237324
 30
0.0
 10
124.2125732111343
 20
-141.1813910237324
 30
0.0
 10
124.2125732111343
 20
-141.1813910237324
 30
0.0
 10
123.1845567183358
 20
-141.1813910237324
 30
0.0
 10
123.1845567183358
 20
-141.1813910237324
 30
0.0
 10
123.2162515968001
 20
-140.8237901123635
 30
0.0
 10
123.2817084110198
 20
-140.7455864448483
 30
0.0
 10
123.6668700862708
 20
-140.4472411758257
 30
0.0
 10
123.9228406808248
 20
-140.2484591663267
 30
0.0
 10
123.9882974950446
 20
-140.1807630400416
 30
0.0
 10
123.9882974950446
 20
-140.0433037301801
 30
0.0
 10
123.9882974950446
 20
-139.9247924454875
 30
0.0
 10
123.9162949994029
 20
-139.7935343074995
 30
0.0
 10
123.7195800471951
 20
-139.7935343074995
 30
0.0
 10
123.4594753380587
 20
-139.7935343074995
 30
0.0
 10
123.4512071088941
 20
-140.024183450237
 30
0.0
 10
123.4467284847633
 20
-140.1406276776384
 30
0.0
 10
123.4467284847633
 20
-140.1406276776384
 30
0.0
 10
123.2224527686735
 20
-140.1406276776384
 30
0.0
 10
123.2224527686735
 20
-140.1406276776384
 30
0.0
 10
123.2310655073867
 20
-140.013675909007
 30
0.0
 10
123.2417453033909
 20
-139.9015380509621
 30
0.0
 10
123.3220160281973
 20
-139.7830267662695
 30
0.0
 10
123.4319145741767
 20
-139.6223130618826
 30
0.0
 10
123.6182942399288
 20
-139.5883788713529
 30
0.0
 10
123.7343939577817
 20
-139.5883788713529
 30
0.0
 10
124.0117241443443
 20
-139.5883788713529
 30
0.0
 10
124.2191188925563
 20
-139.7725192250395
 30
0.0
 10
124.2191188925563
 20
-140.0453707874713
 30
0.0
 10
124.2191188925563
 20
-140.2737806181433
 30
0.0
 10
124.1026746651549
 20
-140.3733438776671
 30
0.0
 10
123.7936496001279
 20
-140.599686651048
 30
0.0
  0
HATCH
  5
111
330
10C
100
AcDbEntity
  8
レイヤー 1
 62
    18
420
        0
440
 33554687
100
AcDbHatch
 10
0.0
 20
0.0
 30
0.0
210
0.0
220
0.0
230
1.0
  2
SOLID
 70
     1
 71
     1
 91
        1
 92
        1
 93
        1
 72
     4
 94
        3
 73
     0
 74
     0
 95
       44
 96
       40
 40
0.0
 40
0.0
 40
0.0
 40
0.0
 40
1.0
 40
1.0
 40
1.0
 40
2.0
 40
2.0
 40
2.0
 40
3.0
 40
3.0
 40
3.0
 40
4.0
 40
4.0
 40
4.0
 40
5.0
 40
5.0
 40
5.0
 40
6.0
 40
6.0
 40
6.0
 40
7.0
 40
7.0
 40
7.0
 40
8.0
 40
8.0
 40
8.0
 40
9.0
 40
9.0
 40
9.0
 40
10.0
 40
10.0
 40
10.0
 40
11.0
 40
11.0
 40
11.0
 40
12.0
 40
12.0
 40
12.0
 40
13.0
 40
13.0
 40
13.0
 40
13.0
 10
123.7936496001279
 20
-140.599686651048
 10
123.5759195654602
 20
-140.7583332981437
 10
123.4829019873584
 20
-140.8324028510766
 10
123.4339816314679
 20
-140.9762355875858
 10
123.4339816314679
 20
-140.9762355875858
 10
124.2125732111343
 20
-140.9762355875858
 10
124.2125732111343
 20
-140.9762355875858
 10
124.2125732111343
 20
-140.9762355875858
 10
124.2125732111343
 20
-141.1813910237324
 10
124.2125732111343
 20
-141.1813910237324
 10
124.2125732111343
 20
-141.1813910237324
 10
123.1845567183358
 20
-141.1813910237324
 10
123.1845567183358
 20
-141.1813910237324
 10
123.2162515968001
 20
-140.8237901123635
 10
123.2817084110198
 20
-140.7455864448483
 10
123.6668700862708
 20
-140.4472411758257
 10
123.9228406808248
 20
-140.2484591663267
 10
123.9882974950446
 20
-140.1807630400416
 10
123.9882974950446
 20
-140.0433037301801
 10
123.9882974950446
 20
-139.9247924454875
 10
123.9162949994029
 20
-139.7935343074995
 10
123.7195800471951
 20
-139.7935343074995
 10
123.4594753380587
 20
-139.7935343074995
 10
123.4512071088941
 20
-140.024183450237
 10
123.4467284847633
 20
-140.1406276776384
 10
123.4467284847633
 20
-140.1406276776384
 10
123.2224527686735
 20
-140.1406276776384
 10
123.2224527686735
 20
-140.1406276776384
 10
123.2310655073867
 20
-140.013675909007
 10
123.2417453033909
 20
-139.9015380509621
 10
123.3220160281973
 20
-139.7830267662695
 10
123.4319145741767
 20
-139.6223130618826
 10
123.6182942399288
 20
-139.5883788713529
 10
123.7343939577817
 20
-139.5883788713529
 10
124.0117241443443
 20
-139.5883788713529
 10
124.2191188925563
 20
-139.7725192250395
 10
124.2191188925563
 20
-140.0453707874713
 10
124.2191188925563
 20
-140.2737806181433
 10
124.1026746651549
 20
-140.3733438776671
 10
123.7936496001279
 20
-140.599686651048
 97
        0
 97
        1
330
110
 75
     2
 76
     1
 98
        1
 10
0.0
 20
0.0
450
        0
451
        0
460
0.0
461
0.0
452
        0
462
0.0
453
        0
470

  0
SPLINE
  5
112
330
10C
100
AcDbEntity
  8
レイヤー 1
100
AcDbSpline
210
0.0
220
0.0
230
1.0
 70
    11
 71
     3
 72
    26
 73
    22
 74
     0
 42
0.0000000001
 43
0.0000000001
 40
0.0
 40
0.0
 40
0.0
 40
0.0
 40
1.0
 40
1.0
 40
1.0
 40
2.0
 40
2.0
 40
2.0
 40
3.0
 40
3.0
 40
3.0
 40
4.0
 40
4.0
 40
4.0
 40
5.0
 40
5.0
 40
5.0
 40
6.0
 40
6.0
 40
6.0
 40
7.0
 40
7.0
 40
7.0
 40
7.0
 10
124.8289007934455
 20
-141.1813910237324
 30
0.0
 10
124.8289007934455
 20
-141.1813910237324
 30
0.0
 10
124.8289007934455
 20
-140.0770656659356
 30
0.0
 10
124.8289007934455
 20
-140.0770656659356
 30
0.0
 10
124.8289007934455
 20
-140.0770656659356
 30
0.0
 10
124.4988606459586
 20
-140.0770656659356
 30
0.0
 10
124.4988606459586
 20
-140.0770656659356
 30
0.0
 10
124.4988606459586
 20
-140.0770656659356
 30
0.0
 10
124.4988606459586
 20
-139.9289265600699
 30
0.0
 10
124.4988606459586
 20
-139.9289265600699
 30
0.0
 10
124.8309678507367
 20
-139.9142849042575
 30
0.0
 10
124.8774766397876
 20
-139.7513318878052
 30
0.0
 10
124.9071044609607
 20
-139.6371269724692
 30
0.0
 10
124.9071044609607
 20
-139.6371269724692
 30
0.0
 10
125.0531765095353
 20
-139.6371269724692
 30
0.0
 10
125.0531765095353
 20
-139.6371269724692
 30
0.0
 10
125.0531765095353
 20
-139.6371269724692
 30
0.0
 10
125.0531765095353
 20
-141.1813910237324
 30
0.0
 10
125.0531765095353
 20
-141.1813910237324
 30
0.0
 10
125.0531765095353
 20
-141.1813910237324
 30
0.0
 10
124.8289007934455
 20
-141.1813910237324
 30
0.0
 10
124.8289007934455
 20
-141.1813910237324
 30
0.0
  0
HATCH
  5
113
330
10C
100
AcDbEntity
  8
レイヤー 1
 62
    18
420
        0
440
 33554687
100
AcDbHatch
 10
0.0
 20
0.0
 30
0.0
210
0.0
220
0.0
230
1.0
  2
SOLID
 70
     1
 71
     1
 91
        1
 92
        1
 93
        1
 72
     4
 94
        3
 73
     0
 74
     0
 95
       26
 96
       22
 40
0.0
 40
0.0
 40
0.0
 40
0.0
 40
1.0
 40
1.0
 40
1.0
 40
2.0
 40
2.0
 40
2.0
 40
3.0
 40
3.0
 40
3.0
 40
4.0
 40
4.0
 40
4.0
 40
5.0
 40
5.0
 40
5.0
 40
6.0
 40
6.0
 40
6.0
 40
7.0
 40
7.0
 40
7.0
 40
7.0
 10
124.8289007934455
 20
-141.1813910237324
 10
124.8289007934455
 20
-141.1813910237324
 10
124.8289007934455
 20
-140.0770656659356
 10
124.8289007934455
 20
-140.0770656659356
 10
124.8289007934455
 20
-140.0770656659356
 10
124.4988606459586
 20
-140.0770656659356
 10
124.4988606459586
 20
-140.0770656659356
 10
124.4988606459586
 20
-140.0770656659356
 10
124.4988606459586
 20
-139.9289265600699
 10
124.4988606459586
 20
-139.9289265600699
 10
124.8309678507367
 20
-139.9142849042575
 10
124.8774766397876
 20
-139.7513318878052
 10
124.9071044609607
 20
-139.6371269724692
 10
124.9071044609607
 20
-139.6371269724692
 10
125.0531765095353
 20
-139.6371269724692
 10
125.0531765095353
 20
-139.6371269724692
 10
125.0531765095353
 20
-139.6371269724692
 10
125.0531765095353
 20
-141.1813910237324
 10
125.0531765095353
 20
-141.1813910237324
 10
125.0531765095353
 20
-141.1813910237324
 10
124.8289007934455
 20
-141.1813910237324
 10
124.8289007934455
 20
-141.1813910237324
 97
        0
 97
        1
330
112
 75
     2
 76
     1
 98
        1
 10
0.0
 20
0.0
450
        0
451
        0
460
0.0
461
0.0
452
        0
462
0.0
453
        0
470

  0
ENDBLK
  5
10F
330
10C
100
AcDbEntity
  8
0
100
AcDbBlockEnd
  0
BLOCK
  5
119
330
117
100
AcDbEntity
  8
0
100
AcDbBlockBegin
  2
Block_7
 70
     0
 10
0.0
 20
0.0
 30
0.0
  3
Block_7
  1

  0
INSERT
  5
11C
330
117
100
AcDbEntity
  8
レイヤー 1
100
AcDbBlockReference
  2
Block_8
 10
0.0
 20
0.0
 30
0.0
  0
ENDBLK
  5
11A
330
117
100
AcDbEntity
  8
0
100
AcDbBlockEnd
  0
BLOCK
  5
11D
330
11B
100
AcDbEntity
  8
0
100
AcDbBlockBegin
  2
Block_8
 70
     0
 10
0.0
 20
0.0
 30
0.0
  3
Block_8
  1

  0
SPLINE
  5
11F
330
11B
100
AcDbEntity
  8
レイヤー 1
100
AcDbSpline
210
0.0
220
0.0
230
1.0
 70
    11
 71
     3
 72
    26
 73
    22
 74
     0
 42
0.0000000001
 43
0.0000000001
 40
0.0
 40
0.0
 40
0.0
 40
0.0
 40
1.0
 40
1.0
 40
1.0
 40
2.0
 40
2.0
 40
2.0
 40
3.0
 40
3.0
 40
3.0
 40
4.0
 40
4.0
 40
4.0
 40
5.0
 40
5.0
 40
5.0
 40
6.0
 40
6.0
 40
6.0
 40
7.0
 40
7.0
 40
7.0
 40
7.0
 10
108.2152723253767
 20
-141.1813910237324
 30
0.0
 10
108.2152723253767
 20
-141.1813910237324
 30
0.0
 10
108.2152723253767
 20
-140.0770656659356
 30
0.0
 10
108.2152723253767
 20
-140.0770656659356
 30
0.0
 10
108.2152723253767
 20
-140.0770656659356
 30
0.0
 10
107.8852321778898
 20
-140.0770656659356
 30
0.0
 10
107.8852321778898
 20
-140.0770656659356
 30
0.0
 10
107.8852321778898
 20
-140.0770656659356
 30
0.0
 10
107.8852321778898
 20
-139.9290988148441
 30
0.0
 10
107.8852321778898
 20
-139.9290988148441
 30
0.0
 10
108.2173393826679
 20
-139.9142849042575
 30
0.0
 10
108.2638481717187
 20
-139.7513318878052
 30
0.0
 10
108.2934759928919
 20
-139.6371269724692
 30
0.0
 10
108.2934759928919
 20
-139.6371269724692
 30
0.0
 10
108.4395480414665
 20
-139.6371269724692
 30
0.0
 10
108.4395480414665
 20
-139.6371269724692
 30
0.0
 10
108.4395480414665
 20
-139.6371269724692
 30
0.0
 10
108.4395480414665
 20
-141.1813910237324
 30
0.0
 10
108.4395480414665
 20
-141.1813910237324
 30
0.0
 10
108.4395480414665
 20
-141.1813910237324
 30
0.0
 10
108.2152723253767
 20
-141.1813910237324
 30
0.0
 10
108.2152723253767
 20
-141.1813910237324
 30
0.0
  0
HATCH
  5
120
330
11B
100
AcDbEntity
  8
レイヤー 1
 62
    18
420
        0
440
 33554687
100
AcDbHatch
 10
0.0
 20
0.0
 30
0.0
210
0.0
220
0.0
230
1.0
  2
SOLID
 70
     1
 71
     1
 91
        1
 92
        1
 93
        1
 72
     4
 94
        3
 73
     0
 74
     0
 95
       26
 96
       22
 40
0.0
 40
0.0
 40
0.0
 40
0.0
 40
1.0
 40
1.0
 40
1.0
 40
2.0
 40
2.0
 40
2.0
 40
3.0
 40
3.0
 40
3.0
 40
4.0
 40
4.0
 40
4.0
 40
5.0
 40
5.0
 40
5.0
 40
6.0
 40
6.0
 40
6.0
 40
7.0
 40
7.0
 40
7.0
 40
7.0
 10
108.2152723253767
 20
-141.1813910237324
 10
108.2152723253767
 20
-141.1813910237324
 10
108.2152723253767
 20
-140.0770656659356
 10
108.2152723253767
 20
-140.0770656659356
 10
108.2152723253767
 20
-140.0770656659356
 10
107.8852321778898
 20
-140.0770656659356
 10
107.8852321778898
 20
-140.0770656659356
 10
107.8852321778898
 20
-140.0770656659356
 10
107.8852321778898
 20
-139.9290988148441
 10
107.8852321778898
 20
-139.9290988148441
 10
108.2173393826679
 20
-139.9142849042575
 10
108.2638481717187
 20
-139.7513318878052
 10
108.2934759928919
 20
-139.6371269724692
 10
108.2934759928919
 20
-139.6371269724692
 10
108.4395480414665
 20
-139.6371269724692
 10
108.4395480414665
 20
-139.6371269724692
 10
108.4395480414665
 20
-139.6371269724692
 10
108.4395480414665
 20
-141.1813910237324
 10
108.4395480414665
 20
-141.1813910237324
 10
108.4395480414665
 20
-141.1813910237324
 10
108.2152723253767
 20
-141.1813910237324
 10
108.2152723253767
 20
-141.1813910237324
 97
        0
 97
        1
330
11F
 75
     2
 76
     1
 98
        1
 10
0.0
 20
0.0
450
        0
451
        0
460
0.0
461
0.0
452
        0
462
0.0
453
        0
470

  0
SPLINE
  5
121
330
11B
100
AcDbEntity
  8
レイヤー 1
100
AcDbSpline
210
0.0
220
0.0
230
1.0
 70
     9
 71
     3
 72
    17
 73
    13
 74
     0
 42
0.0000000001
 43
0.0000000001
 40
0.0
 40
0.0
 40
0.0
 40
0.0
 40
1.0
 40
1.0
 40
1.0
 40
2.0
 40
2.0
 40
2.0
 40
3.0
 40
3.0
 40
3.0
 40
4.0
 40
4.0
 40
4.0
 40
4.0
 10
109.4406927894801
 20
-139.7809597089783
 30
0.0
 10
109.191267876348
 20
-139.7809597089783
 30
0.0
 10
109.1444145777486
 20
-140.0644910674144
 30
0.0
 10
109.1444145777486
 20
-140.4091728707137
 30
0.0
 10
109.1444145777486
 20
-140.7287054769706
 30
0.0
 10
109.1805880803437
 20
-141.0375582872232
 30
0.0
 10
109.4406927894801
 20
-141.0375582872232
 30
0.0
 10
109.6883951548695
 20
-141.0375582872232
 30
0.0
 10
109.7369710012116
 20
-140.7560939860783
 30
0.0
 10
109.7369710012116
 20
-140.4091728707137
 30
0.0
 10
109.7369710012116
 20
-140.089812519231
 30
0.0
 10
109.6987304413253
 20
-139.7809597089783
 30
0.0
 10
109.4406927894801
 20
-139.7809597089783
 30
0.0
  0
SPLINE
  5
122
330
11B
100
AcDbEntity
  8
レイヤー 1
100
AcDbSpline
210
0.0
220
0.0
230
1.0
 70
     9
 71
     3
 72
    29
 73
    25
 74
     0
 42
0.0000000001
 43
0.0000000001
 40
0.0
 40
0.0
 40
0.0
 40
0.0
 40
1.0
 40
1.0
 40
1.0
 40
2.0
 40
2.0
 40
2.0
 40
3.0
 40
3.0
 40
3.0
 40
4.0
 40
4.0
 40
4.0
 40
5.0
 40
5.0
 40
5.0
 40
6.0
 40
6.0
 40
6.0
 40
7.0
 40
7.0
 40
7.0
 40
8.0
 40
8.0
 40
8.0
 40
8.0
 10
109.8386013180264
 20
-141.0036240966935
 30
0.0
 10
109.7304253197896
 20
-141.2130859021967
 30
0.0
 10
109.5571370168815
 20
-141.2322061821399
 30
0.0
 10
109.4406927894801
 20
-141.2322061821399
 30
0.0
 10
109.2798068303189
 20
-141.2322061821399
 30
0.0
 10
109.1382134058751
 20
-141.185697393089
 30
0.0
 10
109.0431287704823
 20
-141.0036240966935
 30
0.0
 10
108.9394313963762
 20
-140.8089762017769
 30
0.0
 10
108.9204833712074
 20
-140.572125887166
 30
0.0
 10
108.9204833712074
 20
-140.4091728707137
 30
0.0
 10
108.9204833712074
 20
-140.2653401342045
 30
0.0
 10
108.9373643390851
 20
-140.013675909007
 30
0.0
 10
109.0431287704823
 20
-139.8147216447338
 30
0.0
 10
109.1509602591706
 20
-139.6116332658783
 30
0.0
 10
109.3118462183317
 20
-139.5883788713529
 30
0.0
 10
109.4406927894801
 20
-139.5883788713529
 30
0.0
 10
109.5995116913501
 20
-139.5883788713529
 30
0.0
 10
109.743172173085
 20
-139.6328206031126
 30
0.0
 10
109.8386013180264
 20
-139.8147216447338
 30
0.0
 10
109.9378200680016
 20
-140.0073024823593
 30
0.0
 10
109.9612467173013
 20
-140.2357123130313
 30
0.0
 10
109.9612467173013
 20
-140.4091728707137
 30
0.0
 10
109.9612467173013
 20
-140.5805663711048
 30
0.0
 10
109.9398871252928
 20
-140.8112155138423
 30
0.0
 10
109.8386013180264
 20
-141.0036240966935
 30
0.0
  0
HATCH
  5
123
330
11B
100
AcDbEntity
  8
レイヤー 1
 62
    18
420
        0
440
 33554687
100
AcDbHatch
 10
0.0
 20
0.0
 30
0.0
210
0.0
220
0.0
230
1.0
  2
SOLID
 70
     1
 71
     1
 91
        2
 92
        1
 93
        1
 72
     4
 94
        3
 73
     0
 74
     0
 95
       17
 96
       13
 40
0.0
 40
0.0
 40
0.0
 40
0.0
 40
1.0
 40
1.0
 40
1.0
 40
2.0
 40
2.0
 40
2.0
 40
3.0
 40
3.0
 40
3.0
 40
4.0
 40
4.0
 40
4.0
 40
4.0
 10
109.4406927894801
 20
-139.7809597089783
 10
109.191267876348
 20
-139.7809597089783
 10
109.1444145777486
 20
-140.0644910674144
 10
109.1444145777486
 20
-140.4091728707137
 10
109.1444145777486
 20
-140.7287054769706
 10
109.1805880803437
 20
-141.0375582872232
 10
109.4406927894801
 20
-141.0375582872232
 10
109.6883951548695
 20
-141.0375582872232
 10
109.7369710012116
 20
-140.7560939860783
 10
109.7369710012116
 20
-140.4091728707137
 10
109.7369710012116
 20
-140.089812519231
 10
109.6987304413253
 20
-139.7809597089783
 10
109.4406927894801
 20
-139.7809597089783
 97
        0
 97
        1
330
121
 92
        1
 93
        1
 72
     4
 94
        3
 73
     0
 74
     0
 95
       29
 96
       25
 40
0.0
 40
0.0
 40
0.0
 40
0.0
 40
1.0
 40
1.0
 40
1.0
 40
2.0
 40
2.0
 40
2.0
 40
3.0
 40
3.0
 40
3.0
 40
4.0
 40
4.0
 40
4.0
 40
5.0
 40
5.0
 40
5.0
 40
6.0
 40
6.0
 40
6.0
 40
7.0
 40
7.0
 40
7.0
 40
8.0
 40
8.0
 40
8.0
 40
8.0
 10
109.8386013180264
 20
-141.0036240966935
 10
109.7304253197896
 20
-141.2130859021967
 10
109.5571370168815
 20
-141.2322061821399
 10
109.4406927894801
 20
-141.2322061821399
 10
109.2798068303189
 20
-141.2322061821399
 10
109.1382134058751
 20
-141.185697393089
 10
109.0431287704823
 20
-141.0036240966935
 10
108.9394313963762
 20
-140.8089762017769
 10
108.9204833712074
 20
-140.572125887166
 10
108.9204833712074
 20
-140.4091728707137
 10
108.9204833712074
 20
-140.2653401342045
 10
108.9373643390851
 20
-140.013675909007
 10
109.0431287704823
 20
-139.8147216447338
 10
109.1509602591706
 20
-139.6116332658783
 10
109.3118462183317
 20
-139.5883788713529
 10
109.4406927894801
 20
-139.5883788713529
 10
109.5995116913501
 20
-139.5883788713529
 10
109.743172173085
 20
-139.6328206031126
 10
109.8386013180264
 20
-139.8147216447338
 10
109.9378200680016
 20
-140.0073024823593
 10
109.9612467173013
 20
-140.2357123130313
 10
109.9612467173013
 20
-140.4091728707137
 10
109.9612467173013
 20
-140.5805663711048
 10
109.9398871252928
 20
-140.8112155138423
 10
109.8386013180264
 20
-141.0036240966935
 97
        0
 97
        1
330
122
 75
     2
 76
     1
 98
        1
 10
0.0
 20
0.0
450
        0
451
        0
460
0.0
461
0.0
452
        0
462
0.0
453
        0
470

  0
ENDBLK
  5
11E
330
11B
100
AcDbEntity
  8
0
100
AcDbBlockEnd
  0
BLOCK
  5
12B
330
129
100
AcDbEntity
  8
0
100
AcDbBlockBegin
  2
Block_9
 70
     0
 10
0.0
 20
0.0
 30
0.0
  3
Block_9
  1

  0
INSERT
  5
12E
330
129
100
AcDbEntity
  8
レイヤー 1
100
AcDbBlockReference
  2
Block_10
 10
0.0
 20
0.0
 30
0.0
  0
ENDBLK
  5
12C
330
129
100
AcDbEntity
  8
0
100
AcDbBlockEnd
  0
BLOCK
  5
12F
330
12D
100
AcDbEntity
  8
0
100
AcDbBlockBegin
  2
Block_10
 70
     0
 10
0.0
 20
0.0
 30
0.0
  3
Block_10
  1

  0
SPLINE
  5
131
330
12D
100
AcDbEntity
  8
レイヤー 1
100
AcDbSpline
210
0.0
220
0.0
230
1.0
 70
    11
 71
     3
 72
    26
 73
    22
 74
     0
 42
0.0000000001
 43
0.0000000001
 40
0.0
 40
0.0
 40
0.0
 40
0.0
 40
1.0
 40
1.0
 40
1.0
 40
2.0
 40
2.0
 40
2.0
 40
3.0
 40
3.0
 40
3.0
 40
4.0
 40
4.0
 40
4.0
 40
5.0
 40
5.0
 40
5.0
 40
6.0
 40
6.0
 40
6.0
 40
7.0
 40
7.0
 40
7.0
 40
7.0
 10
108.3155246039975
 20
-156.557196683951
 30
0.0
 10
108.3155246039975
 20
-156.557196683951
 30
0.0
 10
108.3155246039975
 20
-155.4530435809284
 30
0.0
 10
108.3155246039975
 20
-155.4530435809284
 30
0.0
 10
108.3155246039975
 20
-155.4530435809284
 30
0.0
 10
107.9854844565105
 20
-155.4530435809284
 30
0.0
 10
107.9854844565105
 20
-155.4530435809284
 30
0.0
 10
107.9854844565105
 20
-155.4530435809284
 30
0.0
 10
107.9854844565105
 20
-155.3049044750626
 30
0.0
 10
107.9854844565105
 20
-155.3049044750626
 30
0.0
 10
108.3175916612886
 20
-155.2900905644761
 30
0.0
 10
108.3641004503395
 20
-155.1271375480237
 30
0.0
 10
108.3937282715127
 20
-155.0127603779135
 30
0.0
 10
108.3937282715127
 20
-155.0127603779135
 30
0.0
 10
108.5398003200872
 20
-155.0127603779135
 30
0.0
 10
108.5398003200872
 20
-155.0127603779135
 30
0.0
 10
108.5398003200872
 20
-155.0127603779135
 30
0.0
 10
108.5398003200872
 20
-156.557196683951
 30
0.0
 10
108.5398003200872
 20
-156.557196683951
 30
0.0
 10
108.5398003200872
 20
-156.557196683951
 30
0.0
 10
108.3155246039975
 20
-156.557196683951
 30
0.0
 10
108.3155246039975
 20
-156.557196683951
 30
0.0
  0
HATCH
  5
132
330
12D
100
AcDbEntity
  8
レイヤー 1
 62
    18
420
        0
440
 33554687
100
AcDbHatch
 10
0.0
 20
0.0
 30
0.0
210
0.0
220
0.0
230
1.0
  2
SOLID
 70
     1
 71
     1
 91
        1
 92
        1
 93
        1
 72
     4
 94
        3
 73
     0
 74
     0
 95
       26
 96
       22
 40
0.0
 40
0.0
 40
0.0
 40
0.0
 40
1.0
 40
1.0
 40
1.0
 40
2.0
 40
2.0
 40
2.0
 40
3.0
 40
3.0
 40
3.0
 40
4.0
 40
4.0
 40
4.0
 40
5.0
 40
5.0
 40
5.0
 40
6.0
 40
6.0
 40
6.0
 40
7.0
 40
7.0
 40
7.0
 40
7.0
 10
108.3155246039975
 20
-156.557196683951
 10
108.3155246039975
 20
-156.557196683951
 10
108.3155246039975
 20
-155.4530435809284
 10
108.3155246039975
 20
-155.4530435809284
 10
108.3155246039975
 20
-155.4530435809284
 10
107.9854844565105
 20
-155.4530435809284
 10
107.9854844565105
 20
-155.4530435809284
 10
107.9854844565105
 20
-155.4530435809284
 10
107.9854844565105
 20
-155.3049044750626
 10
107.9854844565105
 20
-155.3049044750626
 10
108.3175916612886
 20
-155.2900905644761
 10
108.3641004503395
 20
-155.1271375480237
 10
108.3937282715127
 20
-155.0127603779135
 10
108.3937282715127
 20
-155.0127603779135
 10
108.5398003200872
 20
-155.0127603779135
 10
108.5398003200872
 20
-155.0127603779135
 10
108.5398003200872
 20
-155.0127603779135
 10
108.5398003200872
 20
-156.557196683951
 10
108.5398003200872
 20
-156.557196683951
 10
108.5398003200872
 20
-156.557196683951
 10
108.3155246039975
 20
-156.557196683951
 10
108.3155246039975
 20
-156.557196683951
 97
        0
 97
        1
330
131
 75
     2
 76
     1
 98
        1
 10
0.0
 20
0.0
450
        0
451
        0
460
0.0
461
0.0
452
        0
462
0.0
453
        0
470

  0
SPLINE
  5
133
330
12D
100
AcDbEntity
  8
レイヤー 1
100
AcDbSpline
210
0.0
220
0.0
230
1.0
 70
     9
 71
     3
 72
    44
 73
    40
 74
     0
 42
0.0000000001
 43
0.0000000001
 40
0.0
 40
0.0
 40
0.0
 40
0.0
 40
1.0
 40
1.0
 40
1.0
 40
2.0
 40
2.0
 40
2.0
 40
3.0
 40
3.0
 40
3.0
 40
4.0
 40
4.0
 40
4.0
 40
5.0
 40
5.0
 40
5.0
 40
6.0
 40
6.0
 40
6.0
 40
7.0
 40
7.0
 40
7.0
 40
8.0
 40
8.0
 40
8.0
 40
9.0
 40
9.0
 40
9.0
 40
10.0
 40
10.0
 40
10.0
 40
11.0
 40
11.0
 40
11.0
 40
12.0
 40
12.0
 40
12.0
 40
13.0
 40
13.0
 40
13.0
 40
13.0
 10
109.6339626462026
 20
-155.9753200564923
 30
0.0
 10
109.4162326115348
 20
-156.1341389583623
 30
0.0
 10
109.3232150334331
 20
-156.2082085112951
 30
0.0
 10
109.2742946775425
 20
-156.3518689930301
 30
0.0
 10
109.2742946775425
 20
-156.3518689930301
 30
0.0
 10
110.052886257209
 20
-156.3518689930301
 30
0.0
 10
110.052886257209
 20
-156.3518689930301
 30
0.0
 10
110.052886257209
 20
-156.3518689930301
 30
0.0
 10
110.052886257209
 20
-156.557196683951
 30
0.0
 10
110.052886257209
 20
-156.557196683951
 30
0.0
 10
110.052886257209
 20
-156.557196683951
 30
0.0
 10
109.0248697644104
 20
-156.557196683951
 30
0.0
 10
109.0248697644104
 20
-156.557196683951
 30
0.0
 10
109.0565646428747
 20
-156.199595772582
 30
0.0
 10
109.1220214570945
 20
-156.1213921050669
 30
0.0
 10
109.5071831323454
 20
-155.8230468360442
 30
0.0
 10
109.7631537268995
 20
-155.6242648265453
 30
0.0
 10
109.8286105411192
 20
-155.5563964454859
 30
0.0
 10
109.8286105411192
 20
-155.4189371356244
 30
0.0
 10
109.8286105411192
 20
-155.3004258509318
 30
0.0
 10
109.7566080454775
 20
-155.1695122224923
 30
0.0
 10
109.5598930932697
 20
-155.1695122224923
 30
0.0
 10
109.2997883841334
 20
-155.1695122224923
 30
0.0
 10
109.2911756454203
 20
-155.3999891104556
 30
0.0
 10
109.2870415308379
 20
-155.516433337857
 30
0.0
 10
109.2870415308379
 20
-155.516433337857
 30
0.0
 10
109.0627658147482
 20
-155.516433337857
 30
0.0
 10
109.0627658147482
 20
-155.516433337857
 30
0.0
 10
109.0713785534613
 20
-155.3893093144513
 30
0.0
 10
109.0820583494656
 20
-155.2773437111806
 30
0.0
 10
109.1623290742719
 20
-155.1588324264881
 30
0.0
 10
109.2722276202514
 20
-154.9979464673269
 30
0.0
 10
109.4586072860034
 20
-154.9641845315714
 30
0.0
 10
109.5747070038563
 20
-154.9641845315714
 30
0.0
 10
109.8520371904189
 20
-154.9641845315714
 30
0.0
 10
110.059431938631
 20
-155.1481526304838
 30
0.0
 10
110.059431938631
 20
-155.4210041929156
 30
0.0
 10
110.059431938631
 20
-155.6497585331362
 30
0.0
 10
109.9429877112295
 20
-155.7489772831113
 30
0.0
 10
109.6339626462026
 20
-155.9753200564923
 30
0.0
  0
HATCH
  5
134
330
12D
100
AcDbEntity
  8
レイヤー 1
 62
    18
420
        0
440
 33554687
100
AcDbHatch
 10
0.0
 20
0.0
 30
0.0
210
0.0
220
0.0
230
1.0
  2
SOLID
 70
     1
 71
     1
 91
        1
 92
        1
 93
        1
 72
     4
 94
        3
 73
     0
 74
     0
 95
       44
 96
       40
 40
0.0
 40
0.0
 40
0.0
 40
0.0
 40
1.0
 40
1.0
 40
1.0
 40
2.0
 40
2.0
 40
2.0
 40
3.0
 40
3.0
 40
3.0
 40
4.0
 40
4.0
 40
4.0
 40
5.0
 40
5.0
 40
5.0
 40
6.0
 40
6.0
 40
6.0
 40
7.0
 40
7.0
 40
7.0
 40
8.0
 40
8.0
 40
8.0
 40
9.0
 40
9.0
 40
9.0
 40
10.0
 40
10.0
 40
10.0
 40
11.0
 40
11.0
 40
11.0
 40
12.0
 40
12.0
 40
12.0
 40
13.0
 40
13.0
 40
13.0
 40
13.0
 10
109.6339626462026
 20
-155.9753200564923
 10
109.4162326115348
 20
-156.1341389583623
 10
109.3232150334331
 20
-156.2082085112951
 10
109.2742946775425
 20
-156.3518689930301
 10
109.2742946775425
 20
-156.3518689930301
 10
110.052886257209
 20
-156.3518689930301
 10
110.052886257209
 20
-156.3518689930301
 10
110.052886257209
 20
-156.3518689930301
 10
110.052886257209
 20
-156.557196683951
 10
110.052886257209
 20
-156.557196683951
 10
110.052886257209
 20
-156.557196683951
 10
109.0248697644104
 20
-156.557196683951
 10
109.0248697644104
 20
-156.557196683951
 10
109.0565646428747
 20
-156.199595772582
 10
109.1220214570945
 20
-156.1213921050669
 10
109.5071831323454
 20
-155.8230468360442
 10
109.7631537268995
 20
-155.6242648265453
 10
109.8286105411192
 20
-155.5563964454859
 10
109.8286105411192
 20
-155.4189371356244
 10
109.8286105411192
 20
-155.3004258509318
 10
109.7566080454775
 20
-155.1695122224923
 10
109.5598930932697
 20
-155.1695122224923
 10
109.2997883841334
 20
-155.1695122224923
 10
109.2911756454203
 20
-155.3999891104556
 10
109.2870415308379
 20
-155.516433337857
 10
109.2870415308379
 20
-155.516433337857
 10
109.0627658147482
 20
-155.516433337857
 10
109.0627658147482
 20
-155.516433337857
 10
109.0713785534613
 20
-155.3893093144513
 10
109.0820583494656
 20
-155.2773437111806
 10
109.1623290742719
 20
-155.1588324264881
 10
109.2722276202514
 20
-154.9979464673269
 10
109.4586072860034
 20
-154.9641845315714
 10
109.5747070038563
 20
-154.9641845315714
 10
109.8520371904189
 20
-154.9641845315714
 10
110.059431938631
 20
-155.1481526304838
 10
110.059431938631
 20
-155.4210041929156
 10
110.059431938631
 20
-155.6497585331362
 10
109.9429877112295
 20
-155.7489772831113
 10
109.6339626462026
 20
-155.9753200564923
 97
        0
 97
        1
330
133
 75
     2
 76
     1
 98
        1
 10
0.0
 20
0.0
450
        0
451
        0
460
0.0
461
0.0
452
        0
462
0.0
453
        0
470

  0
ENDBLK
  5
130
330
12D
100
AcDbEntity
  8
0
100
AcDbBlockEnd
  0
BLOCK
  5
138
330
136
100
AcDbEntity
  8
0
100
AcDbBlockBegin
  2
Block_11
 70
     0
 10
0.0
 20
0.0
 30
0.0
  3
Block_11
  1

  0
SPLINE
  5
13A
330
136
100
AcDbEntity
  8
レイヤー 1
100
AcDbSpline
210
0.0
220
0.0
230
1.0
 70
    11
 71
     3
 72
    26
 73
    22
 74
     0
 42
0.0000000001
 43
0.0000000001
 40
0.0
 40
0.0
 40
0.0
 40
0.0
 40
1.0
 40
1.0
 40
1.0
 40
2.0
 40
2.0
 40
2.0
 40
3.0
 40
3.0
 40
3.0
 40
4.0
 40
4.0
 40
4.0
 40
5.0
 40
5.0
 40
5.0
 40
6.0
 40
6.0
 40
6.0
 40
7.0
 40
7.0
 40
7.0
 40
7.0
 10
116.6960638814162
 20
-149.5343695372692
 30
0.0
 10
116.6960638814162
 20
-149.5343695372692
 30
0.0
 10
116.6960638814162
 20
-148.4302164342466
 30
0.0
 10
116.6960638814162
 20
-148.4302164342466
 30
0.0
 10
116.6960638814162
 20
-148.4302164342466
 30
0.0
 10
116.3660237339293
 20
-148.4302164342466
 30
0.0
 10
116.3660237339293
 20
-148.4302164342466
 30
0.0
 10
116.3660237339293
 20
-148.4302164342466
 30
0.0
 10
116.3660237339293
 20
-148.2820773283808
 30
0.0
 10
116.3660237339293
 20
-148.2820773283808
 30
0.0
 10
116.6981309387074
 20
-148.2674356725685
 30
0.0
 10
116.7446397277583
 20
-148.1044826561162
 30
0.0
 10
116.7742675489314
 20
-147.9902777407802
 30
0.0
 10
116.7742675489314
 20
-147.9902777407802
 30
0.0
 10
116.920339597506
 20
-147.9902777407802
 30
0.0
 10
116.920339597506
 20
-147.9902777407802
 30
0.0
 10
116.920339597506
 20
-147.9902777407802
 30
0.0
 10
116.920339597506
 20
-149.5343695372692
 30
0.0
 10
116.920339597506
 20
-149.5343695372692
 30
0.0
 10
116.920339597506
 20
-149.5343695372692
 30
0.0
 10
116.6960638814162
 20
-149.5343695372692
 30
0.0
 10
116.6960638814162
 20
-149.5343695372692
 30
0.0
  0
HATCH
  5
13B
330
136
100
AcDbEntity
  8
レイヤー 1
 62
    18
420
        0
440
 33554687
100
AcDbHatch
 10
0.0
 20
0.0
 30
0.0
210
0.0
220
0.0
230
1.0
  2
SOLID
 70
     1
 71
     1
 91
        1
 92
        1
 93
        1
 72
     4
 94
        3
 73
     0
 74
     0
 95
       26
 96
       22
 40
0.0
 40
0.0
 40
0.0
 40
0.0
 40
1.0
 40
1.0
 40
1.0
 40
2.0
 40
2.0
 40
2.0
 40
3.0
 40
3.0
 40
3.0
 40
4.0
 40
4.0
 40
4.0
 40
5.0
 40
5.0
 40
5.0
 40
6.0
 40
6.0
 40
6.0
 40
7.0
 40
7.0
 40
7.0
 40
7.0
 10
116.6960638814162
 20
-149.5343695372692
 10
116.6960638814162
 20
-149.5343695372692
 10
116.6960638814162
 20
-148.4302164342466
 10
116.6960638814162
 20
-148.4302164342466
 10
116.6960638814162
 20
-148.4302164342466
 10
116.3660237339293
 20
-148.4302164342466
 10
116.3660237339293
 20
-148.4302164342466
 10
116.3660237339293
 20
-148.4302164342466
 10
116.3660237339293
 20
-148.2820773283808
 10
116.3660237339293
 20
-148.2820773283808
 10
116.6981309387074
 20
-148.2674356725685
 10
116.7446397277583
 20
-148.1044826561162
 10
116.7742675489314
 20
-147.9902777407802
 10
116.7742675489314
 20
-147.9902777407802
 10
116.920339597506
 20
-147.9902777407802
 10
116.920339597506
 20
-147.9902777407802
 10
116.920339597506
 20
-147.9902777407802
 10
116.920339597506
 20
-149.5343695372692
 10
116.920339597506
 20
-149.5343695372692
 10
116.920339597506
 20
-149.5343695372692
 10
116.6960638814162
 20
-149.5343695372692
 10
116.6960638814162
 20
-149.5343695372692
 97
        0
 97
        1
330
13A
 75
     2
 76
     1
 98
        1
 10
0.0
 20
0.0
450
        0
451
        0
460
0.0
461
0.0
452
        0
462
0.0
453
        0
470

  0
ENDBLK
  5
139
330
136
100
AcDbEntity
  8
0
100
AcDbBlockEnd
  0
BLOCK
  5
13E
330
13C
100
AcDbEntity
  8
0
100
AcDbBlockBegin
  2
Block_12
 70
     0
 10
0.0
 20
0.0
 30
0.0
  3
Block_12
  1

  0
LWPOLYLINE
  5
140
330
13C
100
AcDbEntity
  8
レイヤー 1
 62
   250
420
  2299925
370
     9
100
AcDbPolyline
 90
        4
 70
     1
 43
0.0
 10
115.219373592511
 20
-152.8881409145902
 10
115.7812427448432
 20
-152.8812617479251
 10
114.8906905453408
 20
-152.5656667480041
 10
115.1948922360596
 20
-153.4799961922194
  0
HATCH
  5
141
330
13C
100
AcDbEntity
  8
レイヤー 1
 62
   250
420
  2299925
440
 33554687
100
AcDbHatch
 10
0.0
 20
0.0
 30
0.0
210
0.0
220
0.0
230
1.0
  2
SOLID
 70
     1
 71
     1
 91
        1
 92
        1
 93
        4
 72
     1
 10
115.219373592511
 20
-152.8881409145902
 11
115.7812427448432
 21
-152.8812617479251
 72
     1
 10
115.7812427448432
 20
-152.8812617479251
 11
114.8906905453408
 21
-152.5656667480041
 72
     1
 10
114.8906905453408
 20
-152.5656667480041
 11
115.1948922360596
 21
-153.4799961922194
 72
     1
 10
115.1948922360596
 20
-153.4799961922194
 11
115.219373592511
 21
-152.8881409145902
 97
        1
330
140
 75
     2
 76
     1
 98
        1
 10
0.0
 20
0.0
450
        0
451
        0
460
0.0
461
0.0
452
        0
462
0.0
453
        0
470

  0
LINE
  5
142
330
13C
100
AcDbEntity
  8
レイヤー 1
 62
   250
420
  2299925
370
     9
100
AcDbLine
 10
115.219373592511
 20
-152.8881409145902
 30
0.0
 11
117.6236951978383
 21
-155.2776459139928
 31
0.0
  0
ENDBLK
  5
13F
330
13C
100
AcDbEntity
  8
0
100
AcDbBlockEnd
  0
BLOCK
  5
145
330
143
100
AcDbEntity
  8
0
100
AcDbBlockBegin
  2
Block_13
 70
     0
 10
0.0
 20
0.0
 30
0.0
  3
Block_13
  1

  0
INSERT
  5
148
330
143
100
AcDbEntity
  8
レイヤー 1
100
AcDbBlockReference
  2
Block_14
 10
0.0
 20
0.0
 30
0.0
  0
ENDBLK
  5
146
330
143
100
AcDbEntity
  8
0
100
AcDbBlockEnd
  0
BLOCK
  5
149
330
147
100
AcDbEntity
  8
0
100
AcDbBlockBegin
  2
Block_14
 70
     0
 10
0.0
 20
0.0
 30
0.0
  3
Block_14
  1

  0
SPLINE
  5
14B
330
147
100
AcDbEntity
  8
レイヤー 1
100
AcDbSpline
210
0.0
220
0.0
230
1.0
 70
     9
 71
     3
 72
    38
 73
    34
 74
     0
 42
0.0000000001
 43
0.0000000001
 40
0.0
 40
0.0
 40
0.0
 40
0.0
 40
1.0
 40
1.0
 40
1.0
 40
2.0
 40
2.0
 40
2.0
 40
3.0
 40
3.0
 40
3.0
 40
4.0
 40
4.0
 40
4.0
 40
5.0
 40
5.0
 40
5.0
 40
6.0
 40
6.0
 40
6.0
 40
7.0
 40
7.0
 40
7.0
 40
8.0
 40
8.0
 40
8.0
 40
9.0
 40
9.0
 40
9.0
 40
10.0
 40
10.0
 40
10.0
 40
11.0
 40
11.0
 40
11.0
 40
11.0
 10
118.1554063289681
 20
-156.3580701649035
 30
0.0
 10
118.2484239070698
 20
-156.2354247656286
 30
0.0
 10
118.3734808731844
 20
-156.0555907812986
 30
0.0
 10
118.4685655085773
 20
-155.607039349119
 30
0.0
 10
118.4685655085773
 20
-155.607039349119
 30
0.0
 10
118.6356526396119
 20
-155.6263318838365
 30
0.0
 10
118.6356526396119
 20
-155.6263318838365
 30
0.0
 10
118.6101589330211
 20
-155.7469102258202
 30
0.0
 10
118.5870767932699
 20
-155.8378607466308
 30
0.0
 10
118.5488362333836
 20
-155.9456922353191
 30
0.0
 10
118.5488362333836
 20
-155.9456922353191
 30
0.0
 10
119.1772216498932
 20
-155.9456922353191
 30
0.0
 10
119.1772216498932
 20
-155.9456922353191
 30
0.0
 10
119.1772216498932
 20
-155.9456922353191
 30
0.0
 10
119.1772216498932
 20
-156.0979654557672
 30
0.0
 10
119.1772216498932
 20
-156.0979654557672
 30
0.0
 10
119.1434597141377
 20
-156.2399033897594
 30
0.0
 10
119.0480305691963
 20
-156.4979410416047
 30
0.0
 10
118.974305525812
 20
-156.6164523262973
 30
0.0
 10
118.974305525812
 20
-156.6164523262973
 30
0.0
 10
118.8216877958154
 20
-156.5379041492336
 30
0.0
 10
118.8216877958154
 20
-156.5379041492336
 30
0.0
 10
118.9171169407568
 20
-156.4025118966632
 30
0.0
 10
118.9825737549766
 20
-156.2144096831686
 30
0.0
 10
119.0101345188586
 20
-156.1041666276406
 30
0.0
 10
119.0101345188586
 20
-156.1041666276406
 30
0.0
 10
118.4916476483285
 20
-156.1041666276406
 30
0.0
 10
118.4916476483285
 20
-156.1041666276406
 30
0.0
 10
118.3924288983533
 20
-156.3456678211566
 30
0.0
 10
118.3183593454204
 20
-156.4342067751275
 30
0.0
 10
118.2801187855341
 20
-156.4786485068873
 30
0.0
 10
118.2801187855341
 20
-156.4786485068873
 30
0.0
 10
118.1554063289681
 20
-156.3580701649035
 30
0.0
 10
118.1554063289681
 20
-156.3580701649035
 30
0.0
  0
SPLINE
  5
14C
330
147
100
AcDbEntity
  8
レイヤー 1
100
AcDbSpline
210
0.0
220
0.0
230
1.0
 70
     9
 71
     3
 72
    38
 73
    34
 74
     0
 42
0.0000000001
 43
0.0000000001
 40
0.0
 40
0.0
 40
0.0
 40
0.0
 40
1.0
 40
1.0
 40
1.0
 40
2.0
 40
2.0
 40
2.0
 40
3.0
 40
3.0
 40
3.0
 40
4.0
 40
4.0
 40
4.0
 40
5.0
 40
5.0
 40
5.0
 40
6.0
 40
6.0
 40
6.0
 40
7.0
 40
7.0
 40
7.0
 40
8.0
 40
8.0
 40
8.0
 40
9.0
 40
9.0
 40
9.0
 40
10.0
 40
10.0
 40
10.0
 40
11.0
 40
11.0
 40
11.0
 40
11.0
 10
118.0410291588578
 20
-157.4308728990103
 30
0.0
 10
118.1237114505038
 20
-157.3778184285375
 30
0.0
 10
118.2887315242473
 20
-157.2699869398492
 30
0.0
 10
118.3944959556444
 20
-157.0625921916371
 30
0.0
 10
118.5426350615102
 20
-156.7707926040364
 30
0.0
 10
118.5426350615102
 20
-156.5444498306555
 30
0.0
 10
118.5426350615102
 20
-156.4597004817184
 30
0.0
 10
118.5426350615102
 20
-156.4597004817184
 30
0.0
 10
118.5426350615102
 20
-156.2250894791729
 30
0.0
 10
118.5426350615102
 20
-156.2250894791729
 30
0.0
 10
118.5426350615102
 20
-156.2250894791729
 30
0.0
 10
118.7076551352536
 20
-156.2250894791729
 30
0.0
 10
118.7076551352536
 20
-156.2250894791729
 30
0.0
 10
118.7076551352536
 20
-156.2250894791729
 30
0.0
 10
118.7076551352536
 20
-156.4514322525538
 30
0.0
 10
118.7076551352536
 20
-156.4514322525538
 30
0.0
 10
118.7076551352536
 20
-156.6502142620527
 30
0.0
 10
118.7731119494734
 20
-156.8872368314379
 30
0.0
 10
118.8747422662882
 20
-157.060525134346
 30
0.0
 10
118.9911864936897
 20
-157.2593071438449
 30
0.0
 10
119.120033064838
 20
-157.3588704033686
 30
0.0
 10
119.2047824137752
 20
-157.420193103006
 30
0.0
 10
119.2047824137752
 20
-157.420193103006
 30
0.0
 10
119.0969509250868
 20
-157.5703992661629
 30
0.0
 10
119.0969509250868
 20
-157.5703992661629
 30
0.0
 10
118.919183998048
 20
-157.441208185466
 30
0.0
 10
118.720401988549
 20
-157.2021185587897
 30
0.0
 10
118.6418538114853
 20
-156.8489962715516
 30
0.0
 10
118.5763969972656
 20
-157.0880858982279
 30
0.0
 10
118.4747666804507
 20
-157.3568033460774
 30
0.0
 10
118.1660861249723
 20
-157.5662651515806
 30
0.0
 10
118.1660861249723
 20
-157.5662651515806
 30
0.0
 10
118.0410291588578
 20
-157.4308728990103
 30
0.0
 10
118.0410291588578
 20
-157.4308728990103
 30
0.0
  0
SPLINE
  5
14D
330
147
100
AcDbEntity
  8
レイヤー 1
100
AcDbSpline
210
0.0
220
0.0
230
1.0
 70
    11
 71
     3
 72
    17
 73
    13
 74
     0
 42
0.0000000001
 43
0.0000000001
 40
0.0
 40
0.0
 40
0.0
 40
0.0
 40
1.0
 40
1.0
 40
1.0
 40
2.0
 40
2.0
 40
2.0
 40
3.0
 40
3.0
 40
3.0
 40
4.0
 40
4.0
 40
4.0
 40
4.0
 10
117.9989989939377
 20
-156.5423827733644
 30
0.0
 10
117.9989989939377
 20
-156.5423827733644
 30
0.0
 10
117.7874701311434
 20
-156.5423827733644
 30
0.0
 10
117.7874701311434
 20
-156.5423827733644
 30
0.0
 10
117.7874701311434
 20
-156.5423827733644
 30
0.0
 10
117.7874701311434
 20
-156.7494330120279
 30
0.0
 10
117.7874701311434
 20
-156.7494330120279
 30
0.0
 10
117.7874701311434
 20
-156.7494330120279
 30
0.0
 10
117.9989989939377
 20
-156.7494330120279
 30
0.0
 10
117.9989989939377
 20
-156.7494330120279
 30
0.0
 10
117.9989989939377
 20
-156.7494330120279
 30
0.0
 10
117.9989989939377
 20
-156.5423827733644
 30
0.0
 10
117.9989989939377
 20
-156.5423827733644
 30
0.0
  0
SPLINE
  5
14E
330
147
100
AcDbEntity
  8
レイヤー 1
100
AcDbSpline
210
0.0
220
0.0
230
1.0
 70
    11
 71
     3
 72
    17
 73
    13
 74
     0
 42
0.0000000001
 43
0.0000000001
 40
0.0
 40
0.0
 40
0.0
 40
0.0
 40
1.0
 40
1.0
 40
1.0
 40
2.0
 40
2.0
 40
2.0
 40
3.0
 40
3.0
 40
3.0
 40
4.0
 40
4.0
 40
4.0
 40
4.0
 10
117.9989989939377
 20
-156.2164767404597
 30
0.0
 10
117.9989989939377
 20
-156.2164767404597
 30
0.0
 10
117.7874701311434
 20
-156.2164767404597
 30
0.0
 10
117.7874701311434
 20
-156.2164767404597
 30
0.0
 10
117.7874701311434
 20
-156.2164767404597
 30
0.0
 10
117.7874701311434
 20
-156.419392864541
 30
0.0
 10
117.7874701311434
 20
-156.419392864541
 30
0.0
 10
117.7874701311434
 20
-156.419392864541
 30
0.0
 10
117.9989989939377
 20
-156.419392864541
 30
0.0
 10
117.9989989939377
 20
-156.419392864541
 30
0.0
 10
117.9989989939377
 20
-156.419392864541
 30
0.0
 10
117.9989989939377
 20
-156.2164767404597
 30
0.0
 10
117.9989989939377
 20
-156.2164767404597
 30
0.0
  0
SPLINE
  5
14F
330
147
100
AcDbEntity
  8
レイヤー 1
100
AcDbSpline
210
0.0
220
0.0
230
1.0
 70
    11
 71
     3
 72
    17
 73
    13
 74
     0
 42
0.0000000001
 43
0.0000000001
 40
0.0
 40
0.0
 40
0.0
 40
0.0
 40
1.0
 40
1.0
 40
1.0
 40
2.0
 40
2.0
 40
2.0
 40
3.0
 40
3.0
 40
3.0
 40
4.0
 40
4.0
 40
4.0
 40
4.0
 10
117.6327853438557
 20
-156.5423827733644
 30
0.0
 10
117.6327853438557
 20
-156.5423827733644
 30
0.0
 10
117.4257351051922
 20
-156.5423827733644
 30
0.0
 10
117.4257351051922
 20
-156.5423827733644
 30
0.0
 10
117.4257351051922
 20
-156.5423827733644
 30
0.0
 10
117.4257351051922
 20
-156.7494330120279
 30
0.0
 10
117.4257351051922
 20
-156.7494330120279
 30
0.0
 10
117.4257351051922
 20
-156.7494330120279
 30
0.0
 10
117.6327853438557
 20
-156.7494330120279
 30
0.0
 10
117.6327853438557
 20
-156.7494330120279
 30
0.0
 10
117.6327853438557
 20
-156.7494330120279
 30
0.0
 10
117.6327853438557
 20
-156.5423827733644
 30
0.0
 10
117.6327853438557
 20
-156.5423827733644
 30
0.0
  0
SPLINE
  5
150
330
147
100
AcDbEntity
  8
レイヤー 1
100
AcDbSpline
210
0.0
220
0.0
230
1.0
 70
    11
 71
     3
 72
    17
 73
    13
 74
     0
 42
0.0000000001
 43
0.0000000001
 40
0.0
 40
0.0
 40
0.0
 40
0.0
 40
1.0
 40
1.0
 40
1.0
 40
2.0
 40
2.0
 40
2.0
 40
3.0
 40
3.0
 40
3.0
 40
4.0
 40
4.0
 40
4.0
 40
4.0
 10
117.6327853438557
 20
-156.2164767404597
 30
0.0
 10
117.6327853438557
 20
-156.2164767404597
 30
0.0
 10
117.4257351051922
 20
-156.2164767404597
 30
0.0
 10
117.4257351051922
 20
-156.2164767404597
 30
0.0
 10
117.4257351051922
 20
-156.2164767404597
 30
0.0
 10
117.4257351051922
 20
-156.419392864541
 30
0.0
 10
117.4257351051922
 20
-156.419392864541
 30
0.0
 10
117.4257351051922
 20
-156.419392864541
 30
0.0
 10
117.6327853438557
 20
-156.419392864541
 30
0.0
 10
117.6327853438557
 20
-156.419392864541
 30
0.0
 10
117.6327853438557
 20
-156.419392864541
 30
0.0
 10
117.6327853438557
 20
-156.2164767404597
 30
0.0
 10
117.6327853438557
 20
-156.2164767404597
 30
0.0
  0
SPLINE
  5
151
330
147
100
AcDbEntity
  8
レイヤー 1
100
AcDbSpline
210
0.0
220
0.0
230
1.0
 70
    11
 71
     3
 72
    89
 73
    85
 74
     0
 42
0.0000000001
 43
0.0000000001
 40
0.0
 40
0.0
 40
0.0
 40
0.0
 40
1.0
 40
1.0
 40
1.0
 40
2.0
 40
2.0
 40
2.0
 40
3.0
 40
3.0
 40
3.0
 40
4.0
 40
4.0
 40
4.0
 40
5.0
 40
5.0
 40
5.0
 40
6.0
 40
6.0
 40
6.0
 40
7.0
 40
7.0
 40
7.0
 40
8.0
 40
8.0
 40
8.0
 40
9.0
 40
9.0
 40
9.0
 40
10.0
 40
10.0
 40
10.0
 40
11.0
 40
11.0
 40
11.0
 40
12.0
 40
12.0
 40
12.0
 40
13.0
 40
13.0
 40
13.0
 40
14.0
 40
14.0
 40
14.0
 40
15.0
 40
15.0
 40
15.0
 40
16.0
 40
16.0
 40
16.0
 40
17.0
 40
17.0
 40
17.0
 40
18.0
 40
18.0
 40
18.0
 40
19.0
 40
19.0
 40
19.0
 40
20.0
 40
20.0
 40
20.0
 40
21.0
 40
21.0
 40
21.0
 40
22.0
 40
22.0
 40
22.0
 40
23.0
 40
23.0
 40
23.0
 40
24.0
 40
24.0
 40
24.0
 40
25.0
 40
25.0
 40
25.0
 40
26.0
 40
26.0
 40
26.0
 40
27.0
 40
27.0
 40
27.0
 40
28.0
 40
28.0
 40
28.0
 40
28.0
 10
117.6327853438557
 20
-155.7679253082802
 30
0.0
 10
117.6327853438557
 20
-155.7679253082802
 30
0.0
 10
117.6327853438557
 20
-155.607039349119
 30
0.0
 10
117.6327853438557
 20
-155.607039349119
 30
0.0
 10
117.6327853438557
 20
-155.607039349119
 30
0.0
 10
117.7874701311434
 20
-155.607039349119
 30
0.0
 10
117.7874701311434
 20
-155.607039349119
 30
0.0
 10
117.7874701311434
 20
-155.607039349119
 30
0.0
 10
117.7874701311434
 20
-155.7679253082802
 30
0.0
 10
117.7874701311434
 20
-155.7679253082802
 30
0.0
 10
117.7874701311434
 20
-155.7679253082802
 30
0.0
 10
118.1809000355589
 20
-155.7679253082802
 30
0.0
 10
118.1809000355589
 20
-155.7679253082802
 30
0.0
 10
118.1809000355589
 20
-155.7679253082802
 30
0.0
 10
118.1809000355589
 20
-155.9222655860194
 30
0.0
 10
118.1809000355589
 20
-155.9222655860194
 30
0.0
 10
118.1809000355589
 20
-155.9222655860194
 30
0.0
 10
117.7874701311434
 20
-155.9222655860194
 30
0.0
 10
117.7874701311434
 20
-155.9222655860194
 30
0.0
 10
117.7874701311434
 20
-155.9222655860194
 30
0.0
 10
117.7874701311434
 20
-156.0769503733071
 30
0.0
 10
117.7874701311434
 20
-156.0769503733071
 30
0.0
 10
117.7874701311434
 20
-156.0769503733071
 30
0.0
 10
118.1426594756727
 20
-156.0769503733071
 30
0.0
 10
118.1426594756727
 20
-156.0769503733071
 30
0.0
 10
118.1426594756727
 20
-156.0769503733071
 30
0.0
 10
118.1426594756727
 20
-156.889303888729
 30
0.0
 10
118.1426594756727
 20
-156.889303888729
 30
0.0
 10
118.1426594756727
 20
-156.889303888729
 30
0.0
 10
117.7874701311434
 20
-156.889303888729
 30
0.0
 10
117.7874701311434
 20
-156.889303888729
 30
0.0
 10
117.7874701311434
 20
-156.889303888729
 30
0.0
 10
117.7874701311434
 20
-157.0584580770548
 30
0.0
 10
117.7874701311434
 20
-157.0584580770548
 30
0.0
 10
117.7874701311434
 20
-157.0584580770548
 30
0.0
 10
118.1957139461455
 20
-157.0584580770548
 30
0.0
 10
118.1957139461455
 20
-157.0584580770548
 30
0.0
 10
118.1957139461455
 20
-157.0584580770548
 30
0.0
 10
118.1957139461455
 20
-157.212798354794
 30
0.0
 10
118.1957139461455
 20
-157.212798354794
 30
0.0
 10
118.1957139461455
 20
-157.212798354794
 30
0.0
 10
117.7874701311434
 20
-157.212798354794
 30
0.0
 10
117.7874701311434
 20
-157.212798354794
 30
0.0
 10
117.7874701311434
 20
-157.212798354794
 30
0.0
 10
117.7874701311434
 20
-157.5662651515806
 30
0.0
 10
117.7874701311434
 20
-157.5662651515806
 30
0.0
 10
117.7874701311434
 20
-157.5662651515806
 30
0.0
 10
117.6327853438557
 20
-157.5662651515806
 30
0.0
 10
117.6327853438557
 20
-157.5662651515806
 30
0.0
 10
117.6327853438557
 20
-157.5662651515806
 30
0.0
 10
117.6327853438557
 20
-157.212798354794
 30
0.0
 10
117.6327853438557
 20
-157.212798354794
 30
0.0
 10
117.6327853438557
 20
-157.212798354794
 30
0.0
 10
117.2224744715624
 20
-157.212798354794
 30
0.0
 10
117.2224744715624
 20
-157.212798354794
 30
0.0
 10
117.2224744715624
 20
-157.212798354794
 30
0.0
 10
117.2224744715624
 20
-157.0584580770548
 30
0.0
 10
117.2224744715624
 20
-157.0584580770548
 30
0.0
 10
117.2224744715624
 20
-157.0584580770548
 30
0.0
 10
117.6327853438557
 20
-157.0584580770548
 30
0.0
 10
117.6327853438557
 20
-157.0584580770548
 30
0.0
 10
117.6327853438557
 20
-157.0584580770548
 30
0.0
 10
117.6327853438557
 20
-156.889303888729
 30
0.0
 10
117.6327853438557
 20
-156.889303888729
 30
0.0
 10
117.6327853438557
 20
-156.889303888729
 30
0.0
 10
117.2837971711999
 20
-156.889303888729
 30
0.0
 10
117.2837971711999
 20
-156.889303888729
 30
0.0
 10
117.2837971711999
 20
-156.889303888729
 30
0.0
 10
117.2837971711999
 20
-156.0769503733071
 30
0.0
 10
117.2837971711999
 20
-156.0769503733071
 30
0.0
 10
117.2837971711999
 20
-156.0769503733071
 30
0.0
 10
117.6327853438557
 20
-156.0769503733071
 30
0.0
 10
117.6327853438557
 20
-156.0769503733071
 30
0.0
 10
117.6327853438557
 20
-156.0769503733071
 30
0.0
 10
117.6327853438557
 20
-155.9222655860194
 30
0.0
 10
117.6327853438557
 20
-155.9222655860194
 30
0.0
 10
117.6327853438557
 20
-155.9222655860194
 30
0.0
 10
117.2434895540224
 20
-155.9222655860194
 30
0.0
 10
117.2434895540224
 20
-155.9222655860194
 30
0.0
 10
117.2434895540224
 20
-155.9222655860194
 30
0.0
 10
117.2434895540224
 20
-155.7679253082802
 30
0.0
 10
117.2434895540224
 20
-155.7679253082802
 30
0.0
 10
117.2434895540224
 20
-155.7679253082802
 30
0.0
 10
117.6327853438557
 20
-155.7679253082802
 30
0.0
 10
117.6327853438557
 20
-155.7679253082802
 30
0.0
  0
HATCH
  5
152
330
147
100
AcDbEntity
  8
レイヤー 1
 62
    12
420
 15007762
440
 33554687
100
AcDbHatch
 10
0.0
 20
0.0
 30
0.0
210
0.0
220
0.0
230
1.0
  2
SOLID
 70
     1
 71
     1
 91
        7
 92
        1
 93
        1
 72
     4
 94
        3
 73
     0
 74
     0
 95
       38
 96
       34
 40
0.0
 40
0.0
 40
0.0
 40
0.0
 40
1.0
 40
1.0
 40
1.0
 40
2.0
 40
2.0
 40
2.0
 40
3.0
 40
3.0
 40
3.0
 40
4.0
 40
4.0
 40
4.0
 40
5.0
 40
5.0
 40
5.0
 40
6.0
 40
6.0
 40
6.0
 40
7.0
 40
7.0
 40
7.0
 40
8.0
 40
8.0
 40
8.0
 40
9.0
 40
9.0
 40
9.0
 40
10.0
 40
10.0
 40
10.0
 40
11.0
 40
11.0
 40
11.0
 40
11.0
 10
118.1554063289681
 20
-156.3580701649035
 10
118.2484239070698
 20
-156.2354247656286
 10
118.3734808731844
 20
-156.0555907812986
 10
118.4685655085773
 20
-155.607039349119
 10
118.4685655085773
 20
-155.607039349119
 10
118.6356526396119
 20
-155.6263318838365
 10
118.6356526396119
 20
-155.6263318838365
 10
118.6101589330211
 20
-155.7469102258202
 10
118.5870767932699
 20
-155.8378607466308
 10
118.5488362333836
 20
-155.9456922353191
 10
118.5488362333836
 20
-155.9456922353191
 10
119.1772216498932
 20
-155.9456922353191
 10
119.1772216498932
 20
-155.9456922353191
 10
119.1772216498932
 20
-155.9456922353191
 10
119.1772216498932
 20
-156.0979654557672
 10
119.1772216498932
 20
-156.0979654557672
 10
119.1434597141377
 20
-156.2399033897594
 10
119.0480305691963
 20
-156.4979410416047
 10
118.974305525812
 20
-156.6164523262973
 10
118.974305525812
 20
-156.6164523262973
 10
118.8216877958154
 20
-156.5379041492336
 10
118.8216877958154
 20
-156.5379041492336
 10
118.9171169407568
 20
-156.4025118966632
 10
118.9825737549766
 20
-156.2144096831686
 10
119.0101345188586
 20
-156.1041666276406
 10
119.0101345188586
 20
-156.1041666276406
 10
118.4916476483285
 20
-156.1041666276406
 10
118.4916476483285
 20
-156.1041666276406
 10
118.3924288983533
 20
-156.3456678211566
 10
118.3183593454204
 20
-156.4342067751275
 10
118.2801187855341
 20
-156.4786485068873
 10
118.2801187855341
 20
-156.4786485068873
 10
118.1554063289681
 20
-156.3580701649035
 10
118.1554063289681
 20
-156.3580701649035
 97
        0
 97
        1
330
14B
 92
        1
 93
        1
 72
     4
 94
        3
 73
     0
 74
     0
 95
       38
 96
       34
 40
0.0
 40
0.0
 40
0.0
 40
0.0
 40
1.0
 40
1.0
 40
1.0
 40
2.0
 40
2.0
 40
2.0
 40
3.0
 40
3.0
 40
3.0
 40
4.0
 40
4.0
 40
4.0
 40
5.0
 40
5.0
 40
5.0
 40
6.0
 40
6.0
 40
6.0
 40
7.0
 40
7.0
 40
7.0
 40
8.0
 40
8.0
 40
8.0
 40
9.0
 40
9.0
 40
9.0
 40
10.0
 40
10.0
 40
10.0
 40
11.0
 40
11.0
 40
11.0
 40
11.0
 10
118.0410291588578
 20
-157.4308728990103
 10
118.1237114505038
 20
-157.3778184285375
 10
118.2887315242473
 20
-157.2699869398492
 10
118.3944959556444
 20
-157.0625921916371
 10
118.5426350615102
 20
-156.7707926040364
 10
118.5426350615102
 20
-156.5444498306555
 10
118.5426350615102
 20
-156.4597004817184
 10
118.5426350615102
 20
-156.4597004817184
 10
118.5426350615102
 20
-156.2250894791729
 10
118.5426350615102
 20
-156.2250894791729
 10
118.5426350615102
 20
-156.2250894791729
 10
118.7076551352536
 20
-156.2250894791729
 10
118.7076551352536
 20
-156.2250894791729
 10
118.7076551352536
 20
-156.2250894791729
 10
118.7076551352536
 20
-156.4514322525538
 10
118.7076551352536
 20
-156.4514322525538
 10
118.7076551352536
 20
-156.6502142620527
 10
118.7731119494734
 20
-156.8872368314379
 10
118.8747422662882
 20
-157.060525134346
 10
118.9911864936897
 20
-157.2593071438449
 10
119.120033064838
 20
-157.3588704033686
 10
119.2047824137752
 20
-157.420193103006
 10
119.2047824137752
 20
-157.420193103006
 10
119.0969509250868
 20
-157.5703992661629
 10
119.0969509250868
 20
-157.5703992661629
 10
118.919183998048
 20
-157.441208185466
 10
118.720401988549
 20
-157.2021185587897
 10
118.6418538114853
 20
-156.8489962715516
 10
118.5763969972656
 20
-157.0880858982279
 10
118.4747666804507
 20
-157.3568033460774
 10
118.1660861249723
 20
-157.5662651515806
 10
118.1660861249723
 20
-157.5662651515806
 10
118.0410291588578
 20
-157.4308728990103
 10
118.0410291588578
 20
-157.4308728990103
 97
        0
 97
        1
330
14C
 92
        1
 93
        1
 72
     4
 94
        3
 73
     0
 74
     0
 95
       17
 96
       13
 40
0.0
 40
0.0
 40
0.0
 40
0.0
 40
1.0
 40
1.0
 40
1.0
 40
2.0
 40
2.0
 40
2.0
 40
3.0
 40
3.0
 40
3.0
 40
4.0
 40
4.0
 40
4.0
 40
4.0
 10
117.9989989939377
 20
-156.5423827733644
 10
117.9989989939377
 20
-156.5423827733644
 10
117.7874701311434
 20
-156.5423827733644
 10
117.7874701311434
 20
-156.5423827733644
 10
117.7874701311434
 20
-156.5423827733644
 10
117.7874701311434
 20
-156.7494330120279
 10
117.7874701311434
 20
-156.7494330120279
 10
117.7874701311434
 20
-156.7494330120279
 10
117.9989989939377
 20
-156.7494330120279
 10
117.9989989939377
 20
-156.7494330120279
 10
117.9989989939377
 20
-156.7494330120279
 10
117.9989989939377
 20
-156.5423827733644
 10
117.9989989939377
 20
-156.5423827733644
 97
        0
 97
        1
330
14D
 92
        1
 93
        1
 72
     4
 94
        3
 73
     0
 74
     0
 95
       17
 96
       13
 40
0.0
 40
0.0
 40
0.0
 40
0.0
 40
1.0
 40
1.0
 40
1.0
 40
2.0
 40
2.0
 40
2.0
 40
3.0
 40
3.0
 40
3.0
 40
4.0
 40
4.0
 40
4.0
 40
4.0
 10
117.9989989939377
 20
-156.2164767404597
 10
117.9989989939377
 20
-156.2164767404597
 10
117.7874701311434
 20
-156.2164767404597
 10
117.7874701311434
 20
-156.2164767404597
 10
117.7874701311434
 20
-156.2164767404597
 10
117.7874701311434
 20
-156.419392864541
 10
117.7874701311434
 20
-156.419392864541
 10
117.7874701311434
 20
-156.419392864541
 10
117.9989989939377
 20
-156.419392864541
 10
117.9989989939377
 20
-156.419392864541
 10
117.9989989939377
 20
-156.419392864541
 10
117.9989989939377
 20
-156.2164767404597
 10
117.9989989939377
 20
-156.2164767404597
 97
        0
 97
        1
330
14E
 92
        1
 93
        1
 72
     4
 94
        3
 73
     0
 74
     0
 95
       17
 96
       13
 40
0.0
 40
0.0
 40
0.0
 40
0.0
 40
1.0
 40
1.0
 40
1.0
 40
2.0
 40
2.0
 40
2.0
 40
3.0
 40
3.0
 40
3.0
 40
4.0
 40
4.0
 40
4.0
 40
4.0
 10
117.6327853438557
 20
-156.5423827733644
 10
117.6327853438557
 20
-156.5423827733644
 10
117.4257351051922
 20
-156.5423827733644
 10
117.4257351051922
 20
-156.5423827733644
 10
117.4257351051922
 20
-156.5423827733644
 10
117.4257351051922
 20
-156.7494330120279
 10
117.4257351051922
 20
-156.7494330120279
 10
117.4257351051922
 20
-156.7494330120279
 10
117.6327853438557
 20
-156.7494330120279
 10
117.6327853438557
 20
-156.7494330120279
 10
117.6327853438557
 20
-156.7494330120279
 10
117.6327853438557
 20
-156.5423827733644
 10
117.6327853438557
 20
-156.5423827733644
 97
        0
 97
        1
330
14F
 92
        1
 93
        1
 72
     4
 94
        3
 73
     0
 74
     0
 95
       17
 96
       13
 40
0.0
 40
0.0
 40
0.0
 40
0.0
 40
1.0
 40
1.0
 40
1.0
 40
2.0
 40
2.0
 40
2.0
 40
3.0
 40
3.0
 40
3.0
 40
4.0
 40
4.0
 40
4.0
 40
4.0
 10
117.6327853438557
 20
-156.2164767404597
 10
117.6327853438557
 20
-156.2164767404597
 10
117.4257351051922
 20
-156.2164767404597
 10
117.4257351051922
 20
-156.2164767404597
 10
117.4257351051922
 20
-156.2164767404597
 10
117.4257351051922
 20
-156.419392864541
 10
117.4257351051922
 20
-156.419392864541
 10
117.4257351051922
 20
-156.419392864541
 10
117.6327853438557
 20
-156.419392864541
 10
117.6327853438557
 20
-156.419392864541
 10
117.6327853438557
 20
-156.419392864541
 10
117.6327853438557
 20
-156.2164767404597
 10
117.6327853438557
 20
-156.2164767404597
 97
        0
 97
        1
330
150
 92
        1
 93
        1
 72
     4
 94
        3
 73
     0
 74
     0
 95
       89
 96
       85
 40
0.0
 40
0.0
 40
0.0
 40
0.0
 40
1.0
 40
1.0
 40
1.0
 40
2.0
 40
2.0
 40
2.0
 40
3.0
 40
3.0
 40
3.0
 40
4.0
 40
4.0
 40
4.0
 40
5.0
 40
5.0
 40
5.0
 40
6.0
 40
6.0
 40
6.0
 40
7.0
 40
7.0
 40
7.0
 40
8.0
 40
8.0
 40
8.0
 40
9.0
 40
9.0
 40
9.0
 40
10.0
 40
10.0
 40
10.0
 40
11.0
 40
11.0
 40
11.0
 40
12.0
 40
12.0
 40
12.0
 40
13.0
 40
13.0
 40
13.0
 40
14.0
 40
14.0
 40
14.0
 40
15.0
 40
15.0
 40
15.0
 40
16.0
 40
16.0
 40
16.0
 40
17.0
 40
17.0
 40
17.0
 40
18.0
 40
18.0
 40
18.0
 40
19.0
 40
19.0
 40
19.0
 40
20.0
 40
20.0
 40
20.0
 40
21.0
 40
21.0
 40
21.0
 40
22.0
 40
22.0
 40
22.0
 40
23.0
 40
23.0
 40
23.0
 40
24.0
 40
24.0
 40
24.0
 40
25.0
 40
25.0
 40
25.0
 40
26.0
 40
26.0
 40
26.0
 40
27.0
 40
27.0
 40
27.0
 40
28.0
 40
28.0
 40
28.0
 40
28.0
 10
117.6327853438557
 20
-155.7679253082802
 10
117.6327853438557
 20
-155.7679253082802
 10
117.6327853438557
 20
-155.607039349119
 10
117.6327853438557
 20
-155.607039349119
 10
117.6327853438557
 20
-155.607039349119
 10
117.7874701311434
 20
-155.607039349119
 10
117.7874701311434
 20
-155.607039349119
 10
117.7874701311434
 20
-155.607039349119
 10
117.7874701311434
 20
-155.7679253082802
 10
117.7874701311434
 20
-155.7679253082802
 10
117.7874701311434
 20
-155.7679253082802
 10
118.1809000355589
 20
-155.7679253082802
 10
118.1809000355589
 20
-155.7679253082802
 10
118.1809000355589
 20
-155.7679253082802
 10
118.1809000355589
 20
-155.9222655860194
 10
118.1809000355589
 20
-155.9222655860194
 10
118.1809000355589
 20
-155.9222655860194
 10
117.7874701311434
 20
-155.9222655860194
 10
117.7874701311434
 20
-155.9222655860194
 10
117.7874701311434
 20
-155.9222655860194
 10
117.7874701311434
 20
-156.0769503733071
 10
117.7874701311434
 20
-156.0769503733071
 10
117.7874701311434
 20
-156.0769503733071
 10
118.1426594756727
 20
-156.0769503733071
 10
118.1426594756727
 20
-156.0769503733071
 10
118.1426594756727
 20
-156.0769503733071
 10
118.1426594756727
 20
-156.889303888729
 10
118.1426594756727
 20
-156.889303888729
 10
118.1426594756727
 20
-156.889303888729
 10
117.7874701311434
 20
-156.889303888729
 10
117.7874701311434
 20
-156.889303888729
 10
117.7874701311434
 20
-156.889303888729
 10
117.7874701311434
 20
-157.0584580770548
 10
117.7874701311434
 20
-157.0584580770548
 10
117.7874701311434
 20
-157.0584580770548
 10
118.1957139461455
 20
-157.0584580770548
 10
118.1957139461455
 20
-157.0584580770548
 10
118.1957139461455
 20
-157.0584580770548
 10
118.1957139461455
 20
-157.212798354794
 10
118.1957139461455
 20
-157.212798354794
 10
118.1957139461455
 20
-157.212798354794
 10
117.7874701311434
 20
-157.212798354794
 10
117.7874701311434
 20
-157.212798354794
 10
117.7874701311434
 20
-157.212798354794
 10
117.7874701311434
 20
-157.5662651515806
 10
117.7874701311434
 20
-157.5662651515806
 10
117.7874701311434
 20
-157.5662651515806
 10
117.6327853438557
 20
-157.5662651515806
 10
117.6327853438557
 20
-157.5662651515806
 10
117.6327853438557
 20
-157.5662651515806
 10
117.6327853438557
 20
-157.212798354794
 10
117.6327853438557
 20
-157.212798354794
 10
117.6327853438557
 20
-157.212798354794
 10
117.2224744715624
 20
-157.212798354794
 10
117.2224744715624
 20
-157.212798354794
 10
117.2224744715624
 20
-157.212798354794
 10
117.2224744715624
 20
-157.0584580770548
 10
117.2224744715624
 20
-157.0584580770548
 10
117.2224744715624
 20
-157.0584580770548
 10
117.6327853438557
 20
-157.0584580770548
 10
117.6327853438557
 20
-157.0584580770548
 10
117.6327853438557
 20
-157.0584580770548
 10
117.6327853438557
 20
-156.889303888729
 10
117.6327853438557
 20
-156.889303888729
 10
117.6327853438557
 20
-156.889303888729
 10
117.2837971711999
 20
-156.889303888729
 10
117.2837971711999
 20
-156.889303888729
 10
117.2837971711999
 20
-156.889303888729
 10
117.2837971711999
 20
-156.0769503733071
 10
117.2837971711999
 20
-156.0769503733071
 10
117.2837971711999
 20
-156.0769503733071
 10
117.6327853438557
 20
-156.0769503733071
 10
117.6327853438557
 20
-156.0769503733071
 10
117.6327853438557
 20
-156.0769503733071
 10
117.6327853438557
 20
-155.9222655860194
 10
117.6327853438557
 20
-155.9222655860194
 10
117.6327853438557
 20
-155.9222655860194
 10
117.2434895540224
 20
-155.9222655860194
 10
117.2434895540224
 20
-155.9222655860194
 10
117.2434895540224
 20
-155.9222655860194
 10
117.2434895540224
 20
-155.7679253082802
 10
117.2434895540224
 20
-155.7679253082802
 10
117.2434895540224
 20
-155.7679253082802
 10
117.6327853438557
 20
-155.7679253082802
 10
117.6327853438557
 20
-155.7679253082802
 97
        0
 97
        1
330
151
 75
     2
 76
     1
 98
        1
 10
0.0
 20
0.0
450
        0
451
        0
460
0.0
461
0.0
452
        0
462
0.0
453
        0
470

  0
SPLINE
  5
153
330
147
100
AcDbEntity
  8
レイヤー 1
100
AcDbSpline
210
0.0
220
0.0
230
1.0
 70
     9
 71
     3
 72
    17
 73
    13
 74
     0
 42
0.0000000001
 43
0.0000000001
 40
0.0
 40
0.0
 40
0.0
 40
0.0
 40
1.0
 40
1.0
 40
1.0
 40
2.0
 40
2.0
 40
2.0
 40
3.0
 40
3.0
 40
3.0
 40
4.0
 40
4.0
 40
4.0
 40
4.0
 10
120.6699815236519
 20
-157.2572400865538
 30
0.0
 10
120.8897786156109
 20
-157.3695501993729
 30
0.0
 10
121.1564290061692
 20
-157.4074462497106
 30
0.0
 10
121.2852755773176
 20
-157.4181260457149
 30
0.0
 10
121.2852755773176
 20
-157.4181260457149
 30
0.0
 10
121.2156846485155
 20
-157.5724663234541
 30
0.0
 10
121.2156846485155
 20
-157.5724663234541
 30
0.0
 10
121.0951063065318
 20
-157.5576524128675
 30
0.0
 10
120.8325900305557
 20
-157.5173447956901
 30
0.0
 10
120.5683512068371
 20
-157.371617256664
 30
0.0
 10
120.5683512068371
 20
-157.371617256664
 30
0.0
 10
120.6699815236519
 20
-157.2572400865538
 30
0.0
 10
120.6699815236519
 20
-157.2572400865538
 30
0.0
  0
SPLINE
  5
154
330
147
100
AcDbEntity
  8
レイヤー 1
100
AcDbSpline
210
0.0
220
0.0
230
1.0
 70
    11
 71
     3
 72
    50
 73
    46
 74
     0
 42
0.0000000001
 43
0.0000000001
 40
0.0
 40
0.0
 40
0.0
 40
0.0
 40
1.0
 40
1.0
 40
1.0
 40
2.0
 40
2.0
 40
2.0
 40
3.0
 40
3.0
 40
3.0
 40
4.0
 40
4.0
 40
4.0
 40
5.0
 40
5.0
 40
5.0
 40
6.0
 40
6.0
 40
6.0
 40
7.0
 40
7.0
 40
7.0
 40
8.0
 40
8.0
 40
8.0
 40
9.0
 40
9.0
 40
9.0
 40
10.0
 40
10.0
 40
10.0
 40
11.0
 40
11.0
 40
11.0
 40
12.0
 40
12.0
 40
12.0
 40
13.0
 40
13.0
 40
13.0
 40
14.0
 40
14.0
 40
14.0
 40
15.0
 40
15.0
 40
15.0
 40
15.0
 10
120.5576714108328
 20
-155.9053846181417
 30
0.0
 10
120.5576714108328
 20
-155.9053846181417
 30
0.0
 10
121.2938883160307
 20
-155.9053846181417
 30
0.0
 10
121.2938883160307
 20
-155.9053846181417
 30
0.0
 10
121.2938883160307
 20
-155.9053846181417
 30
0.0
 10
121.2938883160307
 20
-156.0304415842563
 30
0.0
 10
121.2938883160307
 20
-156.0304415842563
 30
0.0
 10
121.2938883160307
 20
-156.0304415842563
 30
0.0
 10
120.9638481685437
 20
-156.0304415842563
 30
0.0
 10
120.9638481685437
 20
-156.0304415842563
 30
0.0
 10
120.9638481685437
 20
-156.0304415842563
 30
0.0
 10
120.9638481685437
 20
-156.3053602039792
 30
0.0
 10
120.9638481685437
 20
-156.3053602039792
 30
0.0
 10
120.9638481685437
 20
-156.3053602039792
 30
0.0
 10
120.8074408335134
 20
-156.3053602039792
 30
0.0
 10
120.8074408335134
 20
-156.3053602039792
 30
0.0
 10
120.8074408335134
 20
-156.3053602039792
 30
0.0
 10
120.8074408335134
 20
-156.0304415842563
 30
0.0
 10
120.8074408335134
 20
-156.0304415842563
 30
0.0
 10
120.8074408335134
 20
-156.0304415842563
 30
0.0
 10
120.5428575002462
 20
-156.0304415842563
 30
0.0
 10
120.5428575002462
 20
-156.0304415842563
 30
0.0
 10
120.5173637936554
 20
-156.1592881554046
 30
0.0
 10
120.4667208900222
 20
-156.2502386762152
 30
0.0
 10
120.3695691973381
 20
-156.3329209678612
 30
0.0
 10
120.3695691973381
 20
-156.3329209678612
 30
0.0
 10
120.2465792885147
 20
-156.2250894791729
 30
0.0
 10
120.2465792885147
 20
-156.2250894791729
 30
0.0
 10
120.381971541085
 20
-156.1148464236449
 30
0.0
 10
120.4053981903848
 20
-155.9773871137834
 30
0.0
 10
120.4053981903848
 20
-155.9033175608505
 30
0.0
 10
120.4053981903848
 20
-155.9033175608505
 30
0.0
 10
120.4053981903848
 20
-155.6600938195919
 30
0.0
 10
120.4053981903848
 20
-155.6600938195919
 30
0.0
 10
120.8749647050243
 20
-155.6600938195919
 30
0.0
 10
121.0420518360589
 20
-155.6197862024145
 30
0.0
 10
121.1860568273424
 20
-155.5774115279459
 30
0.0
 10
121.1860568273424
 20
-155.5774115279459
 30
0.0
 10
121.2453124696887
 20
-155.7152153473559
 30
0.0
 10
121.2453124696887
 20
-155.7152153473559
 30
0.0
 10
120.974527964548
 20
-155.784806276158
 30
0.0
 10
120.6593017276477
 20
-155.7892849002888
 30
0.0
 10
120.5576714108328
 20
-155.7892849002888
 30
0.0
 10
120.5576714108328
 20
-155.7892849002888
 30
0.0
 10
120.5576714108328
 20
-155.9053846181417
 30
0.0
 10
120.5576714108328
 20
-155.9053846181417
 30
0.0
  0
SPLINE
  5
155
330
147
100
AcDbEntity
  8
レイヤー 1
100
AcDbSpline
210
0.0
220
0.0
230
1.0
 70
    11
 71
     3
 72
    17
 73
    13
 74
     0
 42
0.0000000001
 43
0.0000000001
 40
0.0
 40
0.0
 40
0.0
 40
0.0
 40
1.0
 40
1.0
 40
1.0
 40
2.0
 40
2.0
 40
2.0
 40
3.0
 40
3.0
 40
3.0
 40
4.0
 40
4.0
 40
4.0
 40
4.0
 10
120.8939127301932
 20
-156.9757757854088
 30
0.0
 10
120.8939127301932
 20
-156.9757757854088
 30
0.0
 10
119.7346380994066
 20
-156.9757757854088
 30
0.0
 10
119.7346380994066
 20
-156.9757757854088
 30
0.0
 10
119.7346380994066
 20
-156.9757757854088
 30
0.0
 10
119.7346380994066
 20
-157.11564666211
 30
0.0
 10
119.7346380994066
 20
-157.11564666211
 30
0.0
 10
119.7346380994066
 20
-157.11564666211
 30
0.0
 10
120.8939127301932
 20
-157.11564666211
 30
0.0
 10
120.8939127301932
 20
-157.11564666211
 30
0.0
 10
120.8939127301932
 20
-157.11564666211
 30
0.0
 10
120.8939127301932
 20
-156.9757757854088
 30
0.0
 10
120.8939127301932
 20
-156.9757757854088
 30
0.0
  0
SPLINE
  5
156
330
147
100
AcDbEntity
  8
レイヤー 1
100
AcDbSpline
210
0.0
220
0.0
230
1.0
 70
    11
 71
     3
 72
    17
 73
    13
 74
     0
 42
0.0000000001
 43
0.0000000001
 40
0.0
 40
0.0
 40
0.0
 40
0.0
 40
1.0
 40
1.0
 40
1.0
 40
2.0
 40
2.0
 40
2.0
 40
3.0
 40
3.0
 40
3.0
 40
4.0
 40
4.0
 40
4.0
 40
4.0
 10
120.8939127301932
 20
-156.7242838149856
 30
0.0
 10
120.8939127301932
 20
-156.7242838149856
 30
0.0
 10
119.7346380994066
 20
-156.7242838149856
 30
0.0
 10
119.7346380994066
 20
-156.7242838149856
 30
0.0
 10
119.7346380994066
 20
-156.7242838149856
 30
0.0
 10
119.7346380994066
 20
-156.8658772394293
 30
0.0
 10
119.7346380994066
 20
-156.8658772394293
 30
0.0
 10
119.7346380994066
 20
-156.8658772394293
 30
0.0
 10
120.8939127301932
 20
-156.8658772394293
 30
0.0
 10
120.8939127301932
 20
-156.8658772394293
 30
0.0
 10
120.8939127301932
 20
-156.8658772394293
 30
0.0
 10
120.8939127301932
 20
-156.7242838149856
 30
0.0
 10
120.8939127301932
 20
-156.7242838149856
 30
0.0
  0
SPLINE
  5
157
330
147
100
AcDbEntity
  8
レイヤー 1
100
AcDbSpline
210
0.0
220
0.0
230
1.0
 70
    11
 71
     3
 72
    17
 73
    13
 74
     0
 42
0.0000000001
 43
0.0000000001
 40
0.0
 40
0.0
 40
0.0
 40
0.0
 40
1.0
 40
1.0
 40
1.0
 40
2.0
 40
2.0
 40
2.0
 40
3.0
 40
3.0
 40
3.0
 40
4.0
 40
4.0
 40
4.0
 40
4.0
 10
120.8939127301932
 20
-156.4851941883092
 30
0.0
 10
120.8939127301932
 20
-156.4851941883092
 30
0.0
 10
119.7346380994066
 20
-156.4851941883092
 30
0.0
 10
119.7346380994066
 20
-156.4851941883092
 30
0.0
 10
119.7346380994066
 20
-156.4851941883092
 30
0.0
 10
119.7346380994066
 20
-156.6140407594576
 30
0.0
 10
119.7346380994066
 20
-156.6140407594576
 30
0.0
 10
119.7346380994066
 20
-156.6140407594576
 30
0.0
 10
120.8939127301932
 20
-156.6140407594576
 30
0.0
 10
120.8939127301932
 20
-156.6140407594576
 30
0.0
 10
120.8939127301932
 20
-156.6140407594576
 30
0.0
 10
120.8939127301932
 20
-156.4851941883092
 30
0.0
 10
120.8939127301932
 20
-156.4851941883092
 30
0.0
  0
SPLINE
  5
158
330
147
100
AcDbEntity
  8
レイヤー 1
100
AcDbSpline
210
0.0
220
0.0
230
1.0
 70
    11
 71
     3
 72
    32
 73
    28
 74
     0
 42
0.0000000001
 43
0.0000000001
 40
0.0
 40
0.0
 40
0.0
 40
0.0
 40
1.0
 40
1.0
 40
1.0
 40
2.0
 40
2.0
 40
2.0
 40
3.0
 40
3.0
 40
3.0
 40
4.0
 40
4.0
 40
4.0
 40
5.0
 40
5.0
 40
5.0
 40
6.0
 40
6.0
 40
6.0
 40
7.0
 40
7.0
 40
7.0
 40
8.0
 40
8.0
 40
8.0
 40
9.0
 40
9.0
 40
9.0
 40
9.0
 10
119.5654839110808
 20
-157.2510389146803
 30
0.0
 10
119.5654839110808
 20
-157.2510389146803
 30
0.0
 10
119.5654839110808
 20
-156.3518689930301
 30
0.0
 10
119.5654839110808
 20
-156.3518689930301
 30
0.0
 10
119.5654839110808
 20
-156.3518689930301
 30
0.0
 10
121.0634114280675
 20
-156.3518689930301
 30
0.0
 10
121.0634114280675
 20
-156.3518689930301
 30
0.0
 10
121.0634114280675
 20
-156.3518689930301
 30
0.0
 10
121.0634114280675
 20
-157.2510389146803
 30
0.0
 10
121.0634114280675
 20
-157.2510389146803
 30
0.0
 10
121.0634114280675
 20
-157.2510389146803
 30
0.0
 10
119.9189507078675
 20
-157.2510389146803
 30
0.0
 10
119.9189507078675
 20
-157.2510389146803
 30
0.0
 10
119.9189507078675
 20
-157.2510389146803
 30
0.0
 10
120.0247151392646
 20
-157.3609374606597
 30
0.0
 10
120.0247151392646
 20
-157.3609374606597
 30
0.0
 10
119.8596950655212
 20
-157.4560220960526
 30
0.0
 10
119.6946749917777
 20
-157.5173447956901
 30
0.0
 10
119.3983967800462
 20
-157.5683322088718
 30
0.0
 10
119.3983967800462
 20
-157.5683322088718
 30
0.0
 10
119.3329399658265
 20
-157.4160589884237
 30
0.0
 10
119.3329399658265
 20
-157.4160589884237
 30
0.0
 10
119.7115559596554
 20
-157.3630045179509
 30
0.0
 10
119.8342013589303
 20
-157.29548064644
 30
0.0
 10
119.9144720837366
 20
-157.2510389146803
 30
0.0
 10
119.9144720837366
 20
-157.2510389146803
 30
0.0
 10
119.5654839110808
 20
-157.2510389146803
 30
0.0
 10
119.5654839110808
 20
-157.2510389146803
 30
0.0
  0
SPLINE
  5
159
330
147
100
AcDbEntity
  8
レイヤー 1
100
AcDbSpline
210
0.0
220
0.0
230
1.0
 70
    11
 71
     3
 72
    50
 73
    46
 74
     0
 42
0.0000000001
 43
0.0000000001
 40
0.0
 40
0.0
 40
0.0
 40
0.0
 40
1.0
 40
1.0
 40
1.0
 40
2.0
 40
2.0
 40
2.0
 40
3.0
 40
3.0
 40
3.0
 40
4.0
 40
4.0
 40
4.0
 40
5.0
 40
5.0
 40
5.0
 40
6.0
 40
6.0
 40
6.0
 40
7.0
 40
7.0
 40
7.0
 40
8.0
 40
8.0
 40
8.0
 40
9.0
 40
9.0
 40
9.0
 40
10.0
 40
10.0
 40
10.0
 40
11.0
 40
11.0
 40
11.0
 40
12.0
 40
12.0
 40
12.0
 40
13.0
 40
13.0
 40
13.0
 40
14.0
 40
14.0
 40
14.0
 40
15.0
 40
15.0
 40
15.0
 40
15.0
 10
119.650233260018
 20
-155.9053846181417
 30
0.0
 10
119.650233260018
 20
-155.9053846181417
 30
0.0
 10
120.3017008162787
 20
-155.9053846181417
 30
0.0
 10
120.3017008162787
 20
-155.9053846181417
 30
0.0
 10
120.3017008162787
 20
-155.9053846181417
 30
0.0
 10
120.3017008162787
 20
-156.0304415842563
 30
0.0
 10
120.3017008162787
 20
-156.0304415842563
 30
0.0
 10
120.3017008162787
 20
-156.0304415842563
 30
0.0
 10
120.0247151392646
 20
-156.0304415842563
 30
0.0
 10
120.0247151392646
 20
-156.0304415842563
 30
0.0
 10
120.0247151392646
 20
-156.0304415842563
 30
0.0
 10
120.0247151392646
 20
-156.3053602039792
 30
0.0
 10
120.0247151392646
 20
-156.3053602039792
 30
0.0
 10
120.0247151392646
 20
-156.3053602039792
 30
0.0
 10
119.8638291801035
 20
-156.3053602039792
 30
0.0
 10
119.8638291801035
 20
-156.3053602039792
 30
0.0
 10
119.8638291801035
 20
-156.3053602039792
 30
0.0
 10
119.8638291801035
 20
-156.0304415842563
 30
0.0
 10
119.8638291801035
 20
-156.0304415842563
 30
0.0
 10
119.8638291801035
 20
-156.0304415842563
 30
0.0
 10
119.643687578596
 20
-156.0304415842563
 30
0.0
 10
119.643687578596
 20
-156.0304415842563
 30
0.0
 10
119.6333522921402
 20
-156.1000325130583
 30
0.0
 10
119.6078585855494
 20
-156.2946804079749
 30
0.0
 10
119.4535183078102
 20
-156.4448865711318
 30
0.0
 10
119.4535183078102
 20
-156.4448865711318
 30
0.0
 10
119.3305283989868
 20
-156.3349880251523
 30
0.0
 10
119.3305283989868
 20
-156.3349880251523
 30
0.0
 10
119.4514512505191
 20
-156.2354247656286
 30
0.0
 10
119.4934814154391
 20
-156.0304415842563
 30
0.0
 10
119.4934814154391
 20
-155.9477592926103
 30
0.0
 10
119.4934814154391
 20
-155.9477592926103
 30
0.0
 10
119.4934814154391
 20
-155.662160876883
 30
0.0
 10
119.4934814154391
 20
-155.662160876883
 30
0.0
 10
119.9782063502138
 20
-155.662160876883
 30
0.0
 10
120.132546627953
 20
-155.6156520878322
 30
0.0
 10
120.2276312633459
 20
-155.5880913239502
 30
0.0
 10
120.2276312633459
 20
-155.5880913239502
 30
0.0
 10
120.2806857338187
 20
-155.7276176911028
 30
0.0
 10
120.2806857338187
 20
-155.7276176911028
 30
0.0
 10
120.0712239283155
 20
-155.7765380469934
 30
0.0
 10
119.9082709118632
 20
-155.7868733334491
 30
0.0
 10
119.650233260018
 20
-155.7913519575799
 30
0.0
 10
119.650233260018
 20
-155.7913519575799
 30
0.0
 10
119.650233260018
 20
-155.9053846181417
 30
0.0
 10
119.650233260018
 20
-155.9053846181417
 30
0.0
  0
HATCH
  5
15A
330
147
100
AcDbEntity
  8
レイヤー 1
 62
    12
420
 15007762
440
 33554687
100
AcDbHatch
 10
0.0
 20
0.0
 30
0.0
210
0.0
220
0.0
230
1.0
  2
SOLID
 70
     1
 71
     1
 91
        7
 92
        1
 93
        1
 72
     4
 94
        3
 73
     0
 74
     0
 95
       17
 96
       13
 40
0.0
 40
0.0
 40
0.0
 40
0.0
 40
1.0
 40
1.0
 40
1.0
 40
2.0
 40
2.0
 40
2.0
 40
3.0
 40
3.0
 40
3.0
 40
4.0
 40
4.0
 40
4.0
 40
4.0
 10
120.6699815236519
 20
-157.2572400865538
 10
120.8897786156109
 20
-157.3695501993729
 10
121.1564290061692
 20
-157.4074462497106
 10
121.2852755773176
 20
-157.4181260457149
 10
121.2852755773176
 20
-157.4181260457149
 10
121.2156846485155
 20
-157.5724663234541
 10
121.2156846485155
 20
-157.5724663234541
 10
121.0951063065318
 20
-157.5576524128675
 10
120.8325900305557
 20
-157.5173447956901
 10
120.5683512068371
 20
-157.371617256664
 10
120.5683512068371
 20
-157.371617256664
 10
120.6699815236519
 20
-157.2572400865538
 10
120.6699815236519
 20
-157.2572400865538
 97
        0
 97
        1
330
153
 92
        1
 93
        1
 72
     4
 94
        3
 73
     0
 74
     0
 95
       50
 96
       46
 40
0.0
 40
0.0
 40
0.0
 40
0.0
 40
1.0
 40
1.0
 40
1.0
 40
2.0
 40
2.0
 40
2.0
 40
3.0
 40
3.0
 40
3.0
 40
4.0
 40
4.0
 40
4.0
 40
5.0
 40
5.0
 40
5.0
 40
6.0
 40
6.0
 40
6.0
 40
7.0
 40
7.0
 40
7.0
 40
8.0
 40
8.0
 40
8.0
 40
9.0
 40
9.0
 40
9.0
 40
10.0
 40
10.0
 40
10.0
 40
11.0
 40
11.0
 40
11.0
 40
12.0
 40
12.0
 40
12.0
 40
13.0
 40
13.0
 40
13.0
 40
14.0
 40
14.0
 40
14.0
 40
15.0
 40
15.0
 40
15.0
 40
15.0
 10
120.5576714108328
 20
-155.9053846181417
 10
120.5576714108328
 20
-155.9053846181417
 10
121.2938883160307
 20
-155.9053846181417
 10
121.2938883160307
 20
-155.9053846181417
 10
121.2938883160307
 20
-155.9053846181417
 10
121.2938883160307
 20
-156.0304415842563
 10
121.2938883160307
 20
-156.0304415842563
 10
121.2938883160307
 20
-156.0304415842563
 10
120.9638481685437
 20
-156.0304415842563
 10
120.9638481685437
 20
-156.0304415842563
 10
120.9638481685437
 20
-156.0304415842563
 10
120.9638481685437
 20
-156.3053602039792
 10
120.9638481685437
 20
-156.3053602039792
 10
120.9638481685437
 20
-156.3053602039792
 10
120.8074408335134
 20
-156.3053602039792
 10
120.8074408335134
 20
-156.3053602039792
 10
120.8074408335134
 20
-156.3053602039792
 10
120.8074408335134
 20
-156.0304415842563
 10
120.8074408335134
 20
-156.0304415842563
 10
120.8074408335134
 20
-156.0304415842563
 10
120.5428575002462
 20
-156.0304415842563
 10
120.5428575002462
 20
-156.0304415842563
 10
120.5173637936554
 20
-156.1592881554046
 10
120.4667208900222
 20
-156.2502386762152
 10
120.3695691973381
 20
-156.3329209678612
 10
120.3695691973381
 20
-156.3329209678612
 10
120.2465792885147
 20
-156.2250894791729
 10
120.2465792885147
 20
-156.2250894791729
 10
120.381971541085
 20
-156.1148464236449
 10
120.4053981903848
 20
-155.9773871137834
 10
120.4053981903848
 20
-155.9033175608505
 10
120.4053981903848
 20
-155.9033175608505
 10
120.4053981903848
 20
-155.6600938195919
 10
120.4053981903848
 20
-155.6600938195919
 10
120.8749647050243
 20
-155.6600938195919
 10
121.0420518360589
 20
-155.6197862024145
 10
121.1860568273424
 20
-155.5774115279459
 10
121.1860568273424
 20
-155.5774115279459
 10
121.2453124696887
 20
-155.7152153473559
 10
121.2453124696887
 20
-155.7152153473559
 10
120.974527964548
 20
-155.784806276158
 10
120.6593017276477
 20
-155.7892849002888
 10
120.5576714108328
 20
-155.7892849002888
 10
120.5576714108328
 20
-155.7892849002888
 10
120.5576714108328
 20
-155.9053846181417
 10
120.5576714108328
 20
-155.9053846181417
 97
        0
 97
        1
330
154
 92
        1
 93
        1
 72
     4
 94
        3
 73
     0
 74
     0
 95
       17
 96
       13
 40
0.0
 40
0.0
 40
0.0
 40
0.0
 40
1.0
 40
1.0
 40
1.0
 40
2.0
 40
2.0
 40
2.0
 40
3.0
 40
3.0
 40
3.0
 40
4.0
 40
4.0
 40
4.0
 40
4.0
 10
120.8939127301932
 20
-156.9757757854088
 10
120.8939127301932
 20
-156.9757757854088
 10
119.7346380994066
 20
-156.9757757854088
 10
119.7346380994066
 20
-156.9757757854088
 10
119.7346380994066
 20
-156.9757757854088
 10
119.7346380994066
 20
-157.11564666211
 10
119.7346380994066
 20
-157.11564666211
 10
119.7346380994066
 20
-157.11564666211
 10
120.8939127301932
 20
-157.11564666211
 10
120.8939127301932
 20
-157.11564666211
 10
120.8939127301932
 20
-157.11564666211
 10
120.8939127301932
 20
-156.9757757854088
 10
120.8939127301932
 20
-156.9757757854088
 97
        0
 97
        1
330
155
 92
        1
 93
        1
 72
     4
 94
        3
 73
     0
 74
     0
 95
       17
 96
       13
 40
0.0
 40
0.0
 40
0.0
 40
0.0
 40
1.0
 40
1.0
 40
1.0
 40
2.0
 40
2.0
 40
2.0
 40
3.0
 40
3.0
 40
3.0
 40
4.0
 40
4.0
 40
4.0
 40
4.0
 10
120.8939127301932
 20
-156.7242838149856
 10
120.8939127301932
 20
-156.7242838149856
 10
119.7346380994066
 20
-156.7242838149856
 10
119.7346380994066
 20
-156.7242838149856
 10
119.7346380994066
 20
-156.7242838149856
 10
119.7346380994066
 20
-156.8658772394293
 10
119.7346380994066
 20
-156.8658772394293
 10
119.7346380994066
 20
-156.8658772394293
 10
120.8939127301932
 20
-156.8658772394293
 10
120.8939127301932
 20
-156.8658772394293
 10
120.8939127301932
 20
-156.8658772394293
 10
120.8939127301932
 20
-156.7242838149856
 10
120.8939127301932
 20
-156.7242838149856
 97
        0
 97
        1
330
156
 92
        1
 93
        1
 72
     4
 94
        3
 73
     0
 74
     0
 95
       17
 96
       13
 40
0.0
 40
0.0
 40
0.0
 40
0.0
 40
1.0
 40
1.0
 40
1.0
 40
2.0
 40
2.0
 40
2.0
 40
3.0
 40
3.0
 40
3.0
 40
4.0
 40
4.0
 40
4.0
 40
4.0
 10
120.8939127301932
 20
-156.4851941883092
 10
120.8939127301932
 20
-156.4851941883092
 10
119.7346380994066
 20
-156.4851941883092
 10
119.7346380994066
 20
-156.4851941883092
 10
119.7346380994066
 20
-156.4851941883092
 10
119.7346380994066
 20
-156.6140407594576
 10
119.7346380994066
 20
-156.6140407594576
 10
119.7346380994066
 20
-156.6140407594576
 10
120.8939127301932
 20
-156.6140407594576
 10
120.8939127301932
 20
-156.6140407594576
 10
120.8939127301932
 20
-156.6140407594576
 10
120.8939127301932
 20
-156.4851941883092
 10
120.8939127301932
 20
-156.4851941883092
 97
        0
 97
        1
330
157
 92
        1
 93
        1
 72
     4
 94
        3
 73
     0
 74
     0
 95
       32
 96
       28
 40
0.0
 40
0.0
 40
0.0
 40
0.0
 40
1.0
 40
1.0
 40
1.0
 40
2.0
 40
2.0
 40
2.0
 40
3.0
 40
3.0
 40
3.0
 40
4.0
 40
4.0
 40
4.0
 40
5.0
 40
5.0
 40
5.0
 40
6.0
 40
6.0
 40
6.0
 40
7.0
 40
7.0
 40
7.0
 40
8.0
 40
8.0
 40
8.0
 40
9.0
 40
9.0
 40
9.0
 40
9.0
 10
119.5654839110808
 20
-157.2510389146803
 10
119.5654839110808
 20
-157.2510389146803
 10
119.5654839110808
 20
-156.3518689930301
 10
119.5654839110808
 20
-156.3518689930301
 10
119.5654839110808
 20
-156.3518689930301
 10
121.0634114280675
 20
-156.3518689930301
 10
121.0634114280675
 20
-156.3518689930301
 10
121.0634114280675
 20
-156.3518689930301
 10
121.0634114280675
 20
-157.2510389146803
 10
121.0634114280675
 20
-157.2510389146803
 10
121.0634114280675
 20
-157.2510389146803
 10
119.9189507078675
 20
-157.2510389146803
 10
119.9189507078675
 20
-157.2510389146803
 10
119.9189507078675
 20
-157.2510389146803
 10
120.0247151392646
 20
-157.3609374606597
 10
120.0247151392646
 20
-157.3609374606597
 10
119.8596950655212
 20
-157.4560220960526
 10
119.6946749917777
 20
-157.5173447956901
 10
119.3983967800462
 20
-157.5683322088718
 10
119.3983967800462
 20
-157.5683322088718
 10
119.3329399658265
 20
-157.4160589884237
 10
119.3329399658265
 20
-157.4160589884237
 10
119.7115559596554
 20
-157.3630045179509
 10
119.8342013589303
 20
-157.29548064644
 10
119.9144720837366
 20
-157.2510389146803
 10
119.9144720837366
 20
-157.2510389146803
 10
119.5654839110808
 20
-157.2510389146803
 10
119.5654839110808
 20
-157.2510389146803
 97
        0
 97
        1
330
158
 92
        1
 93
        1
 72
     4
 94
        3
 73
     0
 74
     0
 95
       50
 96
       46
 40
0.0
 40
0.0
 40
0.0
 40
0.0
 40
1.0
 40
1.0
 40
1.0
 40
2.0
 40
2.0
 40
2.0
 40
3.0
 40
3.0
 40
3.0
 40
4.0
 40
4.0
 40
4.0
 40
5.0
 40
5.0
 40
5.0
 40
6.0
 40
6.0
 40
6.0
 40
7.0
 40
7.0
 40
7.0
 40
8.0
 40
8.0
 40
8.0
 40
9.0
 40
9.0
 40
9.0
 40
10.0
 40
10.0
 40
10.0
 40
11.0
 40
11.0
 40
11.0
 40
12.0
 40
12.0
 40
12.0
 40
13.0
 40
13.0
 40
13.0
 40
14.0
 40
14.0
 40
14.0
 40
15.0
 40
15.0
 40
15.0
 40
15.0
 10
119.650233260018
 20
-155.9053846181417
 10
119.650233260018
 20
-155.9053846181417
 10
120.3017008162787
 20
-155.9053846181417
 10
120.3017008162787
 20
-155.9053846181417
 10
120.3017008162787
 20
-155.9053846181417
 10
120.3017008162787
 20
-156.0304415842563
 10
120.3017008162787
 20
-156.0304415842563
 10
120.3017008162787
 20
-156.0304415842563
 10
120.0247151392646
 20
-156.0304415842563
 10
120.0247151392646
 20
-156.0304415842563
 10
120.0247151392646
 20
-156.0304415842563
 10
120.0247151392646
 20
-156.3053602039792
 10
120.0247151392646
 20
-156.3053602039792
 10
120.0247151392646
 20
-156.3053602039792
 10
119.8638291801035
 20
-156.3053602039792
 10
119.8638291801035
 20
-156.3053602039792
 10
119.8638291801035
 20
-156.3053602039792
 10
119.8638291801035
 20
-156.0304415842563
 10
119.8638291801035
 20
-156.0304415842563
 10
119.8638291801035
 20
-156.0304415842563
 10
119.643687578596
 20
-156.0304415842563
 10
119.643687578596
 20
-156.0304415842563
 10
119.6333522921402
 20
-156.1000325130583
 10
119.6078585855494
 20
-156.2946804079749
 10
119.4535183078102
 20
-156.4448865711318
 10
119.4535183078102
 20
-156.4448865711318
 10
119.3305283989868
 20
-156.3349880251523
 10
119.3305283989868
 20
-156.3349880251523
 10
119.4514512505191
 20
-156.2354247656286
 10
119.4934814154391
 20
-156.0304415842563
 10
119.4934814154391
 20
-155.9477592926103
 10
119.4934814154391
 20
-155.9477592926103
 10
119.4934814154391
 20
-155.662160876883
 10
119.4934814154391
 20
-155.662160876883
 10
119.9782063502138
 20
-155.662160876883
 10
120.132546627953
 20
-155.6156520878322
 10
120.2276312633459
 20
-155.5880913239502
 10
120.2276312633459
 20
-155.5880913239502
 10
120.2806857338187
 20
-155.7276176911028
 10
120.2806857338187
 20
-155.7276176911028
 10
120.0712239283155
 20
-155.7765380469934
 10
119.9082709118632
 20
-155.7868733334491
 10
119.650233260018
 20
-155.7913519575799
 10
119.650233260018
 20
-155.7913519575799
 10
119.650233260018
 20
-155.9053846181417
 10
119.650233260018
 20
-155.9053846181417
 97
        0
 97
        1
330
159
 75
     2
 76
     1
 98
        1
 10
0.0
 20
0.0
450
        0
451
        0
460
0.0
461
0.0
452
        0
462
0.0
453
        0
470

  0
ENDBLK
  5
14A
330
147
100
AcDbEntity
  8
0
100
AcDbBlockEnd
  0
ENDSEC
  0
SECTION
  2
ENTITIES
  0
LINE
  5
79
330
70
100
AcDbEntity
  8
レイヤー 1
 62
    18
420
        0
370
    25
100
AcDbLine
 10
114.7642549930109
 20
-153.1582275811895
 30
0.0
 11
102.764977799138
 21
-153.1582275811895
 31
0.0
  0
LINE
  5
7A
330
70
100
AcDbEntity
  8
レイヤー 1
 62
    18
420
        0
370
    25
100
AcDbLine
 10
82.76311391083451
 20
-146.6580148050365
 30
0.0
 11
82.76311391083451
 21
-147.1582536938002
 31
0.0
  0
LINE
  5
7B
330
70
100
AcDbEntity
  8
レイヤー 1
 62
    18
420
        0
370
    25
100
AcDbLine
 10
103.7006866833781
 20
-147.1582536938002
 30
0.0
 11
82.76311391083451
 21
-147.1582536938002
 31
0.0
  0
LINE
  5
7C
330
70
100
AcDbEntity
  8
レイヤー 1
 62
    18
420
        0
370
    25
100
AcDbLine
 10
82.76311391083451
 20
-146.6580148050365
 30
0.0
 11
83.27711113292835
 21
-147.0400731382742
 31
0.0
  0
LINE
  5
7D
330
70
100
AcDbEntity
  8
レイヤー 1
 62
    18
420
        0
370
    25
100
AcDbLine
 10
83.27711113292835
 20
-147.0400731382742
 30
0.0
 11
83.76253335502896
 21
-146.6225606383785
 31
0.0
  0
LINE
  5
7E
330
70
100
AcDbEntity
  8
レイヤー 1
 62
    18
420
        0
370
    25
100
AcDbLine
 10
84.27653057712282
 20
-147.0046189716165
 30
0.0
 11
84.76212918811262
 21
-146.5867184161652
 31
0.0
  0
LINE
  5
7F
330
70
100
AcDbEntity
  8
レイヤー 1
 62
    18
420
        0
370
    25
100
AcDbLine
 10
83.76253335502896
 20
-146.6225606383785
 30
0.0
 11
84.27653057712282
 21
-147.0046189716165
 31
0.0
  0
LINE
  5
80
330
70
100
AcDbEntity
  8
レイヤー 1
 62
    18
420
        0
370
    25
100
AcDbLine
 10
84.76212918811262
 20
-146.5867184161652
 30
0.0
 11
85.27612641020647
 21
-146.9687767494033
 31
0.0
  0
LINE
  5
81
330
70
100
AcDbEntity
  8
レイヤー 1
 62
    18
420
        0
370
    25
100
AcDbLine
 10
85.27612641020647
 20
-146.9687767494033
 30
0.0
 11
85.76119585452964
 21
-146.5512289717298
 31
0.0
  0
LINE
  5
82
330
70
100
AcDbEntity
  8
レイヤー 1
 62
    18
420
        0
370
    25
100
AcDbLine
 10
85.76119585452964
 20
-146.5512289717298
 30
0.0
 11
86.27522835440101
 21
-146.93293452719
 31
0.0
  0
LINE
  5
83
330
70
100
AcDbEntity
  8
レイヤー 1
 62
    18
420
        0
370
    25
100
AcDbLine
 10
86.27522835440101
 20
-146.93293452719
 30
0.0
 11
86.76096807650154
 21
-146.5153867495165
 31
0.0
  0
LINE
  5
84
330
70
100
AcDbEntity
  8
レイヤー 1
 62
    18
420
        0
370
    25
100
AcDbLine
 10
86.76096807650154
 20
-146.5153867495165
 30
0.0
 11
87.27496529859539
 21
-146.8971275827546
 31
0.0
  0
LINE
  5
85
330
70
100
AcDbEntity
  8
レイヤー 1
 62
    18
420
        0
370
    25
100
AcDbLine
 10
87.27496529859539
 20
-146.8971275827546
 30
0.0
 11
87.76003474291856
 21
-146.4795798050811
 31
0.0
  0
LINE
  5
86
330
70
100
AcDbEntity
  8
レイヤー 1
 62
    18
420
        0
370
    25
100
AcDbLine
 10
87.76003474291856
 20
-146.4795798050811
 30
0.0
 11
88.2742436316788
 21
-146.8616381383188
 31
0.0
  0
LINE
  5
87
330
70
100
AcDbEntity
  8
レイヤー 1
 62
    18
420
        0
370
    25
100
AcDbLine
 10
88.2742436316788
 20
-146.8616381383188
 30
0.0
 11
88.75998335377966
 21
-146.4440903606456
 31
0.0
  0
LINE
  5
88
330
70
100
AcDbEntity
  8
レイヤー 1
 62
    18
420
        0
370
    25
100
AcDbLine
 10
88.75998335377966
 20
-146.4440903606456
 30
0.0
 11
89.27331029809582
 21
-146.8261486938833
 31
0.0
  0
LINE
  5
89
330
70
100
AcDbEntity
  8
レイヤー 1
 62
    18
420
        0
370
    25
100
AcDbLine
 10
89.27331029809582
 20
-146.8261486938833
 30
0.0
 11
89.75908529797452
 21
-146.4082481384324
 31
0.0
  0
LINE
  5
8A
330
70
100
AcDbEntity
  8
レイヤー 1
 62
    18
420
        0
370
    25
100
AcDbLine
 10
90.27308252006838
 20
-146.7903064716701
 30
0.0
 11
90.75815196439155
 21
-146.3727586939966
 31
0.0
  0
LINE
  5
8B
330
70
100
AcDbEntity
  8
レイヤー 1
 62
    18
420
        0
370
    25
100
AcDbLine
 10
89.75908529797452
 20
-146.4082481384324
 30
0.0
 11
90.27308252006838
 21
-146.7903064716701
 31
0.0
  0
LINE
  5
8C
330
70
100
AcDbEntity
  8
レイヤー 1
 62
    18
420
        0
370
    25
100
AcDbLine
 10
90.75815196439155
 20
-146.3727586939966
 30
0.0
 11
91.27214918648506
 21
-146.7544995272347
 31
0.0
  0
LINE
  5
8D
330
70
100
AcDbEntity
  8
レイヤー 1
 62
    18
420
        0
370
    25
100
AcDbLine
 10
91.27214918648506
 20
-146.7544995272347
 30
0.0
 11
91.75792418636344
 21
-146.3369517495615
 31
0.0
  0
LINE
  5
8E
330
70
100
AcDbEntity
  8
レイヤー 1
 62
    18
420
        0
370
    25
100
AcDbLine
 10
92.27192140845728
 20
-146.7186573050214
 30
0.0
 11
92.75699085278047
 21
-146.3011095273482
 31
0.0
  0
LINE
  5
8F
330
70
100
AcDbEntity
  8
レイヤー 1
 62
    18
420
        0
370
    25
100
AcDbLine
 10
91.75792418636344
 20
-146.3369517495615
 30
0.0
 11
92.27192140845728
 21
-146.7186573050214
 31
0.0
  0
LINE
  5
90
330
70
100
AcDbEntity
  8
レイヤー 1
 62
    18
420
        0
370
    25
100
AcDbLine
 10
93.27098807487429
 20
-146.6831678605856
 30
0.0
 11
93.756763074753
 21
-146.2656200829124
 31
0.0
  0
LINE
  5
91
330
70
100
AcDbEntity
  8
レイヤー 1
 62
    18
420
        0
370
    25
100
AcDbLine
 10
92.75699085278047
 20
-146.3011095273482
 30
0.0
 11
93.27098807487429
 21
-146.6831678605856
 31
0.0
  0
LINE
  5
92
330
70
100
AcDbEntity
  8
レイヤー 1
 62
    18
420
        0
370
    25
100
AcDbLine
 10
93.756763074753
 20
-146.2656200829124
 30
0.0
 11
94.27075940473244
 21
-146.6476784161501
 31
0.0
  0
LINE
  5
93
330
70
100
AcDbEntity
  8
レイヤー 1
 62
    18
420
        0
370
    25
100
AcDbLine
 10
94.27075940473244
 20
-146.6476784161501
 30
0.0
 11
94.75582883680143
 21
-146.2298131384767
 31
0.0
  0
LINE
  5
94
330
70
100
AcDbEntity
  8
レイヤー 1
 62
    18
420
        0
370
    25
100
AcDbLine
 10
94.75582883680143
 20
-146.2298131384767
 30
0.0
 11
95.26982604591081
 21
-146.6118714717147
 31
0.0
  0
LINE
  5
95
330
70
100
AcDbEntity
  8
レイヤー 1
 62
    18
420
        0
370
    25
100
AcDbLine
 10
95.26982604591081
 20
-146.6118714717147
 30
0.0
 11
95.7548954779801
 21
-146.1943236940412
 31
0.0
  0
LINE
  5
96
330
70
100
AcDbEntity
  8
レイヤー 1
 62
    18
420
        0
370
    25
100
AcDbLine
 10
95.7548954779801
 20
-146.1943236940412
 30
0.0
 11
96.26892796486604
 21
-146.5760292495015
 31
0.0
  0
LINE
  5
97
330
70
100
AcDbEntity
  8
レイヤー 1
 62
    18
420
        0
370
    25
100
AcDbLine
 10
96.26892796486604
 20
-146.5760292495015
 30
0.0
 11
96.754667674696
 21
-146.158481471828
 31
0.0
  0
LINE
  5
98
330
70
100
AcDbEntity
  8
レイヤー 1
 62
    18
420
        0
370
    25
100
AcDbLine
 10
96.754667674696
 20
-146.158481471828
 30
0.0
 11
97.26870016158194
 21
-146.540222305066
 31
0.0
  0
LINE
  5
99
330
70
100
AcDbEntity
  8
レイヤー 1
 62
    18
420
        0
370
    25
100
AcDbLine
 10
97.26870016158194
 20
-146.540222305066
 30
0.0
 11
97.75376959365125
 21
-146.1226745273926
 31
0.0
  0
LINE
  5
9A
330
70
100
AcDbEntity
  8
レイヤー 1
 62
    18
420
        0
370
    25
100
AcDbLine
 10
97.75376959365125
 20
-146.1226745273926
 30
0.0
 11
98.26776680275997
 21
-146.5047328606303
 31
0.0
  0
LINE
  5
9B
330
70
100
AcDbEntity
  8
レイヤー 1
 62
    18
420
        0
370
    25
100
AcDbLine
 10
98.26776680275997
 20
-146.5047328606303
 30
0.0
 11
98.75350651259026
 21
-146.0871850829571
 31
0.0
  0
LINE
  5
9C
330
70
100
AcDbEntity
  8
レイヤー 1
 62
    18
420
        0
370
    25
100
AcDbLine
 10
98.75350651259026
 20
-146.0871850829571
 30
0.0
 11
99.2675389994762
 21
-146.4692434161951
 31
0.0
  0
LINE
  5
9D
330
70
100
AcDbEntity
  8
レイヤー 1
 62
    18
420
        0
370
    25
100
AcDbLine
 10
99.2675389994762
 20
-146.4692434161951
 30
0.0
 11
99.75260843154551
 21
-146.0513428607438
 31
0.0
  0
LINE
  5
9E
330
70
100
AcDbEntity
  8
レイヤー 1
 62
    18
420
        0
370
    25
100
AcDbLine
 10
99.75260843154551
 20
-146.0513428607438
 30
0.0
 11
100.2666056406545
 21
-146.4334011939818
 31
0.0
  0
LINE
  5
9F
330
70
100
AcDbEntity
  8
レイヤー 1
 62
    18
420
        0
370
    25
100
AcDbLine
 10
100.2666056406545
 20
-146.4334011939818
 30
0.0
 11
100.7523806282614
 21
-146.015853416308
 31
0.0
  0
LINE
  5
A0
330
70
100
AcDbEntity
  8
レイヤー 1
 62
    18
420
        0
370
    25
100
AcDbLine
 10
100.7523806282614
 20
-146.015853416308
 30
0.0
 11
101.2663778373704
 21
-146.3975942495461
 31
0.0
  0
LINE
  5
A1
330
70
100
AcDbEntity
  8
レイヤー 1
 62
    18
420
        0
370
    25
100
AcDbLine
 10
101.2663778373704
 20
-146.3975942495461
 30
0.0
 11
101.7514472694397
 21
-145.9800464718729
 31
0.0
  0
LINE
  5
A2
330
70
100
AcDbEntity
  8
レイヤー 1
 62
    18
420
        0
370
    25
100
AcDbLine
 10
101.7514472694397
 20
-145.9800464718729
 30
0.0
 11
102.2654444785488
 21
-146.3617520273329
 31
0.0
  0
LINE
  5
A3
330
70
100
AcDbEntity
  8
レイヤー 1
 62
    18
420
        0
370
    25
100
AcDbLine
 10
102.2654444785488
 20
-146.3617520273329
 30
0.0
 11
102.7512194661557
 21
-145.9442042496593
 31
0.0
  0
LINE
  5
A4
330
70
100
AcDbEntity
  8
レイヤー 1
 62
    18
420
        0
370
    25
100
AcDbLine
 10
102.8252166753749
 20
-145.8959795274495
 30
0.0
 11
103.7647499958539
 21
-145.8959795274495
 31
0.0
  0
LINE
  5
A5
330
70
100
AcDbEntity
  8
レイヤー 1
 62
    18
420
        0
370
    25
100
AcDbLine
 10
103.7647499958539
 20
-145.8959795274495
 30
0.0
 11
103.7647499958539
 21
-152.1581378592167
 31
0.0
  0
LINE
  5
A6
330
70
100
AcDbEntity
  8
レイヤー 1
 62
    18
420
        0
370
    25
100
AcDbLine
 10
102.764977799138
 20
-147.1582536938002
 30
0.0
 11
102.764977799138
 21
-153.1582275811895
 31
0.0
  0
LINE
  5
A7
330
70
100
AcDbEntity
  8
レイヤー 1
 62
    18
420
        0
370
    25
100
AcDbLine
 10
113.764482796295
 20
-152.1581378592167
 30
0.0
 11
103.7647499958539
 21
-152.1581378592167
 31
0.0
  0
LINE
  5
A8
330
70
100
AcDbEntity
  8
レイヤー 1
 62
    18
420
        0
370
    25
100
AcDbLine
 10
124.7715725154807
 20
-146.3011095273482
 30
0.0
 11
124.2582455841324
 21
-146.6831678605856
 31
0.0
  0
LINE
  5
A9
330
70
100
AcDbEntity
  8
レイヤー 1
 62
    18
420
        0
370
    25
100
AcDbLine
 10
129.7690223879852
 20
-146.4795798050811
 30
0.0
 11
129.2550251788768
 21
-146.8616381383188
 31
0.0
  0
LINE
  5
AA
330
70
100
AcDbEntity
  8
レイヤー 1
 62
    18
420
        0
370
    25
100
AcDbLine
 10
125.2573475030876
 20
-146.7186573050214
 30
0.0
 11
124.7715725154807
 21
-146.3011095273482
 31
0.0
  0
LINE
  5
AB
330
70
100
AcDbEntity
  8
レイヤー 1
 62
    18
420
        0
370
    25
100
AcDbLine
 10
126.256414144266
 20
-146.7544995272347
 30
0.0
 11
125.7713447121967
 21
-146.3369517495615
 31
0.0
  0
LINE
  5
AC
330
70
100
AcDbEntity
  8
レイヤー 1
 62
    18
420
        0
370
    25
100
AcDbLine
 10
124.2582455841324
 20
-146.6831678605856
 30
0.0
 11
123.7725058743024
 21
-146.2656200829124
 31
0.0
  0
LINE
  5
AD
330
70
100
AcDbEntity
  8
レイヤー 1
 62
    18
420
        0
370
    25
100
AcDbLine
 10
125.7713447121967
 20
-146.3369517495615
 30
0.0
 11
125.2573475030876
 21
-146.7186573050214
 31
0.0
  0
LINE
  5
AE
330
70
100
AcDbEntity
  8
レイヤー 1
 62
    18
420
        0
370
    25
100
AcDbLine
 10
133.766029786013
 20
-146.6225606383785
 30
0.0
 11
133.252032576904
 21
-147.0046189716165
 31
0.0
  0
LINE
  5
AF
330
70
100
AcDbEntity
  8
レイヤー 1
 62
    18
420
        0
370
    25
100
AcDbLine
 10
126.770411353375
 20
-146.3727586939966
 30
0.0
 11
126.256414144266
 21
-146.7544995272347
 31
0.0
  0
LINE
  5
B0
330
70
100
AcDbEntity
  8
レイヤー 1
 62
    18
420
        0
370
    25
100
AcDbLine
 10
127.7701835500909
 20
-146.4082481384324
 30
0.0
 11
127.2561863409819
 21
-146.7903064716701
 31
0.0
  0
LINE
  5
B1
330
70
100
AcDbEntity
  8
レイヤー 1
 62
    18
420
        0
370
    25
100
AcDbLine
 10
113.764482796295
 20
-145.8959795274495
 30
0.0
 11
113.764482796295
 21
-152.1581378592167
 31
0.0
  0
LINE
  5
B2
330
70
100
AcDbEntity
  8
レイヤー 1
 62
    18
420
        0
370
    25
100
AcDbLine
 10
127.2561863409819
 20
-146.7903064716701
 30
0.0
 11
126.770411353375
 21
-146.3727586939966
 31
0.0
  0
LINE
  5
B3
330
70
100
AcDbEntity
  8
レイヤー 1
 62
    18
420
        0
370
    25
100
AcDbLine
 10
128.2552529821602
 20
-146.8261486938833
 30
0.0
 11
127.7701835500909
 21
-146.4082481384324
 31
0.0
  0
LINE
  5
B4
330
70
100
AcDbEntity
  8
レイヤー 1
 62
    18
420
        0
370
    25
100
AcDbLine
 10
133.252032576904
 20
-147.0046189716165
 30
0.0
 11
132.7669631448353
 21
-146.5867184161652
 31
0.0
  0
LINE
  5
B5
330
70
100
AcDbEntity
  8
レイヤー 1
 62
    18
420
        0
370
    25
100
AcDbLine
 10
128.7692501912693
 20
-146.4440903606456
 30
0.0
 11
128.2552529821602
 21
-146.8261486938833
 31
0.0
  0
LINE
  5
B6
330
70
100
AcDbEntity
  8
レイヤー 1
 62
    18
420
        0
370
    25
100
AcDbLine
 10
129.2550251788768
 20
-146.8616381383188
 30
0.0
 11
128.7692501912693
 21
-146.4440903606456
 31
0.0
  0
LINE
  5
B7
330
70
100
AcDbEntity
  8
レイヤー 1
 62
    18
420
        0
370
    25
100
AcDbLine
 10
134.251769495843
 20
-147.0400731382742
 30
0.0
 11
133.766029786013
 21
-146.6225606383785
 31
0.0
  0
LINE
  5
B8
330
70
100
AcDbEntity
  8
レイヤー 1
 62
    18
420
        0
370
    25
100
AcDbLine
 10
130.7680890291635
 20
-146.5153867495165
 30
0.0
 11
130.2540918200545
 21
-146.8971275827546
 31
0.0
  0
LINE
  5
B9
330
70
100
AcDbEntity
  8
レイヤー 1
 62
    18
420
        0
370
    25
100
AcDbLine
 10
131.7671909481187
 20
-146.5512289717298
 30
0.0
 11
131.2531584612328
 21
-146.93293452719
 31
0.0
  0
LINE
  5
BA
330
70
100
AcDbEntity
  8
レイヤー 1
 62
    18
420
        0
370
    25
100
AcDbLine
 10
131.2531584612328
 20
-146.93293452719
 30
0.0
 11
130.7680890291635
 21
-146.5153867495165
 31
0.0
  0
LINE
  5
BB
330
70
100
AcDbEntity
  8
レイヤー 1
 62
    18
420
        0
370
    25
100
AcDbLine
 10
134.7658019827289
 20
-146.6580148050365
 30
0.0
 11
134.251769495843
 21
-147.0400731382742
 31
0.0
  0
LINE
  5
BC
330
70
100
AcDbEntity
  8
レイヤー 1
 62
    18
420
        0
370
    25
100
AcDbLine
 10
130.2540918200545
 20
-146.8971275827546
 30
0.0
 11
129.7690223879852
 21
-146.4795798050811
 31
0.0
  0
LINE
  5
BD
330
70
100
AcDbEntity
  8
レイヤー 1
 62
    18
420
        0
370
    25
100
AcDbLine
 10
132.7669631448353
 20
-146.5867184161652
 30
0.0
 11
132.2529306579487
 21
-146.9687767494033
 31
0.0
  0
LINE
  5
BE
330
70
100
AcDbEntity
  8
レイヤー 1
 62
    18
420
        0
370
    25
100
AcDbLine
 10
132.2529306579487
 20
-146.9687767494033
 30
0.0
 11
131.7671909481187
 21
-146.5512289717298
 31
0.0
  0
LINE
  5
BF
330
70
100
AcDbEntity
  8
レイヤー 1
 62
    18
420
        0
370
    25
100
AcDbLine
 10
134.7658019827289
 20
-146.6580148050365
 30
0.0
 11
134.7658019827289
 21
-147.1582536938002
 31
0.0
  0
LINE
  5
C0
330
70
100
AcDbEntity
  8
レイヤー 1
 62
    18
420
        0
370
    25
100
AcDbLine
 10
113.8754314045762
 20
-147.1582536938002
 30
0.0
 11
134.7658019827289
 21
-147.1582536938002
 31
0.0
  0
LINE
  5
C1
330
70
100
AcDbEntity
  8
レイヤー 1
 62
    18
420
        0
370
    25
100
AcDbLine
 10
123.7725058743024
 20
-146.2656200829124
 30
0.0
 11
123.2584733874164
 21
-146.6476784161501
 31
0.0
  0
LINE
  5
C2
330
70
100
AcDbEntity
  8
レイヤー 1
 62
    18
420
        0
370
    25
100
AcDbLine
 10
123.2584733874164
 20
-146.6476784161501
 30
0.0
 11
122.7734039553472
 21
-146.2298131384767
 31
0.0
  0
LINE
  5
C3
330
70
100
AcDbEntity
  8
レイヤー 1
 62
    18
420
        0
370
    25
100
AcDbLine
 10
122.7734039553472
 20
-146.2298131384767
 30
0.0
 11
122.2594067462381
 21
-146.6118714717147
 31
0.0
  0
LINE
  5
C4
330
70
100
AcDbEntity
  8
レイヤー 1
 62
    18
420
        0
370
    25
100
AcDbLine
 10
122.2594067462381
 20
-146.6118714717147
 30
0.0
 11
121.7736670364081
 21
-146.1943236940412
 31
0.0
  0
LINE
  5
C5
330
70
100
AcDbEntity
  8
レイヤー 1
 62
    18
420
        0
370
    25
100
AcDbLine
 10
121.7736670364081
 20
-146.1943236940412
 30
0.0
 11
121.2596345495222
 21
-146.5760292495015
 31
0.0
  0
LINE
  5
C6
330
70
100
AcDbEntity
  8
レイヤー 1
 62
    18
420
        0
370
    25
100
AcDbLine
 10
121.2596345495222
 20
-146.5760292495015
 30
0.0
 11
120.7745651174529
 21
-146.158481471828
 31
0.0
  0
LINE
  5
C7
330
70
100
AcDbEntity
  8
レイヤー 1
 62
    18
420
        0
370
    25
100
AcDbLine
 10
120.7745651174529
 20
-146.158481471828
 30
0.0
 11
120.2605679083438
 21
-146.540222305066
 31
0.0
  0
LINE
  5
C8
330
70
100
AcDbEntity
  8
レイヤー 1
 62
    18
420
        0
370
    25
100
AcDbLine
 10
120.2605679083438
 20
-146.540222305066
 30
0.0
 11
119.774792920737
 21
-146.1226745273926
 31
0.0
  0
LINE
  5
C9
330
70
100
AcDbEntity
  8
レイヤー 1
 62
    18
420
        0
370
    25
100
AcDbLine
 10
119.774792920737
 20
-146.1226745273926
 30
0.0
 11
119.2607957116279
 21
-146.5047328606303
 31
0.0
  0
LINE
  5
CA
330
70
100
AcDbEntity
  8
レイヤー 1
 62
    18
420
        0
370
    25
100
AcDbLine
 10
119.2607957116279
 20
-146.5047328606303
 30
0.0
 11
118.7757262795587
 21
-146.0871850829571
 31
0.0
  0
LINE
  5
CB
330
70
100
AcDbEntity
  8
レイヤー 1
 62
    18
420
        0
370
    25
100
AcDbLine
 10
118.7757262795587
 20
-146.0871850829571
 30
0.0
 11
118.2617290704496
 21
-146.4692434161951
 31
0.0
  0
LINE
  5
CC
330
70
100
AcDbEntity
  8
レイヤー 1
 62
    18
420
        0
370
    25
100
AcDbLine
 10
118.2617290704496
 20
-146.4692434161951
 30
0.0
 11
117.7766596383803
 21
-146.0513428607438
 31
0.0
  0
LINE
  5
CD
330
70
100
AcDbEntity
  8
レイヤー 1
 62
    18
420
        0
370
    25
100
AcDbLine
 10
117.7766596383803
 20
-146.0513428607438
 30
0.0
 11
117.2626271514944
 21
-146.4334011939818
 31
0.0
  0
LINE
  5
CE
330
70
100
AcDbEntity
  8
レイヤー 1
 62
    18
420
        0
370
    25
100
AcDbLine
 10
117.2626271514944
 20
-146.4334011939818
 30
0.0
 11
116.7768874416644
 21
-146.015853416308
 31
0.0
  0
LINE
  5
CF
330
70
100
AcDbEntity
  8
レイヤー 1
 62
    18
420
        0
370
    25
100
AcDbLine
 10
116.7768874416644
 20
-146.015853416308
 30
0.0
 11
116.2628902325553
 21
-146.3975942495461
 31
0.0
  0
LINE
  5
D0
330
70
100
AcDbEntity
  8
レイヤー 1
 62
    18
420
        0
370
    25
100
AcDbLine
 10
116.2628902325553
 20
-146.3975942495461
 30
0.0
 11
115.777820800486
 21
-145.9800464718729
 31
0.0
  0
LINE
  5
D1
330
70
100
AcDbEntity
  8
レイヤー 1
 62
    18
420
        0
370
    25
100
AcDbLine
 10
115.777820800486
 20
-145.9800464718729
 30
0.0
 11
115.2637883136001
 21
-146.3617520273329
 31
0.0
  0
LINE
  5
D2
330
70
100
AcDbEntity
  8
レイヤー 1
 62
    18
420
        0
370
    25
100
AcDbLine
 10
115.2637883136001
 20
-146.3617520273329
 30
0.0
 11
114.7780486037701
 21
-145.9442042496593
 31
0.0
  0
LINE
  5
D3
330
70
100
AcDbEntity
  8
レイヤー 1
 62
    18
420
        0
370
    25
100
AcDbLine
 10
114.7040161167739
 20
-145.8959795274495
 30
0.0
 11
113.764482796295
 21
-145.8959795274495
 31
0.0
  0
LINE
  5
D4
330
70
100
AcDbEntity
  8
レイヤー 1
 62
    18
420
        0
370
    25
100
AcDbLine
 10
114.7642549930109
 20
-147.1582536938002
 30
0.0
 11
114.7642549930109
 21
-153.1582275811895
 31
0.0
  0
SPLINE
  5
D5
330
70
100
AcDbEntity
  8
レイヤー 1
 62
    18
420
        0
370
     9
100
AcDbSpline
210
0.0
220
0.0
230
1.0
 70
     9
 71
     3
 72
    17
 73
    13
 74
     0
 42
0.0000000001
 43
0.0000000001
 40
0.0
 40
0.0
 40
0.0
 40
0.0
 40
1.0
 40
1.0
 40
1.0
 40
2.0
 40
2.0
 40
2.0
 40
3.0
 40
3.0
 40
3.0
 40
4.0
 40
4.0
 40
4.0
 40
4.0
 10
82.86302057747615
 20
-141.8962203617826
 30
0.0
 10
82.86302057747615
 20
-141.8407636951296
 30
0.0
 10
82.81821779970973
 20
-141.7959609173632
 30
0.0
 10
82.76311391083451
 20
-141.7959609173632
 30
0.0
 10
82.70797474418175
 20
-141.7959609173632
 30
0.0
 10
82.66320724419287
 20
-141.8407636951296
 30
0.0
 10
82.66320724419287
 20
-141.8962203617826
 30
0.0
 10
82.66320724419287
 20
-141.9513242506575
 30
0.0
 10
82.70797474418175
 20
-141.9961270284242
 30
0.0
 10
82.76311391083451
 20
-141.9961270284242
 30
0.0
 10
82.81821779970973
 20
-141.9961270284242
 30
0.0
 10
82.86302057747615
 20
-141.9513242506575
 30
0.0
 10
82.86302057747615
 20
-141.8962203617826
 30
0.0
  0
CIRCLE
  5
D6
330
70
100
AcDbEntity
  8
レイヤー 1
 62
    18
420
        0
370
     9
100
AcDbCircle
 10
78.76335474516778
 20
-146.6580148050365
 30
0.0
 40
0.0999066666415574
  0
CIRCLE
  5
D7
330
70
100
AcDbEntity
  8
レイヤー 1
 62
    18
420
        0
370
     9
100
AcDbCircle
 10
78.76335474516778
 20
-147.1582536938002
 30
0.0
 40
0.0999066666415574
  0
CIRCLE
  5
D8
330
70
100
AcDbEntity
  8
レイヤー 1
 62
    18
420
        0
370
     9
100
AcDbCircle
 10
78.76335474516778
 20
-153.1582275811892
 30
0.0
 40
0.0999066666417179
  0
SPLINE
  5
D9
330
70
100
AcDbEntity
  8
レイヤー 1
 62
    18
420
        0
370
     9
100
AcDbSpline
210
0.0
220
0.0
230
1.0
 70
     9
 71
     3
 72
    17
 73
    13
 74
     0
 42
0.0000000001
 43
0.0000000001
 40
0.0
 40
0.0
 40
0.0
 40
0.0
 40
1.0
 40
1.0
 40
1.0
 40
2.0
 40
2.0
 40
2.0
 40
3.0
 40
3.0
 40
3.0
 40
4.0
 40
4.0
 40
4.0
 40
4.0
 10
103.8646566599717
 20
-141.8962203617826
 30
0.0
 10
103.8646566599717
 20
-141.8407636951296
 30
0.0
 10
103.8198891611138
 20
-141.7959609173632
 30
0.0
 10
103.7647499958539
 20
-141.7959609173632
 30
0.0
 10
103.7096461083708
 20
-141.7959609173632
 30
0.0
 10
103.664843331736
 20
-141.8407636951296
 30
0.0
 10
103.664843331736
 20
-141.8962203617826
 30
0.0
 10
103.664843331736
 20
-141.9513242506575
 30
0.0
 10
103.7096461083708
 20
-141.9961270284242
 30
0.0
 10
103.7647499958539
 20
-141.9961270284242
 30
0.0
 10
103.8198891611138
 20
-141.9961270284242
 30
0.0
 10
103.8646566599717
 20
-141.9513242506575
 30
0.0
 10
103.8646566599717
 20
-141.8962203617826
 30
0.0
  0
SPLINE
  5
DA
330
70
100
AcDbEntity
  8
レイヤー 1
 62
    18
420
        0
370
     9
100
AcDbSpline
210
0.0
220
0.0
230
1.0
 70
     9
 71
     3
 72
    17
 73
    13
 74
     0
 42
0.0000000001
 43
0.0000000001
 40
0.0
 40
0.0
 40
0.0
 40
0.0
 40
1.0
 40
1.0
 40
1.0
 40
2.0
 40
2.0
 40
2.0
 40
3.0
 40
3.0
 40
3.0
 40
4.0
 40
4.0
 40
4.0
 40
4.0
 10
134.9656172311174
 20
-141.8962203617826
 30
0.0
 10
134.9656172311174
 20
-141.8407636951296
 30
0.0
 10
134.9208144533507
 20
-141.7959609173632
 30
0.0
 10
134.8657086468468
 20
-141.7959609173632
 30
0.0
 10
134.8098992038262
 20
-141.7959609173632
 30
0.0
 10
134.7650964271914
 20
-141.8407636951296
 30
0.0
 10
134.7650964271914
 20
-141.8962203617826
 30
0.0
 10
134.7650964271914
 20
-141.9513242506575
 30
0.0
 10
134.8098992038262
 20
-141.9961270284242
 30
0.0
 10
134.8657086468468
 20
-141.9961270284242
 30
0.0
 10
134.9208144533507
 20
-141.9961270284242
 30
0.0
 10
134.9656172311174
 20
-141.9513242506575
 30
0.0
 10
134.9656172311174
 20
-141.8962203617826
 30
0.0
  0
SPLINE
  5
DB
330
70
100
AcDbEntity
  8
レイヤー 1
 62
    18
420
        0
370
     9
100
AcDbSpline
210
0.0
220
0.0
230
1.0
 70
     9
 71
     3
 72
    17
 73
    13
 74
     0
 42
0.0000000001
 43
0.0000000001
 40
0.0
 40
0.0
 40
0.0
 40
0.0
 40
1.0
 40
1.0
 40
1.0
 40
2.0
 40
2.0
 40
2.0
 40
3.0
 40
3.0
 40
3.0
 40
4.0
 40
4.0
 40
4.0
 40
4.0
 10
113.9642961245307
 20
-141.8962203617826
 30
0.0
 10
113.9642961245307
 20
-141.8407636951296
 30
0.0
 10
113.9195286256728
 20
-141.7959609173632
 30
0.0
 10
113.8643894604128
 20
-141.7959609173632
 30
0.0
 10
113.8092855729298
 20
-141.7959609173632
 30
0.0
 10
113.764482796295
 20
-141.8407636951296
 30
0.0
 10
113.764482796295
 20
-141.8962203617826
 30
0.0
 10
113.764482796295
 20
-141.9513242506575
 30
0.0
 10
113.8092855729298
 20
-141.9961270284242
 30
0.0
 10
113.8643894604128
 20
-141.9961270284242
 30
0.0
 10
113.9195286256728
 20
-141.9961270284242
 30
0.0
 10
113.9642961245307
 20
-141.9513242506575
 30
0.0
 10
113.9642961245307
 20
-141.8962203617826
 30
0.0
  0
LINE
  5
DC
330
70
100
AcDbEntity
  8
レイヤー 1
 62
    18
420
        0
370
     9
100
AcDbLine
 10
78.76335474516763
 20
-146.6580148050365
 30
0.0
 11
78.76335474516763
 21
-141.4001089730176
 31
0.0
  0
LINE
  5
DD
330
70
100
AcDbEntity
  8
レイヤー 1
 62
    18
420
        0
370
     9
100
AcDbLine
 10
78.76335474516763
 20
-146.6580148050365
 30
0.0
 11
78.76335474516763
 21
-147.1582536938002
 31
0.0
  0
LINE
  5
DE
330
70
100
AcDbEntity
  8
レイヤー 1
 62
    18
420
        0
370
     9
100
AcDbLine
 10
80.22339613369165
 20
-146.6580148050365
 30
0.0
 11
77.76322974541765
 21
-146.6580148050365
 31
0.0
  0
LINE
  5
DF
330
70
100
AcDbEntity
  8
レイヤー 1
 62
    18
420
        0
370
     9
100
AcDbLine
 10
80.22339613369165
 20
-147.1582536938002
 30
0.0
 11
77.76322974541765
 21
-147.1582536938002
 31
0.0
  0
INSERT
  5
E1
330
70
100
AcDbEntity
  8
レイヤー 1
100
AcDbBlockReference
  2
Block_0
 10
0.0
 20
0.0
 30
0.0
  0
LINE
  5
EF
330
70
100
AcDbEntity
  8
レイヤー 1
 62
    18
420
        0
370
     9
100
AcDbLine
 10
82.76311391083451
 20
-141.8962203617826
 30
0.0
 11
103.7647499958539
 21
-141.8962203617826
 31
0.0
  0
LINE
  5
F0
330
70
100
AcDbEntity
  8
レイヤー 1
 62
    18
420
        0
370
     9
100
AcDbLine
 10
82.76311391083451
 20
-144.1182970278939
 30
0.0
 11
82.76311391083451
 21
-140.8960953620326
 31
0.0
  0
INSERT
  5
F2
330
70
100
AcDbEntity
  8
レイヤー 1
100
AcDbBlockReference
  2
Block_2
 10
0.0
 20
0.0
 30
0.0
  0
LINE
  5
FD
330
70
100
AcDbEntity
  8
レイヤー 1
 62
    18
420
        0
370
     9
100
AcDbLine
 10
78.76335474516763
 20
-147.1582536938002
 30
0.0
 11
78.76335474516763
 21
-153.1582275811895
 31
0.0
  0
LINE
  5
FE
330
70
100
AcDbEntity
  8
レイヤー 1
 62
    18
420
        0
370
     9
100
AcDbLine
 10
100.2252600861538
 20
-153.1582275811895
 30
0.0
 11
77.76322974541765
 21
-153.1582275811895
 31
0.0
  0
INSERT
  5
100
330
70
100
AcDbEntity
  8
レイヤー 1
100
AcDbBlockReference
  2
Block_4
 10
0.0
 20
0.0
 30
0.0
  0
LINE
  5
106
330
70
100
AcDbEntity
  8
レイヤー 1
 62
    18
420
        0
370
     9
100
AcDbLine
 10
134.8657086468468
 20
-141.8962203617826
 30
0.0
 11
113.8643894604128
 21
-141.8962203617826
 31
0.0
  0
LINE
  5
107
330
70
100
AcDbEntity
  8
レイヤー 1
 62
    18
420
        0
370
     9
100
AcDbLine
 10
134.8657086468468
 20
-144.1182970278939
 30
0.0
 11
134.8657086468468
 21
-140.8960953620326
 31
0.0
  0
INSERT
  5
109
330
70
100
AcDbEntity
  8
レイヤー 1
100
AcDbBlockReference
  2
Block_5
 10
0.0
 20
0.0
 30
0.0
  0
LINE
  5
114
330
70
100
AcDbEntity
  8
レイヤー 1
 62
    18
420
        0
370
     9
100
AcDbLine
 10
103.7647499958539
 20
-141.8962203617826
 30
0.0
 11
113.764482796295
 21
-141.8962203617826
 31
0.0
  0
LINE
  5
115
330
70
100
AcDbEntity
  8
レイヤー 1
 62
    18
420
        0
370
     9
100
AcDbLine
 10
103.7647499958539
 20
-143.3562617503066
 30
0.0
 11
103.7647499958539
 21
-140.8960953620326
 31
0.0
  0
LINE
  5
116
330
70
100
AcDbEntity
  8
レイヤー 1
 62
    18
420
        0
370
     9
100
AcDbLine
 10
113.8643894604128
 20
-143.3562617503066
 30
0.0
 11
113.8643894604128
 21
-140.8960953620326
 31
0.0
  0
INSERT
  5
118
330
70
100
AcDbEntity
  8
レイヤー 1
100
AcDbBlockReference
  2
Block_7
 10
0.0
 20
0.0
 30
0.0
  0
SPLINE
  5
124
330
70
100
AcDbEntity
  8
レイヤー 1
 62
    18
420
        0
370
     9
100
AcDbSpline
210
0.0
220
0.0
230
1.0
 70
     9
 71
     3
 72
    17
 73
    13
 74
     0
 42
0.0000000001
 43
0.0000000001
 40
0.0
 40
0.0
 40
0.0
 40
0.0
 40
1.0
 40
1.0
 40
1.0
 40
2.0
 40
2.0
 40
2.0
 40
3.0
 40
3.0
 40
3.0
 40
4.0
 40
4.0
 40
4.0
 40
4.0
 10
103.048858069673
 20
-157.271687024605
 30
0.0
 10
103.048858069673
 20
-157.2165478579526
 30
0.0
 10
102.9930486266527
 20
-157.171780357964
 30
0.0
 10
102.924856683948
 20
-157.171780357964
 30
0.0
 10
102.8559591857057
 20
-157.171780357964
 30
0.0
 10
102.8008200204458
 20
-157.2165478579526
 30
0.0
 10
102.8008200204458
 20
-157.271687024605
 30
0.0
 10
102.8008200204458
 20
-157.3267909134806
 30
0.0
 10
102.8559591857057
 20
-157.3715936912473
 30
0.0
 10
102.924856683948
 20
-157.3715936912473
 30
0.0
 10
102.9930486266527
 20
-157.3715936912473
 30
0.0
 10
103.048858069673
 20
-157.3267909134806
 30
0.0
 10
103.048858069673
 20
-157.271687024605
 30
0.0
  0
SPLINE
  5
125
330
70
100
AcDbEntity
  8
レイヤー 1
 62
    18
420
        0
370
     9
100
AcDbSpline
210
0.0
220
0.0
230
1.0
 70
     9
 71
     3
 72
    17
 73
    13
 74
     0
 42
0.0000000001
 43
0.0000000001
 40
0.0
 40
0.0
 40
0.0
 40
0.0
 40
1.0
 40
1.0
 40
1.0
 40
2.0
 40
2.0
 40
2.0
 40
3.0
 40
3.0
 40
3.0
 40
4.0
 40
4.0
 40
4.0
 40
4.0
 10
115.0488422360965
 20
-157.271687024605
 30
0.0
 10
115.0488422360965
 20
-157.2165478579526
 30
0.0
 10
114.9930313760632
 20
-157.171780357964
 30
0.0
 10
114.9240986000441
 20
-157.171780357964
 30
0.0
 10
114.8552011018018
 20
-157.171780357964
 30
0.0
 10
114.8000972143187
 20
-157.2165478579526
 30
0.0
 10
114.8000972143187
 20
-157.271687024605
 30
0.0
 10
114.8000972143187
 20
-157.3267909134806
 30
0.0
 10
114.8552011018018
 20
-157.3715936912473
 30
0.0
 10
114.9240986000441
 20
-157.3715936912473
 30
0.0
 10
114.9930313760632
 20
-157.3715936912473
 30
0.0
 10
115.0488422360965
 20
-157.3267909134806
 30
0.0
 10
115.0488422360965
 20
-157.271687024605
 30
0.0
  0
LINE
  5
126
330
70
100
AcDbEntity
  8
レイヤー 1
 62
    18
420
        0
370
     9
100
AcDbLine
 10
114.9240986000441
 20
-157.271687024605
 30
0.0
 11
102.924856683948
 21
-157.271687024605
 31
0.0
  0
LINE
  5
127
330
70
100
AcDbEntity
  8
レイヤー 1
 62
    18
420
        0
370
     9
100
AcDbLine
 10
114.9240986000441
 20
-155.8116456360813
 30
0.0
 11
114.9240986000441
 21
-158.2717767465778
 31
0.0
  0
LINE
  5
128
330
70
100
AcDbEntity
  8
レイヤー 1
 62
    18
420
        0
370
     9
100
AcDbLine
 10
102.924856683948
 20
-155.8116456360813
 30
0.0
 11
102.924856683948
 21
-158.2717767465778
 31
0.0
  0
INSERT
  5
12A
330
70
100
AcDbEntity
  8
レイヤー 1
100
AcDbBlockReference
  2
Block_9
 10
0.0
 20
0.0
 30
0.0
  0
LINE
  5
135
330
70
100
AcDbEntity
  8
レイヤー 1
 62
    18
420
        0
370
     9
100
AcDbLine
 10
112.7361356003081
 20
-150.3036203596803
 30
0.0
 11
119.7362343106096
 21
-150.3036203596803
 31
0.0
  0
INSERT
  5
137
330
70
100
AcDbEntity
  8
レイヤー 1
100
AcDbBlockReference
  2
Block_11
 10
0.0
 20
0.0
 30
0.0
  0
INSERT
  5
13D
330
70
100
AcDbEntity
  8
レイヤー 1
100
AcDbBlockReference
  2
Block_12
 10
0.0
 20
0.0
 30
0.0
  0
INSERT
  5
144
330
70
100
AcDbEntity
  8
レイヤー 1
100
AcDbBlockReference
  2
Block_13
 10
0.0
 20
0.0
 30
0.0
  0
ENDSEC
  0
SECTION
  2
OBJECTS
  0
DICTIONARY
  5
C
330
0
100
AcDbDictionary
281
     1
  3
ACAD_COLOR
350
63
  3
ACAD_DETAILVIEWSTYLE
350
6A
  3
ACAD_GROUP
350
D
  3
ACAD_LAYOUT
350
62
  3
ACAD_MATERIAL
350
10
  3
ACAD_MLEADERSTYLE
350
66
  3
ACAD_MLINESTYLE
350
5F
  3
ACAD_PLOTSETTINGS
350
61
  3
ACAD_PLOTSTYLENAME
350
E
  3
ACAD_SCALELIST
350
42
  3
ACAD_SECTIONVIEWSTYLE
350
68
  3
ACAD_TABLESTYLE
350
64
  3
ACAD_VISUALSTYLE
350
29
  3
ACDB_RECOMPOSE_DATA
350
163
  3
AcDbVariableDictionary
350
15B
  0
DICTIONARY
  5
63
102
{ACAD_REACTORS
330
C
102
}
330
C
100
AcDbDictionary
281
     1
  0
DICTIONARY
  5
6A
102
{ACAD_REACTORS
330
C
102
}
330
C
100
AcDbDictionary
281
     1
  3
Imperial24
350
6B
  0
DICTIONARY
  5
D
102
{ACAD_REACTORS
330
C
102
}
330
C
100
AcDbDictionary
281
     1
  0
DICTIONARY
  5
62
102
{ACAD_REACTORS
330
C
102
}
330
C
100
AcDbDictionary
281
     1
  3
Layout1
350
6F
  3
Layout2
350
77
  3
Model
350
73
  0
DICTIONARY
  5
10
102
{ACAD_REACTORS
330
C
102
}
330
C
100
AcDbDictionary
281
     1
  3
ByBlock
350
19
  3
ByLayer
350
11
  3
Global
350
21
  0
DICTIONARY
  5
66
102
{ACAD_REACTORS
330
C
102
}
330
C
100
AcDbDictionary
281
     1
  3
Standard
350
67
  0
DICTIONARY
  5
5F
102
{ACAD_REACTORS
330
C
102
}
330
C
100
AcDbDictionary
281
     1
  3
Standard
350
60
  0
DICTIONARY
  5
61
102
{ACAD_REACTORS
330
C
102
}
330
C
100
AcDbDictionary
281
     1
  0
ACDBDICTIONARYWDFLT
  5
E
102
{ACAD_REACTORS
330
C
102
}
330
C
100
AcDbDictionary
281
     1
  3
Normal
350
F
100
AcDbDictionaryWithDefault
340
F
  0
DICTIONARY
  5
42
102
{ACAD_REACTORS
330
C
102
}
330
C
100
AcDbDictionary
281
     1
  3
A0
350
43
  3
A1
350
44
  3
A2
350
45
  3
A3
350
46
  3
A4
350
47
  3
A5
350
48
  3
A6
350
49
  3
A7
350
4A
  3
A8
350
4B
  3
A9
350
4C
  3
B0
350
4D
  3
B1
350
4E
  3
B2
350
4F
  3
B3
350
50
  3
B4
350
51
  3
B5
350
52
  3
B6
350
53
  0
DICTIONARY
  5
68
102
{ACAD_REACTORS
330
C
102
}
330
C
100
AcDbDictionary
281
     1
  3
Imperial24
350
69
  0
DICTIONARY
  5
64
102
{ACAD_REACTORS
330
C
102
}
330
C
100
AcDbDictionary
281
     1
  3
Standard
350
65
  0
DICTIONARY
  5
29
102
{ACAD_REACTORS
330
C
102
}
330
C
100
AcDbDictionary
281
     1
  3
2dWireframe
350
2F
  3
Basic
350
2E
  3
Brighten
350
35
  3
ColorChange
350
39
  3
Conceptual
350
32
  3
Dim
350
34
  3
EdgeColorOff
350
41
  3
Facepattern
350
38
  3
Flat
350
2A
  3
FlatWithEdges
350
2B
  3
Gouraud
350
2C
  3
GouraudWithEdges
350
2D
  3
Hidden
350
31
  3
JitterOff
350
3F
  3
Linepattern
350
37
  3
OverhangOff
350
40
  3
Realistic
350
33
  3
Shaded
350
3E
  3
Shaded with edges
350
3D
  3
Shades of Gray
350
3A
  3
Sketchy
350
3B
  3
Thicken
350
36
  3
Wireframe
350
30
  3
X-Ray
350
3C
  0
XRECORD
  5
163
102
{ACAD_REACTORS
330
C
102
}
330
C
100
AcDbXrecord
280
     1
 90
        1
330
65
  0
DICTIONARY
  5
15B
102
{ACAD_REACTORS
330
C
102
}
330
C
100
AcDbDictionary
281
     1
  3
CANNOSCALE
350
160
  3
CMLEADERSTYLE
350
15D
  3
CTABLESTYLE
350
15C
  3
CVIEWDETAILSTYLE
350
15E
  3
CVIEWSECTIONSTYLE
350
15F
  0
ACDBDETAILVIEWSTYLE
  5
6B
102
{ACAD_XDICTIONARY
360
198
102
}
102
{ACAD_REACTORS
330
6A
102
}
330
6A
100
AcDbModelDocViewStyle
 70
     0
  3
Imperial24
290
     0
100
AcDbDetailViewStyle
 70
     0
 71
     0
 90
        3
 71
     1
340
55
 62
   256
 40
0.24
340
0
 62
   256
 40
0.24
300

 40
0.36
280
     3
 71
     2
340
5D
 90
       25
 62
   256
 71
     3
340
55
 62
   256
 40
0.24
 90
        1
 40
0.75
 90
        1
300
%<\AcVar ViewType \f "%tc1">% %<\AcVar ViewDetailId>%\PSCALE %<\AcVar ViewScale \f "%sn">%
 71
     4
340
5D
 90
       25
 62
   256
340
5D
 90
       25
 62
   256
280
     0
  0
LAYOUT
  5
6F
102
{ACAD_REACTORS
330
62
102
}
330
62
100
AcDbPlotSettings
  1

  2

  4

  6

 40
0.0
 41
0.0
 42
0.0
 43
0.0
 44
0.0
 45
0.0
 46
0.0
 47
0.0
 48
0.0
 49
0.0
140
0.0
141
0.0
142
1.0
143
1.0
 70
   688
 72
     0
 73
     0
 74
     5
  7

 75
    16
147
1.0
 76
     0
 77
     2
 78
   300
148
0.0
149
0.0
100
AcDbLayout
  1
Layout1
 70
     1
 71
     1
 10
0.0
 20
0.0
 11
12.0
 21
9.0
 12
0.0
 22
0.0
 32
0.0
 14
0.0
 24
0.0
 34
0.0
 15
0.0
 25
0.0
 35
0.0
146
0.0
 13
0.0
 23
0.0
 33
0.0
 16
1.0
 26
0.0
 36
0.0
 17
0.0
 27
1.0
 37
0.0
 76
     0
330
6C
  0
LAYOUT
  5
77
102
{ACAD_REACTORS
330
62
102
}
330
62
100
AcDbPlotSettings
  1

  2

  4

  6

 40
0.0
 41
0.0
 42
0.0
 43
0.0
 44
0.0
 45
0.0
 46
0.0
 47
0.0
 48
0.0
 49
0.0
140
0.0
141
0.0
142
1.0
143
1.0
 70
   688
 72
     0
 73
     0
 74
     5
  7

 75
    16
147
1.0
 76
     0
 77
     2
 78
   300
148
0.0
149
0.0
100
AcDbLayout
  1
Layout2
 70
     1
 71
     2
 10
0.0
 20
0.0
 11
12.0
 21
9.0
 12
0.0
 22
0.0
 32
0.0
 14
0.0
 24
0.0
 34
0.0
 15
0.0
 25
0.0
 35
0.0
146
0.0
 13
0.0
 23
0.0
 33
0.0
 16
1.0
 26
0.0
 36
0.0
 17
0.0
 27
1.0
 37
0.0
 76
     0
330
74
  0
LAYOUT
  5
73
102
{ACAD_REACTORS
330
62
102
}
330
62
100
AcDbPlotSettings
  1

  2

  4

  6

 40
0.0
 41
0.0
 42
0.0
 43
0.0
 44
0.0
 45
0.0
 46
0.0
 47
0.0
 48
0.0
 49
0.0
140
0.0
141
0.0
142
1.0
143
1.0
 70
  1712
 72
     0
 73
     0
 74
     0
  7

 75
     0
147
1.0
 76
     0
 77
     2
 78
   300
148
0.0
149
0.0
100
AcDbLayout
  1
Model
 70
     1
 71
     0
 10
0.0
 20
0.0
 11
12.0
 21
9.0
 12
0.0
 22
0.0
 32
0.0
 14
0.0
 24
0.0
 34
0.0
 15
0.0
 25
0.0
 35
0.0
146
0.0
 13
0.0
 23
0.0
 33
0.0
 16
1.0
 26
0.0
 36
0.0
 17
0.0
 27
1.0
 37
0.0
 76
     0
330
70
  0
MATERIAL
  5
19
102
{ACAD_XDICTIONARY
360
1A
102
}
102
{ACAD_REACTORS
330
10
102
}
330
10
100
AcDbMaterial
  1
ByBlock
 72
     0
 43
0.0208333333333333
 43
0.0
 43
0.0
 43
0.0
 43
0.0
 43
0.0208333333333333
 43
0.0
 43
0.0
 43
0.0
 43
0.0
 43
1.0
 43
0.0
 43
0.0
 43
0.0
 43
0.0
 43
1.0
 77
     0
 47
0.0208333333333333
 47
0.0
 47
0.0
 47
0.0
 47
0.0
 47
0.0208333333333333
 47
0.0
 47
0.0
 47
0.0
 47
0.0
 47
1.0
 47
0.0
 47
0.0
 47
0.0
 47
0.0
 47
1.0
171
     0
 49
0.0208333333333333
 49
0.0
 49
0.0
 49
0.0
 49
0.0
 49
0.0208333333333333
 49
0.0
 49
0.0
 49
0.0
 49
0.0
 49
1.0
 49
0.0
 49
0.0
 49
0.0
 49
0.0
 49
1.0
175
     0
142
0.0208333333333333
142
0.0
142
0.0
142
0.0
142
0.0
142
0.0208333333333333
142
0.0
142
0.0
142
0.0
142
0.0
142
1.0
142
0.0
142
0.0
142
0.0
142
0.0
142
1.0
179
     0
144
0.0208333333333333
144
0.0
144
0.0
144
0.0
144
0.0
144
0.0208333333333333
144
0.0
144
0.0
144
0.0
144
0.0
144
1.0
144
0.0
144
0.0
144
0.0
144
0.0
144
1.0
147
0.0208333333333333
147
0.0
147
0.0
147
0.0
147
0.0
147
0.0208333333333333
147
0.0
147
0.0
147
0.0
147
0.0
147
1.0
147
0.0
147
0.0
147
0.0
147
0.0
147
1.0
  0
MATERIAL
  5
11
102
{ACAD_XDICTIONARY
360
12
102
}
102
{ACAD_REACTORS
330
10
102
}
330
10
100
AcDbMaterial
  1
ByLayer
 72
     0
 43
0.0208333333333333
 43
0.0
 43
0.0
 43
0.0
 43
0.0
 43
0.0208333333333333
 43
0.0
 43
0.0
 43
0.0
 43
0.0
 43
1.0
 43
0.0
 43
0.0
 43
0.0
 43
0.0
 43
1.0
 77
     0
 47
0.0208333333333333
 47
0.0
 47
0.0
 47
0.0
 47
0.0
 47
0.0208333333333333
 47
0.0
 47
0.0
 47
0.0
 47
0.0
 47
1.0
 47
0.0
 47
0.0
 47
0.0
 47
0.0
 47
1.0
171
     0
 49
0.0208333333333333
 49
0.0
 49
0.0
 49
0.0
 49
0.0
 49
0.0208333333333333
 49
0.0
 49
0.0
 49
0.0
 49
0.0
 49
1.0
 49
0.0
 49
0.0
 49
0.0
 49
0.0
 49
1.0
175
     0
142
0.0208333333333333
142
0.0
142
0.0
142
0.0
142
0.0
142
0.0208333333333333
142
0.0
142
0.0
142
0.0
142
0.0
142
1.0
142
0.0
142
0.0
142
0.0
142
0.0
142
1.0
179
     0
144
0.0208333333333333
144
0.0
144
0.0
144
0.0
144
0.0
144
0.0208333333333333
144
0.0
144
0.0
144
0.0
144
0.0
144
1.0
144
0.0
144
0.0
144
0.0
144
0.0
144
1.0
147
0.0208333333333333
147
0.0
147
0.0
147
0.0
147
0.0
147
0.0208333333333333
147
0.0
147
0.0
147
0.0
147
0.0
147
1.0
147
0.0
147
0.0
147
0.0
147
0.0
147
1.0
  0
MATERIAL
  5
21
102
{ACAD_XDICTIONARY
360
22
102
}
102
{ACAD_REACTORS
330
10
102
}
330
10
100
AcDbMaterial
  1
Global
 72
     0
 43
0.0208333333333333
 43
0.0
 43
0.0
 43
0.0
 43
0.0
 43
0.0208333333333333
 43
0.0
 43
0.0
 43
0.0
 43
0.0
 43
1.0
 43
0.0
 43
0.0
 43
0.0
 43
0.0
 43
1.0
 77
     0
 47
0.0208333333333333
 47
0.0
 47
0.0
 47
0.0
 47
0.0
 47
0.0208333333333333
 47
0.0
 47
0.0
 47
0.0
 47
0.0
 47
1.0
 47
0.0
 47
0.0
 47
0.0
 47
0.0
 47
1.0
171
     0
 49
0.0208333333333333
 49
0.0
 49
0.0
 49
0.0
 49
0.0
 49
0.0208333333333333
 49
0.0
 49
0.0
 49
0.0
 49
0.0
 49
1.0
 49
0.0
 49
0.0
 49
0.0
 49
0.0
 49
1.0
175
     0
142
0.0208333333333333
142
0.0
142
0.0
142
0.0
142
0.0
142
0.0208333333333333
142
0.0
142
0.0
142
0.0
142
0.0
142
1.0
142
0.0
142
0.0
142
0.0
142
0.0
142
1.0
179
     0
144
0.0208333333333333
144
0.0
144
0.0
144
0.0
144
0.0
144
0.0208333333333333
144
0.0
144
0.0
144
0.0
144
0.0
144
1.0
144
0.0
144
0.0
144
0.0
144
0.0
144
1.0
147
0.0208333333333333
147
0.0
147
0.0
147
0.0
147
0.0
147
0.0208333333333333
147
0.0
147
0.0
147
0.0
147
0.0
147
1.0
147
0.0
147
0.0
147
0.0
147
0.0
147
1.0
  0
MLEADERSTYLE
  5
67
102
{ACAD_XDICTIONARY
360
194
102
}
102
{ACAD_REACTORS
330
66
102
}
330
66
100
AcDbMLeaderStyle
179
     2
170
     2
171
     1
172
     0
 90
        2
 40
0.0
 41
0.0
173
     1
 91
-1056964608
340
5B
 92
       -2
290
     1
 42
0.09
291
     1
 43
0.36
  3
Standard
 44
0.18
300

342
55
174
     1
178
     6
175
     1
176
     0
 93
-1056964608
 45
0.18
292
     0
297
     0
 46
0.18
 94
-1056964608
 47
1.0
 49
1.0
140
1.0
293
     1
141
0.0
294
     1
177
     0
142
1.0
295
     0
296
     0
143
0.125
271
     0
272
     9
273
     9
  0
MLINESTYLE
  5
60
102
{ACAD_REACTORS
330
5F
102
}
330
5F
100
AcDbMlineStyle
  2
STANDARD
 70
     0
  3

 62
   256
 51
90.0
 52
90.0
 71
     2
 49
0.5
 62
   256
  6
BYLAYER
 49
-0.5
 62
   256
  6
BYLAYER
  0
ACDBPLACEHOLDER
  5
F
102
{ACAD_REACTORS
330
E
102
}
330
E
  0
SCALE
  5
43
102
{ACAD_REACTORS
330
42
102
}
330
42
100
AcDbScale
 70
     0
300
1:1
140
1.0
141
1.0
290
     1
  0
SCALE
  5
44
102
{ACAD_REACTORS
330
42
102
}
330
42
100
AcDbScale
 70
     0
300
1/128" = 1'-0"
140
0.0078125
141
12.0
290
     0
  0
SCALE
  5
45
102
{ACAD_REACTORS
330
42
102
}
330
42
100
AcDbScale
 70
     0
300
1/64" = 1'-0"
140
0.015625
141
12.0
290
     0
  0
SCALE
  5
46
102
{ACAD_REACTORS
330
42
102
}
330
42
100
AcDbScale
 70
     0
300
1/32" = 1'-0"
140
0.03125
141
12.0
290
     0
  0
SCALE
  5
47
102
{ACAD_REACTORS
330
42
102
}
330
42
100
AcDbScale
 70
     0
300
1/16" = 1'-0"
140
0.0625
141
12.0
290
     0
  0
SCALE
  5
48
102
{ACAD_REACTORS
330
42
102
}
330
42
100
AcDbScale
 70
     0
300
3/32" = 1'-0"
140
0.09375
141
12.0
290
     0
  0
SCALE
  5
49
102
{ACAD_REACTORS
330
42
102
}
330
42
100
AcDbScale
 70
     0
300
1/8" = 1'-0"
140
0.125
141
12.0
290
     0
  0
SCALE
  5
4A
102
{ACAD_REACTORS
330
42
102
}
330
42
100
AcDbScale
 70
     0
300
3/16" = 1'-0"
140
0.1875
141
12.0
290
     0
  0
SCALE
  5
4B
102
{ACAD_REACTORS
330
42
102
}
330
42
100
AcDbScale
 70
     0
300
1/4" = 1'-0"
140
0.25
141
12.0
290
     0
  0
SCALE
  5
4C
102
{ACAD_REACTORS
330
42
102
}
330
42
100
AcDbScale
 70
     0
300
3/8" = 1'-0"
140
0.375
141
12.0
290
     0
  0
SCALE
  5
4D
102
{ACAD_REACTORS
330
42
102
}
330
42
100
AcDbScale
 70
     0
300
1/2" = 1'-0"
140
0.5
141
12.0
290
     0
  0
SCALE
  5
4E
102
{ACAD_REACTORS
330
42
102
}
330
42
100
AcDbScale
 70
     0
300
3/4" = 1'-0"
140
0.75
141
12.0
290
     0
  0
SCALE
  5
4F
102
{ACAD_REACTORS
330
42
102
}
330
42
100
AcDbScale
 70
     0
300
1" = 1'-0"
140
1.0
141
12.0
290
     0
  0
SCALE
  5
50
102
{ACAD_REACTORS
330
42
102
}
330
42
100
AcDbScale
 70
     0
300
1-1/2" = 1'-0"
140
1.5
141
12.0
290
     0
  0
SCALE
  5
51
102
{ACAD_REACTORS
330
42
102
}
330
42
100
AcDbScale
 70
     0
300
3" = 1'-0"
140
3.0
141
12.0
290
     0
  0
SCALE
  5
52
102
{ACAD_REACTORS
330
42
102
}
330
42
100
AcDbScale
 70
     0
300
6" = 1'-0"
140
6.0
141
12.0
290
     0
  0
SCALE
  5
53
102
{ACAD_REACTORS
330
42
102
}
330
42
100
AcDbScale
 70
     0
300
1'-0" = 1'-0"
140
12.0
141
12.0
290
     0
  0
ACDBSECTIONVIEWSTYLE
  5
69
102
{ACAD_XDICTIONARY
360
196
102
}
102
{ACAD_REACTORS
330
68
102
}
330
68
100
AcDbModelDocViewStyle
 70
     0
  3
Imperial24
290
     0
100
AcDbSectionViewStyle
 70
     0
 71
     0
 90
       78
 71
     1
340
55
 62
   256
 40
0.24
340
0
340
0
 62
   256
 40
0.24
300
I, O, Q, S, X, Z
 40
0.48
 90
        3
 40
0.18
 90
        1
 71
     2
340
5D
 90
       25
 62
   256
340
5D
 90
       50
 62
   256
 40
0.24
 40
0.0
 40
0.24
 71
     3
340
55
 62
   256
 40
0.24
 90
        1
 40
0.75
 90
        1
300
%<\AcVar ViewType \f "%tc1">% %<\AcVar ViewSectionStartId>%-%<\AcVar ViewSectionEndId>%\PSCALE %<\AcVar ViewScale \f "%sn">%
 71
     4
 62
   256
 62
   257
300
ANSI31
 40
1.0
 90
        0
290
     0
290
     0
 90
        6
 40
0.0
 40
1.570796326794896
 40
0.2617993877991494
 40
1.308996938995747
 40
-0.2617993877991494
 40
1.832595714594046
  0
TABLESTYLE
  5
65
102
{ACAD_XDICTIONARY
360
161
102
}
102
{ACAD_REACTORS
330
64
102
}
330
64
100
AcDbTableStyle
280
     0
  3
Standard
 70
     0
 71
     0
 40
0.06
 41
0.06
280
     0
281
     0
  7
Standard
140
0.18
170
     2
 62
     0
 63
     7
283
     0
 90
      512
 91
        0
  1

274
    -2
284
     1
 64
     0
275
    -2
285
     1
 65
     0
276
    -2
286
     1
 66
     0
277
    -2
287
     1
 67
     0
278
    -2
288
     1
 68
     0
279
    -2
289
     1
 69
     0
  7
Standard
140
0.25
170
     5
 62
     0
 63
     7
283
     0
 90
      512
 91
        0
  1

274
    -2
284
     1
 64
     0
275
    -2
285
     1
 65
     0
276
    -2
286
     1
 66
     0
277
    -2
287
     1
 67
     0
278
    -2
288
     1
 68
     0
279
    -2
289
     1
 69
     0
  7
Standard
140
0.18
170
     5
 62
     0
 63
     7
283
     0
 90
      512
 91
        0
  1

274
    -2
284
     1
 64
     0
275
    -2
285
     1
 65
     0
276
    -2
286
     1
 66
     0
277
    -2
287
     1
 67
     0
278
    -2
288
     1
 68
     0
279
    -2
289
     1
 69
     0
  0
VISUALSTYLE
  5
2F
102
{ACAD_XDICTIONARY
360
16E
102
}
102
{ACAD_REACTORS
330
29
102
}
330
29
100
AcDbVisualStyle
  2
2dWireframe
 70
     4
177
     2
291
     0
 71
     0
176
     1
 72
     2
176
     1
 73
     0
176
     1
 90
        0
176
     1
 40
0.6
176
     1
 41
30.0
176
     1
 63
     7
421
 16777215
176
     1
 74
     1
176
     1
 91
        4
176
     1
 64
     7
176
     1
 65
   257
176
     1
 75
     1
176
     1
175
     1
176
     1
 42
1.0
176
     1
 92
        0
176
     1
 66
   257
176
     1
 43
1.0
176
     1
 76
     1
176
     1
 77
     6
176
     1
 78
     2
176
     1
 67
     7
176
     1
 79
     5
176
     1
170
     0
176
     1
171
     0
176
     1
290
     0
176
     1
 93
        1
176
     1
 44
0.0
176
     1
173
     0
176
     1
1001
ACAD
1000
AcDbSavedByObjectVersion
1070
     0
  0
VISUALSTYLE
  5
2E
102
{ACAD_XDICTIONARY
360
16C
102
}
102
{ACAD_REACTORS
330
29
102
}
330
29
100
AcDbVisualStyle
  2
Basic
 70
     7
177
     2
291
     1
 71
     1
176
     1
 72
     0
176
     1
 73
     1
176
     1
 90
        0
176
     1
 40
0.6
176
     1
 41
30.0
176
     1
 63
     7
421
 16777215
176
     1
 74
     0
176
     1
 91
        4
176
     1
 64
     7
176
     1
 65
   257
176
     1
 75
     1
176
     1
175
     1
176
     1
 42
1.0
176
     1
 92
        8
176
     1
 66
     7
176
     1
 43
1.0
176
     1
 76
     1
176
     1
 77
     6
176
     1
 78
     2
176
     1
 67
     7
176
     1
 79
     5
176
     1
170
     0
176
     1
171
     0
176
     1
290
     0
176
     1
 93
        1
176
     1
 44
0.0
176
     1
173
     0
176
     1
1001
ACAD
1000
AcDbSavedByObjectVersion
1070
     0
  0
VISUALSTYLE
  5
35
102
{ACAD_XDICTIONARY
360
17A
102
}
102
{ACAD_REACTORS
330
29
102
}
330
29
100
AcDbVisualStyle
  2
Brighten
 70
    12
177
     2
291
     1
 71
     2
176
     1
 72
     2
176
     1
 73
     0
176
     1
 90
        0
176
     1
 40
0.6
176
     1
 41
30.0
176
     1
 63
     7
421
 16777215
176
     1
 74
     1
176
     1
 91
        4
176
     1
 64
     7
176
     1
 65
   257
176
     1
 75
     1
176
     1
175
     1
176
     1
 42
1.0
176
     1
 92
        8
176
     1
 66
     7
176
     1
 43
1.0
176
     1
 76
     1
176
     1
 77
     6
176
     1
 78
     2
176
     1
 67
     7
176
     1
 79
     5
176
     1
170
     0
176
     1
171
     0
176
     1
290
     0
176
     1
 93
        1
176
     1
 44
50.0
176
     1
173
     0
176
     1
1001
ACAD
1000
AcDbSavedByObjectVersion
1070
     0
  0
VISUALSTYLE
  5
39
102
{ACAD_XDICTIONARY
360
182
102
}
102
{ACAD_REACTORS
330
29
102
}
330
29
100
AcDbVisualStyle
  2
ColorChange
 70
    16
177
     2
291
     1
 71
     2
176
     1
 72
     2
176
     1
 73
     3
176
     1
 90
        0
176
     1
 40
0.6
176
     1
 41
30.0
176
     1
 63
     8
421
  8421504
176
     1
 74
     1
176
     1
 91
        4
176
     1
 64
     7
176
     1
 65
   257
176
     1
 75
     1
176
     1
175
     1
176
     1
 42
1.0
176
     1
 92
        8
176
     1
 66
     8
424
  8421504
176
     1
 43
1.0
176
     1
 76
     1
176
     1
 77
     6
176
     1
 78
     2
176
     1
 67
     7
176
     1
 79
     5
176
     1
170
     0
176
     1
171
     0
176
     1
290
     0
176
     1
 93
        1
176
     1
 44
0.0
176
     1
173
     0
176
     1
1001
ACAD
1000
AcDbSavedByObjectVersion
1070
     0
  0
VISUALSTYLE
  5
32
102
{ACAD_XDICTIONARY
360
174
102
}
102
{ACAD_REACTORS
330
29
102
}
330
29
100
AcDbVisualStyle
  2
Conceptual
 70
     9
177
     2
291
     0
 71
     3
176
     1
 72
     2
176
     1
 73
     0
176
     1
 90
        0
176
     1
 40
0.6
176
     1
 41
30.0
176
     1
 63
     7
421
 16777215
176
     1
 74
     2
176
     1
 91
        2
176
     1
 64
     7
176
     1
 65
   257
176
     1
 75
     1
176
     1
175
     1
176
     1
 42
179.0
176
     1
 92
        8
176
     1
 66
     7
176
     1
 43
1.0
176
     1
 76
     1
176
     1
 77
     6
176
     1
 78
     2
176
     1
 67
     7
176
     1
 79
     3
176
     1
170
     0
176
     1
171
     0
176
     1
290
     0
176
     1
 93
        1
176
     1
 44
0.0
176
     1
173
     0
176
     1
1001
ACAD
1000
AcDbSavedByObjectVersion
1070
     0
  0
VISUALSTYLE
  5
34
102
{ACAD_XDICTIONARY
360
178
102
}
102
{ACAD_REACTORS
330
29
102
}
330
29
100
AcDbVisualStyle
  2
Dim
 70
    11
177
     2
291
     1
 71
     2
176
     1
 72
     2
176
     1
 73
     0
176
     1
 90
        0
176
     1
 40
0.6
176
     1
 41
30.0
176
     1
 63
     7
421
 16777215
176
     1
 74
     1
176
     1
 91
        4
176
     1
 64
     7
176
     1
 65
   257
176
     1
 75
     1
176
     1
175
     1
176
     1
 42
1.0
176
     1
 92
        8
176
     1
 66
     7
176
     1
 43
1.0
176
     1
 76
     1
176
     1
 77
     6
176
     1
 78
     2
176
     1
 67
     7
176
     1
 79
     5
176
     1
170
     0
176
     1
171
     0
176
     1
290
     0
176
     1
 93
        1
176
     1
 44
-50.0
176
     1
173
     0
176
     1
1001
ACAD
1000
AcDbSavedByObjectVersion
1070
     0
  0
VISUALSTYLE
  5
41
102
{ACAD_XDICTIONARY
360
192
102
}
102
{ACAD_REACTORS
330
29
102
}
330
29
100
AcDbVisualStyle
  2
EdgeColorOff
 70
    22
177
     2
291
     1
 71
     2
176
     0
 72
     2
176
     0
 73
     0
176
     0
 90
        0
176
     0
 40
0.6
176
     0
 41
30.0
176
     0
 63
     7
421
 16777215
176
     0
 74
     1
176
     0
 91
        4
176
     0
 64
     7
176
     0
 65
   257
176
     0
 75
     1
176
     0
175
     1
176
     0
 42
1.0
176
     0
 92
        8
176
     2
 66
     7
176
     0
 43
1.0
176
     0
 76
     1
176
     0
 77
     6
176
     0
 78
     2
176
     0
 67
     7
176
     0
 79
     5
176
     0
170
     0
176
     0
171
     0
176
     0
290
     0
176
     0
 93
        1
176
     0
 44
0.0
176
     0
173
     0
176
     0
1001
ACAD
1000
AcDbSavedByObjectVersion
1070
     0
  0
VISUALSTYLE
  5
38
102
{ACAD_XDICTIONARY
360
180
102
}
102
{ACAD_REACTORS
330
29
102
}
330
29
100
AcDbVisualStyle
  2
Facepattern
 70
    15
177
     2
291
     1
 71
     2
176
     1
 72
     2
176
     1
 73
     0
176
     1
 90
        0
176
     1
 40
0.6
176
     1
 41
30.0
176
     1
 63
     7
421
 16777215
176
     1
 74
     1
176
     1
 91
        4
176
     1
 64
     7
176
     1
 65
   257
176
     1
 75
     1
176
     1
175
     1
176
     1
 42
1.0
176
     1
 92
        8
176
     1
 66
     7
176
     1
 43
1.0
176
     1
 76
     1
176
     1
 77
     6
176
     1
 78
     2
176
     1
 67
     7
176
     1
 79
     5
176
     1
170
     0
176
     1
171
     0
176
     1
290
     0
176
     1
 93
        1
176
     1
 44
0.0
176
     1
173
     0
176
     1
1001
ACAD
1000
AcDbSavedByObjectVersion
1070
     0
  0
VISUALSTYLE
  5
2A
102
{ACAD_XDICTIONARY
360
164
102
}
102
{ACAD_REACTORS
330
29
102
}
330
29
100
AcDbVisualStyle
  2
Flat
 70
     0
177
     2
291
     1
 71
     2
176
     1
 72
     1
176
     1
 73
     1
176
     1
 90
        2
176
     1
 40
0.6
176
     1
 41
30.0
176
     1
 63
     7
421
 16777215
176
     1
 74
     0
176
     1
 91
        0
176
     1
 64
     7
176
     1
 65
   257
176
     1
 75
     1
176
     1
175
     1
176
     1
 42
1.0
176
     1
 92
        8
176
     1
 66
     7
176
     1
 43
1.0
176
     1
 76
     1
176
     1
 77
     6
176
     1
 78
     2
176
     1
 67
     7
176
     1
 79
     5
176
     1
170
     0
176
     1
171
     0
176
     1
290
     0
176
     1
 93
       13
176
     1
 44
0.0
176
     1
173
     0
176
     1
1001
ACAD
1000
AcDbSavedByObjectVersion
1070
     0
  0
VISUALSTYLE
  5
2B
102
{ACAD_XDICTIONARY
360
166
102
}
102
{ACAD_REACTORS
330
29
102
}
330
29
100
AcDbVisualStyle
  2
FlatWithEdges
 70
     1
177
     2
291
     1
 71
     2
176
     1
 72
     1
176
     1
 73
     1
176
     1
 90
        2
176
     1
 40
0.6
176
     1
 41
30.0
176
     1
 63
     7
421
 16777215
176
     1
 74
     1
176
     1
 91
        0
176
     1
 64
     7
176
     1
 65
   257
176
     1
 75
     1
176
     1
175
     1
176
     1
 42
1.0
176
     1
 92
        0
176
     1
 66
   257
176
     1
 43
1.0
176
     1
 76
     1
176
     1
 77
     6
176
     1
 78
     2
176
     1
 67
     7
176
     1
 79
     5
176
     1
170
     0
176
     1
171
     0
176
     1
290
     0
176
     1
 93
       13
176
     1
 44
0.0
176
     1
173
     0
176
     1
1001
ACAD
1000
AcDbSavedByObjectVersion
1070
     0
  0
VISUALSTYLE
  5
2C
102
{ACAD_XDICTIONARY
360
168
102
}
102
{ACAD_REACTORS
330
29
102
}
330
29
100
AcDbVisualStyle
  2
Gouraud
 70
     2
177
     2
291
     1
 71
     2
176
     1
 72
     2
176
     1
 73
     1
176
     1
 90
        2
176
     1
 40
0.6
176
     1
 41
30.0
176
     1
 63
     7
421
 16777215
176
     1
 74
     0
176
     1
 91
        0
176
     1
 64
     7
176
     1
 65
   257
176
     1
 75
     1
176
     1
175
     1
176
     1
 42
1.0
176
     1
 92
        0
176
     1
 66
     7
176
     1
 43
1.0
176
     1
 76
     1
176
     1
 77
     6
176
     1
 78
     2
176
     1
 67
     7
176
     1
 79
     5
176
     1
170
     0
176
     1
171
     0
176
     1
290
     0
176
     1
 93
       13
176
     1
 44
0.0
176
     1
173
     0
176
     1
1001
ACAD
1000
AcDbSavedByObjectVersion
1070
     0
  0
VISUALSTYLE
  5
2D
102
{ACAD_XDICTIONARY
360
16A
102
}
102
{ACAD_REACTORS
330
29
102
}
330
29
100
AcDbVisualStyle
  2
GouraudWithEdges
 70
     3
177
     2
291
     1
 71
     2
176
     1
 72
     2
176
     1
 73
     1
176
     1
 90
        2
176
     1
 40
0.6
176
     1
 41
30.0
176
     1
 63
     7
421
 16777215
176
     1
 74
     1
176
     1
 91
        0
176
     1
 64
     7
176
     1
 65
   257
176
     1
 75
     1
176
     1
175
     1
176
     1
 42
1.0
176
     1
 92
        0
176
     1
 66
   257
176
     1
 43
1.0
176
     1
 76
     1
176
     1
 77
     6
176
     1
 78
     2
176
     1
 67
     7
176
     1
 79
     5
176
     1
170
     0
176
     1
171
     0
176
     1
290
     0
176
     1
 93
       13
176
     1
 44
0.0
176
     1
173
     0
176
     1
1001
ACAD
1000
AcDbSavedByObjectVersion
1070
     0
  0
VISUALSTYLE
  5
31
102
{ACAD_XDICTIONARY
360
172
102
}
102
{ACAD_REACTORS
330
29
102
}
330
29
100
AcDbVisualStyle
  2
Hidden
 70
     6
177
     2
291
     0
 71
     1
176
     1
 72
     2
176
     1
 73
     2
176
     1
 90
        0
176
     1
 40
0.6
176
     1
 41
30.0
176
     1
 63
     7
421
 16777215
176
     1
 74
     2
176
     1
 91
        2
176
     1
 64
     7
176
     1
 65
   257
176
     1
 75
     2
176
     1
175
     1
176
     1
 42
40.0
176
     1
 92
        0
176
     1
 66
   257
176
     1
 43
1.0
176
     1
 76
     1
176
     1
 77
     6
176
     1
 78
     2
176
     1
 67
     7
176
     1
 79
     3
176
     1
170
     0
176
     1
171
     0
176
     1
290
     0
176
     1
 93
        1
176
     1
 44
0.0
176
     1
173
     0
176
     1
1001
ACAD
1000
AcDbSavedByObjectVersion
1070
     0
  0
VISUALSTYLE
  5
3F
102
{ACAD_XDICTIONARY
360
18E
102
}
102
{ACAD_REACTORS
330
29
102
}
330
29
100
AcDbVisualStyle
  2
JitterOff
 70
    20
177
     2
291
     1
 71
     2
176
     0
 72
     2
176
     0
 73
     0
176
     0
 90
        0
176
     0
 40
0.6
176
     0
 41
30.0
176
     0
 63
     7
421
 16777215
176
     0
 74
     1
176
     0
 91
        4
176
     0
 64
     7
176
     0
 65
   257
176
     0
 75
     1
176
     0
175
     1
176
     0
 42
1.0
176
     0
 92
       10
176
     2
 66
     7
176
     0
 43
1.0
176
     0
 76
     1
176
     0
 77
     6
176
     0
 78
     2
176
     0
 67
     7
176
     0
 79
     5
176
     0
170
     0
176
     0
171
     0
176
     0
290
     0
176
     0
 93
        1
176
     0
 44
0.0
176
     0
173
     0
176
     0
1001
ACAD
1000
AcDbSavedByObjectVersion
1070
     0
  0
VISUALSTYLE
  5
37
102
{ACAD_XDICTIONARY
360
17E
102
}
102
{ACAD_REACTORS
330
29
102
}
330
29
100
AcDbVisualStyle
  2
Linepattern
 70
    14
177
     2
291
     1
 71
     2
176
     1
 72
     2
176
     1
 73
     0
176
     1
 90
        0
176
     1
 40
0.6
176
     1
 41
30.0
176
     1
 63
     7
421
 16777215
176
     1
 74
     1
176
     1
 91
        4
176
     1
 64
     7
176
     1
 65
   257
176
     1
 75
     7
176
     1
175
     7
176
     1
 42
1.0
176
     1
 92
        8
176
     1
 66
     7
176
     1
 43
1.0
176
     1
 76
     1
176
     1
 77
     6
176
     1
 78
     2
176
     1
 67
     7
176
     1
 79
     5
176
     1
170
     0
176
     1
171
     0
176
     1
290
     0
176
     1
 93
        1
176
     1
 44
0.0
176
     1
173
     0
176
     1
1001
ACAD
1000
AcDbSavedByObjectVersion
1070
     0
  0
VISUALSTYLE
  5
40
102
{ACAD_XDICTIONARY
360
190
102
}
102
{ACAD_REACTORS
330
29
102
}
330
29
100
AcDbVisualStyle
  2
OverhangOff
 70
    21
177
     2
291
     1
 71
     2
176
     0
 72
     2
176
     0
 73
     0
176
     0
 90
        0
176
     0
 40
0.6
176
     0
 41
30.0
176
     0
 63
     7
421
 16777215
176
     0
 74
     1
176
     0
 91
        4
176
     0
 64
     7
176
     0
 65
   257
176
     0
 75
     1
176
     0
175
     1
176
     0
 42
1.0
176
     0
 92
        9
176
     2
 66
     7
176
     0
 43
1.0
176
     0
 76
     1
176
     0
 77
     6
176
     0
 78
     2
176
     0
 67
     7
176
     0
 79
     5
176
     0
170
     0
176
     0
171
     0
176
     0
290
     0
176
     0
 93
        1
176
     0
 44
0.0
176
     0
173
     0
176
     0
1001
ACAD
1000
AcDbSavedByObjectVersion
1070
     0
  0
VISUALSTYLE
  5
33
102
{ACAD_XDICTIONARY
360
176
102
}
102
{ACAD_REACTORS
330
29
102
}
330
29
100
AcDbVisualStyle
  2
Realistic
 70
     8
177
     2
291
     0
 71
     2
176
     1
 72
     3
176
     1
 73
     0
176
     1
 90
        2
176
     1
 40
0.6
176
     1
 41
30.0
176
     1
 63
     7
421
 16777215
176
     1
 74
     0
176
     1
 91
        0
176
     1
 64
     7
176
     1
 65
   257
176
     1
 75
     1
176
     1
175
     1
176
     1
 42
1.0
176
     1
 92
        8
176
     1
 66
   257
176
     1
 43
1.0
176
     1
 76
     1
176
     1
 77
     6
176
     1
 78
     2
176
     1
 67
     7
176
     1
 79
     3
176
     1
170
     0
176
     1
171
     0
176
     1
290
     0
176
     1
 93
       13
176
     1
 44
0.0
176
     1
173
     0
176
     1
1001
ACAD
1000
AcDbSavedByObjectVersion
1070
     0
  0
VISUALSTYLE
  5
3E
102
{ACAD_XDICTIONARY
360
18C
102
}
102
{ACAD_REACTORS
330
29
102
}
330
29
100
AcDbVisualStyle
  2
Shaded
 70
    27
177
     2
291
     0
 71
     2
176
     1
 72
     2
176
     1
 73
     1
176
     1
 90
        2
176
     1
 40
0.6
176
     1
 41
30.0
176
     1
 63
     7
421
 16777215
176
     1
 74
     0
176
     1
 91
        4
176
     1
 64
     7
176
     1
 65
   257
176
     1
 75
     1
176
     1
175
     1
176
     1
 42
1.0
176
     1
 92
        8
176
     1
 66
   257
176
     1
 43
1.0
176
     1
 76
     1
176
     1
 77
     6
176
     1
 78
     2
176
     1
 67
     8
425
  7895160
176
     1
 79
     3
176
     1
170
     0
176
     1
171
     0
176
     1
290
     0
176
     1
 93
        5
176
     1
 44
0.0
176
     1
173
     0
176
     1
1001
ACAD
1000
AcDbSavedByObjectVersion
1070
     0
  0
VISUALSTYLE
  5
3D
102
{ACAD_XDICTIONARY
360
18A
102
}
102
{ACAD_REACTORS
330
29
102
}
330
29
100
AcDbVisualStyle
  2
Shaded with edges
 70
    26
177
     2
291
     0
 71
     2
176
     1
 72
     2
176
     1
 73
     1
176
     1
 90
        2
176
     1
 40
0.6
176
     1
 41
30.0
176
     1
 63
     7
421
 16777215
176
     1
 74
     1
176
     1
 91
        2
176
     1
 64
     7
176
     1
 65
   257
176
     1
 75
     2
176
     1
175
     1
176
     1
 42
1.0
176
     1
 92
        8
176
     1
 66
   257
176
     1
 43
1.0
176
     1
 76
     1
176
     1
 77
     6
176
     1
 78
     2
176
     1
 67
     7
176
     1
 79
     3
176
     1
170
     0
176
     1
171
     0
176
     1
290
     0
176
     1
 93
        5
176
     1
 44
0.0
176
     1
173
     0
176
     1
1001
ACAD
1000
AcDbSavedByObjectVersion
1070
     0
  0
VISUALSTYLE
  5
3A
102
{ACAD_XDICTIONARY
360
184
102
}
102
{ACAD_REACTORS
330
29
102
}
330
29
100
AcDbVisualStyle
  2
Shades of Gray
 70
    23
177
     2
291
     0
 71
     2
176
     1
 72
     2
176
     1
 73
     3
176
     1
 90
        0
176
     1
 40
0.6
176
     1
 41
30.0
176
     1
 63
     7
421
 16777215
176
     1
 74
     2
176
     1
 91
        2
176
     1
 64
     7
176
     1
 65
     7
176
     1
 75
     1
176
     1
175
     1
176
     1
 42
40.0
176
     1
 92
        8
176
     1
 66
     7
176
     1
 43
1.0
176
     1
 76
     1
176
     1
 77
     6
176
     1
 78
     2
176
     1
 67
     7
176
     1
 79
     3
176
     1
170
     0
176
     1
171
     0
176
     1
290
     0
176
     1
 93
        1
176
     1
 44
0.0
176
     1
173
     0
176
     1
1001
ACAD
1000
AcDbSavedByObjectVersion
1070
     0
  0
VISUALSTYLE
  5
3B
102
{ACAD_XDICTIONARY
360
186
102
}
102
{ACAD_REACTORS
330
29
102
}
330
29
100
AcDbVisualStyle
  2
Sketchy
 70
    24
177
     2
291
     0
 71
     1
176
     1
 72
     2
176
     1
 73
     2
176
     1
 90
        0
176
     1
 40
0.6
176
     1
 41
30.0
176
     1
 63
     7
421
 16777215
176
     1
 74
     2
176
     1
 91
        2
176
     1
 64
     7
176
     1
 65
     7
176
     1
 75
     1
176
     1
175
     1
176
     1
 42
40.0
176
     1
 92
       11
176
     1
 66
     7
176
     1
 43
1.0
176
     1
 76
     1
176
     1
 77
     6
176
     1
 78
     2
176
     1
 67
     7
176
     1
 79
     6
176
     1
170
     0
176
     1
171
     0
176
     1
290
     0
176
     1
 93
        1
176
     1
 44
0.0
176
     1
173
     0
176
     1
1001
ACAD
1000
AcDbSavedByObjectVersion
1070
     0
  0
VISUALSTYLE
  5
36
102
{ACAD_XDICTIONARY
360
17C
102
}
102
{ACAD_REACTORS
330
29
102
}
330
29
100
AcDbVisualStyle
  2
Thicken
 70
    13
177
     2
291
     1
 71
     2
176
     1
 72
     2
176
     1
 73
     0
176
     1
 90
        0
176
     1
 40
0.6
176
     1
 41
30.0
176
     1
 63
     7
421
 16777215
176
     1
 74
     1
176
     1
 91
        4
176
     1
 64
     7
176
     1
 65
   257
176
     1
 75
     1
176
     1
175
     1
176
     1
 42
1.0
176
     1
 92
       12
176
     1
 66
     7
176
     1
 43
1.0
176
     1
 76
     1
176
     1
 77
     6
176
     1
 78
     2
176
     1
 67
     7
176
     1
 79
     5
176
     1
170
     0
176
     1
171
     0
176
     1
290
     0
176
     1
 93
        1
176
     1
 44
0.0
176
     1
173
     0
176
     1
1001
ACAD
1000
AcDbSavedByObjectVersion
1070
     0
  0
VISUALSTYLE
  5
30
102
{ACAD_XDICTIONARY
360
170
102
}
102
{ACAD_REACTORS
330
29
102
}
330
29
100
AcDbVisualStyle
  2
Wireframe
 70
     5
177
     2
291
     0
 71
     0
176
     1
 72
     2
176
     1
 73
     0
176
     1
 90
        0
176
     1
 40
0.6
176
     1
 41
30.0
176
     1
 63
     7
421
 16777215
176
     1
 74
     1
176
     1
 91
        4
176
     1
 64
     7
176
     1
 65
   257
176
     1
 75
     1
176
     1
175
     1
176
     1
 42
1.0
176
     1
 92
        0
176
     1
 66
   257
176
     1
 43
1.0
176
     1
 76
     1
176
     1
 77
     6
176
     1
 78
     2
176
     1
 67
     7
176
     1
 79
     3
176
     1
170
     0
176
     1
171
     0
176
     1
290
     0
176
     1
 93
        1
176
     1
 44
0.0
176
     1
173
     0
176
     1
1001
ACAD
1000
AcDbSavedByObjectVersion
1070
     0
  0
VISUALSTYLE
  5
3C
102
{ACAD_XDICTIONARY
360
188
102
}
102
{ACAD_REACTORS
330
29
102
}
330
29
100
AcDbVisualStyle
  2
X-Ray
 70
    25
177
     2
291
     0
 71
     2
176
     1
 72
     2
176
     1
 73
     1
176
     1
 90
        1
176
     1
 40
0.5
176
     1
 41
30.0
176
     1
 63
     7
421
 16777215
176
     1
 74
     1
176
     1
 91
        0
176
     1
 64
     7
176
     1
 65
   257
176
     1
 75
     1
176
     1
175
     1
176
     1
 42
1.0
176
     1
 92
        8
176
     1
 66
     7
176
     1
 43
1.0
176
     1
 76
     1
176
     1
 77
     6
176
     1
 78
     2
176
     1
 67
     7
176
     1
 79
     3
176
     1
170
     0
176
     1
171
     0
176
     1
290
     0
176
     1
 93
       13
176
     1
 44
0.0
176
     1
173
     0
176
     1
1001
ACAD
1000
AcDbSavedByObjectVersion
1070
     0
  0
DICTIONARYVAR
  5
160
102
{ACAD_REACTORS
330
15B
102
}
330
15B
100
DictionaryVariables
280
     0
  1
1:1
  0
DICTIONARYVAR
  5
15D
102
{ACAD_REACTORS
330
15B
102
}
330
15B
100
DictionaryVariables
280
     0
  1
STANDARD
  0
DICTIONARYVAR
  5
15C
102
{ACAD_REACTORS
330
15B
102
}
330
15B
100
DictionaryVariables
280
     0
  1
STANDARD
  0
DICTIONARYVAR
  5
15E
102
{ACAD_REACTORS
330
15B
102
}
330
15B
100
DictionaryVariables
280
     0
  1
Imperial24
  0
DICTIONARYVAR
  5
15F
102
{ACAD_REACTORS
330
15B
102
}
330
15B
100
DictionaryVariables
280
     0
  1
Imperial24
  0
DICTIONARY
  5
198
330
6B
100
AcDbDictionary
280
     1
281
     1
  3
ACAD_XREC_ROUNDTRIP
360
199
  0
DICTIONARY
  5
1A
330
19
100
AcDbDictionary
280
     1
281
     1
  3
BUMPTILE
360
1C
  3
DIFFUSETILE
360
1B
  3
OPACITYTILE
360
1F
  3
REFLECTIONTILE
360
1E
  3
REFRACTIONTILE
360
20
  3
SPECULARTILE
360
1D
  0
DICTIONARY
  5
12
330
11
100
AcDbDictionary
280
     1
281
     1
  3
BUMPTILE
360
14
  3
DIFFUSETILE
360
13
  3
OPACITYTILE
360
17
  3
REFLECTIONTILE
360
16
  3
REFRACTIONTILE
360
18
  3
SPECULARTILE
360
15
  0
DICTIONARY
  5
22
330
21
100
AcDbDictionary
280
     1
281
     1
  3
BUMPTILE
360
24
  3
DIFFUSETILE
360
23
  3
OPACITYTILE
360
27
  3
REFLECTIONTILE
360
26
  3
REFRACTIONTILE
360
28
  3
SPECULARTILE
360
25
  0
DICTIONARY
  5
194
330
67
100
AcDbDictionary
280
     1
281
     1
  3
ACAD_XREC_ROUNDTRIP
360
195
  0
DICTIONARY
  5
196
330
69
100
AcDbDictionary
280
     1
281
     1
  3
ACAD_XREC_ROUNDTRIP
360
197
  0
DICTIONARY
  5
161
330
65
100
AcDbDictionary
280
     1
281
     1
  3
ACAD_ROUNDTRIP_2008_TABLESTYLE_CELLSTYLEMAP
360
162
  0
DICTIONARY
  5
16E
330
2F
100
AcDbDictionary
280
     1
281
     1
  3
ACAD_XREC_ROUNDTRIP
360
16F
  0
DICTIONARY
  5
16C
330
2E
100
AcDbDictionary
280
     1
281
     1
  3
ACAD_XREC_ROUNDTRIP
360
16D
  0
DICTIONARY
  5
17A
330
35
100
AcDbDictionary
280
     1
281
     1
  3
ACAD_XREC_ROUNDTRIP
360
17B
  0
DICTIONARY
  5
182
330
39
100
AcDbDictionary
280
     1
281
     1
  3
ACAD_XREC_ROUNDTRIP
360
183
  0
DICTIONARY
  5
174
330
32
100
AcDbDictionary
280
     1
281
     1
  3
ACAD_XREC_ROUNDTRIP
360
175
  0
DICTIONARY
  5
178
330
34
100
AcDbDictionary
280
     1
281
     1
  3
ACAD_XREC_ROUNDTRIP
360
179
  0
DICTIONARY
  5
192
330
41
100
AcDbDictionary
280
     1
281
     1
  3
ACAD_XREC_ROUNDTRIP
360
193
  0
DICTIONARY
  5
180
330
38
100
AcDbDictionary
280
     1
281
     1
  3
ACAD_XREC_ROUNDTRIP
360
181
  0
DICTIONARY
  5
164
330
2A
100
AcDbDictionary
280
     1
281
     1
  3
ACAD_XREC_ROUNDTRIP
360
165
  0
DICTIONARY
  5
166
330
2B
100
AcDbDictionary
280
     1
281
     1
  3
ACAD_XREC_ROUNDTRIP
360
167
  0
DICTIONARY
  5
168
330
2C
100
AcDbDictionary
280
     1
281
     1
  3
ACAD_XREC_ROUNDTRIP
360
169
  0
DICTIONARY
  5
16A
330
2D
100
AcDbDictionary
280
     1
281
     1
  3
ACAD_XREC_ROUNDTRIP
360
16B
  0
DICTIONARY
  5
172
330
31
100
AcDbDictionary
280
     1
281
     1
  3
ACAD_XREC_ROUNDTRIP
360
173
  0
DICTIONARY
  5
18E
330
3F
100
AcDbDictionary
280
     1
281
     1
  3
ACAD_XREC_ROUNDTRIP
360
18F
  0
DICTIONARY
  5
17E
330
37
100
AcDbDictionary
280
     1
281
     1
  3
ACAD_XREC_ROUNDTRIP
360
17F
  0
DICTIONARY
  5
190
330
40
100
AcDbDictionary
280
     1
281
     1
  3
ACAD_XREC_ROUNDTRIP
360
191
  0
DICTIONARY
  5
176
330
33
100
AcDbDictionary
280
     1
281
     1
  3
ACAD_XREC_ROUNDTRIP
360
177
  0
DICTIONARY
  5
18C
330
3E
100
AcDbDictionary
280
     1
281
     1
  3
ACAD_XREC_ROUNDTRIP
360
18D
  0
DICTIONARY
  5
18A
330
3D
100
AcDbDictionary
280
     1
281
     1
  3
ACAD_XREC_ROUNDTRIP
360
18B
  0
DICTIONARY
  5
184
330
3A
100
AcDbDictionary
280
     1
281
     1
  3
ACAD_XREC_ROUNDTRIP
360
185
  0
DICTIONARY
  5
186
330
3B
100
AcDbDictionary
280
     1
281
     1
  3
ACAD_XREC_ROUNDTRIP
360
187
  0
DICTIONARY
  5
17C
330
36
100
AcDbDictionary
280
     1
281
     1
  3
ACAD_XREC_ROUNDTRIP
360
17D
  0
DICTIONARY
  5
170
330
30
100
AcDbDictionary
280
     1
281
     1
  3
ACAD_XREC_ROUNDTRIP
360
171
  0
DICTIONARY
  5
188
330
3C
100
AcDbDictionary
280
     1
281
     1
  3
ACAD_XREC_ROUNDTRIP
360
189
  0
XRECORD
  5
199
102
{ACAD_REACTORS
330
198
102
}
330
198
100
AcDbXrecord
280
     1
102
DISPLAYNAME
  1
Imperial24
102
FLAGS
 90
        0
  0
XRECORD
  5
1C
102
{ACAD_REACTORS
330
1A
102
}
330
1A
100
AcDbXrecord
280
     1
270
     1
271
     1
  0
XRECORD
  5
1B
102
{ACAD_REACTORS
330
1A
102
}
330
1A
100
AcDbXrecord
280
     1
270
     1
271
     1
  0
XRECORD
  5
1F
102
{ACAD_REACTORS
330
1A
102
}
330
1A
100
AcDbXrecord
280
     1
270
     1
271
     1
  0
XRECORD
  5
1E
102
{ACAD_REACTORS
330
1A
102
}
330
1A
100
AcDbXrecord
280
     1
270
     1
271
     1
  0
XRECORD
  5
20
102
{ACAD_REACTORS
330
1A
102
}
330
1A
100
AcDbXrecord
280
     1
270
     1
271
     1
  0
XRECORD
  5
1D
102
{ACAD_REACTORS
330
1A
102
}
330
1A
100
AcDbXrecord
280
     1
270
     1
271
     1
  0
XRECORD
  5
14
102
{ACAD_REACTORS
330
12
102
}
330
12
100
AcDbXrecord
280
     1
270
     1
271
     1
  0
XRECORD
  5
13
102
{ACAD_REACTORS
330
12
102
}
330
12
100
AcDbXrecord
280
     1
270
     1
271
     1
  0
XRECORD
  5
17
102
{ACAD_REACTORS
330
12
102
}
330
12
100
AcDbXrecord
280
     1
270
     1
271
     1
  0
XRECORD
  5
16
102
{ACAD_REACTORS
330
12
102
}
330
12
100
AcDbXrecord
280
     1
270
     1
271
     1
  0
XRECORD
  5
18
102
{ACAD_REACTORS
330
12
102
}
330
12
100
AcDbXrecord
280
     1
270
     1
271
     1
  0
XRECORD
  5
15
102
{ACAD_REACTORS
330
12
102
}
330
12
100
AcDbXrecord
280
     1
270
     1
271
     1
  0
XRECORD
  5
24
102
{ACAD_REACTORS
330
22
102
}
330
22
100
AcDbXrecord
280
     1
270
     1
271
     1
  0
XRECORD
  5
23
102
{ACAD_REACTORS
330
22
102
}
330
22
100
AcDbXrecord
280
     1
270
     1
271
     1
  0
XRECORD
  5
27
102
{ACAD_REACTORS
330
22
102
}
330
22
100
AcDbXrecord
280
     1
270
     1
271
     1
  0
XRECORD
  5
26
102
{ACAD_REACTORS
330
22
102
}
330
22
100
AcDbXrecord
280
     1
270
     1
271
     1
  0
XRECORD
  5
28
102
{ACAD_REACTORS
330
22
102
}
330
22
100
AcDbXrecord
280
     1
270
     1
271
     1
  0
XRECORD
  5
25
102
{ACAD_REACTORS
330
22
102
}
330
22
100
AcDbXrecord
280
     1
270
     1
271
     1
  0
XRECORD
  5
195
102
{ACAD_REACTORS
330
194
102
}
330
194
100
AcDbXrecord
280
     1
102
ACAD_ROUNDTRIP_2012_MLEADER_STYLE
298
     1
  0
XRECORD
  5
197
102
{ACAD_REACTORS
330
196
102
}
330
196
100
AcDbXrecord
280
     1
102
DISPLAYNAME
  1
Imperial24
102
FLAGS
 90
        0
  0
CELLSTYLEMAP
  5
162
102
{ACAD_REACTORS
330
161
102
}
330
161
100
AcDbCellStyleMap
 90
        3
300
CELLSTYLE
  1
TABLEFORMAT_BEGIN
 90
        5
170
     1
 91
        0
 92
    32768
 62
   257
 93
        1
300
CONTENTFORMAT
  1
CONTENTFORMAT_BEGIN
 90
        0
 91
        0
 92
      512
 93
        0
300

 40
0.0
140
1.0
 94
        5
 62
     0
340
55
144
0.25
309
CONTENTFORMAT_END
171
     0
 94
        0
309
TABLEFORMAT_END
  1
CELLSTYLE_BEGIN
 90
        1
 91
        1
300
_TITLE
309
CELLSTYLE_END
300
CELLSTYLE
  1
TABLEFORMAT_BEGIN
 90
        5
170
     1
 91
        0
 92
        0
 62
   257
 93
        1
300
CONTENTFORMAT
  1
CONTENTFORMAT_BEGIN
 90
        0
 91
        0
 92
      512
 93
        0
300

 40
0.0
140
1.0
 94
        5
 62
     0
340
55
144
0.18
309
CONTENTFORMAT_END
171
     0
 94
        0
309
TABLEFORMAT_END
  1
CELLSTYLE_BEGIN
 90
        2
 91
        1
300
_HEADER
309
CELLSTYLE_END
300
CELLSTYLE
  1
TABLEFORMAT_BEGIN
 90
        5
170
     1
 91
        0
 92
        0
 62
   257
 93
        1
300
CONTENTFORMAT
  1
CONTENTFORMAT_BEGIN
 90
        0
 91
        0
 92
      512
 93
        0
300

 40
0.0
140
1.0
 94
        2
 62
     0
340
55
144
0.18
309
CONTENTFORMAT_END
171
     0
 94
        0
309
TABLEFORMAT_END
  1
CELLSTYLE_BEGIN
 90
        3
 91
        2
300
_DATA
309
CELLSTYLE_END
  0
XRECORD
  5
16F
102
{ACAD_REACTORS
330
16E
102
}
330
16E
100
AcDbXrecord
280
     1
102
RTVSPost2010Prop28
280
     1
102
RTVSPost2010PropOp28
 70
     1
102
RTVSPost2010Prop29
280
     1
102
RTVSPost2010PropOp29
 70
     1
102
RTVSPost2010Prop30
280
     0
102
RTVSPost2010PropOp30
 70
     1
102
RTVSPost2010Prop31
280
     0
102
RTVSPost2010PropOp31
 70
     1
102
RTVSPost2010Prop32
280
     0
102
RTVSPost2010PropOp32
 70
     1
102
RTVSPost2010Prop33
280
     0
102
RTVSPost2010PropOp33
 70
     1
102
RTVSPost2010Prop34
280
     0
102
RTVSPost2010PropOp34
 70
     1
102
RTVSPost2010Prop35
280
     0
102
RTVSPost2010PropOp35
 70
     1
102
RTVSPost2010Prop36
280
     0
102
RTVSPost2010PropOp36
 70
     1
102
RTVSPost2010Prop37
 90
       50
102
RTVSPost2010PropOp37
 70
     1
102
RTVSPost2010Prop38
140
0.0
102
RTVSPost2010PropOp38
 70
     1
102
RTVSPost2010Prop39
140
1.0
102
RTVSPost2010PropOp39
 70
     1
102
RTVSPost2010Prop40
 90
        0
102
RTVSPost2010PropOp40
 70
     1
102
RTVSPost2010Prop41ColorIndex
 90
       18
102
RTVSPost2010Prop41ColorRGB
 90
        0
102
RTVSPost2010PropOp41
 70
     1
102
RTVSPost2010Prop42
 90
       50
102
RTVSPost2010PropOp42
 70
     1
102
RTVSPost2010Prop43
 90
        3
102
RTVSPost2010PropOp43
 70
     1
102
RTVSPost2010Prop44ColorIndex
 90
        5
102
RTVSPost2010Prop44ColorRGB
 90
      255
102
RTVSPost2010PropOp44
 70
     1
102
RTVSPost2010Prop45
280
     0
102
RTVSPost2010PropOp45
 70
     1
102
RTVSPost2010Prop46
 90
       50
102
RTVSPost2010PropOp46
 70
     1
102
RTVSPost2010Prop47
 90
       50
102
RTVSPost2010PropOp47
 70
     1
102
RTVSPost2010Prop48
 90
       50
102
RTVSPost2010PropOp48
 70
     1
102
RTVSPost2010Prop49
280
     0
102
RTVSPost2010PropOp49
 70
     1
102
RTVSPost2010Prop50
 90
       50
102
RTVSPost2010PropOp50
 70
     1
102
RTVSPost2010Prop51ColorIndex
 90
      256
102
RTVSPost2010Prop51ColorRGB
 90
-16777216
102
RTVSPost2010PropOp51
 70
     0
102
RTVSPost2010Prop52
140
1.0
102
RTVSPost2010PropOp52
 70
     0
102
RTVSPost2010Prop53
 90
        2
102
RTVSPost2010PropOp53
 70
     1
102
RTVSPost2010Prop54
  1
strokes_ogs.tif
102
RTVSPost2010PropOp54
 70
     1
102
RTVSPost2010Prop55
280
     0
102
RTVSPost2010PropOp55
 70
     1
102
RTVSPost2010Prop56
140
1.0
102
RTVSPost2010PropOp56
 70
     1
102
RTVSPost2010Prop57
140
1.0
102
RTVSPost2010PropOp57
 70
     1
  0
XRECORD
  5
16D
102
{ACAD_REACTORS
330
16C
102
}
330
16C
100
AcDbXrecord
280
     1
102
RTVSPost2010Prop28
280
     0
102
RTVSPost2010PropOp28
 70
     1
102
RTVSPost2010Prop29
280
     1
102
RTVSPost2010PropOp29
 70
     1
102
RTVSPost2010Prop30
280
     1
102
RTVSPost2010PropOp30
 70
     1
102
RTVSPost2010Prop31
280
     0
102
RTVSPost2010PropOp31
 70
     1
102
RTVSPost2010Prop32
280
     0
102
RTVSPost2010PropOp32
 70
     1
102
RTVSPost2010Prop33
280
     0
102
RTVSPost2010PropOp33
 70
     1
102
RTVSPost2010Prop34
280
     0
102
RTVSPost2010PropOp34
 70
     1
102
RTVSPost2010Prop35
280
     0
102
RTVSPost2010PropOp35
 70
     1
102
RTVSPost2010Prop36
280
     0
102
RTVSPost2010PropOp36
 70
     1
102
RTVSPost2010Prop37
 90
       50
102
RTVSPost2010PropOp37
 70
     1
102
RTVSPost2010Prop38
140
0.0
102
RTVSPost2010PropOp38
 70
     1
102
RTVSPost2010Prop39
140
1.0
102
RTVSPost2010PropOp39
 70
     1
102
RTVSPost2010Prop40
 90
        0
102
RTVSPost2010PropOp40
 70
     1
102
RTVSPost2010Prop41ColorIndex
 90
       18
102
RTVSPost2010Prop41ColorRGB
 90
        0
102
RTVSPost2010PropOp41
 70
     1
102
RTVSPost2010Prop42
 90
       50
102
RTVSPost2010PropOp42
 70
     1
102
RTVSPost2010Prop43
 90
        3
102
RTVSPost2010PropOp43
 70
     1
102
RTVSPost2010Prop44ColorIndex
 90
        5
102
RTVSPost2010Prop44ColorRGB
 90
      255
102
RTVSPost2010PropOp44
 70
     1
102
RTVSPost2010Prop45
280
     0
102
RTVSPost2010PropOp45
 70
     1
102
RTVSPost2010Prop46
 90
       50
102
RTVSPost2010PropOp46
 70
     1
102
RTVSPost2010Prop47
 90
       50
102
RTVSPost2010PropOp47
 70
     1
102
RTVSPost2010Prop48
 90
       50
102
RTVSPost2010PropOp48
 70
     1
102
RTVSPost2010Prop49
280
     0
102
RTVSPost2010PropOp49
 70
     1
102
RTVSPost2010Prop50
 90
       50
102
RTVSPost2010PropOp50
 70
     1
102
RTVSPost2010Prop51ColorIndex
 90
      256
102
RTVSPost2010Prop51ColorRGB
 90
-16777216
102
RTVSPost2010PropOp51
 70
     0
102
RTVSPost2010Prop52
140
1.0
102
RTVSPost2010PropOp52
 70
     0
102
RTVSPost2010Prop53
 90
        2
102
RTVSPost2010PropOp53
 70
     1
102
RTVSPost2010Prop54
  1
strokes_ogs.tif
102
RTVSPost2010PropOp54
 70
     1
102
RTVSPost2010Prop55
280
     0
102
RTVSPost2010PropOp55
 70
     1
102
RTVSPost2010Prop56
140
1.0
102
RTVSPost2010PropOp56
 70
     1
102
RTVSPost2010Prop57
140
1.0
102
RTVSPost2010PropOp57
 70
     1
  0
XRECORD
  5
17B
102
{ACAD_REACTORS
330
17A
102
}
330
17A
100
AcDbXrecord
280
     1
102
RTVSPost2010Prop28
280
     0
102
RTVSPost2010PropOp28
 70
     1
102
RTVSPost2010Prop29
280
     1
102
RTVSPost2010PropOp29
 70
     1
102
RTVSPost2010Prop30
280
     1
102
RTVSPost2010PropOp30
 70
     1
102
RTVSPost2010Prop31
280
     0
102
RTVSPost2010PropOp31
 70
     1
102
RTVSPost2010Prop32
280
     0
102
RTVSPost2010PropOp32
 70
     1
102
RTVSPost2010Prop33
280
     0
102
RTVSPost2010PropOp33
 70
     1
102
RTVSPost2010Prop34
280
     0
102
RTVSPost2010PropOp34
 70
     1
102
RTVSPost2010Prop35
280
     0
102
RTVSPost2010PropOp35
 70
     1
102
RTVSPost2010Prop36
280
     0
102
RTVSPost2010PropOp36
 70
     1
102
RTVSPost2010Prop37
 90
       50
102
RTVSPost2010PropOp37
 70
     1
102
RTVSPost2010Prop38
140
0.0
102
RTVSPost2010PropOp38
 70
     1
102
RTVSPost2010Prop39
140
1.0
102
RTVSPost2010PropOp39
 70
     1
102
RTVSPost2010Prop40
 90
        0
102
RTVSPost2010PropOp40
 70
     1
102
RTVSPost2010Prop41ColorIndex
 90
       18
102
RTVSPost2010Prop41ColorRGB
 90
        0
102
RTVSPost2010PropOp41
 70
     1
102
RTVSPost2010Prop42
 90
       50
102
RTVSPost2010PropOp42
 70
     1
102
RTVSPost2010Prop43
 90
        3
102
RTVSPost2010PropOp43
 70
     1
102
RTVSPost2010Prop44ColorIndex
 90
        5
102
RTVSPost2010Prop44ColorRGB
 90
      255
102
RTVSPost2010PropOp44
 70
     1
102
RTVSPost2010Prop45
280
     0
102
RTVSPost2010PropOp45
 70
     1
102
RTVSPost2010Prop46
 90
       50
102
RTVSPost2010PropOp46
 70
     1
102
RTVSPost2010Prop47
 90
       50
102
RTVSPost2010PropOp47
 70
     1
102
RTVSPost2010Prop48
 90
       50
102
RTVSPost2010PropOp48
 70
     1
102
RTVSPost2010Prop49
280
     0
102
RTVSPost2010PropOp49
 70
     1
102
RTVSPost2010Prop50
 90
       50
102
RTVSPost2010PropOp50
 70
     1
102
RTVSPost2010Prop51ColorIndex
 90
      256
102
RTVSPost2010Prop51ColorRGB
 90
-16777216
102
RTVSPost2010PropOp51
 70
     0
102
RTVSPost2010Prop52
140
1.0
102
RTVSPost2010PropOp52
 70
     0
102
RTVSPost2010Prop53
 90
        2
102
RTVSPost2010PropOp53
 70
     1
102
RTVSPost2010Prop54
  1
strokes_ogs.tif
102
RTVSPost2010PropOp54
 70
     1
102
RTVSPost2010Prop55
280
     0
102
RTVSPost2010PropOp55
 70
     1
102
RTVSPost2010Prop56
140
1.0
102
RTVSPost2010PropOp56
 70
     1
102
RTVSPost2010Prop57
140
1.0
102
RTVSPost2010PropOp57
 70
     1
  0
XRECORD
  5
183
102
{ACAD_REACTORS
330
182
102
}
330
182
100
AcDbXrecord
280
     1
102
RTVSPost2010Prop28
280
     0
102
RTVSPost2010PropOp28
 70
     1
102
RTVSPost2010Prop29
280
     1
102
RTVSPost2010PropOp29
 70
     1
102
RTVSPost2010Prop30
280
     1
102
RTVSPost2010PropOp30
 70
     1
102
RTVSPost2010Prop31
280
     0
102
RTVSPost2010PropOp31
 70
     1
102
RTVSPost2010Prop32
280
     0
102
RTVSPost2010PropOp32
 70
     1
102
RTVSPost2010Prop33
280
     0
102
RTVSPost2010PropOp33
 70
     1
102
RTVSPost2010Prop34
280
     0
102
RTVSPost2010PropOp34
 70
     1
102
RTVSPost2010Prop35
280
     0
102
RTVSPost2010PropOp35
 70
     1
102
RTVSPost2010Prop36
280
     0
102
RTVSPost2010PropOp36
 70
     1
102
RTVSPost2010Prop37
 90
       50
102
RTVSPost2010PropOp37
 70
     1
102
RTVSPost2010Prop38
140
0.0
102
RTVSPost2010PropOp38
 70
     1
102
RTVSPost2010Prop39
140
1.0
102
RTVSPost2010PropOp39
 70
     1
102
RTVSPost2010Prop40
 90
        0
102
RTVSPost2010PropOp40
 70
     1
102
RTVSPost2010Prop41ColorIndex
 90
       18
102
RTVSPost2010Prop41ColorRGB
 90
        0
102
RTVSPost2010PropOp41
 70
     1
102
RTVSPost2010Prop42
 90
       50
102
RTVSPost2010PropOp42
 70
     1
102
RTVSPost2010Prop43
 90
        3
102
RTVSPost2010PropOp43
 70
     1
102
RTVSPost2010Prop44ColorIndex
 90
        5
102
RTVSPost2010Prop44ColorRGB
 90
      255
102
RTVSPost2010PropOp44
 70
     1
102
RTVSPost2010Prop45
280
     0
102
RTVSPost2010PropOp45
 70
     1
102
RTVSPost2010Prop46
 90
       50
102
RTVSPost2010PropOp46
 70
     1
102
RTVSPost2010Prop47
 90
       50
102
RTVSPost2010PropOp47
 70
     1
102
RTVSPost2010Prop48
 90
       50
102
RTVSPost2010PropOp48
 70
     1
102
RTVSPost2010Prop49
280
     0
102
RTVSPost2010PropOp49
 70
     1
102
RTVSPost2010Prop50
 90
       50
102
RTVSPost2010PropOp50
 70
     1
102
RTVSPost2010Prop51ColorIndex
 90
      256
102
RTVSPost2010Prop51ColorRGB
 90
-16777216
102
RTVSPost2010PropOp51
 70
     0
102
RTVSPost2010Prop52
140
1.0
102
RTVSPost2010PropOp52
 70
     0
102
RTVSPost2010Prop53
 90
        2
102
RTVSPost2010PropOp53
 70
     1
102
RTVSPost2010Prop54
  1
strokes_ogs.tif
102
RTVSPost2010PropOp54
 70
     1
102
RTVSPost2010Prop55
280
     0
102
RTVSPost2010PropOp55
 70
     1
102
RTVSPost2010Prop56
140
1.0
102
RTVSPost2010PropOp56
 70
     1
102
RTVSPost2010Prop57
140
1.0
102
RTVSPost2010PropOp57
 70
     1
  0
XRECORD
  5
175
102
{ACAD_REACTORS
330
174
102
}
330
174
100
AcDbXrecord
280
     1
102
RTVSPost2010Prop28
280
     0
102
RTVSPost2010PropOp28
 70
     1
102
RTVSPost2010Prop29
280
     1
102
RTVSPost2010PropOp29
 70
     1
102
RTVSPost2010Prop30
280
     1
102
RTVSPost2010PropOp30
 70
     1
102
RTVSPost2010Prop31
280
     0
102
RTVSPost2010PropOp31
 70
     1
102
RTVSPost2010Prop32
280
     0
102
RTVSPost2010PropOp32
 70
     1
102
RTVSPost2010Prop33
280
     0
102
RTVSPost2010PropOp33
 70
     1
102
RTVSPost2010Prop34
280
     0
102
RTVSPost2010PropOp34
 70
     1
102
RTVSPost2010Prop35
280
     0
102
RTVSPost2010PropOp35
 70
     1
102
RTVSPost2010Prop36
280
     0
102
RTVSPost2010PropOp36
 70
     1
102
RTVSPost2010Prop37
 90
       50
102
RTVSPost2010PropOp37
 70
     1
102
RTVSPost2010Prop38
140
0.0
102
RTVSPost2010PropOp38
 70
     1
102
RTVSPost2010Prop39
140
1.0
102
RTVSPost2010PropOp39
 70
     1
102
RTVSPost2010Prop40
 90
        0
102
RTVSPost2010PropOp40
 70
     1
102
RTVSPost2010Prop41ColorIndex
 90
       18
102
RTVSPost2010Prop41ColorRGB
 90
        0
102
RTVSPost2010PropOp41
 70
     1
102
RTVSPost2010Prop42
 90
       50
102
RTVSPost2010PropOp42
 70
     1
102
RTVSPost2010Prop43
 90
        3
102
RTVSPost2010PropOp43
 70
     1
102
RTVSPost2010Prop44ColorIndex
 90
        5
102
RTVSPost2010Prop44ColorRGB
 90
      255
102
RTVSPost2010PropOp44
 70
     1
102
RTVSPost2010Prop45
280
     0
102
RTVSPost2010PropOp45
 70
     1
102
RTVSPost2010Prop46
 90
       50
102
RTVSPost2010PropOp46
 70
     1
102
RTVSPost2010Prop47
 90
       50
102
RTVSPost2010PropOp47
 70
     1
102
RTVSPost2010Prop48
 90
       50
102
RTVSPost2010PropOp48
 70
     1
102
RTVSPost2010Prop49
280
     0
102
RTVSPost2010PropOp49
 70
     1
102
RTVSPost2010Prop50
 90
       50
102
RTVSPost2010PropOp50
 70
     1
102
RTVSPost2010Prop51ColorIndex
 90
      256
102
RTVSPost2010Prop51ColorRGB
 90
-16777216
102
RTVSPost2010PropOp51
 70
     0
102
RTVSPost2010Prop52
140
1.0
102
RTVSPost2010PropOp52
 70
     0
102
RTVSPost2010Prop53
 90
        2
102
RTVSPost2010PropOp53
 70
     1
102
RTVSPost2010Prop54
  1
strokes_ogs.tif
102
RTVSPost2010PropOp54
 70
     1
102
RTVSPost2010Prop55
280
     0
102
RTVSPost2010PropOp55
 70
     1
102
RTVSPost2010Prop56
140
1.0
102
RTVSPost2010PropOp56
 70
     1
102
RTVSPost2010Prop57
140
1.0
102
RTVSPost2010PropOp57
 70
     1
  0
XRECORD
  5
179
102
{ACAD_REACTORS
330
178
102
}
330
178
100
AcDbXrecord
280
     1
102
RTVSPost2010Prop28
280
     0
102
RTVSPost2010PropOp28
 70
     1
102
RTVSPost2010Prop29
280
     1
102
RTVSPost2010PropOp29
 70
     1
102
RTVSPost2010Prop30
280
     1
102
RTVSPost2010PropOp30
 70
     1
102
RTVSPost2010Prop31
280
     0
102
RTVSPost2010PropOp31
 70
     1
102
RTVSPost2010Prop32
280
     0
102
RTVSPost2010PropOp32
 70
     1
102
RTVSPost2010Prop33
280
     0
102
RTVSPost2010PropOp33
 70
     1
102
RTVSPost2010Prop34
280
     0
102
RTVSPost2010PropOp34
 70
     1
102
RTVSPost2010Prop35
280
     0
102
RTVSPost2010PropOp35
 70
     1
102
RTVSPost2010Prop36
280
     0
102
RTVSPost2010PropOp36
 70
     1
102
RTVSPost2010Prop37
 90
       50
102
RTVSPost2010PropOp37
 70
     1
102
RTVSPost2010Prop38
140
0.0
102
RTVSPost2010PropOp38
 70
     1
102
RTVSPost2010Prop39
140
1.0
102
RTVSPost2010PropOp39
 70
     1
102
RTVSPost2010Prop40
 90
        0
102
RTVSPost2010PropOp40
 70
     1
102
RTVSPost2010Prop41ColorIndex
 90
       18
102
RTVSPost2010Prop41ColorRGB
 90
        0
102
RTVSPost2010PropOp41
 70
     1
102
RTVSPost2010Prop42
 90
       50
102
RTVSPost2010PropOp42
 70
     1
102
RTVSPost2010Prop43
 90
        3
102
RTVSPost2010PropOp43
 70
     1
102
RTVSPost2010Prop44ColorIndex
 90
        5
102
RTVSPost2010Prop44ColorRGB
 90
      255
102
RTVSPost2010PropOp44
 70
     1
102
RTVSPost2010Prop45
280
     0
102
RTVSPost2010PropOp45
 70
     1
102
RTVSPost2010Prop46
 90
       50
102
RTVSPost2010PropOp46
 70
     1
102
RTVSPost2010Prop47
 90
       50
102
RTVSPost2010PropOp47
 70
     1
102
RTVSPost2010Prop48
 90
       50
102
RTVSPost2010PropOp48
 70
     1
102
RTVSPost2010Prop49
280
     0
102
RTVSPost2010PropOp49
 70
     1
102
RTVSPost2010Prop50
 90
       50
102
RTVSPost2010PropOp50
 70
     1
102
RTVSPost2010Prop51ColorIndex
 90
      256
102
RTVSPost2010Prop51ColorRGB
 90
-16777216
102
RTVSPost2010PropOp51
 70
     0
102
RTVSPost2010Prop52
140
1.0
102
RTVSPost2010PropOp52
 70
     0
102
RTVSPost2010Prop53
 90
        2
102
RTVSPost2010PropOp53
 70
     1
102
RTVSPost2010Prop54
  1
strokes_ogs.tif
102
RTVSPost2010PropOp54
 70
     1
102
RTVSPost2010Prop55
280
     0
102
RTVSPost2010PropOp55
 70
     1
102
RTVSPost2010Prop56
140
1.0
102
RTVSPost2010PropOp56
 70
     1
102
RTVSPost2010Prop57
140
1.0
102
RTVSPost2010PropOp57
 70
     1
  0
XRECORD
  5
193
102
{ACAD_REACTORS
330
192
102
}
330
192
100
AcDbXrecord
280
     1
102
RTVSPost2010Prop28
280
     0
102
RTVSPost2010PropOp28
 70
     0
102
RTVSPost2010Prop29
280
     1
102
RTVSPost2010PropOp29
 70
     0
102
RTVSPost2010Prop30
280
     1
102
RTVSPost2010PropOp30
 70
     0
102
RTVSPost2010Prop31
280
     0
102
RTVSPost2010PropOp31
 70
     0
102
RTVSPost2010Prop32
280
     0
102
RTVSPost2010PropOp32
 70
     0
102
RTVSPost2010Prop33
280
     0
102
RTVSPost2010PropOp33
 70
     0
102
RTVSPost2010Prop34
280
     0
102
RTVSPost2010PropOp34
 70
     0
102
RTVSPost2010Prop35
280
     0
102
RTVSPost2010PropOp35
 70
     0
102
RTVSPost2010Prop36
280
     0
102
RTVSPost2010PropOp36
 70
     0
102
RTVSPost2010Prop37
 90
       50
102
RTVSPost2010PropOp37
 70
     0
102
RTVSPost2010Prop38
140
0.0
102
RTVSPost2010PropOp38
 70
     0
102
RTVSPost2010Prop39
140
1.0
102
RTVSPost2010PropOp39
 70
     0
102
RTVSPost2010Prop40
 90
        0
102
RTVSPost2010PropOp40
 70
     0
102
RTVSPost2010Prop41ColorIndex
 90
       18
102
RTVSPost2010Prop41ColorRGB
 90
        0
102
RTVSPost2010PropOp41
 70
     0
102
RTVSPost2010Prop42
 90
       50
102
RTVSPost2010PropOp42
 70
     0
102
RTVSPost2010Prop43
 90
        3
102
RTVSPost2010PropOp43
 70
     0
102
RTVSPost2010Prop44ColorIndex
 90
        5
102
RTVSPost2010Prop44ColorRGB
 90
      255
102
RTVSPost2010PropOp44
 70
     0
102
RTVSPost2010Prop45
280
     0
102
RTVSPost2010PropOp45
 70
     0
102
RTVSPost2010Prop46
 90
       50
102
RTVSPost2010PropOp46
 70
     0
102
RTVSPost2010Prop47
 90
       50
102
RTVSPost2010PropOp47
 70
     0
102
RTVSPost2010Prop48
 90
       50
102
RTVSPost2010PropOp48
 70
     0
102
RTVSPost2010Prop49
280
     0
102
RTVSPost2010PropOp49
 70
     0
102
RTVSPost2010Prop50
 90
       50
102
RTVSPost2010PropOp50
 70
     0
102
RTVSPost2010Prop51ColorIndex
 90
      256
102
RTVSPost2010Prop51ColorRGB
 90
-16777216
102
RTVSPost2010PropOp51
 70
     0
102
RTVSPost2010Prop52
140
1.0
102
RTVSPost2010PropOp52
 70
     0
102
RTVSPost2010Prop53
 90
        2
102
RTVSPost2010PropOp53
 70
     0
102
RTVSPost2010Prop54
  1
strokes_ogs.tif
102
RTVSPost2010PropOp54
 70
     0
102
RTVSPost2010Prop55
280
     0
102
RTVSPost2010PropOp55
 70
     0
102
RTVSPost2010Prop56
140
1.0
102
RTVSPost2010PropOp56
 70
     0
102
RTVSPost2010Prop57
140
1.0
102
RTVSPost2010PropOp57
 70
     0
  0
XRECORD
  5
181
102
{ACAD_REACTORS
330
180
102
}
330
180
100
AcDbXrecord
280
     1
102
RTVSPost2010Prop28
280
     0
102
RTVSPost2010PropOp28
 70
     1
102
RTVSPost2010Prop29
280
     1
102
RTVSPost2010PropOp29
 70
     1
102
RTVSPost2010Prop30
280
     1
102
RTVSPost2010PropOp30
 70
     1
102
RTVSPost2010Prop31
280
     0
102
RTVSPost2010PropOp31
 70
     1
102
RTVSPost2010Prop32
280
     0
102
RTVSPost2010PropOp32
 70
     1
102
RTVSPost2010Prop33
280
     0
102
RTVSPost2010PropOp33
 70
     1
102
RTVSPost2010Prop34
280
     0
102
RTVSPost2010PropOp34
 70
     1
102
RTVSPost2010Prop35
280
     0
102
RTVSPost2010PropOp35
 70
     1
102
RTVSPost2010Prop36
280
     0
102
RTVSPost2010PropOp36
 70
     1
102
RTVSPost2010Prop37
 90
       50
102
RTVSPost2010PropOp37
 70
     1
102
RTVSPost2010Prop38
140
0.0
102
RTVSPost2010PropOp38
 70
     1
102
RTVSPost2010Prop39
140
1.0
102
RTVSPost2010PropOp39
 70
     1
102
RTVSPost2010Prop40
 90
        0
102
RTVSPost2010PropOp40
 70
     1
102
RTVSPost2010Prop41ColorIndex
 90
       18
102
RTVSPost2010Prop41ColorRGB
 90
        0
102
RTVSPost2010PropOp41
 70
     1
102
RTVSPost2010Prop42
 90
       50
102
RTVSPost2010PropOp42
 70
     1
102
RTVSPost2010Prop43
 90
        3
102
RTVSPost2010PropOp43
 70
     1
102
RTVSPost2010Prop44ColorIndex
 90
        5
102
RTVSPost2010Prop44ColorRGB
 90
      255
102
RTVSPost2010PropOp44
 70
     1
102
RTVSPost2010Prop45
280
     0
102
RTVSPost2010PropOp45
 70
     1
102
RTVSPost2010Prop46
 90
       50
102
RTVSPost2010PropOp46
 70
     1
102
RTVSPost2010Prop47
 90
       50
102
RTVSPost2010PropOp47
 70
     1
102
RTVSPost2010Prop48
 90
       50
102
RTVSPost2010PropOp48
 70
     1
102
RTVSPost2010Prop49
280
     0
102
RTVSPost2010PropOp49
 70
     1
102
RTVSPost2010Prop50
 90
       50
102
RTVSPost2010PropOp50
 70
     1
102
RTVSPost2010Prop51ColorIndex
 90
      256
102
RTVSPost2010Prop51ColorRGB
 90
-16777216
102
RTVSPost2010PropOp51
 70
     0
102
RTVSPost2010Prop52
140
1.0
102
RTVSPost2010PropOp52
 70
     0
102
RTVSPost2010Prop53
 90
        2
102
RTVSPost2010PropOp53
 70
     1
102
RTVSPost2010Prop54
  1
strokes_ogs.tif
102
RTVSPost2010PropOp54
 70
     1
102
RTVSPost2010Prop55
280
     0
102
RTVSPost2010PropOp55
 70
     1
102
RTVSPost2010Prop56
140
1.0
102
RTVSPost2010PropOp56
 70
     1
102
RTVSPost2010Prop57
140
1.0
102
RTVSPost2010PropOp57
 70
     1
  0
XRECORD
  5
165
102
{ACAD_REACTORS
330
164
102
}
330
164
100
AcDbXrecord
280
     1
102
RTVSPost2010Prop28
280
     0
102
RTVSPost2010PropOp28
 70
     1
102
RTVSPost2010Prop29
280
     1
102
RTVSPost2010PropOp29
 70
     1
102
RTVSPost2010Prop30
280
     1
102
RTVSPost2010PropOp30
 70
     1
102
RTVSPost2010Prop31
280
     0
102
RTVSPost2010PropOp31
 70
     1
102
RTVSPost2010Prop32
280
     0
102
RTVSPost2010PropOp32
 70
     1
102
RTVSPost2010Prop33
280
     0
102
RTVSPost2010PropOp33
 70
     1
102
RTVSPost2010Prop34
280
     0
102
RTVSPost2010PropOp34
 70
     1
102
RTVSPost2010Prop35
280
     0
102
RTVSPost2010PropOp35
 70
     1
102
RTVSPost2010Prop36
280
     0
102
RTVSPost2010PropOp36
 70
     1
102
RTVSPost2010Prop37
 90
       50
102
RTVSPost2010PropOp37
 70
     1
102
RTVSPost2010Prop38
140
0.0
102
RTVSPost2010PropOp38
 70
     1
102
RTVSPost2010Prop39
140
1.0
102
RTVSPost2010PropOp39
 70
     1
102
RTVSPost2010Prop40
 90
        0
102
RTVSPost2010PropOp40
 70
     1
102
RTVSPost2010Prop41ColorIndex
 90
       18
102
RTVSPost2010Prop41ColorRGB
 90
        0
102
RTVSPost2010PropOp41
 70
     1
102
RTVSPost2010Prop42
 90
       50
102
RTVSPost2010PropOp42
 70
     1
102
RTVSPost2010Prop43
 90
        3
102
RTVSPost2010PropOp43
 70
     1
102
RTVSPost2010Prop44ColorIndex
 90
        5
102
RTVSPost2010Prop44ColorRGB
 90
      255
102
RTVSPost2010PropOp44
 70
     1
102
RTVSPost2010Prop45
280
     0
102
RTVSPost2010PropOp45
 70
     1
102
RTVSPost2010Prop46
 90
       50
102
RTVSPost2010PropOp46
 70
     1
102
RTVSPost2010Prop47
 90
       50
102
RTVSPost2010PropOp47
 70
     1
102
RTVSPost2010Prop48
 90
       50
102
RTVSPost2010PropOp48
 70
     1
102
RTVSPost2010Prop49
280
     0
102
RTVSPost2010PropOp49
 70
     1
102
RTVSPost2010Prop50
 90
       50
102
RTVSPost2010PropOp50
 70
     1
102
RTVSPost2010Prop51ColorIndex
 90
      256
102
RTVSPost2010Prop51ColorRGB
 90
-16777216
102
RTVSPost2010PropOp51
 70
     0
102
RTVSPost2010Prop52
140
1.0
102
RTVSPost2010PropOp52
 70
     0
102
RTVSPost2010Prop53
 90
        2
102
RTVSPost2010PropOp53
 70
     1
102
RTVSPost2010Prop54
  1
strokes_ogs.tif
102
RTVSPost2010PropOp54
 70
     1
102
RTVSPost2010Prop55
280
     0
102
RTVSPost2010PropOp55
 70
     1
102
RTVSPost2010Prop56
140
1.0
102
RTVSPost2010PropOp56
 70
     1
102
RTVSPost2010Prop57
140
1.0
102
RTVSPost2010PropOp57
 70
     1
  0
XRECORD
  5
167
102
{ACAD_REACTORS
330
166
102
}
330
166
100
AcDbXrecord
280
     1
102
RTVSPost2010Prop28
280
     0
102
RTVSPost2010PropOp28
 70
     1
102
RTVSPost2010Prop29
280
     1
102
RTVSPost2010PropOp29
 70
     1
102
RTVSPost2010Prop30
280
     1
102
RTVSPost2010PropOp30
 70
     1
102
RTVSPost2010Prop31
280
     0
102
RTVSPost2010PropOp31
 70
     1
102
RTVSPost2010Prop32
280
     0
102
RTVSPost2010PropOp32
 70
     1
102
RTVSPost2010Prop33
280
     0
102
RTVSPost2010PropOp33
 70
     1
102
RTVSPost2010Prop34
280
     0
102
RTVSPost2010PropOp34
 70
     1
102
RTVSPost2010Prop35
280
     0
102
RTVSPost2010PropOp35
 70
     1
102
RTVSPost2010Prop36
280
     0
102
RTVSPost2010PropOp36
 70
     1
102
RTVSPost2010Prop37
 90
       50
102
RTVSPost2010PropOp37
 70
     1
102
RTVSPost2010Prop38
140
0.0
102
RTVSPost2010PropOp38
 70
     1
102
RTVSPost2010Prop39
140
1.0
102
RTVSPost2010PropOp39
 70
     1
102
RTVSPost2010Prop40
 90
        0
102
RTVSPost2010PropOp40
 70
     1
102
RTVSPost2010Prop41ColorIndex
 90
       18
102
RTVSPost2010Prop41ColorRGB
 90
        0
102
RTVSPost2010PropOp41
 70
     1
102
RTVSPost2010Prop42
 90
       50
102
RTVSPost2010PropOp42
 70
     1
102
RTVSPost2010Prop43
 90
        3
102
RTVSPost2010PropOp43
 70
     1
102
RTVSPost2010Prop44ColorIndex
 90
        5
102
RTVSPost2010Prop44ColorRGB
 90
      255
102
RTVSPost2010PropOp44
 70
     1
102
RTVSPost2010Prop45
280
     0
102
RTVSPost2010PropOp45
 70
     1
102
RTVSPost2010Prop46
 90
       50
102
RTVSPost2010PropOp46
 70
     1
102
RTVSPost2010Prop47
 90
       50
102
RTVSPost2010PropOp47
 70
     1
102
RTVSPost2010Prop48
 90
       50
102
RTVSPost2010PropOp48
 70
     1
102
RTVSPost2010Prop49
280
     0
102
RTVSPost2010PropOp49
 70
     1
102
RTVSPost2010Prop50
 90
       50
102
RTVSPost2010PropOp50
 70
     1
102
RTVSPost2010Prop51ColorIndex
 90
      256
102
RTVSPost2010Prop51ColorRGB
 90
-16777216
102
RTVSPost2010PropOp51
 70
     0
102
RTVSPost2010Prop52
140
1.0
102
RTVSPost2010PropOp52
 70
     0
102
RTVSPost2010Prop53
 90
        2
102
RTVSPost2010PropOp53
 70
     1
102
RTVSPost2010Prop54
  1
strokes_ogs.tif
102
RTVSPost2010PropOp54
 70
     1
102
RTVSPost2010Prop55
280
     0
102
RTVSPost2010PropOp55
 70
     1
102
RTVSPost2010Prop56
140
1.0
102
RTVSPost2010PropOp56
 70
     1
102
RTVSPost2010Prop57
140
1.0
102
RTVSPost2010PropOp57
 70
     1
  0
XRECORD
  5
169
102
{ACAD_REACTORS
330
168
102
}
330
168
100
AcDbXrecord
280
     1
102
RTVSPost2010Prop28
280
     0
102
RTVSPost2010PropOp28
 70
     1
102
RTVSPost2010Prop29
280
     1
102
RTVSPost2010PropOp29
 70
     1
102
RTVSPost2010Prop30
280
     1
102
RTVSPost2010PropOp30
 70
     1
102
RTVSPost2010Prop31
280
     0
102
RTVSPost2010PropOp31
 70
     1
102
RTVSPost2010Prop32
280
     0
102
RTVSPost2010PropOp32
 70
     1
102
RTVSPost2010Prop33
280
     0
102
RTVSPost2010PropOp33
 70
     1
102
RTVSPost2010Prop34
280
     0
102
RTVSPost2010PropOp34
 70
     1
102
RTVSPost2010Prop35
280
     0
102
RTVSPost2010PropOp35
 70
     1
102
RTVSPost2010Prop36
280
     0
102
RTVSPost2010PropOp36
 70
     1
102
RTVSPost2010Prop37
 90
       50
102
RTVSPost2010PropOp37
 70
     1
102
RTVSPost2010Prop38
140
0.0
102
RTVSPost2010PropOp38
 70
     1
102
RTVSPost2010Prop39
140
1.0
102
RTVSPost2010PropOp39
 70
     1
102
RTVSPost2010Prop40
 90
        0
102
RTVSPost2010PropOp40
 70
     1
102
RTVSPost2010Prop41ColorIndex
 90
       18
102
RTVSPost2010Prop41ColorRGB
 90
        0
102
RTVSPost2010PropOp41
 70
     1
102
RTVSPost2010Prop42
 90
       50
102
RTVSPost2010PropOp42
 70
     1
102
RTVSPost2010Prop43
 90
        3
102
RTVSPost2010PropOp43
 70
     1
102
RTVSPost2010Prop44ColorIndex
 90
        5
102
RTVSPost2010Prop44ColorRGB
 90
      255
102
RTVSPost2010PropOp44
 70
     1
102
RTVSPost2010Prop45
280
     0
102
RTVSPost2010PropOp45
 70
     1
102
RTVSPost2010Prop46
 90
       50
102
RTVSPost2010PropOp46
 70
     1
102
RTVSPost2010Prop47
 90
       50
102
RTVSPost2010PropOp47
 70
     1
102
RTVSPost2010Prop48
 90
       50
102
RTVSPost2010PropOp48
 70
     1
102
RTVSPost2010Prop49
280
     0
102
RTVSPost2010PropOp49
 70
     1
102
RTVSPost2010Prop50
 90
       50
102
RTVSPost2010PropOp50
 70
     1
102
RTVSPost2010Prop51ColorIndex
 90
      256
102
RTVSPost2010Prop51ColorRGB
 90
-16777216
102
RTVSPost2010PropOp51
 70
     0
102
RTVSPost2010Prop52
140
1.0
102
RTVSPost2010PropOp52
 70
     0
102
RTVSPost2010Prop53
 90
        2
102
RTVSPost2010PropOp53
 70
     1
102
RTVSPost2010Prop54
  1
strokes_ogs.tif
102
RTVSPost2010PropOp54
 70
     1
102
RTVSPost2010Prop55
280
     0
102
RTVSPost2010PropOp55
 70
     1
102
RTVSPost2010Prop56
140
1.0
102
RTVSPost2010PropOp56
 70
     1
102
RTVSPost2010Prop57
140
1.0
102
RTVSPost2010PropOp57
 70
     1
  0
XRECORD
  5
16B
102
{ACAD_REACTORS
330
16A
102
}
330
16A
100
AcDbXrecord
280
     1
102
RTVSPost2010Prop28
280
     0
102
RTVSPost2010PropOp28
 70
     1
102
RTVSPost2010Prop29
280
     1
102
RTVSPost2010PropOp29
 70
     1
102
RTVSPost2010Prop30
280
     1
102
RTVSPost2010PropOp30
 70
     1
102
RTVSPost2010Prop31
280
     0
102
RTVSPost2010PropOp31
 70
     1
102
RTVSPost2010Prop32
280
     0
102
RTVSPost2010PropOp32
 70
     1
102
RTVSPost2010Prop33
280
     0
102
RTVSPost2010PropOp33
 70
     1
102
RTVSPost2010Prop34
280
     0
102
RTVSPost2010PropOp34
 70
     1
102
RTVSPost2010Prop35
280
     0
102
RTVSPost2010PropOp35
 70
     1
102
RTVSPost2010Prop36
280
     0
102
RTVSPost2010PropOp36
 70
     1
102
RTVSPost2010Prop37
 90
       50
102
RTVSPost2010PropOp37
 70
     1
102
RTVSPost2010Prop38
140
0.0
102
RTVSPost2010PropOp38
 70
     1
102
RTVSPost2010Prop39
140
1.0
102
RTVSPost2010PropOp39
 70
     1
102
RTVSPost2010Prop40
 90
        0
102
RTVSPost2010PropOp40
 70
     1
102
RTVSPost2010Prop41ColorIndex
 90
       18
102
RTVSPost2010Prop41ColorRGB
 90
        0
102
RTVSPost2010PropOp41
 70
     1
102
RTVSPost2010Prop42
 90
       50
102
RTVSPost2010PropOp42
 70
     1
102
RTVSPost2010Prop43
 90
        3
102
RTVSPost2010PropOp43
 70
     1
102
RTVSPost2010Prop44ColorIndex
 90
        5
102
RTVSPost2010Prop44ColorRGB
 90
      255
102
RTVSPost2010PropOp44
 70
     1
102
RTVSPost2010Prop45
280
     0
102
RTVSPost2010PropOp45
 70
     1
102
RTVSPost2010Prop46
 90
       50
102
RTVSPost2010PropOp46
 70
     1
102
RTVSPost2010Prop47
 90
       50
102
RTVSPost2010PropOp47
 70
     1
102
RTVSPost2010Prop48
 90
       50
102
RTVSPost2010PropOp48
 70
     1
102
RTVSPost2010Prop49
280
     0
102
RTVSPost2010PropOp49
 70
     1
102
RTVSPost2010Prop50
 90
       50
102
RTVSPost2010PropOp50
 70
     1
102
RTVSPost2010Prop51ColorIndex
 90
      256
102
RTVSPost2010Prop51ColorRGB
 90
-16777216
102
RTVSPost2010PropOp51
 70
     0
102
RTVSPost2010Prop52
140
1.0
102
RTVSPost2010PropOp52
 70
     0
102
RTVSPost2010Prop53
 90
        2
102
RTVSPost2010PropOp53
 70
     1
102
RTVSPost2010Prop54
  1
strokes_ogs.tif
102
RTVSPost2010PropOp54
 70
     1
102
RTVSPost2010Prop55
280
     0
102
RTVSPost2010PropOp55
 70
     1
102
RTVSPost2010Prop56
140
1.0
102
RTVSPost2010PropOp56
 70
     1
102
RTVSPost2010Prop57
140
1.0
102
RTVSPost2010PropOp57
 70
     1
  0
XRECORD
  5
173
102
{ACAD_REACTORS
330
172
102
}
330
172
100
AcDbXrecord
280
     1
102
RTVSPost2010Prop28
280
     0
102
RTVSPost2010PropOp28
 70
     1
102
RTVSPost2010Prop29
280
     1
102
RTVSPost2010PropOp29
 70
     1
102
RTVSPost2010Prop30
280
     1
102
RTVSPost2010PropOp30
 70
     1
102
RTVSPost2010Prop31
280
     0
102
RTVSPost2010PropOp31
 70
     1
102
RTVSPost2010Prop32
280
     0
102
RTVSPost2010PropOp32
 70
     1
102
RTVSPost2010Prop33
280
     0
102
RTVSPost2010PropOp33
 70
     1
102
RTVSPost2010Prop34
280
     0
102
RTVSPost2010PropOp34
 70
     1
102
RTVSPost2010Prop35
280
     0
102
RTVSPost2010PropOp35
 70
     1
102
RTVSPost2010Prop36
280
     0
102
RTVSPost2010PropOp36
 70
     1
102
RTVSPost2010Prop37
 90
       50
102
RTVSPost2010PropOp37
 70
     1
102
RTVSPost2010Prop38
140
0.0
102
RTVSPost2010PropOp38
 70
     1
102
RTVSPost2010Prop39
140
1.0
102
RTVSPost2010PropOp39
 70
     1
102
RTVSPost2010Prop40
 90
        0
102
RTVSPost2010PropOp40
 70
     1
102
RTVSPost2010Prop41ColorIndex
 90
       18
102
RTVSPost2010Prop41ColorRGB
 90
        0
102
RTVSPost2010PropOp41
 70
     1
102
RTVSPost2010Prop42
 90
       50
102
RTVSPost2010PropOp42
 70
     1
102
RTVSPost2010Prop43
 90
        3
102
RTVSPost2010PropOp43
 70
     1
102
RTVSPost2010Prop44ColorIndex
 90
        5
102
RTVSPost2010Prop44ColorRGB
 90
      255
102
RTVSPost2010PropOp44
 70
     1
102
RTVSPost2010Prop45
280
     0
102
RTVSPost2010PropOp45
 70
     1
102
RTVSPost2010Prop46
 90
       50
102
RTVSPost2010PropOp46
 70
     1
102
RTVSPost2010Prop47
 90
       50
102
RTVSPost2010PropOp47
 70
     1
102
RTVSPost2010Prop48
 90
       50
102
RTVSPost2010PropOp48
 70
     1
102
RTVSPost2010Prop49
280
     0
102
RTVSPost2010PropOp49
 70
     1
102
RTVSPost2010Prop50
 90
       50
102
RTVSPost2010PropOp50
 70
     1
102
RTVSPost2010Prop51ColorIndex
 90
      256
102
RTVSPost2010Prop51ColorRGB
 90
-16777216
102
RTVSPost2010PropOp51
 70
     0
102
RTVSPost2010Prop52
140
1.0
102
RTVSPost2010PropOp52
 70
     0
102
RTVSPost2010Prop53
 90
        2
102
RTVSPost2010PropOp53
 70
     1
102
RTVSPost2010Prop54
  1
strokes_ogs.tif
102
RTVSPost2010PropOp54
 70
     1
102
RTVSPost2010Prop55
280
     0
102
RTVSPost2010PropOp55
 70
     1
102
RTVSPost2010Prop56
140
1.0
102
RTVSPost2010PropOp56
 70
     1
102
RTVSPost2010Prop57
140
1.0
102
RTVSPost2010PropOp57
 70
     1
  0
XRECORD
  5
18F
102
{ACAD_REACTORS
330
18E
102
}
330
18E
100
AcDbXrecord
280
     1
102
RTVSPost2010Prop28
280
     0
102
RTVSPost2010PropOp28
 70
     0
102
RTVSPost2010Prop29
280
     1
102
RTVSPost2010PropOp29
 70
     0
102
RTVSPost2010Prop30
280
     1
102
RTVSPost2010PropOp30
 70
     0
102
RTVSPost2010Prop31
280
     0
102
RTVSPost2010PropOp31
 70
     0
102
RTVSPost2010Prop32
280
     0
102
RTVSPost2010PropOp32
 70
     0
102
RTVSPost2010Prop33
280
     0
102
RTVSPost2010PropOp33
 70
     0
102
RTVSPost2010Prop34
280
     0
102
RTVSPost2010PropOp34
 70
     0
102
RTVSPost2010Prop35
280
     0
102
RTVSPost2010PropOp35
 70
     0
102
RTVSPost2010Prop36
280
     0
102
RTVSPost2010PropOp36
 70
     0
102
RTVSPost2010Prop37
 90
       50
102
RTVSPost2010PropOp37
 70
     0
102
RTVSPost2010Prop38
140
0.0
102
RTVSPost2010PropOp38
 70
     0
102
RTVSPost2010Prop39
140
1.0
102
RTVSPost2010PropOp39
 70
     0
102
RTVSPost2010Prop40
 90
        0
102
RTVSPost2010PropOp40
 70
     0
102
RTVSPost2010Prop41ColorIndex
 90
       18
102
RTVSPost2010Prop41ColorRGB
 90
        0
102
RTVSPost2010PropOp41
 70
     0
102
RTVSPost2010Prop42
 90
       50
102
RTVSPost2010PropOp42
 70
     0
102
RTVSPost2010Prop43
 90
        3
102
RTVSPost2010PropOp43
 70
     0
102
RTVSPost2010Prop44ColorIndex
 90
        5
102
RTVSPost2010Prop44ColorRGB
 90
      255
102
RTVSPost2010PropOp44
 70
     0
102
RTVSPost2010Prop45
280
     0
102
RTVSPost2010PropOp45
 70
     0
102
RTVSPost2010Prop46
 90
       50
102
RTVSPost2010PropOp46
 70
     0
102
RTVSPost2010Prop47
 90
       50
102
RTVSPost2010PropOp47
 70
     0
102
RTVSPost2010Prop48
 90
       50
102
RTVSPost2010PropOp48
 70
     0
102
RTVSPost2010Prop49
280
     0
102
RTVSPost2010PropOp49
 70
     0
102
RTVSPost2010Prop50
 90
       50
102
RTVSPost2010PropOp50
 70
     0
102
RTVSPost2010Prop51ColorIndex
 90
      256
102
RTVSPost2010Prop51ColorRGB
 90
-16777216
102
RTVSPost2010PropOp51
 70
     0
102
RTVSPost2010Prop52
140
1.0
102
RTVSPost2010PropOp52
 70
     0
102
RTVSPost2010Prop53
 90
        2
102
RTVSPost2010PropOp53
 70
     0
102
RTVSPost2010Prop54
  1
strokes_ogs.tif
102
RTVSPost2010PropOp54
 70
     0
102
RTVSPost2010Prop55
280
     0
102
RTVSPost2010PropOp55
 70
     0
102
RTVSPost2010Prop56
140
1.0
102
RTVSPost2010PropOp56
 70
     0
102
RTVSPost2010Prop57
140
1.0
102
RTVSPost2010PropOp57
 70
     0
  0
XRECORD
  5
17F
102
{ACAD_REACTORS
330
17E
102
}
330
17E
100
AcDbXrecord
280
     1
102
RTVSPost2010Prop28
280
     0
102
RTVSPost2010PropOp28
 70
     1
102
RTVSPost2010Prop29
280
     1
102
RTVSPost2010PropOp29
 70
     1
102
RTVSPost2010Prop30
280
     1
102
RTVSPost2010PropOp30
 70
     1
102
RTVSPost2010Prop31
280
     0
102
RTVSPost2010PropOp31
 70
     1
102
RTVSPost2010Prop32
280
     0
102
RTVSPost2010PropOp32
 70
     1
102
RTVSPost2010Prop33
280
     0
102
RTVSPost2010PropOp33
 70
     1
102
RTVSPost2010Prop34
280
     0
102
RTVSPost2010PropOp34
 70
     1
102
RTVSPost2010Prop35
280
     0
102
RTVSPost2010PropOp35
 70
     1
102
RTVSPost2010Prop36
280
     0
102
RTVSPost2010PropOp36
 70
     1
102
RTVSPost2010Prop37
 90
       50
102
RTVSPost2010PropOp37
 70
     1
102
RTVSPost2010Prop38
140
0.0
102
RTVSPost2010PropOp38
 70
     1
102
RTVSPost2010Prop39
140
1.0
102
RTVSPost2010PropOp39
 70
     1
102
RTVSPost2010Prop40
 90
        0
102
RTVSPost2010PropOp40
 70
     1
102
RTVSPost2010Prop41ColorIndex
 90
       18
102
RTVSPost2010Prop41ColorRGB
 90
        0
102
RTVSPost2010PropOp41
 70
     1
102
RTVSPost2010Prop42
 90
       50
102
RTVSPost2010PropOp42
 70
     1
102
RTVSPost2010Prop43
 90
        3
102
RTVSPost2010PropOp43
 70
     1
102
RTVSPost2010Prop44ColorIndex
 90
        5
102
RTVSPost2010Prop44ColorRGB
 90
      255
102
RTVSPost2010PropOp44
 70
     1
102
RTVSPost2010Prop45
280
     0
102
RTVSPost2010PropOp45
 70
     1
102
RTVSPost2010Prop46
 90
       50
102
RTVSPost2010PropOp46
 70
     1
102
RTVSPost2010Prop47
 90
       50
102
RTVSPost2010PropOp47
 70
     1
102
RTVSPost2010Prop48
 90
       50
102
RTVSPost2010PropOp48
 70
     1
102
RTVSPost2010Prop49
280
     0
102
RTVSPost2010PropOp49
 70
     1
102
RTVSPost2010Prop50
 90
       50
102
RTVSPost2010PropOp50
 70
     1
102
RTVSPost2010Prop51ColorIndex
 90
      256
102
RTVSPost2010Prop51ColorRGB
 90
-16777216
102
RTVSPost2010PropOp51
 70
     0
102
RTVSPost2010Prop52
140
1.0
102
RTVSPost2010PropOp52
 70
     0
102
RTVSPost2010Prop53
 90
        2
102
RTVSPost2010PropOp53
 70
     1
102
RTVSPost2010Prop54
  1
strokes_ogs.tif
102
RTVSPost2010PropOp54
 70
     1
102
RTVSPost2010Prop55
280
     0
102
RTVSPost2010PropOp55
 70
     1
102
RTVSPost2010Prop56
140
1.0
102
RTVSPost2010PropOp56
 70
     1
102
RTVSPost2010Prop57
140
1.0
102
RTVSPost2010PropOp57
 70
     1
  0
XRECORD
  5
191
102
{ACAD_REACTORS
330
190
102
}
330
190
100
AcDbXrecord
280
     1
102
RTVSPost2010Prop28
280
     0
102
RTVSPost2010PropOp28
 70
     0
102
RTVSPost2010Prop29
280
     1
102
RTVSPost2010PropOp29
 70
     0
102
RTVSPost2010Prop30
280
     1
102
RTVSPost2010PropOp30
 70
     0
102
RTVSPost2010Prop31
280
     0
102
RTVSPost2010PropOp31
 70
     0
102
RTVSPost2010Prop32
280
     0
102
RTVSPost2010PropOp32
 70
     0
102
RTVSPost2010Prop33
280
     0
102
RTVSPost2010PropOp33
 70
     0
102
RTVSPost2010Prop34
280
     0
102
RTVSPost2010PropOp34
 70
     0
102
RTVSPost2010Prop35
280
     0
102
RTVSPost2010PropOp35
 70
     0
102
RTVSPost2010Prop36
280
     0
102
RTVSPost2010PropOp36
 70
     0
102
RTVSPost2010Prop37
 90
       50
102
RTVSPost2010PropOp37
 70
     0
102
RTVSPost2010Prop38
140
0.0
102
RTVSPost2010PropOp38
 70
     0
102
RTVSPost2010Prop39
140
1.0
102
RTVSPost2010PropOp39
 70
     0
102
RTVSPost2010Prop40
 90
        0
102
RTVSPost2010PropOp40
 70
     0
102
RTVSPost2010Prop41ColorIndex
 90
       18
102
RTVSPost2010Prop41ColorRGB
 90
        0
102
RTVSPost2010PropOp41
 70
     0
102
RTVSPost2010Prop42
 90
       50
102
RTVSPost2010PropOp42
 70
     0
102
RTVSPost2010Prop43
 90
        3
102
RTVSPost2010PropOp43
 70
     0
102
RTVSPost2010Prop44ColorIndex
 90
        5
102
RTVSPost2010Prop44ColorRGB
 90
      255
102
RTVSPost2010PropOp44
 70
     0
102
RTVSPost2010Prop45
280
     0
102
RTVSPost2010PropOp45
 70
     0
102
RTVSPost2010Prop46
 90
       50
102
RTVSPost2010PropOp46
 70
     0
102
RTVSPost2010Prop47
 90
       50
102
RTVSPost2010PropOp47
 70
     0
102
RTVSPost2010Prop48
 90
       50
102
RTVSPost2010PropOp48
 70
     0
102
RTVSPost2010Prop49
280
     0
102
RTVSPost2010PropOp49
 70
     0
102
RTVSPost2010Prop50
 90
       50
102
RTVSPost2010PropOp50
 70
     0
102
RTVSPost2010Prop51ColorIndex
 90
      256
102
RTVSPost2010Prop51ColorRGB
 90
-16777216
102
RTVSPost2010PropOp51
 70
     0
102
RTVSPost2010Prop52
140
1.0
102
RTVSPost2010PropOp52
 70
     0
102
RTVSPost2010Prop53
 90
        2
102
RTVSPost2010PropOp53
 70
     0
102
RTVSPost2010Prop54
  1
strokes_ogs.tif
102
RTVSPost2010PropOp54
 70
     0
102
RTVSPost2010Prop55
280
     0
102
RTVSPost2010PropOp55
 70
     0
102
RTVSPost2010Prop56
140
1.0
102
RTVSPost2010PropOp56
 70
     0
102
RTVSPost2010Prop57
140
1.0
102
RTVSPost2010PropOp57
 70
     0
  0
XRECORD
  5
177
102
{ACAD_REACTORS
330
176
102
}
330
176
100
AcDbXrecord
280
     1
102
RTVSPost2010Prop28
280
     0
102
RTVSPost2010PropOp28
 70
     1
102
RTVSPost2010Prop29
280
     1
102
RTVSPost2010PropOp29
 70
     1
102
RTVSPost2010Prop30
280
     1
102
RTVSPost2010PropOp30
 70
     1
102
RTVSPost2010Prop31
280
     0
102
RTVSPost2010PropOp31
 70
     1
102
RTVSPost2010Prop32
280
     0
102
RTVSPost2010PropOp32
 70
     1
102
RTVSPost2010Prop33
280
     0
102
RTVSPost2010PropOp33
 70
     1
102
RTVSPost2010Prop34
280
     0
102
RTVSPost2010PropOp34
 70
     1
102
RTVSPost2010Prop35
280
     0
102
RTVSPost2010PropOp35
 70
     1
102
RTVSPost2010Prop36
280
     0
102
RTVSPost2010PropOp36
 70
     1
102
RTVSPost2010Prop37
 90
       50
102
RTVSPost2010PropOp37
 70
     1
102
RTVSPost2010Prop38
140
0.0
102
RTVSPost2010PropOp38
 70
     1
102
RTVSPost2010Prop39
140
1.0
102
RTVSPost2010PropOp39
 70
     1
102
RTVSPost2010Prop40
 90
        0
102
RTVSPost2010PropOp40
 70
     1
102
RTVSPost2010Prop41ColorIndex
 90
       18
102
RTVSPost2010Prop41ColorRGB
 90
        0
102
RTVSPost2010PropOp41
 70
     1
102
RTVSPost2010Prop42
 90
       50
102
RTVSPost2010PropOp42
 70
     1
102
RTVSPost2010Prop43
 90
        3
102
RTVSPost2010PropOp43
 70
     1
102
RTVSPost2010Prop44ColorIndex
 90
        5
102
RTVSPost2010Prop44ColorRGB
 90
      255
102
RTVSPost2010PropOp44
 70
     1
102
RTVSPost2010Prop45
280
     0
102
RTVSPost2010PropOp45
 70
     1
102
RTVSPost2010Prop46
 90
       50
102
RTVSPost2010PropOp46
 70
     1
102
RTVSPost2010Prop47
 90
       50
102
RTVSPost2010PropOp47
 70
     1
102
RTVSPost2010Prop48
 90
       50
102
RTVSPost2010PropOp48
 70
     1
102
RTVSPost2010Prop49
280
     0
102
RTVSPost2010PropOp49
 70
     1
102
RTVSPost2010Prop50
 90
       50
102
RTVSPost2010PropOp50
 70
     1
102
RTVSPost2010Prop51ColorIndex
 90
      256
102
RTVSPost2010Prop51ColorRGB
 90
-16777216
102
RTVSPost2010PropOp51
 70
     0
102
RTVSPost2010Prop52
140
1.0
102
RTVSPost2010PropOp52
 70
     0
102
RTVSPost2010Prop53
 90
        2
102
RTVSPost2010PropOp53
 70
     1
102
RTVSPost2010Prop54
  1
strokes_ogs.tif
102
RTVSPost2010PropOp54
 70
     1
102
RTVSPost2010Prop55
280
     0
102
RTVSPost2010PropOp55
 70
     1
102
RTVSPost2010Prop56
140
1.0
102
RTVSPost2010PropOp56
 70
     1
102
RTVSPost2010Prop57
140
1.0
102
RTVSPost2010PropOp57
 70
     1
  0
XRECORD
  5
18D
102
{ACAD_REACTORS
330
18C
102
}
330
18C
100
AcDbXrecord
280
     1
102
RTVSPost2010Prop28
280
     0
102
RTVSPost2010PropOp28
 70
     1
102
RTVSPost2010Prop29
280
     1
102
RTVSPost2010PropOp29
 70
     1
102
RTVSPost2010Prop30
280
     1
102
RTVSPost2010PropOp30
 70
     1
102
RTVSPost2010Prop31
280
     0
102
RTVSPost2010PropOp31
 70
     1
102
RTVSPost2010Prop32
280
     0
102
RTVSPost2010PropOp32
 70
     1
102
RTVSPost2010Prop33
280
     0
102
RTVSPost2010PropOp33
 70
     1
102
RTVSPost2010Prop34
280
     0
102
RTVSPost2010PropOp34
 70
     1
102
RTVSPost2010Prop35
280
     0
102
RTVSPost2010PropOp35
 70
     1
102
RTVSPost2010Prop36
280
     0
102
RTVSPost2010PropOp36
 70
     1
102
RTVSPost2010Prop37
 90
       50
102
RTVSPost2010PropOp37
 70
     1
102
RTVSPost2010Prop38
140
0.0
102
RTVSPost2010PropOp38
 70
     1
102
RTVSPost2010Prop39
140
1.0
102
RTVSPost2010PropOp39
 70
     1
102
RTVSPost2010Prop40
 90
        0
102
RTVSPost2010PropOp40
 70
     1
102
RTVSPost2010Prop41ColorIndex
 90
       18
102
RTVSPost2010Prop41ColorRGB
 90
        0
102
RTVSPost2010PropOp41
 70
     1
102
RTVSPost2010Prop42
 90
       50
102
RTVSPost2010PropOp42
 70
     1
102
RTVSPost2010Prop43
 90
        3
102
RTVSPost2010PropOp43
 70
     1
102
RTVSPost2010Prop44ColorIndex
 90
        5
102
RTVSPost2010Prop44ColorRGB
 90
      255
102
RTVSPost2010PropOp44
 70
     1
102
RTVSPost2010Prop45
280
     0
102
RTVSPost2010PropOp45
 70
     1
102
RTVSPost2010Prop46
 90
       50
102
RTVSPost2010PropOp46
 70
     1
102
RTVSPost2010Prop47
 90
       50
102
RTVSPost2010PropOp47
 70
     1
102
RTVSPost2010Prop48
 90
       50
102
RTVSPost2010PropOp48
 70
     1
102
RTVSPost2010Prop49
280
     0
102
RTVSPost2010PropOp49
 70
     1
102
RTVSPost2010Prop50
 90
       50
102
RTVSPost2010PropOp50
 70
     1
102
RTVSPost2010Prop51ColorIndex
 90
      256
102
RTVSPost2010Prop51ColorRGB
 90
-16777216
102
RTVSPost2010PropOp51
 70
     0
102
RTVSPost2010Prop52
140
1.0
102
RTVSPost2010PropOp52
 70
     0
102
RTVSPost2010Prop53
 90
        2
102
RTVSPost2010PropOp53
 70
     1
102
RTVSPost2010Prop54
  1
strokes_ogs.tif
102
RTVSPost2010PropOp54
 70
     1
102
RTVSPost2010Prop55
280
     0
102
RTVSPost2010PropOp55
 70
     1
102
RTVSPost2010Prop56
140
1.0
102
RTVSPost2010PropOp56
 70
     1
102
RTVSPost2010Prop57
140
1.0
102
RTVSPost2010PropOp57
 70
     1
  0
XRECORD
  5
18B
102
{ACAD_REACTORS
330
18A
102
}
330
18A
100
AcDbXrecord
280
     1
102
RTVSPost2010Prop28
280
     0
102
RTVSPost2010PropOp28
 70
     1
102
RTVSPost2010Prop29
280
     1
102
RTVSPost2010PropOp29
 70
     1
102
RTVSPost2010Prop30
280
     1
102
RTVSPost2010PropOp30
 70
     1
102
RTVSPost2010Prop31
280
     0
102
RTVSPost2010PropOp31
 70
     1
102
RTVSPost2010Prop32
280
     0
102
RTVSPost2010PropOp32
 70
     1
102
RTVSPost2010Prop33
280
     0
102
RTVSPost2010PropOp33
 70
     1
102
RTVSPost2010Prop34
280
     0
102
RTVSPost2010PropOp34
 70
     1
102
RTVSPost2010Prop35
280
     0
102
RTVSPost2010PropOp35
 70
     1
102
RTVSPost2010Prop36
280
     0
102
RTVSPost2010PropOp36
 70
     1
102
RTVSPost2010Prop37
 90
       50
102
RTVSPost2010PropOp37
 70
     1
102
RTVSPost2010Prop38
140
0.0
102
RTVSPost2010PropOp38
 70
     1
102
RTVSPost2010Prop39
140
1.0
102
RTVSPost2010PropOp39
 70
     1
102
RTVSPost2010Prop40
 90
        0
102
RTVSPost2010PropOp40
 70
     1
102
RTVSPost2010Prop41ColorIndex
 90
       18
102
RTVSPost2010Prop41ColorRGB
 90
        0
102
RTVSPost2010PropOp41
 70
     1
102
RTVSPost2010Prop42
 90
       50
102
RTVSPost2010PropOp42
 70
     1
102
RTVSPost2010Prop43
 90
        3
102
RTVSPost2010PropOp43
 70
     1
102
RTVSPost2010Prop44ColorIndex
 90
        5
102
RTVSPost2010Prop44ColorRGB
 90
      255
102
RTVSPost2010PropOp44
 70
     1
102
RTVSPost2010Prop45
280
     0
102
RTVSPost2010PropOp45
 70
     1
102
RTVSPost2010Prop46
 90
       50
102
RTVSPost2010PropOp46
 70
     1
102
RTVSPost2010Prop47
 90
       50
102
RTVSPost2010PropOp47
 70
     1
102
RTVSPost2010Prop48
 90
       50
102
RTVSPost2010PropOp48
 70
     1
102
RTVSPost2010Prop49
280
     0
102
RTVSPost2010PropOp49
 70
     1
102
RTVSPost2010Prop50
 90
       50
102
RTVSPost2010PropOp50
 70
     1
102
RTVSPost2010Prop51ColorIndex
 90
      256
102
RTVSPost2010Prop51ColorRGB
 90
-16777216
102
RTVSPost2010PropOp51
 70
     0
102
RTVSPost2010Prop52
140
1.0
102
RTVSPost2010PropOp52
 70
     0
102
RTVSPost2010Prop53
 90
        2
102
RTVSPost2010PropOp53
 70
     1
102
RTVSPost2010Prop54
  1
strokes_ogs.tif
102
RTVSPost2010PropOp54
 70
     1
102
RTVSPost2010Prop55
280
     0
102
RTVSPost2010PropOp55
 70
     1
102
RTVSPost2010Prop56
140
1.0
102
RTVSPost2010PropOp56
 70
     1
102
RTVSPost2010Prop57
140
1.0
102
RTVSPost2010PropOp57
 70
     1
  0
XRECORD
  5
185
102
{ACAD_REACTORS
330
184
102
}
330
184
100
AcDbXrecord
280
     1
102
RTVSPost2010Prop28
280
     0
102
RTVSPost2010PropOp28
 70
     1
102
RTVSPost2010Prop29
280
     1
102
RTVSPost2010PropOp29
 70
     1
102
RTVSPost2010Prop30
280
     1
102
RTVSPost2010PropOp30
 70
     1
102
RTVSPost2010Prop31
280
     0
102
RTVSPost2010PropOp31
 70
     1
102
RTVSPost2010Prop32
280
     0
102
RTVSPost2010PropOp32
 70
     1
102
RTVSPost2010Prop33
280
     0
102
RTVSPost2010PropOp33
 70
     1
102
RTVSPost2010Prop34
280
     0
102
RTVSPost2010PropOp34
 70
     1
102
RTVSPost2010Prop35
280
     0
102
RTVSPost2010PropOp35
 70
     1
102
RTVSPost2010Prop36
280
     0
102
RTVSPost2010PropOp36
 70
     1
102
RTVSPost2010Prop37
 90
       50
102
RTVSPost2010PropOp37
 70
     1
102
RTVSPost2010Prop38
140
0.0
102
RTVSPost2010PropOp38
 70
     1
102
RTVSPost2010Prop39
140
1.0
102
RTVSPost2010PropOp39
 70
     1
102
RTVSPost2010Prop40
 90
        0
102
RTVSPost2010PropOp40
 70
     1
102
RTVSPost2010Prop41ColorIndex
 90
       18
102
RTVSPost2010Prop41ColorRGB
 90
        0
102
RTVSPost2010PropOp41
 70
     1
102
RTVSPost2010Prop42
 90
       50
102
RTVSPost2010PropOp42
 70
     1
102
RTVSPost2010Prop43
 90
        3
102
RTVSPost2010PropOp43
 70
     1
102
RTVSPost2010Prop44ColorIndex
 90
        5
102
RTVSPost2010Prop44ColorRGB
 90
      255
102
RTVSPost2010PropOp44
 70
     1
102
RTVSPost2010Prop45
280
     0
102
RTVSPost2010PropOp45
 70
     1
102
RTVSPost2010Prop46
 90
       50
102
RTVSPost2010PropOp46
 70
     1
102
RTVSPost2010Prop47
 90
       50
102
RTVSPost2010PropOp47
 70
     1
102
RTVSPost2010Prop48
 90
       50
102
RTVSPost2010PropOp48
 70
     1
102
RTVSPost2010Prop49
280
     0
102
RTVSPost2010PropOp49
 70
     1
102
RTVSPost2010Prop50
 90
       50
102
RTVSPost2010PropOp50
 70
     1
102
RTVSPost2010Prop51ColorIndex
 90
      256
102
RTVSPost2010Prop51ColorRGB
 90
-16777216
102
RTVSPost2010PropOp51
 70
     0
102
RTVSPost2010Prop52
140
1.0
102
RTVSPost2010PropOp52
 70
     0
102
RTVSPost2010Prop53
 90
        2
102
RTVSPost2010PropOp53
 70
     1
102
RTVSPost2010Prop54
  1
strokes_ogs.tif
102
RTVSPost2010PropOp54
 70
     1
102
RTVSPost2010Prop55
280
     0
102
RTVSPost2010PropOp55
 70
     1
102
RTVSPost2010Prop56
140
1.0
102
RTVSPost2010PropOp56
 70
     1
102
RTVSPost2010Prop57
140
1.0
102
RTVSPost2010PropOp57
 70
     1
  0
XRECORD
  5
187
102
{ACAD_REACTORS
330
186
102
}
330
186
100
AcDbXrecord
280
     1
102
RTVSPost2010Prop28
280
     0
102
RTVSPost2010PropOp28
 70
     1
102
RTVSPost2010Prop29
280
     1
102
RTVSPost2010PropOp29
 70
     1
102
RTVSPost2010Prop30
280
     1
102
RTVSPost2010PropOp30
 70
     1
102
RTVSPost2010Prop31
280
     0
102
RTVSPost2010PropOp31
 70
     1
102
RTVSPost2010Prop32
280
     0
102
RTVSPost2010PropOp32
 70
     1
102
RTVSPost2010Prop33
280
     0
102
RTVSPost2010PropOp33
 70
     1
102
RTVSPost2010Prop34
280
     0
102
RTVSPost2010PropOp34
 70
     1
102
RTVSPost2010Prop35
280
     0
102
RTVSPost2010PropOp35
 70
     1
102
RTVSPost2010Prop36
280
     0
102
RTVSPost2010PropOp36
 70
     1
102
RTVSPost2010Prop37
 90
       50
102
RTVSPost2010PropOp37
 70
     1
102
RTVSPost2010Prop38
140
0.0
102
RTVSPost2010PropOp38
 70
     1
102
RTVSPost2010Prop39
140
1.0
102
RTVSPost2010PropOp39
 70
     1
102
RTVSPost2010Prop40
 90
        0
102
RTVSPost2010PropOp40
 70
     1
102
RTVSPost2010Prop41ColorIndex
 90
       18
102
RTVSPost2010Prop41ColorRGB
 90
        0
102
RTVSPost2010PropOp41
 70
     1
102
RTVSPost2010Prop42
 90
       50
102
RTVSPost2010PropOp42
 70
     1
102
RTVSPost2010Prop43
 90
        3
102
RTVSPost2010PropOp43
 70
     1
102
RTVSPost2010Prop44ColorIndex
 90
        5
102
RTVSPost2010Prop44ColorRGB
 90
      255
102
RTVSPost2010PropOp44
 70
     1
102
RTVSPost2010Prop45
280
     0
102
RTVSPost2010PropOp45
 70
     1
102
RTVSPost2010Prop46
 90
       50
102
RTVSPost2010PropOp46
 70
     1
102
RTVSPost2010Prop47
 90
       50
102
RTVSPost2010PropOp47
 70
     1
102
RTVSPost2010Prop48
 90
       50
102
RTVSPost2010PropOp48
 70
     1
102
RTVSPost2010Prop49
280
     0
102
RTVSPost2010PropOp49
 70
     1
102
RTVSPost2010Prop50
 90
       50
102
RTVSPost2010PropOp50
 70
     1
102
RTVSPost2010Prop51ColorIndex
 90
      256
102
RTVSPost2010Prop51ColorRGB
 90
-16777216
102
RTVSPost2010PropOp51
 70
     0
102
RTVSPost2010Prop52
140
1.0
102
RTVSPost2010PropOp52
 70
     0
102
RTVSPost2010Prop53
 90
        2
102
RTVSPost2010PropOp53
 70
     1
102
RTVSPost2010Prop54
  1
strokes_ogs.tif
102
RTVSPost2010PropOp54
 70
     1
102
RTVSPost2010Prop55
280
     0
102
RTVSPost2010PropOp55
 70
     1
102
RTVSPost2010Prop56
140
1.0
102
RTVSPost2010PropOp56
 70
     1
102
RTVSPost2010Prop57
140
1.0
102
RTVSPost2010PropOp57
 70
     1
  0
XRECORD
  5
17D
102
{ACAD_REACTORS
330
17C
102
}
330
17C
100
AcDbXrecord
280
     1
102
RTVSPost2010Prop28
280
     0
102
RTVSPost2010PropOp28
 70
     1
102
RTVSPost2010Prop29
280
     1
102
RTVSPost2010PropOp29
 70
     1
102
RTVSPost2010Prop30
280
     1
102
RTVSPost2010PropOp30
 70
     1
102
RTVSPost2010Prop31
280
     0
102
RTVSPost2010PropOp31
 70
     1
102
RTVSPost2010Prop32
280
     0
102
RTVSPost2010PropOp32
 70
     1
102
RTVSPost2010Prop33
280
     0
102
RTVSPost2010PropOp33
 70
     1
102
RTVSPost2010Prop34
280
     0
102
RTVSPost2010PropOp34
 70
     1
102
RTVSPost2010Prop35
280
     0
102
RTVSPost2010PropOp35
 70
     1
102
RTVSPost2010Prop36
280
     0
102
RTVSPost2010PropOp36
 70
     1
102
RTVSPost2010Prop37
 90
       50
102
RTVSPost2010PropOp37
 70
     1
102
RTVSPost2010Prop38
140
0.0
102
RTVSPost2010PropOp38
 70
     1
102
RTVSPost2010Prop39
140
1.0
102
RTVSPost2010PropOp39
 70
     1
102
RTVSPost2010Prop40
 90
        0
102
RTVSPost2010PropOp40
 70
     1
102
RTVSPost2010Prop41ColorIndex
 90
       18
102
RTVSPost2010Prop41ColorRGB
 90
        0
102
RTVSPost2010PropOp41
 70
     1
102
RTVSPost2010Prop42
 90
       50
102
RTVSPost2010PropOp42
 70
     1
102
RTVSPost2010Prop43
 90
        3
102
RTVSPost2010PropOp43
 70
     1
102
RTVSPost2010Prop44ColorIndex
 90
        5
102
RTVSPost2010Prop44ColorRGB
 90
      255
102
RTVSPost2010PropOp44
 70
     1
102
RTVSPost2010Prop45
280
     0
102
RTVSPost2010PropOp45
 70
     1
102
RTVSPost2010Prop46
 90
       50
102
RTVSPost2010PropOp46
 70
     1
102
RTVSPost2010Prop47
 90
       50
102
RTVSPost2010PropOp47
 70
     1
102
RTVSPost2010Prop48
 90
       50
102
RTVSPost2010PropOp48
 70
     1
102
RTVSPost2010Prop49
280
     0
102
RTVSPost2010PropOp49
 70
     1
102
RTVSPost2010Prop50
 90
       50
102
RTVSPost2010PropOp50
 70
     1
102
RTVSPost2010Prop51ColorIndex
 90
      256
102
RTVSPost2010Prop51ColorRGB
 90
-16777216
102
RTVSPost2010PropOp51
 70
     0
102
RTVSPost2010Prop52
140
1.0
102
RTVSPost2010PropOp52
 70
     0
102
RTVSPost2010Prop53
 90
        2
102
RTVSPost2010PropOp53
 70
     1
102
RTVSPost2010Prop54
  1
strokes_ogs.tif
102
RTVSPost2010PropOp54
 70
     1
102
RTVSPost2010Prop55
280
     0
102
RTVSPost2010PropOp55
 70
     1
102
RTVSPost2010Prop56
140
1.0
102
RTVSPost2010PropOp56
 70
     1
102
RTVSPost2010Prop57
140
1.0
102
RTVSPost2010PropOp57
 70
     1
  0
XRECORD
  5
171
102
{ACAD_REACTORS
330
170
102
}
330
170
100
AcDbXrecord
280
     1
102
RTVSPost2010Prop28
280
     0
102
RTVSPost2010PropOp28
 70
     1
102
RTVSPost2010Prop29
280
     1
102
RTVSPost2010PropOp29
 70
     1
102
RTVSPost2010Prop30
280
     1
102
RTVSPost2010PropOp30
 70
     1
102
RTVSPost2010Prop31
280
     0
102
RTVSPost2010PropOp31
 70
     1
102
RTVSPost2010Prop32
280
     0
102
RTVSPost2010PropOp32
 70
     1
102
RTVSPost2010Prop33
280
     0
102
RTVSPost2010PropOp33
 70
     1
102
RTVSPost2010Prop34
280
     0
102
RTVSPost2010PropOp34
 70
     1
102
RTVSPost2010Prop35
280
     0
102
RTVSPost2010PropOp35
 70
     1
102
RTVSPost2010Prop36
280
     0
102
RTVSPost2010PropOp36
 70
     1
102
RTVSPost2010Prop37
 90
       50
102
RTVSPost2010PropOp37
 70
     1
102
RTVSPost2010Prop38
140
0.0
102
RTVSPost2010PropOp38
 70
     1
102
RTVSPost2010Prop39
140
1.0
102
RTVSPost2010PropOp39
 70
     1
102
RTVSPost2010Prop40
 90
        0
102
RTVSPost2010PropOp40
 70
     1
102
RTVSPost2010Prop41ColorIndex
 90
       18
102
RTVSPost2010Prop41ColorRGB
 90
        0
102
RTVSPost2010PropOp41
 70
     1
102
RTVSPost2010Prop42
 90
       50
102
RTVSPost2010PropOp42
 70
     1
102
RTVSPost2010Prop43
 90
        3
102
RTVSPost2010PropOp43
 70
     1
102
RTVSPost2010Prop44ColorIndex
 90
        5
102
RTVSPost2010Prop44ColorRGB
 90
      255
102
RTVSPost2010PropOp44
 70
     1
102
RTVSPost2010Prop45
280
     0
102
RTVSPost2010PropOp45
 70
     1
102
RTVSPost2010Prop46
 90
       50
102
RTVSPost2010PropOp46
 70
     1
102
RTVSPost2010Prop47
 90
       50
102
RTVSPost2010PropOp47
 70
     1
102
RTVSPost2010Prop48
 90
       50
102
RTVSPost2010PropOp48
 70
     1
102
RTVSPost2010Prop49
280
     0
102
RTVSPost2010PropOp49
 70
     1
102
RTVSPost2010Prop50
 90
       50
102
RTVSPost2010PropOp50
 70
     1
102
RTVSPost2010Prop51ColorIndex
 90
      256
102
RTVSPost2010Prop51ColorRGB
 90
-16777216
102
RTVSPost2010PropOp51
 70
     0
102
RTVSPost2010Prop52
140
1.0
102
RTVSPost2010PropOp52
 70
     0
102
RTVSPost2010Prop53
 90
        2
102
RTVSPost2010PropOp53
 70
     1
102
RTVSPost2010Prop54
  1
strokes_ogs.tif
102
RTVSPost2010PropOp54
 70
     1
102
RTVSPost2010Prop55
280
     0
102
RTVSPost2010PropOp55
 70
     1
102
RTVSPost2010Prop56
140
1.0
102
RTVSPost2010PropOp56
 70
     1
102
RTVSPost2010Prop57
140
1.0
102
RTVSPost2010PropOp57
 70
     1
  0
XRECORD
  5
189
102
{ACAD_REACTORS
330
188
102
}
330
188
100
AcDbXrecord
280
     1
102
RTVSPost2010Prop28
280
     0
102
RTVSPost2010PropOp28
 70
     1
102
RTVSPost2010Prop29
280
     1
102
RTVSPost2010PropOp29
 70
     1
102
RTVSPost2010Prop30
280
     1
102
RTVSPost2010PropOp30
 70
     1
102
RTVSPost2010Prop31
280
     0
102
RTVSPost2010PropOp31
 70
     1
102
RTVSPost2010Prop32
280
     0
102
RTVSPost2010PropOp32
 70
     1
102
RTVSPost2010Prop33
280
     0
102
RTVSPost2010PropOp33
 70
     1
102
RTVSPost2010Prop34
280
     0
102
RTVSPost2010PropOp34
 70
     1
102
RTVSPost2010Prop35
280
     0
102
RTVSPost2010PropOp35
 70
     1
102
RTVSPost2010Prop36
280
     0
102
RTVSPost2010PropOp36
 70
     1
102
RTVSPost2010Prop37
 90
       50
102
RTVSPost2010PropOp37
 70
     1
102
RTVSPost2010Prop38
140
0.0
102
RTVSPost2010PropOp38
 70
     1
102
RTVSPost2010Prop39
140
1.0
102
RTVSPost2010PropOp39
 70
     1
102
RTVSPost2010Prop40
 90
        0
102
RTVSPost2010PropOp40
 70
     1
102
RTVSPost2010Prop41ColorIndex
 90
       18
102
RTVSPost2010Prop41ColorRGB
 90
        0
102
RTVSPost2010PropOp41
 70
     1
102
RTVSPost2010Prop42
 90
       50
102
RTVSPost2010PropOp42
 70
     1
102
RTVSPost2010Prop43
 90
        3
102
RTVSPost2010PropOp43
 70
     1
102
RTVSPost2010Prop44ColorIndex
 90
        5
102
RTVSPost2010Prop44ColorRGB
 90
      255
102
RTVSPost2010PropOp44
 70
     1
102
RTVSPost2010Prop45
280
     0
102
RTVSPost2010PropOp45
 70
     1
102
RTVSPost2010Prop46
 90
       50
102
RTVSPost2010PropOp46
 70
     1
102
RTVSPost2010Prop47
 90
       50
102
RTVSPost2010PropOp47
 70
     1
102
RTVSPost2010Prop48
 90
       50
102
RTVSPost2010PropOp48
 70
     1
102
RTVSPost2010Prop49
280
     0
102
RTVSPost2010PropOp49
 70
     1
102
RTVSPost2010Prop50
 90
       50
102
RTVSPost2010PropOp50
 70
     1
102
RTVSPost2010Prop51ColorIndex
 90
      256
102
RTVSPost2010Prop51ColorRGB
 90
-16777216
102
RTVSPost2010PropOp51
 70
     0
102
RTVSPost2010Prop52
140
1.0
102
RTVSPost2010PropOp52
 70
     0
102
RTVSPost2010Prop53
 90
        2
102
RTVSPost2010PropOp53
 70
     1
102
RTVSPost2010Prop54
  1
strokes_ogs.tif
102
RTVSPost2010PropOp54
 70
     1
102
RTVSPost2010Prop55
280
     0
102
RTVSPost2010PropOp55
 70
     1
102
RTVSPost2010Prop56
140
1.0
102
RTVSPost2010PropOp56
 70
     1
102
RTVSPost2010Prop57
140
1.0
102
RTVSPost2010PropOp57
 70
     1
  0
ENDSEC
  0
EOF
