  0
SECTION
  2
HEADER
  9
$ACADVER
  1
AC1024
  9
$ACADMAINTVER
 70
   226
  9
$DWGCODEPAGE
  3
ANSI_932
  9
$INSBASE
 10
0.0
 20
0.0
 30
0.0
  9
$EXTMIN
 10
1.000000000000000E+20
 20
1.000000000000000E+20
 30
1.000000000000000E+20
  9
$EXTMAX
 10
-1.000000000000000E+20
 20
-1.000000000000000E+20
 30
-1.000000000000000E+20
  9
$LIMMIN
 10
0.0
 20
0.0
  9
$LIMMAX
 10
12.0
 20
9.0
  9
$ORTHOMODE
 70
     0
  9
$REGENMODE
 70
     1
  9
$FILLMODE
 70
     1
  9
$QTEXTMODE
 70
     0
  9
$MIRRTEXT
 70
     0
  9
$LTSCALE
 40
1.0
  9
$ATTMODE
 70
     1
  9
$TEXTSIZE
 40
0.2
  9
$TRACEWID
 40
0.05
  9
$TEXTSTYLE
  7
Standard
  9
$CLAYER
  8
0
  9
$CELTYPE
  6
ByLayer
  9
$CECOLOR
 62
   256
  9
$CELTSCALE
 40
1.0
  9
$DISPSILH
 70
     0
  9
$DIMSCALE
 40
1.0
  9
$DIMASZ
 40
0.18
  9
$DIMEXO
 40
0.0625
  9
$DIMDLI
 40
0.38
  9
$DIMRND
 40
0.0
  9
$DIMDLE
 40
0.0
  9
$DIMEXE
 40
0.18
  9
$DIMTP
 40
0.0
  9
$DIMTM
 40
0.0
  9
$DIMTXT
 40
0.18
  9
$DIMCEN
 40
0.09
  9
$DIMTSZ
 40
0.0
  9
$DIMTOL
 70
     0
  9
$DIMLIM
 70
     0
  9
$DIMTIH
 70
     1
  9
$DIMTOH
 70
     1
  9
$DIMSE1
 70
     0
  9
$DIMSE2
 70
     0
  9
$DIMTAD
 70
     0
  9
$DIMZIN
 70
     0
  9
$DIMBLK
  1

  9
$DIMASO
 70
     1
  9
$DIMSHO
 70
     1
  9
$DIMPOST
  1

  9
$DIMAPOST
  1

  9
$DIMALT
 70
     0
  9
$DIMALTD
 70
     2
  9
$DIMALTF
 40
25.4
  9
$DIMLFAC
 40
1.0
  9
$DIMTOFL
 70
     0
  9
$DIMTVP
 40
0.0
  9
$DIMTIX
 70
     0
  9
$DIMSOXD
 70
     0
  9
$DIMSAH
 70
     0
  9
$DIMBLK1
  1

  9
$DIMBLK2
  1

  9
$DIMSTYLE
  2
Standard
  9
$DIMCLRD
 70
     0
  9
$DIMCLRE
 70
     0
  9
$DIMCLRT
 70
     0
  9
$DIMTFAC
 40
1.0
  9
$DIMGAP
 40
0.09
  9
$DIMJUST
 70
     0
  9
$DIMSD1
 70
     0
  9
$DIMSD2
 70
     0
  9
$DIMTOLJ
 70
     1
  9
$DIMTZIN
 70
     0
  9
$DIMALTZ
 70
     0
  9
$DIMALTTZ
 70
     0
  9
$DIMUPT
 70
     0
  9
$DIMDEC
 70
     4
  9
$DIMTDEC
 70
     4
  9
$DIMALTU
 70
     2
  9
$DIMALTTD
 70
     2
  9
$DIMTXSTY
  7
Standard
  9
$DIMAUNIT
 70
     0
  9
$DIMADEC
 70
     0
  9
$DIMALTRND
 40
0.0
  9
$DIMAZIN
 70
     0
  9
$DIMDSEP
 70
    46
  9
$DIMATFIT
 70
     3
  9
$DIMFRAC
 70
     0
  9
$DIMLDRBLK
  1

  9
$DIMLUNIT
 70
     2
  9
$DIMLWD
 70
    -2
  9
$DIMLWE
 70
    -2
  9
$DIMTMOVE
 70
     0
  9
$DIMFXL
 40
1.0
  9
$DIMFXLON
 70
     0
  9
$DIMJOGANG
 40
0.7853981633974483
  9
$DIMTFILL
 70
     0
  9
$DIMTFILLCLR
 70
     0
  9
$DIMARCSYM
 70
     0
  9
$DIMLTYPE
  6

  9
$DIMLTEX1
  6

  9
$DIMLTEX2
  6

  9
$DIMTXTDIRECTION
 70
     0
  9
$LUNITS
 70
     2
  9
$LUPREC
 70
     4
  9
$SKETCHINC
 40
0.1
  9
$FILLETRAD
 40
0.0
  9
$AUNITS
 70
     0
  9
$AUPREC
 70
     0
  9
$MENU
  1
.
  9
$ELEVATION
 40
0.0
  9
$PELEVATION
 40
0.0
  9
$THICKNESS
 40
0.0
  9
$LIMCHECK
 70
     0
  9
$CHAMFERA
 40
0.0
  9
$CHAMFERB
 40
0.0
  9
$CHAMFERC
 40
0.0
  9
$CHAMFERD
 40
0.0
  9
$SKPOLY
 70
     0
  9
$TDCREATE
 40
2459569.503923611
  9
$TDUCREATE
 40
2459569.128923611
  9
$TDUPDATE
 40
2459569.503923611
  9
$TDUUPDATE
 40
2459569.128923611
  9
$TDINDWG
 40
0.0000000000
  9
$TDUSRTIMER
 40
0.0000000000
  9
$USRTIMER
 70
     1
  9
$ANGBASE
 50
0.0
  9
$ANGDIR
 70
     0
  9
$PDMODE
 70
     0
  9
$PDSIZE
 40
0.0
  9
$PLINEWID
 40
0.0
  9
$SPLFRAME
 70
     0
  9
$SPLINETYPE
 70
     6
  9
$SPLINESEGS
 70
     8
  9
$HANDSEED
  5
1BC
  9
$SURFTAB1
 70
     6
  9
$SURFTAB2
 70
     6
  9
$SURFTYPE
 70
     6
  9
$SURFU
 70
     6
  9
$SURFV
 70
     6
  9
$UCSBASE
  2

  9
$UCSNAME
  2

  9
$UCSORG
 10
0.0
 20
0.0
 30
0.0
  9
$UCSXDIR
 10
1.0
 20
0.0
 30
0.0
  9
$UCSYDIR
 10
0.0
 20
1.0
 30
0.0
  9
$UCSORTHOREF
  2

  9
$UCSORTHOVIEW
 70
     0
  9
$UCSORGTOP
 10
0.0
 20
0.0
 30
0.0
  9
$UCSORGBOTTOM
 10
0.0
 20
0.0
 30
0.0
  9
$UCSORGLEFT
 10
0.0
 20
0.0
 30
0.0
  9
$UCSORGRIGHT
 10
0.0
 20
0.0
 30
0.0
  9
$UCSORGFRONT
 10
0.0
 20
0.0
 30
0.0
  9
$UCSORGBACK
 10
0.0
 20
0.0
 30
0.0
  9
$PUCSBASE
  2

  9
$PUCSNAME
  2

  9
$PUCSORG
 10
0.0
 20
0.0
 30
0.0
  9
$PUCSXDIR
 10
1.0
 20
0.0
 30
0.0
  9
$PUCSYDIR
 10
0.0
 20
1.0
 30
0.0
  9
$PUCSORTHOREF
  2

  9
$PUCSORTHOVIEW
 70
     0
  9
$PUCSORGTOP
 10
0.0
 20
0.0
 30
0.0
  9
$PUCSORGBOTTOM
 10
0.0
 20
0.0
 30
0.0
  9
$PUCSORGLEFT
 10
0.0
 20
0.0
 30
0.0
  9
$PUCSORGRIGHT
 10
0.0
 20
0.0
 30
0.0
  9
$PUCSORGFRONT
 10
0.0
 20
0.0
 30
0.0
  9
$PUCSORGBACK
 10
0.0
 20
0.0
 30
0.0
  9
$USERI1
 70
     0
  9
$USERI2
 70
     0
  9
$USERI3
 70
     0
  9
$USERI4
 70
     0
  9
$USERI5
 70
     0
  9
$USERR1
 40
0.0
  9
$USERR2
 40
0.0
  9
$USERR3
 40
0.0
  9
$USERR4
 40
0.0
  9
$USERR5
 40
0.0
  9
$WORLDVIEW
 70
     1
  9
$SHADEDGE
 70
     3
  9
$SHADEDIF
 70
    70
  9
$TILEMODE
 70
     1
  9
$MAXACTVP
 70
    64
  9
$PINSBASE
 10
0.0
 20
0.0
 30
0.0
  9
$PLIMCHECK
 70
     0
  9
$PEXTMIN
 10
1.000000000000000E+20
 20
1.000000000000000E+20
 30
1.000000000000000E+20
  9
$PEXTMAX
 10
-1.000000000000000E+20
 20
-1.000000000000000E+20
 30
-1.000000000000000E+20
  9
$PLIMMIN
 10
0.0
 20
0.0
  9
$PLIMMAX
 10
12.0
 20
9.0
  9
$UNITMODE
 70
     0
  9
$VISRETAIN
 70
     1
  9
$PLINEGEN
 70
     0
  9
$PSLTSCALE
 70
     1
  9
$TREEDEPTH
 70
  3020
  9
$CMLSTYLE
  2
Standard
  9
$CMLJUST
 70
     0
  9
$CMLSCALE
 40
1.0
  9
$PROXYGRAPHICS
 70
     1
  9
$MEASUREMENT
 70
     0
  9
$CELWEIGHT
370
    -1
  9
$ENDCAPS
280
     0
  9
$JOINSTYLE
280
     0
  9
$LWDISPLAY
290
     1
  9
$INSUNITS
 70
     4
  9
$HYPERLINKBASE
  1

  9
$STYLESHEET
  1

  9
$XEDIT
290
     1
  9
$CEPSNTYPE
380
     0
  9
$PSTYLEMODE
290
     1
  9
$FINGERPRINTGUID
  2
{DBCFB5F4-45EF-824F-B24A-B8D7616F13EC}
  9
$VERSIONGUID
  2
{60C96E79-8A44-C941-89CA-47178E9F4FA8}
  9
$EXTNAMES
290
     1
  9
$PSVPSCALE
 40
0.0
  9
$OLESTARTUP
290
     0
  9
$SORTENTS
280
   127
  9
$INDEXCTL
280
     0
  9
$HIDETEXT
280
     1
  9
$XCLIPFRAME
280
     2
  9
$HALOGAP
280
     0
  9
$OBSCOLOR
 70
   257
  9
$OBSLTYPE
280
     0
  9
$INTERSECTIONDISPLAY
280
     0
  9
$INTERSECTIONCOLOR
 70
   257
  9
$DIMASSOC
280
     2
  9
$PROJECTNAME
  1

  9
$CAMERADISPLAY
290
     0
  9
$LENSLENGTH
 40
50.0
  9
$CAMERAHEIGHT
 40
0.0
  9
$STEPSPERSEC
 40
2.0
  9
$STEPSIZE
 40
6.0
  9
$3DDWFPREC
 40
2.0
  9
$PSOLWIDTH
 40
0.25
  9
$PSOLHEIGHT
 40
4.0
  9
$LOFTANG1
 40
1.570796326794896
  9
$LOFTANG2
 40
1.570796326794896
  9
$LOFTMAG1
 40
0.0
  9
$LOFTMAG2
 40
0.0
  9
$LOFTPARAM
 70
     7
  9
$LOFTNORMALS
280
     1
  9
$LATITUDE
 40
37.795
  9
$LONGITUDE
 40
-122.394
  9
$NORTHDIRECTION
 40
0.0
  9
$TIMEZONE
 70
 -8000
  9
$LIGHTGLYPHDISPLAY
280
     1
  9
$TILEMODELIGHTSYNCH
280
     1
  9
$CMATERIAL
347
11
  9
$SOLIDHIST
280
     0
  9
$SHOWHIST
280
     1
  9
$DWFFRAME
280
     2
  9
$DGNFRAME
280
     0
  9
$REALWORLDSCALE
290
     1
  9
$INTERFERECOLOR
 62
     1
  9
$INTERFEREOBJVS
345
33
  9
$INTERFEREVPVS
346
30
  9
$CSHADOW
280
     0
  9
$SHADOWPLANELOCATION
 40
0.0
  0
ENDSEC
  0
SECTION
  2
CLASSES
  0
CLASS
  1
ACDBDICTIONARYWDFLT
  2
AcDbDictionaryWithDefault
  3
ObjectDBX Classes
 90
        0
 91
        1
280
     0
281
     0
  0
CLASS
  1
MATERIAL
  2
AcDbMaterial
  3
ObjectDBX Classes
 90
     1153
 91
        3
280
     0
281
     0
  0
CLASS
  1
VISUALSTYLE
  2
AcDbVisualStyle
  3
ObjectDBX Classes
 90
     4095
 91
       24
280
     0
281
     0
  0
CLASS
  1
SCALE
  2
AcDbScale
  3
ObjectDBX Classes
 90
     1153
 91
       17
280
     0
281
     0
  0
CLASS
  1
TABLESTYLE
  2
AcDbTableStyle
  3
ObjectDBX Classes
 90
     4095
 91
        1
280
     0
281
     0
  0
CLASS
  1
MLEADERSTYLE
  2
AcDbMLeaderStyle
  3
ACDB_MLEADERSTYLE_CLASS
 90
     4095
 91
        1
280
     0
281
     0
  0
CLASS
  1
ACDBSECTIONVIEWSTYLE
  2
AcDbSectionViewStyle
  3
ObjectDBX Classes
 90
     1025
 91
        1
280
     0
281
     0
  0
CLASS
  1
ACDBDETAILVIEWSTYLE
  2
AcDbDetailViewStyle
  3
ObjectDBX Classes
 90
     1025
 91
        1
280
     0
281
     0
  0
CLASS
  1
DICTIONARYVAR
  2
AcDbDictionaryVar
  3
ObjectDBX Classes
 90
        0
 91
        5
280
     0
281
     0
  0
CLASS
  1
CELLSTYLEMAP
  2
AcDbCellStyleMap
  3
ObjectDBX Classes
 90
     1152
 91
        1
280
     0
281
     0
  0
ENDSEC
  0
SECTION
  2
TABLES
  0
TABLE
  2
VPORT
  5
8
330
0
100
AcDbSymbolTable
 70
     1
  0
VPORT
  5
57
330
8
100
AcDbSymbolTableRecord
100
AcDbViewportTableRecord
  2
*Active
 70
     0
 10
0.0
 20
0.0
 11
1.0
 21
1.0
 12
0.0
 22
0.0
 13
0.0
 23
0.0
 14
1.0
 24
1.0
 15
0.0
 25
0.0
 16
0.0
 26
0.0
 36
1.0
 17
104.9999999737534
 27
-148.4999999628701
 37
0.0
 40
302.939999924255
 41
0.7070707070707534
 42
50.0
 43
0.0
 44
0.0
 50
0.0
 51
0.0
 71
     0
 72
   100
 73
     1
 74
     0
 75
     1
 76
     0
 77
     0
 78
     0
281
     0
 65
     1
110
0.0
120
0.0
130
0.0
111
1.0
121
0.0
131
0.0
112
0.0
122
1.0
132
0.0
 79
     0
146
0.0
 60
     3
 61
     5
292
     1
282
     1
141
0.0
142
0.0
 63
   250
421
  3355443
  0
ENDTAB
  0
TABLE
  2
LTYPE
  5
5
330
0
100
AcDbSymbolTable
 70
     3
  0
LTYPE
  5
5B
330
5
100
AcDbSymbolTableRecord
100
AcDbLinetypeTableRecord
  2
ByBlock
 70
     0
  3

 72
    65
 73
     0
 40
0.0
  0
LTYPE
  5
5C
330
5
100
AcDbSymbolTableRecord
100
AcDbLinetypeTableRecord
  2
ByLayer
 70
     0
  3

 72
    65
 73
     0
 40
0.0
  0
LTYPE
  5
5D
330
5
100
AcDbSymbolTableRecord
100
AcDbLinetypeTableRecord
  2
Continuous
 70
     0
  3
Solid line
 72
    65
 73
     0
 40
0.0
  0
LTYPE
  5
7A
330
5
100
AcDbSymbolTableRecord
100
AcDbLinetypeTableRecord
  2
AI-Linetype-0
 70
     0
  3
Adobe Illustrator Linetype No. 0
 72
    65
 73
     2
 40
1.411111110758333
 49
0.7055555553791667
 74
     0
 49
-0.7055555553791667
 74
     0
  0
LTYPE
  5
7C
330
5
100
AcDbSymbolTableRecord
100
AcDbLinetypeTableRecord
  2
AI-Linetype-1
 70
     0
  3
Adobe Illustrator Linetype No. 1
 72
    65
 73
     2
 40
1.411111110758333
 49
0.7055555553791667
 74
     0
 49
-0.7055555553791667
 74
     0
  0
ENDTAB
  0
TABLE
  2
LAYER
  5
2
330
0
100
AcDbSymbolTable
 70
     2
  0
LAYER
  5
54
330
2
100
AcDbSymbolTableRecord
100
AcDbLayerTableRecord
  2
0
 70
     0
 62
     7
  6
Continuous
370
    -3
390
F
347
21
  0
LAYER
  5
78
330
2
100
AcDbSymbolTableRecord
100
AcDbLayerTableRecord
  2
レイヤー 1
 70
     0
 62
     7
  6
Continuous
370
     0
390
F
347
21
  0
ENDTAB
  0
TABLE
  2
STYLE
  5
3
330
0
100
AcDbSymbolTable
 70
     2
  0
STYLE
  5
55
330
3
100
AcDbSymbolTableRecord
100
AcDbTextStyleTableRecord
  2
Standard
 70
     0
 40
0.0
 41
1.0
 50
0.0
 71
     0
 42
0.2
  3
txt
  4

  0
STYLE
  5
5A
330
3
100
AcDbSymbolTableRecord
100
AcDbTextStyleTableRecord
  2
Annotative
 70
     0
 40
0.0
 41
1.0
 50
0.0
 71
     0
 42
0.2
  3
txt
  4

1001
AcadAnnotative
1000
AnnotativeData
1002
{
1070
     1
1070
     1
1002
}
  0
ENDTAB
  0
TABLE
  2
VIEW
  5
6
330
0
100
AcDbSymbolTable
 70
     0
  0
ENDTAB
  0
TABLE
  2
UCS
  5
7
330
0
100
AcDbSymbolTable
 70
     0
  0
ENDTAB
  0
TABLE
  2
APPID
  5
9
330
0
100
AcDbSymbolTable
 70
     2
  0
APPID
  5
56
330
9
100
AcDbSymbolTableRecord
100
AcDbRegAppTableRecord
  2
ACAD
 70
     0
  0
APPID
  5
5E
330
9
100
AcDbSymbolTableRecord
100
AcDbRegAppTableRecord
  2
AcadAnnotative
 70
     0
  0
ENDTAB
  0
TABLE
  2
DIMSTYLE
  5
A
330
0
100
AcDbSymbolTable
 70
     2
100
AcDbDimStyleTable
 71
     0
  0
DIMSTYLE
105
58
330
A
100
AcDbSymbolTableRecord
100
AcDbDimStyleTableRecord
  2
Standard
 70
     0
340
55
  0
DIMSTYLE
105
59
330
A
100
AcDbSymbolTableRecord
100
AcDbDimStyleTableRecord
  2
Annotative
 70
     0
340
55
1001
AcadAnnotative
1000
AnnotativeData
1002
{
1070
     1
1070
     1
1002
}
  0
ENDTAB
  0
TABLE
  2
BLOCK_RECORD
  5
1
330
0
100
AcDbSymbolTable
 70
    18
  0
BLOCK_RECORD
  5
70
330
1
100
AcDbSymbolTableRecord
100
AcDbBlockTableRecord
  2
*Model_Space
340
73
 70
     0
280
     1
281
     0
  0
BLOCK_RECORD
  5
6C
330
1
100
AcDbSymbolTableRecord
100
AcDbBlockTableRecord
  2
*Paper_Space
340
6F
 70
     0
280
     1
281
     0
  0
BLOCK_RECORD
  5
74
330
1
100
AcDbSymbolTableRecord
100
AcDbBlockTableRecord
  2
*Paper_Space0
340
77
 70
     0
280
     1
281
     0
  0
BLOCK_RECORD
  5
7D
330
1
100
AcDbSymbolTableRecord
100
AcDbBlockTableRecord
  2
Block_0
340
0
102
{BLKREFS
331
7E
102
}
 70
     0
280
     1
281
     0
  0
BLOCK_RECORD
  5
EB
330
1
100
AcDbSymbolTableRecord
100
AcDbBlockTableRecord
  2
Block_1
340
0
102
{BLKREFS
331
EC
102
}
 70
     0
280
     1
281
     0
  0
BLOCK_RECORD
  5
EF
330
1
100
AcDbSymbolTableRecord
100
AcDbBlockTableRecord
  2
Block_2
340
0
102
{BLKREFS
331
F0
102
}
 70
     0
280
     1
281
     0
  0
BLOCK_RECORD
  5
FC
330
1
100
AcDbSymbolTableRecord
100
AcDbBlockTableRecord
  2
Block_3
340
0
102
{BLKREFS
331
FD
102
}
 70
     0
280
     1
281
     0
  0
BLOCK_RECORD
  5
100
330
1
100
AcDbSymbolTableRecord
100
AcDbBlockTableRecord
  2
Block_4
340
0
102
{BLKREFS
331
101
102
}
 70
     0
280
     1
281
     0
  0
BLOCK_RECORD
  5
10A
330
1
100
AcDbSymbolTableRecord
100
AcDbBlockTableRecord
  2
Block_5
340
0
102
{BLKREFS
331
10B
102
}
 70
     0
280
     1
281
     0
  0
BLOCK_RECORD
  5
113
330
1
100
AcDbSymbolTableRecord
100
AcDbBlockTableRecord
  2
Block_6
340
0
102
{BLKREFS
331
114
102
}
 70
     0
280
     1
281
     0
  0
BLOCK_RECORD
  5
117
330
1
100
AcDbSymbolTableRecord
100
AcDbBlockTableRecord
  2
Block_7
340
0
102
{BLKREFS
331
118
102
}
 70
     0
280
     1
281
     0
  0
BLOCK_RECORD
  5
122
330
1
100
AcDbSymbolTableRecord
100
AcDbBlockTableRecord
  2
Block_8
340
0
102
{BLKREFS
331
123
102
}
 70
     0
280
     1
281
     0
  0
BLOCK_RECORD
  5
12F
330
1
100
AcDbSymbolTableRecord
100
AcDbBlockTableRecord
  2
Block_9
340
0
102
{BLKREFS
331
130
102
}
 70
     0
280
     1
281
     0
  0
BLOCK_RECORD
  5
133
330
1
100
AcDbSymbolTableRecord
100
AcDbBlockTableRecord
  2
Block_10
340
0
102
{BLKREFS
331
134
102
}
 70
     0
280
     1
281
     0
  0
BLOCK_RECORD
  5
13D
330
1
100
AcDbSymbolTableRecord
100
AcDbBlockTableRecord
  2
Block_11
340
0
102
{BLKREFS
331
13E
102
}
 70
     0
280
     1
281
     0
  0
BLOCK_RECORD
  5
143
330
1
100
AcDbSymbolTableRecord
100
AcDbBlockTableRecord
  2
Block_12
340
0
102
{BLKREFS
331
144
102
}
 70
     0
280
     1
281
     0
  0
BLOCK_RECORD
  5
14A
330
1
100
AcDbSymbolTableRecord
100
AcDbBlockTableRecord
  2
Block_13
340
0
102
{BLKREFS
331
14B
102
}
 70
     0
280
     1
281
     0
  0
BLOCK_RECORD
  5
14E
330
1
100
AcDbSymbolTableRecord
100
AcDbBlockTableRecord
  2
Block_14
340
0
102
{BLKREFS
331
14F
102
}
 70
     0
280
     1
281
     0
  0
BLOCK_RECORD
  5
162
330
1
100
AcDbSymbolTableRecord
100
AcDbBlockTableRecord
  2
Block_15
340
0
102
{BLKREFS
331
163
102
}
 70
     0
280
     1
281
     0
  0
BLOCK_RECORD
  5
166
330
1
100
AcDbSymbolTableRecord
100
AcDbBlockTableRecord
  2
Block_16
340
0
102
{BLKREFS
331
167
102
}
 70
     0
280
     1
281
     0
  0
ENDTAB
  0
ENDSEC
  0
SECTION
  2
BLOCKS
  0
BLOCK
  5
71
330
70
100
AcDbEntity
  8
0
100
AcDbBlockBegin
  2
*Model_Space
 70
     0
 10
0.0
 20
0.0
 30
0.0
  3
*Model_Space
  1

  0
ENDBLK
  5
72
330
70
100
AcDbEntity
  8
0
100
AcDbBlockEnd
  0
BLOCK
  5
6D
330
6C
100
AcDbEntity
 67
     1
  8
0
100
AcDbBlockBegin
  2
*Paper_Space
 70
     0
 10
0.0
 20
0.0
 30
0.0
  3
*Paper_Space
  1

  0
ENDBLK
  5
6E
330
6C
100
AcDbEntity
 67
     1
  8
0
100
AcDbBlockEnd
  0
BLOCK
  5
75
330
74
100
AcDbEntity
 67
     1
  8
0
100
AcDbBlockBegin
  2
*Paper_Space0
 70
     0
 10
0.0
 20
0.0
 30
0.0
  3
*Paper_Space0
  1

  0
ENDBLK
  5
76
330
74
100
AcDbEntity
 67
     1
  8
0
100
AcDbBlockEnd
  0
BLOCK
  5
7F
330
7D
100
AcDbEntity
  8
0
100
AcDbBlockBegin
  2
Block_0
 70
     0
 10
0.0
 20
0.0
 30
0.0
  3
Block_0
  1

  0
LINE
  5
81
330
7D
100
AcDbEntity
  8
レイヤー 1
 62
    18
420
        0
370
     9
100
AcDbLine
 10
125.2651028471907
 20
-148.5335225823453
 30
0.0
 11
126.0764211598256
 21
-149.1178284155327
 31
0.0
  0
LINE
  5
82
330
7D
100
AcDbEntity
  8
レイヤー 1
 62
    18
420
        0
370
     9
100
AcDbLine
 10
125.2651028471907
 20
-148.5335225823453
 30
0.0
 11
127.8427088925416
 21
-151.6906367482227
 31
0.0
  0
LINE
  5
83
330
7D
100
AcDbEntity
  8
レイヤー 1
 62
    18
420
        0
370
     9
100
AcDbLine
 10
125.2651028471907
 20
-148.5335225823453
 30
0.0
 11
125.675418670056
 21
-149.4454531376725
 31
0.0
  0
ENDBLK
  5
80
330
7D
100
AcDbEntity
  8
0
100
AcDbBlockEnd
  0
BLOCK
  5
ED
330
EB
100
AcDbEntity
  8
0
100
AcDbBlockBegin
  2
Block_1
 70
     0
 10
0.0
 20
0.0
 30
0.0
  3
Block_1
  1

  0
INSERT
  5
F0
330
EB
100
AcDbEntity
  8
レイヤー 1
100
AcDbBlockReference
  2
Block_2
 10
0.0
 20
0.0
 30
0.0
  0
ENDBLK
  5
EE
330
EB
100
AcDbEntity
  8
0
100
AcDbBlockEnd
  0
BLOCK
  5
F1
330
EF
100
AcDbEntity
  8
0
100
AcDbBlockBegin
  2
Block_2
 70
     0
 10
0.0
 20
0.0
 30
0.0
  3
Block_2
  1

  0
SPLINE
  5
F3
330
EF
100
AcDbEntity
  8
レイヤー 1
100
AcDbSpline
210
0.0
220
0.0
230
1.0
 70
     9
 71
     3
 72
    17
 73
    13
 74
     0
 42
0.0000000001
 43
0.0000000001
 40
0.0
 40
0.0
 40
0.0
 40
0.0
 40
1.0
 40
1.0
 40
1.0
 40
2.0
 40
2.0
 40
2.0
 40
3.0
 40
3.0
 40
3.0
 40
4.0
 40
4.0
 40
4.0
 40
4.0
 10
74.09608016810793
 20
-147.8118217946442
 30
0.0
 10
74.09608016810793
 20
-148.0615912173249
 30
0.0
 10
74.37943927176973
 20
-148.1081000063757
 30
0.0
 10
74.72429332984323
 20
-148.1081000063757
 30
0.0
 10
75.04382593610016
 20
-148.1081000063757
 30
0.0
 10
75.3526787463528
 20
-148.0719265037806
 30
0.0
 10
75.3526787463528
 20
-147.8118217946442
 30
0.0
 10
75.3526787463528
 20
-147.5641194292548
 30
0.0
 10
75.0712144452079
 20
-147.5155435829128
 30
0.0
 10
74.72429332984323
 20
-147.5155435829128
 30
0.0
 10
74.40493297836058
 20
-147.5155435829128
 30
0.0
 10
74.09608016810793
 20
-147.553784142799
 30
0.0
 10
74.09608016810793
 20
-147.8118217946442
 30
0.0
  0
SPLINE
  5
F4
330
EF
100
AcDbEntity
  8
レイヤー 1
100
AcDbSpline
210
0.0
220
0.0
230
1.0
 70
     9
 71
     3
 72
    29
 73
    25
 74
     0
 42
0.0000000001
 43
0.0000000001
 40
0.0
 40
0.0
 40
0.0
 40
0.0
 40
1.0
 40
1.0
 40
1.0
 40
2.0
 40
2.0
 40
2.0
 40
3.0
 40
3.0
 40
3.0
 40
4.0
 40
4.0
 40
4.0
 40
5.0
 40
5.0
 40
5.0
 40
6.0
 40
6.0
 40
6.0
 40
7.0
 40
7.0
 40
7.0
 40
8.0
 40
8.0
 40
8.0
 40
8.0
 10
75.3187445558231
 20
-147.4139132660979
 30
0.0
 10
75.52820636132628
 20
-147.5220892643347
 30
0.0
 10
75.54732664126942
 20
-147.6953775672428
 30
0.0
 10
75.54732664126942
 20
-147.8118217946442
 30
0.0
 10
75.54732664126942
 20
-147.9727077538054
 30
0.0
 10
75.50081785221855
 20
-148.1143011782492
 30
0.0
 10
75.3187445558231
 20
-148.2093858136421
 30
0.0
 10
75.12426891568074
 20
-148.3130831877481
 30
0.0
 10
74.88724634629555
 20
-148.3323757224655
 30
0.0
 10
74.72429332984323
 20
-148.3323757224655
 30
0.0
 10
74.58046059333405
 20
-148.3323757224655
 30
0.0
 10
74.32879636813655
 20
-148.3151502450392
 30
0.0
 10
74.12984210386338
 20
-148.2093858136421
 30
0.0
 10
73.92675372500789
 20
-148.1015543249537
 30
0.0
 10
73.90349933048246
 20
-147.9406683657926
 30
0.0
 10
73.90349933048246
 20
-147.8118217946442
 30
0.0
 10
73.90349933048246
 20
-147.6530028927742
 30
0.0
 10
73.94794106224217
 20
-147.5093424110393
 30
0.0
 10
74.12984210386338
 20
-147.4139132660979
 30
0.0
 10
74.32242294148884
 20
-147.3146945161227
 30
0.0
 10
74.5508327721609
 20
-147.291267866823
 30
0.0
 10
74.72429332984323
 20
-147.291267866823
 30
0.0
 10
74.89568683023441
 20
-147.291267866823
 30
0.0
 10
75.12633597297188
 20
-147.3126274588316
 30
0.0
 10
75.3187445558231
 20
-147.4139132660979
 30
0.0
  0
HATCH
  5
F5
330
EF
100
AcDbEntity
  8
レイヤー 1
 62
    18
420
        0
440
 33554687
100
AcDbHatch
 10
0.0
 20
0.0
 30
0.0
210
0.0
220
0.0
230
1.0
  2
SOLID
 70
     1
 71
     1
 91
        2
 92
        1
 93
        1
 72
     4
 94
        3
 73
     0
 74
     0
 95
       17
 96
       13
 40
0.0
 40
0.0
 40
0.0
 40
0.0
 40
1.0
 40
1.0
 40
1.0
 40
2.0
 40
2.0
 40
2.0
 40
3.0
 40
3.0
 40
3.0
 40
4.0
 40
4.0
 40
4.0
 40
4.0
 10
74.09608016810793
 20
-147.8118217946442
 10
74.09608016810793
 20
-148.0615912173249
 10
74.37943927176973
 20
-148.1081000063757
 10
74.72429332984323
 20
-148.1081000063757
 10
75.04382593610016
 20
-148.1081000063757
 10
75.3526787463528
 20
-148.0719265037806
 10
75.3526787463528
 20
-147.8118217946442
 10
75.3526787463528
 20
-147.5641194292548
 10
75.0712144452079
 20
-147.5155435829128
 10
74.72429332984323
 20
-147.5155435829128
 10
74.40493297836058
 20
-147.5155435829128
 10
74.09608016810793
 20
-147.553784142799
 10
74.09608016810793
 20
-147.8118217946442
 97
        0
 97
        1
330
F3
 92
        1
 93
        1
 72
     4
 94
        3
 73
     0
 74
     0
 95
       29
 96
       25
 40
0.0
 40
0.0
 40
0.0
 40
0.0
 40
1.0
 40
1.0
 40
1.0
 40
2.0
 40
2.0
 40
2.0
 40
3.0
 40
3.0
 40
3.0
 40
4.0
 40
4.0
 40
4.0
 40
5.0
 40
5.0
 40
5.0
 40
6.0
 40
6.0
 40
6.0
 40
7.0
 40
7.0
 40
7.0
 40
8.0
 40
8.0
 40
8.0
 40
8.0
 10
75.3187445558231
 20
-147.4139132660979
 10
75.52820636132628
 20
-147.5220892643347
 10
75.54732664126942
 20
-147.6953775672428
 10
75.54732664126942
 20
-147.8118217946442
 10
75.54732664126942
 20
-147.9727077538054
 10
75.50081785221855
 20
-148.1143011782492
 10
75.3187445558231
 20
-148.2093858136421
 10
75.12426891568074
 20
-148.3130831877481
 10
74.88724634629555
 20
-148.3323757224655
 10
74.72429332984323
 20
-148.3323757224655
 10
74.58046059333405
 20
-148.3323757224655
 10
74.32879636813655
 20
-148.3151502450392
 10
74.12984210386338
 20
-148.2093858136421
 10
73.92675372500789
 20
-148.1015543249537
 10
73.90349933048246
 20
-147.9406683657926
 10
73.90349933048246
 20
-147.8118217946442
 10
73.90349933048246
 20
-147.6530028927742
 10
73.94794106224217
 20
-147.5093424110393
 10
74.12984210386338
 20
-147.4139132660979
 10
74.32242294148884
 20
-147.3146945161227
 10
74.5508327721609
 20
-147.291267866823
 10
74.72429332984323
 20
-147.291267866823
 10
74.89568683023441
 20
-147.291267866823
 10
75.12633597297188
 20
-147.3126274588316
 10
75.3187445558231
 20
-147.4139132660979
 97
        0
 97
        1
330
F4
 75
     2
 76
     1
 98
        1
 10
0.0
 20
0.0
450
        0
451
        0
460
0.0
461
0.0
452
        0
462
0.0
453
        0
470

  0
SPLINE
  5
F6
330
EF
100
AcDbEntity
  8
レイヤー 1
100
AcDbSpline
210
0.0
220
0.0
230
1.0
 70
    11
 71
     3
 72
    17
 73
    13
 74
     0
 42
0.0000000001
 43
0.0000000001
 40
0.0
 40
0.0
 40
0.0
 40
0.0
 40
1.0
 40
1.0
 40
1.0
 40
2.0
 40
2.0
 40
2.0
 40
3.0
 40
3.0
 40
3.0
 40
4.0
 40
4.0
 40
4.0
 40
4.0
 10
75.49651148286199
 20
-147.0749158703493
 30
0.0
 10
75.49651148286199
 20
-147.0749158703493
 30
0.0
 10
75.24484725766448
 20
-147.0749158703493
 30
0.0
 10
75.24484725766448
 20
-147.0749158703493
 30
0.0
 10
75.24484725766448
 20
-147.0749158703493
 30
0.0
 10
75.24484725766448
 20
-146.8230793903775
 30
0.0
 10
75.24484725766448
 20
-146.8230793903775
 30
0.0
 10
75.24484725766448
 20
-146.8230793903775
 30
0.0
 10
75.49651148286199
 20
-146.8230793903775
 30
0.0
 10
75.49651148286199
 20
-146.8230793903775
 30
0.0
 10
75.49651148286199
 20
-146.8230793903775
 30
0.0
 10
75.49651148286199
 20
-147.0749158703493
 30
0.0
 10
75.49651148286199
 20
-147.0749158703493
 30
0.0
  0
HATCH
  5
F7
330
EF
100
AcDbEntity
  8
レイヤー 1
 62
    18
420
        0
440
 33554687
100
AcDbHatch
 10
0.0
 20
0.0
 30
0.0
210
0.0
220
0.0
230
1.0
  2
SOLID
 70
     1
 71
     1
 91
        1
 92
        1
 93
        1
 72
     4
 94
        3
 73
     0
 74
     0
 95
       17
 96
       13
 40
0.0
 40
0.0
 40
0.0
 40
0.0
 40
1.0
 40
1.0
 40
1.0
 40
2.0
 40
2.0
 40
2.0
 40
3.0
 40
3.0
 40
3.0
 40
4.0
 40
4.0
 40
4.0
 40
4.0
 10
75.49651148286199
 20
-147.0749158703493
 10
75.49651148286199
 20
-147.0749158703493
 10
75.24484725766448
 20
-147.0749158703493
 10
75.24484725766448
 20
-147.0749158703493
 10
75.24484725766448
 20
-147.0749158703493
 10
75.24484725766448
 20
-146.8230793903775
 10
75.24484725766448
 20
-146.8230793903775
 10
75.24484725766448
 20
-146.8230793903775
 10
75.49651148286199
 20
-146.8230793903775
 10
75.49651148286199
 20
-146.8230793903775
 10
75.49651148286199
 20
-146.8230793903775
 10
75.49651148286199
 20
-147.0749158703493
 10
75.49651148286199
 20
-147.0749158703493
 97
        0
 97
        1
330
F6
 75
     2
 76
     1
 98
        1
 10
0.0
 20
0.0
450
        0
451
        0
460
0.0
461
0.0
452
        0
462
0.0
453
        0
470

  0
SPLINE
  5
F8
330
EF
100
AcDbEntity
  8
レイヤー 1
100
AcDbSpline
210
0.0
220
0.0
230
1.0
 70
     9
 71
     3
 72
    53
 73
    49
 74
     0
 42
0.0000000001
 43
0.0000000001
 40
0.0
 40
0.0
 40
0.0
 40
0.0
 40
1.0
 40
1.0
 40
1.0
 40
2.0
 40
2.0
 40
2.0
 40
3.0
 40
3.0
 40
3.0
 40
4.0
 40
4.0
 40
4.0
 40
5.0
 40
5.0
 40
5.0
 40
6.0
 40
6.0
 40
6.0
 40
7.0
 40
7.0
 40
7.0
 40
8.0
 40
8.0
 40
8.0
 40
9.0
 40
9.0
 40
9.0
 40
10.0
 40
10.0
 40
10.0
 40
11.0
 40
11.0
 40
11.0
 40
12.0
 40
12.0
 40
12.0
 40
13.0
 40
13.0
 40
13.0
 40
14.0
 40
14.0
 40
14.0
 40
15.0
 40
15.0
 40
15.0
 40
16.0
 40
16.0
 40
16.0
 40
16.0
 10
75.54732664126942
 20
-146.1058105103485
 30
0.0
 10
75.54732664126942
 20
-146.1840141778637
 30
0.0
 10
75.5304456733917
 20
-146.2856444946786
 30
0.0
 10
75.46688366168884
 20
-146.3872748114934
 30
0.0
 10
75.3568128609351
 20
-146.5605631144015
 30
0.0
 10
75.22572697772135
 20
-146.58192270641
 30
0.0
 10
75.11789548903303
 20
-146.6008707315789
 30
0.0
 10
75.11789548903303
 20
-146.6008707315789
 30
0.0
 10
75.11789548903303
 20
-146.3786620727803
 30
0.0
 10
75.11789548903303
 20
-146.3786620727803
 30
0.0
 10
75.31667749853195
 20
-146.3238850545648
 30
0.0
 10
75.3463053197051
 20
-146.1967610311591
 30
0.0
 10
75.3463053197051
 20
-146.1037434530574
 30
0.0
 10
75.3463053197051
 20
-145.9642170859048
 30
0.0
 10
75.24691431495563
 20
-145.8119438654567
 30
0.0
 10
75.01419811492701
 20
-145.8119438654567
 30
0.0
 10
74.75822752037294
 20
-145.8119438654567
 30
0.0
 10
74.68846433679664
 20
-145.9917778497868
 30
0.0
 10
74.68846433679664
 20
-146.1123561917705
 30
0.0
 10
74.68846433679664
 20
-146.1440510702348
 30
0.0
 10
74.68846433679664
 20
-146.2856444946786
 30
0.0
 10
74.81748316271924
 20
-146.374527958198
 30
0.0
 10
74.81748316271924
 20
-146.374527958198
 30
0.0
 10
74.7983628827761
 20
-146.5502278279458
 30
0.0
 10
74.7983628827761
 20
-146.5502278279458
 30
0.0
 10
74.7983628827761
 20
-146.5502278279458
 30
0.0
 10
73.95224743159875
 20
-146.429649485962
 30
0.0
 10
73.95224743159875
 20
-146.429649485962
 30
0.0
 10
73.95224743159875
 20
-146.429649485962
 30
0.0
 10
73.95224743159875
 20
-145.6510579062955
 30
0.0
 10
73.95224743159875
 20
-145.6510579062955
 30
0.0
 10
73.95224743159875
 20
-145.6510579062955
 30
0.0
 10
74.14689532651536
 20
-145.6510579062955
 30
0.0
 10
74.14689532651536
 20
-145.6510579062955
 30
0.0
 10
74.14689532651536
 20
-145.6510579062955
 30
0.0
 10
74.14689532651536
 20
-146.2666964695097
 30
0.0
 10
74.14689532651536
 20
-146.2666964695097
 30
0.0
 10
74.14689532651536
 20
-146.2666964695097
 30
0.0
 10
74.56995305210404
 20
-146.3321532837294
 30
0.0
 10
74.56995305210404
 20
-146.3321532837294
 30
0.0
 10
74.53601886157433
 20
-146.270830584092
 30
0.0
 10
74.49588349917117
 20
-146.1884928019945
 30
0.0
 10
74.49588349917117
 20
-146.0699815173019
 30
0.0
 10
74.49588349917117
 20
-145.816077980039
 30
0.0
 10
74.68209091014893
 20
-145.5790554106538
 30
0.0
 10
74.99507783498387
 20
-145.5790554106538
 30
0.0
 10
75.31254338394965
 20
-145.5790554106538
 30
0.0
 10
75.54732664126942
 20
-145.8033311267436
 30
0.0
 10
75.54732664126942
 20
-146.1058105103485
 30
0.0
  0
HATCH
  5
F9
330
EF
100
AcDbEntity
  8
レイヤー 1
 62
    18
420
        0
440
 33554687
100
AcDbHatch
 10
0.0
 20
0.0
 30
0.0
210
0.0
220
0.0
230
1.0
  2
SOLID
 70
     1
 71
     1
 91
        1
 92
        1
 93
        1
 72
     4
 94
        3
 73
     0
 74
     0
 95
       53
 96
       49
 40
0.0
 40
0.0
 40
0.0
 40
0.0
 40
1.0
 40
1.0
 40
1.0
 40
2.0
 40
2.0
 40
2.0
 40
3.0
 40
3.0
 40
3.0
 40
4.0
 40
4.0
 40
4.0
 40
5.0
 40
5.0
 40
5.0
 40
6.0
 40
6.0
 40
6.0
 40
7.0
 40
7.0
 40
7.0
 40
8.0
 40
8.0
 40
8.0
 40
9.0
 40
9.0
 40
9.0
 40
10.0
 40
10.0
 40
10.0
 40
11.0
 40
11.0
 40
11.0
 40
12.0
 40
12.0
 40
12.0
 40
13.0
 40
13.0
 40
13.0
 40
14.0
 40
14.0
 40
14.0
 40
15.0
 40
15.0
 40
15.0
 40
16.0
 40
16.0
 40
16.0
 40
16.0
 10
75.54732664126942
 20
-146.1058105103485
 10
75.54732664126942
 20
-146.1840141778637
 10
75.5304456733917
 20
-146.2856444946786
 10
75.46688366168884
 20
-146.3872748114934
 10
75.3568128609351
 20
-146.5605631144015
 10
75.22572697772135
 20
-146.58192270641
 10
75.11789548903303
 20
-146.6008707315789
 10
75.11789548903303
 20
-146.6008707315789
 10
75.11789548903303
 20
-146.3786620727803
 10
75.11789548903303
 20
-146.3786620727803
 10
75.31667749853195
 20
-146.3238850545648
 10
75.3463053197051
 20
-146.1967610311591
 10
75.3463053197051
 20
-146.1037434530574
 10
75.3463053197051
 20
-145.9642170859048
 10
75.24691431495563
 20
-145.8119438654567
 10
75.01419811492701
 20
-145.8119438654567
 10
74.75822752037294
 20
-145.8119438654567
 10
74.68846433679664
 20
-145.9917778497868
 10
74.68846433679664
 20
-146.1123561917705
 10
74.68846433679664
 20
-146.1440510702348
 10
74.68846433679664
 20
-146.2856444946786
 10
74.81748316271924
 20
-146.374527958198
 10
74.81748316271924
 20
-146.374527958198
 10
74.7983628827761
 20
-146.5502278279458
 10
74.7983628827761
 20
-146.5502278279458
 10
74.7983628827761
 20
-146.5502278279458
 10
73.95224743159875
 20
-146.429649485962
 10
73.95224743159875
 20
-146.429649485962
 10
73.95224743159875
 20
-146.429649485962
 10
73.95224743159875
 20
-145.6510579062955
 10
73.95224743159875
 20
-145.6510579062955
 10
73.95224743159875
 20
-145.6510579062955
 10
74.14689532651536
 20
-145.6510579062955
 10
74.14689532651536
 20
-145.6510579062955
 10
74.14689532651536
 20
-145.6510579062955
 10
74.14689532651536
 20
-146.2666964695097
 10
74.14689532651536
 20
-146.2666964695097
 10
74.14689532651536
 20
-146.2666964695097
 10
74.56995305210404
 20
-146.3321532837294
 10
74.56995305210404
 20
-146.3321532837294
 10
74.53601886157433
 20
-146.270830584092
 10
74.49588349917117
 20
-146.1884928019945
 10
74.49588349917117
 20
-146.0699815173019
 10
74.49588349917117
 20
-145.816077980039
 10
74.68209091014893
 20
-145.5790554106538
 10
74.99507783498387
 20
-145.5790554106538
 10
75.31254338394965
 20
-145.5790554106538
 10
75.54732664126942
 20
-145.8033311267436
 10
75.54732664126942
 20
-146.1058105103485
 97
        0
 97
        1
330
F8
 75
     2
 76
     1
 98
        1
 10
0.0
 20
0.0
450
        0
451
        0
460
0.0
461
0.0
452
        0
462
0.0
453
        0
470

  0
ENDBLK
  5
F2
330
EF
100
AcDbEntity
  8
0
100
AcDbBlockEnd
  0
BLOCK
  5
FE
330
FC
100
AcDbEntity
  8
0
100
AcDbBlockBegin
  2
Block_3
 70
     0
 10
0.0
 20
0.0
 30
0.0
  3
Block_3
  1

  0
INSERT
  5
101
330
FC
100
AcDbEntity
  8
レイヤー 1
100
AcDbBlockReference
  2
Block_4
 10
0.0
 20
0.0
 30
0.0
  0
ENDBLK
  5
FF
330
FC
100
AcDbEntity
  8
0
100
AcDbBlockEnd
  0
BLOCK
  5
102
330
100
100
AcDbEntity
  8
0
100
AcDbBlockBegin
  2
Block_4
 70
     0
 10
0.0
 20
0.0
 30
0.0
  3
Block_4
  1

  0
SPLINE
  5
104
330
100
100
AcDbEntity
  8
レイヤー 1
100
AcDbSpline
210
0.0
220
0.0
230
1.0
 70
     9
 71
     3
 72
    44
 73
    40
 74
     0
 42
0.0000000001
 43
0.0000000001
 40
0.0
 40
0.0
 40
0.0
 40
0.0
 40
1.0
 40
1.0
 40
1.0
 40
2.0
 40
2.0
 40
2.0
 40
3.0
 40
3.0
 40
3.0
 40
4.0
 40
4.0
 40
4.0
 40
5.0
 40
5.0
 40
5.0
 40
6.0
 40
6.0
 40
6.0
 40
7.0
 40
7.0
 40
7.0
 40
8.0
 40
8.0
 40
8.0
 40
9.0
 40
9.0
 40
9.0
 40
10.0
 40
10.0
 40
10.0
 40
11.0
 40
11.0
 40
11.0
 40
12.0
 40
12.0
 40
12.0
 40
13.0
 40
13.0
 40
13.0
 40
13.0
 10
90.94483640304504
 20
-140.5995143962737
 30
0.0
 10
90.72693411360299
 20
-140.7581610433695
 30
0.0
 10
90.63374428072698
 20
-140.8322305963023
 30
0.0
 10
90.58516843438496
 20
-140.9760633328115
 30
0.0
 10
90.58516843438496
 20
-140.9760633328115
 30
0.0
 10
91.36358775927716
 20
-140.9760633328115
 30
0.0
 10
91.36358775927716
 20
-140.9760633328115
 30
0.0
 10
91.36358775927716
 20
-140.9760633328115
 30
0.0
 10
91.36358775927716
 20
-141.1812187689581
 30
0.0
 10
91.36358775927716
 20
-141.1812187689581
 30
0.0
 10
91.36358775927716
 20
-141.1812187689581
 30
0.0
 10
90.33557126647862
 20
-141.1812187689581
 30
0.0
 10
90.33557126647862
 20
-141.1812187689581
 30
0.0
 10
90.36726614494289
 20
-140.8236178575892
 30
0.0
 10
90.43272295916265
 20
-140.745414190074
 30
0.0
 10
90.81788463441359
 20
-140.4470689210514
 30
0.0
 10
91.07385522896764
 20
-140.2482869115525
 30
0.0
 10
91.1393120431874
 20
-140.1805907852673
 30
0.0
 10
91.1393120431874
 20
-140.0431314754059
 30
0.0
 10
91.1393120431874
 20
-139.9246201907133
 30
0.0
 10
91.06748180231994
 20
-139.7933620527252
 30
0.0
 10
90.87076685011217
 20
-139.7933620527252
 30
0.0
 10
90.61048988620155
 20
-139.7933620527252
 30
0.0
 10
90.60204940226268
 20
-140.0240111954627
 30
0.0
 10
90.59774303290613
 20
-140.1404554228642
 30
0.0
 10
90.59774303290613
 20
-140.1404554228642
 30
0.0
 10
90.37363957159062
 20
-140.1404554228642
 30
0.0
 10
90.37363957159062
 20
-140.1404554228642
 30
0.0
 10
90.38208005552949
 20
-140.0135036542327
 30
0.0
 10
90.3925875967595
 20
-139.9013657961878
 30
0.0
 10
90.47303057634008
 20
-139.7828545114952
 30
0.0
 10
90.58292912231955
 20
-139.6221408071083
 30
0.0
 10
90.7691365332973
 20
-139.5882066165786
 30
0.0
 10
90.88558076069874
 20
-139.5882066165786
 30
0.0
 10
91.16273869248709
 20
-139.5882066165786
 30
0.0
 10
91.36996118592488
 20
-139.7723469702652
 30
0.0
 10
91.36996118592488
 20
-140.045198532697
 30
0.0
 10
91.36996118592488
 20
-140.2736083633691
 30
0.0
 10
91.25368921329769
 20
-140.3731716228928
 30
0.0
 10
90.94483640304504
 20
-140.5995143962737
 30
0.0
  0
HATCH
  5
105
330
100
100
AcDbEntity
  8
レイヤー 1
 62
    18
420
        0
440
 33554687
100
AcDbHatch
 10
0.0
 20
0.0
 30
0.0
210
0.0
220
0.0
230
1.0
  2
SOLID
 70
     1
 71
     1
 91
        1
 92
        1
 93
        1
 72
     4
 94
        3
 73
     0
 74
     0
 95
       44
 96
       40
 40
0.0
 40
0.0
 40
0.0
 40
0.0
 40
1.0
 40
1.0
 40
1.0
 40
2.0
 40
2.0
 40
2.0
 40
3.0
 40
3.0
 40
3.0
 40
4.0
 40
4.0
 40
4.0
 40
5.0
 40
5.0
 40
5.0
 40
6.0
 40
6.0
 40
6.0
 40
7.0
 40
7.0
 40
7.0
 40
8.0
 40
8.0
 40
8.0
 40
9.0
 40
9.0
 40
9.0
 40
10.0
 40
10.0
 40
10.0
 40
11.0
 40
11.0
 40
11.0
 40
12.0
 40
12.0
 40
12.0
 40
13.0
 40
13.0
 40
13.0
 40
13.0
 10
90.94483640304504
 20
-140.5995143962737
 10
90.72693411360299
 20
-140.7581610433695
 10
90.63374428072698
 20
-140.8322305963023
 10
90.58516843438496
 20
-140.9760633328115
 10
90.58516843438496
 20
-140.9760633328115
 10
91.36358775927716
 20
-140.9760633328115
 10
91.36358775927716
 20
-140.9760633328115
 10
91.36358775927716
 20
-140.9760633328115
 10
91.36358775927716
 20
-141.1812187689581
 10
91.36358775927716
 20
-141.1812187689581
 10
91.36358775927716
 20
-141.1812187689581
 10
90.33557126647862
 20
-141.1812187689581
 10
90.33557126647862
 20
-141.1812187689581
 10
90.36726614494289
 20
-140.8236178575892
 10
90.43272295916265
 20
-140.745414190074
 10
90.81788463441359
 20
-140.4470689210514
 10
91.07385522896764
 20
-140.2482869115525
 10
91.1393120431874
 20
-140.1805907852673
 10
91.1393120431874
 20
-140.0431314754059
 10
91.1393120431874
 20
-139.9246201907133
 10
91.06748180231994
 20
-139.7933620527252
 10
90.87076685011217
 20
-139.7933620527252
 10
90.61048988620155
 20
-139.7933620527252
 10
90.60204940226268
 20
-140.0240111954627
 10
90.59774303290613
 20
-140.1404554228642
 10
90.59774303290613
 20
-140.1404554228642
 10
90.37363957159062
 20
-140.1404554228642
 10
90.37363957159062
 20
-140.1404554228642
 10
90.38208005552949
 20
-140.0135036542327
 10
90.3925875967595
 20
-139.9013657961878
 10
90.47303057634008
 20
-139.7828545114952
 10
90.58292912231955
 20
-139.6221408071083
 10
90.7691365332973
 20
-139.5882066165786
 10
90.88558076069874
 20
-139.5882066165786
 10
91.16273869248709
 20
-139.5882066165786
 10
91.36996118592488
 20
-139.7723469702652
 10
91.36996118592488
 20
-140.045198532697
 10
91.36996118592488
 20
-140.2736083633691
 10
91.25368921329769
 20
-140.3731716228928
 10
90.94483640304504
 20
-140.5995143962737
 97
        0
 97
        1
330
104
 75
     2
 76
     1
 98
        1
 10
0.0
 20
0.0
450
        0
451
        0
460
0.0
461
0.0
452
        0
462
0.0
453
        0
470

  0
SPLINE
  5
106
330
100
100
AcDbEntity
  8
レイヤー 1
100
AcDbSpline
210
0.0
220
0.0
230
1.0
 70
    11
 71
     3
 72
    26
 73
    22
 74
     0
 42
0.0000000001
 43
0.0000000001
 40
0.0
 40
0.0
 40
0.0
 40
0.0
 40
1.0
 40
1.0
 40
1.0
 40
2.0
 40
2.0
 40
2.0
 40
3.0
 40
3.0
 40
3.0
 40
4.0
 40
4.0
 40
4.0
 40
5.0
 40
5.0
 40
5.0
 40
6.0
 40
6.0
 40
6.0
 40
7.0
 40
7.0
 40
7.0
 40
7.0
 10
91.97991534158836
 20
-141.1812187689581
 30
0.0
 10
91.97991534158836
 20
-141.1812187689581
 30
0.0
 10
91.97991534158836
 20
-140.0768934111613
 30
0.0
 10
91.97991534158836
 20
-140.0768934111613
 30
0.0
 10
91.97991534158836
 20
-140.0768934111613
 30
0.0
 10
91.64987519410143
 20
-140.0768934111613
 30
0.0
 10
91.64987519410143
 20
-140.0768934111613
 30
0.0
 10
91.64987519410143
 20
-140.0768934111613
 30
0.0
 10
91.64987519410143
 20
-139.9287543052956
 30
0.0
 10
91.64987519410143
 20
-139.9287543052956
 30
0.0
 10
91.9819823988795
 20
-139.9141126494833
 30
0.0
 10
92.02849118793038
 20
-139.7511596330309
 30
0.0
 10
92.05811900910353
 20
-139.6369547176949
 30
0.0
 10
92.05811900910353
 20
-139.6369547176949
 30
0.0
 10
92.20419105767811
 20
-139.6369547176949
 30
0.0
 10
92.20419105767811
 20
-139.6369547176949
 30
0.0
 10
92.20419105767811
 20
-139.6369547176949
 30
0.0
 10
92.20419105767811
 20
-141.1812187689581
 30
0.0
 10
92.20419105767811
 20
-141.1812187689581
 30
0.0
 10
92.20419105767811
 20
-141.1812187689581
 30
0.0
 10
91.97991534158836
 20
-141.1812187689581
 30
0.0
 10
91.97991534158836
 20
-141.1812187689581
 30
0.0
  0
HATCH
  5
107
330
100
100
AcDbEntity
  8
レイヤー 1
 62
    18
420
        0
440
 33554687
100
AcDbHatch
 10
0.0
 20
0.0
 30
0.0
210
0.0
220
0.0
230
1.0
  2
SOLID
 70
     1
 71
     1
 91
        1
 92
        1
 93
        1
 72
     4
 94
        3
 73
     0
 74
     0
 95
       26
 96
       22
 40
0.0
 40
0.0
 40
0.0
 40
0.0
 40
1.0
 40
1.0
 40
1.0
 40
2.0
 40
2.0
 40
2.0
 40
3.0
 40
3.0
 40
3.0
 40
4.0
 40
4.0
 40
4.0
 40
5.0
 40
5.0
 40
5.0
 40
6.0
 40
6.0
 40
6.0
 40
7.0
 40
7.0
 40
7.0
 40
7.0
 10
91.97991534158836
 20
-141.1812187689581
 10
91.97991534158836
 20
-141.1812187689581
 10
91.97991534158836
 20
-140.0768934111613
 10
91.97991534158836
 20
-140.0768934111613
 10
91.97991534158836
 20
-140.0768934111613
 10
91.64987519410143
 20
-140.0768934111613
 10
91.64987519410143
 20
-140.0768934111613
 10
91.64987519410143
 20
-140.0768934111613
 10
91.64987519410143
 20
-139.9287543052956
 10
91.64987519410143
 20
-139.9287543052956
 10
91.9819823988795
 20
-139.9141126494833
 10
92.02849118793038
 20
-139.7511596330309
 10
92.05811900910353
 20
-139.6369547176949
 10
92.05811900910353
 20
-139.6369547176949
 10
92.20419105767811
 20
-139.6369547176949
 10
92.20419105767811
 20
-139.6369547176949
 10
92.20419105767811
 20
-139.6369547176949
 10
92.20419105767811
 20
-141.1812187689581
 10
92.20419105767811
 20
-141.1812187689581
 10
92.20419105767811
 20
-141.1812187689581
 10
91.97991534158836
 20
-141.1812187689581
 10
91.97991534158836
 20
-141.1812187689581
 97
        0
 97
        1
330
106
 75
     2
 76
     1
 98
        1
 10
0.0
 20
0.0
450
        0
451
        0
460
0.0
461
0.0
452
        0
462
0.0
453
        0
470

  0
ENDBLK
  5
103
330
100
100
AcDbEntity
  8
0
100
AcDbBlockEnd
  0
BLOCK
  5
10C
330
10A
100
AcDbEntity
  8
0
100
AcDbBlockBegin
  2
Block_5
 70
     0
 10
0.0
 20
0.0
 30
0.0
  3
Block_5
  1

  0
SPLINE
  5
10E
330
10A
100
AcDbEntity
  8
レイヤー 1
100
AcDbSpline
210
0.0
220
0.0
230
1.0
 70
     9
 71
     3
 72
    17
 73
    13
 74
     0
 42
0.0000000001
 43
0.0000000001
 40
0.0
 40
0.0
 40
0.0
 40
0.0
 40
1.0
 40
1.0
 40
1.0
 40
2.0
 40
2.0
 40
2.0
 40
3.0
 40
3.0
 40
3.0
 40
4.0
 40
4.0
 40
4.0
 40
4.0
 10
75.4188245796696
 20
-150.1338161517026
 30
0.0
 10
75.4188245796696
 20
-150.3959879181302
 30
0.0
 10
75.63035344246394
 20
-150.4338839684679
 30
0.0
 10
75.74662541509113
 20
-150.4338839684679
 30
0.0
 10
75.92232528483886
 20
-150.4338839684679
 30
0.0
 10
76.08510604651693
 20
-150.338799333075
 30
0.0
 10
76.08510604651693
 20
-150.1548312341627
 30
0.0
 10
76.08510604651693
 20
-150.0342528921789
 30
0.0
 10
76.02585040417062
 20
-149.8585530224312
 30
0.0
 10
75.74025198844342
 20
-149.8585530224312
 30
0.0
 10
75.51614852712791
 20
-149.8585530224312
 30
0.0
 10
75.4188245796696
 20
-149.9980793895838
 30
0.0
 10
75.4188245796696
 20
-150.1338161517026
 30
0.0
  0
SPLINE
  5
10F
330
10A
100
AcDbEntity
  8
レイヤー 1
100
AcDbSpline
210
0.0
220
0.0
230
1.0
 70
     9
 71
     3
 72
    32
 73
    28
 74
     0
 42
0.0000000001
 43
0.0000000001
 40
0.0
 40
0.0
 40
0.0
 40
0.0
 40
1.0
 40
1.0
 40
1.0
 40
2.0
 40
2.0
 40
2.0
 40
3.0
 40
3.0
 40
3.0
 40
4.0
 40
4.0
 40
4.0
 40
5.0
 40
5.0
 40
5.0
 40
6.0
 40
6.0
 40
6.0
 40
7.0
 40
7.0
 40
7.0
 40
8.0
 40
8.0
 40
8.0
 40
9.0
 40
9.0
 40
9.0
 40
9.0
 10
76.27768688414239
 20
-150.1506971195804
 30
0.0
 10
76.27768688414239
 20
-150.6667724232708
 30
0.0
 10
75.72337102056569
 20
-150.6753851619839
 30
0.0
 10
75.5097751004802
 20
-150.6753851619839
 30
0.0
 10
75.27912595774272
 20
-150.6753851619839
 30
0.0
 10
74.63179251606428
 20
-150.6560926272665
 30
0.0
 10
74.63179251606428
 20
-150.1124565596941
 30
0.0
 10
74.63179251606428
 20
-149.939168256786
 30
0.0
 10
74.7015556996406
 20
-149.6935329486877
 30
0.0
 10
75.03366290441867
 20
-149.65563689835
 30
0.0
 10
75.03366290441867
 20
-149.65563689835
 30
0.0
 10
75.03366290441867
 20
-149.8692328184354
 30
0.0
 10
75.03366290441867
 20
-149.8692328184354
 30
0.0
 10
74.97664657413778
 20
-149.8799126144397
 30
0.0
 10
74.82850746827203
 20
-149.911607492904
 30
0.0
 10
74.82850746827203
 20
-150.1145236169852
 30
0.0
 10
74.82850746827203
 20
-150.4066677141344
 30
0.0
 10
75.15648055846783
 20
-150.4466308217633
 30
0.0
 10
75.36163599461445
 20
-150.4593776750587
 30
0.0
 10
75.28343232709929
 20
-150.366360096957
 30
0.0
 10
75.22417668475299
 20
-150.2984917158976
 30
0.0
 10
75.22417668475299
 20
-150.1165906742764
 30
0.0
 10
75.22417668475299
 20
-149.9367566899463
 30
0.0
 10
75.3320081734413
 20
-149.6342773063414
 30
0.0
 10
75.73818493115226
 20
-149.6342773063414
 30
0.0
 10
76.05771753740919
 20
-149.6342773063414
 30
0.0
 10
76.27768688414239
 20
-149.8334038253888
 30
0.0
 10
76.27768688414239
 20
-150.1506971195804
 30
0.0
  0
HATCH
  5
110
330
10A
100
AcDbEntity
  8
レイヤー 1
 62
    18
420
        0
440
 33554687
100
AcDbHatch
 10
0.0
 20
0.0
 30
0.0
210
0.0
220
0.0
230
1.0
  2
SOLID
 70
     1
 71
     1
 91
        2
 92
        1
 93
        1
 72
     4
 94
        3
 73
     0
 74
     0
 95
       17
 96
       13
 40
0.0
 40
0.0
 40
0.0
 40
0.0
 40
1.0
 40
1.0
 40
1.0
 40
2.0
 40
2.0
 40
2.0
 40
3.0
 40
3.0
 40
3.0
 40
4.0
 40
4.0
 40
4.0
 40
4.0
 10
75.4188245796696
 20
-150.1338161517026
 10
75.4188245796696
 20
-150.3959879181302
 10
75.63035344246394
 20
-150.4338839684679
 10
75.74662541509113
 20
-150.4338839684679
 10
75.92232528483886
 20
-150.4338839684679
 10
76.08510604651693
 20
-150.338799333075
 10
76.08510604651693
 20
-150.1548312341627
 10
76.08510604651693
 20
-150.0342528921789
 10
76.02585040417062
 20
-149.8585530224312
 10
75.74025198844342
 20
-149.8585530224312
 10
75.51614852712791
 20
-149.8585530224312
 10
75.4188245796696
 20
-149.9980793895838
 10
75.4188245796696
 20
-150.1338161517026
 97
        0
 97
        1
330
10E
 92
        1
 93
        1
 72
     4
 94
        3
 73
     0
 74
     0
 95
       32
 96
       28
 40
0.0
 40
0.0
 40
0.0
 40
0.0
 40
1.0
 40
1.0
 40
1.0
 40
2.0
 40
2.0
 40
2.0
 40
3.0
 40
3.0
 40
3.0
 40
4.0
 40
4.0
 40
4.0
 40
5.0
 40
5.0
 40
5.0
 40
6.0
 40
6.0
 40
6.0
 40
7.0
 40
7.0
 40
7.0
 40
8.0
 40
8.0
 40
8.0
 40
9.0
 40
9.0
 40
9.0
 40
9.0
 10
76.27768688414239
 20
-150.1506971195804
 10
76.27768688414239
 20
-150.6667724232708
 10
75.72337102056569
 20
-150.6753851619839
 10
75.5097751004802
 20
-150.6753851619839
 10
75.27912595774272
 20
-150.6753851619839
 10
74.63179251606428
 20
-150.6560926272665
 10
74.63179251606428
 20
-150.1124565596941
 10
74.63179251606428
 20
-149.939168256786
 10
74.7015556996406
 20
-149.6935329486877
 10
75.03366290441867
 20
-149.65563689835
 10
75.03366290441867
 20
-149.65563689835
 10
75.03366290441867
 20
-149.8692328184354
 10
75.03366290441867
 20
-149.8692328184354
 10
74.97664657413778
 20
-149.8799126144397
 10
74.82850746827203
 20
-149.911607492904
 10
74.82850746827203
 20
-150.1145236169852
 10
74.82850746827203
 20
-150.4066677141344
 10
75.15648055846783
 20
-150.4466308217633
 10
75.36163599461445
 20
-150.4593776750587
 10
75.28343232709929
 20
-150.366360096957
 10
75.22417668475299
 20
-150.2984917158976
 10
75.22417668475299
 20
-150.1165906742764
 10
75.22417668475299
 20
-149.9367566899463
 10
75.3320081734413
 20
-149.6342773063414
 10
75.73818493115226
 20
-149.6342773063414
 10
76.05771753740919
 20
-149.6342773063414
 10
76.27768688414239
 20
-149.8334038253888
 10
76.27768688414239
 20
-150.1506971195804
 97
        0
 97
        1
330
10F
 75
     2
 76
     1
 98
        1
 10
0.0
 20
0.0
450
        0
451
        0
460
0.0
461
0.0
452
        0
462
0.0
453
        0
470

  0
ENDBLK
  5
10D
330
10A
100
AcDbEntity
  8
0
100
AcDbBlockEnd
  0
BLOCK
  5
115
330
113
100
AcDbEntity
  8
0
100
AcDbBlockBegin
  2
Block_6
 70
     0
 10
0.0
 20
0.0
 30
0.0
  3
Block_6
  1

  0
INSERT
  5
118
330
113
100
AcDbEntity
  8
レイヤー 1
100
AcDbBlockReference
  2
Block_7
 10
0.0
 20
0.0
 30
0.0
  0
ENDBLK
  5
116
330
113
100
AcDbEntity
  8
0
100
AcDbBlockEnd
  0
BLOCK
  5
119
330
117
100
AcDbEntity
  8
0
100
AcDbBlockBegin
  2
Block_7
 70
     0
 10
0.0
 20
0.0
 30
0.0
  3
Block_7
  1

  0
SPLINE
  5
11B
330
117
100
AcDbEntity
  8
レイヤー 1
100
AcDbSpline
210
0.0
220
0.0
230
1.0
 70
     9
 71
     3
 72
    44
 73
    40
 74
     0
 42
0.0000000001
 43
0.0000000001
 40
0.0
 40
0.0
 40
0.0
 40
0.0
 40
1.0
 40
1.0
 40
1.0
 40
2.0
 40
2.0
 40
2.0
 40
3.0
 40
3.0
 40
3.0
 40
4.0
 40
4.0
 40
4.0
 40
5.0
 40
5.0
 40
5.0
 40
6.0
 40
6.0
 40
6.0
 40
7.0
 40
7.0
 40
7.0
 40
8.0
 40
8.0
 40
8.0
 40
9.0
 40
9.0
 40
9.0
 40
10.0
 40
10.0
 40
10.0
 40
11.0
 40
11.0
 40
11.0
 40
12.0
 40
12.0
 40
12.0
 40
13.0
 40
13.0
 40
13.0
 40
13.0
 10
119.947545000395
 20
-140.5995143962737
 30
0.0
 10
119.7298149657273
 20
-140.7581610433695
 30
0.0
 10
119.6367973876255
 20
-140.8322305963023
 30
0.0
 10
119.5878770317349
 20
-140.9760633328115
 30
0.0
 10
119.5878770317349
 20
-140.9760633328115
 30
0.0
 10
120.3664686114014
 20
-140.9760633328115
 30
0.0
 10
120.3664686114014
 20
-140.9760633328115
 30
0.0
 10
120.3664686114014
 20
-140.9760633328115
 30
0.0
 10
120.3664686114014
 20
-141.1812187689581
 30
0.0
 10
120.3664686114014
 20
-141.1812187689581
 30
0.0
 10
120.3664686114014
 20
-141.1812187689581
 30
0.0
 10
119.3384521186029
 20
-141.1812187689581
 30
0.0
 10
119.3384521186029
 20
-141.1812187689581
 30
0.0
 10
119.3701469970672
 20
-140.8236178575892
 30
0.0
 10
119.4356038112869
 20
-140.745414190074
 30
0.0
 10
119.8207654865378
 20
-140.4470689210514
 30
0.0
 10
120.0767360810919
 20
-140.2482869115525
 30
0.0
 10
120.1421928953116
 20
-140.1805907852673
 30
0.0
 10
120.1421928953116
 20
-140.0431314754059
 30
0.0
 10
120.1421928953116
 20
-139.9246201907133
 30
0.0
 10
120.0701903996699
 20
-139.7933620527252
 30
0.0
 10
119.8734754474622
 20
-139.7933620527252
 30
0.0
 10
119.6133707383258
 20
-139.7933620527252
 30
0.0
 10
119.6051025091612
 20
-140.0240111954627
 30
0.0
 10
119.6006238850304
 20
-140.1404554228642
 30
0.0
 10
119.6006238850304
 20
-140.1404554228642
 30
0.0
 10
119.3763481689406
 20
-140.1404554228642
 30
0.0
 10
119.3763481689406
 20
-140.1404554228642
 30
0.0
 10
119.3849609076537
 20
-140.0135036542327
 30
0.0
 10
119.395640703658
 20
-139.9013657961878
 30
0.0
 10
119.4759114284643
 20
-139.7828545114952
 30
0.0
 10
119.5858099744438
 20
-139.6221408071083
 30
0.0
 10
119.7721896401958
 20
-139.5882066165786
 30
0.0
 10
119.8882893580487
 20
-139.5882066165786
 30
0.0
 10
120.1656195446114
 20
-139.5882066165786
 30
0.0
 10
120.3730142928234
 20
-139.7723469702652
 30
0.0
 10
120.3730142928234
 20
-140.045198532697
 30
0.0
 10
120.3730142928234
 20
-140.2736083633691
 30
0.0
 10
120.2565700654219
 20
-140.3731716228928
 30
0.0
 10
119.947545000395
 20
-140.5995143962737
 30
0.0
  0
HATCH
  5
11C
330
117
100
AcDbEntity
  8
レイヤー 1
 62
    18
420
        0
440
 33554687
100
AcDbHatch
 10
0.0
 20
0.0
 30
0.0
210
0.0
220
0.0
230
1.0
  2
SOLID
 70
     1
 71
     1
 91
        1
 92
        1
 93
        1
 72
     4
 94
        3
 73
     0
 74
     0
 95
       44
 96
       40
 40
0.0
 40
0.0
 40
0.0
 40
0.0
 40
1.0
 40
1.0
 40
1.0
 40
2.0
 40
2.0
 40
2.0
 40
3.0
 40
3.0
 40
3.0
 40
4.0
 40
4.0
 40
4.0
 40
5.0
 40
5.0
 40
5.0
 40
6.0
 40
6.0
 40
6.0
 40
7.0
 40
7.0
 40
7.0
 40
8.0
 40
8.0
 40
8.0
 40
9.0
 40
9.0
 40
9.0
 40
10.0
 40
10.0
 40
10.0
 40
11.0
 40
11.0
 40
11.0
 40
12.0
 40
12.0
 40
12.0
 40
13.0
 40
13.0
 40
13.0
 40
13.0
 10
119.947545000395
 20
-140.5995143962737
 10
119.7298149657273
 20
-140.7581610433695
 10
119.6367973876255
 20
-140.8322305963023
 10
119.5878770317349
 20
-140.9760633328115
 10
119.5878770317349
 20
-140.9760633328115
 10
120.3664686114014
 20
-140.9760633328115
 10
120.3664686114014
 20
-140.9760633328115
 10
120.3664686114014
 20
-140.9760633328115
 10
120.3664686114014
 20
-141.1812187689581
 10
120.3664686114014
 20
-141.1812187689581
 10
120.3664686114014
 20
-141.1812187689581
 10
119.3384521186029
 20
-141.1812187689581
 10
119.3384521186029
 20
-141.1812187689581
 10
119.3701469970672
 20
-140.8236178575892
 10
119.4356038112869
 20
-140.745414190074
 10
119.8207654865378
 20
-140.4470689210514
 10
120.0767360810919
 20
-140.2482869115525
 10
120.1421928953116
 20
-140.1805907852673
 10
120.1421928953116
 20
-140.0431314754059
 10
120.1421928953116
 20
-139.9246201907133
 10
120.0701903996699
 20
-139.7933620527252
 10
119.8734754474622
 20
-139.7933620527252
 10
119.6133707383258
 20
-139.7933620527252
 10
119.6051025091612
 20
-140.0240111954627
 10
119.6006238850304
 20
-140.1404554228642
 10
119.6006238850304
 20
-140.1404554228642
 10
119.3763481689406
 20
-140.1404554228642
 10
119.3763481689406
 20
-140.1404554228642
 10
119.3849609076537
 20
-140.0135036542327
 10
119.395640703658
 20
-139.9013657961878
 10
119.4759114284643
 20
-139.7828545114952
 10
119.5858099744438
 20
-139.6221408071083
 10
119.7721896401958
 20
-139.5882066165786
 10
119.8882893580487
 20
-139.5882066165786
 10
120.1656195446114
 20
-139.5882066165786
 10
120.3730142928234
 20
-139.7723469702652
 10
120.3730142928234
 20
-140.045198532697
 10
120.3730142928234
 20
-140.2736083633691
 10
120.2565700654219
 20
-140.3731716228928
 10
119.947545000395
 20
-140.5995143962737
 97
        0
 97
        1
330
11B
 75
     2
 76
     1
 98
        1
 10
0.0
 20
0.0
450
        0
451
        0
460
0.0
461
0.0
452
        0
462
0.0
453
        0
470

  0
SPLINE
  5
11D
330
117
100
AcDbEntity
  8
レイヤー 1
100
AcDbSpline
210
0.0
220
0.0
230
1.0
 70
    11
 71
     3
 72
    26
 73
    22
 74
     0
 42
0.0000000001
 43
0.0000000001
 40
0.0
 40
0.0
 40
0.0
 40
0.0
 40
1.0
 40
1.0
 40
1.0
 40
2.0
 40
2.0
 40
2.0
 40
3.0
 40
3.0
 40
3.0
 40
4.0
 40
4.0
 40
4.0
 40
5.0
 40
5.0
 40
5.0
 40
6.0
 40
6.0
 40
6.0
 40
7.0
 40
7.0
 40
7.0
 40
7.0
 10
120.9827961937126
 20
-141.1812187689581
 30
0.0
 10
120.9827961937126
 20
-141.1812187689581
 30
0.0
 10
120.9827961937126
 20
-140.0768934111613
 30
0.0
 10
120.9827961937126
 20
-140.0768934111613
 30
0.0
 10
120.9827961937126
 20
-140.0768934111613
 30
0.0
 10
120.6527560462257
 20
-140.0768934111613
 30
0.0
 10
120.6527560462257
 20
-140.0768934111613
 30
0.0
 10
120.6527560462257
 20
-140.0768934111613
 30
0.0
 10
120.6527560462257
 20
-139.9287543052956
 30
0.0
 10
120.6527560462257
 20
-139.9287543052956
 30
0.0
 10
120.9848632510038
 20
-139.9141126494833
 30
0.0
 10
121.0313720400546
 20
-139.7511596330309
 30
0.0
 10
121.0609998612278
 20
-139.6369547176949
 30
0.0
 10
121.0609998612278
 20
-139.6369547176949
 30
0.0
 10
121.2070719098024
 20
-139.6369547176949
 30
0.0
 10
121.2070719098024
 20
-139.6369547176949
 30
0.0
 10
121.2070719098024
 20
-139.6369547176949
 30
0.0
 10
121.2070719098024
 20
-141.1812187689581
 30
0.0
 10
121.2070719098024
 20
-141.1812187689581
 30
0.0
 10
121.2070719098024
 20
-141.1812187689581
 30
0.0
 10
120.9827961937126
 20
-141.1812187689581
 30
0.0
 10
120.9827961937126
 20
-141.1812187689581
 30
0.0
  0
HATCH
  5
11E
330
117
100
AcDbEntity
  8
レイヤー 1
 62
    18
420
        0
440
 33554687
100
AcDbHatch
 10
0.0
 20
0.0
 30
0.0
210
0.0
220
0.0
230
1.0
  2
SOLID
 70
     1
 71
     1
 91
        1
 92
        1
 93
        1
 72
     4
 94
        3
 73
     0
 74
     0
 95
       26
 96
       22
 40
0.0
 40
0.0
 40
0.0
 40
0.0
 40
1.0
 40
1.0
 40
1.0
 40
2.0
 40
2.0
 40
2.0
 40
3.0
 40
3.0
 40
3.0
 40
4.0
 40
4.0
 40
4.0
 40
5.0
 40
5.0
 40
5.0
 40
6.0
 40
6.0
 40
6.0
 40
7.0
 40
7.0
 40
7.0
 40
7.0
 10
120.9827961937126
 20
-141.1812187689581
 10
120.9827961937126
 20
-141.1812187689581
 10
120.9827961937126
 20
-140.0768934111613
 10
120.9827961937126
 20
-140.0768934111613
 10
120.9827961937126
 20
-140.0768934111613
 10
120.6527560462257
 20
-140.0768934111613
 10
120.6527560462257
 20
-140.0768934111613
 10
120.6527560462257
 20
-140.0768934111613
 10
120.6527560462257
 20
-139.9287543052956
 10
120.6527560462257
 20
-139.9287543052956
 10
120.9848632510038
 20
-139.9141126494833
 10
121.0313720400546
 20
-139.7511596330309
 10
121.0609998612278
 20
-139.6369547176949
 10
121.0609998612278
 20
-139.6369547176949
 10
121.2070719098024
 20
-139.6369547176949
 10
121.2070719098024
 20
-139.6369547176949
 10
121.2070719098024
 20
-139.6369547176949
 10
121.2070719098024
 20
-141.1812187689581
 10
121.2070719098024
 20
-141.1812187689581
 10
121.2070719098024
 20
-141.1812187689581
 10
120.9827961937126
 20
-141.1812187689581
 10
120.9827961937126
 20
-141.1812187689581
 97
        0
 97
        1
330
11D
 75
     2
 76
     1
 98
        1
 10
0.0
 20
0.0
450
        0
451
        0
460
0.0
461
0.0
452
        0
462
0.0
453
        0
470

  0
ENDBLK
  5
11A
330
117
100
AcDbEntity
  8
0
100
AcDbBlockEnd
  0
BLOCK
  5
124
330
122
100
AcDbEntity
  8
0
100
AcDbBlockBegin
  2
Block_8
 70
     0
 10
0.0
 20
0.0
 30
0.0
  3
Block_8
  1

  0
SPLINE
  5
126
330
122
100
AcDbEntity
  8
レイヤー 1
100
AcDbSpline
210
0.0
220
0.0
230
1.0
 70
     9
 71
     3
 72
    17
 73
    13
 74
     0
 42
0.0000000001
 43
0.0000000001
 40
0.0
 40
0.0
 40
0.0
 40
0.0
 40
1.0
 40
1.0
 40
1.0
 40
2.0
 40
2.0
 40
2.0
 40
3.0
 40
3.0
 40
3.0
 40
4.0
 40
4.0
 40
4.0
 40
4.0
 10
105.9415093051118
 20
-139.7807874542041
 30
0.0
 10
105.7764892313684
 20
-139.7807874542041
 30
0.0
 10
105.6920843919797
 20
-139.875872089597
 30
0.0
 10
105.6920843919797
 20
-140.0112643421673
 30
0.0
 10
105.6920843919797
 20
-140.1340819962165
 30
0.0
 10
105.7637423780729
 20
-140.2525932809091
 30
0.0
 10
105.9415093051118
 20
-140.2525932809091
 30
0.0
 10
106.1192762321507
 20
-140.2525932809091
 30
0.0
 10
106.1912787277924
 20
-140.1340819962165
 30
0.0
 10
106.1912787277924
 20
-140.0112643421673
 30
0.0
 10
106.1912787277924
 20
-139.875872089597
 30
0.0
 10
106.1044623215641
 20
-139.7807874542041
 30
0.0
 10
105.9415093051118
 20
-139.7807874542041
 30
0.0
  0
SPLINE
  5
127
330
122
100
AcDbEntity
  8
レイヤー 1
100
AcDbSpline
210
0.0
220
0.0
230
1.0
 70
     9
 71
     3
 72
    17
 73
    13
 74
     0
 42
0.0000000001
 43
0.0000000001
 40
0.0
 40
0.0
 40
0.0
 40
0.0
 40
1.0
 40
1.0
 40
1.0
 40
2.0
 40
2.0
 40
2.0
 40
3.0
 40
3.0
 40
3.0
 40
4.0
 40
4.0
 40
4.0
 40
4.0
 10
105.9415093051118
 20
-140.440867749178
 30
0.0
 10
105.7978488233769
 20
-140.440867749178
 30
0.0
 10
105.6452310933803
 20
-140.527511900632
 30
0.0
 10
105.6452310933803
 20
-140.7306002794875
 30
0.0
 10
105.6452310933803
 20
-140.9357557156341
 30
0.0
 10
105.7723551167861
 20
-141.037386032449
 30
0.0
 10
105.9415093051118
 20
-141.037386032449
 30
0.0
 10
106.1275444613153
 20
-141.037386032449
 30
0.0
 10
106.2377875168433
 20
-140.9147406331741
 30
0.0
 10
106.2377875168433
 20
-140.7369737061352
 30
0.0
 10
106.2377875168433
 20
-140.5147650473366
 30
0.0
 10
106.074834500391
 20
-140.440867749178
 30
0.0
 10
105.9415093051118
 20
-140.440867749178
 30
0.0
  0
SPLINE
  5
128
330
122
100
AcDbEntity
  8
レイヤー 1
100
AcDbSpline
210
0.0
220
0.0
230
1.0
 70
     9
 71
     3
 72
    29
 73
    25
 74
     0
 42
0.0000000001
 43
0.0000000001
 40
0.0
 40
0.0
 40
0.0
 40
0.0
 40
1.0
 40
1.0
 40
1.0
 40
2.0
 40
2.0
 40
2.0
 40
3.0
 40
3.0
 40
3.0
 40
4.0
 40
4.0
 40
4.0
 40
5.0
 40
5.0
 40
5.0
 40
6.0
 40
6.0
 40
6.0
 40
7.0
 40
7.0
 40
7.0
 40
8.0
 40
8.0
 40
8.0
 40
8.0
 10
105.9415093051118
 20
-141.2320339273656
 30
0.0
 10
105.6748589145535
 20
-141.2320339273656
 30
0.0
 10
105.4211276320648
 20
-141.0944023627298
 30
0.0
 10
105.4211276320648
 20
-140.745414190074
 30
0.0
 10
105.4211276320648
 20
-140.48944359552
 30
0.0
 10
105.5628933112829
 20
-140.3941867053528
 30
0.0
 10
105.66865774268
 20
-140.3328640057154
 30
0.0
 10
105.543945286114
 20
-140.2736083633691
 30
0.0
 10
105.4676364211157
 20
-140.159403448033
 30
0.0
 10
105.4676364211157
 20
-139.9986897436461
 30
0.0
 10
105.4676364211157
 20
-139.7235988691489
 30
0.0
 10
105.6665906853889
 20
-139.5882066165786
 30
0.0
 10
105.9415093051118
 20
-139.5882066165786
 30
0.0
 10
106.2250406635479
 20
-139.5882066165786
 30
0.0
 10
106.4155544438822
 20
-139.7320393530878
 30
0.0
 10
106.4155544438822
 20
-139.9986897436461
 30
0.0
 10
106.4155544438822
 20
-140.159403448033
 30
0.0
 10
106.3370062668185
 20
-140.2736083633691
 30
0.0
 10
106.2122938102525
 20
-140.3328640057154
 30
0.0
 10
106.3011772737719
 20
-140.3836791641228
 30
0.0
 10
106.4599961756419
 20
-140.47893605429
 30
0.0
 10
106.4599961756419
 20
-140.7411078207175
 30
0.0
 10
106.4599961756419
 20
-141.1155896999642
 30
0.0
 10
106.1805989317882
 20
-141.2320339273656
 30
0.0
 10
105.9415093051118
 20
-141.2320339273656
 30
0.0
  0
HATCH
  5
129
330
122
100
AcDbEntity
  8
レイヤー 1
 62
    18
420
        0
440
 33554687
100
AcDbHatch
 10
0.0
 20
0.0
 30
0.0
210
0.0
220
0.0
230
1.0
  2
SOLID
 70
     1
 71
     1
 91
        3
 92
        1
 93
        1
 72
     4
 94
        3
 73
     0
 74
     0
 95
       17
 96
       13
 40
0.0
 40
0.0
 40
0.0
 40
0.0
 40
1.0
 40
1.0
 40
1.0
 40
2.0
 40
2.0
 40
2.0
 40
3.0
 40
3.0
 40
3.0
 40
4.0
 40
4.0
 40
4.0
 40
4.0
 10
105.9415093051118
 20
-139.7807874542041
 10
105.7764892313684
 20
-139.7807874542041
 10
105.6920843919797
 20
-139.875872089597
 10
105.6920843919797
 20
-140.0112643421673
 10
105.6920843919797
 20
-140.1340819962165
 10
105.7637423780729
 20
-140.2525932809091
 10
105.9415093051118
 20
-140.2525932809091
 10
106.1192762321507
 20
-140.2525932809091
 10
106.1912787277924
 20
-140.1340819962165
 10
106.1912787277924
 20
-140.0112643421673
 10
106.1912787277924
 20
-139.875872089597
 10
106.1044623215641
 20
-139.7807874542041
 10
105.9415093051118
 20
-139.7807874542041
 97
        0
 97
        1
330
126
 92
        1
 93
        1
 72
     4
 94
        3
 73
     0
 74
     0
 95
       17
 96
       13
 40
0.0
 40
0.0
 40
0.0
 40
0.0
 40
1.0
 40
1.0
 40
1.0
 40
2.0
 40
2.0
 40
2.0
 40
3.0
 40
3.0
 40
3.0
 40
4.0
 40
4.0
 40
4.0
 40
4.0
 10
105.9415093051118
 20
-140.440867749178
 10
105.7978488233769
 20
-140.440867749178
 10
105.6452310933803
 20
-140.527511900632
 10
105.6452310933803
 20
-140.7306002794875
 10
105.6452310933803
 20
-140.9357557156341
 10
105.7723551167861
 20
-141.037386032449
 10
105.9415093051118
 20
-141.037386032449
 10
106.1275444613153
 20
-141.037386032449
 10
106.2377875168433
 20
-140.9147406331741
 10
106.2377875168433
 20
-140.7369737061352
 10
106.2377875168433
 20
-140.5147650473366
 10
106.074834500391
 20
-140.440867749178
 10
105.9415093051118
 20
-140.440867749178
 97
        0
 97
        1
330
127
 92
        1
 93
        1
 72
     4
 94
        3
 73
     0
 74
     0
 95
       29
 96
       25
 40
0.0
 40
0.0
 40
0.0
 40
0.0
 40
1.0
 40
1.0
 40
1.0
 40
2.0
 40
2.0
 40
2.0
 40
3.0
 40
3.0
 40
3.0
 40
4.0
 40
4.0
 40
4.0
 40
5.0
 40
5.0
 40
5.0
 40
6.0
 40
6.0
 40
6.0
 40
7.0
 40
7.0
 40
7.0
 40
8.0
 40
8.0
 40
8.0
 40
8.0
 10
105.9415093051118
 20
-141.2320339273656
 10
105.6748589145535
 20
-141.2320339273656
 10
105.4211276320648
 20
-141.0944023627298
 10
105.4211276320648
 20
-140.745414190074
 10
105.4211276320648
 20
-140.48944359552
 10
105.5628933112829
 20
-140.3941867053528
 10
105.66865774268
 20
-140.3328640057154
 10
105.543945286114
 20
-140.2736083633691
 10
105.4676364211157
 20
-140.159403448033
 10
105.4676364211157
 20
-139.9986897436461
 10
105.4676364211157
 20
-139.7235988691489
 10
105.6665906853889
 20
-139.5882066165786
 10
105.9415093051118
 20
-139.5882066165786
 10
106.2250406635479
 20
-139.5882066165786
 10
106.4155544438822
 20
-139.7320393530878
 10
106.4155544438822
 20
-139.9986897436461
 10
106.4155544438822
 20
-140.159403448033
 10
106.3370062668185
 20
-140.2736083633691
 10
106.2122938102525
 20
-140.3328640057154
 10
106.3011772737719
 20
-140.3836791641228
 10
106.4599961756419
 20
-140.47893605429
 10
106.4599961756419
 20
-140.7411078207175
 10
106.4599961756419
 20
-141.1155896999642
 10
106.1805989317882
 20
-141.2320339273656
 10
105.9415093051118
 20
-141.2320339273656
 97
        0
 97
        1
330
128
 75
     2
 76
     1
 98
        1
 10
0.0
 20
0.0
450
        0
451
        0
460
0.0
461
0.0
452
        0
462
0.0
453
        0
470

  0
ENDBLK
  5
125
330
122
100
AcDbEntity
  8
0
100
AcDbBlockEnd
  0
BLOCK
  5
131
330
12F
100
AcDbEntity
  8
0
100
AcDbBlockBegin
  2
Block_9
 70
     0
 10
0.0
 20
0.0
 30
0.0
  3
Block_9
  1

  0
INSERT
  5
134
330
12F
100
AcDbEntity
  8
レイヤー 1
100
AcDbBlockReference
  2
Block_10
 10
0.0
 20
0.0
 30
0.0
  0
ENDBLK
  5
132
330
12F
100
AcDbEntity
  8
0
100
AcDbBlockEnd
  0
BLOCK
  5
135
330
133
100
AcDbEntity
  8
0
100
AcDbBlockBegin
  2
Block_10
 70
     0
 10
0.0
 20
0.0
 30
0.0
  3
Block_10
  1

  0
SPLINE
  5
137
330
133
100
AcDbEntity
  8
レイヤー 1
100
AcDbSpline
210
0.0
220
0.0
230
1.0
 70
    11
 71
     3
 72
    26
 73
    22
 74
     0
 42
0.0000000001
 43
0.0000000001
 40
0.0
 40
0.0
 40
0.0
 40
0.0
 40
1.0
 40
1.0
 40
1.0
 40
2.0
 40
2.0
 40
2.0
 40
3.0
 40
3.0
 40
3.0
 40
4.0
 40
4.0
 40
4.0
 40
5.0
 40
5.0
 40
5.0
 40
6.0
 40
6.0
 40
6.0
 40
7.0
 40
7.0
 40
7.0
 40
7.0
 10
105.3048556594377
 20
-156.5568521744024
 30
0.0
 10
105.3048556594377
 20
-156.5568521744024
 30
0.0
 10
105.3048556594377
 20
-155.4526990713799
 30
0.0
 10
105.3048556594377
 20
-155.4526990713799
 30
0.0
 10
105.3048556594377
 20
-155.4526990713799
 30
0.0
 10
104.9748155119507
 20
-155.4526990713799
 30
0.0
 10
104.9748155119507
 20
-155.4526990713799
 30
0.0
 10
104.9748155119507
 20
-155.4526990713799
 30
0.0
 10
104.9748155119507
 20
-155.3045599655141
 30
0.0
 10
104.9748155119507
 20
-155.3045599655141
 30
0.0
 10
105.3069227167288
 20
-155.2897460549275
 30
0.0
 10
105.3534315057797
 20
-155.1267930384752
 30
0.0
 10
105.3830593269528
 20
-155.0124158683649
 30
0.0
 10
105.3830593269528
 20
-155.0124158683649
 30
0.0
 10
105.5291313755274
 20
-155.0124158683649
 30
0.0
 10
105.5291313755274
 20
-155.0124158683649
 30
0.0
 10
105.5291313755274
 20
-155.0124158683649
 30
0.0
 10
105.5291313755274
 20
-156.5568521744024
 30
0.0
 10
105.5291313755274
 20
-156.5568521744024
 30
0.0
 10
105.5291313755274
 20
-156.5568521744024
 30
0.0
 10
105.3048556594377
 20
-156.5568521744024
 30
0.0
 10
105.3048556594377
 20
-156.5568521744024
 30
0.0
  0
HATCH
  5
138
330
133
100
AcDbEntity
  8
レイヤー 1
 62
    18
420
        0
440
 33554687
100
AcDbHatch
 10
0.0
 20
0.0
 30
0.0
210
0.0
220
0.0
230
1.0
  2
SOLID
 70
     1
 71
     1
 91
        1
 92
        1
 93
        1
 72
     4
 94
        3
 73
     0
 74
     0
 95
       26
 96
       22
 40
0.0
 40
0.0
 40
0.0
 40
0.0
 40
1.0
 40
1.0
 40
1.0
 40
2.0
 40
2.0
 40
2.0
 40
3.0
 40
3.0
 40
3.0
 40
4.0
 40
4.0
 40
4.0
 40
5.0
 40
5.0
 40
5.0
 40
6.0
 40
6.0
 40
6.0
 40
7.0
 40
7.0
 40
7.0
 40
7.0
 10
105.3048556594377
 20
-156.5568521744024
 10
105.3048556594377
 20
-156.5568521744024
 10
105.3048556594377
 20
-155.4526990713799
 10
105.3048556594377
 20
-155.4526990713799
 10
105.3048556594377
 20
-155.4526990713799
 10
104.9748155119507
 20
-155.4526990713799
 10
104.9748155119507
 20
-155.4526990713799
 10
104.9748155119507
 20
-155.4526990713799
 10
104.9748155119507
 20
-155.3045599655141
 10
104.9748155119507
 20
-155.3045599655141
 10
105.3069227167288
 20
-155.2897460549275
 10
105.3534315057797
 20
-155.1267930384752
 10
105.3830593269528
 20
-155.0124158683649
 10
105.3830593269528
 20
-155.0124158683649
 10
105.5291313755274
 20
-155.0124158683649
 10
105.5291313755274
 20
-155.0124158683649
 10
105.5291313755274
 20
-155.0124158683649
 10
105.5291313755274
 20
-156.5568521744024
 10
105.5291313755274
 20
-156.5568521744024
 10
105.5291313755274
 20
-156.5568521744024
 10
105.3048556594377
 20
-156.5568521744024
 10
105.3048556594377
 20
-156.5568521744024
 97
        0
 97
        1
330
137
 75
     2
 76
     1
 98
        1
 10
0.0
 20
0.0
450
        0
451
        0
460
0.0
461
0.0
452
        0
462
0.0
453
        0
470

  0
SPLINE
  5
139
330
133
100
AcDbEntity
  8
レイヤー 1
100
AcDbSpline
210
0.0
220
0.0
230
1.0
 70
     9
 71
     3
 72
    17
 73
    13
 74
     0
 42
0.0000000001
 43
0.0000000001
 40
0.0
 40
0.0
 40
0.0
 40
0.0
 40
1.0
 40
1.0
 40
1.0
 40
2.0
 40
2.0
 40
2.0
 40
3.0
 40
3.0
 40
3.0
 40
4.0
 40
4.0
 40
4.0
 40
4.0
 10
106.530276123541
 20
-155.1564208596484
 30
0.0
 10
106.2805067008604
 20
-155.1564208596484
 30
0.0
 10
106.2339979118095
 20
-155.4399522180844
 30
0.0
 10
106.2339979118095
 20
-155.784806276158
 30
0.0
 10
106.2339979118095
 20
-156.1041666276406
 30
0.0
 10
106.2701714144047
 20
-156.412847183119
 30
0.0
 10
106.530276123541
 20
-156.412847183119
 30
0.0
 10
106.7779784889305
 20
-156.412847183119
 30
0.0
 10
106.8265543352725
 20
-156.1317273915226
 30
0.0
 10
106.8265543352725
 20
-155.784806276158
 30
0.0
 10
106.8265543352725
 20
-155.4651014151268
 30
0.0
 10
106.7883137753862
 20
-155.1564208596484
 30
0.0
 10
106.530276123541
 20
-155.1564208596484
 30
0.0
  0
SPLINE
  5
13A
330
133
100
AcDbEntity
  8
レイヤー 1
100
AcDbSpline
210
0.0
220
0.0
230
1.0
 70
     9
 71
     3
 72
    29
 73
    25
 74
     0
 42
0.0000000001
 43
0.0000000001
 40
0.0
 40
0.0
 40
0.0
 40
0.0
 40
1.0
 40
1.0
 40
1.0
 40
2.0
 40
2.0
 40
2.0
 40
3.0
 40
3.0
 40
3.0
 40
4.0
 40
4.0
 40
4.0
 40
5.0
 40
5.0
 40
5.0
 40
6.0
 40
6.0
 40
6.0
 40
7.0
 40
7.0
 40
7.0
 40
8.0
 40
8.0
 40
8.0
 40
8.0
 10
106.9281846520874
 20
-156.3790852473635
 30
0.0
 10
106.8200086538505
 20
-156.5885470528668
 30
0.0
 10
106.6467203509425
 20
-156.6074950780356
 30
0.0
 10
106.530276123541
 20
-156.6074950780356
 30
0.0
 10
106.3693901643798
 20
-156.6074950780356
 30
0.0
 10
106.2277967399361
 20
-156.5609862889847
 30
0.0
 10
106.1327121045432
 20
-156.3790852473635
 30
0.0
 10
106.0290147304372
 20
-156.1844373524469
 30
0.0
 10
106.0097221957198
 20
-155.9474147830617
 30
0.0
 10
106.0097221957198
 20
-155.784806276158
 30
0.0
 10
106.0097221957198
 20
-155.6408012848745
 30
0.0
 10
106.026947673146
 20
-155.3889648049027
 30
0.0
 10
106.1327121045432
 20
-155.1901827954038
 30
0.0
 10
106.2405435932315
 20
-154.9872666713226
 30
0.0
 10
106.4014295523927
 20
-154.9638400220229
 30
0.0
 10
106.530276123541
 20
-154.9638400220229
 30
0.0
 10
106.689095025411
 20
-154.9638400220229
 30
0.0
 10
106.8327555071459
 20
-155.0082817537826
 30
0.0
 10
106.9281846520874
 20
-155.1901827954038
 30
0.0
 10
107.0274034020626
 20
-155.3827636330293
 30
0.0
 10
107.0508300513623
 20
-155.6111734637014
 30
0.0
 10
107.0508300513623
 20
-155.784806276158
 30
0.0
 10
107.0508300513623
 20
-155.9560275217749
 30
0.0
 10
107.0294704593537
 20
-156.1865044097381
 30
0.0
 10
106.9281846520874
 20
-156.3790852473635
 30
0.0
  0
HATCH
  5
13B
330
133
100
AcDbEntity
  8
レイヤー 1
 62
    18
420
        0
440
 33554687
100
AcDbHatch
 10
0.0
 20
0.0
 30
0.0
210
0.0
220
0.0
230
1.0
  2
SOLID
 70
     1
 71
     1
 91
        2
 92
        1
 93
        1
 72
     4
 94
        3
 73
     0
 74
     0
 95
       17
 96
       13
 40
0.0
 40
0.0
 40
0.0
 40
0.0
 40
1.0
 40
1.0
 40
1.0
 40
2.0
 40
2.0
 40
2.0
 40
3.0
 40
3.0
 40
3.0
 40
4.0
 40
4.0
 40
4.0
 40
4.0
 10
106.530276123541
 20
-155.1564208596484
 10
106.2805067008604
 20
-155.1564208596484
 10
106.2339979118095
 20
-155.4399522180844
 10
106.2339979118095
 20
-155.784806276158
 10
106.2339979118095
 20
-156.1041666276406
 10
106.2701714144047
 20
-156.412847183119
 10
106.530276123541
 20
-156.412847183119
 10
106.7779784889305
 20
-156.412847183119
 10
106.8265543352725
 20
-156.1317273915226
 10
106.8265543352725
 20
-155.784806276158
 10
106.8265543352725
 20
-155.4651014151268
 10
106.7883137753862
 20
-155.1564208596484
 10
106.530276123541
 20
-155.1564208596484
 97
        0
 97
        1
330
139
 92
        1
 93
        1
 72
     4
 94
        3
 73
     0
 74
     0
 95
       29
 96
       25
 40
0.0
 40
0.0
 40
0.0
 40
0.0
 40
1.0
 40
1.0
 40
1.0
 40
2.0
 40
2.0
 40
2.0
 40
3.0
 40
3.0
 40
3.0
 40
4.0
 40
4.0
 40
4.0
 40
5.0
 40
5.0
 40
5.0
 40
6.0
 40
6.0
 40
6.0
 40
7.0
 40
7.0
 40
7.0
 40
8.0
 40
8.0
 40
8.0
 40
8.0
 10
106.9281846520874
 20
-156.3790852473635
 10
106.8200086538505
 20
-156.5885470528668
 10
106.6467203509425
 20
-156.6074950780356
 10
106.530276123541
 20
-156.6074950780356
 10
106.3693901643798
 20
-156.6074950780356
 10
106.2277967399361
 20
-156.5609862889847
 10
106.1327121045432
 20
-156.3790852473635
 10
106.0290147304372
 20
-156.1844373524469
 10
106.0097221957198
 20
-155.9474147830617
 10
106.0097221957198
 20
-155.784806276158
 10
106.0097221957198
 20
-155.6408012848745
 10
106.026947673146
 20
-155.3889648049027
 10
106.1327121045432
 20
-155.1901827954038
 10
106.2405435932315
 20
-154.9872666713226
 10
106.4014295523927
 20
-154.9638400220229
 10
106.530276123541
 20
-154.9638400220229
 10
106.689095025411
 20
-154.9638400220229
 10
106.8327555071459
 20
-155.0082817537826
 10
106.9281846520874
 20
-155.1901827954038
 10
107.0274034020626
 20
-155.3827636330293
 10
107.0508300513623
 20
-155.6111734637014
 10
107.0508300513623
 20
-155.784806276158
 10
107.0508300513623
 20
-155.9560275217749
 10
107.0294704593537
 20
-156.1865044097381
 10
106.9281846520874
 20
-156.3790852473635
 97
        0
 97
        1
330
13A
 75
     2
 76
     1
 98
        1
 10
0.0
 20
0.0
450
        0
451
        0
460
0.0
461
0.0
452
        0
462
0.0
453
        0
470

  0
ENDBLK
  5
136
330
133
100
AcDbEntity
  8
0
100
AcDbBlockEnd
  0
BLOCK
  5
13F
330
13D
100
AcDbEntity
  8
0
100
AcDbBlockBegin
  2
Block_11
 70
     0
 10
0.0
 20
0.0
 30
0.0
  3
Block_11
  1

  0
SPLINE
  5
141
330
13D
100
AcDbEntity
  8
レイヤー 1
100
AcDbSpline
210
0.0
220
0.0
230
1.0
 70
    11
 71
     3
 72
    26
 73
    22
 74
     0
 42
0.0000000001
 43
0.0000000001
 40
0.0
 40
0.0
 40
0.0
 40
0.0
 40
1.0
 40
1.0
 40
1.0
 40
2.0
 40
2.0
 40
2.0
 40
3.0
 40
3.0
 40
3.0
 40
4.0
 40
4.0
 40
4.0
 40
5.0
 40
5.0
 40
5.0
 40
6.0
 40
6.0
 40
6.0
 40
7.0
 40
7.0
 40
7.0
 40
7.0
 10
112.872696911886
 20
-149.5343695372692
 30
0.0
 10
112.872696911886
 20
-149.5343695372692
 30
0.0
 10
112.872696911886
 20
-148.4300441794723
 30
0.0
 10
112.872696911886
 20
-148.4300441794723
 30
0.0
 10
112.872696911886
 20
-148.4300441794723
 30
0.0
 10
112.542656764399
 20
-148.4300441794723
 30
0.0
 10
112.542656764399
 20
-148.4300441794723
 30
0.0
 10
112.542656764399
 20
-148.4300441794723
 30
0.0
 10
112.542656764399
 20
-148.2819050736066
 30
0.0
 10
112.542656764399
 20
-148.2819050736066
 30
0.0
 10
112.8747639691771
 20
-148.2672634177943
 30
0.0
 10
112.921272758228
 20
-148.104310401342
 30
0.0
 10
112.9509005794011
 20
-147.9901054860059
 30
0.0
 10
112.9509005794011
 20
-147.9901054860059
 30
0.0
 10
113.0969726279757
 20
-147.9901054860059
 30
0.0
 10
113.0969726279757
 20
-147.9901054860059
 30
0.0
 10
113.0969726279757
 20
-147.9901054860059
 30
0.0
 10
113.0969726279757
 20
-149.5343695372692
 30
0.0
 10
113.0969726279757
 20
-149.5343695372692
 30
0.0
 10
113.0969726279757
 20
-149.5343695372692
 30
0.0
 10
112.872696911886
 20
-149.5343695372692
 30
0.0
 10
112.872696911886
 20
-149.5343695372692
 30
0.0
  0
HATCH
  5
142
330
13D
100
AcDbEntity
  8
レイヤー 1
 62
    18
420
        0
440
 33554687
100
AcDbHatch
 10
0.0
 20
0.0
 30
0.0
210
0.0
220
0.0
230
1.0
  2
SOLID
 70
     1
 71
     1
 91
        1
 92
        1
 93
        1
 72
     4
 94
        3
 73
     0
 74
     0
 95
       26
 96
       22
 40
0.0
 40
0.0
 40
0.0
 40
0.0
 40
1.0
 40
1.0
 40
1.0
 40
2.0
 40
2.0
 40
2.0
 40
3.0
 40
3.0
 40
3.0
 40
4.0
 40
4.0
 40
4.0
 40
5.0
 40
5.0
 40
5.0
 40
6.0
 40
6.0
 40
6.0
 40
7.0
 40
7.0
 40
7.0
 40
7.0
 10
112.872696911886
 20
-149.5343695372692
 10
112.872696911886
 20
-149.5343695372692
 10
112.872696911886
 20
-148.4300441794723
 10
112.872696911886
 20
-148.4300441794723
 10
112.872696911886
 20
-148.4300441794723
 10
112.542656764399
 20
-148.4300441794723
 10
112.542656764399
 20
-148.4300441794723
 10
112.542656764399
 20
-148.4300441794723
 10
112.542656764399
 20
-148.2819050736066
 10
112.542656764399
 20
-148.2819050736066
 10
112.8747639691771
 20
-148.2672634177943
 10
112.921272758228
 20
-148.104310401342
 10
112.9509005794011
 20
-147.9901054860059
 10
112.9509005794011
 20
-147.9901054860059
 10
113.0969726279757
 20
-147.9901054860059
 10
113.0969726279757
 20
-147.9901054860059
 10
113.0969726279757
 20
-147.9901054860059
 10
113.0969726279757
 20
-149.5343695372692
 10
113.0969726279757
 20
-149.5343695372692
 10
113.0969726279757
 20
-149.5343695372692
 10
112.872696911886
 20
-149.5343695372692
 10
112.872696911886
 20
-149.5343695372692
 97
        0
 97
        1
330
141
 75
     2
 76
     1
 98
        1
 10
0.0
 20
0.0
450
        0
451
        0
460
0.0
461
0.0
452
        0
462
0.0
453
        0
470

  0
ENDBLK
  5
140
330
13D
100
AcDbEntity
  8
0
100
AcDbBlockEnd
  0
BLOCK
  5
145
330
143
100
AcDbEntity
  8
0
100
AcDbBlockBegin
  2
Block_12
 70
     0
 10
0.0
 20
0.0
 30
0.0
  3
Block_12
  1

  0
LWPOLYLINE
  5
147
330
143
100
AcDbEntity
  8
レイヤー 1
 62
   250
420
  2299925
370
     9
100
AcDbPolyline
 90
        4
 70
     1
 43
0.0
 10
111.3968832363583
 20
-152.8881409145902
 10
111.9587487422196
 20
-152.8812617479251
 10
111.0681965427173
 20
-152.5656667480041
 10
111.3723968127342
 20
-153.4799961922194
  0
HATCH
  5
148
330
143
100
AcDbEntity
  8
レイヤー 1
 62
   250
420
  2299925
440
 33554687
100
AcDbHatch
 10
0.0
 20
0.0
 30
0.0
210
0.0
220
0.0
230
1.0
  2
SOLID
 70
     1
 71
     1
 91
        1
 92
        1
 93
        4
 72
     1
 10
111.3968832363583
 20
-152.8881409145902
 11
111.9587487422196
 21
-152.8812617479251
 72
     1
 10
111.9587487422196
 20
-152.8812617479251
 11
111.0681965427173
 21
-152.5656667480041
 72
     1
 10
111.0681965427173
 20
-152.5656667480041
 11
111.3723968127342
 21
-153.4799961922194
 72
     1
 10
111.3723968127342
 20
-153.4799961922194
 11
111.3968832363583
 21
-152.8881409145902
 97
        1
330
147
 75
     2
 76
     1
 98
        1
 10
0.0
 20
0.0
450
        0
451
        0
460
0.0
461
0.0
452
        0
462
0.0
453
        0
470

  0
LINE
  5
149
330
143
100
AcDbEntity
  8
レイヤー 1
 62
   250
420
  2299925
370
     9
100
AcDbLine
 10
111.3968832363583
 20
-152.8881409145902
 30
0.0
 11
113.8012011952147
 21
-155.2776459139928
 31
0.0
  0
ENDBLK
  5
146
330
143
100
AcDbEntity
  8
0
100
AcDbBlockEnd
  0
BLOCK
  5
14C
330
14A
100
AcDbEntity
  8
0
100
AcDbBlockBegin
  2
Block_13
 70
     0
 10
0.0
 20
0.0
 30
0.0
  3
Block_13
  1

  0
INSERT
  5
14F
330
14A
100
AcDbEntity
  8
レイヤー 1
100
AcDbBlockReference
  2
Block_14
 10
0.0
 20
0.0
 30
0.0
  0
ENDBLK
  5
14D
330
14A
100
AcDbEntity
  8
0
100
AcDbBlockEnd
  0
BLOCK
  5
150
330
14E
100
AcDbEntity
  8
0
100
AcDbBlockBegin
  2
Block_14
 70
     0
 10
0.0
 20
0.0
 30
0.0
  3
Block_14
  1

  0
SPLINE
  5
152
330
14E
100
AcDbEntity
  8
レイヤー 1
100
AcDbSpline
210
0.0
220
0.0
230
1.0
 70
     9
 71
     3
 72
    38
 73
    34
 74
     0
 42
0.0000000001
 43
0.0000000001
 40
0.0
 40
0.0
 40
0.0
 40
0.0
 40
1.0
 40
1.0
 40
1.0
 40
2.0
 40
2.0
 40
2.0
 40
3.0
 40
3.0
 40
3.0
 40
4.0
 40
4.0
 40
4.0
 40
5.0
 40
5.0
 40
5.0
 40
6.0
 40
6.0
 40
6.0
 40
7.0
 40
7.0
 40
7.0
 40
8.0
 40
8.0
 40
8.0
 40
9.0
 40
9.0
 40
9.0
 40
10.0
 40
10.0
 40
10.0
 40
11.0
 40
11.0
 40
11.0
 40
11.0
 10
114.3330728880834
 20
-156.3580701649035
 30
0.0
 10
114.4260904661851
 20
-156.2354247656286
 30
0.0
 10
114.5511474322997
 20
-156.0555907812986
 30
0.0
 10
114.6462320676926
 20
-155.607039349119
 30
0.0
 10
114.6462320676926
 20
-155.607039349119
 30
0.0
 10
114.8133191987272
 20
-155.6263318838365
 30
0.0
 10
114.8133191987272
 20
-155.6263318838365
 30
0.0
 10
114.7878254921363
 20
-155.7469102258202
 30
0.0
 10
114.7647433523852
 20
-155.8378607466308
 30
0.0
 10
114.7265027924989
 20
-155.9456922353191
 30
0.0
 10
114.7265027924989
 20
-155.9456922353191
 30
0.0
 10
115.3548882090085
 20
-155.9456922353191
 30
0.0
 10
115.3548882090085
 20
-155.9456922353191
 30
0.0
 10
115.3548882090085
 20
-155.9456922353191
 30
0.0
 10
115.3548882090085
 20
-156.0979654557672
 30
0.0
 10
115.3548882090085
 20
-156.0979654557672
 30
0.0
 10
115.321126273253
 20
-156.2399033897594
 30
0.0
 10
115.2256971283116
 20
-156.4979410416047
 30
0.0
 10
115.1516275753788
 20
-156.6164523262973
 30
0.0
 10
115.1516275753788
 20
-156.6164523262973
 30
0.0
 10
114.9993543549307
 20
-156.5379041492336
 30
0.0
 10
114.9993543549307
 20
-156.5379041492336
 30
0.0
 10
115.0947834998721
 20
-156.4025118966632
 30
0.0
 10
115.1602403140919
 20
-156.2144096831686
 30
0.0
 10
115.1878010779739
 20
-156.1041666276406
 30
0.0
 10
115.1878010779739
 20
-156.1041666276406
 30
0.0
 10
114.6693142074438
 20
-156.1041666276406
 30
0.0
 10
114.6693142074438
 20
-156.1041666276406
 30
0.0
 10
114.5700954574686
 20
-156.3456678211566
 30
0.0
 10
114.4960259045357
 20
-156.4342067751275
 30
0.0
 10
114.4577853446494
 20
-156.4786485068873
 30
0.0
 10
114.4577853446494
 20
-156.4786485068873
 30
0.0
 10
114.3330728880834
 20
-156.3580701649035
 30
0.0
 10
114.3330728880834
 20
-156.3580701649035
 30
0.0
  0
SPLINE
  5
153
330
14E
100
AcDbEntity
  8
レイヤー 1
100
AcDbSpline
210
0.0
220
0.0
230
1.0
 70
     9
 71
     3
 72
    38
 73
    34
 74
     0
 42
0.0000000001
 43
0.0000000001
 40
0.0
 40
0.0
 40
0.0
 40
0.0
 40
1.0
 40
1.0
 40
1.0
 40
2.0
 40
2.0
 40
2.0
 40
3.0
 40
3.0
 40
3.0
 40
4.0
 40
4.0
 40
4.0
 40
5.0
 40
5.0
 40
5.0
 40
6.0
 40
6.0
 40
6.0
 40
7.0
 40
7.0
 40
7.0
 40
8.0
 40
8.0
 40
8.0
 40
9.0
 40
9.0
 40
9.0
 40
10.0
 40
10.0
 40
10.0
 40
11.0
 40
11.0
 40
11.0
 40
11.0
 10
114.2186957179731
 20
-157.4308728990103
 30
0.0
 10
114.3013780096191
 20
-157.3778184285375
 30
0.0
 10
114.4663980833626
 20
-157.2699869398492
 30
0.0
 10
114.5721625147597
 20
-157.0625921916371
 30
0.0
 10
114.7203016206255
 20
-156.7707926040364
 30
0.0
 10
114.7203016206255
 20
-156.5444498306555
 30
0.0
 10
114.7203016206255
 20
-156.4597004817184
 30
0.0
 10
114.7203016206255
 20
-156.4597004817184
 30
0.0
 10
114.7203016206255
 20
-156.2250894791729
 30
0.0
 10
114.7203016206255
 20
-156.2250894791729
 30
0.0
 10
114.7203016206255
 20
-156.2250894791729
 30
0.0
 10
114.8853216943689
 20
-156.2250894791729
 30
0.0
 10
114.8853216943689
 20
-156.2250894791729
 30
0.0
 10
114.8853216943689
 20
-156.2250894791729
 30
0.0
 10
114.8853216943689
 20
-156.4514322525538
 30
0.0
 10
114.8853216943689
 20
-156.4514322525538
 30
0.0
 10
114.8853216943689
 20
-156.6502142620527
 30
0.0
 10
114.9507785085887
 20
-156.8872368314379
 30
0.0
 10
115.0524088254035
 20
-157.060525134346
 30
0.0
 10
115.168853052805
 20
-157.2593071438449
 30
0.0
 10
115.2976996239533
 20
-157.3588704033686
 30
0.0
 10
115.3824489728905
 20
-157.420193103006
 30
0.0
 10
115.3824489728905
 20
-157.420193103006
 30
0.0
 10
115.2746174842022
 20
-157.5703992661629
 30
0.0
 10
115.2746174842022
 20
-157.5703992661629
 30
0.0
 10
115.0968505571633
 20
-157.441208185466
 30
0.0
 10
114.8980685476644
 20
-157.2021185587897
 30
0.0
 10
114.8195203706007
 20
-156.8489962715516
 30
0.0
 10
114.7540635563809
 20
-157.0880858982279
 30
0.0
 10
114.652433239566
 20
-157.3568033460774
 30
0.0
 10
114.3437526840876
 20
-157.5662651515806
 30
0.0
 10
114.3437526840876
 20
-157.5662651515806
 30
0.0
 10
114.2186957179731
 20
-157.4308728990103
 30
0.0
 10
114.2186957179731
 20
-157.4308728990103
 30
0.0
  0
SPLINE
  5
154
330
14E
100
AcDbEntity
  8
レイヤー 1
100
AcDbSpline
210
0.0
220
0.0
230
1.0
 70
    11
 71
     3
 72
    17
 73
    13
 74
     0
 42
0.0000000001
 43
0.0000000001
 40
0.0
 40
0.0
 40
0.0
 40
0.0
 40
1.0
 40
1.0
 40
1.0
 40
2.0
 40
2.0
 40
2.0
 40
3.0
 40
3.0
 40
3.0
 40
4.0
 40
4.0
 40
4.0
 40
4.0
 10
114.176665553053
 20
-156.5423827733644
 30
0.0
 10
114.176665553053
 20
-156.5423827733644
 30
0.0
 10
113.9651366902587
 20
-156.5423827733644
 30
0.0
 10
113.9651366902587
 20
-156.5423827733644
 30
0.0
 10
113.9651366902587
 20
-156.5423827733644
 30
0.0
 10
113.9651366902587
 20
-156.7494330120279
 30
0.0
 10
113.9651366902587
 20
-156.7494330120279
 30
0.0
 10
113.9651366902587
 20
-156.7494330120279
 30
0.0
 10
114.176665553053
 20
-156.7494330120279
 30
0.0
 10
114.176665553053
 20
-156.7494330120279
 30
0.0
 10
114.176665553053
 20
-156.7494330120279
 30
0.0
 10
114.176665553053
 20
-156.5423827733644
 30
0.0
 10
114.176665553053
 20
-156.5423827733644
 30
0.0
  0
SPLINE
  5
155
330
14E
100
AcDbEntity
  8
レイヤー 1
100
AcDbSpline
210
0.0
220
0.0
230
1.0
 70
    11
 71
     3
 72
    17
 73
    13
 74
     0
 42
0.0000000001
 43
0.0000000001
 40
0.0
 40
0.0
 40
0.0
 40
0.0
 40
1.0
 40
1.0
 40
1.0
 40
2.0
 40
2.0
 40
2.0
 40
3.0
 40
3.0
 40
3.0
 40
4.0
 40
4.0
 40
4.0
 40
4.0
 10
114.176665553053
 20
-156.2164767404597
 30
0.0
 10
114.176665553053
 20
-156.2164767404597
 30
0.0
 10
113.9651366902587
 20
-156.2164767404597
 30
0.0
 10
113.9651366902587
 20
-156.2164767404597
 30
0.0
 10
113.9651366902587
 20
-156.2164767404597
 30
0.0
 10
113.9651366902587
 20
-156.419392864541
 30
0.0
 10
113.9651366902587
 20
-156.419392864541
 30
0.0
 10
113.9651366902587
 20
-156.419392864541
 30
0.0
 10
114.176665553053
 20
-156.419392864541
 30
0.0
 10
114.176665553053
 20
-156.419392864541
 30
0.0
 10
114.176665553053
 20
-156.419392864541
 30
0.0
 10
114.176665553053
 20
-156.2164767404597
 30
0.0
 10
114.176665553053
 20
-156.2164767404597
 30
0.0
  0
SPLINE
  5
156
330
14E
100
AcDbEntity
  8
レイヤー 1
100
AcDbSpline
210
0.0
220
0.0
230
1.0
 70
    11
 71
     3
 72
    17
 73
    13
 74
     0
 42
0.0000000001
 43
0.0000000001
 40
0.0
 40
0.0
 40
0.0
 40
0.0
 40
1.0
 40
1.0
 40
1.0
 40
2.0
 40
2.0
 40
2.0
 40
3.0
 40
3.0
 40
3.0
 40
4.0
 40
4.0
 40
4.0
 40
4.0
 10
113.810451902971
 20
-156.5423827733644
 30
0.0
 10
113.810451902971
 20
-156.5423827733644
 30
0.0
 10
113.6034016643075
 20
-156.5423827733644
 30
0.0
 10
113.6034016643075
 20
-156.5423827733644
 30
0.0
 10
113.6034016643075
 20
-156.5423827733644
 30
0.0
 10
113.6034016643075
 20
-156.7494330120279
 30
0.0
 10
113.6034016643075
 20
-156.7494330120279
 30
0.0
 10
113.6034016643075
 20
-156.7494330120279
 30
0.0
 10
113.810451902971
 20
-156.7494330120279
 30
0.0
 10
113.810451902971
 20
-156.7494330120279
 30
0.0
 10
113.810451902971
 20
-156.7494330120279
 30
0.0
 10
113.810451902971
 20
-156.5423827733644
 30
0.0
 10
113.810451902971
 20
-156.5423827733644
 30
0.0
  0
SPLINE
  5
157
330
14E
100
AcDbEntity
  8
レイヤー 1
100
AcDbSpline
210
0.0
220
0.0
230
1.0
 70
    11
 71
     3
 72
    17
 73
    13
 74
     0
 42
0.0000000001
 43
0.0000000001
 40
0.0
 40
0.0
 40
0.0
 40
0.0
 40
1.0
 40
1.0
 40
1.0
 40
2.0
 40
2.0
 40
2.0
 40
3.0
 40
3.0
 40
3.0
 40
4.0
 40
4.0
 40
4.0
 40
4.0
 10
113.810451902971
 20
-156.2164767404597
 30
0.0
 10
113.810451902971
 20
-156.2164767404597
 30
0.0
 10
113.6034016643075
 20
-156.2164767404597
 30
0.0
 10
113.6034016643075
 20
-156.2164767404597
 30
0.0
 10
113.6034016643075
 20
-156.2164767404597
 30
0.0
 10
113.6034016643075
 20
-156.419392864541
 30
0.0
 10
113.6034016643075
 20
-156.419392864541
 30
0.0
 10
113.6034016643075
 20
-156.419392864541
 30
0.0
 10
113.810451902971
 20
-156.419392864541
 30
0.0
 10
113.810451902971
 20
-156.419392864541
 30
0.0
 10
113.810451902971
 20
-156.419392864541
 30
0.0
 10
113.810451902971
 20
-156.2164767404597
 30
0.0
 10
113.810451902971
 20
-156.2164767404597
 30
0.0
  0
SPLINE
  5
158
330
14E
100
AcDbEntity
  8
レイヤー 1
100
AcDbSpline
210
0.0
220
0.0
230
1.0
 70
    11
 71
     3
 72
    89
 73
    85
 74
     0
 42
0.0000000001
 43
0.0000000001
 40
0.0
 40
0.0
 40
0.0
 40
0.0
 40
1.0
 40
1.0
 40
1.0
 40
2.0
 40
2.0
 40
2.0
 40
3.0
 40
3.0
 40
3.0
 40
4.0
 40
4.0
 40
4.0
 40
5.0
 40
5.0
 40
5.0
 40
6.0
 40
6.0
 40
6.0
 40
7.0
 40
7.0
 40
7.0
 40
8.0
 40
8.0
 40
8.0
 40
9.0
 40
9.0
 40
9.0
 40
10.0
 40
10.0
 40
10.0
 40
11.0
 40
11.0
 40
11.0
 40
12.0
 40
12.0
 40
12.0
 40
13.0
 40
13.0
 40
13.0
 40
14.0
 40
14.0
 40
14.0
 40
15.0
 40
15.0
 40
15.0
 40
16.0
 40
16.0
 40
16.0
 40
17.0
 40
17.0
 40
17.0
 40
18.0
 40
18.0
 40
18.0
 40
19.0
 40
19.0
 40
19.0
 40
20.0
 40
20.0
 40
20.0
 40
21.0
 40
21.0
 40
21.0
 40
22.0
 40
22.0
 40
22.0
 40
23.0
 40
23.0
 40
23.0
 40
24.0
 40
24.0
 40
24.0
 40
25.0
 40
25.0
 40
25.0
 40
26.0
 40
26.0
 40
26.0
 40
27.0
 40
27.0
 40
27.0
 40
28.0
 40
28.0
 40
28.0
 40
28.0
 10
113.810451902971
 20
-155.7679253082802
 30
0.0
 10
113.810451902971
 20
-155.7679253082802
 30
0.0
 10
113.810451902971
 20
-155.607039349119
 30
0.0
 10
113.810451902971
 20
-155.607039349119
 30
0.0
 10
113.810451902971
 20
-155.607039349119
 30
0.0
 10
113.9651366902587
 20
-155.607039349119
 30
0.0
 10
113.9651366902587
 20
-155.607039349119
 30
0.0
 10
113.9651366902587
 20
-155.607039349119
 30
0.0
 10
113.9651366902587
 20
-155.7679253082802
 30
0.0
 10
113.9651366902587
 20
-155.7679253082802
 30
0.0
 10
113.9651366902587
 20
-155.7679253082802
 30
0.0
 10
114.3585665946742
 20
-155.7679253082802
 30
0.0
 10
114.3585665946742
 20
-155.7679253082802
 30
0.0
 10
114.3585665946742
 20
-155.7679253082802
 30
0.0
 10
114.3585665946742
 20
-155.9222655860194
 30
0.0
 10
114.3585665946742
 20
-155.9222655860194
 30
0.0
 10
114.3585665946742
 20
-155.9222655860194
 30
0.0
 10
113.9651366902587
 20
-155.9222655860194
 30
0.0
 10
113.9651366902587
 20
-155.9222655860194
 30
0.0
 10
113.9651366902587
 20
-155.9222655860194
 30
0.0
 10
113.9651366902587
 20
-156.0769503733071
 30
0.0
 10
113.9651366902587
 20
-156.0769503733071
 30
0.0
 10
113.9651366902587
 20
-156.0769503733071
 30
0.0
 10
114.320326034788
 20
-156.0769503733071
 30
0.0
 10
114.320326034788
 20
-156.0769503733071
 30
0.0
 10
114.320326034788
 20
-156.0769503733071
 30
0.0
 10
114.320326034788
 20
-156.889303888729
 30
0.0
 10
114.320326034788
 20
-156.889303888729
 30
0.0
 10
114.320326034788
 20
-156.889303888729
 30
0.0
 10
113.9651366902587
 20
-156.889303888729
 30
0.0
 10
113.9651366902587
 20
-156.889303888729
 30
0.0
 10
113.9651366902587
 20
-156.889303888729
 30
0.0
 10
113.9651366902587
 20
-157.0584580770548
 30
0.0
 10
113.9651366902587
 20
-157.0584580770548
 30
0.0
 10
113.9651366902587
 20
-157.0584580770548
 30
0.0
 10
114.3733805052608
 20
-157.0584580770548
 30
0.0
 10
114.3733805052608
 20
-157.0584580770548
 30
0.0
 10
114.3733805052608
 20
-157.0584580770548
 30
0.0
 10
114.3733805052608
 20
-157.212798354794
 30
0.0
 10
114.3733805052608
 20
-157.212798354794
 30
0.0
 10
114.3733805052608
 20
-157.212798354794
 30
0.0
 10
113.9651366902587
 20
-157.212798354794
 30
0.0
 10
113.9651366902587
 20
-157.212798354794
 30
0.0
 10
113.9651366902587
 20
-157.212798354794
 30
0.0
 10
113.9651366902587
 20
-157.5662651515806
 30
0.0
 10
113.9651366902587
 20
-157.5662651515806
 30
0.0
 10
113.9651366902587
 20
-157.5662651515806
 30
0.0
 10
113.810451902971
 20
-157.5662651515806
 30
0.0
 10
113.810451902971
 20
-157.5662651515806
 30
0.0
 10
113.810451902971
 20
-157.5662651515806
 30
0.0
 10
113.810451902971
 20
-157.212798354794
 30
0.0
 10
113.810451902971
 20
-157.212798354794
 30
0.0
 10
113.810451902971
 20
-157.212798354794
 30
0.0
 10
113.4001410306777
 20
-157.212798354794
 30
0.0
 10
113.4001410306777
 20
-157.212798354794
 30
0.0
 10
113.4001410306777
 20
-157.212798354794
 30
0.0
 10
113.4001410306777
 20
-157.0584580770548
 30
0.0
 10
113.4001410306777
 20
-157.0584580770548
 30
0.0
 10
113.4001410306777
 20
-157.0584580770548
 30
0.0
 10
113.810451902971
 20
-157.0584580770548
 30
0.0
 10
113.810451902971
 20
-157.0584580770548
 30
0.0
 10
113.810451902971
 20
-157.0584580770548
 30
0.0
 10
113.810451902971
 20
-156.889303888729
 30
0.0
 10
113.810451902971
 20
-156.889303888729
 30
0.0
 10
113.810451902971
 20
-156.889303888729
 30
0.0
 10
113.4614637303152
 20
-156.889303888729
 30
0.0
 10
113.4614637303152
 20
-156.889303888729
 30
0.0
 10
113.4614637303152
 20
-156.889303888729
 30
0.0
 10
113.4614637303152
 20
-156.0769503733071
 30
0.0
 10
113.4614637303152
 20
-156.0769503733071
 30
0.0
 10
113.4614637303152
 20
-156.0769503733071
 30
0.0
 10
113.810451902971
 20
-156.0769503733071
 30
0.0
 10
113.810451902971
 20
-156.0769503733071
 30
0.0
 10
113.810451902971
 20
-156.0769503733071
 30
0.0
 10
113.810451902971
 20
-155.9222655860194
 30
0.0
 10
113.810451902971
 20
-155.9222655860194
 30
0.0
 10
113.810451902971
 20
-155.9222655860194
 30
0.0
 10
113.4211561131377
 20
-155.9222655860194
 30
0.0
 10
113.4211561131377
 20
-155.9222655860194
 30
0.0
 10
113.4211561131377
 20
-155.9222655860194
 30
0.0
 10
113.4211561131377
 20
-155.7679253082802
 30
0.0
 10
113.4211561131377
 20
-155.7679253082802
 30
0.0
 10
113.4211561131377
 20
-155.7679253082802
 30
0.0
 10
113.810451902971
 20
-155.7679253082802
 30
0.0
 10
113.810451902971
 20
-155.7679253082802
 30
0.0
  0
HATCH
  5
159
330
14E
100
AcDbEntity
  8
レイヤー 1
 62
    12
420
 15007762
440
 33554687
100
AcDbHatch
 10
0.0
 20
0.0
 30
0.0
210
0.0
220
0.0
230
1.0
  2
SOLID
 70
     1
 71
     1
 91
        7
 92
        1
 93
        1
 72
     4
 94
        3
 73
     0
 74
     0
 95
       38
 96
       34
 40
0.0
 40
0.0
 40
0.0
 40
0.0
 40
1.0
 40
1.0
 40
1.0
 40
2.0
 40
2.0
 40
2.0
 40
3.0
 40
3.0
 40
3.0
 40
4.0
 40
4.0
 40
4.0
 40
5.0
 40
5.0
 40
5.0
 40
6.0
 40
6.0
 40
6.0
 40
7.0
 40
7.0
 40
7.0
 40
8.0
 40
8.0
 40
8.0
 40
9.0
 40
9.0
 40
9.0
 40
10.0
 40
10.0
 40
10.0
 40
11.0
 40
11.0
 40
11.0
 40
11.0
 10
114.3330728880834
 20
-156.3580701649035
 10
114.4260904661851
 20
-156.2354247656286
 10
114.5511474322997
 20
-156.0555907812986
 10
114.6462320676926
 20
-155.607039349119
 10
114.6462320676926
 20
-155.607039349119
 10
114.8133191987272
 20
-155.6263318838365
 10
114.8133191987272
 20
-155.6263318838365
 10
114.7878254921363
 20
-155.7469102258202
 10
114.7647433523852
 20
-155.8378607466308
 10
114.7265027924989
 20
-155.9456922353191
 10
114.7265027924989
 20
-155.9456922353191
 10
115.3548882090085
 20
-155.9456922353191
 10
115.3548882090085
 20
-155.9456922353191
 10
115.3548882090085
 20
-155.9456922353191
 10
115.3548882090085
 20
-156.0979654557672
 10
115.3548882090085
 20
-156.0979654557672
 10
115.321126273253
 20
-156.2399033897594
 10
115.2256971283116
 20
-156.4979410416047
 10
115.1516275753788
 20
-156.6164523262973
 10
115.1516275753788
 20
-156.6164523262973
 10
114.9993543549307
 20
-156.5379041492336
 10
114.9993543549307
 20
-156.5379041492336
 10
115.0947834998721
 20
-156.4025118966632
 10
115.1602403140919
 20
-156.2144096831686
 10
115.1878010779739
 20
-156.1041666276406
 10
115.1878010779739
 20
-156.1041666276406
 10
114.6693142074438
 20
-156.1041666276406
 10
114.6693142074438
 20
-156.1041666276406
 10
114.5700954574686
 20
-156.3456678211566
 10
114.4960259045357
 20
-156.4342067751275
 10
114.4577853446494
 20
-156.4786485068873
 10
114.4577853446494
 20
-156.4786485068873
 10
114.3330728880834
 20
-156.3580701649035
 10
114.3330728880834
 20
-156.3580701649035
 97
        0
 97
        1
330
152
 92
        1
 93
        1
 72
     4
 94
        3
 73
     0
 74
     0
 95
       38
 96
       34
 40
0.0
 40
0.0
 40
0.0
 40
0.0
 40
1.0
 40
1.0
 40
1.0
 40
2.0
 40
2.0
 40
2.0
 40
3.0
 40
3.0
 40
3.0
 40
4.0
 40
4.0
 40
4.0
 40
5.0
 40
5.0
 40
5.0
 40
6.0
 40
6.0
 40
6.0
 40
7.0
 40
7.0
 40
7.0
 40
8.0
 40
8.0
 40
8.0
 40
9.0
 40
9.0
 40
9.0
 40
10.0
 40
10.0
 40
10.0
 40
11.0
 40
11.0
 40
11.0
 40
11.0
 10
114.2186957179731
 20
-157.4308728990103
 10
114.3013780096191
 20
-157.3778184285375
 10
114.4663980833626
 20
-157.2699869398492
 10
114.5721625147597
 20
-157.0625921916371
 10
114.7203016206255
 20
-156.7707926040364
 10
114.7203016206255
 20
-156.5444498306555
 10
114.7203016206255
 20
-156.4597004817184
 10
114.7203016206255
 20
-156.4597004817184
 10
114.7203016206255
 20
-156.2250894791729
 10
114.7203016206255
 20
-156.2250894791729
 10
114.7203016206255
 20
-156.2250894791729
 10
114.8853216943689
 20
-156.2250894791729
 10
114.8853216943689
 20
-156.2250894791729
 10
114.8853216943689
 20
-156.2250894791729
 10
114.8853216943689
 20
-156.4514322525538
 10
114.8853216943689
 20
-156.4514322525538
 10
114.8853216943689
 20
-156.6502142620527
 10
114.9507785085887
 20
-156.8872368314379
 10
115.0524088254035
 20
-157.060525134346
 10
115.168853052805
 20
-157.2593071438449
 10
115.2976996239533
 20
-157.3588704033686
 10
115.3824489728905
 20
-157.420193103006
 10
115.3824489728905
 20
-157.420193103006
 10
115.2746174842022
 20
-157.5703992661629
 10
115.2746174842022
 20
-157.5703992661629
 10
115.0968505571633
 20
-157.441208185466
 10
114.8980685476644
 20
-157.2021185587897
 10
114.8195203706007
 20
-156.8489962715516
 10
114.7540635563809
 20
-157.0880858982279
 10
114.652433239566
 20
-157.3568033460774
 10
114.3437526840876
 20
-157.5662651515806
 10
114.3437526840876
 20
-157.5662651515806
 10
114.2186957179731
 20
-157.4308728990103
 10
114.2186957179731
 20
-157.4308728990103
 97
        0
 97
        1
330
153
 92
        1
 93
        1
 72
     4
 94
        3
 73
     0
 74
     0
 95
       17
 96
       13
 40
0.0
 40
0.0
 40
0.0
 40
0.0
 40
1.0
 40
1.0
 40
1.0
 40
2.0
 40
2.0
 40
2.0
 40
3.0
 40
3.0
 40
3.0
 40
4.0
 40
4.0
 40
4.0
 40
4.0
 10
114.176665553053
 20
-156.5423827733644
 10
114.176665553053
 20
-156.5423827733644
 10
113.9651366902587
 20
-156.5423827733644
 10
113.9651366902587
 20
-156.5423827733644
 10
113.9651366902587
 20
-156.5423827733644
 10
113.9651366902587
 20
-156.7494330120279
 10
113.9651366902587
 20
-156.7494330120279
 10
113.9651366902587
 20
-156.7494330120279
 10
114.176665553053
 20
-156.7494330120279
 10
114.176665553053
 20
-156.7494330120279
 10
114.176665553053
 20
-156.7494330120279
 10
114.176665553053
 20
-156.5423827733644
 10
114.176665553053
 20
-156.5423827733644
 97
        0
 97
        1
330
154
 92
        1
 93
        1
 72
     4
 94
        3
 73
     0
 74
     0
 95
       17
 96
       13
 40
0.0
 40
0.0
 40
0.0
 40
0.0
 40
1.0
 40
1.0
 40
1.0
 40
2.0
 40
2.0
 40
2.0
 40
3.0
 40
3.0
 40
3.0
 40
4.0
 40
4.0
 40
4.0
 40
4.0
 10
114.176665553053
 20
-156.2164767404597
 10
114.176665553053
 20
-156.2164767404597
 10
113.9651366902587
 20
-156.2164767404597
 10
113.9651366902587
 20
-156.2164767404597
 10
113.9651366902587
 20
-156.2164767404597
 10
113.9651366902587
 20
-156.419392864541
 10
113.9651366902587
 20
-156.419392864541
 10
113.9651366902587
 20
-156.419392864541
 10
114.176665553053
 20
-156.419392864541
 10
114.176665553053
 20
-156.419392864541
 10
114.176665553053
 20
-156.419392864541
 10
114.176665553053
 20
-156.2164767404597
 10
114.176665553053
 20
-156.2164767404597
 97
        0
 97
        1
330
155
 92
        1
 93
        1
 72
     4
 94
        3
 73
     0
 74
     0
 95
       17
 96
       13
 40
0.0
 40
0.0
 40
0.0
 40
0.0
 40
1.0
 40
1.0
 40
1.0
 40
2.0
 40
2.0
 40
2.0
 40
3.0
 40
3.0
 40
3.0
 40
4.0
 40
4.0
 40
4.0
 40
4.0
 10
113.810451902971
 20
-156.5423827733644
 10
113.810451902971
 20
-156.5423827733644
 10
113.6034016643075
 20
-156.5423827733644
 10
113.6034016643075
 20
-156.5423827733644
 10
113.6034016643075
 20
-156.5423827733644
 10
113.6034016643075
 20
-156.7494330120279
 10
113.6034016643075
 20
-156.7494330120279
 10
113.6034016643075
 20
-156.7494330120279
 10
113.810451902971
 20
-156.7494330120279
 10
113.810451902971
 20
-156.7494330120279
 10
113.810451902971
 20
-156.7494330120279
 10
113.810451902971
 20
-156.5423827733644
 10
113.810451902971
 20
-156.5423827733644
 97
        0
 97
        1
330
156
 92
        1
 93
        1
 72
     4
 94
        3
 73
     0
 74
     0
 95
       17
 96
       13
 40
0.0
 40
0.0
 40
0.0
 40
0.0
 40
1.0
 40
1.0
 40
1.0
 40
2.0
 40
2.0
 40
2.0
 40
3.0
 40
3.0
 40
3.0
 40
4.0
 40
4.0
 40
4.0
 40
4.0
 10
113.810451902971
 20
-156.2164767404597
 10
113.810451902971
 20
-156.2164767404597
 10
113.6034016643075
 20
-156.2164767404597
 10
113.6034016643075
 20
-156.2164767404597
 10
113.6034016643075
 20
-156.2164767404597
 10
113.6034016643075
 20
-156.419392864541
 10
113.6034016643075
 20
-156.419392864541
 10
113.6034016643075
 20
-156.419392864541
 10
113.810451902971
 20
-156.419392864541
 10
113.810451902971
 20
-156.419392864541
 10
113.810451902971
 20
-156.419392864541
 10
113.810451902971
 20
-156.2164767404597
 10
113.810451902971
 20
-156.2164767404597
 97
        0
 97
        1
330
157
 92
        1
 93
        1
 72
     4
 94
        3
 73
     0
 74
     0
 95
       89
 96
       85
 40
0.0
 40
0.0
 40
0.0
 40
0.0
 40
1.0
 40
1.0
 40
1.0
 40
2.0
 40
2.0
 40
2.0
 40
3.0
 40
3.0
 40
3.0
 40
4.0
 40
4.0
 40
4.0
 40
5.0
 40
5.0
 40
5.0
 40
6.0
 40
6.0
 40
6.0
 40
7.0
 40
7.0
 40
7.0
 40
8.0
 40
8.0
 40
8.0
 40
9.0
 40
9.0
 40
9.0
 40
10.0
 40
10.0
 40
10.0
 40
11.0
 40
11.0
 40
11.0
 40
12.0
 40
12.0
 40
12.0
 40
13.0
 40
13.0
 40
13.0
 40
14.0
 40
14.0
 40
14.0
 40
15.0
 40
15.0
 40
15.0
 40
16.0
 40
16.0
 40
16.0
 40
17.0
 40
17.0
 40
17.0
 40
18.0
 40
18.0
 40
18.0
 40
19.0
 40
19.0
 40
19.0
 40
20.0
 40
20.0
 40
20.0
 40
21.0
 40
21.0
 40
21.0
 40
22.0
 40
22.0
 40
22.0
 40
23.0
 40
23.0
 40
23.0
 40
24.0
 40
24.0
 40
24.0
 40
25.0
 40
25.0
 40
25.0
 40
26.0
 40
26.0
 40
26.0
 40
27.0
 40
27.0
 40
27.0
 40
28.0
 40
28.0
 40
28.0
 40
28.0
 10
113.810451902971
 20
-155.7679253082802
 10
113.810451902971
 20
-155.7679253082802
 10
113.810451902971
 20
-155.607039349119
 10
113.810451902971
 20
-155.607039349119
 10
113.810451902971
 20
-155.607039349119
 10
113.9651366902587
 20
-155.607039349119
 10
113.9651366902587
 20
-155.607039349119
 10
113.9651366902587
 20
-155.607039349119
 10
113.9651366902587
 20
-155.7679253082802
 10
113.9651366902587
 20
-155.7679253082802
 10
113.9651366902587
 20
-155.7679253082802
 10
114.3585665946742
 20
-155.7679253082802
 10
114.3585665946742
 20
-155.7679253082802
 10
114.3585665946742
 20
-155.7679253082802
 10
114.3585665946742
 20
-155.9222655860194
 10
114.3585665946742
 20
-155.9222655860194
 10
114.3585665946742
 20
-155.9222655860194
 10
113.9651366902587
 20
-155.9222655860194
 10
113.9651366902587
 20
-155.9222655860194
 10
113.9651366902587
 20
-155.9222655860194
 10
113.9651366902587
 20
-156.0769503733071
 10
113.9651366902587
 20
-156.0769503733071
 10
113.9651366902587
 20
-156.0769503733071
 10
114.320326034788
 20
-156.0769503733071
 10
114.320326034788
 20
-156.0769503733071
 10
114.320326034788
 20
-156.0769503733071
 10
114.320326034788
 20
-156.889303888729
 10
114.320326034788
 20
-156.889303888729
 10
114.320326034788
 20
-156.889303888729
 10
113.9651366902587
 20
-156.889303888729
 10
113.9651366902587
 20
-156.889303888729
 10
113.9651366902587
 20
-156.889303888729
 10
113.9651366902587
 20
-157.0584580770548
 10
113.9651366902587
 20
-157.0584580770548
 10
113.9651366902587
 20
-157.0584580770548
 10
114.3733805052608
 20
-157.0584580770548
 10
114.3733805052608
 20
-157.0584580770548
 10
114.3733805052608
 20
-157.0584580770548
 10
114.3733805052608
 20
-157.212798354794
 10
114.3733805052608
 20
-157.212798354794
 10
114.3733805052608
 20
-157.212798354794
 10
113.9651366902587
 20
-157.212798354794
 10
113.9651366902587
 20
-157.212798354794
 10
113.9651366902587
 20
-157.212798354794
 10
113.9651366902587
 20
-157.5662651515806
 10
113.9651366902587
 20
-157.5662651515806
 10
113.9651366902587
 20
-157.5662651515806
 10
113.810451902971
 20
-157.5662651515806
 10
113.810451902971
 20
-157.5662651515806
 10
113.810451902971
 20
-157.5662651515806
 10
113.810451902971
 20
-157.212798354794
 10
113.810451902971
 20
-157.212798354794
 10
113.810451902971
 20
-157.212798354794
 10
113.4001410306777
 20
-157.212798354794
 10
113.4001410306777
 20
-157.212798354794
 10
113.4001410306777
 20
-157.212798354794
 10
113.4001410306777
 20
-157.0584580770548
 10
113.4001410306777
 20
-157.0584580770548
 10
113.4001410306777
 20
-157.0584580770548
 10
113.810451902971
 20
-157.0584580770548
 10
113.810451902971
 20
-157.0584580770548
 10
113.810451902971
 20
-157.0584580770548
 10
113.810451902971
 20
-156.889303888729
 10
113.810451902971
 20
-156.889303888729
 10
113.810451902971
 20
-156.889303888729
 10
113.4614637303152
 20
-156.889303888729
 10
113.4614637303152
 20
-156.889303888729
 10
113.4614637303152
 20
-156.889303888729
 10
113.4614637303152
 20
-156.0769503733071
 10
113.4614637303152
 20
-156.0769503733071
 10
113.4614637303152
 20
-156.0769503733071
 10
113.810451902971
 20
-156.0769503733071
 10
113.810451902971
 20
-156.0769503733071
 10
113.810451902971
 20
-156.0769503733071
 10
113.810451902971
 20
-155.9222655860194
 10
113.810451902971
 20
-155.9222655860194
 10
113.810451902971
 20
-155.9222655860194
 10
113.4211561131377
 20
-155.9222655860194
 10
113.4211561131377
 20
-155.9222655860194
 10
113.4211561131377
 20
-155.9222655860194
 10
113.4211561131377
 20
-155.7679253082802
 10
113.4211561131377
 20
-155.7679253082802
 10
113.4211561131377
 20
-155.7679253082802
 10
113.810451902971
 20
-155.7679253082802
 10
113.810451902971
 20
-155.7679253082802
 97
        0
 97
        1
330
158
 75
     2
 76
     1
 98
        1
 10
0.0
 20
0.0
450
        0
451
        0
460
0.0
461
0.0
452
        0
462
0.0
453
        0
470

  0
SPLINE
  5
15A
330
14E
100
AcDbEntity
  8
レイヤー 1
100
AcDbSpline
210
0.0
220
0.0
230
1.0
 70
     9
 71
     3
 72
    17
 73
    13
 74
     0
 42
0.0000000001
 43
0.0000000001
 40
0.0
 40
0.0
 40
0.0
 40
0.0
 40
1.0
 40
1.0
 40
1.0
 40
2.0
 40
2.0
 40
2.0
 40
3.0
 40
3.0
 40
3.0
 40
4.0
 40
4.0
 40
4.0
 40
4.0
 10
116.8476480827672
 20
-157.2572400865538
 30
0.0
 10
117.0674451747262
 20
-157.3695501993729
 30
0.0
 10
117.3340955652845
 20
-157.4074462497106
 30
0.0
 10
117.4629421364329
 20
-157.4181260457149
 30
0.0
 10
117.4629421364329
 20
-157.4181260457149
 30
0.0
 10
117.3933512076308
 20
-157.5724663234541
 30
0.0
 10
117.3933512076308
 20
-157.5724663234541
 30
0.0
 10
117.2727728656471
 20
-157.5576524128675
 30
0.0
 10
117.010256589671
 20
-157.5173447956901
 30
0.0
 10
116.7460177659524
 20
-157.371617256664
 30
0.0
 10
116.7460177659524
 20
-157.371617256664
 30
0.0
 10
116.8476480827672
 20
-157.2572400865538
 30
0.0
 10
116.8476480827672
 20
-157.2572400865538
 30
0.0
  0
SPLINE
  5
15B
330
14E
100
AcDbEntity
  8
レイヤー 1
100
AcDbSpline
210
0.0
220
0.0
230
1.0
 70
    11
 71
     3
 72
    50
 73
    46
 74
     0
 42
0.0000000001
 43
0.0000000001
 40
0.0
 40
0.0
 40
0.0
 40
0.0
 40
1.0
 40
1.0
 40
1.0
 40
2.0
 40
2.0
 40
2.0
 40
3.0
 40
3.0
 40
3.0
 40
4.0
 40
4.0
 40
4.0
 40
5.0
 40
5.0
 40
5.0
 40
6.0
 40
6.0
 40
6.0
 40
7.0
 40
7.0
 40
7.0
 40
8.0
 40
8.0
 40
8.0
 40
9.0
 40
9.0
 40
9.0
 40
10.0
 40
10.0
 40
10.0
 40
11.0
 40
11.0
 40
11.0
 40
12.0
 40
12.0
 40
12.0
 40
13.0
 40
13.0
 40
13.0
 40
14.0
 40
14.0
 40
14.0
 40
15.0
 40
15.0
 40
15.0
 40
15.0
 10
116.7353379699481
 20
-155.9053846181417
 30
0.0
 10
116.7353379699481
 20
-155.9053846181417
 30
0.0
 10
117.471554875146
 20
-155.9053846181417
 30
0.0
 10
117.471554875146
 20
-155.9053846181417
 30
0.0
 10
117.471554875146
 20
-155.9053846181417
 30
0.0
 10
117.471554875146
 20
-156.0304415842563
 30
0.0
 10
117.471554875146
 20
-156.0304415842563
 30
0.0
 10
117.471554875146
 20
-156.0304415842563
 30
0.0
 10
117.1415147276591
 20
-156.0304415842563
 30
0.0
 10
117.1415147276591
 20
-156.0304415842563
 30
0.0
 10
117.1415147276591
 20
-156.0304415842563
 30
0.0
 10
117.1415147276591
 20
-156.3053602039792
 30
0.0
 10
117.1415147276591
 20
-156.3053602039792
 30
0.0
 10
117.1415147276591
 20
-156.3053602039792
 30
0.0
 10
116.9851073926287
 20
-156.3053602039792
 30
0.0
 10
116.9851073926287
 20
-156.3053602039792
 30
0.0
 10
116.9851073926287
 20
-156.3053602039792
 30
0.0
 10
116.9851073926287
 20
-156.0304415842563
 30
0.0
 10
116.9851073926287
 20
-156.0304415842563
 30
0.0
 10
116.9851073926287
 20
-156.0304415842563
 30
0.0
 10
116.7205240593615
 20
-156.0304415842563
 30
0.0
 10
116.7205240593615
 20
-156.0304415842563
 30
0.0
 10
116.6950303527707
 20
-156.1592881554046
 30
0.0
 10
116.6443874491375
 20
-156.2502386762152
 30
0.0
 10
116.5472357564534
 20
-156.3329209678612
 30
0.0
 10
116.5472357564534
 20
-156.3329209678612
 30
0.0
 10
116.42424584763
 20
-156.2250894791729
 30
0.0
 10
116.42424584763
 20
-156.2250894791729
 30
0.0
 10
116.5596381002004
 20
-156.1148464236449
 30
0.0
 10
116.5830647495
 20
-155.9773871137834
 30
0.0
 10
116.5830647495
 20
-155.9033175608505
 30
0.0
 10
116.5830647495
 20
-155.9033175608505
 30
0.0
 10
116.5830647495
 20
-155.6600938195919
 30
0.0
 10
116.5830647495
 20
-155.6600938195919
 30
0.0
 10
117.0526312641396
 20
-155.6600938195919
 30
0.0
 10
117.2197183951742
 20
-155.6197862024145
 30
0.0
 10
117.3637233864577
 20
-155.5774115279459
 30
0.0
 10
117.3637233864577
 20
-155.5774115279459
 30
0.0
 10
117.422979028804
 20
-155.7152153473559
 30
0.0
 10
117.422979028804
 20
-155.7152153473559
 30
0.0
 10
117.1521945236633
 20
-155.784806276158
 30
0.0
 10
116.8369682867629
 20
-155.7892849002888
 30
0.0
 10
116.7353379699481
 20
-155.7892849002888
 30
0.0
 10
116.7353379699481
 20
-155.7892849002888
 30
0.0
 10
116.7353379699481
 20
-155.9053846181417
 30
0.0
 10
116.7353379699481
 20
-155.9053846181417
 30
0.0
  0
SPLINE
  5
15C
330
14E
100
AcDbEntity
  8
レイヤー 1
100
AcDbSpline
210
0.0
220
0.0
230
1.0
 70
    11
 71
     3
 72
    17
 73
    13
 74
     0
 42
0.0000000001
 43
0.0000000001
 40
0.0
 40
0.0
 40
0.0
 40
0.0
 40
1.0
 40
1.0
 40
1.0
 40
2.0
 40
2.0
 40
2.0
 40
3.0
 40
3.0
 40
3.0
 40
4.0
 40
4.0
 40
4.0
 40
4.0
 10
117.0715792893085
 20
-156.9757757854088
 30
0.0
 10
117.0715792893085
 20
-156.9757757854088
 30
0.0
 10
115.9123046585219
 20
-156.9757757854088
 30
0.0
 10
115.9123046585219
 20
-156.9757757854088
 30
0.0
 10
115.9123046585219
 20
-156.9757757854088
 30
0.0
 10
115.9123046585219
 20
-157.11564666211
 30
0.0
 10
115.9123046585219
 20
-157.11564666211
 30
0.0
 10
115.9123046585219
 20
-157.11564666211
 30
0.0
 10
117.0715792893085
 20
-157.11564666211
 30
0.0
 10
117.0715792893085
 20
-157.11564666211
 30
0.0
 10
117.0715792893085
 20
-157.11564666211
 30
0.0
 10
117.0715792893085
 20
-156.9757757854088
 30
0.0
 10
117.0715792893085
 20
-156.9757757854088
 30
0.0
  0
SPLINE
  5
15D
330
14E
100
AcDbEntity
  8
レイヤー 1
100
AcDbSpline
210
0.0
220
0.0
230
1.0
 70
    11
 71
     3
 72
    17
 73
    13
 74
     0
 42
0.0000000001
 43
0.0000000001
 40
0.0
 40
0.0
 40
0.0
 40
0.0
 40
1.0
 40
1.0
 40
1.0
 40
2.0
 40
2.0
 40
2.0
 40
3.0
 40
3.0
 40
3.0
 40
4.0
 40
4.0
 40
4.0
 40
4.0
 10
117.0715792893085
 20
-156.7242838149856
 30
0.0
 10
117.0715792893085
 20
-156.7242838149856
 30
0.0
 10
115.9123046585219
 20
-156.7242838149856
 30
0.0
 10
115.9123046585219
 20
-156.7242838149856
 30
0.0
 10
115.9123046585219
 20
-156.7242838149856
 30
0.0
 10
115.9123046585219
 20
-156.8658772394293
 30
0.0
 10
115.9123046585219
 20
-156.8658772394293
 30
0.0
 10
115.9123046585219
 20
-156.8658772394293
 30
0.0
 10
117.0715792893085
 20
-156.8658772394293
 30
0.0
 10
117.0715792893085
 20
-156.8658772394293
 30
0.0
 10
117.0715792893085
 20
-156.8658772394293
 30
0.0
 10
117.0715792893085
 20
-156.7242838149856
 30
0.0
 10
117.0715792893085
 20
-156.7242838149856
 30
0.0
  0
SPLINE
  5
15E
330
14E
100
AcDbEntity
  8
レイヤー 1
100
AcDbSpline
210
0.0
220
0.0
230
1.0
 70
    11
 71
     3
 72
    17
 73
    13
 74
     0
 42
0.0000000001
 43
0.0000000001
 40
0.0
 40
0.0
 40
0.0
 40
0.0
 40
1.0
 40
1.0
 40
1.0
 40
2.0
 40
2.0
 40
2.0
 40
3.0
 40
3.0
 40
3.0
 40
4.0
 40
4.0
 40
4.0
 40
4.0
 10
117.0715792893085
 20
-156.4851941883092
 30
0.0
 10
117.0715792893085
 20
-156.4851941883092
 30
0.0
 10
115.9123046585219
 20
-156.4851941883092
 30
0.0
 10
115.9123046585219
 20
-156.4851941883092
 30
0.0
 10
115.9123046585219
 20
-156.4851941883092
 30
0.0
 10
115.9123046585219
 20
-156.6140407594576
 30
0.0
 10
115.9123046585219
 20
-156.6140407594576
 30
0.0
 10
115.9123046585219
 20
-156.6140407594576
 30
0.0
 10
117.0715792893085
 20
-156.6140407594576
 30
0.0
 10
117.0715792893085
 20
-156.6140407594576
 30
0.0
 10
117.0715792893085
 20
-156.6140407594576
 30
0.0
 10
117.0715792893085
 20
-156.4851941883092
 30
0.0
 10
117.0715792893085
 20
-156.4851941883092
 30
0.0
  0
SPLINE
  5
15F
330
14E
100
AcDbEntity
  8
レイヤー 1
100
AcDbSpline
210
0.0
220
0.0
230
1.0
 70
    11
 71
     3
 72
    32
 73
    28
 74
     0
 42
0.0000000001
 43
0.0000000001
 40
0.0
 40
0.0
 40
0.0
 40
0.0
 40
1.0
 40
1.0
 40
1.0
 40
2.0
 40
2.0
 40
2.0
 40
3.0
 40
3.0
 40
3.0
 40
4.0
 40
4.0
 40
4.0
 40
5.0
 40
5.0
 40
5.0
 40
6.0
 40
6.0
 40
6.0
 40
7.0
 40
7.0
 40
7.0
 40
8.0
 40
8.0
 40
8.0
 40
9.0
 40
9.0
 40
9.0
 40
9.0
 10
115.7431504701961
 20
-157.2510389146803
 30
0.0
 10
115.7431504701961
 20
-157.2510389146803
 30
0.0
 10
115.7431504701961
 20
-156.3518689930301
 30
0.0
 10
115.7431504701961
 20
-156.3518689930301
 30
0.0
 10
115.7431504701961
 20
-156.3518689930301
 30
0.0
 10
117.2410779871828
 20
-156.3518689930301
 30
0.0
 10
117.2410779871828
 20
-156.3518689930301
 30
0.0
 10
117.2410779871828
 20
-156.3518689930301
 30
0.0
 10
117.2410779871828
 20
-157.2510389146803
 30
0.0
 10
117.2410779871828
 20
-157.2510389146803
 30
0.0
 10
117.2410779871828
 20
-157.2510389146803
 30
0.0
 10
116.0966172669828
 20
-157.2510389146803
 30
0.0
 10
116.0966172669828
 20
-157.2510389146803
 30
0.0
 10
116.0966172669828
 20
-157.2510389146803
 30
0.0
 10
116.2023816983799
 20
-157.3609374606597
 30
0.0
 10
116.2023816983799
 20
-157.3609374606597
 30
0.0
 10
116.0373616246365
 20
-157.4560220960526
 30
0.0
 10
115.872341550893
 20
-157.5173447956901
 30
0.0
 10
115.5760633391615
 20
-157.5683322088718
 30
0.0
 10
115.5760633391615
 20
-157.5683322088718
 30
0.0
 10
115.5106065249418
 20
-157.4160589884237
 30
0.0
 10
115.5106065249418
 20
-157.4160589884237
 30
0.0
 10
115.8892225187707
 20
-157.3630045179509
 30
0.0
 10
116.0118679180456
 20
-157.29548064644
 30
0.0
 10
116.0921386428519
 20
-157.2510389146803
 30
0.0
 10
116.0921386428519
 20
-157.2510389146803
 30
0.0
 10
115.7431504701961
 20
-157.2510389146803
 30
0.0
 10
115.7431504701961
 20
-157.2510389146803
 30
0.0
  0
SPLINE
  5
160
330
14E
100
AcDbEntity
  8
レイヤー 1
100
AcDbSpline
210
0.0
220
0.0
230
1.0
 70
    11
 71
     3
 72
    50
 73
    46
 74
     0
 42
0.0000000001
 43
0.0000000001
 40
0.0
 40
0.0
 40
0.0
 40
0.0
 40
1.0
 40
1.0
 40
1.0
 40
2.0
 40
2.0
 40
2.0
 40
3.0
 40
3.0
 40
3.0
 40
4.0
 40
4.0
 40
4.0
 40
5.0
 40
5.0
 40
5.0
 40
6.0
 40
6.0
 40
6.0
 40
7.0
 40
7.0
 40
7.0
 40
8.0
 40
8.0
 40
8.0
 40
9.0
 40
9.0
 40
9.0
 40
10.0
 40
10.0
 40
10.0
 40
11.0
 40
11.0
 40
11.0
 40
12.0
 40
12.0
 40
12.0
 40
13.0
 40
13.0
 40
13.0
 40
14.0
 40
14.0
 40
14.0
 40
15.0
 40
15.0
 40
15.0
 40
15.0
 10
115.8278998191333
 20
-155.9053846181417
 30
0.0
 10
115.8278998191333
 20
-155.9053846181417
 30
0.0
 10
116.479367375394
 20
-155.9053846181417
 30
0.0
 10
116.479367375394
 20
-155.9053846181417
 30
0.0
 10
116.479367375394
 20
-155.9053846181417
 30
0.0
 10
116.479367375394
 20
-156.0304415842563
 30
0.0
 10
116.479367375394
 20
-156.0304415842563
 30
0.0
 10
116.479367375394
 20
-156.0304415842563
 30
0.0
 10
116.2023816983799
 20
-156.0304415842563
 30
0.0
 10
116.2023816983799
 20
-156.0304415842563
 30
0.0
 10
116.2023816983799
 20
-156.0304415842563
 30
0.0
 10
116.2023816983799
 20
-156.3053602039792
 30
0.0
 10
116.2023816983799
 20
-156.3053602039792
 30
0.0
 10
116.2023816983799
 20
-156.3053602039792
 30
0.0
 10
116.0414957392188
 20
-156.3053602039792
 30
0.0
 10
116.0414957392188
 20
-156.3053602039792
 30
0.0
 10
116.0414957392188
 20
-156.3053602039792
 30
0.0
 10
116.0414957392188
 20
-156.0304415842563
 30
0.0
 10
116.0414957392188
 20
-156.0304415842563
 30
0.0
 10
116.0414957392188
 20
-156.0304415842563
 30
0.0
 10
115.8213541377113
 20
-156.0304415842563
 30
0.0
 10
115.8213541377113
 20
-156.0304415842563
 30
0.0
 10
115.8110188512555
 20
-156.1000325130583
 30
0.0
 10
115.7855251446647
 20
-156.2946804079749
 30
0.0
 10
115.6311848669255
 20
-156.4448865711318
 30
0.0
 10
115.6311848669255
 20
-156.4448865711318
 30
0.0
 10
115.5085394676506
 20
-156.3349880251523
 30
0.0
 10
115.5085394676506
 20
-156.3349880251523
 30
0.0
 10
115.6291178096344
 20
-156.2354247656286
 30
0.0
 10
115.6711479745544
 20
-156.0304415842563
 30
0.0
 10
115.6711479745544
 20
-155.9477592926103
 30
0.0
 10
115.6711479745544
 20
-155.9477592926103
 30
0.0
 10
115.6711479745544
 20
-155.662160876883
 30
0.0
 10
115.6711479745544
 20
-155.662160876883
 30
0.0
 10
116.1558729093291
 20
-155.662160876883
 30
0.0
 10
116.3102131870683
 20
-155.6156520878322
 30
0.0
 10
116.4052978224612
 20
-155.5880913239502
 30
0.0
 10
116.4052978224612
 20
-155.5880913239502
 30
0.0
 10
116.458352292934
 20
-155.7276176911028
 30
0.0
 10
116.458352292934
 20
-155.7276176911028
 30
0.0
 10
116.2488904874308
 20
-155.7765380469934
 30
0.0
 10
116.0859374709785
 20
-155.7868733334491
 30
0.0
 10
115.8278998191333
 20
-155.7913519575799
 30
0.0
 10
115.8278998191333
 20
-155.7913519575799
 30
0.0
 10
115.8278998191333
 20
-155.9053846181417
 30
0.0
 10
115.8278998191333
 20
-155.9053846181417
 30
0.0
  0
HATCH
  5
161
330
14E
100
AcDbEntity
  8
レイヤー 1
 62
    12
420
 15007762
440
 33554687
100
AcDbHatch
 10
0.0
 20
0.0
 30
0.0
210
0.0
220
0.0
230
1.0
  2
SOLID
 70
     1
 71
     1
 91
        7
 92
        1
 93
        1
 72
     4
 94
        3
 73
     0
 74
     0
 95
       17
 96
       13
 40
0.0
 40
0.0
 40
0.0
 40
0.0
 40
1.0
 40
1.0
 40
1.0
 40
2.0
 40
2.0
 40
2.0
 40
3.0
 40
3.0
 40
3.0
 40
4.0
 40
4.0
 40
4.0
 40
4.0
 10
116.8476480827672
 20
-157.2572400865538
 10
117.0674451747262
 20
-157.3695501993729
 10
117.3340955652845
 20
-157.4074462497106
 10
117.4629421364329
 20
-157.4181260457149
 10
117.4629421364329
 20
-157.4181260457149
 10
117.3933512076308
 20
-157.5724663234541
 10
117.3933512076308
 20
-157.5724663234541
 10
117.2727728656471
 20
-157.5576524128675
 10
117.010256589671
 20
-157.5173447956901
 10
116.7460177659524
 20
-157.371617256664
 10
116.7460177659524
 20
-157.371617256664
 10
116.8476480827672
 20
-157.2572400865538
 10
116.8476480827672
 20
-157.2572400865538
 97
        0
 97
        1
330
15A
 92
        1
 93
        1
 72
     4
 94
        3
 73
     0
 74
     0
 95
       50
 96
       46
 40
0.0
 40
0.0
 40
0.0
 40
0.0
 40
1.0
 40
1.0
 40
1.0
 40
2.0
 40
2.0
 40
2.0
 40
3.0
 40
3.0
 40
3.0
 40
4.0
 40
4.0
 40
4.0
 40
5.0
 40
5.0
 40
5.0
 40
6.0
 40
6.0
 40
6.0
 40
7.0
 40
7.0
 40
7.0
 40
8.0
 40
8.0
 40
8.0
 40
9.0
 40
9.0
 40
9.0
 40
10.0
 40
10.0
 40
10.0
 40
11.0
 40
11.0
 40
11.0
 40
12.0
 40
12.0
 40
12.0
 40
13.0
 40
13.0
 40
13.0
 40
14.0
 40
14.0
 40
14.0
 40
15.0
 40
15.0
 40
15.0
 40
15.0
 10
116.7353379699481
 20
-155.9053846181417
 10
116.7353379699481
 20
-155.9053846181417
 10
117.471554875146
 20
-155.9053846181417
 10
117.471554875146
 20
-155.9053846181417
 10
117.471554875146
 20
-155.9053846181417
 10
117.471554875146
 20
-156.0304415842563
 10
117.471554875146
 20
-156.0304415842563
 10
117.471554875146
 20
-156.0304415842563
 10
117.1415147276591
 20
-156.0304415842563
 10
117.1415147276591
 20
-156.0304415842563
 10
117.1415147276591
 20
-156.0304415842563
 10
117.1415147276591
 20
-156.3053602039792
 10
117.1415147276591
 20
-156.3053602039792
 10
117.1415147276591
 20
-156.3053602039792
 10
116.9851073926287
 20
-156.3053602039792
 10
116.9851073926287
 20
-156.3053602039792
 10
116.9851073926287
 20
-156.3053602039792
 10
116.9851073926287
 20
-156.0304415842563
 10
116.9851073926287
 20
-156.0304415842563
 10
116.9851073926287
 20
-156.0304415842563
 10
116.7205240593615
 20
-156.0304415842563
 10
116.7205240593615
 20
-156.0304415842563
 10
116.6950303527707
 20
-156.1592881554046
 10
116.6443874491375
 20
-156.2502386762152
 10
116.5472357564534
 20
-156.3329209678612
 10
116.5472357564534
 20
-156.3329209678612
 10
116.42424584763
 20
-156.2250894791729
 10
116.42424584763
 20
-156.2250894791729
 10
116.5596381002004
 20
-156.1148464236449
 10
116.5830647495
 20
-155.9773871137834
 10
116.5830647495
 20
-155.9033175608505
 10
116.5830647495
 20
-155.9033175608505
 10
116.5830647495
 20
-155.6600938195919
 10
116.5830647495
 20
-155.6600938195919
 10
117.0526312641396
 20
-155.6600938195919
 10
117.2197183951742
 20
-155.6197862024145
 10
117.3637233864577
 20
-155.5774115279459
 10
117.3637233864577
 20
-155.5774115279459
 10
117.422979028804
 20
-155.7152153473559
 10
117.422979028804
 20
-155.7152153473559
 10
117.1521945236633
 20
-155.784806276158
 10
116.8369682867629
 20
-155.7892849002888
 10
116.7353379699481
 20
-155.7892849002888
 10
116.7353379699481
 20
-155.7892849002888
 10
116.7353379699481
 20
-155.9053846181417
 10
116.7353379699481
 20
-155.9053846181417
 97
        0
 97
        1
330
15B
 92
        1
 93
        1
 72
     4
 94
        3
 73
     0
 74
     0
 95
       17
 96
       13
 40
0.0
 40
0.0
 40
0.0
 40
0.0
 40
1.0
 40
1.0
 40
1.0
 40
2.0
 40
2.0
 40
2.0
 40
3.0
 40
3.0
 40
3.0
 40
4.0
 40
4.0
 40
4.0
 40
4.0
 10
117.0715792893085
 20
-156.9757757854088
 10
117.0715792893085
 20
-156.9757757854088
 10
115.9123046585219
 20
-156.9757757854088
 10
115.9123046585219
 20
-156.9757757854088
 10
115.9123046585219
 20
-156.9757757854088
 10
115.9123046585219
 20
-157.11564666211
 10
115.9123046585219
 20
-157.11564666211
 10
115.9123046585219
 20
-157.11564666211
 10
117.0715792893085
 20
-157.11564666211
 10
117.0715792893085
 20
-157.11564666211
 10
117.0715792893085
 20
-157.11564666211
 10
117.0715792893085
 20
-156.9757757854088
 10
117.0715792893085
 20
-156.9757757854088
 97
        0
 97
        1
330
15C
 92
        1
 93
        1
 72
     4
 94
        3
 73
     0
 74
     0
 95
       17
 96
       13
 40
0.0
 40
0.0
 40
0.0
 40
0.0
 40
1.0
 40
1.0
 40
1.0
 40
2.0
 40
2.0
 40
2.0
 40
3.0
 40
3.0
 40
3.0
 40
4.0
 40
4.0
 40
4.0
 40
4.0
 10
117.0715792893085
 20
-156.7242838149856
 10
117.0715792893085
 20
-156.7242838149856
 10
115.9123046585219
 20
-156.7242838149856
 10
115.9123046585219
 20
-156.7242838149856
 10
115.9123046585219
 20
-156.7242838149856
 10
115.9123046585219
 20
-156.8658772394293
 10
115.9123046585219
 20
-156.8658772394293
 10
115.9123046585219
 20
-156.8658772394293
 10
117.0715792893085
 20
-156.8658772394293
 10
117.0715792893085
 20
-156.8658772394293
 10
117.0715792893085
 20
-156.8658772394293
 10
117.0715792893085
 20
-156.7242838149856
 10
117.0715792893085
 20
-156.7242838149856
 97
        0
 97
        1
330
15D
 92
        1
 93
        1
 72
     4
 94
        3
 73
     0
 74
     0
 95
       17
 96
       13
 40
0.0
 40
0.0
 40
0.0
 40
0.0
 40
1.0
 40
1.0
 40
1.0
 40
2.0
 40
2.0
 40
2.0
 40
3.0
 40
3.0
 40
3.0
 40
4.0
 40
4.0
 40
4.0
 40
4.0
 10
117.0715792893085
 20
-156.4851941883092
 10
117.0715792893085
 20
-156.4851941883092
 10
115.9123046585219
 20
-156.4851941883092
 10
115.9123046585219
 20
-156.4851941883092
 10
115.9123046585219
 20
-156.4851941883092
 10
115.9123046585219
 20
-156.6140407594576
 10
115.9123046585219
 20
-156.6140407594576
 10
115.9123046585219
 20
-156.6140407594576
 10
117.0715792893085
 20
-156.6140407594576
 10
117.0715792893085
 20
-156.6140407594576
 10
117.0715792893085
 20
-156.6140407594576
 10
117.0715792893085
 20
-156.4851941883092
 10
117.0715792893085
 20
-156.4851941883092
 97
        0
 97
        1
330
15E
 92
        1
 93
        1
 72
     4
 94
        3
 73
     0
 74
     0
 95
       32
 96
       28
 40
0.0
 40
0.0
 40
0.0
 40
0.0
 40
1.0
 40
1.0
 40
1.0
 40
2.0
 40
2.0
 40
2.0
 40
3.0
 40
3.0
 40
3.0
 40
4.0
 40
4.0
 40
4.0
 40
5.0
 40
5.0
 40
5.0
 40
6.0
 40
6.0
 40
6.0
 40
7.0
 40
7.0
 40
7.0
 40
8.0
 40
8.0
 40
8.0
 40
9.0
 40
9.0
 40
9.0
 40
9.0
 10
115.7431504701961
 20
-157.2510389146803
 10
115.7431504701961
 20
-157.2510389146803
 10
115.7431504701961
 20
-156.3518689930301
 10
115.7431504701961
 20
-156.3518689930301
 10
115.7431504701961
 20
-156.3518689930301
 10
117.2410779871828
 20
-156.3518689930301
 10
117.2410779871828
 20
-156.3518689930301
 10
117.2410779871828
 20
-156.3518689930301
 10
117.2410779871828
 20
-157.2510389146803
 10
117.2410779871828
 20
-157.2510389146803
 10
117.2410779871828
 20
-157.2510389146803
 10
116.0966172669828
 20
-157.2510389146803
 10
116.0966172669828
 20
-157.2510389146803
 10
116.0966172669828
 20
-157.2510389146803
 10
116.2023816983799
 20
-157.3609374606597
 10
116.2023816983799
 20
-157.3609374606597
 10
116.0373616246365
 20
-157.4560220960526
 10
115.872341550893
 20
-157.5173447956901
 10
115.5760633391615
 20
-157.5683322088718
 10
115.5760633391615
 20
-157.5683322088718
 10
115.5106065249418
 20
-157.4160589884237
 10
115.5106065249418
 20
-157.4160589884237
 10
115.8892225187707
 20
-157.3630045179509
 10
116.0118679180456
 20
-157.29548064644
 10
116.0921386428519
 20
-157.2510389146803
 10
116.0921386428519
 20
-157.2510389146803
 10
115.7431504701961
 20
-157.2510389146803
 10
115.7431504701961
 20
-157.2510389146803
 97
        0
 97
        1
330
15F
 92
        1
 93
        1
 72
     4
 94
        3
 73
     0
 74
     0
 95
       50
 96
       46
 40
0.0
 40
0.0
 40
0.0
 40
0.0
 40
1.0
 40
1.0
 40
1.0
 40
2.0
 40
2.0
 40
2.0
 40
3.0
 40
3.0
 40
3.0
 40
4.0
 40
4.0
 40
4.0
 40
5.0
 40
5.0
 40
5.0
 40
6.0
 40
6.0
 40
6.0
 40
7.0
 40
7.0
 40
7.0
 40
8.0
 40
8.0
 40
8.0
 40
9.0
 40
9.0
 40
9.0
 40
10.0
 40
10.0
 40
10.0
 40
11.0
 40
11.0
 40
11.0
 40
12.0
 40
12.0
 40
12.0
 40
13.0
 40
13.0
 40
13.0
 40
14.0
 40
14.0
 40
14.0
 40
15.0
 40
15.0
 40
15.0
 40
15.0
 10
115.8278998191333
 20
-155.9053846181417
 10
115.8278998191333
 20
-155.9053846181417
 10
116.479367375394
 20
-155.9053846181417
 10
116.479367375394
 20
-155.9053846181417
 10
116.479367375394
 20
-155.9053846181417
 10
116.479367375394
 20
-156.0304415842563
 10
116.479367375394
 20
-156.0304415842563
 10
116.479367375394
 20
-156.0304415842563
 10
116.2023816983799
 20
-156.0304415842563
 10
116.2023816983799
 20
-156.0304415842563
 10
116.2023816983799
 20
-156.0304415842563
 10
116.2023816983799
 20
-156.3053602039792
 10
116.2023816983799
 20
-156.3053602039792
 10
116.2023816983799
 20
-156.3053602039792
 10
116.0414957392188
 20
-156.3053602039792
 10
116.0414957392188
 20
-156.3053602039792
 10
116.0414957392188
 20
-156.3053602039792
 10
116.0414957392188
 20
-156.0304415842563
 10
116.0414957392188
 20
-156.0304415842563
 10
116.0414957392188
 20
-156.0304415842563
 10
115.8213541377113
 20
-156.0304415842563
 10
115.8213541377113
 20
-156.0304415842563
 10
115.8110188512555
 20
-156.1000325130583
 10
115.7855251446647
 20
-156.2946804079749
 10
115.6311848669255
 20
-156.4448865711318
 10
115.6311848669255
 20
-156.4448865711318
 10
115.5085394676506
 20
-156.3349880251523
 10
115.5085394676506
 20
-156.3349880251523
 10
115.6291178096344
 20
-156.2354247656286
 10
115.6711479745544
 20
-156.0304415842563
 10
115.6711479745544
 20
-155.9477592926103
 10
115.6711479745544
 20
-155.9477592926103
 10
115.6711479745544
 20
-155.662160876883
 10
115.6711479745544
 20
-155.662160876883
 10
116.1558729093291
 20
-155.662160876883
 10
116.3102131870683
 20
-155.6156520878322
 10
116.4052978224612
 20
-155.5880913239502
 10
116.4052978224612
 20
-155.5880913239502
 10
116.458352292934
 20
-155.7276176911028
 10
116.458352292934
 20
-155.7276176911028
 10
116.2488904874308
 20
-155.7765380469934
 10
116.0859374709785
 20
-155.7868733334491
 10
115.8278998191333
 20
-155.7913519575799
 10
115.8278998191333
 20
-155.7913519575799
 10
115.8278998191333
 20
-155.9053846181417
 10
115.8278998191333
 20
-155.9053846181417
 97
        0
 97
        1
330
160
 75
     2
 76
     1
 98
        1
 10
0.0
 20
0.0
450
        0
451
        0
460
0.0
461
0.0
452
        0
462
0.0
453
        0
470

  0
ENDBLK
  5
151
330
14E
100
AcDbEntity
  8
0
100
AcDbBlockEnd
  0
BLOCK
  5
164
330
162
100
AcDbEntity
  8
0
100
AcDbBlockBegin
  2
Block_15
 70
     0
 10
0.0
 20
0.0
 30
0.0
  3
Block_15
  1

  0
INSERT
  5
167
330
162
100
AcDbEntity
  8
レイヤー 1
100
AcDbBlockReference
  2
Block_16
 10
0.0
 20
0.0
 30
0.0
  0
ENDBLK
  5
165
330
162
100
AcDbEntity
  8
0
100
AcDbBlockEnd
  0
BLOCK
  5
168
330
166
100
AcDbEntity
  8
0
100
AcDbBlockBegin
  2
Block_16
 70
     0
 10
0.0
 20
0.0
 30
0.0
  3
Block_16
  1

  0
SPLINE
  5
16A
330
166
100
AcDbEntity
  8
レイヤー 1
100
AcDbSpline
210
0.0
220
0.0
230
1.0
 70
     9
 71
     3
 72
    17
 73
    13
 74
     0
 42
0.0000000001
 43
0.0000000001
 40
0.0
 40
0.0
 40
0.0
 40
0.0
 40
1.0
 40
1.0
 40
1.0
 40
2.0
 40
2.0
 40
2.0
 40
3.0
 40
3.0
 40
3.0
 40
4.0
 40
4.0
 40
4.0
 40
4.0
 10
126.1821343000517
 20
-153.6667615718264
 30
0.0
 10
126.165253332174
 20
-153.6963893929995
 30
0.0
 10
126.1146104285408
 20
-153.7894069711013
 30
0.0
 10
126.1039306325365
 20
-153.8083549962701
 30
0.0
 10
126.2944444128708
 20
-153.8676106386164
 30
0.0
 10
126.3154594953308
 20
-153.8741563200384
 30
0.0
 10
126.3874619909726
 20
-153.9017170839204
 30
0.0
 10
126.4425835187366
 20
-153.8149006776921
 30
0.0
 10
126.4656656584877
 20
-153.7408311247592
 30
0.0
 10
126.4804795690743
 20
-153.6667615718264
 30
0.0
 10
126.4804795690743
 20
-153.6667615718264
 30
0.0
 10
126.1821343000517
 20
-153.6667615718264
 30
0.0
 10
126.1821343000517
 20
-153.6667615718264
 30
0.0
  0
SPLINE
  5
16B
330
166
100
AcDbEntity
  8
レイヤー 1
100
AcDbSpline
210
0.0
220
0.0
230
1.0
 70
    11
 71
     3
 72
    20
 73
    16
 74
     0
 42
0.0000000001
 43
0.0000000001
 40
0.0
 40
0.0
 40
0.0
 40
0.0
 40
1.0
 40
1.0
 40
1.0
 40
2.0
 40
2.0
 40
2.0
 40
3.0
 40
3.0
 40
3.0
 40
4.0
 40
4.0
 40
4.0
 40
5.0
 40
5.0
 40
5.0
 40
5.0
 10
126.1187445431231
 20
-152.8161674965182
 30
0.0
 10
126.1187445431231
 20
-152.8161674965182
 30
0.0
 10
126.0870496646588
 20
-152.8161674965182
 30
0.0
 10
126.0870496646588
 20
-152.8161674965182
 30
0.0
 10
126.1335584537096
 20
-152.9157307560419
 30
0.0
 10
126.165253332174
 20
-152.9960014808482
 30
0.0
 10
126.1990152679294
 20
-153.1231255042539
 30
0.0
 10
126.1990152679294
 20
-153.1231255042539
 30
0.0
 10
126.4064100161414
 20
-153.1231255042539
 30
0.0
 10
126.4064100161414
 20
-153.1231255042539
 30
0.0
 10
126.4381048946057
 20
-153.0301079261522
 30
0.0
 10
126.4615315439054
 20
-152.945358577215
 30
0.0
 10
126.4846136836566
 20
-152.8161674965182
 30
0.0
 10
126.4846136836566
 20
-152.8161674965182
 30
0.0
 10
126.1187445431231
 20
-152.8161674965182
 30
0.0
 10
126.1187445431231
 20
-152.8161674965182
 30
0.0
  0
SPLINE
  5
16C
330
166
100
AcDbEntity
  8
レイヤー 1
100
AcDbSpline
210
0.0
220
0.0
230
1.0
 70
     9
 71
     3
 72
   242
 73
   238
 74
     0
 42
0.0000000001
 43
0.0000000001
 40
0.0
 40
0.0
 40
0.0
 40
0.0
 40
1.0
 40
1.0
 40
1.0
 40
2.0
 40
2.0
 40
2.0
 40
3.0
 40
3.0
 40
3.0
 40
4.0
 40
4.0
 40
4.0
 40
5.0
 40
5.0
 40
5.0
 40
6.0
 40
6.0
 40
6.0
 40
7.0
 40
7.0
 40
7.0
 40
8.0
 40
8.0
 40
8.0
 40
9.0
 40
9.0
 40
9.0
 40
10.0
 40
10.0
 40
10.0
 40
11.0
 40
11.0
 40
11.0
 40
12.0
 40
12.0
 40
12.0
 40
13.0
 40
13.0
 40
13.0
 40
14.0
 40
14.0
 40
14.0
 40
15.0
 40
15.0
 40
15.0
 40
16.0
 40
16.0
 40
16.0
 40
17.0
 40
17.0
 40
17.0
 40
18.0
 40
18.0
 40
18.0
 40
19.0
 40
19.0
 40
19.0
 40
20.0
 40
20.0
 40
20.0
 40
21.0
 40
21.0
 40
21.0
 40
22.0
 40
22.0
 40
22.0
 40
23.0
 40
23.0
 40
23.0
 40
24.0
 40
24.0
 40
24.0
 40
25.0
 40
25.0
 40
25.0
 40
26.0
 40
26.0
 40
26.0
 40
27.0
 40
27.0
 40
27.0
 40
28.0
 40
28.0
 40
28.0
 40
29.0
 40
29.0
 40
29.0
 40
30.0
 40
30.0
 40
30.0
 40
31.0
 40
31.0
 40
31.0
 40
32.0
 40
32.0
 40
32.0
 40
33.0
 40
33.0
 40
33.0
 40
34.0
 40
34.0
 40
34.0
 40
35.0
 40
35.0
 40
35.0
 40
36.0
 40
36.0
 40
36.0
 40
37.0
 40
37.0
 40
37.0
 40
38.0
 40
38.0
 40
38.0
 40
39.0
 40
39.0
 40
39.0
 40
40.0
 40
40.0
 40
40.0
 40
41.0
 40
41.0
 40
41.0
 40
42.0
 40
42.0
 40
42.0
 40
43.0
 40
43.0
 40
43.0
 40
44.0
 40
44.0
 40
44.0
 40
45.0
 40
45.0
 40
45.0
 40
46.0
 40
46.0
 40
46.0
 40
47.0
 40
47.0
 40
47.0
 40
48.0
 40
48.0
 40
48.0
 40
49.0
 40
49.0
 40
49.0
 40
50.0
 40
50.0
 40
50.0
 40
51.0
 40
51.0
 40
51.0
 40
52.0
 40
52.0
 40
52.0
 40
53.0
 40
53.0
 40
53.0
 40
54.0
 40
54.0
 40
54.0
 40
55.0
 40
55.0
 40
55.0
 40
56.0
 40
56.0
 40
56.0
 40
57.0
 40
57.0
 40
57.0
 40
58.0
 40
58.0
 40
58.0
 40
59.0
 40
59.0
 40
59.0
 40
60.0
 40
60.0
 40
60.0
 40
61.0
 40
61.0
 40
61.0
 40
62.0
 40
62.0
 40
62.0
 40
63.0
 40
63.0
 40
63.0
 40
64.0
 40
64.0
 40
64.0
 40
65.0
 40
65.0
 40
65.0
 40
66.0
 40
66.0
 40
66.0
 40
67.0
 40
67.0
 40
67.0
 40
68.0
 40
68.0
 40
68.0
 40
69.0
 40
69.0
 40
69.0
 40
70.0
 40
70.0
 40
70.0
 40
71.0
 40
71.0
 40
71.0
 40
72.0
 40
72.0
 40
72.0
 40
73.0
 40
73.0
 40
73.0
 40
74.0
 40
74.0
 40
74.0
 40
75.0
 40
75.0
 40
75.0
 40
76.0
 40
76.0
 40
76.0
 40
77.0
 40
77.0
 40
77.0
 40
78.0
 40
78.0
 40
78.0
 40
79.0
 40
79.0
 40
79.0
 40
79.0
 10
126.7471299596326
 20
-153.2815998965754
 30
0.0
 10
126.7471299596326
 20
-153.2815998965754
 30
0.0
 10
126.4932264223697
 20
-153.2815998965754
 30
0.0
 10
126.4932264223697
 20
-153.2815998965754
 30
0.0
 10
126.4932264223697
 20
-153.2815998965754
 30
0.0
 10
126.2162407453556
 20
-153.2815998965754
 30
0.0
 10
126.2162407453556
 20
-153.2815998965754
 30
0.0
 10
126.2162407453556
 20
-153.2815998965754
 30
0.0
 10
126.3430202592128
 20
-153.323974571044
 30
0.0
 10
126.3430202592128
 20
-153.323974571044
 30
0.0
 10
126.3537000552171
 20
-153.3284531951748
 30
0.0
 10
126.366102398964
 20
-153.3346543670483
 30
0.0
 10
126.366102398964
 20
-153.3474012203437
 30
0.0
 10
126.366102398964
 20
-153.3684163028037
 30
0.0
 10
126.3344075204997
 20
-153.3749619842257
 30
0.0
 10
126.3133924380397
 20
-153.379096098808
 30
0.0
 10
126.3027126420354
 20
-153.4021782385591
 30
0.0
 10
126.2730848208623
 20
-153.4679795623274
 30
0.0
 10
126.2541367956934
 20
-153.5124212940871
 30
0.0
 10
126.2541367956934
 20
-153.5124212940871
 30
0.0
 10
126.524921300834
 20
-153.5124212940871
 30
0.0
 10
126.524921300834
 20
-153.5124212940871
 30
0.0
 10
126.6158718216446
 20
-153.5124212940871
 30
0.0
 10
126.8125867738524
 20
-153.5079426699563
 30
0.0
 10
126.9545247078447
 20
-153.4996744407917
 30
0.0
 10
126.9545247078447
 20
-153.4996744407917
 30
0.0
 10
126.9545247078447
 20
-153.6774413678306
 30
0.0
 10
126.9545247078447
 20
-153.6774413678306
 30
0.0
 10
126.8718424161987
 20
-153.6729627436998
 30
0.0
 10
126.8508273337387
 20
-153.6729627436998
 30
0.0
 10
126.6709933494086
 20
-153.6688286291175
 30
0.0
 10
126.6392984709443
 20
-153.8231689068567
 30
0.0
 10
126.5948567391846
 20
-153.9037841412115
 30
0.0
 10
126.5504150074249
 20
-153.9733750700136
 30
0.0
 10
126.6709933494086
 20
-154.0326307123599
 30
0.0
 10
126.7767577808058
 20
-154.1004990934193
 30
0.0
 10
126.8804551549118
 20
-154.1828368755168
 30
0.0
 10
126.8804551549118
 20
-154.1828368755168
 30
0.0
 10
126.7619438702192
 20
-154.3499240065514
 30
0.0
 10
126.7619438702192
 20
-154.3499240065514
 30
0.0
 10
126.7385172209195
 20
-154.3309759813825
 30
0.0
 10
126.7257703676241
 20
-154.3227077522179
 30
0.0
 10
126.6138047643535
 20
-154.2379584032808
 30
0.0
 10
126.5652289180114
 20
-154.1997178433945
 30
0.0
 10
126.5059732756652
 20
-154.1638888503479
 30
0.0
 10
126.4253580413103
 20
-154.1194471185882
 30
0.0
 10
126.213829178516
 20
-154.3054822747917
 30
0.0
 10
126.0088459971436
 20
-154.3289089240914
 30
0.0
 10
125.7187689572856
 20
-154.3585367452645
 30
0.0
 10
125.7187689572856
 20
-154.3585367452645
 30
0.0
 10
125.6154160927281
 20
-154.1787027609345
 30
0.0
 10
125.6154160927281
 20
-154.1787027609345
 30
0.0
 10
125.9327093869196
 20
-154.1745686463522
 30
0.0
 10
126.1080647471188
 20
-154.1490749397613
 30
0.0
 10
126.2603379675669
 20
-154.0391763937819
 30
0.0
 10
126.1421711924228
 20
-153.9881889806002
 30
0.0
 10
126.0532877289033
 20
-153.9609727262667
 30
0.0
 10
126.0171142263082
 20
-153.9482258729712
 30
0.0
 10
125.9981662011393
 20
-153.9757866368533
 30
0.0
 10
125.9833522905527
 20
-153.9947346620221
 30
0.0
 10
125.9557915266708
 20
-154.0284965977776
 30
0.0
 10
125.9557915266708
 20
-154.0284965977776
 30
0.0
 10
125.759076574463
 20
-153.9461588156801
 30
0.0
 10
125.759076574463
 20
-153.9461588156801
 30
0.0
 10
125.841758866109
 20
-153.8655435813253
 30
0.0
 10
125.9030815657464
 20
-153.7704589459324
 30
0.0
 10
125.9602701508016
 20
-153.6688286291175
 30
0.0
 10
125.7697563704673
 20
-153.6729627436998
 30
0.0
 10
125.7483967784587
 20
-153.6729627436998
 30
0.0
 10
125.6660589963612
 20
-153.6774413678306
 30
0.0
 10
125.6660589963612
 20
-153.6774413678306
 30
0.0
 10
125.6660589963612
 20
-153.4996744407917
 30
0.0
 10
125.6660589963612
 20
-153.4996744407917
 30
0.0
 10
125.8055853635139
 20
-153.5058756126652
 30
0.0
 10
126.0150471690171
 20
-153.510354236796
 30
0.0
 10
126.0405408756079
 20
-153.510354236796
 30
0.0
 10
126.0574218434856
 20
-153.476247791492
 30
0.0
 10
126.1125433712496
 20
-153.3556694495083
 30
0.0
 10
126.1314913964185
 20
-153.2815998965754
 30
0.0
 10
126.1125433712496
 20
-153.2815998965754
 30
0.0
 10
125.9347764442107
 20
-153.2881455779974
 30
0.0
 10
125.7401285492941
 20
-153.3008924312928
 30
0.0
 10
125.7401285492941
 20
-153.3008924312928
 30
0.0
 10
125.7401285492941
 20
-153.434217626572
 30
0.0
 10
125.7401285492941
 20
-153.434217626572
 30
0.0
 10
125.6915527029521
 20
-153.4593668236143
 30
0.0
 10
125.6322970606058
 20
-153.4910617020786
 30
0.0
 10
125.4989718653266
 20
-153.5568630258469
 30
0.0
 10
125.4989718653266
 20
-153.5568630258469
 30
0.0
 10
125.4989718653266
 20
-153.7025905648729
 30
0.0
 10
125.4989718653266
 20
-153.7025905648729
 30
0.0
 10
125.4989718653266
 20
-153.7025905648729
 30
0.0
 10
125.4989718653266
 20
-154.1700900222214
 30
0.0
 10
125.4989718653266
 20
-154.1700900222214
 30
0.0
 10
125.4989718653266
 20
-154.2972140456271
 30
0.0
 10
125.4627983627315
 20
-154.3564696879734
 30
0.0
 10
125.179611513844
 20
-154.3478569492602
 30
0.0
 10
125.179611513844
 20
-154.3478569492602
 30
0.0
 10
125.0759141397379
 20
-154.1408067105967
 30
0.0
 10
125.0759141397379
 20
-154.1408067105967
 30
0.0
 10
125.1393038966666
 20
-154.1532090543436
 30
0.0
 10
125.1878797430086
 20
-154.1576876784745
 30
0.0
 10
125.228187360186
 20
-154.1576876784745
 30
0.0
 10
125.30432397041
 20
-154.1576876784745
 30
0.0
 10
125.3150037664143
 20
-154.1342610291748
 30
0.0
 10
125.3150037664143
 20
-154.068804214955
 30
0.0
 10
125.3150037664143
 20
-154.068804214955
 30
0.0
 10
125.3150037664143
 20
-153.6392008079443
 30
0.0
 10
125.3150037664143
 20
-153.6392008079443
 30
0.0
 10
125.2175075641817
 20
-153.6795084251218
 30
0.0
 10
125.200626596304
 20
-153.6857095969952
 30
0.0
 10
125.1541178072531
 20
-153.7050021317126
 30
0.0
 10
125.1499836926708
 20
-153.7260172141726
 30
0.0
 10
125.14550506854
 20
-153.7556450353458
 30
0.0
 10
125.1265570433711
 20
-153.7556450353458
 30
0.0
 10
125.1182888142065
 20
-153.7556450353458
 30
0.0
 10
125.1076090182023
 20
-153.7515109207635
 30
0.0
 10
125.1010633367803
 20
-153.7280842714638
 30
0.0
 10
125.1010633367803
 20
-153.7280842714638
 30
0.0
 10
125.048353375856
 20
-153.5355034338383
 30
0.0
 10
125.048353375856
 20
-153.5355034338383
 30
0.0
 10
125.1944254244305
 20
-153.4889946447875
 30
0.0
 10
125.2598822386503
 20
-153.4659125050363
 30
0.0
 10
125.3150037664143
 20
-153.4445529130277
 30
0.0
 10
125.3150037664143
 20
-153.4445529130277
 30
0.0
 10
125.3150037664143
 20
-153.0321749834433
 30
0.0
 10
125.3150037664143
 20
-153.0321749834433
 30
0.0
 10
125.3150037664143
 20
-153.0321749834433
 30
0.0
 10
125.2619492959414
 20
-153.0321749834433
 30
0.0
 10
125.2619492959414
 20
-153.0321749834433
 30
0.0
 10
125.2619492959414
 20
-153.0321749834433
 30
0.0
 10
125.1837456284263
 20
-153.0321749834433
 30
0.0
 10
125.1837456284263
 20
-153.0321749834433
 30
0.0
 10
125.1158772473669
 20
-153.0321749834433
 30
0.0
 10
125.1076090182023
 20
-153.0321749834433
 30
0.0
 10
125.0714355156071
 20
-153.0383761553168
 30
0.0
 10
125.0714355156071
 20
-153.0383761553168
 30
0.0
 10
125.0714355156071
 20
-152.8437282604001
 30
0.0
 10
125.0714355156071
 20
-152.8437282604001
 30
0.0
 10
125.0989962794891
 20
-152.8502739418222
 30
0.0
 10
125.1076090182023
 20
-152.8502739418222
 30
0.0
 10
125.1771999470043
 20
-152.8502739418222
 30
0.0
 10
125.1771999470043
 20
-152.8502739418222
 30
0.0
 10
125.3105251422835
 20
-152.8502739418222
 30
0.0
 10
125.3105251422835
 20
-152.8502739418222
 30
0.0
 10
125.3105251422835
 20
-152.7803385034716
 30
0.0
 10
125.3105251422835
 20
-152.6980007213741
 30
0.0
 10
125.3084580849923
 20
-152.6935220972433
 30
0.0
 10
125.3001898558277
 20
-152.5136881129132
 30
0.0
 10
125.3001898558277
 20
-152.4947400877444
 30
0.0
 10
125.297778288988
 20
-152.4482312986935
 30
0.0
 10
125.297778288988
 20
-152.4482312986935
 30
0.0
 10
125.5137857759132
 20
-152.4568440374066
 30
0.0
 10
125.5137857759132
 20
-152.4568440374066
 30
0.0
 10
125.5244655719175
 20
-152.4568440374066
 30
0.0
 10
125.5454806543775
 20
-152.4589110946978
 30
0.0
 10
125.5454806543775
 20
-152.4757920625755
 30
0.0
 10
125.5454806543775
 20
-152.4947400877444
 30
0.0
 10
125.5306667437909
 20
-152.5054198837486
 30
0.0
 10
125.5051730372001
 20
-152.5243679089175
 30
0.0
 10
125.5051730372001
 20
-152.5750108125507
 30
0.0
 10
125.4989718653266
 20
-152.8037651527713
 30
0.0
 10
125.5010389226178
 20
-152.8502739418222
 30
0.0
 10
125.6302300033146
 20
-152.8502739418222
 30
0.0
 10
125.6426323470615
 20
-152.8502739418222
 30
0.0
 10
125.7401285492941
 20
-152.841661203109
 30
0.0
 10
125.7401285492941
 20
-152.841661203109
 30
0.0
 10
125.7401285492941
 20
-153.0363090980256
 30
0.0
 10
125.7401285492941
 20
-153.0363090980256
 30
0.0
 10
125.7018879894078
 20
-153.0342420407345
 30
0.0
 10
125.6343641178969
 20
-153.0301079261522
 30
0.0
 10
125.4989718653266
 20
-153.0321749834433
 30
0.0
 10
125.4989718653266
 20
-153.0321749834433
 30
0.0
 10
125.4989718653266
 20
-153.3704833600949
 30
0.0
 10
125.4989718653266
 20
-153.3704833600949
 30
0.0
 10
125.5537488835421
 20
-153.3474012203437
 30
0.0
 10
125.6195502073104
 20
-153.3198404564617
 30
0.0
 10
125.6681260536524
 20
-153.296413807162
 30
0.0
 10
125.6681260536524
 20
-153.296413807162
 30
0.0
 10
125.6681260536524
 20
-153.1189913896716
 30
0.0
 10
125.6681260536524
 20
-153.1189913896716
 30
0.0
 10
125.7825032237627
 20
-153.1313937334185
 30
0.0
 10
125.9010145084553
 20
-153.1313937334185
 30
0.0
 10
126.0171142263082
 20
-153.1313937334185
 30
0.0
 10
125.994032086557
 20
-153.0363090980256
 30
0.0
 10
125.966471322675
 20
-152.9539713159282
 30
0.0
 10
125.9030815657464
 20
-152.820646120649
 30
0.0
 10
125.8586398339867
 20
-152.8227131779401
 30
0.0
 10
125.7759575423407
 20
-152.8268472925224
 30
0.0
 10
125.738061492003
 20
-152.8289143498136
 30
0.0
 10
125.738061492003
 20
-152.8289143498136
 30
0.0
 10
125.738061492003
 20
-152.6490803654835
 30
0.0
 10
125.738061492003
 20
-152.6490803654835
 30
0.0
 10
125.862773948569
 20
-152.6576931041967
 30
0.0
 10
126.0364067610256
 20
-152.661827218779
 30
0.0
 10
126.1187445431231
 20
-152.661827218779
 30
0.0
 10
126.1187445431231
 20
-152.661827218779
 30
0.0
 10
126.2014268347691
 20
-152.661827218779
 30
0.0
 10
126.2014268347691
 20
-152.661827218779
 30
0.0
 10
126.2014268347691
 20
-152.4988742023267
 30
0.0
 10
126.2014268347691
 20
-152.4885389158709
 30
0.0
 10
126.1990152679294
 20
-152.4334173881069
 30
0.0
 10
126.1990152679294
 20
-152.4334173881069
 30
0.0
 10
126.4232909840192
 20
-152.4589110946978
 30
0.0
 10
126.4232909840192
 20
-152.4589110946978
 30
0.0
 10
126.42776960815
 20
-152.4589110946978
 30
0.0
 10
126.44878469061
 20
-152.4609781519889
 30
0.0
 10
126.44878469061
 20
-152.4778591198666
 30
0.0
 10
126.44878469061
 20
-152.4926730304532
 30
0.0
 10
126.4381048946057
 20
-152.5012857691663
 30
0.0
 10
126.4105441307237
 20
-152.5160996797529
 30
0.0
 10
126.4043429588503
 20
-152.5815564939726
 30
0.0
 10
126.4022759015591
 20
-152.6025715764327
 30
0.0
 10
126.4022759015591
 20
-152.661827218779
 30
0.0
 10
126.4022759015591
 20
-152.661827218779
 30
0.0
 10
126.497360536952
 20
-152.661827218779
 30
0.0
 10
126.497360536952
 20
-152.661827218779
 30
0.0
 10
126.580042828598
 20
-152.661827218779
 30
0.0
 10
126.7533311315061
 20
-152.6576931041967
 30
0.0
 10
126.8783880976207
 20
-152.6490803654835
 30
0.0
 10
126.8783880976207
 20
-152.6490803654835
 30
0.0
 10
126.8783880976207
 20
-152.8289143498136
 30
0.0
 10
126.8783880976207
 20
-152.8289143498136
 30
0.0
 10
126.8487602764475
 20
-152.8268472925224
 30
0.0
 10
126.7302489917549
 20
-152.8227131779401
 30
0.0
 10
126.6899413745775
 20
-152.820646120649
 30
0.0
 10
126.6751274639909
 20
-152.8712890242822
 30
0.0
 10
126.6413655282355
 20
-152.9835991371013
 30
0.0
 10
126.5755642044672
 20
-153.1231255042539
 30
0.0
 10
126.6179388789358
 20
-153.1231255042539
 30
0.0
 10
126.8952690654984
 20
-153.1041774790851
 30
0.0
 10
126.9565917651358
 20
-153.1017659122454
 30
0.0
 10
126.9565917651358
 20
-153.1017659122454
 30
0.0
 10
126.9565917651358
 20
-153.2860785207063
 30
0.0
 10
126.9565917651358
 20
-153.2860785207063
 30
0.0
 10
126.9269639439627
 20
-153.2860785207063
 30
0.0
 10
126.910082976085
 20
-153.2815998965754
 30
0.0
 10
126.7471299596326
 20
-153.2815998965754
 30
0.0
  0
HATCH
  5
16D
330
166
100
AcDbEntity
  8
レイヤー 1
 62
    18
420
        0
440
 33554687
100
AcDbHatch
 10
0.0
 20
0.0
 30
0.0
210
0.0
220
0.0
230
1.0
  2
SOLID
 70
     1
 71
     1
 91
        3
 92
        1
 93
        1
 72
     4
 94
        3
 73
     0
 74
     0
 95
       17
 96
       13
 40
0.0
 40
0.0
 40
0.0
 40
0.0
 40
1.0
 40
1.0
 40
1.0
 40
2.0
 40
2.0
 40
2.0
 40
3.0
 40
3.0
 40
3.0
 40
4.0
 40
4.0
 40
4.0
 40
4.0
 10
126.1821343000517
 20
-153.6667615718264
 10
126.165253332174
 20
-153.6963893929995
 10
126.1146104285408
 20
-153.7894069711013
 10
126.1039306325365
 20
-153.8083549962701
 10
126.2944444128708
 20
-153.8676106386164
 10
126.3154594953308
 20
-153.8741563200384
 10
126.3874619909726
 20
-153.9017170839204
 10
126.4425835187366
 20
-153.8149006776921
 10
126.4656656584877
 20
-153.7408311247592
 10
126.4804795690743
 20
-153.6667615718264
 10
126.4804795690743
 20
-153.6667615718264
 10
126.1821343000517
 20
-153.6667615718264
 10
126.1821343000517
 20
-153.6667615718264
 97
        0
 97
        1
330
16A
 92
        1
 93
        1
 72
     4
 94
        3
 73
     0
 74
     0
 95
       20
 96
       16
 40
0.0
 40
0.0
 40
0.0
 40
0.0
 40
1.0
 40
1.0
 40
1.0
 40
2.0
 40
2.0
 40
2.0
 40
3.0
 40
3.0
 40
3.0
 40
4.0
 40
4.0
 40
4.0
 40
5.0
 40
5.0
 40
5.0
 40
5.0
 10
126.1187445431231
 20
-152.8161674965182
 10
126.1187445431231
 20
-152.8161674965182
 10
126.0870496646588
 20
-152.8161674965182
 10
126.0870496646588
 20
-152.8161674965182
 10
126.1335584537096
 20
-152.9157307560419
 10
126.165253332174
 20
-152.9960014808482
 10
126.1990152679294
 20
-153.1231255042539
 10
126.1990152679294
 20
-153.1231255042539
 10
126.4064100161414
 20
-153.1231255042539
 10
126.4064100161414
 20
-153.1231255042539
 10
126.4381048946057
 20
-153.0301079261522
 10
126.4615315439054
 20
-152.945358577215
 10
126.4846136836566
 20
-152.8161674965182
 10
126.4846136836566
 20
-152.8161674965182
 10
126.1187445431231
 20
-152.8161674965182
 10
126.1187445431231
 20
-152.8161674965182
 97
        0
 97
        1
330
16B
 92
        1
 93
        1
 72
     4
 94
        3
 73
     0
 74
     0
 95
      242
 96
      238
 40
0.0
 40
0.0
 40
0.0
 40
0.0
 40
1.0
 40
1.0
 40
1.0
 40
2.0
 40
2.0
 40
2.0
 40
3.0
 40
3.0
 40
3.0
 40
4.0
 40
4.0
 40
4.0
 40
5.0
 40
5.0
 40
5.0
 40
6.0
 40
6.0
 40
6.0
 40
7.0
 40
7.0
 40
7.0
 40
8.0
 40
8.0
 40
8.0
 40
9.0
 40
9.0
 40
9.0
 40
10.0
 40
10.0
 40
10.0
 40
11.0
 40
11.0
 40
11.0
 40
12.0
 40
12.0
 40
12.0
 40
13.0
 40
13.0
 40
13.0
 40
14.0
 40
14.0
 40
14.0
 40
15.0
 40
15.0
 40
15.0
 40
16.0
 40
16.0
 40
16.0
 40
17.0
 40
17.0
 40
17.0
 40
18.0
 40
18.0
 40
18.0
 40
19.0
 40
19.0
 40
19.0
 40
20.0
 40
20.0
 40
20.0
 40
21.0
 40
21.0
 40
21.0
 40
22.0
 40
22.0
 40
22.0
 40
23.0
 40
23.0
 40
23.0
 40
24.0
 40
24.0
 40
24.0
 40
25.0
 40
25.0
 40
25.0
 40
26.0
 40
26.0
 40
26.0
 40
27.0
 40
27.0
 40
27.0
 40
28.0
 40
28.0
 40
28.0
 40
29.0
 40
29.0
 40
29.0
 40
30.0
 40
30.0
 40
30.0
 40
31.0
 40
31.0
 40
31.0
 40
32.0
 40
32.0
 40
32.0
 40
33.0
 40
33.0
 40
33.0
 40
34.0
 40
34.0
 40
34.0
 40
35.0
 40
35.0
 40
35.0
 40
36.0
 40
36.0
 40
36.0
 40
37.0
 40
37.0
 40
37.0
 40
38.0
 40
38.0
 40
38.0
 40
39.0
 40
39.0
 40
39.0
 40
40.0
 40
40.0
 40
40.0
 40
41.0
 40
41.0
 40
41.0
 40
42.0
 40
42.0
 40
42.0
 40
43.0
 40
43.0
 40
43.0
 40
44.0
 40
44.0
 40
44.0
 40
45.0
 40
45.0
 40
45.0
 40
46.0
 40
46.0
 40
46.0
 40
47.0
 40
47.0
 40
47.0
 40
48.0
 40
48.0
 40
48.0
 40
49.0
 40
49.0
 40
49.0
 40
50.0
 40
50.0
 40
50.0
 40
51.0
 40
51.0
 40
51.0
 40
52.0
 40
52.0
 40
52.0
 40
53.0
 40
53.0
 40
53.0
 40
54.0
 40
54.0
 40
54.0
 40
55.0
 40
55.0
 40
55.0
 40
56.0
 40
56.0
 40
56.0
 40
57.0
 40
57.0
 40
57.0
 40
58.0
 40
58.0
 40
58.0
 40
59.0
 40
59.0
 40
59.0
 40
60.0
 40
60.0
 40
60.0
 40
61.0
 40
61.0
 40
61.0
 40
62.0
 40
62.0
 40
62.0
 40
63.0
 40
63.0
 40
63.0
 40
64.0
 40
64.0
 40
64.0
 40
65.0
 40
65.0
 40
65.0
 40
66.0
 40
66.0
 40
66.0
 40
67.0
 40
67.0
 40
67.0
 40
68.0
 40
68.0
 40
68.0
 40
69.0
 40
69.0
 40
69.0
 40
70.0
 40
70.0
 40
70.0
 40
71.0
 40
71.0
 40
71.0
 40
72.0
 40
72.0
 40
72.0
 40
73.0
 40
73.0
 40
73.0
 40
74.0
 40
74.0
 40
74.0
 40
75.0
 40
75.0
 40
75.0
 40
76.0
 40
76.0
 40
76.0
 40
77.0
 40
77.0
 40
77.0
 40
78.0
 40
78.0
 40
78.0
 40
79.0
 40
79.0
 40
79.0
 40
79.0
 10
126.7471299596326
 20
-153.2815998965754
 10
126.7471299596326
 20
-153.2815998965754
 10
126.4932264223697
 20
-153.2815998965754
 10
126.4932264223697
 20
-153.2815998965754
 10
126.4932264223697
 20
-153.2815998965754
 10
126.2162407453556
 20
-153.2815998965754
 10
126.2162407453556
 20
-153.2815998965754
 10
126.2162407453556
 20
-153.2815998965754
 10
126.3430202592128
 20
-153.323974571044
 10
126.3430202592128
 20
-153.323974571044
 10
126.3537000552171
 20
-153.3284531951748
 10
126.366102398964
 20
-153.3346543670483
 10
126.366102398964
 20
-153.3474012203437
 10
126.366102398964
 20
-153.3684163028037
 10
126.3344075204997
 20
-153.3749619842257
 10
126.3133924380397
 20
-153.379096098808
 10
126.3027126420354
 20
-153.4021782385591
 10
126.2730848208623
 20
-153.4679795623274
 10
126.2541367956934
 20
-153.5124212940871
 10
126.2541367956934
 20
-153.5124212940871
 10
126.524921300834
 20
-153.5124212940871
 10
126.524921300834
 20
-153.5124212940871
 10
126.6158718216446
 20
-153.5124212940871
 10
126.8125867738524
 20
-153.5079426699563
 10
126.9545247078447
 20
-153.4996744407917
 10
126.9545247078447
 20
-153.4996744407917
 10
126.9545247078447
 20
-153.6774413678306
 10
126.9545247078447
 20
-153.6774413678306
 10
126.8718424161987
 20
-153.6729627436998
 10
126.8508273337387
 20
-153.6729627436998
 10
126.6709933494086
 20
-153.6688286291175
 10
126.6392984709443
 20
-153.8231689068567
 10
126.5948567391846
 20
-153.9037841412115
 10
126.5504150074249
 20
-153.9733750700136
 10
126.6709933494086
 20
-154.0326307123599
 10
126.7767577808058
 20
-154.1004990934193
 10
126.8804551549118
 20
-154.1828368755168
 10
126.8804551549118
 20
-154.1828368755168
 10
126.7619438702192
 20
-154.3499240065514
 10
126.7619438702192
 20
-154.3499240065514
 10
126.7385172209195
 20
-154.3309759813825
 10
126.7257703676241
 20
-154.3227077522179
 10
126.6138047643535
 20
-154.2379584032808
 10
126.5652289180114
 20
-154.1997178433945
 10
126.5059732756652
 20
-154.1638888503479
 10
126.4253580413103
 20
-154.1194471185882
 10
126.213829178516
 20
-154.3054822747917
 10
126.0088459971436
 20
-154.3289089240914
 10
125.7187689572856
 20
-154.3585367452645
 10
125.7187689572856
 20
-154.3585367452645
 10
125.6154160927281
 20
-154.1787027609345
 10
125.6154160927281
 20
-154.1787027609345
 10
125.9327093869196
 20
-154.1745686463522
 10
126.1080647471188
 20
-154.1490749397613
 10
126.2603379675669
 20
-154.0391763937819
 10
126.1421711924228
 20
-153.9881889806002
 10
126.0532877289033
 20
-153.9609727262667
 10
126.0171142263082
 20
-153.9482258729712
 10
125.9981662011393
 20
-153.9757866368533
 10
125.9833522905527
 20
-153.9947346620221
 10
125.9557915266708
 20
-154.0284965977776
 10
125.9557915266708
 20
-154.0284965977776
 10
125.759076574463
 20
-153.9461588156801
 10
125.759076574463
 20
-153.9461588156801
 10
125.841758866109
 20
-153.8655435813253
 10
125.9030815657464
 20
-153.7704589459324
 10
125.9602701508016
 20
-153.6688286291175
 10
125.7697563704673
 20
-153.6729627436998
 10
125.7483967784587
 20
-153.6729627436998
 10
125.6660589963612
 20
-153.6774413678306
 10
125.6660589963612
 20
-153.6774413678306
 10
125.6660589963612
 20
-153.4996744407917
 10
125.6660589963612
 20
-153.4996744407917
 10
125.8055853635139
 20
-153.5058756126652
 10
126.0150471690171
 20
-153.510354236796
 10
126.0405408756079
 20
-153.510354236796
 10
126.0574218434856
 20
-153.476247791492
 10
126.1125433712496
 20
-153.3556694495083
 10
126.1314913964185
 20
-153.2815998965754
 10
126.1125433712496
 20
-153.2815998965754
 10
125.9347764442107
 20
-153.2881455779974
 10
125.7401285492941
 20
-153.3008924312928
 10
125.7401285492941
 20
-153.3008924312928
 10
125.7401285492941
 20
-153.434217626572
 10
125.7401285492941
 20
-153.434217626572
 10
125.6915527029521
 20
-153.4593668236143
 10
125.6322970606058
 20
-153.4910617020786
 10
125.4989718653266
 20
-153.5568630258469
 10
125.4989718653266
 20
-153.5568630258469
 10
125.4989718653266
 20
-153.7025905648729
 10
125.4989718653266
 20
-153.7025905648729
 10
125.4989718653266
 20
-153.7025905648729
 10
125.4989718653266
 20
-154.1700900222214
 10
125.4989718653266
 20
-154.1700900222214
 10
125.4989718653266
 20
-154.2972140456271
 10
125.4627983627315
 20
-154.3564696879734
 10
125.179611513844
 20
-154.3478569492602
 10
125.179611513844
 20
-154.3478569492602
 10
125.0759141397379
 20
-154.1408067105967
 10
125.0759141397379
 20
-154.1408067105967
 10
125.1393038966666
 20
-154.1532090543436
 10
125.1878797430086
 20
-154.1576876784745
 10
125.228187360186
 20
-154.1576876784745
 10
125.30432397041
 20
-154.1576876784745
 10
125.3150037664143
 20
-154.1342610291748
 10
125.3150037664143
 20
-154.068804214955
 10
125.3150037664143
 20
-154.068804214955
 10
125.3150037664143
 20
-153.6392008079443
 10
125.3150037664143
 20
-153.6392008079443
 10
125.2175075641817
 20
-153.6795084251218
 10
125.200626596304
 20
-153.6857095969952
 10
125.1541178072531
 20
-153.7050021317126
 10
125.1499836926708
 20
-153.7260172141726
 10
125.14550506854
 20
-153.7556450353458
 10
125.1265570433711
 20
-153.7556450353458
 10
125.1182888142065
 20
-153.7556450353458
 10
125.1076090182023
 20
-153.7515109207635
 10
125.1010633367803
 20
-153.7280842714638
 10
125.1010633367803
 20
-153.7280842714638
 10
125.048353375856
 20
-153.5355034338383
 10
125.048353375856
 20
-153.5355034338383
 10
125.1944254244305
 20
-153.4889946447875
 10
125.2598822386503
 20
-153.4659125050363
 10
125.3150037664143
 20
-153.4445529130277
 10
125.3150037664143
 20
-153.4445529130277
 10
125.3150037664143
 20
-153.0321749834433
 10
125.3150037664143
 20
-153.0321749834433
 10
125.3150037664143
 20
-153.0321749834433
 10
125.2619492959414
 20
-153.0321749834433
 10
125.2619492959414
 20
-153.0321749834433
 10
125.2619492959414
 20
-153.0321749834433
 10
125.1837456284263
 20
-153.0321749834433
 10
125.1837456284263
 20
-153.0321749834433
 10
125.1158772473669
 20
-153.0321749834433
 10
125.1076090182023
 20
-153.0321749834433
 10
125.0714355156071
 20
-153.0383761553168
 10
125.0714355156071
 20
-153.0383761553168
 10
125.0714355156071
 20
-152.8437282604001
 10
125.0714355156071
 20
-152.8437282604001
 10
125.0989962794891
 20
-152.8502739418222
 10
125.1076090182023
 20
-152.8502739418222
 10
125.1771999470043
 20
-152.8502739418222
 10
125.1771999470043
 20
-152.8502739418222
 10
125.3105251422835
 20
-152.8502739418222
 10
125.3105251422835
 20
-152.8502739418222
 10
125.3105251422835
 20
-152.7803385034716
 10
125.3105251422835
 20
-152.6980007213741
 10
125.3084580849923
 20
-152.6935220972433
 10
125.3001898558277
 20
-152.5136881129132
 10
125.3001898558277
 20
-152.4947400877444
 10
125.297778288988
 20
-152.4482312986935
 10
125.297778288988
 20
-152.4482312986935
 10
125.5137857759132
 20
-152.4568440374066
 10
125.5137857759132
 20
-152.4568440374066
 10
125.5244655719175
 20
-152.4568440374066
 10
125.5454806543775
 20
-152.4589110946978
 10
125.5454806543775
 20
-152.4757920625755
 10
125.5454806543775
 20
-152.4947400877444
 10
125.5306667437909
 20
-152.5054198837486
 10
125.5051730372001
 20
-152.5243679089175
 10
125.5051730372001
 20
-152.5750108125507
 10
125.4989718653266
 20
-152.8037651527713
 10
125.5010389226178
 20
-152.8502739418222
 10
125.6302300033146
 20
-152.8502739418222
 10
125.6426323470615
 20
-152.8502739418222
 10
125.7401285492941
 20
-152.841661203109
 10
125.7401285492941
 20
-152.841661203109
 10
125.7401285492941
 20
-153.0363090980256
 10
125.7401285492941
 20
-153.0363090980256
 10
125.7018879894078
 20
-153.0342420407345
 10
125.6343641178969
 20
-153.0301079261522
 10
125.4989718653266
 20
-153.0321749834433
 10
125.4989718653266
 20
-153.0321749834433
 10
125.4989718653266
 20
-153.3704833600949
 10
125.4989718653266
 20
-153.3704833600949
 10
125.5537488835421
 20
-153.3474012203437
 10
125.6195502073104
 20
-153.3198404564617
 10
125.6681260536524
 20
-153.296413807162
 10
125.6681260536524
 20
-153.296413807162
 10
125.6681260536524
 20
-153.1189913896716
 10
125.6681260536524
 20
-153.1189913896716
 10
125.7825032237627
 20
-153.1313937334185
 10
125.9010145084553
 20
-153.1313937334185
 10
126.0171142263082
 20
-153.1313937334185
 10
125.994032086557
 20
-153.0363090980256
 10
125.966471322675
 20
-152.9539713159282
 10
125.9030815657464
 20
-152.820646120649
 10
125.8586398339867
 20
-152.8227131779401
 10
125.7759575423407
 20
-152.8268472925224
 10
125.738061492003
 20
-152.8289143498136
 10
125.738061492003
 20
-152.8289143498136
 10
125.738061492003
 20
-152.6490803654835
 10
125.738061492003
 20
-152.6490803654835
 10
125.862773948569
 20
-152.6576931041967
 10
126.0364067610256
 20
-152.661827218779
 10
126.1187445431231
 20
-152.661827218779
 10
126.1187445431231
 20
-152.661827218779
 10
126.2014268347691
 20
-152.661827218779
 10
126.2014268347691
 20
-152.661827218779
 10
126.2014268347691
 20
-152.4988742023267
 10
126.2014268347691
 20
-152.4885389158709
 10
126.1990152679294
 20
-152.4334173881069
 10
126.1990152679294
 20
-152.4334173881069
 10
126.4232909840192
 20
-152.4589110946978
 10
126.4232909840192
 20
-152.4589110946978
 10
126.42776960815
 20
-152.4589110946978
 10
126.44878469061
 20
-152.4609781519889
 10
126.44878469061
 20
-152.4778591198666
 10
126.44878469061
 20
-152.4926730304532
 10
126.4381048946057
 20
-152.5012857691663
 10
126.4105441307237
 20
-152.5160996797529
 10
126.4043429588503
 20
-152.5815564939726
 10
126.4022759015591
 20
-152.6025715764327
 10
126.4022759015591
 20
-152.661827218779
 10
126.4022759015591
 20
-152.661827218779
 10
126.497360536952
 20
-152.661827218779
 10
126.497360536952
 20
-152.661827218779
 10
126.580042828598
 20
-152.661827218779
 10
126.7533311315061
 20
-152.6576931041967
 10
126.8783880976207
 20
-152.6490803654835
 10
126.8783880976207
 20
-152.6490803654835
 10
126.8783880976207
 20
-152.8289143498136
 10
126.8783880976207
 20
-152.8289143498136
 10
126.8487602764475
 20
-152.8268472925224
 10
126.7302489917549
 20
-152.8227131779401
 10
126.6899413745775
 20
-152.820646120649
 10
126.6751274639909
 20
-152.8712890242822
 10
126.6413655282355
 20
-152.9835991371013
 10
126.5755642044672
 20
-153.1231255042539
 10
126.6179388789358
 20
-153.1231255042539
 10
126.8952690654984
 20
-153.1041774790851
 10
126.9565917651358
 20
-153.1017659122454
 10
126.9565917651358
 20
-153.1017659122454
 10
126.9565917651358
 20
-153.2860785207063
 10
126.9565917651358
 20
-153.2860785207063
 10
126.9269639439627
 20
-153.2860785207063
 10
126.910082976085
 20
-153.2815998965754
 10
126.7471299596326
 20
-153.2815998965754
 97
        0
 97
        1
330
16C
 75
     2
 76
     1
 98
        1
 10
0.0
 20
0.0
450
        0
451
        0
460
0.0
461
0.0
452
        0
462
0.0
453
        0
470

  0
SPLINE
  5
16E
330
166
100
AcDbEntity
  8
レイヤー 1
100
AcDbSpline
210
0.0
220
0.0
230
1.0
 70
    11
 71
     3
 72
    17
 73
    13
 74
     0
 42
0.0000000001
 43
0.0000000001
 40
0.0
 40
0.0
 40
0.0
 40
0.0
 40
1.0
 40
1.0
 40
1.0
 40
2.0
 40
2.0
 40
2.0
 40
3.0
 40
3.0
 40
3.0
 40
4.0
 40
4.0
 40
4.0
 40
4.0
 10
128.6036919166338
 20
-154.0815510682504
 30
0.0
 10
128.6036919166338
 20
-154.0815510682504
 30
0.0
 10
127.897102832609
 20
-154.0815510682504
 30
0.0
 10
127.897102832609
 20
-154.0815510682504
 30
0.0
 10
127.897102832609
 20
-154.0815510682504
 30
0.0
 10
127.897102832609
 20
-154.1955837288122
 30
0.0
 10
127.897102832609
 20
-154.1955837288122
 30
0.0
 10
127.897102832609
 20
-154.1955837288122
 30
0.0
 10
128.6036919166338
 20
-154.1955837288122
 30
0.0
 10
128.6036919166338
 20
-154.1955837288122
 30
0.0
 10
128.6036919166338
 20
-154.1955837288122
 30
0.0
 10
128.6036919166338
 20
-154.0815510682504
 30
0.0
 10
128.6036919166338
 20
-154.0815510682504
 30
0.0
  0
SPLINE
  5
16F
330
166
100
AcDbEntity
  8
レイヤー 1
100
AcDbSpline
210
0.0
220
0.0
230
1.0
 70
    11
 71
     3
 72
    17
 73
    13
 74
     0
 42
0.0000000001
 43
0.0000000001
 40
0.0
 40
0.0
 40
0.0
 40
0.0
 40
1.0
 40
1.0
 40
1.0
 40
2.0
 40
2.0
 40
2.0
 40
3.0
 40
3.0
 40
3.0
 40
4.0
 40
4.0
 40
4.0
 40
4.0
 10
128.6036919166338
 20
-153.8379828174432
 30
0.0
 10
128.6036919166338
 20
-153.8379828174432
 30
0.0
 10
127.897102832609
 20
-153.8379828174432
 30
0.0
 10
127.897102832609
 20
-153.8379828174432
 30
0.0
 10
127.897102832609
 20
-153.8379828174432
 30
0.0
 10
127.897102832609
 20
-153.9523599875536
 30
0.0
 10
127.897102832609
 20
-153.9523599875536
 30
0.0
 10
127.897102832609
 20
-153.9523599875536
 30
0.0
 10
128.6036919166338
 20
-153.9523599875536
 30
0.0
 10
128.6036919166338
 20
-153.9523599875536
 30
0.0
 10
128.6036919166338
 20
-153.9523599875536
 30
0.0
 10
128.6036919166338
 20
-153.8379828174432
 30
0.0
 10
128.6036919166338
 20
-153.8379828174432
 30
0.0
  0
SPLINE
  5
170
330
166
100
AcDbEntity
  8
レイヤー 1
100
AcDbSpline
210
0.0
220
0.0
230
1.0
 70
    11
 71
     3
 72
    17
 73
    13
 74
     0
 42
0.0000000001
 43
0.0000000001
 40
0.0
 40
0.0
 40
0.0
 40
0.0
 40
1.0
 40
1.0
 40
1.0
 40
2.0
 40
2.0
 40
2.0
 40
3.0
 40
3.0
 40
3.0
 40
4.0
 40
4.0
 40
4.0
 40
4.0
 10
128.6036919166338
 20
-153.6054388721889
 30
0.0
 10
128.6036919166338
 20
-153.6054388721889
 30
0.0
 10
127.897102832609
 20
-153.6054388721889
 30
0.0
 10
127.897102832609
 20
-153.6054388721889
 30
0.0
 10
127.897102832609
 20
-153.6054388721889
 30
0.0
 10
127.897102832609
 20
-153.7132703608772
 30
0.0
 10
127.897102832609
 20
-153.7132703608772
 30
0.0
 10
127.897102832609
 20
-153.7132703608772
 30
0.0
 10
128.6036919166338
 20
-153.7132703608772
 30
0.0
 10
128.6036919166338
 20
-153.7132703608772
 30
0.0
 10
128.6036919166338
 20
-153.7132703608772
 30
0.0
 10
128.6036919166338
 20
-153.6054388721889
 30
0.0
 10
128.6036919166338
 20
-153.6054388721889
 30
0.0
  0
SPLINE
  5
171
330
166
100
AcDbEntity
  8
レイヤー 1
100
AcDbSpline
210
0.0
220
0.0
230
1.0
 70
     9
 71
     3
 72
   203
 73
   199
 74
     0
 42
0.0000000001
 43
0.0000000001
 40
0.0
 40
0.0
 40
0.0
 40
0.0
 40
1.0
 40
1.0
 40
1.0
 40
2.0
 40
2.0
 40
2.0
 40
3.0
 40
3.0
 40
3.0
 40
4.0
 40
4.0
 40
4.0
 40
5.0
 40
5.0
 40
5.0
 40
6.0
 40
6.0
 40
6.0
 40
7.0
 40
7.0
 40
7.0
 40
8.0
 40
8.0
 40
8.0
 40
9.0
 40
9.0
 40
9.0
 40
10.0
 40
10.0
 40
10.0
 40
11.0
 40
11.0
 40
11.0
 40
12.0
 40
12.0
 40
12.0
 40
13.0
 40
13.0
 40
13.0
 40
14.0
 40
14.0
 40
14.0
 40
15.0
 40
15.0
 40
15.0
 40
16.0
 40
16.0
 40
16.0
 40
17.0
 40
17.0
 40
17.0
 40
18.0
 40
18.0
 40
18.0
 40
19.0
 40
19.0
 40
19.0
 40
20.0
 40
20.0
 40
20.0
 40
21.0
 40
21.0
 40
21.0
 40
22.0
 40
22.0
 40
22.0
 40
23.0
 40
23.0
 40
23.0
 40
24.0
 40
24.0
 40
24.0
 40
25.0
 40
25.0
 40
25.0
 40
26.0
 40
26.0
 40
26.0
 40
27.0
 40
27.0
 40
27.0
 40
28.0
 40
28.0
 40
28.0
 40
29.0
 40
29.0
 40
29.0
 40
30.0
 40
30.0
 40
30.0
 40
31.0
 40
31.0
 40
31.0
 40
32.0
 40
32.0
 40
32.0
 40
33.0
 40
33.0
 40
33.0
 40
34.0
 40
34.0
 40
34.0
 40
35.0
 40
35.0
 40
35.0
 40
36.0
 40
36.0
 40
36.0
 40
37.0
 40
37.0
 40
37.0
 40
38.0
 40
38.0
 40
38.0
 40
39.0
 40
39.0
 40
39.0
 40
40.0
 40
40.0
 40
40.0
 40
41.0
 40
41.0
 40
41.0
 40
42.0
 40
42.0
 40
42.0
 40
43.0
 40
43.0
 40
43.0
 40
44.0
 40
44.0
 40
44.0
 40
45.0
 40
45.0
 40
45.0
 40
46.0
 40
46.0
 40
46.0
 40
47.0
 40
47.0
 40
47.0
 40
48.0
 40
48.0
 40
48.0
 40
49.0
 40
49.0
 40
49.0
 40
50.0
 40
50.0
 40
50.0
 40
51.0
 40
51.0
 40
51.0
 40
52.0
 40
52.0
 40
52.0
 40
53.0
 40
53.0
 40
53.0
 40
54.0
 40
54.0
 40
54.0
 40
55.0
 40
55.0
 40
55.0
 40
56.0
 40
56.0
 40
56.0
 40
57.0
 40
57.0
 40
57.0
 40
58.0
 40
58.0
 40
58.0
 40
59.0
 40
59.0
 40
59.0
 40
60.0
 40
60.0
 40
60.0
 40
61.0
 40
61.0
 40
61.0
 40
62.0
 40
62.0
 40
62.0
 40
63.0
 40
63.0
 40
63.0
 40
64.0
 40
64.0
 40
64.0
 40
65.0
 40
65.0
 40
65.0
 40
66.0
 40
66.0
 40
66.0
 40
66.0
 10
128.4386718428903
 20
-153.3494682776348
 30
0.0
 10
128.4386718428903
 20
-153.3494682776348
 30
0.0
 10
127.8798773551828
 20
-153.3494682776348
 30
0.0
 10
127.8798773551828
 20
-153.3494682776348
 30
0.0
 10
127.869542068727
 20
-153.3939100093945
 30
0.0
 10
127.8609293300139
 20
-153.4256048878589
 30
0.0
 10
127.8481824767185
 20
-153.4638454477451
 30
0.0
 10
127.8736761833094
 20
-153.4638454477451
 30
0.0
 10
127.8884900938959
 20
-153.4659125050363
 30
0.0
 10
127.8946912657694
 20
-153.4659125050363
 30
0.0
 10
127.8946912657694
 20
-153.4659125050363
 30
0.0
 10
128.0831379888125
 20
-153.4659125050363
 30
0.0
 10
128.0831379888125
 20
-153.4659125050363
 30
0.0
 10
128.0831379888125
 20
-153.4659125050363
 30
0.0
 10
128.4576198680592
 20
-153.4659125050363
 30
0.0
 10
128.4576198680592
 20
-153.4659125050363
 30
0.0
 10
128.5082627716924
 20
-153.4659125050363
 30
0.0
 10
128.7917941301284
 20
-153.4531656517408
 30
0.0
 10
128.8234890085927
 20
-153.4531656517408
 30
0.0
 10
128.8214219513016
 20
-153.4807264156229
 30
0.0
 10
128.8193548940104
 20
-153.4996744407917
 30
0.0
 10
128.8193548940104
 20
-153.5293022619649
 30
0.0
 10
128.8172878367193
 20
-153.5609971404292
 30
0.0
 10
128.8172878367193
 20
-153.6963893929995
 30
0.0
 10
128.8172878367193
 20
-153.7239501568815
 30
0.0
 10
128.8172878367193
 20
-153.7239501568815
 30
0.0
 10
128.8172878367193
 20
-153.9692409554313
 30
0.0
 10
128.8172878367193
 20
-153.9692409554313
 30
0.0
 10
128.8172878367193
 20
-154.013682687191
 30
0.0
 10
128.8214219513016
 20
-154.2103976393988
 30
0.0
 10
128.8255560658839
 20
-154.3626708598468
 30
0.0
 10
128.8255560658839
 20
-154.3626708598468
 30
0.0
 10
128.599213292503
 20
-154.3626708598468
 30
0.0
 10
128.599213292503
 20
-154.3626708598468
 30
0.0
 10
128.599213292503
 20
-154.3626708598468
 30
0.0
 10
128.6012803497941
 20
-154.3289089240914
 30
0.0
 10
128.6012803497941
 20
-154.3289089240914
 30
0.0
 10
128.6012803497941
 20
-154.3289089240914
 30
0.0
 10
127.8991698899002
 20
-154.3289089240914
 30
0.0
 10
127.8991698899002
 20
-154.3289089240914
 30
0.0
 10
127.8991698899002
 20
-154.3289089240914
 30
0.0
 10
127.9012369471913
 20
-154.3626708598468
 30
0.0
 10
127.9012369471913
 20
-154.3626708598468
 30
0.0
 10
127.9012369471913
 20
-154.3626708598468
 30
0.0
 10
127.683162402975
 20
-154.3626708598468
 30
0.0
 10
127.683162402975
 20
-154.3626708598468
 30
0.0
 10
127.6876410271059
 20
-154.3078938416313
 30
0.0
 10
127.6876410271059
 20
-154.2951469883359
 30
0.0
 10
127.6938421989793
 20
-154.1807698182256
 30
0.0
 10
127.6959092562705
 20
-154.1532090543436
 30
0.0
 10
127.6979763135616
 20
-154.020228368613
 30
0.0
 10
127.6979763135616
 20
-154.0009358338956
 30
0.0
 10
127.6979763135616
 20
-154.0009358338956
 30
0.0
 10
127.6979763135616
 20
-153.7980197098144
 30
0.0
 10
127.6979763135616
 20
-153.7980197098144
 30
0.0
 10
127.558449946409
 20
-154.0474446229465
 30
0.0
 10
127.3892957580832
 20
-154.1787027609345
 30
0.0
 10
127.2835313266861
 20
-154.2441595751542
 30
0.0
 10
127.2835313266861
 20
-154.2441595751542
 30
0.0
 10
127.1098985142294
 20
-154.1046332080016
 30
0.0
 10
127.1098985142294
 20
-154.1046332080016
 30
0.0
 10
127.1987819777489
 20
-154.0539903043684
 30
0.0
 10
127.3427869690323
 20
-153.9671738981401
 30
0.0
 10
127.4802462788938
 20
-153.7725260032235
 30
0.0
 10
127.5711967997044
 20
-153.6457464893663
 30
0.0
 10
127.6366536139242
 20
-153.5017414980829
 30
0.0
 10
127.6704155496796
 20
-153.3494682776348
 30
0.0
 10
127.4420057190075
 20
-153.351535334926
 30
0.0
 10
127.2621717346775
 20
-153.3577365067994
 30
0.0
 10
127.1670870992846
 20
-153.3601480736391
 30
0.0
 10
127.1670870992846
 20
-153.3601480736391
 30
0.0
 10
127.1670870992846
 20
-153.1823811466002
 30
0.0
 10
127.1670870992846
 20
-153.1823811466002
 30
0.0
 10
127.3638020514924
 20
-153.1885823184737
 30
0.0
 10
127.6473334099284
 20
-153.1930609426045
 30
0.0
 10
127.7975395730853
 20
-153.1930609426045
 30
0.0
 10
127.7975395730853
 20
-153.1930609426045
 30
0.0
 10
128.0111354931708
 20
-153.1930609426045
 30
0.0
 10
128.0111354931708
 20
-153.1930609426045
 30
0.0
 10
128.0111354931708
 20
-153.1930609426045
 30
0.0
 10
128.0111354931708
 20
-153.0848849443676
 30
0.0
 10
128.0111354931708
 20
-153.0848849443676
 30
0.0
 10
128.0111354931708
 20
-153.0848849443676
 30
0.0
 10
127.8650634445962
 20
-153.0848849443676
 30
0.0
 10
127.8650634445962
 20
-153.0848849443676
 30
0.0
 10
127.6959092562705
 20
-153.0848849443676
 30
0.0
 10
127.5267550679447
 20
-153.0893635684985
 30
0.0
 10
127.3596679369101
 20
-153.0955647403719
 30
0.0
 10
127.3596679369101
 20
-153.0955647403719
 30
0.0
 10
127.3596679369101
 20
-152.924343494755
 30
0.0
 10
127.3596679369101
 20
-152.924343494755
 30
0.0
 10
127.5140082146493
 20
-152.9346787812108
 30
0.0
 10
127.7000433708527
 20
-152.9346787812108
 30
0.0
 10
127.8650634445962
 20
-152.9346787812108
 30
0.0
 10
127.8650634445962
 20
-152.9346787812108
 30
0.0
 10
128.0111354931708
 20
-152.9346787812108
 30
0.0
 10
128.0111354931708
 20
-152.9346787812108
 30
0.0
 10
128.0111354931708
 20
-152.9346787812108
 30
0.0
 10
128.0111354931708
 20
-152.8161674965182
 30
0.0
 10
128.0111354931708
 20
-152.8161674965182
 30
0.0
 10
128.0111354931708
 20
-152.8161674965182
 30
0.0
 10
127.8798773551828
 20
-152.8161674965182
 30
0.0
 10
127.8798773551828
 20
-152.8161674965182
 30
0.0
 10
127.8333685661319
 20
-152.8161674965182
 30
0.0
 10
127.6304524420507
 20
-152.8247802352313
 30
0.0
 10
127.5880777675821
 20
-152.8247802352313
 30
0.0
 10
127.3851616435009
 20
-152.8289143498136
 30
0.0
 10
127.3086805237284
 20
-152.8309814071047
 30
0.0
 10
127.2304768562132
 20
-152.8333929739444
 30
0.0
 10
127.2304768562132
 20
-152.8333929739444
 30
0.0
 10
127.2304768562132
 20
-152.6490803654835
 30
0.0
 10
127.2304768562132
 20
-152.6490803654835
 30
0.0
 10
127.3448540263235
 20
-152.6576931041967
 30
0.0
 10
127.3892957580832
 20
-152.6576931041967
 30
0.0
 10
127.7720458664945
 20
-152.6663058429098
 30
0.0
 10
127.7086561095659
 20
-152.5708766979684
 30
0.0
 10
127.6810953456839
 20
-152.5433159340864
 30
0.0
 10
127.6452663526373
 20
-152.5074869410398
 30
0.0
 10
127.6452663526373
 20
-152.5074869410398
 30
0.0
 10
127.8206217128365
 20
-152.4248046493938
 30
0.0
 10
127.8206217128365
 20
-152.4248046493938
 30
0.0
 10
127.8609293300139
 20
-152.4609781519889
 30
0.0
 10
127.9053710617736
 20
-152.5033528264575
 30
0.0
 10
127.9794406147065
 20
-152.613251372437
 30
0.0
 10
127.9794406147065
 20
-152.613251372437
 30
0.0
 10
127.8650634445962
 20
-152.668372900201
 30
0.0
 10
127.8650634445962
 20
-152.668372900201
 30
0.0
 10
127.8650634445962
 20
-152.668372900201
 30
0.0
 10
127.8757432406005
 20
-152.668372900201
 30
0.0
 10
127.8757432406005
 20
-152.668372900201
 30
0.0
 10
127.8757432406005
 20
-152.668372900201
 30
0.0
 10
128.3983642257129
 20
-152.668372900201
 30
0.0
 10
128.3983642257129
 20
-152.668372900201
 30
0.0
 10
128.3983642257129
 20
-152.668372900201
 30
0.0
 10
128.30327959032
 20
-152.6239311684412
 30
0.0
 10
128.30327959032
 20
-152.6239311684412
 30
0.0
 10
128.3304958446535
 20
-152.5856906085549
 30
0.0
 10
128.3876844297086
 20
-152.5054198837486
 30
0.0
 10
128.4024983402952
 20
-152.4313503308158
 30
0.0
 10
128.4024983402952
 20
-152.4313503308158
 30
0.0
 10
128.6160942603807
 20
-152.4947400877444
 30
0.0
 10
128.6160942603807
 20
-152.4947400877444
 30
0.0
 10
128.6247069990938
 20
-152.4968071450355
 30
0.0
 10
128.6457220815538
 20
-152.5074869410398
 30
0.0
 10
128.6457220815538
 20
-152.5285020234998
 30
0.0
 10
128.6457220815538
 20
-152.5667425833861
 30
0.0
 10
128.5802652673341
 20
-152.5667425833861
 30
0.0
 10
128.5613172421652
 20
-152.5667425833861
 30
0.0
 10
128.5506374461609
 20
-152.5856906085549
 30
0.0
 10
128.5272107968612
 20
-152.6259982257324
 30
0.0
 10
128.4975829756881
 20
-152.6663058429098
 30
0.0
 10
128.8975585615256
 20
-152.6597601614878
 30
0.0
 10
128.9271863826987
 20
-152.6576931041967
 30
0.0
 10
129.0033229929228
 20
-152.6514919323232
 30
0.0
 10
129.0033229929228
 20
-152.6514919323232
 30
0.0
 10
129.0033229929228
 20
-152.8333929739444
 30
0.0
 10
129.0033229929228
 20
-152.8333929739444
 30
0.0
 10
128.9843749677539
 20
-152.8333929739444
 30
0.0
 10
128.9588812611631
 20
-152.8309814071047
 30
0.0
 10
128.7390841692041
 20
-152.8227131779401
 30
0.0
 10
128.6880967560224
 20
-152.820646120649
 30
0.0
 10
128.4682996640635
 20
-152.8161674965182
 30
0.0
 10
128.4238579323037
 20
-152.8161674965182
 30
0.0
 10
128.4238579323037
 20
-152.8161674965182
 30
0.0
 10
128.2078504453786
 20
-152.8161674965182
 30
0.0
 10
128.2078504453786
 20
-152.8161674965182
 30
0.0
 10
128.2078504453786
 20
-152.8161674965182
 30
0.0
 10
128.2078504453786
 20
-152.9346787812108
 30
0.0
 10
128.2078504453786
 20
-152.9346787812108
 30
0.0
 10
128.2078504453786
 20
-152.9346787812108
 30
0.0
 10
128.3814832578352
 20
-152.9346787812108
 30
0.0
 10
128.3814832578352
 20
-152.9346787812108
 30
0.0
 10
128.5444362742875
 20
-152.9346787812108
 30
0.0
 10
128.7346055450733
 20
-152.9346787812108
 30
0.0
 10
128.8913573896522
 20
-152.924343494755
 30
0.0
 10
128.8913573896522
 20
-152.924343494755
 30
0.0
 10
128.8913573896522
 20
-153.0955647403719
 30
0.0
 10
128.8913573896522
 20
-153.0955647403719
 30
0.0
 10
128.6818955841489
 20
-153.0869520016588
 30
0.0
 10
128.4851806319412
 20
-153.0848849443676
 30
0.0
 10
128.3814832578352
 20
-153.0848849443676
 30
0.0
 10
128.3814832578352
 20
-153.0848849443676
 30
0.0
 10
128.2078504453786
 20
-153.0848849443676
 30
0.0
 10
128.2078504453786
 20
-153.0848849443676
 30
0.0
 10
128.2078504453786
 20
-153.0848849443676
 30
0.0
 10
128.2078504453786
 20
-153.1930609426045
 30
0.0
 10
128.2078504453786
 20
-153.1930609426045
 30
0.0
 10
128.2078504453786
 20
-153.1930609426045
 30
0.0
 10
128.4386718428903
 20
-153.1930609426045
 30
0.0
 10
128.4386718428903
 20
-153.1930609426045
 30
0.0
 10
128.5716525286209
 20
-153.1930609426045
 30
0.0
 10
128.8596625111878
 20
-153.1885823184737
 30
0.0
 10
129.0687798071425
 20
-153.1823811466002
 30
0.0
 10
129.0687798071425
 20
-153.1823811466002
 30
0.0
 10
129.0687798071425
 20
-153.3601480736391
 30
0.0
 10
129.0687798071425
 20
-153.3601480736391
 30
0.0
 10
128.8765434790656
 20
-153.3536023922172
 30
0.0
 10
128.5633842994563
 20
-153.3494682776348
 30
0.0
 10
128.4386718428903
 20
-153.3494682776348
 30
0.0
  0
HATCH
  5
172
330
166
100
AcDbEntity
  8
レイヤー 1
 62
    18
420
        0
440
 33554687
100
AcDbHatch
 10
0.0
 20
0.0
 30
0.0
210
0.0
220
0.0
230
1.0
  2
SOLID
 70
     1
 71
     1
 91
        4
 92
        1
 93
        1
 72
     4
 94
        3
 73
     0
 74
     0
 95
       17
 96
       13
 40
0.0
 40
0.0
 40
0.0
 40
0.0
 40
1.0
 40
1.0
 40
1.0
 40
2.0
 40
2.0
 40
2.0
 40
3.0
 40
3.0
 40
3.0
 40
4.0
 40
4.0
 40
4.0
 40
4.0
 10
128.6036919166338
 20
-154.0815510682504
 10
128.6036919166338
 20
-154.0815510682504
 10
127.897102832609
 20
-154.0815510682504
 10
127.897102832609
 20
-154.0815510682504
 10
127.897102832609
 20
-154.0815510682504
 10
127.897102832609
 20
-154.1955837288122
 10
127.897102832609
 20
-154.1955837288122
 10
127.897102832609
 20
-154.1955837288122
 10
128.6036919166338
 20
-154.1955837288122
 10
128.6036919166338
 20
-154.1955837288122
 10
128.6036919166338
 20
-154.1955837288122
 10
128.6036919166338
 20
-154.0815510682504
 10
128.6036919166338
 20
-154.0815510682504
 97
        0
 97
        1
330
16E
 92
        1
 93
        1
 72
     4
 94
        3
 73
     0
 74
     0
 95
       17
 96
       13
 40
0.0
 40
0.0
 40
0.0
 40
0.0
 40
1.0
 40
1.0
 40
1.0
 40
2.0
 40
2.0
 40
2.0
 40
3.0
 40
3.0
 40
3.0
 40
4.0
 40
4.0
 40
4.0
 40
4.0
 10
128.6036919166338
 20
-153.8379828174432
 10
128.6036919166338
 20
-153.8379828174432
 10
127.897102832609
 20
-153.8379828174432
 10
127.897102832609
 20
-153.8379828174432
 10
127.897102832609
 20
-153.8379828174432
 10
127.897102832609
 20
-153.9523599875536
 10
127.897102832609
 20
-153.9523599875536
 10
127.897102832609
 20
-153.9523599875536
 10
128.6036919166338
 20
-153.9523599875536
 10
128.6036919166338
 20
-153.9523599875536
 10
128.6036919166338
 20
-153.9523599875536
 10
128.6036919166338
 20
-153.8379828174432
 10
128.6036919166338
 20
-153.8379828174432
 97
        0
 97
        1
330
16F
 92
        1
 93
        1
 72
     4
 94
        3
 73
     0
 74
     0
 95
       17
 96
       13
 40
0.0
 40
0.0
 40
0.0
 40
0.0
 40
1.0
 40
1.0
 40
1.0
 40
2.0
 40
2.0
 40
2.0
 40
3.0
 40
3.0
 40
3.0
 40
4.0
 40
4.0
 40
4.0
 40
4.0
 10
128.6036919166338
 20
-153.6054388721889
 10
128.6036919166338
 20
-153.6054388721889
 10
127.897102832609
 20
-153.6054388721889
 10
127.897102832609
 20
-153.6054388721889
 10
127.897102832609
 20
-153.6054388721889
 10
127.897102832609
 20
-153.7132703608772
 10
127.897102832609
 20
-153.7132703608772
 10
127.897102832609
 20
-153.7132703608772
 10
128.6036919166338
 20
-153.7132703608772
 10
128.6036919166338
 20
-153.7132703608772
 10
128.6036919166338
 20
-153.7132703608772
 10
128.6036919166338
 20
-153.6054388721889
 10
128.6036919166338
 20
-153.6054388721889
 97
        0
 97
        1
330
170
 92
        1
 93
        1
 72
     4
 94
        3
 73
     0
 74
     0
 95
      203
 96
      199
 40
0.0
 40
0.0
 40
0.0
 40
0.0
 40
1.0
 40
1.0
 40
1.0
 40
2.0
 40
2.0
 40
2.0
 40
3.0
 40
3.0
 40
3.0
 40
4.0
 40
4.0
 40
4.0
 40
5.0
 40
5.0
 40
5.0
 40
6.0
 40
6.0
 40
6.0
 40
7.0
 40
7.0
 40
7.0
 40
8.0
 40
8.0
 40
8.0
 40
9.0
 40
9.0
 40
9.0
 40
10.0
 40
10.0
 40
10.0
 40
11.0
 40
11.0
 40
11.0
 40
12.0
 40
12.0
 40
12.0
 40
13.0
 40
13.0
 40
13.0
 40
14.0
 40
14.0
 40
14.0
 40
15.0
 40
15.0
 40
15.0
 40
16.0
 40
16.0
 40
16.0
 40
17.0
 40
17.0
 40
17.0
 40
18.0
 40
18.0
 40
18.0
 40
19.0
 40
19.0
 40
19.0
 40
20.0
 40
20.0
 40
20.0
 40
21.0
 40
21.0
 40
21.0
 40
22.0
 40
22.0
 40
22.0
 40
23.0
 40
23.0
 40
23.0
 40
24.0
 40
24.0
 40
24.0
 40
25.0
 40
25.0
 40
25.0
 40
26.0
 40
26.0
 40
26.0
 40
27.0
 40
27.0
 40
27.0
 40
28.0
 40
28.0
 40
28.0
 40
29.0
 40
29.0
 40
29.0
 40
30.0
 40
30.0
 40
30.0
 40
31.0
 40
31.0
 40
31.0
 40
32.0
 40
32.0
 40
32.0
 40
33.0
 40
33.0
 40
33.0
 40
34.0
 40
34.0
 40
34.0
 40
35.0
 40
35.0
 40
35.0
 40
36.0
 40
36.0
 40
36.0
 40
37.0
 40
37.0
 40
37.0
 40
38.0
 40
38.0
 40
38.0
 40
39.0
 40
39.0
 40
39.0
 40
40.0
 40
40.0
 40
40.0
 40
41.0
 40
41.0
 40
41.0
 40
42.0
 40
42.0
 40
42.0
 40
43.0
 40
43.0
 40
43.0
 40
44.0
 40
44.0
 40
44.0
 40
45.0
 40
45.0
 40
45.0
 40
46.0
 40
46.0
 40
46.0
 40
47.0
 40
47.0
 40
47.0
 40
48.0
 40
48.0
 40
48.0
 40
49.0
 40
49.0
 40
49.0
 40
50.0
 40
50.0
 40
50.0
 40
51.0
 40
51.0
 40
51.0
 40
52.0
 40
52.0
 40
52.0
 40
53.0
 40
53.0
 40
53.0
 40
54.0
 40
54.0
 40
54.0
 40
55.0
 40
55.0
 40
55.0
 40
56.0
 40
56.0
 40
56.0
 40
57.0
 40
57.0
 40
57.0
 40
58.0
 40
58.0
 40
58.0
 40
59.0
 40
59.0
 40
59.0
 40
60.0
 40
60.0
 40
60.0
 40
61.0
 40
61.0
 40
61.0
 40
62.0
 40
62.0
 40
62.0
 40
63.0
 40
63.0
 40
63.0
 40
64.0
 40
64.0
 40
64.0
 40
65.0
 40
65.0
 40
65.0
 40
66.0
 40
66.0
 40
66.0
 40
66.0
 10
128.4386718428903
 20
-153.3494682776348
 10
128.4386718428903
 20
-153.3494682776348
 10
127.8798773551828
 20
-153.3494682776348
 10
127.8798773551828
 20
-153.3494682776348
 10
127.869542068727
 20
-153.3939100093945
 10
127.8609293300139
 20
-153.4256048878589
 10
127.8481824767185
 20
-153.4638454477451
 10
127.8736761833094
 20
-153.4638454477451
 10
127.8884900938959
 20
-153.4659125050363
 10
127.8946912657694
 20
-153.4659125050363
 10
127.8946912657694
 20
-153.4659125050363
 10
128.0831379888125
 20
-153.4659125050363
 10
128.0831379888125
 20
-153.4659125050363
 10
128.0831379888125
 20
-153.4659125050363
 10
128.4576198680592
 20
-153.4659125050363
 10
128.4576198680592
 20
-153.4659125050363
 10
128.5082627716924
 20
-153.4659125050363
 10
128.7917941301284
 20
-153.4531656517408
 10
128.8234890085927
 20
-153.4531656517408
 10
128.8214219513016
 20
-153.4807264156229
 10
128.8193548940104
 20
-153.4996744407917
 10
128.8193548940104
 20
-153.5293022619649
 10
128.8172878367193
 20
-153.5609971404292
 10
128.8172878367193
 20
-153.6963893929995
 10
128.8172878367193
 20
-153.7239501568815
 10
128.8172878367193
 20
-153.7239501568815
 10
128.8172878367193
 20
-153.9692409554313
 10
128.8172878367193
 20
-153.9692409554313
 10
128.8172878367193
 20
-154.013682687191
 10
128.8214219513016
 20
-154.2103976393988
 10
128.8255560658839
 20
-154.3626708598468
 10
128.8255560658839
 20
-154.3626708598468
 10
128.599213292503
 20
-154.3626708598468
 10
128.599213292503
 20
-154.3626708598468
 10
128.599213292503
 20
-154.3626708598468
 10
128.6012803497941
 20
-154.3289089240914
 10
128.6012803497941
 20
-154.3289089240914
 10
128.6012803497941
 20
-154.3289089240914
 10
127.8991698899002
 20
-154.3289089240914
 10
127.8991698899002
 20
-154.3289089240914
 10
127.8991698899002
 20
-154.3289089240914
 10
127.9012369471913
 20
-154.3626708598468
 10
127.9012369471913
 20
-154.3626708598468
 10
127.9012369471913
 20
-154.3626708598468
 10
127.683162402975
 20
-154.3626708598468
 10
127.683162402975
 20
-154.3626708598468
 10
127.6876410271059
 20
-154.3078938416313
 10
127.6876410271059
 20
-154.2951469883359
 10
127.6938421989793
 20
-154.1807698182256
 10
127.6959092562705
 20
-154.1532090543436
 10
127.6979763135616
 20
-154.020228368613
 10
127.6979763135616
 20
-154.0009358338956
 10
127.6979763135616
 20
-154.0009358338956
 10
127.6979763135616
 20
-153.7980197098144
 10
127.6979763135616
 20
-153.7980197098144
 10
127.558449946409
 20
-154.0474446229465
 10
127.3892957580832
 20
-154.1787027609345
 10
127.2835313266861
 20
-154.2441595751542
 10
127.2835313266861
 20
-154.2441595751542
 10
127.1098985142294
 20
-154.1046332080016
 10
127.1098985142294
 20
-154.1046332080016
 10
127.1987819777489
 20
-154.0539903043684
 10
127.3427869690323
 20
-153.9671738981401
 10
127.4802462788938
 20
-153.7725260032235
 10
127.5711967997044
 20
-153.6457464893663
 10
127.6366536139242
 20
-153.5017414980829
 10
127.6704155496796
 20
-153.3494682776348
 10
127.4420057190075
 20
-153.351535334926
 10
127.2621717346775
 20
-153.3577365067994
 10
127.1670870992846
 20
-153.3601480736391
 10
127.1670870992846
 20
-153.3601480736391
 10
127.1670870992846
 20
-153.1823811466002
 10
127.1670870992846
 20
-153.1823811466002
 10
127.3638020514924
 20
-153.1885823184737
 10
127.6473334099284
 20
-153.1930609426045
 10
127.7975395730853
 20
-153.1930609426045
 10
127.7975395730853
 20
-153.1930609426045
 10
128.0111354931708
 20
-153.1930609426045
 10
128.0111354931708
 20
-153.1930609426045
 10
128.0111354931708
 20
-153.1930609426045
 10
128.0111354931708
 20
-153.0848849443676
 10
128.0111354931708
 20
-153.0848849443676
 10
128.0111354931708
 20
-153.0848849443676
 10
127.8650634445962
 20
-153.0848849443676
 10
127.8650634445962
 20
-153.0848849443676
 10
127.6959092562705
 20
-153.0848849443676
 10
127.5267550679447
 20
-153.0893635684985
 10
127.3596679369101
 20
-153.0955647403719
 10
127.3596679369101
 20
-153.0955647403719
 10
127.3596679369101
 20
-152.924343494755
 10
127.3596679369101
 20
-152.924343494755
 10
127.5140082146493
 20
-152.9346787812108
 10
127.7000433708527
 20
-152.9346787812108
 10
127.8650634445962
 20
-152.9346787812108
 10
127.8650634445962
 20
-152.9346787812108
 10
128.0111354931708
 20
-152.9346787812108
 10
128.0111354931708
 20
-152.9346787812108
 10
128.0111354931708
 20
-152.9346787812108
 10
128.0111354931708
 20
-152.8161674965182
 10
128.0111354931708
 20
-152.8161674965182
 10
128.0111354931708
 20
-152.8161674965182
 10
127.8798773551828
 20
-152.8161674965182
 10
127.8798773551828
 20
-152.8161674965182
 10
127.8333685661319
 20
-152.8161674965182
 10
127.6304524420507
 20
-152.8247802352313
 10
127.5880777675821
 20
-152.8247802352313
 10
127.3851616435009
 20
-152.8289143498136
 10
127.3086805237284
 20
-152.8309814071047
 10
127.2304768562132
 20
-152.8333929739444
 10
127.2304768562132
 20
-152.8333929739444
 10
127.2304768562132
 20
-152.6490803654835
 10
127.2304768562132
 20
-152.6490803654835
 10
127.3448540263235
 20
-152.6576931041967
 10
127.3892957580832
 20
-152.6576931041967
 10
127.7720458664945
 20
-152.6663058429098
 10
127.7086561095659
 20
-152.5708766979684
 10
127.6810953456839
 20
-152.5433159340864
 10
127.6452663526373
 20
-152.5074869410398
 10
127.6452663526373
 20
-152.5074869410398
 10
127.8206217128365
 20
-152.4248046493938
 10
127.8206217128365
 20
-152.4248046493938
 10
127.8609293300139
 20
-152.4609781519889
 10
127.9053710617736
 20
-152.5033528264575
 10
127.9794406147065
 20
-152.613251372437
 10
127.9794406147065
 20
-152.613251372437
 10
127.8650634445962
 20
-152.668372900201
 10
127.8650634445962
 20
-152.668372900201
 10
127.8650634445962
 20
-152.668372900201
 10
127.8757432406005
 20
-152.668372900201
 10
127.8757432406005
 20
-152.668372900201
 10
127.8757432406005
 20
-152.668372900201
 10
128.3983642257129
 20
-152.668372900201
 10
128.3983642257129
 20
-152.668372900201
 10
128.3983642257129
 20
-152.668372900201
 10
128.30327959032
 20
-152.6239311684412
 10
128.30327959032
 20
-152.6239311684412
 10
128.3304958446535
 20
-152.5856906085549
 10
128.3876844297086
 20
-152.5054198837486
 10
128.4024983402952
 20
-152.4313503308158
 10
128.4024983402952
 20
-152.4313503308158
 10
128.6160942603807
 20
-152.4947400877444
 10
128.6160942603807
 20
-152.4947400877444
 10
128.6247069990938
 20
-152.4968071450355
 10
128.6457220815538
 20
-152.5074869410398
 10
128.6457220815538
 20
-152.5285020234998
 10
128.6457220815538
 20
-152.5667425833861
 10
128.5802652673341
 20
-152.5667425833861
 10
128.5613172421652
 20
-152.5667425833861
 10
128.5506374461609
 20
-152.5856906085549
 10
128.5272107968612
 20
-152.6259982257324
 10
128.4975829756881
 20
-152.6663058429098
 10
128.8975585615256
 20
-152.6597601614878
 10
128.9271863826987
 20
-152.6576931041967
 10
129.0033229929228
 20
-152.6514919323232
 10
129.0033229929228
 20
-152.6514919323232
 10
129.0033229929228
 20
-152.8333929739444
 10
129.0033229929228
 20
-152.8333929739444
 10
128.9843749677539
 20
-152.8333929739444
 10
128.9588812611631
 20
-152.8309814071047
 10
128.7390841692041
 20
-152.8227131779401
 10
128.6880967560224
 20
-152.820646120649
 10
128.4682996640635
 20
-152.8161674965182
 10
128.4238579323037
 20
-152.8161674965182
 10
128.4238579323037
 20
-152.8161674965182
 10
128.2078504453786
 20
-152.8161674965182
 10
128.2078504453786
 20
-152.8161674965182
 10
128.2078504453786
 20
-152.8161674965182
 10
128.2078504453786
 20
-152.9346787812108
 10
128.2078504453786
 20
-152.9346787812108
 10
128.2078504453786
 20
-152.9346787812108
 10
128.3814832578352
 20
-152.9346787812108
 10
128.3814832578352
 20
-152.9346787812108
 10
128.5444362742875
 20
-152.9346787812108
 10
128.7346055450733
 20
-152.9346787812108
 10
128.8913573896522
 20
-152.924343494755
 10
128.8913573896522
 20
-152.924343494755
 10
128.8913573896522
 20
-153.0955647403719
 10
128.8913573896522
 20
-153.0955647403719
 10
128.6818955841489
 20
-153.0869520016588
 10
128.4851806319412
 20
-153.0848849443676
 10
128.3814832578352
 20
-153.0848849443676
 10
128.3814832578352
 20
-153.0848849443676
 10
128.2078504453786
 20
-153.0848849443676
 10
128.2078504453786
 20
-153.0848849443676
 10
128.2078504453786
 20
-153.0848849443676
 10
128.2078504453786
 20
-153.1930609426045
 10
128.2078504453786
 20
-153.1930609426045
 10
128.2078504453786
 20
-153.1930609426045
 10
128.4386718428903
 20
-153.1930609426045
 10
128.4386718428903
 20
-153.1930609426045
 10
128.5716525286209
 20
-153.1930609426045
 10
128.8596625111878
 20
-153.1885823184737
 10
129.0687798071425
 20
-153.1823811466002
 10
129.0687798071425
 20
-153.1823811466002
 10
129.0687798071425
 20
-153.3601480736391
 10
129.0687798071425
 20
-153.3601480736391
 10
128.8765434790656
 20
-153.3536023922172
 10
128.5633842994563
 20
-153.3494682776348
 10
128.4386718428903
 20
-153.3494682776348
 97
        0
 97
        1
330
171
 75
     2
 76
     1
 98
        1
 10
0.0
 20
0.0
450
        0
451
        0
460
0.0
461
0.0
452
        0
462
0.0
453
        0
470

  0
SPLINE
  5
173
330
166
100
AcDbEntity
  8
レイヤー 1
100
AcDbSpline
210
0.0
220
0.0
230
1.0
 70
     9
 71
     3
 72
    29
 73
    25
 74
     0
 42
0.0000000001
 43
0.0000000001
 40
0.0
 40
0.0
 40
0.0
 40
0.0
 40
1.0
 40
1.0
 40
1.0
 40
2.0
 40
2.0
 40
2.0
 40
3.0
 40
3.0
 40
3.0
 40
4.0
 40
4.0
 40
4.0
 40
5.0
 40
5.0
 40
5.0
 40
6.0
 40
6.0
 40
6.0
 40
7.0
 40
7.0
 40
7.0
 40
8.0
 40
8.0
 40
8.0
 40
8.0
 10
130.3138373155118
 20
-152.7972194713493
 30
0.0
 10
130.3138373155118
 20
-152.7972194713493
 30
0.0
 10
129.9607150282737
 20
-152.7972194713493
 30
0.0
 10
129.9607150282737
 20
-152.7972194713493
 30
0.0
 10
129.8484049154545
 20
-152.7972194713493
 30
0.0
 10
129.7088785483019
 20
-152.8037651527713
 30
0.0
 10
129.6010470596136
 20
-152.8161674965182
 30
0.0
 10
129.6010470596136
 20
-152.8161674965182
 30
0.0
 10
129.6010470596136
 20
-152.5815564939726
 30
0.0
 10
129.6010470596136
 20
-152.5815564939726
 30
0.0
 10
129.7192138347577
 20
-152.5963704045592
 30
0.0
 10
129.9035264432185
 20
-152.6005045191415
 30
0.0
 10
129.9607150282737
 20
-152.6005045191415
 30
0.0
 10
129.9607150282737
 20
-152.6005045191415
 30
0.0
 10
130.3138373155118
 20
-152.6005045191415
 30
0.0
 10
130.3138373155118
 20
-152.6005045191415
 30
0.0
 10
130.3327853406807
 20
-152.6005045191415
 30
0.0
 10
130.5360459743104
 20
-152.6005045191415
 30
0.0
 10
130.6776393987542
 20
-152.5815564939726
 30
0.0
 10
130.6776393987542
 20
-152.5815564939726
 30
0.0
 10
130.6776393987542
 20
-152.8161674965182
 30
0.0
 10
130.6776393987542
 20
-152.8161674965182
 30
0.0
 10
130.5212320637238
 20
-152.7972194713493
 30
0.0
 10
130.3307182833895
 20
-152.7972194713493
 30
0.0
 10
130.3138373155118
 20
-152.7972194713493
 30
0.0
  0
SPLINE
  5
174
330
166
100
AcDbEntity
  8
レイヤー 1
100
AcDbSpline
210
0.0
220
0.0
230
1.0
 70
     9
 71
     3
 72
    47
 73
    43
 74
     0
 42
0.0000000001
 43
0.0000000001
 40
0.0
 40
0.0
 40
0.0
 40
0.0
 40
1.0
 40
1.0
 40
1.0
 40
2.0
 40
2.0
 40
2.0
 40
3.0
 40
3.0
 40
3.0
 40
4.0
 40
4.0
 40
4.0
 40
5.0
 40
5.0
 40
5.0
 40
6.0
 40
6.0
 40
6.0
 40
7.0
 40
7.0
 40
7.0
 40
8.0
 40
8.0
 40
8.0
 40
9.0
 40
9.0
 40
9.0
 40
10.0
 40
10.0
 40
10.0
 40
11.0
 40
11.0
 40
11.0
 40
12.0
 40
12.0
 40
12.0
 40
13.0
 40
13.0
 40
13.0
 40
14.0
 40
14.0
 40
14.0
 40
14.0
 10
130.4154676323266
 20
-153.3260416283351
 30
0.0
 10
130.4154676323266
 20
-153.3260416283351
 30
0.0
 10
130.3138373155118
 20
-153.3260416283351
 30
0.0
 10
130.3138373155118
 20
-153.3260416283351
 30
0.0
 10
130.3138373155118
 20
-153.4128580345635
 30
0.0
 10
130.2928222330518
 20
-153.8021538243967
 30
0.0
 10
130.0957627712955
 20
-154.0222954259041
 30
0.0
 10
129.9434895508474
 20
-154.1914496142299
 30
0.0
 10
129.7364393121839
 20
-154.2613850525805
 30
0.0
 10
129.6516899632468
 20
-154.2886013069139
 30
0.0
 10
129.6516899632468
 20
-154.2886013069139
 30
0.0
 10
129.4570420683302
 20
-154.1215141758793
 30
0.0
 10
129.4570420683302
 20
-154.1215141758793
 30
0.0
 10
129.5541937610142
 20
-154.1087673225839
 30
0.0
 10
129.7298936307619
 20
-154.0856851828327
 30
0.0
 10
129.9183403538051
 20
-153.8972384597895
 30
0.0
 10
129.992409906738
 20
-153.8255804736964
 30
0.0
 10
130.0957627712955
 20
-153.6857095969952
 30
0.0
 10
130.0957627712955
 20
-153.3260416283351
 30
0.0
 10
130.0957627712955
 20
-153.3260416283351
 30
0.0
 10
129.8652858833323
 20
-153.3260416283351
 30
0.0
 10
129.8652858833323
 20
-153.3260416283351
 30
0.0
 10
129.6792507271288
 20
-153.3260416283351
 30
0.0
 10
129.4928710613767
 20
-153.330520252466
 30
0.0
 10
129.3068359051733
 20
-153.3453341630526
 30
0.0
 10
129.3068359051733
 20
-153.3453341630526
 30
0.0
 10
129.3068359051733
 20
-153.1251925615451
 30
0.0
 10
129.3068359051733
 20
-153.1251925615451
 30
0.0
 10
129.4952826282165
 20
-153.1400064721316
 30
0.0
 10
129.7808810439436
 20
-153.1441405867139
 30
0.0
 10
129.8652858833323
 20
-153.1441405867139
 30
0.0
 10
129.8652858833323
 20
-153.1441405867139
 30
0.0
 10
130.4154676323266
 20
-153.1441405867139
 30
0.0
 10
130.4154676323266
 20
-153.1441405867139
 30
0.0
 10
130.4344156574956
 20
-153.1441405867139
 30
0.0
 10
130.7517089516871
 20
-153.1441405867139
 30
0.0
 10
130.9801187823591
 20
-153.1251925615451
 30
0.0
 10
130.9801187823591
 20
-153.1251925615451
 30
0.0
 10
130.9801187823591
 20
-153.3453341630526
 30
0.0
 10
130.9801187823591
 20
-153.3453341630526
 30
0.0
 10
130.7920165688645
 20
-153.330520252466
 30
0.0
 10
130.6035698458213
 20
-153.3260416283351
 30
0.0
 10
130.4154676323266
 20
-153.3260416283351
 30
0.0
  0
HATCH
  5
175
330
166
100
AcDbEntity
  8
レイヤー 1
 62
    18
420
        0
440
 33554687
100
AcDbHatch
 10
0.0
 20
0.0
 30
0.0
210
0.0
220
0.0
230
1.0
  2
SOLID
 70
     1
 71
     1
 91
        2
 92
        1
 93
        1
 72
     4
 94
        3
 73
     0
 74
     0
 95
       29
 96
       25
 40
0.0
 40
0.0
 40
0.0
 40
0.0
 40
1.0
 40
1.0
 40
1.0
 40
2.0
 40
2.0
 40
2.0
 40
3.0
 40
3.0
 40
3.0
 40
4.0
 40
4.0
 40
4.0
 40
5.0
 40
5.0
 40
5.0
 40
6.0
 40
6.0
 40
6.0
 40
7.0
 40
7.0
 40
7.0
 40
8.0
 40
8.0
 40
8.0
 40
8.0
 10
130.3138373155118
 20
-152.7972194713493
 10
130.3138373155118
 20
-152.7972194713493
 10
129.9607150282737
 20
-152.7972194713493
 10
129.9607150282737
 20
-152.7972194713493
 10
129.8484049154545
 20
-152.7972194713493
 10
129.7088785483019
 20
-152.8037651527713
 10
129.6010470596136
 20
-152.8161674965182
 10
129.6010470596136
 20
-152.8161674965182
 10
129.6010470596136
 20
-152.5815564939726
 10
129.6010470596136
 20
-152.5815564939726
 10
129.7192138347577
 20
-152.5963704045592
 10
129.9035264432185
 20
-152.6005045191415
 10
129.9607150282737
 20
-152.6005045191415
 10
129.9607150282737
 20
-152.6005045191415
 10
130.3138373155118
 20
-152.6005045191415
 10
130.3138373155118
 20
-152.6005045191415
 10
130.3327853406807
 20
-152.6005045191415
 10
130.5360459743104
 20
-152.6005045191415
 10
130.6776393987542
 20
-152.5815564939726
 10
130.6776393987542
 20
-152.5815564939726
 10
130.6776393987542
 20
-152.8161674965182
 10
130.6776393987542
 20
-152.8161674965182
 10
130.5212320637238
 20
-152.7972194713493
 10
130.3307182833895
 20
-152.7972194713493
 10
130.3138373155118
 20
-152.7972194713493
 97
        0
 97
        1
330
173
 92
        1
 93
        1
 72
     4
 94
        3
 73
     0
 74
     0
 95
       47
 96
       43
 40
0.0
 40
0.0
 40
0.0
 40
0.0
 40
1.0
 40
1.0
 40
1.0
 40
2.0
 40
2.0
 40
2.0
 40
3.0
 40
3.0
 40
3.0
 40
4.0
 40
4.0
 40
4.0
 40
5.0
 40
5.0
 40
5.0
 40
6.0
 40
6.0
 40
6.0
 40
7.0
 40
7.0
 40
7.0
 40
8.0
 40
8.0
 40
8.0
 40
9.0
 40
9.0
 40
9.0
 40
10.0
 40
10.0
 40
10.0
 40
11.0
 40
11.0
 40
11.0
 40
12.0
 40
12.0
 40
12.0
 40
13.0
 40
13.0
 40
13.0
 40
14.0
 40
14.0
 40
14.0
 40
14.0
 10
130.4154676323266
 20
-153.3260416283351
 10
130.4154676323266
 20
-153.3260416283351
 10
130.3138373155118
 20
-153.3260416283351
 10
130.3138373155118
 20
-153.3260416283351
 10
130.3138373155118
 20
-153.4128580345635
 10
130.2928222330518
 20
-153.8021538243967
 10
130.0957627712955
 20
-154.0222954259041
 10
129.9434895508474
 20
-154.1914496142299
 10
129.7364393121839
 20
-154.2613850525805
 10
129.6516899632468
 20
-154.2886013069139
 10
129.6516899632468
 20
-154.2886013069139
 10
129.4570420683302
 20
-154.1215141758793
 10
129.4570420683302
 20
-154.1215141758793
 10
129.5541937610142
 20
-154.1087673225839
 10
129.7298936307619
 20
-154.0856851828327
 10
129.9183403538051
 20
-153.8972384597895
 10
129.992409906738
 20
-153.8255804736964
 10
130.0957627712955
 20
-153.6857095969952
 10
130.0957627712955
 20
-153.3260416283351
 10
130.0957627712955
 20
-153.3260416283351
 10
129.8652858833323
 20
-153.3260416283351
 10
129.8652858833323
 20
-153.3260416283351
 10
129.6792507271288
 20
-153.3260416283351
 10
129.4928710613767
 20
-153.330520252466
 10
129.3068359051733
 20
-153.3453341630526
 10
129.3068359051733
 20
-153.3453341630526
 10
129.3068359051733
 20
-153.1251925615451
 10
129.3068359051733
 20
-153.1251925615451
 10
129.4952826282165
 20
-153.1400064721316
 10
129.7808810439436
 20
-153.1441405867139
 10
129.8652858833323
 20
-153.1441405867139
 10
129.8652858833323
 20
-153.1441405867139
 10
130.4154676323266
 20
-153.1441405867139
 10
130.4154676323266
 20
-153.1441405867139
 10
130.4344156574956
 20
-153.1441405867139
 10
130.7517089516871
 20
-153.1441405867139
 10
130.9801187823591
 20
-153.1251925615451
 10
130.9801187823591
 20
-153.1251925615451
 10
130.9801187823591
 20
-153.3453341630526
 10
130.9801187823591
 20
-153.3453341630526
 10
130.7920165688645
 20
-153.330520252466
 10
130.6035698458213
 20
-153.3260416283351
 10
130.4154676323266
 20
-153.3260416283351
 97
        0
 97
        1
330
174
 75
     2
 76
     1
 98
        1
 10
0.0
 20
0.0
450
        0
451
        0
460
0.0
461
0.0
452
        0
462
0.0
453
        0
470

  0
SPLINE
  5
176
330
166
100
AcDbEntity
  8
レイヤー 1
100
AcDbSpline
210
0.0
220
0.0
230
1.0
 70
     9
 71
     3
 72
    29
 73
    25
 74
     0
 42
0.0000000001
 43
0.0000000001
 40
0.0
 40
0.0
 40
0.0
 40
0.0
 40
1.0
 40
1.0
 40
1.0
 40
2.0
 40
2.0
 40
2.0
 40
3.0
 40
3.0
 40
3.0
 40
4.0
 40
4.0
 40
4.0
 40
5.0
 40
5.0
 40
5.0
 40
6.0
 40
6.0
 40
6.0
 40
7.0
 40
7.0
 40
7.0
 40
8.0
 40
8.0
 40
8.0
 40
8.0
 10
132.2613497933235
 20
-153.4889946447875
 30
0.0
 10
132.2613497933235
 20
-153.4889946447875
 30
0.0
 10
131.7769693680974
 20
-153.4889946447875
 30
0.0
 10
131.7769693680974
 20
-153.4889946447875
 30
0.0
 10
131.7494086042154
 20
-153.4889946447875
 30
0.0
 10
131.4321153100239
 20
-153.4889946447875
 30
0.0
 10
131.2205864472296
 20
-153.5144883513783
 30
0.0
 10
131.2205864472296
 20
-153.5144883513783
 30
0.0
 10
131.2205864472296
 20
-153.2840114634151
 30
0.0
 10
131.2205864472296
 20
-153.2840114634151
 30
0.0
 10
131.379060839551
 20
-153.3070936031663
 30
0.0
 10
131.5695746198854
 20
-153.3091606604574
 30
0.0
 10
131.7769693680974
 20
-153.3091606604574
 30
0.0
 10
131.7769693680974
 20
-153.3091606604574
 30
0.0
 10
132.2613497933235
 20
-153.3091606604574
 30
0.0
 10
132.2613497933235
 20
-153.3091606604574
 30
0.0
 10
132.447384949527
 20
-153.3091606604574
 30
0.0
 10
132.633764615279
 20
-153.3070936031663
 30
0.0
 10
132.8177327141914
 20
-153.2840114634151
 30
0.0
 10
132.8177327141914
 20
-153.2840114634151
 30
0.0
 10
132.8177327141914
 20
-153.5144883513783
 30
0.0
 10
132.8177327141914
 20
-153.5144883513783
 30
0.0
 10
132.633764615279
 20
-153.4910617020786
 30
0.0
 10
132.3860622498896
 20
-153.4889946447875
 30
0.0
 10
132.2613497933235
 20
-153.4889946447875
 30
0.0
  0
HATCH
  5
177
330
166
100
AcDbEntity
  8
レイヤー 1
 62
    18
420
        0
440
 33554687
100
AcDbHatch
 10
0.0
 20
0.0
 30
0.0
210
0.0
220
0.0
230
1.0
  2
SOLID
 70
     1
 71
     1
 91
        1
 92
        1
 93
        1
 72
     4
 94
        3
 73
     0
 74
     0
 95
       29
 96
       25
 40
0.0
 40
0.0
 40
0.0
 40
0.0
 40
1.0
 40
1.0
 40
1.0
 40
2.0
 40
2.0
 40
2.0
 40
3.0
 40
3.0
 40
3.0
 40
4.0
 40
4.0
 40
4.0
 40
5.0
 40
5.0
 40
5.0
 40
6.0
 40
6.0
 40
6.0
 40
7.0
 40
7.0
 40
7.0
 40
8.0
 40
8.0
 40
8.0
 40
8.0
 10
132.2613497933235
 20
-153.4889946447875
 10
132.2613497933235
 20
-153.4889946447875
 10
131.7769693680974
 20
-153.4889946447875
 10
131.7769693680974
 20
-153.4889946447875
 10
131.7494086042154
 20
-153.4889946447875
 10
131.4321153100239
 20
-153.4889946447875
 10
131.2205864472296
 20
-153.5144883513783
 10
131.2205864472296
 20
-153.5144883513783
 10
131.2205864472296
 20
-153.2840114634151
 10
131.2205864472296
 20
-153.2840114634151
 10
131.379060839551
 20
-153.3070936031663
 10
131.5695746198854
 20
-153.3091606604574
 10
131.7769693680974
 20
-153.3091606604574
 10
131.7769693680974
 20
-153.3091606604574
 10
132.2613497933235
 20
-153.3091606604574
 10
132.2613497933235
 20
-153.3091606604574
 10
132.447384949527
 20
-153.3091606604574
 10
132.633764615279
 20
-153.3070936031663
 10
132.8177327141914
 20
-153.2840114634151
 10
132.8177327141914
 20
-153.2840114634151
 10
132.8177327141914
 20
-153.5144883513783
 10
132.8177327141914
 20
-153.5144883513783
 10
132.633764615279
 20
-153.4910617020786
 10
132.3860622498896
 20
-153.4889946447875
 10
132.2613497933235
 20
-153.4889946447875
 97
        0
 97
        1
330
176
 75
     2
 76
     1
 98
        1
 10
0.0
 20
0.0
450
        0
451
        0
460
0.0
461
0.0
452
        0
462
0.0
453
        0
470

  0
SPLINE
  5
178
330
166
100
AcDbEntity
  8
レイヤー 1
100
AcDbSpline
210
0.0
220
0.0
230
1.0
 70
     9
 71
     3
 72
    47
 73
    43
 74
     0
 42
0.0000000001
 43
0.0000000001
 40
0.0
 40
0.0
 40
0.0
 40
0.0
 40
1.0
 40
1.0
 40
1.0
 40
2.0
 40
2.0
 40
2.0
 40
3.0
 40
3.0
 40
3.0
 40
4.0
 40
4.0
 40
4.0
 40
5.0
 40
5.0
 40
5.0
 40
6.0
 40
6.0
 40
6.0
 40
7.0
 40
7.0
 40
7.0
 40
8.0
 40
8.0
 40
8.0
 40
9.0
 40
9.0
 40
9.0
 40
10.0
 40
10.0
 40
10.0
 40
11.0
 40
11.0
 40
11.0
 40
12.0
 40
12.0
 40
12.0
 40
13.0
 40
13.0
 40
13.0
 40
14.0
 40
14.0
 40
14.0
 40
14.0
 10
134.4813693240185
 20
-152.8947156735819
 30
0.0
 10
134.411433885668
 20
-153.1737684078871
 30
0.0
 10
134.3352972754439
 20
-153.4786593583317
 30
0.0
 10
134.0221380958347
 20
-153.8107665631098
 30
0.0
 10
133.7854600359981
 20
-154.0601914762419
 30
0.0
 10
133.5398247278998
 20
-154.1597547357656
 30
0.0
 10
133.4340602965026
 20
-154.2021294102342
 30
0.0
 10
133.4340602965026
 20
-154.2021294102342
 30
0.0
 10
133.239412401586
 20
-154.020228368613
 30
0.0
 10
133.239412401586
 20
-154.020228368613
 30
0.0
 10
133.425792067338
 20
-153.9733750700136
 30
0.0
 10
133.7875270932892
 20
-153.8803574919118
 30
0.0
 10
134.0834607954722
 20
-153.3852972706814
 30
0.0
 10
134.2443467546333
 20
-153.1189913896716
 30
0.0
 10
134.2570936079288
 20
-152.945358577215
 30
0.0
 10
134.2657063466419
 20
-152.8544080564044
 30
0.0
 10
134.2657063466419
 20
-152.8544080564044
 30
0.0
 10
133.7599663294072
 20
-152.8544080564044
 30
0.0
 10
133.7599663294072
 20
-152.8544080564044
 30
0.0
 10
133.6414550447146
 20
-152.8544080564044
 30
0.0
 10
133.2204643764171
 20
-152.8733560815733
 30
0.0
 10
133.068191155969
 20
-152.8840358775776
 30
0.0
 10
133.068191155969
 20
-152.8840358775776
 30
0.0
 10
133.068191155969
 20
-152.6745740720744
 30
0.0
 10
133.068191155969
 20
-152.6745740720744
 30
0.0
 10
133.2097845804128
 20
-152.6873209253698
 30
0.0
 10
133.4871147669754
 20
-152.6914550399521
 30
0.0
 10
133.6035589943769
 20
-152.6914550399521
 30
0.0
 10
133.6035589943769
 20
-152.6914550399521
 30
0.0
 10
133.9587483389061
 20
-152.6914550399521
 30
0.0
 10
133.9587483389061
 20
-152.6914550399521
 30
0.0
 10
133.9863091027881
 20
-152.6914550399521
 30
0.0
 10
134.1471950619493
 20
-152.689387982661
 30
0.0
 10
134.2570936079288
 20
-152.6745740720744
 30
0.0
 10
134.3142821929839
 20
-152.668372900201
 30
0.0
 10
134.3311631608616
 20
-152.6490803654835
 30
0.0
 10
134.3542453006128
 20
-152.6259982257324
 30
0.0
 10
134.3542453006128
 20
-152.6259982257324
 30
0.0
 10
134.542692023656
 20
-152.7762043888893
 30
0.0
 10
134.542692023656
 20
-152.7762043888893
 30
0.0
 10
134.5278781130694
 20
-152.8058322100624
 30
0.0
 10
134.5171983170651
 20
-152.8247802352313
 30
0.0
 10
134.4813693240185
 20
-152.8947156735819
 30
0.0
  0
HATCH
  5
179
330
166
100
AcDbEntity
  8
レイヤー 1
 62
    18
420
        0
440
 33554687
100
AcDbHatch
 10
0.0
 20
0.0
 30
0.0
210
0.0
220
0.0
230
1.0
  2
SOLID
 70
     1
 71
     1
 91
        1
 92
        1
 93
        1
 72
     4
 94
        3
 73
     0
 74
     0
 95
       47
 96
       43
 40
0.0
 40
0.0
 40
0.0
 40
0.0
 40
1.0
 40
1.0
 40
1.0
 40
2.0
 40
2.0
 40
2.0
 40
3.0
 40
3.0
 40
3.0
 40
4.0
 40
4.0
 40
4.0
 40
5.0
 40
5.0
 40
5.0
 40
6.0
 40
6.0
 40
6.0
 40
7.0
 40
7.0
 40
7.0
 40
8.0
 40
8.0
 40
8.0
 40
9.0
 40
9.0
 40
9.0
 40
10.0
 40
10.0
 40
10.0
 40
11.0
 40
11.0
 40
11.0
 40
12.0
 40
12.0
 40
12.0
 40
13.0
 40
13.0
 40
13.0
 40
14.0
 40
14.0
 40
14.0
 40
14.0
 10
134.4813693240185
 20
-152.8947156735819
 10
134.411433885668
 20
-153.1737684078871
 10
134.3352972754439
 20
-153.4786593583317
 10
134.0221380958347
 20
-153.8107665631098
 10
133.7854600359981
 20
-154.0601914762419
 10
133.5398247278998
 20
-154.1597547357656
 10
133.4340602965026
 20
-154.2021294102342
 10
133.4340602965026
 20
-154.2021294102342
 10
133.239412401586
 20
-154.020228368613
 10
133.239412401586
 20
-154.020228368613
 10
133.425792067338
 20
-153.9733750700136
 10
133.7875270932892
 20
-153.8803574919118
 10
134.0834607954722
 20
-153.3852972706814
 10
134.2443467546333
 20
-153.1189913896716
 10
134.2570936079288
 20
-152.945358577215
 10
134.2657063466419
 20
-152.8544080564044
 10
134.2657063466419
 20
-152.8544080564044
 10
133.7599663294072
 20
-152.8544080564044
 10
133.7599663294072
 20
-152.8544080564044
 10
133.6414550447146
 20
-152.8544080564044
 10
133.2204643764171
 20
-152.8733560815733
 10
133.068191155969
 20
-152.8840358775776
 10
133.068191155969
 20
-152.8840358775776
 10
133.068191155969
 20
-152.6745740720744
 10
133.068191155969
 20
-152.6745740720744
 10
133.2097845804128
 20
-152.6873209253698
 10
133.4871147669754
 20
-152.6914550399521
 10
133.6035589943769
 20
-152.6914550399521
 10
133.6035589943769
 20
-152.6914550399521
 10
133.9587483389061
 20
-152.6914550399521
 10
133.9587483389061
 20
-152.6914550399521
 10
133.9863091027881
 20
-152.6914550399521
 10
134.1471950619493
 20
-152.689387982661
 10
134.2570936079288
 20
-152.6745740720744
 10
134.3142821929839
 20
-152.668372900201
 10
134.3311631608616
 20
-152.6490803654835
 10
134.3542453006128
 20
-152.6259982257324
 10
134.3542453006128
 20
-152.6259982257324
 10
134.542692023656
 20
-152.7762043888893
 10
134.542692023656
 20
-152.7762043888893
 10
134.5278781130694
 20
-152.8058322100624
 10
134.5171983170651
 20
-152.8247802352313
 10
134.4813693240185
 20
-152.8947156735819
 97
        0
 97
        1
330
178
 75
     2
 76
     1
 98
        1
 10
0.0
 20
0.0
450
        0
451
        0
460
0.0
461
0.0
452
        0
462
0.0
453
        0
470

  0
SPLINE
  5
17A
330
166
100
AcDbEntity
  8
レイヤー 1
100
AcDbSpline
210
0.0
220
0.0
230
1.0
 70
    11
 71
     3
 72
    17
 73
    13
 74
     0
 42
0.0000000001
 43
0.0000000001
 40
0.0
 40
0.0
 40
0.0
 40
0.0
 40
1.0
 40
1.0
 40
1.0
 40
2.0
 40
2.0
 40
2.0
 40
3.0
 40
3.0
 40
3.0
 40
4.0
 40
4.0
 40
4.0
 40
4.0
 10
134.8716986424973
 20
-152.6766411293656
 30
0.0
 10
134.8716986424973
 20
-152.7358967717119
 30
0.0
 10
134.9182074315482
 20
-152.7824055607627
 30
0.0
 10
134.9774630738945
 20
-152.7824055607627
 30
0.0
 10
135.0367187162408
 20
-152.7824055607627
 30
0.0
 10
135.0852945625828
 20
-152.7358967717119
 30
0.0
 10
135.0852945625828
 20
-152.6766411293656
 30
0.0
 10
135.0852945625828
 20
-152.6173854870193
 30
0.0
 10
135.0367187162408
 20
-152.5688096406772
 30
0.0
 10
134.9774630738945
 20
-152.5688096406772
 30
0.0
 10
134.9182074315482
 20
-152.5688096406772
 30
0.0
 10
134.8716986424973
 20
-152.6173854870193
 30
0.0
 10
134.8716986424973
 20
-152.6766411293656
 30
0.0
  0
SPLINE
  5
17B
330
166
100
AcDbEntity
  8
レイヤー 1
100
AcDbSpline
210
0.0
220
0.0
230
1.0
 70
     9
 71
     3
 72
    17
 73
    13
 74
     0
 42
0.0000000001
 43
0.0000000001
 40
0.0
 40
0.0
 40
0.0
 40
0.0
 40
1.0
 40
1.0
 40
1.0
 40
2.0
 40
2.0
 40
2.0
 40
3.0
 40
3.0
 40
3.0
 40
4.0
 40
4.0
 40
4.0
 40
4.0
 10
135.1869248793977
 20
-152.6766411293656
 30
0.0
 10
135.1869248793977
 20
-152.7910182994759
 30
0.0
 10
135.093907301296
 20
-152.8861029348687
 30
0.0
 10
134.9774630738945
 20
-152.8861029348687
 30
0.0
 10
134.8634304133327
 20
-152.8861029348687
 30
0.0
 10
134.7680012683913
 20
-152.7910182994759
 30
0.0
 10
134.7680012683913
 20
-152.6766411293656
 30
0.0
 10
134.7680012683913
 20
-152.5601969019641
 30
0.0
 10
134.8634304133327
 20
-152.4671793238623
 30
0.0
 10
134.9774630738945
 20
-152.4671793238623
 30
0.0
 10
135.0918402440048
 20
-152.4671793238623
 30
0.0
 10
135.1869248793977
 20
-152.5601969019641
 30
0.0
 10
135.1869248793977
 20
-152.6766411293656
 30
0.0
  0
HATCH
  5
17C
330
166
100
AcDbEntity
  8
レイヤー 1
 62
    18
420
        0
440
 33554687
100
AcDbHatch
 10
0.0
 20
0.0
 30
0.0
210
0.0
220
0.0
230
1.0
  2
SOLID
 70
     1
 71
     1
 91
        2
 92
        1
 93
        1
 72
     4
 94
        3
 73
     0
 74
     0
 95
       17
 96
       13
 40
0.0
 40
0.0
 40
0.0
 40
0.0
 40
1.0
 40
1.0
 40
1.0
 40
2.0
 40
2.0
 40
2.0
 40
3.0
 40
3.0
 40
3.0
 40
4.0
 40
4.0
 40
4.0
 40
4.0
 10
134.8716986424973
 20
-152.6766411293656
 10
134.8716986424973
 20
-152.7358967717119
 10
134.9182074315482
 20
-152.7824055607627
 10
134.9774630738945
 20
-152.7824055607627
 10
135.0367187162408
 20
-152.7824055607627
 10
135.0852945625828
 20
-152.7358967717119
 10
135.0852945625828
 20
-152.6766411293656
 10
135.0852945625828
 20
-152.6173854870193
 10
135.0367187162408
 20
-152.5688096406772
 10
134.9774630738945
 20
-152.5688096406772
 10
134.9182074315482
 20
-152.5688096406772
 10
134.8716986424973
 20
-152.6173854870193
 10
134.8716986424973
 20
-152.6766411293656
 97
        0
 97
        1
330
17A
 92
        1
 93
        1
 72
     4
 94
        3
 73
     0
 74
     0
 95
       17
 96
       13
 40
0.0
 40
0.0
 40
0.0
 40
0.0
 40
1.0
 40
1.0
 40
1.0
 40
2.0
 40
2.0
 40
2.0
 40
3.0
 40
3.0
 40
3.0
 40
4.0
 40
4.0
 40
4.0
 40
4.0
 10
135.1869248793977
 20
-152.6766411293656
 10
135.1869248793977
 20
-152.7910182994759
 10
135.093907301296
 20
-152.8861029348687
 10
134.9774630738945
 20
-152.8861029348687
 10
134.8634304133327
 20
-152.8861029348687
 10
134.7680012683913
 20
-152.7910182994759
 10
134.7680012683913
 20
-152.6766411293656
 10
134.7680012683913
 20
-152.5601969019641
 10
134.8634304133327
 20
-152.4671793238623
 10
134.9774630738945
 20
-152.4671793238623
 10
135.0918402440048
 20
-152.4671793238623
 10
135.1869248793977
 20
-152.5601969019641
 10
135.1869248793977
 20
-152.6766411293656
 97
        0
 97
        1
330
17B
 75
     2
 76
     1
 98
        1
 10
0.0
 20
0.0
450
        0
451
        0
460
0.0
461
0.0
452
        0
462
0.0
453
        0
470

  0
ENDBLK
  5
169
330
166
100
AcDbEntity
  8
0
100
AcDbBlockEnd
  0
ENDSEC
  0
SECTION
  2
ENTITIES
  0
LINE
  5
79
330
70
100
AcDbEntity
  8
レイヤー 1
  6
AI-Linetype-0
 62
   154
420
    23468
370
    25
100
AcDbLine
 10
80.94083397799701
 20
-148.1583786935502
 30
0.0
 11
95.94080359531591
 21
-148.1583786935502
 31
0.0
  0
LINE
  5
7B
330
70
100
AcDbEntity
  8
レイヤー 1
  6
AI-Linetype-1
 62
   154
420
    23468
370
    25
100
AcDbLine
 10
115.944043918324
 20
-148.1583786935502
 30
0.0
 11
130.9439782578661
 21
-148.1583786935502
 31
0.0
  0
INSERT
  5
7E
330
70
100
AcDbEntity
  8
レイヤー 1
100
AcDbBlockReference
  2
Block_0
 10
0.0
 20
0.0
 30
0.0
  0
LINE
  5
84
330
70
100
AcDbEntity
  8
レイヤー 1
 62
    18
420
        0
370
    25
100
AcDbLine
 10
110.9421137681561
 20
-153.1582275811895
 30
0.0
 11
100.942380967715
 21
-153.1582275811895
 31
0.0
  0
LINE
  5
85
330
70
100
AcDbEntity
  8
レイヤー 1
 62
    18
420
        0
370
    25
100
AcDbLine
 10
80.94083397799701
 20
-146.6580148050365
 30
0.0
 11
80.94083397799701
 21
-147.1582536938002
 31
0.0
  0
LINE
  5
86
330
70
100
AcDbEntity
  8
レイヤー 1
 62
    18
420
        0
370
    25
100
AcDbLine
 10
101.878053443844
 20
-147.1582536938002
 30
0.0
 11
80.94083397799701
 21
-147.1582536938002
 31
0.0
  0
LINE
  5
87
330
70
100
AcDbEntity
  8
レイヤー 1
 62
    18
420
        0
370
    25
100
AcDbLine
 10
80.94083397799701
 20
-146.6580148050365
 30
0.0
 11
81.45486935495489
 21
-147.0400731382742
 31
0.0
  0
LINE
  5
88
330
70
100
AcDbEntity
  8
レイヤー 1
 62
    18
420
        0
370
    25
100
AcDbLine
 10
81.45486935495489
 20
-147.0400731382742
 30
0.0
 11
81.94025339694446
 21
-146.6225606383785
 31
0.0
  0
LINE
  5
89
330
70
100
AcDbEntity
  8
レイヤー 1
 62
    18
420
        0
370
    25
100
AcDbLine
 10
82.45428879914967
 20
-147.0046189716165
 30
0.0
 11
82.94002559366004
 21
-146.5867184161652
 31
0.0
  0
LINE
  5
8A
330
70
100
AcDbEntity
  8
レイヤー 1
 62
    18
420
        0
370
    25
100
AcDbLine
 10
81.94025339694446
 20
-146.6225606383785
 30
0.0
 11
82.45428879914967
 21
-147.0046189716165
 31
0.0
  0
LINE
  5
8B
330
70
100
AcDbEntity
  8
レイヤー 1
 62
    18
420
        0
370
    25
100
AcDbLine
 10
82.94002559366004
 20
-146.5867184161652
 30
0.0
 11
83.45406102112157
 21
-146.9687767494033
 31
0.0
  0
LINE
  5
8C
330
70
100
AcDbEntity
  8
レイヤー 1
 62
    18
420
        0
370
    25
100
AcDbLine
 10
83.45406102112157
 20
-146.9687767494033
 30
0.0
 11
83.93913046544474
 21
-146.5512289717298
 31
0.0
  0
LINE
  5
8D
330
70
100
AcDbEntity
  8
レイヤー 1
 62
    18
420
        0
370
    25
100
AcDbLine
 10
83.93913046544474
 20
-146.5512289717298
 30
0.0
 11
84.4531276875386
 21
-146.93293452719
 31
0.0
  0
LINE
  5
8E
330
70
100
AcDbEntity
  8
レイヤー 1
 62
    18
420
        0
370
    25
100
AcDbLine
 10
84.4531276875386
 20
-146.93293452719
 30
0.0
 11
84.93886443155432
 21
-146.5153867495165
 31
0.0
  0
LINE
  5
8F
330
70
100
AcDbEntity
  8
レイヤー 1
 62
    18
420
        0
370
    25
100
AcDbLine
 10
84.93886443155432
 20
-146.5153867495165
 30
0.0
 11
85.45289990951113
 21
-146.8971275827546
 31
0.0
  0
LINE
  5
90
330
70
100
AcDbEntity
  8
レイヤー 1
 62
    18
420
        0
370
    25
100
AcDbLine
 10
85.45289990951113
 20
-146.8971275827546
 30
0.0
 11
85.9379693538343
 21
-146.4795798050811
 31
0.0
  0
LINE
  5
91
330
70
100
AcDbEntity
  8
レイヤー 1
 62
    18
420
        0
370
    25
100
AcDbLine
 10
85.9379693538343
 20
-146.4795798050811
 30
0.0
 11
86.45196657592816
 21
-146.8616381383188
 31
0.0
  0
LINE
  5
92
330
70
100
AcDbEntity
  8
レイヤー 1
 62
    18
420
        0
370
    25
100
AcDbLine
 10
86.45196657592816
 20
-146.8616381383188
 30
0.0
 11
86.93774157580621
 21
-146.4440903606456
 31
0.0
  0
LINE
  5
93
330
70
100
AcDbEntity
  8
レイヤー 1
 62
    18
420
        0
370
    25
100
AcDbLine
 10
86.93774157580621
 20
-146.4440903606456
 30
0.0
 11
87.45103324234518
 21
-146.8261486938833
 31
0.0
  0
LINE
  5
94
330
70
100
AcDbEntity
  8
レイヤー 1
 62
    18
420
        0
370
    25
100
AcDbLine
 10
87.45103324234518
 20
-146.8261486938833
 30
0.0
 11
87.93680824222322
 21
-146.4082481384324
 31
0.0
  0
LINE
  5
95
330
70
100
AcDbEntity
  8
レイヤー 1
 62
    18
420
        0
370
    25
100
AcDbLine
 10
88.45080546431708
 20
-146.7903064716701
 30
0.0
 11
88.93587490864025
 21
-146.3727586939966
 31
0.0
  0
LINE
  5
96
330
70
100
AcDbEntity
  8
レイヤー 1
 62
    18
420
        0
370
    25
100
AcDbLine
 10
87.93680824222322
 20
-146.4082481384324
 30
0.0
 11
88.45080546431708
 21
-146.7903064716701
 31
0.0
  0
LINE
  5
97
330
70
100
AcDbEntity
  8
レイヤー 1
 62
    18
420
        0
370
    25
100
AcDbLine
 10
88.93587490864025
 20
-146.3727586939966
 30
0.0
 11
89.44990431646811
 21
-146.7544995272347
 31
0.0
  0
LINE
  5
98
330
70
100
AcDbEntity
  8
レイヤー 1
 62
    18
420
        0
370
    25
100
AcDbLine
 10
89.44990431646811
 20
-146.7544995272347
 30
0.0
 11
89.9356471306128
 21
-146.3369517495615
 31
0.0
  0
LINE
  5
99
330
70
100
AcDbEntity
  8
レイヤー 1
 62
    18
420
        0
370
    25
100
AcDbLine
 10
90.44964435270662
 20
-146.7186573050214
 30
0.0
 11
90.93439316748453
 21
-146.3011095273482
 31
0.0
  0
LINE
  5
9A
330
70
100
AcDbEntity
  8
レイヤー 1
 62
    18
420
        0
370
    25
100
AcDbLine
 10
89.9356471306128
 20
-146.3369517495615
 30
0.0
 11
90.44964435270662
 21
-146.7186573050214
 31
0.0
  0
LINE
  5
9B
330
70
100
AcDbEntity
  8
レイヤー 1
 62
    18
420
        0
370
    25
100
AcDbLine
 10
91.44839037659357
 20
-146.6831678605856
 30
0.0
 11
91.93413324122426
 21
-146.2656200829124
 31
0.0
  0
LINE
  5
9C
330
70
100
AcDbEntity
  8
レイヤー 1
 62
    18
420
        0
370
    25
100
AcDbLine
 10
90.93439316748453
 20
-146.3011095273482
 30
0.0
 11
91.44839037659357
 21
-146.6831678605856
 31
0.0
  0
LINE
  5
9D
330
70
100
AcDbEntity
  8
レイヤー 1
 62
    18
420
        0
370
    25
100
AcDbLine
 10
91.93413324122426
 20
-146.2656200829124
 30
0.0
 11
92.44816257330949
 21
-146.6476784161501
 31
0.0
  0
LINE
  5
9E
330
70
100
AcDbEntity
  8
レイヤー 1
 62
    18
420
        0
370
    25
100
AcDbLine
 10
92.44816257330949
 20
-146.6476784161501
 30
0.0
 11
92.93323200537878
 21
-146.2298131384767
 31
0.0
  0
LINE
  5
9F
330
70
100
AcDbEntity
  8
レイヤー 1
 62
    18
420
        0
370
    25
100
AcDbLine
 10
92.93323200537878
 20
-146.2298131384767
 30
0.0
 11
93.44722921448784
 21
-146.6118714717147
 31
0.0
  0
LINE
  5
A0
330
70
100
AcDbEntity
  8
レイヤー 1
 62
    18
420
        0
370
    25
100
AcDbLine
 10
93.44722921448784
 20
-146.6118714717147
 30
0.0
 11
93.93229864655713
 21
-146.1943236940412
 31
0.0
  0
LINE
  5
A1
330
70
100
AcDbEntity
  8
レイヤー 1
 62
    18
420
        0
370
    25
100
AcDbLine
 10
93.93229864655713
 20
-146.1943236940412
 30
0.0
 11
94.44629585566621
 21
-146.5760292495015
 31
0.0
  0
LINE
  5
A2
330
70
100
AcDbEntity
  8
レイヤー 1
 62
    18
420
        0
370
    25
100
AcDbLine
 10
94.44629585566621
 20
-146.5760292495015
 30
0.0
 11
94.93207084327305
 21
-146.158481471828
 31
0.0
  0
LINE
  5
A3
330
70
100
AcDbEntity
  8
レイヤー 1
 62
    18
420
        0
370
    25
100
AcDbLine
 10
94.93207084327305
 20
-146.158481471828
 30
0.0
 11
95.4460680523821
 21
-146.540222305066
 31
0.0
  0
LINE
  5
A4
330
70
100
AcDbEntity
  8
レイヤー 1
 62
    18
420
        0
370
    25
100
AcDbLine
 10
95.4460680523821
 20
-146.540222305066
 30
0.0
 11
95.93113748445139
 21
-146.1226745273926
 31
0.0
  0
LINE
  5
A5
330
70
100
AcDbEntity
  8
レイヤー 1
 62
    18
420
        0
370
    25
100
AcDbLine
 10
95.93113748445139
 20
-146.1226745273926
 30
0.0
 11
96.44516997133735
 21
-146.5047328606303
 31
0.0
  0
LINE
  5
A6
330
70
100
AcDbEntity
  8
レイヤー 1
 62
    18
420
        0
370
    25
100
AcDbLine
 10
96.44516997133735
 20
-146.5047328606303
 30
0.0
 11
96.93090968116731
 21
-146.0871850829571
 31
0.0
  0
LINE
  5
A7
330
70
100
AcDbEntity
  8
レイヤー 1
 62
    18
420
        0
370
    25
100
AcDbLine
 10
96.93090968116731
 20
-146.0871850829571
 30
0.0
 11
97.44490689027637
 21
-146.4692434161951
 31
0.0
  0
LINE
  5
A8
330
70
100
AcDbEntity
  8
レイヤー 1
 62
    18
420
        0
370
    25
100
AcDbLine
 10
97.44490689027637
 20
-146.4692434161951
 30
0.0
 11
97.92997632234566
 21
-146.0513428607438
 31
0.0
  0
LINE
  5
A9
330
70
100
AcDbEntity
  8
レイヤー 1
 62
    18
420
        0
370
    25
100
AcDbLine
 10
97.92997632234566
 20
-146.0513428607438
 30
0.0
 11
98.4440088092316
 21
-146.4334011939818
 31
0.0
  0
LINE
  5
AA
330
70
100
AcDbEntity
  8
レイヤー 1
 62
    18
420
        0
370
    25
100
AcDbLine
 10
98.4440088092316
 20
-146.4334011939818
 30
0.0
 11
98.92974851906158
 21
-146.015853416308
 31
0.0
  0
LINE
  5
AB
330
70
100
AcDbEntity
  8
レイヤー 1
 62
    18
420
        0
370
    25
100
AcDbLine
 10
98.92974851906158
 20
-146.015853416308
 30
0.0
 11
99.44378100594752
 21
-146.3975942495461
 31
0.0
  0
LINE
  5
AC
330
70
100
AcDbEntity
  8
レイヤー 1
 62
    18
420
        0
370
    25
100
AcDbLine
 10
99.44378100594752
 20
-146.3975942495461
 30
0.0
 11
99.92885043801681
 21
-145.9800464718729
 31
0.0
  0
LINE
  5
AD
330
70
100
AcDbEntity
  8
レイヤー 1
 62
    18
420
        0
370
    25
100
AcDbLine
 10
99.92885043801681
 20
-145.9800464718729
 30
0.0
 11
100.4428476471258
 21
-146.3617520273329
 31
0.0
  0
LINE
  5
AE
330
70
100
AcDbEntity
  8
レイヤー 1
 62
    18
420
        0
370
    25
100
AcDbLine
 10
100.4428476471258
 20
-146.3617520273329
 30
0.0
 11
100.9285873569558
 21
-145.9442042496593
 31
0.0
  0
LINE
  5
AF
330
70
100
AcDbEntity
  8
レイヤー 1
 62
    18
420
        0
370
    25
100
AcDbLine
 10
101.0026198439507
 20
-145.8959795274495
 30
0.0
 11
101.9421531644309
 21
-145.8959795274495
 31
0.0
  0
LINE
  5
B0
330
70
100
AcDbEntity
  8
レイヤー 1
 62
    18
420
        0
370
    25
100
AcDbLine
 10
101.9421531644309
 20
-145.8959795274495
 30
0.0
 11
101.9421531644309
 21
-152.1581378592167
 31
0.0
  0
LINE
  5
B1
330
70
100
AcDbEntity
  8
レイヤー 1
 62
    18
420
        0
370
    25
100
AcDbLine
 10
100.942380967715
 20
-147.1582536938002
 30
0.0
 11
100.942380967715
 21
-153.1582275811895
 31
0.0
  0
LINE
  5
B2
330
70
100
AcDbEntity
  8
レイヤー 1
 62
    18
420
        0
370
    25
100
AcDbLine
 10
109.9423415714402
 20
-152.1581378592167
 30
0.0
 11
101.9421531644309
 21
-152.1581378592167
 31
0.0
  0
LINE
  5
B3
330
70
100
AcDbEntity
  8
レイヤー 1
 62
    18
420
        0
370
    25
100
AcDbLine
 10
120.949431290626
 20
-146.3011095273482
 30
0.0
 11
120.4361082340983
 21
-146.6831678605856
 31
0.0
  0
LINE
  5
B4
330
70
100
AcDbEntity
  8
レイヤー 1
 62
    18
420
        0
370
    25
100
AcDbLine
 10
125.9468811631304
 20
-146.4795798050811
 30
0.0
 11
125.4328839540213
 21
-146.8616381383188
 31
0.0
  0
LINE
  5
B5
330
70
100
AcDbEntity
  8
レイヤー 1
 62
    18
420
        0
370
    25
100
AcDbLine
 10
121.4351749005153
 20
-146.7186573050214
 30
0.0
 11
120.949431290626
 21
-146.3011095273482
 31
0.0
  0
LINE
  5
B6
330
70
100
AcDbEntity
  8
レイヤー 1
 62
    18
420
        0
370
    25
100
AcDbLine
 10
122.4342729194112
 20
-146.7544995272347
 30
0.0
 11
121.9492034873419
 21
-146.3369517495615
 31
0.0
  0
LINE
  5
B7
330
70
100
AcDbEntity
  8
レイヤー 1
 62
    18
420
        0
370
    25
100
AcDbLine
 10
120.4361082340983
 20
-146.6831678605856
 30
0.0
 11
119.9503646494476
 21
-146.2656200829124
 31
0.0
  0
LINE
  5
B8
330
70
100
AcDbEntity
  8
レイヤー 1
 62
    18
420
        0
370
    25
100
AcDbLine
 10
121.9492034873419
 20
-146.3369517495615
 30
0.0
 11
121.4351749005153
 21
-146.7186573050214
 31
0.0
  0
LINE
  5
B9
330
70
100
AcDbEntity
  8
レイヤー 1
 62
    18
420
        0
370
    25
100
AcDbLine
 10
129.9438885611583
 20
-146.6225606383785
 30
0.0
 11
129.4298913520492
 21
-147.0046189716165
 31
0.0
  0
LINE
  5
BA
330
70
100
AcDbEntity
  8
レイヤー 1
 62
    18
420
        0
370
    25
100
AcDbLine
 10
122.9482701285202
 20
-146.3727586939966
 30
0.0
 11
122.4342729194112
 21
-146.7544995272347
 31
0.0
  0
LINE
  5
BB
330
70
100
AcDbEntity
  8
レイヤー 1
 62
    18
420
        0
370
    25
100
AcDbLine
 10
123.9480423252361
 20
-146.4082481384324
 30
0.0
 11
123.4340451161271
 21
-146.7903064716701
 31
0.0
  0
LINE
  5
BC
330
70
100
AcDbEntity
  8
レイヤー 1
 62
    18
420
        0
370
    25
100
AcDbLine
 10
109.9423415714402
 20
-145.8959795274495
 30
0.0
 11
109.9423415714402
 21
-152.1581378592167
 31
0.0
  0
LINE
  5
BD
330
70
100
AcDbEntity
  8
レイヤー 1
 62
    18
420
        0
370
    25
100
AcDbLine
 10
123.4340451161271
 20
-146.7903064716701
 30
0.0
 11
122.9482701285202
 21
-146.3727586939966
 31
0.0
  0
LINE
  5
BE
330
70
100
AcDbEntity
  8
レイヤー 1
 62
    18
420
        0
370
    25
100
AcDbLine
 10
124.4331117573054
 20
-146.8261486938833
 30
0.0
 11
123.9480423252361
 21
-146.4082481384324
 31
0.0
  0
LINE
  5
BF
330
70
100
AcDbEntity
  8
レイヤー 1
 62
    18
420
        0
370
    25
100
AcDbLine
 10
129.4298913520492
 20
-147.0046189716165
 30
0.0
 11
128.9448219199799
 21
-146.5867184161652
 31
0.0
  0
LINE
  5
C0
330
70
100
AcDbEntity
  8
レイヤー 1
 62
    18
420
        0
370
    25
100
AcDbLine
 10
124.9471089664145
 20
-146.4440903606456
 30
0.0
 11
124.4331117573054
 21
-146.8261486938833
 31
0.0
  0
LINE
  5
C1
330
70
100
AcDbEntity
  8
レイヤー 1
 62
    18
420
        0
370
    25
100
AcDbLine
 10
125.4328839540213
 20
-146.8616381383188
 30
0.0
 11
124.9471089664145
 21
-146.4440903606456
 31
0.0
  0
LINE
  5
C2
330
70
100
AcDbEntity
  8
レイヤー 1
 62
    18
420
        0
370
    25
100
AcDbLine
 10
130.4296282709882
 20
-147.0400731382742
 30
0.0
 11
129.9438885611583
 21
-146.6225606383785
 31
0.0
  0
LINE
  5
C3
330
70
100
AcDbEntity
  8
レイヤー 1
 62
    18
420
        0
370
    25
100
AcDbLine
 10
126.9459478043088
 20
-146.5153867495165
 30
0.0
 11
126.4319505951997
 21
-146.8971275827546
 31
0.0
  0
LINE
  5
C4
330
70
100
AcDbEntity
  8
レイヤー 1
 62
    18
420
        0
370
    25
100
AcDbLine
 10
127.945049723264
 20
-146.5512289717298
 30
0.0
 11
127.431017236378
 21
-146.93293452719
 31
0.0
  0
LINE
  5
C5
330
70
100
AcDbEntity
  8
レイヤー 1
 62
    18
420
        0
370
    25
100
AcDbLine
 10
127.431017236378
 20
-146.93293452719
 30
0.0
 11
126.9459478043088
 21
-146.5153867495165
 31
0.0
  0
LINE
  5
C6
330
70
100
AcDbEntity
  8
レイヤー 1
 62
    18
420
        0
370
    25
100
AcDbLine
 10
130.9436607578742
 20
-146.6580148050365
 30
0.0
 11
130.4296282709882
 21
-147.0400731382742
 31
0.0
  0
LINE
  5
C7
330
70
100
AcDbEntity
  8
レイヤー 1
 62
    18
420
        0
370
    25
100
AcDbLine
 10
126.4319505951997
 20
-146.8971275827546
 30
0.0
 11
125.9468811631304
 21
-146.4795798050811
 31
0.0
  0
LINE
  5
C8
330
70
100
AcDbEntity
  8
レイヤー 1
 62
    18
420
        0
370
    25
100
AcDbLine
 10
128.9448219199799
 20
-146.5867184161652
 30
0.0
 11
128.430789433094
 21
-146.9687767494033
 31
0.0
  0
LINE
  5
C9
330
70
100
AcDbEntity
  8
レイヤー 1
 62
    18
420
        0
370
    25
100
AcDbLine
 10
128.430789433094
 20
-146.9687767494033
 30
0.0
 11
127.945049723264
 21
-146.5512289717298
 31
0.0
  0
LINE
  5
CA
330
70
100
AcDbEntity
  8
レイヤー 1
 62
    18
420
        0
370
    25
100
AcDbLine
 10
130.9436607578742
 20
-146.6580148050365
 30
0.0
 11
130.9436607578742
 21
-147.1582536938002
 31
0.0
  0
LINE
  5
CB
330
70
100
AcDbEntity
  8
レイヤー 1
 62
    18
420
        0
370
    25
100
AcDbLine
 10
110.0525846241833
 20
-147.1582536938002
 30
0.0
 11
130.9436607578742
 21
-147.1582536938002
 31
0.0
  0
LINE
  5
CC
330
70
100
AcDbEntity
  8
レイヤー 1
 62
    18
420
        0
370
    25
100
AcDbLine
 10
119.9503646494476
 20
-146.2656200829124
 30
0.0
 11
119.4363360121264
 21
-146.6476784161501
 31
0.0
  0
LINE
  5
CD
330
70
100
AcDbEntity
  8
レイヤー 1
 62
    18
420
        0
370
    25
100
AcDbLine
 10
119.4363360121264
 20
-146.6476784161501
 30
0.0
 11
118.9512665678032
 21
-146.2298131384767
 31
0.0
  0
LINE
  5
CE
330
70
100
AcDbEntity
  8
レイヤー 1
 62
    18
420
        0
370
    25
100
AcDbLine
 10
118.9512665678032
 20
-146.2298131384767
 30
0.0
 11
118.4372693457094
 21
-146.6118714717147
 31
0.0
  0
LINE
  5
CF
330
70
100
AcDbEntity
  8
レイヤー 1
 62
    18
420
        0
370
    25
100
AcDbLine
 10
118.4372693457094
 20
-146.6118714717147
 30
0.0
 11
117.9514943458307
 21
-146.1943236940412
 31
0.0
  0
LINE
  5
D0
330
70
100
AcDbEntity
  8
レイヤー 1
 62
    18
420
        0
370
    25
100
AcDbLine
 10
117.9514943458307
 20
-146.1943236940412
 30
0.0
 11
117.4374971237369
 21
-146.5760292495015
 31
0.0
  0
LINE
  5
D1
330
70
100
AcDbEntity
  8
レイヤー 1
 62
    18
420
        0
370
    25
100
AcDbLine
 10
117.4374971237369
 20
-146.5760292495015
 30
0.0
 11
116.9524276794137
 21
-146.158481471828
 31
0.0
  0
LINE
  5
D2
330
70
100
AcDbEntity
  8
レイヤー 1
 62
    18
420
        0
370
    25
100
AcDbLine
 10
116.9524276794137
 20
-146.158481471828
 30
0.0
 11
116.4384304573205
 21
-146.540222305066
 31
0.0
  0
LINE
  5
D3
330
70
100
AcDbEntity
  8
レイヤー 1
 62
    18
420
        0
370
    25
100
AcDbLine
 10
116.4384304573205
 20
-146.540222305066
 30
0.0
 11
115.9526554574418
 21
-146.1226745273926
 31
0.0
  0
LINE
  5
D4
330
70
100
AcDbEntity
  8
レイヤー 1
 62
    18
420
        0
370
    25
100
AcDbLine
 10
115.9526554574418
 20
-146.1226745273926
 30
0.0
 11
115.4386582353479
 21
-146.5047328606303
 31
0.0
  0
LINE
  5
D5
330
70
100
AcDbEntity
  8
レイヤー 1
 62
    18
420
        0
370
    25
100
AcDbLine
 10
115.4386582353479
 20
-146.5047328606303
 30
0.0
 11
114.9535887910248
 21
-146.0871850829571
 31
0.0
  0
LINE
  5
D6
330
70
100
AcDbEntity
  8
レイヤー 1
 62
    18
420
        0
370
    25
100
AcDbLine
 10
114.9535887910248
 20
-146.0871850829571
 30
0.0
 11
114.4395915689309
 21
-146.4692434161951
 31
0.0
  0
LINE
  5
D7
330
70
100
AcDbEntity
  8
レイヤー 1
 62
    18
420
        0
370
    25
100
AcDbLine
 10
114.4395915689309
 20
-146.4692434161951
 30
0.0
 11
113.9545221246077
 21
-146.0513428607438
 31
0.0
  0
LINE
  5
D8
330
70
100
AcDbEntity
  8
レイヤー 1
 62
    18
420
        0
370
    25
100
AcDbLine
 10
113.9545221246077
 20
-146.0513428607438
 30
0.0
 11
113.4404859266396
 21
-146.4334011939818
 31
0.0
  0
LINE
  5
D9
330
70
100
AcDbEntity
  8
レイヤー 1
 62
    18
420
        0
370
    25
100
AcDbLine
 10
113.4404859266396
 20
-146.4334011939818
 30
0.0
 11
112.9547499026358
 21
-146.015853416308
 31
0.0
  0
LINE
  5
DA
330
70
100
AcDbEntity
  8
レイヤー 1
 62
    18
420
        0
370
    25
100
AcDbLine
 10
112.9547499026358
 20
-146.015853416308
 30
0.0
 11
112.440752680542
 21
-146.3975942495461
 31
0.0
  0
LINE
  5
DB
330
70
100
AcDbEntity
  8
レイヤー 1
 62
    18
420
        0
370
    25
100
AcDbLine
 10
112.440752680542
 20
-146.3975942495461
 30
0.0
 11
111.9556832362188
 21
-145.9800464718729
 31
0.0
  0
LINE
  5
DC
330
70
100
AcDbEntity
  8
レイヤー 1
 62
    18
420
        0
370
    25
100
AcDbLine
 10
111.9556832362188
 20
-145.9800464718729
 30
0.0
 11
111.4416470887453
 21
-146.3617520273329
 31
0.0
  0
LINE
  5
DD
330
70
100
AcDbEntity
  8
レイヤー 1
 62
    18
420
        0
370
    25
100
AcDbLine
 10
111.4416470887453
 20
-146.3617520273329
 30
0.0
 11
110.9559110142463
 21
-145.9442042496593
 31
0.0
  0
LINE
  5
DE
330
70
100
AcDbEntity
  8
レイヤー 1
 62
    18
420
        0
370
    25
100
AcDbLine
 10
110.8818748919204
 20
-145.8959795274495
 30
0.0
 11
109.9423415714402
 21
-145.8959795274495
 31
0.0
  0
LINE
  5
DF
330
70
100
AcDbEntity
  8
レイヤー 1
 62
    18
420
        0
370
    25
100
AcDbLine
 10
110.9421137681561
 20
-147.1582536938002
 30
0.0
 11
110.9421137681561
 21
-153.1582275811895
 31
0.0
  0
SPLINE
  5
E0
330
70
100
AcDbEntity
  8
レイヤー 1
 62
    18
420
        0
370
     9
100
AcDbSpline
210
0.0
220
0.0
230
1.0
 70
     9
 71
     3
 72
    17
 73
    13
 74
     0
 42
0.0000000001
 43
0.0000000001
 40
0.0
 40
0.0
 40
0.0
 40
0.0
 40
1.0
 40
1.0
 40
1.0
 40
2.0
 40
2.0
 40
2.0
 40
3.0
 40
3.0
 40
3.0
 40
4.0
 40
4.0
 40
4.0
 40
4.0
 10
81.04042314212295
 20
-141.8962203617826
 30
0.0
 10
81.04042314212295
 20
-141.8407636951296
 30
0.0
 10
80.99562036548819
 20
-141.7959609173632
 30
0.0
 10
80.9405193550833
 20
-141.7959609173632
 30
0.0
 10
80.88537731274517
 20
-141.7959609173632
 30
0.0
 10
80.84060981388729
 20
-141.8407636951296
 30
0.0
 10
80.84060981388729
 20
-141.8962203617826
 30
0.0
 10
80.84060981388729
 20
-141.9513242506575
 30
0.0
 10
80.88537731274517
 20
-141.9961270284242
 30
0.0
 10
80.9405193550833
 20
-141.9961270284242
 30
0.0
 10
80.99562036548819
 20
-141.9961270284242
 30
0.0
 10
81.04042314212295
 20
-141.9513242506575
 30
0.0
 10
81.04042314212295
 20
-141.8962203617826
 30
0.0
  0
CIRCLE
  5
E1
330
70
100
AcDbEntity
  8
レイヤー 1
 62
    18
420
        0
370
     9
100
AcDbCircle
 10
76.94075741338088
 20
-146.6580148050365
 30
0.0
 40
0.0999066653796162
  0
CIRCLE
  5
E2
330
70
100
AcDbEntity
  8
レイヤー 1
 62
    18
420
        0
370
     9
100
AcDbCircle
 10
76.94075741338088
 20
-147.1582536938002
 30
0.0
 40
0.0999066653796162
  0
CIRCLE
  5
E3
330
70
100
AcDbEntity
  8
レイヤー 1
 62
    18
420
        0
370
     9
100
AcDbCircle
 10
76.94075741338088
 20
-153.1582275811892
 30
0.0
 40
0.0999066653797766
  0
SPLINE
  5
E4
330
70
100
AcDbEntity
  8
レイヤー 1
 62
    18
420
        0
370
     9
100
AcDbSpline
210
0.0
220
0.0
230
1.0
 70
     9
 71
     3
 72
    17
 73
    13
 74
     0
 42
0.0000000001
 43
0.0000000001
 40
0.0
 40
0.0
 40
0.0
 40
0.0
 40
1.0
 40
1.0
 40
1.0
 40
2.0
 40
2.0
 40
2.0
 40
3.0
 40
3.0
 40
3.0
 40
4.0
 40
4.0
 40
4.0
 40
4.0
 10
102.0424126063179
 20
-141.8962203617826
 30
0.0
 10
102.0424126063179
 20
-141.8407636951296
 30
0.0
 10
101.9976098296828
 20
-141.7959609173632
 30
0.0
 10
101.9425059421997
 20
-141.7959609173632
 30
0.0
 10
101.8873667769397
 20
-141.7959609173632
 30
0.0
 10
101.8426026831911
 20
-141.8407636951296
 30
0.0
 10
101.8426026831911
 20
-141.8962203617826
 30
0.0
 10
101.8426026831911
 20
-141.9513242506575
 30
0.0
 10
101.8873667769397
 20
-141.9961270284242
 30
0.0
 10
101.9425059421997
 20
-141.9961270284242
 30
0.0
 10
101.9976098296828
 20
-141.9961270284242
 30
0.0
 10
102.0424126063179
 20
-141.9513242506575
 30
0.0
 10
102.0424126063179
 20
-141.8962203617826
 30
0.0
  0
SPLINE
  5
E5
330
70
100
AcDbEntity
  8
レイヤー 1
 62
    18
420
        0
370
     9
100
AcDbSpline
210
0.0
220
0.0
230
1.0
 70
     9
 71
     3
 72
    17
 73
    13
 74
     0
 42
0.0000000001
 43
0.0000000001
 40
0.0
 40
0.0
 40
0.0
 40
0.0
 40
1.0
 40
1.0
 40
1.0
 40
2.0
 40
2.0
 40
2.0
 40
3.0
 40
3.0
 40
3.0
 40
4.0
 40
4.0
 40
4.0
 40
4.0
 10
131.0439201997608
 20
-141.8962203617826
 30
0.0
 10
131.0439201997608
 20
-141.8407636951296
 30
0.0
 10
130.999117423126
 20
-141.7959609173632
 30
0.0
 10
130.9439782578661
 20
-141.7959609173632
 30
0.0
 10
130.8881688148454
 20
-141.7959609173632
 30
0.0
 10
130.8434054537188
 20
-141.8407636951296
 30
0.0
 10
130.8434054537188
 20
-141.8962203617826
 30
0.0
 10
130.8434054537188
 20
-141.9513242506575
 30
0.0
 10
130.8881688148454
 20
-141.9961270284242
 30
0.0
 10
130.9439782578661
 20
-141.9961270284242
 30
0.0
 10
130.999117423126
 20
-141.9961270284242
 30
0.0
 10
131.0439201997608
 20
-141.9513242506575
 30
0.0
 10
131.0439201997608
 20
-141.8962203617826
 30
0.0
  0
SPLINE
  5
E6
330
70
100
AcDbEntity
  8
レイヤー 1
 62
    18
420
        0
370
     9
100
AcDbSpline
210
0.0
220
0.0
230
1.0
 70
     9
 71
     3
 72
    17
 73
    13
 74
     0
 42
0.0000000001
 43
0.0000000001
 40
0.0
 40
0.0
 40
0.0
 40
0.0
 40
1.0
 40
1.0
 40
1.0
 40
2.0
 40
2.0
 40
2.0
 40
3.0
 40
3.0
 40
3.0
 40
4.0
 40
4.0
 40
4.0
 40
4.0
 10
110.0422482355581
 20
-141.8962203617826
 30
0.0
 10
110.0422482355581
 20
-141.8407636951296
 30
0.0
 10
109.9974807367002
 20
-141.7959609173632
 30
0.0
 10
109.9423415714402
 20
-141.7959609173632
 30
0.0
 10
109.8872376839572
 20
-141.7959609173632
 30
0.0
 10
109.8424349073224
 20
-141.8407636951296
 30
0.0
 10
109.8424349073224
 20
-141.8962203617826
 30
0.0
 10
109.8424349073224
 20
-141.9513242506575
 30
0.0
 10
109.8872376839572
 20
-141.9961270284242
 30
0.0
 10
109.9423415714402
 20
-141.9961270284242
 30
0.0
 10
109.9974807367002
 20
-141.9961270284242
 30
0.0
 10
110.0422482355581
 20
-141.9513242506575
 30
0.0
 10
110.0422482355581
 20
-141.8962203617826
 30
0.0
  0
LINE
  5
E7
330
70
100
AcDbEntity
  8
レイヤー 1
 62
    18
420
        0
370
     9
100
AcDbLine
 10
76.94075741338081
 20
-146.6580148050365
 30
0.0
 11
76.94075741338081
 21
-141.4001089730176
 31
0.0
  0
LINE
  5
E8
330
70
100
AcDbEntity
  8
レイヤー 1
 62
    18
420
        0
370
     9
100
AcDbLine
 10
76.94075741338081
 20
-146.6580148050365
 30
0.0
 11
76.94075741338081
 21
-147.1582536938002
 31
0.0
  0
LINE
  5
E9
330
70
100
AcDbEntity
  8
レイヤー 1
 62
    18
420
        0
370
     9
100
AcDbLine
 10
78.40076348724406
 20
-146.6580148050365
 30
0.0
 11
75.94063243889611
 21
-146.6580148050365
 31
0.0
  0
LINE
  5
EA
330
70
100
AcDbEntity
  8
レイヤー 1
 62
    18
420
        0
370
     9
100
AcDbLine
 10
78.40076348724406
 20
-147.1582536938002
 30
0.0
 11
75.94063243889611
 21
-147.1582536938002
 31
0.0
  0
INSERT
  5
EC
330
70
100
AcDbEntity
  8
レイヤー 1
100
AcDbBlockReference
  2
Block_1
 10
0.0
 20
0.0
 30
0.0
  0
LINE
  5
FA
330
70
100
AcDbEntity
  8
レイヤー 1
 62
    18
420
        0
370
     9
100
AcDbLine
 10
80.9405193550833
 20
-141.8962203617826
 30
0.0
 11
101.9404245533639
 21
-141.8962203617826
 31
0.0
  0
LINE
  5
FB
330
70
100
AcDbEntity
  8
レイヤー 1
 62
    18
420
        0
370
     9
100
AcDbLine
 10
80.9405193550833
 20
-144.1182970278939
 30
0.0
 11
80.9405193550833
 21
-140.8960953620326
 31
0.0
  0
INSERT
  5
FD
330
70
100
AcDbEntity
  8
レイヤー 1
100
AcDbBlockReference
  2
Block_3
 10
0.0
 20
0.0
 30
0.0
  0
LINE
  5
108
330
70
100
AcDbEntity
  8
レイヤー 1
 62
    18
420
        0
370
     9
100
AcDbLine
 10
76.94075741338081
 20
-147.1582536938002
 30
0.0
 11
76.94075741338081
 21
-153.1582275811895
 31
0.0
  0
LINE
  5
109
330
70
100
AcDbEntity
  8
レイヤー 1
 62
    18
420
        0
370
     9
100
AcDbLine
 10
98.40266657294055
 20
-153.1582275811895
 30
0.0
 11
75.94063243889611
 21
-153.1582275811895
 31
0.0
  0
INSERT
  5
10B
330
70
100
AcDbEntity
  8
レイヤー 1
100
AcDbBlockReference
  2
Block_5
 10
0.0
 20
0.0
 30
0.0
  0
LINE
  5
111
330
70
100
AcDbEntity
  8
レイヤー 1
 62
    18
420
        0
370
     9
100
AcDbLine
 10
130.9436607578742
 20
-141.8962203617826
 30
0.0
 11
109.9423415714402
 21
-141.8962203617826
 31
0.0
  0
LINE
  5
112
330
70
100
AcDbEntity
  8
レイヤー 1
 62
    18
420
        0
370
     9
100
AcDbLine
 10
130.9436607578742
 20
-144.1182970278939
 30
0.0
 11
130.9436607578742
 21
-140.8960953620326
 31
0.0
  0
INSERT
  5
114
330
70
100
AcDbEntity
  8
レイヤー 1
100
AcDbBlockReference
  2
Block_6
 10
0.0
 20
0.0
 30
0.0
  0
LINE
  5
11F
330
70
100
AcDbEntity
  8
レイヤー 1
 62
    18
420
        0
370
     9
100
AcDbLine
 10
101.9421531644309
 20
-141.8962203617826
 30
0.0
 11
109.9423415714402
 21
-141.8962203617826
 31
0.0
  0
LINE
  5
120
330
70
100
AcDbEntity
  8
レイヤー 1
 62
    18
420
        0
370
     9
100
AcDbLine
 10
101.9425059421997
 20
-143.3562617503066
 30
0.0
 11
101.9425059421997
 21
-140.8960953620326
 31
0.0
  0
LINE
  5
121
330
70
100
AcDbEntity
  8
レイヤー 1
 62
    18
420
        0
370
     9
100
AcDbLine
 10
109.9423415714402
 20
-143.3562617503066
 30
0.0
 11
109.9423415714402
 21
-140.8960953620326
 31
0.0
  0
INSERT
  5
123
330
70
100
AcDbEntity
  8
レイヤー 1
100
AcDbBlockReference
  2
Block_8
 10
0.0
 20
0.0
 30
0.0
  0
ELLIPSE
  5
12A
330
70
100
AcDbEntity
  8
レイヤー 1
 62
    18
420
        0
370
     9
100
AcDbEllipse
 10
100.942380967715
 20
-157.2716870246053
 30
0.0
 11
0.1240366635022277
 21
0.0
 31
0.0
210
0.0
220
0.0
230
1.0
 40
0.8054607711978841
 41
0.0
 42
6.283185307179586
  0
SPLINE
  5
12B
330
70
100
AcDbEntity
  8
レイヤー 1
 62
    18
420
        0
370
     9
100
AcDbSpline
210
0.0
220
0.0
230
1.0
 70
     9
 71
     3
 72
    17
 73
    13
 74
     0
 42
0.0000000001
 43
0.0000000001
 40
0.0
 40
0.0
 40
0.0
 40
0.0
 40
1.0
 40
1.0
 40
1.0
 40
2.0
 40
2.0
 40
2.0
 40
3.0
 40
3.0
 40
3.0
 40
4.0
 40
4.0
 40
4.0
 40
4.0
 10
111.066820709419
 20
-157.271687024605
 30
0.0
 10
111.066820709419
 20
-157.2165478579526
 30
0.0
 10
111.0110112663984
 20
-157.171780357964
 30
0.0
 10
110.9421137681561
 20
-157.171780357964
 30
0.0
 10
110.8732162699139
 20
-157.171780357964
 30
0.0
 10
110.8180771046539
 20
-157.2165478579526
 30
0.0
 10
110.8180771046539
 20
-157.271687024605
 30
0.0
 10
110.8180771046539
 20
-157.3267909134806
 30
0.0
 10
110.8732162699139
 20
-157.3715936912473
 30
0.0
 10
110.9421137681561
 20
-157.3715936912473
 30
0.0
 10
111.0110112663984
 20
-157.3715936912473
 30
0.0
 10
111.066820709419
 20
-157.3267909134806
 30
0.0
 10
111.066820709419
 20
-157.271687024605
 30
0.0
  0
LINE
  5
12C
330
70
100
AcDbEntity
  8
レイヤー 1
 62
    18
420
        0
370
     9
100
AcDbLine
 10
110.9421137681561
 20
-157.271687024605
 30
0.0
 11
100.942380967715
 21
-157.271687024605
 31
0.0
  0
LINE
  5
12D
330
70
100
AcDbEntity
  8
レイヤー 1
 62
    18
420
        0
370
     9
100
AcDbLine
 10
110.9424665459249
 20
-155.8116456360813
 30
0.0
 11
110.9424665459249
 21
-158.2717767465778
 31
0.0
  0
LINE
  5
12E
330
70
100
AcDbEntity
  8
レイヤー 1
 62
    18
420
        0
370
     9
100
AcDbLine
 10
100.942380967715
 20
-155.8116456360813
 30
0.0
 11
100.942380967715
 21
-158.2717767465778
 31
0.0
  0
INSERT
  5
130
330
70
100
AcDbEntity
  8
レイヤー 1
100
AcDbBlockReference
  2
Block_9
 10
0.0
 20
0.0
 30
0.0
  0
LINE
  5
13C
330
70
100
AcDbEntity
  8
レイヤー 1
 62
    18
420
        0
370
     9
100
AcDbLine
 10
108.9136415976845
 20
-150.3036203596803
 30
0.0
 11
115.9140930857548
 21
-150.3036203596803
 31
0.0
  0
INSERT
  5
13E
330
70
100
AcDbEntity
  8
レイヤー 1
100
AcDbBlockReference
  2
Block_11
 10
0.0
 20
0.0
 30
0.0
  0
INSERT
  5
144
330
70
100
AcDbEntity
  8
レイヤー 1
100
AcDbBlockReference
  2
Block_12
 10
0.0
 20
0.0
 30
0.0
  0
INSERT
  5
14B
330
70
100
AcDbEntity
  8
レイヤー 1
100
AcDbBlockReference
  2
Block_13
 10
0.0
 20
0.0
 30
0.0
  0
INSERT
  5
163
330
70
100
AcDbEntity
  8
レイヤー 1
100
AcDbBlockReference
  2
Block_15
 10
0.0
 20
0.0
 30
0.0
  0
ENDSEC
  0
SECTION
  2
OBJECTS
  0
DICTIONARY
  5
C
330
0
100
AcDbDictionary
281
     1
  3
ACAD_COLOR
350
63
  3
ACAD_DETAILVIEWSTYLE
350
6A
  3
ACAD_GROUP
350
D
  3
ACAD_LAYOUT
350
62
  3
ACAD_MATERIAL
350
10
  3
ACAD_MLEADERSTYLE
350
66
  3
ACAD_MLINESTYLE
350
5F
  3
ACAD_PLOTSETTINGS
350
61
  3
ACAD_PLOTSTYLENAME
350
E
  3
ACAD_SCALELIST
350
42
  3
ACAD_SECTIONVIEWSTYLE
350
68
  3
ACAD_TABLESTYLE
350
64
  3
ACAD_VISUALSTYLE
350
29
  3
ACDB_RECOMPOSE_DATA
350
185
  3
AcDbVariableDictionary
350
17D
  0
DICTIONARY
  5
63
102
{ACAD_REACTORS
330
C
102
}
330
C
100
AcDbDictionary
281
     1
  0
DICTIONARY
  5
6A
102
{ACAD_REACTORS
330
C
102
}
330
C
100
AcDbDictionary
281
     1
  3
Imperial24
350
6B
  0
DICTIONARY
  5
D
102
{ACAD_REACTORS
330
C
102
}
330
C
100
AcDbDictionary
281
     1
  0
DICTIONARY
  5
62
102
{ACAD_REACTORS
330
C
102
}
330
C
100
AcDbDictionary
281
     1
  3
Layout1
350
6F
  3
Layout2
350
77
  3
Model
350
73
  0
DICTIONARY
  5
10
102
{ACAD_REACTORS
330
C
102
}
330
C
100
AcDbDictionary
281
     1
  3
ByBlock
350
19
  3
ByLayer
350
11
  3
Global
350
21
  0
DICTIONARY
  5
66
102
{ACAD_REACTORS
330
C
102
}
330
C
100
AcDbDictionary
281
     1
  3
Standard
350
67
  0
DICTIONARY
  5
5F
102
{ACAD_REACTORS
330
C
102
}
330
C
100
AcDbDictionary
281
     1
  3
Standard
350
60
  0
DICTIONARY
  5
61
102
{ACAD_REACTORS
330
C
102
}
330
C
100
AcDbDictionary
281
     1
  0
ACDBDICTIONARYWDFLT
  5
E
102
{ACAD_REACTORS
330
C
102
}
330
C
100
AcDbDictionary
281
     1
  3
Normal
350
F
100
AcDbDictionaryWithDefault
340
F
  0
DICTIONARY
  5
42
102
{ACAD_REACTORS
330
C
102
}
330
C
100
AcDbDictionary
281
     1
  3
A0
350
43
  3
A1
350
44
  3
A2
350
45
  3
A3
350
46
  3
A4
350
47
  3
A5
350
48
  3
A6
350
49
  3
A7
350
4A
  3
A8
350
4B
  3
A9
350
4C
  3
B0
350
4D
  3
B1
350
4E
  3
B2
350
4F
  3
B3
350
50
  3
B4
350
51
  3
B5
350
52
  3
B6
350
53
  0
DICTIONARY
  5
68
102
{ACAD_REACTORS
330
C
102
}
330
C
100
AcDbDictionary
281
     1
  3
Imperial24
350
69
  0
DICTIONARY
  5
64
102
{ACAD_REACTORS
330
C
102
}
330
C
100
AcDbDictionary
281
     1
  3
Standard
350
65
  0
DICTIONARY
  5
29
102
{ACAD_REACTORS
330
C
102
}
330
C
100
AcDbDictionary
281
     1
  3
2dWireframe
350
2F
  3
Basic
350
2E
  3
Brighten
350
35
  3
ColorChange
350
39
  3
Conceptual
350
32
  3
Dim
350
34
  3
EdgeColorOff
350
41
  3
Facepattern
350
38
  3
Flat
350
2A
  3
FlatWithEdges
350
2B
  3
Gouraud
350
2C
  3
GouraudWithEdges
350
2D
  3
Hidden
350
31
  3
JitterOff
350
3F
  3
Linepattern
350
37
  3
OverhangOff
350
40
  3
Realistic
350
33
  3
Shaded
350
3E
  3
Shaded with edges
350
3D
  3
Shades of Gray
350
3A
  3
Sketchy
350
3B
  3
Thicken
350
36
  3
Wireframe
350
30
  3
X-Ray
350
3C
  0
XRECORD
  5
185
102
{ACAD_REACTORS
330
C
102
}
330
C
100
AcDbXrecord
280
     1
 90
        1
330
65
  0
DICTIONARY
  5
17D
102
{ACAD_REACTORS
330
C
102
}
330
C
100
AcDbDictionary
281
     1
  3
CANNOSCALE
350
182
  3
CMLEADERSTYLE
350
17F
  3
CTABLESTYLE
350
17E
  3
CVIEWDETAILSTYLE
350
180
  3
CVIEWSECTIONSTYLE
350
181
  0
ACDBDETAILVIEWSTYLE
  5
6B
102
{ACAD_XDICTIONARY
360
1BA
102
}
102
{ACAD_REACTORS
330
6A
102
}
330
6A
100
AcDbModelDocViewStyle
 70
     0
  3
Imperial24
290
     0
100
AcDbDetailViewStyle
 70
     0
 71
     0
 90
        3
 71
     1
340
55
 62
   256
 40
0.24
340
0
 62
   256
 40
0.24
300

 40
0.36
280
     3
 71
     2
340
5D
 90
       25
 62
   256
 71
     3
340
55
 62
   256
 40
0.24
 90
        1
 40
0.75
 90
        1
300
%<\AcVar ViewType \f "%tc1">% %<\AcVar ViewDetailId>%\PSCALE %<\AcVar ViewScale \f "%sn">%
 71
     4
340
5D
 90
       25
 62
   256
340
5D
 90
       25
 62
   256
280
     0
  0
LAYOUT
  5
6F
102
{ACAD_REACTORS
330
62
102
}
330
62
100
AcDbPlotSettings
  1

  2

  4

  6

 40
0.0
 41
0.0
 42
0.0
 43
0.0
 44
0.0
 45
0.0
 46
0.0
 47
0.0
 48
0.0
 49
0.0
140
0.0
141
0.0
142
1.0
143
1.0
 70
   688
 72
     0
 73
     0
 74
     5
  7

 75
    16
147
1.0
 76
     0
 77
     2
 78
   300
148
0.0
149
0.0
100
AcDbLayout
  1
Layout1
 70
     1
 71
     1
 10
0.0
 20
0.0
 11
12.0
 21
9.0
 12
0.0
 22
0.0
 32
0.0
 14
0.0
 24
0.0
 34
0.0
 15
0.0
 25
0.0
 35
0.0
146
0.0
 13
0.0
 23
0.0
 33
0.0
 16
1.0
 26
0.0
 36
0.0
 17
0.0
 27
1.0
 37
0.0
 76
     0
330
6C
  0
LAYOUT
  5
77
102
{ACAD_REACTORS
330
62
102
}
330
62
100
AcDbPlotSettings
  1

  2

  4

  6

 40
0.0
 41
0.0
 42
0.0
 43
0.0
 44
0.0
 45
0.0
 46
0.0
 47
0.0
 48
0.0
 49
0.0
140
0.0
141
0.0
142
1.0
143
1.0
 70
   688
 72
     0
 73
     0
 74
     5
  7

 75
    16
147
1.0
 76
     0
 77
     2
 78
   300
148
0.0
149
0.0
100
AcDbLayout
  1
Layout2
 70
     1
 71
     2
 10
0.0
 20
0.0
 11
12.0
 21
9.0
 12
0.0
 22
0.0
 32
0.0
 14
0.0
 24
0.0
 34
0.0
 15
0.0
 25
0.0
 35
0.0
146
0.0
 13
0.0
 23
0.0
 33
0.0
 16
1.0
 26
0.0
 36
0.0
 17
0.0
 27
1.0
 37
0.0
 76
     0
330
74
  0
LAYOUT
  5
73
102
{ACAD_REACTORS
330
62
102
}
330
62
100
AcDbPlotSettings
  1

  2

  4

  6

 40
0.0
 41
0.0
 42
0.0
 43
0.0
 44
0.0
 45
0.0
 46
0.0
 47
0.0
 48
0.0
 49
0.0
140
0.0
141
0.0
142
1.0
143
1.0
 70
  1712
 72
     0
 73
     0
 74
     0
  7

 75
     0
147
1.0
 76
     0
 77
     2
 78
   300
148
0.0
149
0.0
100
AcDbLayout
  1
Model
 70
     1
 71
     0
 10
0.0
 20
0.0
 11
12.0
 21
9.0
 12
0.0
 22
0.0
 32
0.0
 14
0.0
 24
0.0
 34
0.0
 15
0.0
 25
0.0
 35
0.0
146
0.0
 13
0.0
 23
0.0
 33
0.0
 16
1.0
 26
0.0
 36
0.0
 17
0.0
 27
1.0
 37
0.0
 76
     0
330
70
  0
MATERIAL
  5
19
102
{ACAD_XDICTIONARY
360
1A
102
}
102
{ACAD_REACTORS
330
10
102
}
330
10
100
AcDbMaterial
  1
ByBlock
 72
     0
 43
0.0208333333333333
 43
0.0
 43
0.0
 43
0.0
 43
0.0
 43
0.0208333333333333
 43
0.0
 43
0.0
 43
0.0
 43
0.0
 43
1.0
 43
0.0
 43
0.0
 43
0.0
 43
0.0
 43
1.0
 77
     0
 47
0.0208333333333333
 47
0.0
 47
0.0
 47
0.0
 47
0.0
 47
0.0208333333333333
 47
0.0
 47
0.0
 47
0.0
 47
0.0
 47
1.0
 47
0.0
 47
0.0
 47
0.0
 47
0.0
 47
1.0
171
     0
 49
0.0208333333333333
 49
0.0
 49
0.0
 49
0.0
 49
0.0
 49
0.0208333333333333
 49
0.0
 49
0.0
 49
0.0
 49
0.0
 49
1.0
 49
0.0
 49
0.0
 49
0.0
 49
0.0
 49
1.0
175
     0
142
0.0208333333333333
142
0.0
142
0.0
142
0.0
142
0.0
142
0.0208333333333333
142
0.0
142
0.0
142
0.0
142
0.0
142
1.0
142
0.0
142
0.0
142
0.0
142
0.0
142
1.0
179
     0
144
0.0208333333333333
144
0.0
144
0.0
144
0.0
144
0.0
144
0.0208333333333333
144
0.0
144
0.0
144
0.0
144
0.0
144
1.0
144
0.0
144
0.0
144
0.0
144
0.0
144
1.0
147
0.0208333333333333
147
0.0
147
0.0
147
0.0
147
0.0
147
0.0208333333333333
147
0.0
147
0.0
147
0.0
147
0.0
147
1.0
147
0.0
147
0.0
147
0.0
147
0.0
147
1.0
  0
MATERIAL
  5
11
102
{ACAD_XDICTIONARY
360
12
102
}
102
{ACAD_REACTORS
330
10
102
}
330
10
100
AcDbMaterial
  1
ByLayer
 72
     0
 43
0.0208333333333333
 43
0.0
 43
0.0
 43
0.0
 43
0.0
 43
0.0208333333333333
 43
0.0
 43
0.0
 43
0.0
 43
0.0
 43
1.0
 43
0.0
 43
0.0
 43
0.0
 43
0.0
 43
1.0
 77
     0
 47
0.0208333333333333
 47
0.0
 47
0.0
 47
0.0
 47
0.0
 47
0.0208333333333333
 47
0.0
 47
0.0
 47
0.0
 47
0.0
 47
1.0
 47
0.0
 47
0.0
 47
0.0
 47
0.0
 47
1.0
171
     0
 49
0.0208333333333333
 49
0.0
 49
0.0
 49
0.0
 49
0.0
 49
0.0208333333333333
 49
0.0
 49
0.0
 49
0.0
 49
0.0
 49
1.0
 49
0.0
 49
0.0
 49
0.0
 49
0.0
 49
1.0
175
     0
142
0.0208333333333333
142
0.0
142
0.0
142
0.0
142
0.0
142
0.0208333333333333
142
0.0
142
0.0
142
0.0
142
0.0
142
1.0
142
0.0
142
0.0
142
0.0
142
0.0
142
1.0
179
     0
144
0.0208333333333333
144
0.0
144
0.0
144
0.0
144
0.0
144
0.0208333333333333
144
0.0
144
0.0
144
0.0
144
0.0
144
1.0
144
0.0
144
0.0
144
0.0
144
0.0
144
1.0
147
0.0208333333333333
147
0.0
147
0.0
147
0.0
147
0.0
147
0.0208333333333333
147
0.0
147
0.0
147
0.0
147
0.0
147
1.0
147
0.0
147
0.0
147
0.0
147
0.0
147
1.0
  0
MATERIAL
  5
21
102
{ACAD_XDICTIONARY
360
22
102
}
102
{ACAD_REACTORS
330
10
102
}
330
10
100
AcDbMaterial
  1
Global
 72
     0
 43
0.0208333333333333
 43
0.0
 43
0.0
 43
0.0
 43
0.0
 43
0.0208333333333333
 43
0.0
 43
0.0
 43
0.0
 43
0.0
 43
1.0
 43
0.0
 43
0.0
 43
0.0
 43
0.0
 43
1.0
 77
     0
 47
0.0208333333333333
 47
0.0
 47
0.0
 47
0.0
 47
0.0
 47
0.0208333333333333
 47
0.0
 47
0.0
 47
0.0
 47
0.0
 47
1.0
 47
0.0
 47
0.0
 47
0.0
 47
0.0
 47
1.0
171
     0
 49
0.0208333333333333
 49
0.0
 49
0.0
 49
0.0
 49
0.0
 49
0.0208333333333333
 49
0.0
 49
0.0
 49
0.0
 49
0.0
 49
1.0
 49
0.0
 49
0.0
 49
0.0
 49
0.0
 49
1.0
175
     0
142
0.0208333333333333
142
0.0
142
0.0
142
0.0
142
0.0
142
0.0208333333333333
142
0.0
142
0.0
142
0.0
142
0.0
142
1.0
142
0.0
142
0.0
142
0.0
142
0.0
142
1.0
179
     0
144
0.0208333333333333
144
0.0
144
0.0
144
0.0
144
0.0
144
0.0208333333333333
144
0.0
144
0.0
144
0.0
144
0.0
144
1.0
144
0.0
144
0.0
144
0.0
144
0.0
144
1.0
147
0.0208333333333333
147
0.0
147
0.0
147
0.0
147
0.0
147
0.0208333333333333
147
0.0
147
0.0
147
0.0
147
0.0
147
1.0
147
0.0
147
0.0
147
0.0
147
0.0
147
1.0
  0
MLEADERSTYLE
  5
67
102
{ACAD_XDICTIONARY
360
1B6
102
}
102
{ACAD_REACTORS
330
66
102
}
330
66
100
AcDbMLeaderStyle
179
     2
170
     2
171
     1
172
     0
 90
        2
 40
0.0
 41
0.0
173
     1
 91
-1056964608
340
5B
 92
       -2
290
     1
 42
0.09
291
     1
 43
0.36
  3
Standard
 44
0.18
300

342
55
174
     1
178
     6
175
     1
176
     0
 93
-1056964608
 45
0.18
292
     0
297
     0
 46
0.18
 94
-1056964608
 47
1.0
 49
1.0
140
1.0
293
     1
141
0.0
294
     1
177
     0
142
1.0
295
     0
296
     0
143
0.125
271
     0
272
     9
273
     9
  0
MLINESTYLE
  5
60
102
{ACAD_REACTORS
330
5F
102
}
330
5F
100
AcDbMlineStyle
  2
STANDARD
 70
     0
  3

 62
   256
 51
90.0
 52
90.0
 71
     2
 49
0.5
 62
   256
  6
BYLAYER
 49
-0.5
 62
   256
  6
BYLAYER
  0
ACDBPLACEHOLDER
  5
F
102
{ACAD_REACTORS
330
E
102
}
330
E
  0
SCALE
  5
43
102
{ACAD_REACTORS
330
42
102
}
330
42
100
AcDbScale
 70
     0
300
1:1
140
1.0
141
1.0
290
     1
  0
SCALE
  5
44
102
{ACAD_REACTORS
330
42
102
}
330
42
100
AcDbScale
 70
     0
300
1/128" = 1'-0"
140
0.0078125
141
12.0
290
     0
  0
SCALE
  5
45
102
{ACAD_REACTORS
330
42
102
}
330
42
100
AcDbScale
 70
     0
300
1/64" = 1'-0"
140
0.015625
141
12.0
290
     0
  0
SCALE
  5
46
102
{ACAD_REACTORS
330
42
102
}
330
42
100
AcDbScale
 70
     0
300
1/32" = 1'-0"
140
0.03125
141
12.0
290
     0
  0
SCALE
  5
47
102
{ACAD_REACTORS
330
42
102
}
330
42
100
AcDbScale
 70
     0
300
1/16" = 1'-0"
140
0.0625
141
12.0
290
     0
  0
SCALE
  5
48
102
{ACAD_REACTORS
330
42
102
}
330
42
100
AcDbScale
 70
     0
300
3/32" = 1'-0"
140
0.09375
141
12.0
290
     0
  0
SCALE
  5
49
102
{ACAD_REACTORS
330
42
102
}
330
42
100
AcDbScale
 70
     0
300
1/8" = 1'-0"
140
0.125
141
12.0
290
     0
  0
SCALE
  5
4A
102
{ACAD_REACTORS
330
42
102
}
330
42
100
AcDbScale
 70
     0
300
3/16" = 1'-0"
140
0.1875
141
12.0
290
     0
  0
SCALE
  5
4B
102
{ACAD_REACTORS
330
42
102
}
330
42
100
AcDbScale
 70
     0
300
1/4" = 1'-0"
140
0.25
141
12.0
290
     0
  0
SCALE
  5
4C
102
{ACAD_REACTORS
330
42
102
}
330
42
100
AcDbScale
 70
     0
300
3/8" = 1'-0"
140
0.375
141
12.0
290
     0
  0
SCALE
  5
4D
102
{ACAD_REACTORS
330
42
102
}
330
42
100
AcDbScale
 70
     0
300
1/2" = 1'-0"
140
0.5
141
12.0
290
     0
  0
SCALE
  5
4E
102
{ACAD_REACTORS
330
42
102
}
330
42
100
AcDbScale
 70
     0
300
3/4" = 1'-0"
140
0.75
141
12.0
290
     0
  0
SCALE
  5
4F
102
{ACAD_REACTORS
330
42
102
}
330
42
100
AcDbScale
 70
     0
300
1" = 1'-0"
140
1.0
141
12.0
290
     0
  0
SCALE
  5
50
102
{ACAD_REACTORS
330
42
102
}
330
42
100
AcDbScale
 70
     0
300
1-1/2" = 1'-0"
140
1.5
141
12.0
290
     0
  0
SCALE
  5
51
102
{ACAD_REACTORS
330
42
102
}
330
42
100
AcDbScale
 70
     0
300
3" = 1'-0"
140
3.0
141
12.0
290
     0
  0
SCALE
  5
52
102
{ACAD_REACTORS
330
42
102
}
330
42
100
AcDbScale
 70
     0
300
6" = 1'-0"
140
6.0
141
12.0
290
     0
  0
SCALE
  5
53
102
{ACAD_REACTORS
330
42
102
}
330
42
100
AcDbScale
 70
     0
300
1'-0" = 1'-0"
140
12.0
141
12.0
290
     0
  0
ACDBSECTIONVIEWSTYLE
  5
69
102
{ACAD_XDICTIONARY
360
1B8
102
}
102
{ACAD_REACTORS
330
68
102
}
330
68
100
AcDbModelDocViewStyle
 70
     0
  3
Imperial24
290
     0
100
AcDbSectionViewStyle
 70
     0
 71
     0
 90
       78
 71
     1
340
55
 62
   256
 40
0.24
340
0
340
0
 62
   256
 40
0.24
300
I, O, Q, S, X, Z
 40
0.48
 90
        3
 40
0.18
 90
        1
 71
     2
340
5D
 90
       25
 62
   256
340
5D
 90
       50
 62
   256
 40
0.24
 40
0.0
 40
0.24
 71
     3
340
55
 62
   256
 40
0.24
 90
        1
 40
0.75
 90
        1
300
%<\AcVar ViewType \f "%tc1">% %<\AcVar ViewSectionStartId>%-%<\AcVar ViewSectionEndId>%\PSCALE %<\AcVar ViewScale \f "%sn">%
 71
     4
 62
   256
 62
   257
300
ANSI31
 40
1.0
 90
        0
290
     0
290
     0
 90
        6
 40
0.0
 40
1.570796326794896
 40
0.2617993877991494
 40
1.308996938995747
 40
-0.2617993877991494
 40
1.832595714594046
  0
TABLESTYLE
  5
65
102
{ACAD_XDICTIONARY
360
183
102
}
102
{ACAD_REACTORS
330
64
102
}
330
64
100
AcDbTableStyle
280
     0
  3
Standard
 70
     0
 71
     0
 40
0.06
 41
0.06
280
     0
281
     0
  7
Standard
140
0.18
170
     2
 62
     0
 63
     7
283
     0
 90
      512
 91
        0
  1

274
    -2
284
     1
 64
     0
275
    -2
285
     1
 65
     0
276
    -2
286
     1
 66
     0
277
    -2
287
     1
 67
     0
278
    -2
288
     1
 68
     0
279
    -2
289
     1
 69
     0
  7
Standard
140
0.25
170
     5
 62
     0
 63
     7
283
     0
 90
      512
 91
        0
  1

274
    -2
284
     1
 64
     0
275
    -2
285
     1
 65
     0
276
    -2
286
     1
 66
     0
277
    -2
287
     1
 67
     0
278
    -2
288
     1
 68
     0
279
    -2
289
     1
 69
     0
  7
Standard
140
0.18
170
     5
 62
     0
 63
     7
283
     0
 90
      512
 91
        0
  1

274
    -2
284
     1
 64
     0
275
    -2
285
     1
 65
     0
276
    -2
286
     1
 66
     0
277
    -2
287
     1
 67
     0
278
    -2
288
     1
 68
     0
279
    -2
289
     1
 69
     0
  0
VISUALSTYLE
  5
2F
102
{ACAD_XDICTIONARY
360
190
102
}
102
{ACAD_REACTORS
330
29
102
}
330
29
100
AcDbVisualStyle
  2
2dWireframe
 70
     4
177
     2
291
     0
 71
     0
176
     1
 72
     2
176
     1
 73
     0
176
     1
 90
        0
176
     1
 40
0.6
176
     1
 41
30.0
176
     1
 63
     7
421
 16777215
176
     1
 74
     1
176
     1
 91
        4
176
     1
 64
     7
176
     1
 65
   257
176
     1
 75
     1
176
     1
175
     1
176
     1
 42
1.0
176
     1
 92
        0
176
     1
 66
   257
176
     1
 43
1.0
176
     1
 76
     1
176
     1
 77
     6
176
     1
 78
     2
176
     1
 67
     7
176
     1
 79
     5
176
     1
170
     0
176
     1
171
     0
176
     1
290
     0
176
     1
 93
        1
176
     1
 44
0.0
176
     1
173
     0
176
     1
1001
ACAD
1000
AcDbSavedByObjectVersion
1070
     0
  0
VISUALSTYLE
  5
2E
102
{ACAD_XDICTIONARY
360
18E
102
}
102
{ACAD_REACTORS
330
29
102
}
330
29
100
AcDbVisualStyle
  2
Basic
 70
     7
177
     2
291
     1
 71
     1
176
     1
 72
     0
176
     1
 73
     1
176
     1
 90
        0
176
     1
 40
0.6
176
     1
 41
30.0
176
     1
 63
     7
421
 16777215
176
     1
 74
     0
176
     1
 91
        4
176
     1
 64
     7
176
     1
 65
   257
176
     1
 75
     1
176
     1
175
     1
176
     1
 42
1.0
176
     1
 92
        8
176
     1
 66
     7
176
     1
 43
1.0
176
     1
 76
     1
176
     1
 77
     6
176
     1
 78
     2
176
     1
 67
     7
176
     1
 79
     5
176
     1
170
     0
176
     1
171
     0
176
     1
290
     0
176
     1
 93
        1
176
     1
 44
0.0
176
     1
173
     0
176
     1
1001
ACAD
1000
AcDbSavedByObjectVersion
1070
     0
  0
VISUALSTYLE
  5
35
102
{ACAD_XDICTIONARY
360
19C
102
}
102
{ACAD_REACTORS
330
29
102
}
330
29
100
AcDbVisualStyle
  2
Brighten
 70
    12
177
     2
291
     1
 71
     2
176
     1
 72
     2
176
     1
 73
     0
176
     1
 90
        0
176
     1
 40
0.6
176
     1
 41
30.0
176
     1
 63
     7
421
 16777215
176
     1
 74
     1
176
     1
 91
        4
176
     1
 64
     7
176
     1
 65
   257
176
     1
 75
     1
176
     1
175
     1
176
     1
 42
1.0
176
     1
 92
        8
176
     1
 66
     7
176
     1
 43
1.0
176
     1
 76
     1
176
     1
 77
     6
176
     1
 78
     2
176
     1
 67
     7
176
     1
 79
     5
176
     1
170
     0
176
     1
171
     0
176
     1
290
     0
176
     1
 93
        1
176
     1
 44
50.0
176
     1
173
     0
176
     1
1001
ACAD
1000
AcDbSavedByObjectVersion
1070
     0
  0
VISUALSTYLE
  5
39
102
{ACAD_XDICTIONARY
360
1A4
102
}
102
{ACAD_REACTORS
330
29
102
}
330
29
100
AcDbVisualStyle
  2
ColorChange
 70
    16
177
     2
291
     1
 71
     2
176
     1
 72
     2
176
     1
 73
     3
176
     1
 90
        0
176
     1
 40
0.6
176
     1
 41
30.0
176
     1
 63
     8
421
  8421504
176
     1
 74
     1
176
     1
 91
        4
176
     1
 64
     7
176
     1
 65
   257
176
     1
 75
     1
176
     1
175
     1
176
     1
 42
1.0
176
     1
 92
        8
176
     1
 66
     8
424
  8421504
176
     1
 43
1.0
176
     1
 76
     1
176
     1
 77
     6
176
     1
 78
     2
176
     1
 67
     7
176
     1
 79
     5
176
     1
170
     0
176
     1
171
     0
176
     1
290
     0
176
     1
 93
        1
176
     1
 44
0.0
176
     1
173
     0
176
     1
1001
ACAD
1000
AcDbSavedByObjectVersion
1070
     0
  0
VISUALSTYLE
  5
32
102
{ACAD_XDICTIONARY
360
196
102
}
102
{ACAD_REACTORS
330
29
102
}
330
29
100
AcDbVisualStyle
  2
Conceptual
 70
     9
177
     2
291
     0
 71
     3
176
     1
 72
     2
176
     1
 73
     0
176
     1
 90
        0
176
     1
 40
0.6
176
     1
 41
30.0
176
     1
 63
     7
421
 16777215
176
     1
 74
     2
176
     1
 91
        2
176
     1
 64
     7
176
     1
 65
   257
176
     1
 75
     1
176
     1
175
     1
176
     1
 42
179.0
176
     1
 92
        8
176
     1
 66
     7
176
     1
 43
1.0
176
     1
 76
     1
176
     1
 77
     6
176
     1
 78
     2
176
     1
 67
     7
176
     1
 79
     3
176
     1
170
     0
176
     1
171
     0
176
     1
290
     0
176
     1
 93
        1
176
     1
 44
0.0
176
     1
173
     0
176
     1
1001
ACAD
1000
AcDbSavedByObjectVersion
1070
     0
  0
VISUALSTYLE
  5
34
102
{ACAD_XDICTIONARY
360
19A
102
}
102
{ACAD_REACTORS
330
29
102
}
330
29
100
AcDbVisualStyle
  2
Dim
 70
    11
177
     2
291
     1
 71
     2
176
     1
 72
     2
176
     1
 73
     0
176
     1
 90
        0
176
     1
 40
0.6
176
     1
 41
30.0
176
     1
 63
     7
421
 16777215
176
     1
 74
     1
176
     1
 91
        4
176
     1
 64
     7
176
     1
 65
   257
176
     1
 75
     1
176
     1
175
     1
176
     1
 42
1.0
176
     1
 92
        8
176
     1
 66
     7
176
     1
 43
1.0
176
     1
 76
     1
176
     1
 77
     6
176
     1
 78
     2
176
     1
 67
     7
176
     1
 79
     5
176
     1
170
     0
176
     1
171
     0
176
     1
290
     0
176
     1
 93
        1
176
     1
 44
-50.0
176
     1
173
     0
176
     1
1001
ACAD
1000
AcDbSavedByObjectVersion
1070
     0
  0
VISUALSTYLE
  5
41
102
{ACAD_XDICTIONARY
360
1B4
102
}
102
{ACAD_REACTORS
330
29
102
}
330
29
100
AcDbVisualStyle
  2
EdgeColorOff
 70
    22
177
     2
291
     1
 71
     2
176
     0
 72
     2
176
     0
 73
     0
176
     0
 90
        0
176
     0
 40
0.6
176
     0
 41
30.0
176
     0
 63
     7
421
 16777215
176
     0
 74
     1
176
     0
 91
        4
176
     0
 64
     7
176
     0
 65
   257
176
     0
 75
     1
176
     0
175
     1
176
     0
 42
1.0
176
     0
 92
        8
176
     2
 66
     7
176
     0
 43
1.0
176
     0
 76
     1
176
     0
 77
     6
176
     0
 78
     2
176
     0
 67
     7
176
     0
 79
     5
176
     0
170
     0
176
     0
171
     0
176
     0
290
     0
176
     0
 93
        1
176
     0
 44
0.0
176
     0
173
     0
176
     0
1001
ACAD
1000
AcDbSavedByObjectVersion
1070
     0
  0
VISUALSTYLE
  5
38
102
{ACAD_XDICTIONARY
360
1A2
102
}
102
{ACAD_REACTORS
330
29
102
}
330
29
100
AcDbVisualStyle
  2
Facepattern
 70
    15
177
     2
291
     1
 71
     2
176
     1
 72
     2
176
     1
 73
     0
176
     1
 90
        0
176
     1
 40
0.6
176
     1
 41
30.0
176
     1
 63
     7
421
 16777215
176
     1
 74
     1
176
     1
 91
        4
176
     1
 64
     7
176
     1
 65
   257
176
     1
 75
     1
176
     1
175
     1
176
     1
 42
1.0
176
     1
 92
        8
176
     1
 66
     7
176
     1
 43
1.0
176
     1
 76
     1
176
     1
 77
     6
176
     1
 78
     2
176
     1
 67
     7
176
     1
 79
     5
176
     1
170
     0
176
     1
171
     0
176
     1
290
     0
176
     1
 93
        1
176
     1
 44
0.0
176
     1
173
     0
176
     1
1001
ACAD
1000
AcDbSavedByObjectVersion
1070
     0
  0
VISUALSTYLE
  5
2A
102
{ACAD_XDICTIONARY
360
186
102
}
102
{ACAD_REACTORS
330
29
102
}
330
29
100
AcDbVisualStyle
  2
Flat
 70
     0
177
     2
291
     1
 71
     2
176
     1
 72
     1
176
     1
 73
     1
176
     1
 90
        2
176
     1
 40
0.6
176
     1
 41
30.0
176
     1
 63
     7
421
 16777215
176
     1
 74
     0
176
     1
 91
        0
176
     1
 64
     7
176
     1
 65
   257
176
     1
 75
     1
176
     1
175
     1
176
     1
 42
1.0
176
     1
 92
        8
176
     1
 66
     7
176
     1
 43
1.0
176
     1
 76
     1
176
     1
 77
     6
176
     1
 78
     2
176
     1
 67
     7
176
     1
 79
     5
176
     1
170
     0
176
     1
171
     0
176
     1
290
     0
176
     1
 93
       13
176
     1
 44
0.0
176
     1
173
     0
176
     1
1001
ACAD
1000
AcDbSavedByObjectVersion
1070
     0
  0
VISUALSTYLE
  5
2B
102
{ACAD_XDICTIONARY
360
188
102
}
102
{ACAD_REACTORS
330
29
102
}
330
29
100
AcDbVisualStyle
  2
FlatWithEdges
 70
     1
177
     2
291
     1
 71
     2
176
     1
 72
     1
176
     1
 73
     1
176
     1
 90
        2
176
     1
 40
0.6
176
     1
 41
30.0
176
     1
 63
     7
421
 16777215
176
     1
 74
     1
176
     1
 91
        0
176
     1
 64
     7
176
     1
 65
   257
176
     1
 75
     1
176
     1
175
     1
176
     1
 42
1.0
176
     1
 92
        0
176
     1
 66
   257
176
     1
 43
1.0
176
     1
 76
     1
176
     1
 77
     6
176
     1
 78
     2
176
     1
 67
     7
176
     1
 79
     5
176
     1
170
     0
176
     1
171
     0
176
     1
290
     0
176
     1
 93
       13
176
     1
 44
0.0
176
     1
173
     0
176
     1
1001
ACAD
1000
AcDbSavedByObjectVersion
1070
     0
  0
VISUALSTYLE
  5
2C
102
{ACAD_XDICTIONARY
360
18A
102
}
102
{ACAD_REACTORS
330
29
102
}
330
29
100
AcDbVisualStyle
  2
Gouraud
 70
     2
177
     2
291
     1
 71
     2
176
     1
 72
     2
176
     1
 73
     1
176
     1
 90
        2
176
     1
 40
0.6
176
     1
 41
30.0
176
     1
 63
     7
421
 16777215
176
     1
 74
     0
176
     1
 91
        0
176
     1
 64
     7
176
     1
 65
   257
176
     1
 75
     1
176
     1
175
     1
176
     1
 42
1.0
176
     1
 92
        0
176
     1
 66
     7
176
     1
 43
1.0
176
     1
 76
     1
176
     1
 77
     6
176
     1
 78
     2
176
     1
 67
     7
176
     1
 79
     5
176
     1
170
     0
176
     1
171
     0
176
     1
290
     0
176
     1
 93
       13
176
     1
 44
0.0
176
     1
173
     0
176
     1
1001
ACAD
1000
AcDbSavedByObjectVersion
1070
     0
  0
VISUALSTYLE
  5
2D
102
{ACAD_XDICTIONARY
360
18C
102
}
102
{ACAD_REACTORS
330
29
102
}
330
29
100
AcDbVisualStyle
  2
GouraudWithEdges
 70
     3
177
     2
291
     1
 71
     2
176
     1
 72
     2
176
     1
 73
     1
176
     1
 90
        2
176
     1
 40
0.6
176
     1
 41
30.0
176
     1
 63
     7
421
 16777215
176
     1
 74
     1
176
     1
 91
        0
176
     1
 64
     7
176
     1
 65
   257
176
     1
 75
     1
176
     1
175
     1
176
     1
 42
1.0
176
     1
 92
        0
176
     1
 66
   257
176
     1
 43
1.0
176
     1
 76
     1
176
     1
 77
     6
176
     1
 78
     2
176
     1
 67
     7
176
     1
 79
     5
176
     1
170
     0
176
     1
171
     0
176
     1
290
     0
176
     1
 93
       13
176
     1
 44
0.0
176
     1
173
     0
176
     1
1001
ACAD
1000
AcDbSavedByObjectVersion
1070
     0
  0
VISUALSTYLE
  5
31
102
{ACAD_XDICTIONARY
360
194
102
}
102
{ACAD_REACTORS
330
29
102
}
330
29
100
AcDbVisualStyle
  2
Hidden
 70
     6
177
     2
291
     0
 71
     1
176
     1
 72
     2
176
     1
 73
     2
176
     1
 90
        0
176
     1
 40
0.6
176
     1
 41
30.0
176
     1
 63
     7
421
 16777215
176
     1
 74
     2
176
     1
 91
        2
176
     1
 64
     7
176
     1
 65
   257
176
     1
 75
     2
176
     1
175
     1
176
     1
 42
40.0
176
     1
 92
        0
176
     1
 66
   257
176
     1
 43
1.0
176
     1
 76
     1
176
     1
 77
     6
176
     1
 78
     2
176
     1
 67
     7
176
     1
 79
     3
176
     1
170
     0
176
     1
171
     0
176
     1
290
     0
176
     1
 93
        1
176
     1
 44
0.0
176
     1
173
     0
176
     1
1001
ACAD
1000
AcDbSavedByObjectVersion
1070
     0
  0
VISUALSTYLE
  5
3F
102
{ACAD_XDICTIONARY
360
1B0
102
}
102
{ACAD_REACTORS
330
29
102
}
330
29
100
AcDbVisualStyle
  2
JitterOff
 70
    20
177
     2
291
     1
 71
     2
176
     0
 72
     2
176
     0
 73
     0
176
     0
 90
        0
176
     0
 40
0.6
176
     0
 41
30.0
176
     0
 63
     7
421
 16777215
176
     0
 74
     1
176
     0
 91
        4
176
     0
 64
     7
176
     0
 65
   257
176
     0
 75
     1
176
     0
175
     1
176
     0
 42
1.0
176
     0
 92
       10
176
     2
 66
     7
176
     0
 43
1.0
176
     0
 76
     1
176
     0
 77
     6
176
     0
 78
     2
176
     0
 67
     7
176
     0
 79
     5
176
     0
170
     0
176
     0
171
     0
176
     0
290
     0
176
     0
 93
        1
176
     0
 44
0.0
176
     0
173
     0
176
     0
1001
ACAD
1000
AcDbSavedByObjectVersion
1070
     0
  0
VISUALSTYLE
  5
37
102
{ACAD_XDICTIONARY
360
1A0
102
}
102
{ACAD_REACTORS
330
29
102
}
330
29
100
AcDbVisualStyle
  2
Linepattern
 70
    14
177
     2
291
     1
 71
     2
176
     1
 72
     2
176
     1
 73
     0
176
     1
 90
        0
176
     1
 40
0.6
176
     1
 41
30.0
176
     1
 63
     7
421
 16777215
176
     1
 74
     1
176
     1
 91
        4
176
     1
 64
     7
176
     1
 65
   257
176
     1
 75
     7
176
     1
175
     7
176
     1
 42
1.0
176
     1
 92
        8
176
     1
 66
     7
176
     1
 43
1.0
176
     1
 76
     1
176
     1
 77
     6
176
     1
 78
     2
176
     1
 67
     7
176
     1
 79
     5
176
     1
170
     0
176
     1
171
     0
176
     1
290
     0
176
     1
 93
        1
176
     1
 44
0.0
176
     1
173
     0
176
     1
1001
ACAD
1000
AcDbSavedByObjectVersion
1070
     0
  0
VISUALSTYLE
  5
40
102
{ACAD_XDICTIONARY
360
1B2
102
}
102
{ACAD_REACTORS
330
29
102
}
330
29
100
AcDbVisualStyle
  2
OverhangOff
 70
    21
177
     2
291
     1
 71
     2
176
     0
 72
     2
176
     0
 73
     0
176
     0
 90
        0
176
     0
 40
0.6
176
     0
 41
30.0
176
     0
 63
     7
421
 16777215
176
     0
 74
     1
176
     0
 91
        4
176
     0
 64
     7
176
     0
 65
   257
176
     0
 75
     1
176
     0
175
     1
176
     0
 42
1.0
176
     0
 92
        9
176
     2
 66
     7
176
     0
 43
1.0
176
     0
 76
     1
176
     0
 77
     6
176
     0
 78
     2
176
     0
 67
     7
176
     0
 79
     5
176
     0
170
     0
176
     0
171
     0
176
     0
290
     0
176
     0
 93
        1
176
     0
 44
0.0
176
     0
173
     0
176
     0
1001
ACAD
1000
AcDbSavedByObjectVersion
1070
     0
  0
VISUALSTYLE
  5
33
102
{ACAD_XDICTIONARY
360
198
102
}
102
{ACAD_REACTORS
330
29
102
}
330
29
100
AcDbVisualStyle
  2
Realistic
 70
     8
177
     2
291
     0
 71
     2
176
     1
 72
     3
176
     1
 73
     0
176
     1
 90
        2
176
     1
 40
0.6
176
     1
 41
30.0
176
     1
 63
     7
421
 16777215
176
     1
 74
     0
176
     1
 91
        0
176
     1
 64
     7
176
     1
 65
   257
176
     1
 75
     1
176
     1
175
     1
176
     1
 42
1.0
176
     1
 92
        8
176
     1
 66
   257
176
     1
 43
1.0
176
     1
 76
     1
176
     1
 77
     6
176
     1
 78
     2
176
     1
 67
     7
176
     1
 79
     3
176
     1
170
     0
176
     1
171
     0
176
     1
290
     0
176
     1
 93
       13
176
     1
 44
0.0
176
     1
173
     0
176
     1
1001
ACAD
1000
AcDbSavedByObjectVersion
1070
     0
  0
VISUALSTYLE
  5
3E
102
{ACAD_XDICTIONARY
360
1AE
102
}
102
{ACAD_REACTORS
330
29
102
}
330
29
100
AcDbVisualStyle
  2
Shaded
 70
    27
177
     2
291
     0
 71
     2
176
     1
 72
     2
176
     1
 73
     1
176
     1
 90
        2
176
     1
 40
0.6
176
     1
 41
30.0
176
     1
 63
     7
421
 16777215
176
     1
 74
     0
176
     1
 91
        4
176
     1
 64
     7
176
     1
 65
   257
176
     1
 75
     1
176
     1
175
     1
176
     1
 42
1.0
176
     1
 92
        8
176
     1
 66
   257
176
     1
 43
1.0
176
     1
 76
     1
176
     1
 77
     6
176
     1
 78
     2
176
     1
 67
     8
425
  7895160
176
     1
 79
     3
176
     1
170
     0
176
     1
171
     0
176
     1
290
     0
176
     1
 93
        5
176
     1
 44
0.0
176
     1
173
     0
176
     1
1001
ACAD
1000
AcDbSavedByObjectVersion
1070
     0
  0
VISUALSTYLE
  5
3D
102
{ACAD_XDICTIONARY
360
1AC
102
}
102
{ACAD_REACTORS
330
29
102
}
330
29
100
AcDbVisualStyle
  2
Shaded with edges
 70
    26
177
     2
291
     0
 71
     2
176
     1
 72
     2
176
     1
 73
     1
176
     1
 90
        2
176
     1
 40
0.6
176
     1
 41
30.0
176
     1
 63
     7
421
 16777215
176
     1
 74
     1
176
     1
 91
        2
176
     1
 64
     7
176
     1
 65
   257
176
     1
 75
     2
176
     1
175
     1
176
     1
 42
1.0
176
     1
 92
        8
176
     1
 66
   257
176
     1
 43
1.0
176
     1
 76
     1
176
     1
 77
     6
176
     1
 78
     2
176
     1
 67
     7
176
     1
 79
     3
176
     1
170
     0
176
     1
171
     0
176
     1
290
     0
176
     1
 93
        5
176
     1
 44
0.0
176
     1
173
     0
176
     1
1001
ACAD
1000
AcDbSavedByObjectVersion
1070
     0
  0
VISUALSTYLE
  5
3A
102
{ACAD_XDICTIONARY
360
1A6
102
}
102
{ACAD_REACTORS
330
29
102
}
330
29
100
AcDbVisualStyle
  2
Shades of Gray
 70
    23
177
     2
291
     0
 71
     2
176
     1
 72
     2
176
     1
 73
     3
176
     1
 90
        0
176
     1
 40
0.6
176
     1
 41
30.0
176
     1
 63
     7
421
 16777215
176
     1
 74
     2
176
     1
 91
        2
176
     1
 64
     7
176
     1
 65
     7
176
     1
 75
     1
176
     1
175
     1
176
     1
 42
40.0
176
     1
 92
        8
176
     1
 66
     7
176
     1
 43
1.0
176
     1
 76
     1
176
     1
 77
     6
176
     1
 78
     2
176
     1
 67
     7
176
     1
 79
     3
176
     1
170
     0
176
     1
171
     0
176
     1
290
     0
176
     1
 93
        1
176
     1
 44
0.0
176
     1
173
     0
176
     1
1001
ACAD
1000
AcDbSavedByObjectVersion
1070
     0
  0
VISUALSTYLE
  5
3B
102
{ACAD_XDICTIONARY
360
1A8
102
}
102
{ACAD_REACTORS
330
29
102
}
330
29
100
AcDbVisualStyle
  2
Sketchy
 70
    24
177
     2
291
     0
 71
     1
176
     1
 72
     2
176
     1
 73
     2
176
     1
 90
        0
176
     1
 40
0.6
176
     1
 41
30.0
176
     1
 63
     7
421
 16777215
176
     1
 74
     2
176
     1
 91
        2
176
     1
 64
     7
176
     1
 65
     7
176
     1
 75
     1
176
     1
175
     1
176
     1
 42
40.0
176
     1
 92
       11
176
     1
 66
     7
176
     1
 43
1.0
176
     1
 76
     1
176
     1
 77
     6
176
     1
 78
     2
176
     1
 67
     7
176
     1
 79
     6
176
     1
170
     0
176
     1
171
     0
176
     1
290
     0
176
     1
 93
        1
176
     1
 44
0.0
176
     1
173
     0
176
     1
1001
ACAD
1000
AcDbSavedByObjectVersion
1070
     0
  0
VISUALSTYLE
  5
36
102
{ACAD_XDICTIONARY
360
19E
102
}
102
{ACAD_REACTORS
330
29
102
}
330
29
100
AcDbVisualStyle
  2
Thicken
 70
    13
177
     2
291
     1
 71
     2
176
     1
 72
     2
176
     1
 73
     0
176
     1
 90
        0
176
     1
 40
0.6
176
     1
 41
30.0
176
     1
 63
     7
421
 16777215
176
     1
 74
     1
176
     1
 91
        4
176
     1
 64
     7
176
     1
 65
   257
176
     1
 75
     1
176
     1
175
     1
176
     1
 42
1.0
176
     1
 92
       12
176
     1
 66
     7
176
     1
 43
1.0
176
     1
 76
     1
176
     1
 77
     6
176
     1
 78
     2
176
     1
 67
     7
176
     1
 79
     5
176
     1
170
     0
176
     1
171
     0
176
     1
290
     0
176
     1
 93
        1
176
     1
 44
0.0
176
     1
173
     0
176
     1
1001
ACAD
1000
AcDbSavedByObjectVersion
1070
     0
  0
VISUALSTYLE
  5
30
102
{ACAD_XDICTIONARY
360
192
102
}
102
{ACAD_REACTORS
330
29
102
}
330
29
100
AcDbVisualStyle
  2
Wireframe
 70
     5
177
     2
291
     0
 71
     0
176
     1
 72
     2
176
     1
 73
     0
176
     1
 90
        0
176
     1
 40
0.6
176
     1
 41
30.0
176
     1
 63
     7
421
 16777215
176
     1
 74
     1
176
     1
 91
        4
176
     1
 64
     7
176
     1
 65
   257
176
     1
 75
     1
176
     1
175
     1
176
     1
 42
1.0
176
     1
 92
        0
176
     1
 66
   257
176
     1
 43
1.0
176
     1
 76
     1
176
     1
 77
     6
176
     1
 78
     2
176
     1
 67
     7
176
     1
 79
     3
176
     1
170
     0
176
     1
171
     0
176
     1
290
     0
176
     1
 93
        1
176
     1
 44
0.0
176
     1
173
     0
176
     1
1001
ACAD
1000
AcDbSavedByObjectVersion
1070
     0
  0
VISUALSTYLE
  5
3C
102
{ACAD_XDICTIONARY
360
1AA
102
}
102
{ACAD_REACTORS
330
29
102
}
330
29
100
AcDbVisualStyle
  2
X-Ray
 70
    25
177
     2
291
     0
 71
     2
176
     1
 72
     2
176
     1
 73
     1
176
     1
 90
        1
176
     1
 40
0.5
176
     1
 41
30.0
176
     1
 63
     7
421
 16777215
176
     1
 74
     1
176
     1
 91
        0
176
     1
 64
     7
176
     1
 65
   257
176
     1
 75
     1
176
     1
175
     1
176
     1
 42
1.0
176
     1
 92
        8
176
     1
 66
     7
176
     1
 43
1.0
176
     1
 76
     1
176
     1
 77
     6
176
     1
 78
     2
176
     1
 67
     7
176
     1
 79
     3
176
     1
170
     0
176
     1
171
     0
176
     1
290
     0
176
     1
 93
       13
176
     1
 44
0.0
176
     1
173
     0
176
     1
1001
ACAD
1000
AcDbSavedByObjectVersion
1070
     0
  0
DICTIONARYVAR
  5
182
102
{ACAD_REACTORS
330
17D
102
}
330
17D
100
DictionaryVariables
280
     0
  1
1:1
  0
DICTIONARYVAR
  5
17F
102
{ACAD_REACTORS
330
17D
102
}
330
17D
100
DictionaryVariables
280
     0
  1
STANDARD
  0
DICTIONARYVAR
  5
17E
102
{ACAD_REACTORS
330
17D
102
}
330
17D
100
DictionaryVariables
280
     0
  1
STANDARD
  0
DICTIONARYVAR
  5
180
102
{ACAD_REACTORS
330
17D
102
}
330
17D
100
DictionaryVariables
280
     0
  1
Imperial24
  0
DICTIONARYVAR
  5
181
102
{ACAD_REACTORS
330
17D
102
}
330
17D
100
DictionaryVariables
280
     0
  1
Imperial24
  0
DICTIONARY
  5
1BA
330
6B
100
AcDbDictionary
280
     1
281
     1
  3
ACAD_XREC_ROUNDTRIP
360
1BB
  0
DICTIONARY
  5
1A
330
19
100
AcDbDictionary
280
     1
281
     1
  3
BUMPTILE
360
1C
  3
DIFFUSETILE
360
1B
  3
OPACITYTILE
360
1F
  3
REFLECTIONTILE
360
1E
  3
REFRACTIONTILE
360
20
  3
SPECULARTILE
360
1D
  0
DICTIONARY
  5
12
330
11
100
AcDbDictionary
280
     1
281
     1
  3
BUMPTILE
360
14
  3
DIFFUSETILE
360
13
  3
OPACITYTILE
360
17
  3
REFLECTIONTILE
360
16
  3
REFRACTIONTILE
360
18
  3
SPECULARTILE
360
15
  0
DICTIONARY
  5
22
330
21
100
AcDbDictionary
280
     1
281
     1
  3
BUMPTILE
360
24
  3
DIFFUSETILE
360
23
  3
OPACITYTILE
360
27
  3
REFLECTIONTILE
360
26
  3
REFRACTIONTILE
360
28
  3
SPECULARTILE
360
25
  0
DICTIONARY
  5
1B6
330
67
100
AcDbDictionary
280
     1
281
     1
  3
ACAD_XREC_ROUNDTRIP
360
1B7
  0
DICTIONARY
  5
1B8
330
69
100
AcDbDictionary
280
     1
281
     1
  3
ACAD_XREC_ROUNDTRIP
360
1B9
  0
DICTIONARY
  5
183
330
65
100
AcDbDictionary
280
     1
281
     1
  3
ACAD_ROUNDTRIP_2008_TABLESTYLE_CELLSTYLEMAP
360
184
  0
DICTIONARY
  5
190
330
2F
100
AcDbDictionary
280
     1
281
     1
  3
ACAD_XREC_ROUNDTRIP
360
191
  0
DICTIONARY
  5
18E
330
2E
100
AcDbDictionary
280
     1
281
     1
  3
ACAD_XREC_ROUNDTRIP
360
18F
  0
DICTIONARY
  5
19C
330
35
100
AcDbDictionary
280
     1
281
     1
  3
ACAD_XREC_ROUNDTRIP
360
19D
  0
DICTIONARY
  5
1A4
330
39
100
AcDbDictionary
280
     1
281
     1
  3
ACAD_XREC_ROUNDTRIP
360
1A5
  0
DICTIONARY
  5
196
330
32
100
AcDbDictionary
280
     1
281
     1
  3
ACAD_XREC_ROUNDTRIP
360
197
  0
DICTIONARY
  5
19A
330
34
100
AcDbDictionary
280
     1
281
     1
  3
ACAD_XREC_ROUNDTRIP
360
19B
  0
DICTIONARY
  5
1B4
330
41
100
AcDbDictionary
280
     1
281
     1
  3
ACAD_XREC_ROUNDTRIP
360
1B5
  0
DICTIONARY
  5
1A2
330
38
100
AcDbDictionary
280
     1
281
     1
  3
ACAD_XREC_ROUNDTRIP
360
1A3
  0
DICTIONARY
  5
186
330
2A
100
AcDbDictionary
280
     1
281
     1
  3
ACAD_XREC_ROUNDTRIP
360
187
  0
DICTIONARY
  5
188
330
2B
100
AcDbDictionary
280
     1
281
     1
  3
ACAD_XREC_ROUNDTRIP
360
189
  0
DICTIONARY
  5
18A
330
2C
100
AcDbDictionary
280
     1
281
     1
  3
ACAD_XREC_ROUNDTRIP
360
18B
  0
DICTIONARY
  5
18C
330
2D
100
AcDbDictionary
280
     1
281
     1
  3
ACAD_XREC_ROUNDTRIP
360
18D
  0
DICTIONARY
  5
194
330
31
100
AcDbDictionary
280
     1
281
     1
  3
ACAD_XREC_ROUNDTRIP
360
195
  0
DICTIONARY
  5
1B0
330
3F
100
AcDbDictionary
280
     1
281
     1
  3
ACAD_XREC_ROUNDTRIP
360
1B1
  0
DICTIONARY
  5
1A0
330
37
100
AcDbDictionary
280
     1
281
     1
  3
ACAD_XREC_ROUNDTRIP
360
1A1
  0
DICTIONARY
  5
1B2
330
40
100
AcDbDictionary
280
     1
281
     1
  3
ACAD_XREC_ROUNDTRIP
360
1B3
  0
DICTIONARY
  5
198
330
33
100
AcDbDictionary
280
     1
281
     1
  3
ACAD_XREC_ROUNDTRIP
360
199
  0
DICTIONARY
  5
1AE
330
3E
100
AcDbDictionary
280
     1
281
     1
  3
ACAD_XREC_ROUNDTRIP
360
1AF
  0
DICTIONARY
  5
1AC
330
3D
100
AcDbDictionary
280
     1
281
     1
  3
ACAD_XREC_ROUNDTRIP
360
1AD
  0
DICTIONARY
  5
1A6
330
3A
100
AcDbDictionary
280
     1
281
     1
  3
ACAD_XREC_ROUNDTRIP
360
1A7
  0
DICTIONARY
  5
1A8
330
3B
100
AcDbDictionary
280
     1
281
     1
  3
ACAD_XREC_ROUNDTRIP
360
1A9
  0
DICTIONARY
  5
19E
330
36
100
AcDbDictionary
280
     1
281
     1
  3
ACAD_XREC_ROUNDTRIP
360
19F
  0
DICTIONARY
  5
192
330
30
100
AcDbDictionary
280
     1
281
     1
  3
ACAD_XREC_ROUNDTRIP
360
193
  0
DICTIONARY
  5
1AA
330
3C
100
AcDbDictionary
280
     1
281
     1
  3
ACAD_XREC_ROUNDTRIP
360
1AB
  0
XRECORD
  5
1BB
102
{ACAD_REACTORS
330
1BA
102
}
330
1BA
100
AcDbXrecord
280
     1
102
DISPLAYNAME
  1
Imperial24
102
FLAGS
 90
        0
  0
XRECORD
  5
1C
102
{ACAD_REACTORS
330
1A
102
}
330
1A
100
AcDbXrecord
280
     1
270
     1
271
     1
  0
XRECORD
  5
1B
102
{ACAD_REACTORS
330
1A
102
}
330
1A
100
AcDbXrecord
280
     1
270
     1
271
     1
  0
XRECORD
  5
1F
102
{ACAD_REACTORS
330
1A
102
}
330
1A
100
AcDbXrecord
280
     1
270
     1
271
     1
  0
XRECORD
  5
1E
102
{ACAD_REACTORS
330
1A
102
}
330
1A
100
AcDbXrecord
280
     1
270
     1
271
     1
  0
XRECORD
  5
20
102
{ACAD_REACTORS
330
1A
102
}
330
1A
100
AcDbXrecord
280
     1
270
     1
271
     1
  0
XRECORD
  5
1D
102
{ACAD_REACTORS
330
1A
102
}
330
1A
100
AcDbXrecord
280
     1
270
     1
271
     1
  0
XRECORD
  5
14
102
{ACAD_REACTORS
330
12
102
}
330
12
100
AcDbXrecord
280
     1
270
     1
271
     1
  0
XRECORD
  5
13
102
{ACAD_REACTORS
330
12
102
}
330
12
100
AcDbXrecord
280
     1
270
     1
271
     1
  0
XRECORD
  5
17
102
{ACAD_REACTORS
330
12
102
}
330
12
100
AcDbXrecord
280
     1
270
     1
271
     1
  0
XRECORD
  5
16
102
{ACAD_REACTORS
330
12
102
}
330
12
100
AcDbXrecord
280
     1
270
     1
271
     1
  0
XRECORD
  5
18
102
{ACAD_REACTORS
330
12
102
}
330
12
100
AcDbXrecord
280
     1
270
     1
271
     1
  0
XRECORD
  5
15
102
{ACAD_REACTORS
330
12
102
}
330
12
100
AcDbXrecord
280
     1
270
     1
271
     1
  0
XRECORD
  5
24
102
{ACAD_REACTORS
330
22
102
}
330
22
100
AcDbXrecord
280
     1
270
     1
271
     1
  0
XRECORD
  5
23
102
{ACAD_REACTORS
330
22
102
}
330
22
100
AcDbXrecord
280
     1
270
     1
271
     1
  0
XRECORD
  5
27
102
{ACAD_REACTORS
330
22
102
}
330
22
100
AcDbXrecord
280
     1
270
     1
271
     1
  0
XRECORD
  5
26
102
{ACAD_REACTORS
330
22
102
}
330
22
100
AcDbXrecord
280
     1
270
     1
271
     1
  0
XRECORD
  5
28
102
{ACAD_REACTORS
330
22
102
}
330
22
100
AcDbXrecord
280
     1
270
     1
271
     1
  0
XRECORD
  5
25
102
{ACAD_REACTORS
330
22
102
}
330
22
100
AcDbXrecord
280
     1
270
     1
271
     1
  0
XRECORD
  5
1B7
102
{ACAD_REACTORS
330
1B6
102
}
330
1B6
100
AcDbXrecord
280
     1
102
ACAD_ROUNDTRIP_2012_MLEADER_STYLE
298
     1
  0
XRECORD
  5
1B9
102
{ACAD_REACTORS
330
1B8
102
}
330
1B8
100
AcDbXrecord
280
     1
102
DISPLAYNAME
  1
Imperial24
102
FLAGS
 90
        0
  0
CELLSTYLEMAP
  5
184
102
{ACAD_REACTORS
330
183
102
}
330
183
100
AcDbCellStyleMap
 90
        3
300
CELLSTYLE
  1
TABLEFORMAT_BEGIN
 90
        5
170
     1
 91
        0
 92
    32768
 62
   257
 93
        1
300
CONTENTFORMAT
  1
CONTENTFORMAT_BEGIN
 90
        0
 91
        0
 92
      512
 93
        0
300

 40
0.0
140
1.0
 94
        5
 62
     0
340
55
144
0.25
309
CONTENTFORMAT_END
171
     0
 94
        0
309
TABLEFORMAT_END
  1
CELLSTYLE_BEGIN
 90
        1
 91
        1
300
_TITLE
309
CELLSTYLE_END
300
CELLSTYLE
  1
TABLEFORMAT_BEGIN
 90
        5
170
     1
 91
        0
 92
        0
 62
   257
 93
        1
300
CONTENTFORMAT
  1
CONTENTFORMAT_BEGIN
 90
        0
 91
        0
 92
      512
 93
        0
300

 40
0.0
140
1.0
 94
        5
 62
     0
340
55
144
0.18
309
CONTENTFORMAT_END
171
     0
 94
        0
309
TABLEFORMAT_END
  1
CELLSTYLE_BEGIN
 90
        2
 91
        1
300
_HEADER
309
CELLSTYLE_END
300
CELLSTYLE
  1
TABLEFORMAT_BEGIN
 90
        5
170
     1
 91
        0
 92
        0
 62
   257
 93
        1
300
CONTENTFORMAT
  1
CONTENTFORMAT_BEGIN
 90
        0
 91
        0
 92
      512
 93
        0
300

 40
0.0
140
1.0
 94
        2
 62
     0
340
55
144
0.18
309
CONTENTFORMAT_END
171
     0
 94
        0
309
TABLEFORMAT_END
  1
CELLSTYLE_BEGIN
 90
        3
 91
        2
300
_DATA
309
CELLSTYLE_END
  0
XRECORD
  5
191
102
{ACAD_REACTORS
330
190
102
}
330
190
100
AcDbXrecord
280
     1
102
RTVSPost2010Prop28
280
     1
102
RTVSPost2010PropOp28
 70
     1
102
RTVSPost2010Prop29
280
     1
102
RTVSPost2010PropOp29
 70
     1
102
RTVSPost2010Prop30
280
     0
102
RTVSPost2010PropOp30
 70
     1
102
RTVSPost2010Prop31
280
     0
102
RTVSPost2010PropOp31
 70
     1
102
RTVSPost2010Prop32
280
     0
102
RTVSPost2010PropOp32
 70
     1
102
RTVSPost2010Prop33
280
     0
102
RTVSPost2010PropOp33
 70
     1
102
RTVSPost2010Prop34
280
     0
102
RTVSPost2010PropOp34
 70
     1
102
RTVSPost2010Prop35
280
     0
102
RTVSPost2010PropOp35
 70
     1
102
RTVSPost2010Prop36
280
     0
102
RTVSPost2010PropOp36
 70
     1
102
RTVSPost2010Prop37
 90
       50
102
RTVSPost2010PropOp37
 70
     1
102
RTVSPost2010Prop38
140
0.0
102
RTVSPost2010PropOp38
 70
     1
102
RTVSPost2010Prop39
140
1.0
102
RTVSPost2010PropOp39
 70
     1
102
RTVSPost2010Prop40
 90
        0
102
RTVSPost2010PropOp40
 70
     1
102
RTVSPost2010Prop41ColorIndex
 90
       18
102
RTVSPost2010Prop41ColorRGB
 90
        0
102
RTVSPost2010PropOp41
 70
     1
102
RTVSPost2010Prop42
 90
       50
102
RTVSPost2010PropOp42
 70
     1
102
RTVSPost2010Prop43
 90
        3
102
RTVSPost2010PropOp43
 70
     1
102
RTVSPost2010Prop44ColorIndex
 90
        5
102
RTVSPost2010Prop44ColorRGB
 90
      255
102
RTVSPost2010PropOp44
 70
     1
102
RTVSPost2010Prop45
280
     0
102
RTVSPost2010PropOp45
 70
     1
102
RTVSPost2010Prop46
 90
       50
102
RTVSPost2010PropOp46
 70
     1
102
RTVSPost2010Prop47
 90
       50
102
RTVSPost2010PropOp47
 70
     1
102
RTVSPost2010Prop48
 90
       50
102
RTVSPost2010PropOp48
 70
     1
102
RTVSPost2010Prop49
280
     0
102
RTVSPost2010PropOp49
 70
     1
102
RTVSPost2010Prop50
 90
       50
102
RTVSPost2010PropOp50
 70
     1
102
RTVSPost2010Prop51ColorIndex
 90
      256
102
RTVSPost2010Prop51ColorRGB
 90
-16777216
102
RTVSPost2010PropOp51
 70
     0
102
RTVSPost2010Prop52
140
1.0
102
RTVSPost2010PropOp52
 70
     0
102
RTVSPost2010Prop53
 90
        2
102
RTVSPost2010PropOp53
 70
     1
102
RTVSPost2010Prop54
  1
strokes_ogs.tif
102
RTVSPost2010PropOp54
 70
     1
102
RTVSPost2010Prop55
280
     0
102
RTVSPost2010PropOp55
 70
     1
102
RTVSPost2010Prop56
140
1.0
102
RTVSPost2010PropOp56
 70
     1
102
RTVSPost2010Prop57
140
1.0
102
RTVSPost2010PropOp57
 70
     1
  0
XRECORD
  5
18F
102
{ACAD_REACTORS
330
18E
102
}
330
18E
100
AcDbXrecord
280
     1
102
RTVSPost2010Prop28
280
     0
102
RTVSPost2010PropOp28
 70
     1
102
RTVSPost2010Prop29
280
     1
102
RTVSPost2010PropOp29
 70
     1
102
RTVSPost2010Prop30
280
     1
102
RTVSPost2010PropOp30
 70
     1
102
RTVSPost2010Prop31
280
     0
102
RTVSPost2010PropOp31
 70
     1
102
RTVSPost2010Prop32
280
     0
102
RTVSPost2010PropOp32
 70
     1
102
RTVSPost2010Prop33
280
     0
102
RTVSPost2010PropOp33
 70
     1
102
RTVSPost2010Prop34
280
     0
102
RTVSPost2010PropOp34
 70
     1
102
RTVSPost2010Prop35
280
     0
102
RTVSPost2010PropOp35
 70
     1
102
RTVSPost2010Prop36
280
     0
102
RTVSPost2010PropOp36
 70
     1
102
RTVSPost2010Prop37
 90
       50
102
RTVSPost2010PropOp37
 70
     1
102
RTVSPost2010Prop38
140
0.0
102
RTVSPost2010PropOp38
 70
     1
102
RTVSPost2010Prop39
140
1.0
102
RTVSPost2010PropOp39
 70
     1
102
RTVSPost2010Prop40
 90
        0
102
RTVSPost2010PropOp40
 70
     1
102
RTVSPost2010Prop41ColorIndex
 90
       18
102
RTVSPost2010Prop41ColorRGB
 90
        0
102
RTVSPost2010PropOp41
 70
     1
102
RTVSPost2010Prop42
 90
       50
102
RTVSPost2010PropOp42
 70
     1
102
RTVSPost2010Prop43
 90
        3
102
RTVSPost2010PropOp43
 70
     1
102
RTVSPost2010Prop44ColorIndex
 90
        5
102
RTVSPost2010Prop44ColorRGB
 90
      255
102
RTVSPost2010PropOp44
 70
     1
102
RTVSPost2010Prop45
280
     0
102
RTVSPost2010PropOp45
 70
     1
102
RTVSPost2010Prop46
 90
       50
102
RTVSPost2010PropOp46
 70
     1
102
RTVSPost2010Prop47
 90
       50
102
RTVSPost2010PropOp47
 70
     1
102
RTVSPost2010Prop48
 90
       50
102
RTVSPost2010PropOp48
 70
     1
102
RTVSPost2010Prop49
280
     0
102
RTVSPost2010PropOp49
 70
     1
102
RTVSPost2010Prop50
 90
       50
102
RTVSPost2010PropOp50
 70
     1
102
RTVSPost2010Prop51ColorIndex
 90
      256
102
RTVSPost2010Prop51ColorRGB
 90
-16777216
102
RTVSPost2010PropOp51
 70
     0
102
RTVSPost2010Prop52
140
1.0
102
RTVSPost2010PropOp52
 70
     0
102
RTVSPost2010Prop53
 90
        2
102
RTVSPost2010PropOp53
 70
     1
102
RTVSPost2010Prop54
  1
strokes_ogs.tif
102
RTVSPost2010PropOp54
 70
     1
102
RTVSPost2010Prop55
280
     0
102
RTVSPost2010PropOp55
 70
     1
102
RTVSPost2010Prop56
140
1.0
102
RTVSPost2010PropOp56
 70
     1
102
RTVSPost2010Prop57
140
1.0
102
RTVSPost2010PropOp57
 70
     1
  0
XRECORD
  5
19D
102
{ACAD_REACTORS
330
19C
102
}
330
19C
100
AcDbXrecord
280
     1
102
RTVSPost2010Prop28
280
     0
102
RTVSPost2010PropOp28
 70
     1
102
RTVSPost2010Prop29
280
     1
102
RTVSPost2010PropOp29
 70
     1
102
RTVSPost2010Prop30
280
     1
102
RTVSPost2010PropOp30
 70
     1
102
RTVSPost2010Prop31
280
     0
102
RTVSPost2010PropOp31
 70
     1
102
RTVSPost2010Prop32
280
     0
102
RTVSPost2010PropOp32
 70
     1
102
RTVSPost2010Prop33
280
     0
102
RTVSPost2010PropOp33
 70
     1
102
RTVSPost2010Prop34
280
     0
102
RTVSPost2010PropOp34
 70
     1
102
RTVSPost2010Prop35
280
     0
102
RTVSPost2010PropOp35
 70
     1
102
RTVSPost2010Prop36
280
     0
102
RTVSPost2010PropOp36
 70
     1
102
RTVSPost2010Prop37
 90
       50
102
RTVSPost2010PropOp37
 70
     1
102
RTVSPost2010Prop38
140
0.0
102
RTVSPost2010PropOp38
 70
     1
102
RTVSPost2010Prop39
140
1.0
102
RTVSPost2010PropOp39
 70
     1
102
RTVSPost2010Prop40
 90
        0
102
RTVSPost2010PropOp40
 70
     1
102
RTVSPost2010Prop41ColorIndex
 90
       18
102
RTVSPost2010Prop41ColorRGB
 90
        0
102
RTVSPost2010PropOp41
 70
     1
102
RTVSPost2010Prop42
 90
       50
102
RTVSPost2010PropOp42
 70
     1
102
RTVSPost2010Prop43
 90
        3
102
RTVSPost2010PropOp43
 70
     1
102
RTVSPost2010Prop44ColorIndex
 90
        5
102
RTVSPost2010Prop44ColorRGB
 90
      255
102
RTVSPost2010PropOp44
 70
     1
102
RTVSPost2010Prop45
280
     0
102
RTVSPost2010PropOp45
 70
     1
102
RTVSPost2010Prop46
 90
       50
102
RTVSPost2010PropOp46
 70
     1
102
RTVSPost2010Prop47
 90
       50
102
RTVSPost2010PropOp47
 70
     1
102
RTVSPost2010Prop48
 90
       50
102
RTVSPost2010PropOp48
 70
     1
102
RTVSPost2010Prop49
280
     0
102
RTVSPost2010PropOp49
 70
     1
102
RTVSPost2010Prop50
 90
       50
102
RTVSPost2010PropOp50
 70
     1
102
RTVSPost2010Prop51ColorIndex
 90
      256
102
RTVSPost2010Prop51ColorRGB
 90
-16777216
102
RTVSPost2010PropOp51
 70
     0
102
RTVSPost2010Prop52
140
1.0
102
RTVSPost2010PropOp52
 70
     0
102
RTVSPost2010Prop53
 90
        2
102
RTVSPost2010PropOp53
 70
     1
102
RTVSPost2010Prop54
  1
strokes_ogs.tif
102
RTVSPost2010PropOp54
 70
     1
102
RTVSPost2010Prop55
280
     0
102
RTVSPost2010PropOp55
 70
     1
102
RTVSPost2010Prop56
140
1.0
102
RTVSPost2010PropOp56
 70
     1
102
RTVSPost2010Prop57
140
1.0
102
RTVSPost2010PropOp57
 70
     1
  0
XRECORD
  5
1A5
102
{ACAD_REACTORS
330
1A4
102
}
330
1A4
100
AcDbXrecord
280
     1
102
RTVSPost2010Prop28
280
     0
102
RTVSPost2010PropOp28
 70
     1
102
RTVSPost2010Prop29
280
     1
102
RTVSPost2010PropOp29
 70
     1
102
RTVSPost2010Prop30
280
     1
102
RTVSPost2010PropOp30
 70
     1
102
RTVSPost2010Prop31
280
     0
102
RTVSPost2010PropOp31
 70
     1
102
RTVSPost2010Prop32
280
     0
102
RTVSPost2010PropOp32
 70
     1
102
RTVSPost2010Prop33
280
     0
102
RTVSPost2010PropOp33
 70
     1
102
RTVSPost2010Prop34
280
     0
102
RTVSPost2010PropOp34
 70
     1
102
RTVSPost2010Prop35
280
     0
102
RTVSPost2010PropOp35
 70
     1
102
RTVSPost2010Prop36
280
     0
102
RTVSPost2010PropOp36
 70
     1
102
RTVSPost2010Prop37
 90
       50
102
RTVSPost2010PropOp37
 70
     1
102
RTVSPost2010Prop38
140
0.0
102
RTVSPost2010PropOp38
 70
     1
102
RTVSPost2010Prop39
140
1.0
102
RTVSPost2010PropOp39
 70
     1
102
RTVSPost2010Prop40
 90
        0
102
RTVSPost2010PropOp40
 70
     1
102
RTVSPost2010Prop41ColorIndex
 90
       18
102
RTVSPost2010Prop41ColorRGB
 90
        0
102
RTVSPost2010PropOp41
 70
     1
102
RTVSPost2010Prop42
 90
       50
102
RTVSPost2010PropOp42
 70
     1
102
RTVSPost2010Prop43
 90
        3
102
RTVSPost2010PropOp43
 70
     1
102
RTVSPost2010Prop44ColorIndex
 90
        5
102
RTVSPost2010Prop44ColorRGB
 90
      255
102
RTVSPost2010PropOp44
 70
     1
102
RTVSPost2010Prop45
280
     0
102
RTVSPost2010PropOp45
 70
     1
102
RTVSPost2010Prop46
 90
       50
102
RTVSPost2010PropOp46
 70
     1
102
RTVSPost2010Prop47
 90
       50
102
RTVSPost2010PropOp47
 70
     1
102
RTVSPost2010Prop48
 90
       50
102
RTVSPost2010PropOp48
 70
     1
102
RTVSPost2010Prop49
280
     0
102
RTVSPost2010PropOp49
 70
     1
102
RTVSPost2010Prop50
 90
       50
102
RTVSPost2010PropOp50
 70
     1
102
RTVSPost2010Prop51ColorIndex
 90
      256
102
RTVSPost2010Prop51ColorRGB
 90
-16777216
102
RTVSPost2010PropOp51
 70
     0
102
RTVSPost2010Prop52
140
1.0
102
RTVSPost2010PropOp52
 70
     0
102
RTVSPost2010Prop53
 90
        2
102
RTVSPost2010PropOp53
 70
     1
102
RTVSPost2010Prop54
  1
strokes_ogs.tif
102
RTVSPost2010PropOp54
 70
     1
102
RTVSPost2010Prop55
280
     0
102
RTVSPost2010PropOp55
 70
     1
102
RTVSPost2010Prop56
140
1.0
102
RTVSPost2010PropOp56
 70
     1
102
RTVSPost2010Prop57
140
1.0
102
RTVSPost2010PropOp57
 70
     1
  0
XRECORD
  5
197
102
{ACAD_REACTORS
330
196
102
}
330
196
100
AcDbXrecord
280
     1
102
RTVSPost2010Prop28
280
     0
102
RTVSPost2010PropOp28
 70
     1
102
RTVSPost2010Prop29
280
     1
102
RTVSPost2010PropOp29
 70
     1
102
RTVSPost2010Prop30
280
     1
102
RTVSPost2010PropOp30
 70
     1
102
RTVSPost2010Prop31
280
     0
102
RTVSPost2010PropOp31
 70
     1
102
RTVSPost2010Prop32
280
     0
102
RTVSPost2010PropOp32
 70
     1
102
RTVSPost2010Prop33
280
     0
102
RTVSPost2010PropOp33
 70
     1
102
RTVSPost2010Prop34
280
     0
102
RTVSPost2010PropOp34
 70
     1
102
RTVSPost2010Prop35
280
     0
102
RTVSPost2010PropOp35
 70
     1
102
RTVSPost2010Prop36
280
     0
102
RTVSPost2010PropOp36
 70
     1
102
RTVSPost2010Prop37
 90
       50
102
RTVSPost2010PropOp37
 70
     1
102
RTVSPost2010Prop38
140
0.0
102
RTVSPost2010PropOp38
 70
     1
102
RTVSPost2010Prop39
140
1.0
102
RTVSPost2010PropOp39
 70
     1
102
RTVSPost2010Prop40
 90
        0
102
RTVSPost2010PropOp40
 70
     1
102
RTVSPost2010Prop41ColorIndex
 90
       18
102
RTVSPost2010Prop41ColorRGB
 90
        0
102
RTVSPost2010PropOp41
 70
     1
102
RTVSPost2010Prop42
 90
       50
102
RTVSPost2010PropOp42
 70
     1
102
RTVSPost2010Prop43
 90
        3
102
RTVSPost2010PropOp43
 70
     1
102
RTVSPost2010Prop44ColorIndex
 90
        5
102
RTVSPost2010Prop44ColorRGB
 90
      255
102
RTVSPost2010PropOp44
 70
     1
102
RTVSPost2010Prop45
280
     0
102
RTVSPost2010PropOp45
 70
     1
102
RTVSPost2010Prop46
 90
       50
102
RTVSPost2010PropOp46
 70
     1
102
RTVSPost2010Prop47
 90
       50
102
RTVSPost2010PropOp47
 70
     1
102
RTVSPost2010Prop48
 90
       50
102
RTVSPost2010PropOp48
 70
     1
102
RTVSPost2010Prop49
280
     0
102
RTVSPost2010PropOp49
 70
     1
102
RTVSPost2010Prop50
 90
       50
102
RTVSPost2010PropOp50
 70
     1
102
RTVSPost2010Prop51ColorIndex
 90
      256
102
RTVSPost2010Prop51ColorRGB
 90
-16777216
102
RTVSPost2010PropOp51
 70
     0
102
RTVSPost2010Prop52
140
1.0
102
RTVSPost2010PropOp52
 70
     0
102
RTVSPost2010Prop53
 90
        2
102
RTVSPost2010PropOp53
 70
     1
102
RTVSPost2010Prop54
  1
strokes_ogs.tif
102
RTVSPost2010PropOp54
 70
     1
102
RTVSPost2010Prop55
280
     0
102
RTVSPost2010PropOp55
 70
     1
102
RTVSPost2010Prop56
140
1.0
102
RTVSPost2010PropOp56
 70
     1
102
RTVSPost2010Prop57
140
1.0
102
RTVSPost2010PropOp57
 70
     1
  0
XRECORD
  5
19B
102
{ACAD_REACTORS
330
19A
102
}
330
19A
100
AcDbXrecord
280
     1
102
RTVSPost2010Prop28
280
     0
102
RTVSPost2010PropOp28
 70
     1
102
RTVSPost2010Prop29
280
     1
102
RTVSPost2010PropOp29
 70
     1
102
RTVSPost2010Prop30
280
     1
102
RTVSPost2010PropOp30
 70
     1
102
RTVSPost2010Prop31
280
     0
102
RTVSPost2010PropOp31
 70
     1
102
RTVSPost2010Prop32
280
     0
102
RTVSPost2010PropOp32
 70
     1
102
RTVSPost2010Prop33
280
     0
102
RTVSPost2010PropOp33
 70
     1
102
RTVSPost2010Prop34
280
     0
102
RTVSPost2010PropOp34
 70
     1
102
RTVSPost2010Prop35
280
     0
102
RTVSPost2010PropOp35
 70
     1
102
RTVSPost2010Prop36
280
     0
102
RTVSPost2010PropOp36
 70
     1
102
RTVSPost2010Prop37
 90
       50
102
RTVSPost2010PropOp37
 70
     1
102
RTVSPost2010Prop38
140
0.0
102
RTVSPost2010PropOp38
 70
     1
102
RTVSPost2010Prop39
140
1.0
102
RTVSPost2010PropOp39
 70
     1
102
RTVSPost2010Prop40
 90
        0
102
RTVSPost2010PropOp40
 70
     1
102
RTVSPost2010Prop41ColorIndex
 90
       18
102
RTVSPost2010Prop41ColorRGB
 90
        0
102
RTVSPost2010PropOp41
 70
     1
102
RTVSPost2010Prop42
 90
       50
102
RTVSPost2010PropOp42
 70
     1
102
RTVSPost2010Prop43
 90
        3
102
RTVSPost2010PropOp43
 70
     1
102
RTVSPost2010Prop44ColorIndex
 90
        5
102
RTVSPost2010Prop44ColorRGB
 90
      255
102
RTVSPost2010PropOp44
 70
     1
102
RTVSPost2010Prop45
280
     0
102
RTVSPost2010PropOp45
 70
     1
102
RTVSPost2010Prop46
 90
       50
102
RTVSPost2010PropOp46
 70
     1
102
RTVSPost2010Prop47
 90
       50
102
RTVSPost2010PropOp47
 70
     1
102
RTVSPost2010Prop48
 90
       50
102
RTVSPost2010PropOp48
 70
     1
102
RTVSPost2010Prop49
280
     0
102
RTVSPost2010PropOp49
 70
     1
102
RTVSPost2010Prop50
 90
       50
102
RTVSPost2010PropOp50
 70
     1
102
RTVSPost2010Prop51ColorIndex
 90
      256
102
RTVSPost2010Prop51ColorRGB
 90
-16777216
102
RTVSPost2010PropOp51
 70
     0
102
RTVSPost2010Prop52
140
1.0
102
RTVSPost2010PropOp52
 70
     0
102
RTVSPost2010Prop53
 90
        2
102
RTVSPost2010PropOp53
 70
     1
102
RTVSPost2010Prop54
  1
strokes_ogs.tif
102
RTVSPost2010PropOp54
 70
     1
102
RTVSPost2010Prop55
280
     0
102
RTVSPost2010PropOp55
 70
     1
102
RTVSPost2010Prop56
140
1.0
102
RTVSPost2010PropOp56
 70
     1
102
RTVSPost2010Prop57
140
1.0
102
RTVSPost2010PropOp57
 70
     1
  0
XRECORD
  5
1B5
102
{ACAD_REACTORS
330
1B4
102
}
330
1B4
100
AcDbXrecord
280
     1
102
RTVSPost2010Prop28
280
     0
102
RTVSPost2010PropOp28
 70
     0
102
RTVSPost2010Prop29
280
     1
102
RTVSPost2010PropOp29
 70
     0
102
RTVSPost2010Prop30
280
     1
102
RTVSPost2010PropOp30
 70
     0
102
RTVSPost2010Prop31
280
     0
102
RTVSPost2010PropOp31
 70
     0
102
RTVSPost2010Prop32
280
     0
102
RTVSPost2010PropOp32
 70
     0
102
RTVSPost2010Prop33
280
     0
102
RTVSPost2010PropOp33
 70
     0
102
RTVSPost2010Prop34
280
     0
102
RTVSPost2010PropOp34
 70
     0
102
RTVSPost2010Prop35
280
     0
102
RTVSPost2010PropOp35
 70
     0
102
RTVSPost2010Prop36
280
     0
102
RTVSPost2010PropOp36
 70
     0
102
RTVSPost2010Prop37
 90
       50
102
RTVSPost2010PropOp37
 70
     0
102
RTVSPost2010Prop38
140
0.0
102
RTVSPost2010PropOp38
 70
     0
102
RTVSPost2010Prop39
140
1.0
102
RTVSPost2010PropOp39
 70
     0
102
RTVSPost2010Prop40
 90
        0
102
RTVSPost2010PropOp40
 70
     0
102
RTVSPost2010Prop41ColorIndex
 90
       18
102
RTVSPost2010Prop41ColorRGB
 90
        0
102
RTVSPost2010PropOp41
 70
     0
102
RTVSPost2010Prop42
 90
       50
102
RTVSPost2010PropOp42
 70
     0
102
RTVSPost2010Prop43
 90
        3
102
RTVSPost2010PropOp43
 70
     0
102
RTVSPost2010Prop44ColorIndex
 90
        5
102
RTVSPost2010Prop44ColorRGB
 90
      255
102
RTVSPost2010PropOp44
 70
     0
102
RTVSPost2010Prop45
280
     0
102
RTVSPost2010PropOp45
 70
     0
102
RTVSPost2010Prop46
 90
       50
102
RTVSPost2010PropOp46
 70
     0
102
RTVSPost2010Prop47
 90
       50
102
RTVSPost2010PropOp47
 70
     0
102
RTVSPost2010Prop48
 90
       50
102
RTVSPost2010PropOp48
 70
     0
102
RTVSPost2010Prop49
280
     0
102
RTVSPost2010PropOp49
 70
     0
102
RTVSPost2010Prop50
 90
       50
102
RTVSPost2010PropOp50
 70
     0
102
RTVSPost2010Prop51ColorIndex
 90
      256
102
RTVSPost2010Prop51ColorRGB
 90
-16777216
102
RTVSPost2010PropOp51
 70
     0
102
RTVSPost2010Prop52
140
1.0
102
RTVSPost2010PropOp52
 70
     0
102
RTVSPost2010Prop53
 90
        2
102
RTVSPost2010PropOp53
 70
     0
102
RTVSPost2010Prop54
  1
strokes_ogs.tif
102
RTVSPost2010PropOp54
 70
     0
102
RTVSPost2010Prop55
280
     0
102
RTVSPost2010PropOp55
 70
     0
102
RTVSPost2010Prop56
140
1.0
102
RTVSPost2010PropOp56
 70
     0
102
RTVSPost2010Prop57
140
1.0
102
RTVSPost2010PropOp57
 70
     0
  0
XRECORD
  5
1A3
102
{ACAD_REACTORS
330
1A2
102
}
330
1A2
100
AcDbXrecord
280
     1
102
RTVSPost2010Prop28
280
     0
102
RTVSPost2010PropOp28
 70
     1
102
RTVSPost2010Prop29
280
     1
102
RTVSPost2010PropOp29
 70
     1
102
RTVSPost2010Prop30
280
     1
102
RTVSPost2010PropOp30
 70
     1
102
RTVSPost2010Prop31
280
     0
102
RTVSPost2010PropOp31
 70
     1
102
RTVSPost2010Prop32
280
     0
102
RTVSPost2010PropOp32
 70
     1
102
RTVSPost2010Prop33
280
     0
102
RTVSPost2010PropOp33
 70
     1
102
RTVSPost2010Prop34
280
     0
102
RTVSPost2010PropOp34
 70
     1
102
RTVSPost2010Prop35
280
     0
102
RTVSPost2010PropOp35
 70
     1
102
RTVSPost2010Prop36
280
     0
102
RTVSPost2010PropOp36
 70
     1
102
RTVSPost2010Prop37
 90
       50
102
RTVSPost2010PropOp37
 70
     1
102
RTVSPost2010Prop38
140
0.0
102
RTVSPost2010PropOp38
 70
     1
102
RTVSPost2010Prop39
140
1.0
102
RTVSPost2010PropOp39
 70
     1
102
RTVSPost2010Prop40
 90
        0
102
RTVSPost2010PropOp40
 70
     1
102
RTVSPost2010Prop41ColorIndex
 90
       18
102
RTVSPost2010Prop41ColorRGB
 90
        0
102
RTVSPost2010PropOp41
 70
     1
102
RTVSPost2010Prop42
 90
       50
102
RTVSPost2010PropOp42
 70
     1
102
RTVSPost2010Prop43
 90
        3
102
RTVSPost2010PropOp43
 70
     1
102
RTVSPost2010Prop44ColorIndex
 90
        5
102
RTVSPost2010Prop44ColorRGB
 90
      255
102
RTVSPost2010PropOp44
 70
     1
102
RTVSPost2010Prop45
280
     0
102
RTVSPost2010PropOp45
 70
     1
102
RTVSPost2010Prop46
 90
       50
102
RTVSPost2010PropOp46
 70
     1
102
RTVSPost2010Prop47
 90
       50
102
RTVSPost2010PropOp47
 70
     1
102
RTVSPost2010Prop48
 90
       50
102
RTVSPost2010PropOp48
 70
     1
102
RTVSPost2010Prop49
280
     0
102
RTVSPost2010PropOp49
 70
     1
102
RTVSPost2010Prop50
 90
       50
102
RTVSPost2010PropOp50
 70
     1
102
RTVSPost2010Prop51ColorIndex
 90
      256
102
RTVSPost2010Prop51ColorRGB
 90
-16777216
102
RTVSPost2010PropOp51
 70
     0
102
RTVSPost2010Prop52
140
1.0
102
RTVSPost2010PropOp52
 70
     0
102
RTVSPost2010Prop53
 90
        2
102
RTVSPost2010PropOp53
 70
     1
102
RTVSPost2010Prop54
  1
strokes_ogs.tif
102
RTVSPost2010PropOp54
 70
     1
102
RTVSPost2010Prop55
280
     0
102
RTVSPost2010PropOp55
 70
     1
102
RTVSPost2010Prop56
140
1.0
102
RTVSPost2010PropOp56
 70
     1
102
RTVSPost2010Prop57
140
1.0
102
RTVSPost2010PropOp57
 70
     1
  0
XRECORD
  5
187
102
{ACAD_REACTORS
330
186
102
}
330
186
100
AcDbXrecord
280
     1
102
RTVSPost2010Prop28
280
     0
102
RTVSPost2010PropOp28
 70
     1
102
RTVSPost2010Prop29
280
     1
102
RTVSPost2010PropOp29
 70
     1
102
RTVSPost2010Prop30
280
     1
102
RTVSPost2010PropOp30
 70
     1
102
RTVSPost2010Prop31
280
     0
102
RTVSPost2010PropOp31
 70
     1
102
RTVSPost2010Prop32
280
     0
102
RTVSPost2010PropOp32
 70
     1
102
RTVSPost2010Prop33
280
     0
102
RTVSPost2010PropOp33
 70
     1
102
RTVSPost2010Prop34
280
     0
102
RTVSPost2010PropOp34
 70
     1
102
RTVSPost2010Prop35
280
     0
102
RTVSPost2010PropOp35
 70
     1
102
RTVSPost2010Prop36
280
     0
102
RTVSPost2010PropOp36
 70
     1
102
RTVSPost2010Prop37
 90
       50
102
RTVSPost2010PropOp37
 70
     1
102
RTVSPost2010Prop38
140
0.0
102
RTVSPost2010PropOp38
 70
     1
102
RTVSPost2010Prop39
140
1.0
102
RTVSPost2010PropOp39
 70
     1
102
RTVSPost2010Prop40
 90
        0
102
RTVSPost2010PropOp40
 70
     1
102
RTVSPost2010Prop41ColorIndex
 90
       18
102
RTVSPost2010Prop41ColorRGB
 90
        0
102
RTVSPost2010PropOp41
 70
     1
102
RTVSPost2010Prop42
 90
       50
102
RTVSPost2010PropOp42
 70
     1
102
RTVSPost2010Prop43
 90
        3
102
RTVSPost2010PropOp43
 70
     1
102
RTVSPost2010Prop44ColorIndex
 90
        5
102
RTVSPost2010Prop44ColorRGB
 90
      255
102
RTVSPost2010PropOp44
 70
     1
102
RTVSPost2010Prop45
280
     0
102
RTVSPost2010PropOp45
 70
     1
102
RTVSPost2010Prop46
 90
       50
102
RTVSPost2010PropOp46
 70
     1
102
RTVSPost2010Prop47
 90
       50
102
RTVSPost2010PropOp47
 70
     1
102
RTVSPost2010Prop48
 90
       50
102
RTVSPost2010PropOp48
 70
     1
102
RTVSPost2010Prop49
280
     0
102
RTVSPost2010PropOp49
 70
     1
102
RTVSPost2010Prop50
 90
       50
102
RTVSPost2010PropOp50
 70
     1
102
RTVSPost2010Prop51ColorIndex
 90
      256
102
RTVSPost2010Prop51ColorRGB
 90
-16777216
102
RTVSPost2010PropOp51
 70
     0
102
RTVSPost2010Prop52
140
1.0
102
RTVSPost2010PropOp52
 70
     0
102
RTVSPost2010Prop53
 90
        2
102
RTVSPost2010PropOp53
 70
     1
102
RTVSPost2010Prop54
  1
strokes_ogs.tif
102
RTVSPost2010PropOp54
 70
     1
102
RTVSPost2010Prop55
280
     0
102
RTVSPost2010PropOp55
 70
     1
102
RTVSPost2010Prop56
140
1.0
102
RTVSPost2010PropOp56
 70
     1
102
RTVSPost2010Prop57
140
1.0
102
RTVSPost2010PropOp57
 70
     1
  0
XRECORD
  5
189
102
{ACAD_REACTORS
330
188
102
}
330
188
100
AcDbXrecord
280
     1
102
RTVSPost2010Prop28
280
     0
102
RTVSPost2010PropOp28
 70
     1
102
RTVSPost2010Prop29
280
     1
102
RTVSPost2010PropOp29
 70
     1
102
RTVSPost2010Prop30
280
     1
102
RTVSPost2010PropOp30
 70
     1
102
RTVSPost2010Prop31
280
     0
102
RTVSPost2010PropOp31
 70
     1
102
RTVSPost2010Prop32
280
     0
102
RTVSPost2010PropOp32
 70
     1
102
RTVSPost2010Prop33
280
     0
102
RTVSPost2010PropOp33
 70
     1
102
RTVSPost2010Prop34
280
     0
102
RTVSPost2010PropOp34
 70
     1
102
RTVSPost2010Prop35
280
     0
102
RTVSPost2010PropOp35
 70
     1
102
RTVSPost2010Prop36
280
     0
102
RTVSPost2010PropOp36
 70
     1
102
RTVSPost2010Prop37
 90
       50
102
RTVSPost2010PropOp37
 70
     1
102
RTVSPost2010Prop38
140
0.0
102
RTVSPost2010PropOp38
 70
     1
102
RTVSPost2010Prop39
140
1.0
102
RTVSPost2010PropOp39
 70
     1
102
RTVSPost2010Prop40
 90
        0
102
RTVSPost2010PropOp40
 70
     1
102
RTVSPost2010Prop41ColorIndex
 90
       18
102
RTVSPost2010Prop41ColorRGB
 90
        0
102
RTVSPost2010PropOp41
 70
     1
102
RTVSPost2010Prop42
 90
       50
102
RTVSPost2010PropOp42
 70
     1
102
RTVSPost2010Prop43
 90
        3
102
RTVSPost2010PropOp43
 70
     1
102
RTVSPost2010Prop44ColorIndex
 90
        5
102
RTVSPost2010Prop44ColorRGB
 90
      255
102
RTVSPost2010PropOp44
 70
     1
102
RTVSPost2010Prop45
280
     0
102
RTVSPost2010PropOp45
 70
     1
102
RTVSPost2010Prop46
 90
       50
102
RTVSPost2010PropOp46
 70
     1
102
RTVSPost2010Prop47
 90
       50
102
RTVSPost2010PropOp47
 70
     1
102
RTVSPost2010Prop48
 90
       50
102
RTVSPost2010PropOp48
 70
     1
102
RTVSPost2010Prop49
280
     0
102
RTVSPost2010PropOp49
 70
     1
102
RTVSPost2010Prop50
 90
       50
102
RTVSPost2010PropOp50
 70
     1
102
RTVSPost2010Prop51ColorIndex
 90
      256
102
RTVSPost2010Prop51ColorRGB
 90
-16777216
102
RTVSPost2010PropOp51
 70
     0
102
RTVSPost2010Prop52
140
1.0
102
RTVSPost2010PropOp52
 70
     0
102
RTVSPost2010Prop53
 90
        2
102
RTVSPost2010PropOp53
 70
     1
102
RTVSPost2010Prop54
  1
strokes_ogs.tif
102
RTVSPost2010PropOp54
 70
     1
102
RTVSPost2010Prop55
280
     0
102
RTVSPost2010PropOp55
 70
     1
102
RTVSPost2010Prop56
140
1.0
102
RTVSPost2010PropOp56
 70
     1
102
RTVSPost2010Prop57
140
1.0
102
RTVSPost2010PropOp57
 70
     1
  0
XRECORD
  5
18B
102
{ACAD_REACTORS
330
18A
102
}
330
18A
100
AcDbXrecord
280
     1
102
RTVSPost2010Prop28
280
     0
102
RTVSPost2010PropOp28
 70
     1
102
RTVSPost2010Prop29
280
     1
102
RTVSPost2010PropOp29
 70
     1
102
RTVSPost2010Prop30
280
     1
102
RTVSPost2010PropOp30
 70
     1
102
RTVSPost2010Prop31
280
     0
102
RTVSPost2010PropOp31
 70
     1
102
RTVSPost2010Prop32
280
     0
102
RTVSPost2010PropOp32
 70
     1
102
RTVSPost2010Prop33
280
     0
102
RTVSPost2010PropOp33
 70
     1
102
RTVSPost2010Prop34
280
     0
102
RTVSPost2010PropOp34
 70
     1
102
RTVSPost2010Prop35
280
     0
102
RTVSPost2010PropOp35
 70
     1
102
RTVSPost2010Prop36
280
     0
102
RTVSPost2010PropOp36
 70
     1
102
RTVSPost2010Prop37
 90
       50
102
RTVSPost2010PropOp37
 70
     1
102
RTVSPost2010Prop38
140
0.0
102
RTVSPost2010PropOp38
 70
     1
102
RTVSPost2010Prop39
140
1.0
102
RTVSPost2010PropOp39
 70
     1
102
RTVSPost2010Prop40
 90
        0
102
RTVSPost2010PropOp40
 70
     1
102
RTVSPost2010Prop41ColorIndex
 90
       18
102
RTVSPost2010Prop41ColorRGB
 90
        0
102
RTVSPost2010PropOp41
 70
     1
102
RTVSPost2010Prop42
 90
       50
102
RTVSPost2010PropOp42
 70
     1
102
RTVSPost2010Prop43
 90
        3
102
RTVSPost2010PropOp43
 70
     1
102
RTVSPost2010Prop44ColorIndex
 90
        5
102
RTVSPost2010Prop44ColorRGB
 90
      255
102
RTVSPost2010PropOp44
 70
     1
102
RTVSPost2010Prop45
280
     0
102
RTVSPost2010PropOp45
 70
     1
102
RTVSPost2010Prop46
 90
       50
102
RTVSPost2010PropOp46
 70
     1
102
RTVSPost2010Prop47
 90
       50
102
RTVSPost2010PropOp47
 70
     1
102
RTVSPost2010Prop48
 90
       50
102
RTVSPost2010PropOp48
 70
     1
102
RTVSPost2010Prop49
280
     0
102
RTVSPost2010PropOp49
 70
     1
102
RTVSPost2010Prop50
 90
       50
102
RTVSPost2010PropOp50
 70
     1
102
RTVSPost2010Prop51ColorIndex
 90
      256
102
RTVSPost2010Prop51ColorRGB
 90
-16777216
102
RTVSPost2010PropOp51
 70
     0
102
RTVSPost2010Prop52
140
1.0
102
RTVSPost2010PropOp52
 70
     0
102
RTVSPost2010Prop53
 90
        2
102
RTVSPost2010PropOp53
 70
     1
102
RTVSPost2010Prop54
  1
strokes_ogs.tif
102
RTVSPost2010PropOp54
 70
     1
102
RTVSPost2010Prop55
280
     0
102
RTVSPost2010PropOp55
 70
     1
102
RTVSPost2010Prop56
140
1.0
102
RTVSPost2010PropOp56
 70
     1
102
RTVSPost2010Prop57
140
1.0
102
RTVSPost2010PropOp57
 70
     1
  0
XRECORD
  5
18D
102
{ACAD_REACTORS
330
18C
102
}
330
18C
100
AcDbXrecord
280
     1
102
RTVSPost2010Prop28
280
     0
102
RTVSPost2010PropOp28
 70
     1
102
RTVSPost2010Prop29
280
     1
102
RTVSPost2010PropOp29
 70
     1
102
RTVSPost2010Prop30
280
     1
102
RTVSPost2010PropOp30
 70
     1
102
RTVSPost2010Prop31
280
     0
102
RTVSPost2010PropOp31
 70
     1
102
RTVSPost2010Prop32
280
     0
102
RTVSPost2010PropOp32
 70
     1
102
RTVSPost2010Prop33
280
     0
102
RTVSPost2010PropOp33
 70
     1
102
RTVSPost2010Prop34
280
     0
102
RTVSPost2010PropOp34
 70
     1
102
RTVSPost2010Prop35
280
     0
102
RTVSPost2010PropOp35
 70
     1
102
RTVSPost2010Prop36
280
     0
102
RTVSPost2010PropOp36
 70
     1
102
RTVSPost2010Prop37
 90
       50
102
RTVSPost2010PropOp37
 70
     1
102
RTVSPost2010Prop38
140
0.0
102
RTVSPost2010PropOp38
 70
     1
102
RTVSPost2010Prop39
140
1.0
102
RTVSPost2010PropOp39
 70
     1
102
RTVSPost2010Prop40
 90
        0
102
RTVSPost2010PropOp40
 70
     1
102
RTVSPost2010Prop41ColorIndex
 90
       18
102
RTVSPost2010Prop41ColorRGB
 90
        0
102
RTVSPost2010PropOp41
 70
     1
102
RTVSPost2010Prop42
 90
       50
102
RTVSPost2010PropOp42
 70
     1
102
RTVSPost2010Prop43
 90
        3
102
RTVSPost2010PropOp43
 70
     1
102
RTVSPost2010Prop44ColorIndex
 90
        5
102
RTVSPost2010Prop44ColorRGB
 90
      255
102
RTVSPost2010PropOp44
 70
     1
102
RTVSPost2010Prop45
280
     0
102
RTVSPost2010PropOp45
 70
     1
102
RTVSPost2010Prop46
 90
       50
102
RTVSPost2010PropOp46
 70
     1
102
RTVSPost2010Prop47
 90
       50
102
RTVSPost2010PropOp47
 70
     1
102
RTVSPost2010Prop48
 90
       50
102
RTVSPost2010PropOp48
 70
     1
102
RTVSPost2010Prop49
280
     0
102
RTVSPost2010PropOp49
 70
     1
102
RTVSPost2010Prop50
 90
       50
102
RTVSPost2010PropOp50
 70
     1
102
RTVSPost2010Prop51ColorIndex
 90
      256
102
RTVSPost2010Prop51ColorRGB
 90
-16777216
102
RTVSPost2010PropOp51
 70
     0
102
RTVSPost2010Prop52
140
1.0
102
RTVSPost2010PropOp52
 70
     0
102
RTVSPost2010Prop53
 90
        2
102
RTVSPost2010PropOp53
 70
     1
102
RTVSPost2010Prop54
  1
strokes_ogs.tif
102
RTVSPost2010PropOp54
 70
     1
102
RTVSPost2010Prop55
280
     0
102
RTVSPost2010PropOp55
 70
     1
102
RTVSPost2010Prop56
140
1.0
102
RTVSPost2010PropOp56
 70
     1
102
RTVSPost2010Prop57
140
1.0
102
RTVSPost2010PropOp57
 70
     1
  0
XRECORD
  5
195
102
{ACAD_REACTORS
330
194
102
}
330
194
100
AcDbXrecord
280
     1
102
RTVSPost2010Prop28
280
     0
102
RTVSPost2010PropOp28
 70
     1
102
RTVSPost2010Prop29
280
     1
102
RTVSPost2010PropOp29
 70
     1
102
RTVSPost2010Prop30
280
     1
102
RTVSPost2010PropOp30
 70
     1
102
RTVSPost2010Prop31
280
     0
102
RTVSPost2010PropOp31
 70
     1
102
RTVSPost2010Prop32
280
     0
102
RTVSPost2010PropOp32
 70
     1
102
RTVSPost2010Prop33
280
     0
102
RTVSPost2010PropOp33
 70
     1
102
RTVSPost2010Prop34
280
     0
102
RTVSPost2010PropOp34
 70
     1
102
RTVSPost2010Prop35
280
     0
102
RTVSPost2010PropOp35
 70
     1
102
RTVSPost2010Prop36
280
     0
102
RTVSPost2010PropOp36
 70
     1
102
RTVSPost2010Prop37
 90
       50
102
RTVSPost2010PropOp37
 70
     1
102
RTVSPost2010Prop38
140
0.0
102
RTVSPost2010PropOp38
 70
     1
102
RTVSPost2010Prop39
140
1.0
102
RTVSPost2010PropOp39
 70
     1
102
RTVSPost2010Prop40
 90
        0
102
RTVSPost2010PropOp40
 70
     1
102
RTVSPost2010Prop41ColorIndex
 90
       18
102
RTVSPost2010Prop41ColorRGB
 90
        0
102
RTVSPost2010PropOp41
 70
     1
102
RTVSPost2010Prop42
 90
       50
102
RTVSPost2010PropOp42
 70
     1
102
RTVSPost2010Prop43
 90
        3
102
RTVSPost2010PropOp43
 70
     1
102
RTVSPost2010Prop44ColorIndex
 90
        5
102
RTVSPost2010Prop44ColorRGB
 90
      255
102
RTVSPost2010PropOp44
 70
     1
102
RTVSPost2010Prop45
280
     0
102
RTVSPost2010PropOp45
 70
     1
102
RTVSPost2010Prop46
 90
       50
102
RTVSPost2010PropOp46
 70
     1
102
RTVSPost2010Prop47
 90
       50
102
RTVSPost2010PropOp47
 70
     1
102
RTVSPost2010Prop48
 90
       50
102
RTVSPost2010PropOp48
 70
     1
102
RTVSPost2010Prop49
280
     0
102
RTVSPost2010PropOp49
 70
     1
102
RTVSPost2010Prop50
 90
       50
102
RTVSPost2010PropOp50
 70
     1
102
RTVSPost2010Prop51ColorIndex
 90
      256
102
RTVSPost2010Prop51ColorRGB
 90
-16777216
102
RTVSPost2010PropOp51
 70
     0
102
RTVSPost2010Prop52
140
1.0
102
RTVSPost2010PropOp52
 70
     0
102
RTVSPost2010Prop53
 90
        2
102
RTVSPost2010PropOp53
 70
     1
102
RTVSPost2010Prop54
  1
strokes_ogs.tif
102
RTVSPost2010PropOp54
 70
     1
102
RTVSPost2010Prop55
280
     0
102
RTVSPost2010PropOp55
 70
     1
102
RTVSPost2010Prop56
140
1.0
102
RTVSPost2010PropOp56
 70
     1
102
RTVSPost2010Prop57
140
1.0
102
RTVSPost2010PropOp57
 70
     1
  0
XRECORD
  5
1B1
102
{ACAD_REACTORS
330
1B0
102
}
330
1B0
100
AcDbXrecord
280
     1
102
RTVSPost2010Prop28
280
     0
102
RTVSPost2010PropOp28
 70
     0
102
RTVSPost2010Prop29
280
     1
102
RTVSPost2010PropOp29
 70
     0
102
RTVSPost2010Prop30
280
     1
102
RTVSPost2010PropOp30
 70
     0
102
RTVSPost2010Prop31
280
     0
102
RTVSPost2010PropOp31
 70
     0
102
RTVSPost2010Prop32
280
     0
102
RTVSPost2010PropOp32
 70
     0
102
RTVSPost2010Prop33
280
     0
102
RTVSPost2010PropOp33
 70
     0
102
RTVSPost2010Prop34
280
     0
102
RTVSPost2010PropOp34
 70
     0
102
RTVSPost2010Prop35
280
     0
102
RTVSPost2010PropOp35
 70
     0
102
RTVSPost2010Prop36
280
     0
102
RTVSPost2010PropOp36
 70
     0
102
RTVSPost2010Prop37
 90
       50
102
RTVSPost2010PropOp37
 70
     0
102
RTVSPost2010Prop38
140
0.0
102
RTVSPost2010PropOp38
 70
     0
102
RTVSPost2010Prop39
140
1.0
102
RTVSPost2010PropOp39
 70
     0
102
RTVSPost2010Prop40
 90
        0
102
RTVSPost2010PropOp40
 70
     0
102
RTVSPost2010Prop41ColorIndex
 90
       18
102
RTVSPost2010Prop41ColorRGB
 90
        0
102
RTVSPost2010PropOp41
 70
     0
102
RTVSPost2010Prop42
 90
       50
102
RTVSPost2010PropOp42
 70
     0
102
RTVSPost2010Prop43
 90
        3
102
RTVSPost2010PropOp43
 70
     0
102
RTVSPost2010Prop44ColorIndex
 90
        5
102
RTVSPost2010Prop44ColorRGB
 90
      255
102
RTVSPost2010PropOp44
 70
     0
102
RTVSPost2010Prop45
280
     0
102
RTVSPost2010PropOp45
 70
     0
102
RTVSPost2010Prop46
 90
       50
102
RTVSPost2010PropOp46
 70
     0
102
RTVSPost2010Prop47
 90
       50
102
RTVSPost2010PropOp47
 70
     0
102
RTVSPost2010Prop48
 90
       50
102
RTVSPost2010PropOp48
 70
     0
102
RTVSPost2010Prop49
280
     0
102
RTVSPost2010PropOp49
 70
     0
102
RTVSPost2010Prop50
 90
       50
102
RTVSPost2010PropOp50
 70
     0
102
RTVSPost2010Prop51ColorIndex
 90
      256
102
RTVSPost2010Prop51ColorRGB
 90
-16777216
102
RTVSPost2010PropOp51
 70
     0
102
RTVSPost2010Prop52
140
1.0
102
RTVSPost2010PropOp52
 70
     0
102
RTVSPost2010Prop53
 90
        2
102
RTVSPost2010PropOp53
 70
     0
102
RTVSPost2010Prop54
  1
strokes_ogs.tif
102
RTVSPost2010PropOp54
 70
     0
102
RTVSPost2010Prop55
280
     0
102
RTVSPost2010PropOp55
 70
     0
102
RTVSPost2010Prop56
140
1.0
102
RTVSPost2010PropOp56
 70
     0
102
RTVSPost2010Prop57
140
1.0
102
RTVSPost2010PropOp57
 70
     0
  0
XRECORD
  5
1A1
102
{ACAD_REACTORS
330
1A0
102
}
330
1A0
100
AcDbXrecord
280
     1
102
RTVSPost2010Prop28
280
     0
102
RTVSPost2010PropOp28
 70
     1
102
RTVSPost2010Prop29
280
     1
102
RTVSPost2010PropOp29
 70
     1
102
RTVSPost2010Prop30
280
     1
102
RTVSPost2010PropOp30
 70
     1
102
RTVSPost2010Prop31
280
     0
102
RTVSPost2010PropOp31
 70
     1
102
RTVSPost2010Prop32
280
     0
102
RTVSPost2010PropOp32
 70
     1
102
RTVSPost2010Prop33
280
     0
102
RTVSPost2010PropOp33
 70
     1
102
RTVSPost2010Prop34
280
     0
102
RTVSPost2010PropOp34
 70
     1
102
RTVSPost2010Prop35
280
     0
102
RTVSPost2010PropOp35
 70
     1
102
RTVSPost2010Prop36
280
     0
102
RTVSPost2010PropOp36
 70
     1
102
RTVSPost2010Prop37
 90
       50
102
RTVSPost2010PropOp37
 70
     1
102
RTVSPost2010Prop38
140
0.0
102
RTVSPost2010PropOp38
 70
     1
102
RTVSPost2010Prop39
140
1.0
102
RTVSPost2010PropOp39
 70
     1
102
RTVSPost2010Prop40
 90
        0
102
RTVSPost2010PropOp40
 70
     1
102
RTVSPost2010Prop41ColorIndex
 90
       18
102
RTVSPost2010Prop41ColorRGB
 90
        0
102
RTVSPost2010PropOp41
 70
     1
102
RTVSPost2010Prop42
 90
       50
102
RTVSPost2010PropOp42
 70
     1
102
RTVSPost2010Prop43
 90
        3
102
RTVSPost2010PropOp43
 70
     1
102
RTVSPost2010Prop44ColorIndex
 90
        5
102
RTVSPost2010Prop44ColorRGB
 90
      255
102
RTVSPost2010PropOp44
 70
     1
102
RTVSPost2010Prop45
280
     0
102
RTVSPost2010PropOp45
 70
     1
102
RTVSPost2010Prop46
 90
       50
102
RTVSPost2010PropOp46
 70
     1
102
RTVSPost2010Prop47
 90
       50
102
RTVSPost2010PropOp47
 70
     1
102
RTVSPost2010Prop48
 90
       50
102
RTVSPost2010PropOp48
 70
     1
102
RTVSPost2010Prop49
280
     0
102
RTVSPost2010PropOp49
 70
     1
102
RTVSPost2010Prop50
 90
       50
102
RTVSPost2010PropOp50
 70
     1
102
RTVSPost2010Prop51ColorIndex
 90
      256
102
RTVSPost2010Prop51ColorRGB
 90
-16777216
102
RTVSPost2010PropOp51
 70
     0
102
RTVSPost2010Prop52
140
1.0
102
RTVSPost2010PropOp52
 70
     0
102
RTVSPost2010Prop53
 90
        2
102
RTVSPost2010PropOp53
 70
     1
102
RTVSPost2010Prop54
  1
strokes_ogs.tif
102
RTVSPost2010PropOp54
 70
     1
102
RTVSPost2010Prop55
280
     0
102
RTVSPost2010PropOp55
 70
     1
102
RTVSPost2010Prop56
140
1.0
102
RTVSPost2010PropOp56
 70
     1
102
RTVSPost2010Prop57
140
1.0
102
RTVSPost2010PropOp57
 70
     1
  0
XRECORD
  5
1B3
102
{ACAD_REACTORS
330
1B2
102
}
330
1B2
100
AcDbXrecord
280
     1
102
RTVSPost2010Prop28
280
     0
102
RTVSPost2010PropOp28
 70
     0
102
RTVSPost2010Prop29
280
     1
102
RTVSPost2010PropOp29
 70
     0
102
RTVSPost2010Prop30
280
     1
102
RTVSPost2010PropOp30
 70
     0
102
RTVSPost2010Prop31
280
     0
102
RTVSPost2010PropOp31
 70
     0
102
RTVSPost2010Prop32
280
     0
102
RTVSPost2010PropOp32
 70
     0
102
RTVSPost2010Prop33
280
     0
102
RTVSPost2010PropOp33
 70
     0
102
RTVSPost2010Prop34
280
     0
102
RTVSPost2010PropOp34
 70
     0
102
RTVSPost2010Prop35
280
     0
102
RTVSPost2010PropOp35
 70
     0
102
RTVSPost2010Prop36
280
     0
102
RTVSPost2010PropOp36
 70
     0
102
RTVSPost2010Prop37
 90
       50
102
RTVSPost2010PropOp37
 70
     0
102
RTVSPost2010Prop38
140
0.0
102
RTVSPost2010PropOp38
 70
     0
102
RTVSPost2010Prop39
140
1.0
102
RTVSPost2010PropOp39
 70
     0
102
RTVSPost2010Prop40
 90
        0
102
RTVSPost2010PropOp40
 70
     0
102
RTVSPost2010Prop41ColorIndex
 90
       18
102
RTVSPost2010Prop41ColorRGB
 90
        0
102
RTVSPost2010PropOp41
 70
     0
102
RTVSPost2010Prop42
 90
       50
102
RTVSPost2010PropOp42
 70
     0
102
RTVSPost2010Prop43
 90
        3
102
RTVSPost2010PropOp43
 70
     0
102
RTVSPost2010Prop44ColorIndex
 90
        5
102
RTVSPost2010Prop44ColorRGB
 90
      255
102
RTVSPost2010PropOp44
 70
     0
102
RTVSPost2010Prop45
280
     0
102
RTVSPost2010PropOp45
 70
     0
102
RTVSPost2010Prop46
 90
       50
102
RTVSPost2010PropOp46
 70
     0
102
RTVSPost2010Prop47
 90
       50
102
RTVSPost2010PropOp47
 70
     0
102
RTVSPost2010Prop48
 90
       50
102
RTVSPost2010PropOp48
 70
     0
102
RTVSPost2010Prop49
280
     0
102
RTVSPost2010PropOp49
 70
     0
102
RTVSPost2010Prop50
 90
       50
102
RTVSPost2010PropOp50
 70
     0
102
RTVSPost2010Prop51ColorIndex
 90
      256
102
RTVSPost2010Prop51ColorRGB
 90
-16777216
102
RTVSPost2010PropOp51
 70
     0
102
RTVSPost2010Prop52
140
1.0
102
RTVSPost2010PropOp52
 70
     0
102
RTVSPost2010Prop53
 90
        2
102
RTVSPost2010PropOp53
 70
     0
102
RTVSPost2010Prop54
  1
strokes_ogs.tif
102
RTVSPost2010PropOp54
 70
     0
102
RTVSPost2010Prop55
280
     0
102
RTVSPost2010PropOp55
 70
     0
102
RTVSPost2010Prop56
140
1.0
102
RTVSPost2010PropOp56
 70
     0
102
RTVSPost2010Prop57
140
1.0
102
RTVSPost2010PropOp57
 70
     0
  0
XRECORD
  5
199
102
{ACAD_REACTORS
330
198
102
}
330
198
100
AcDbXrecord
280
     1
102
RTVSPost2010Prop28
280
     0
102
RTVSPost2010PropOp28
 70
     1
102
RTVSPost2010Prop29
280
     1
102
RTVSPost2010PropOp29
 70
     1
102
RTVSPost2010Prop30
280
     1
102
RTVSPost2010PropOp30
 70
     1
102
RTVSPost2010Prop31
280
     0
102
RTVSPost2010PropOp31
 70
     1
102
RTVSPost2010Prop32
280
     0
102
RTVSPost2010PropOp32
 70
     1
102
RTVSPost2010Prop33
280
     0
102
RTVSPost2010PropOp33
 70
     1
102
RTVSPost2010Prop34
280
     0
102
RTVSPost2010PropOp34
 70
     1
102
RTVSPost2010Prop35
280
     0
102
RTVSPost2010PropOp35
 70
     1
102
RTVSPost2010Prop36
280
     0
102
RTVSPost2010PropOp36
 70
     1
102
RTVSPost2010Prop37
 90
       50
102
RTVSPost2010PropOp37
 70
     1
102
RTVSPost2010Prop38
140
0.0
102
RTVSPost2010PropOp38
 70
     1
102
RTVSPost2010Prop39
140
1.0
102
RTVSPost2010PropOp39
 70
     1
102
RTVSPost2010Prop40
 90
        0
102
RTVSPost2010PropOp40
 70
     1
102
RTVSPost2010Prop41ColorIndex
 90
       18
102
RTVSPost2010Prop41ColorRGB
 90
        0
102
RTVSPost2010PropOp41
 70
     1
102
RTVSPost2010Prop42
 90
       50
102
RTVSPost2010PropOp42
 70
     1
102
RTVSPost2010Prop43
 90
        3
102
RTVSPost2010PropOp43
 70
     1
102
RTVSPost2010Prop44ColorIndex
 90
        5
102
RTVSPost2010Prop44ColorRGB
 90
      255
102
RTVSPost2010PropOp44
 70
     1
102
RTVSPost2010Prop45
280
     0
102
RTVSPost2010PropOp45
 70
     1
102
RTVSPost2010Prop46
 90
       50
102
RTVSPost2010PropOp46
 70
     1
102
RTVSPost2010Prop47
 90
       50
102
RTVSPost2010PropOp47
 70
     1
102
RTVSPost2010Prop48
 90
       50
102
RTVSPost2010PropOp48
 70
     1
102
RTVSPost2010Prop49
280
     0
102
RTVSPost2010PropOp49
 70
     1
102
RTVSPost2010Prop50
 90
       50
102
RTVSPost2010PropOp50
 70
     1
102
RTVSPost2010Prop51ColorIndex
 90
      256
102
RTVSPost2010Prop51ColorRGB
 90
-16777216
102
RTVSPost2010PropOp51
 70
     0
102
RTVSPost2010Prop52
140
1.0
102
RTVSPost2010PropOp52
 70
     0
102
RTVSPost2010Prop53
 90
        2
102
RTVSPost2010PropOp53
 70
     1
102
RTVSPost2010Prop54
  1
strokes_ogs.tif
102
RTVSPost2010PropOp54
 70
     1
102
RTVSPost2010Prop55
280
     0
102
RTVSPost2010PropOp55
 70
     1
102
RTVSPost2010Prop56
140
1.0
102
RTVSPost2010PropOp56
 70
     1
102
RTVSPost2010Prop57
140
1.0
102
RTVSPost2010PropOp57
 70
     1
  0
XRECORD
  5
1AF
102
{ACAD_REACTORS
330
1AE
102
}
330
1AE
100
AcDbXrecord
280
     1
102
RTVSPost2010Prop28
280
     0
102
RTVSPost2010PropOp28
 70
     1
102
RTVSPost2010Prop29
280
     1
102
RTVSPost2010PropOp29
 70
     1
102
RTVSPost2010Prop30
280
     1
102
RTVSPost2010PropOp30
 70
     1
102
RTVSPost2010Prop31
280
     0
102
RTVSPost2010PropOp31
 70
     1
102
RTVSPost2010Prop32
280
     0
102
RTVSPost2010PropOp32
 70
     1
102
RTVSPost2010Prop33
280
     0
102
RTVSPost2010PropOp33
 70
     1
102
RTVSPost2010Prop34
280
     0
102
RTVSPost2010PropOp34
 70
     1
102
RTVSPost2010Prop35
280
     0
102
RTVSPost2010PropOp35
 70
     1
102
RTVSPost2010Prop36
280
     0
102
RTVSPost2010PropOp36
 70
     1
102
RTVSPost2010Prop37
 90
       50
102
RTVSPost2010PropOp37
 70
     1
102
RTVSPost2010Prop38
140
0.0
102
RTVSPost2010PropOp38
 70
     1
102
RTVSPost2010Prop39
140
1.0
102
RTVSPost2010PropOp39
 70
     1
102
RTVSPost2010Prop40
 90
        0
102
RTVSPost2010PropOp40
 70
     1
102
RTVSPost2010Prop41ColorIndex
 90
       18
102
RTVSPost2010Prop41ColorRGB
 90
        0
102
RTVSPost2010PropOp41
 70
     1
102
RTVSPost2010Prop42
 90
       50
102
RTVSPost2010PropOp42
 70
     1
102
RTVSPost2010Prop43
 90
        3
102
RTVSPost2010PropOp43
 70
     1
102
RTVSPost2010Prop44ColorIndex
 90
        5
102
RTVSPost2010Prop44ColorRGB
 90
      255
102
RTVSPost2010PropOp44
 70
     1
102
RTVSPost2010Prop45
280
     0
102
RTVSPost2010PropOp45
 70
     1
102
RTVSPost2010Prop46
 90
       50
102
RTVSPost2010PropOp46
 70
     1
102
RTVSPost2010Prop47
 90
       50
102
RTVSPost2010PropOp47
 70
     1
102
RTVSPost2010Prop48
 90
       50
102
RTVSPost2010PropOp48
 70
     1
102
RTVSPost2010Prop49
280
     0
102
RTVSPost2010PropOp49
 70
     1
102
RTVSPost2010Prop50
 90
       50
102
RTVSPost2010PropOp50
 70
     1
102
RTVSPost2010Prop51ColorIndex
 90
      256
102
RTVSPost2010Prop51ColorRGB
 90
-16777216
102
RTVSPost2010PropOp51
 70
     0
102
RTVSPost2010Prop52
140
1.0
102
RTVSPost2010PropOp52
 70
     0
102
RTVSPost2010Prop53
 90
        2
102
RTVSPost2010PropOp53
 70
     1
102
RTVSPost2010Prop54
  1
strokes_ogs.tif
102
RTVSPost2010PropOp54
 70
     1
102
RTVSPost2010Prop55
280
     0
102
RTVSPost2010PropOp55
 70
     1
102
RTVSPost2010Prop56
140
1.0
102
RTVSPost2010PropOp56
 70
     1
102
RTVSPost2010Prop57
140
1.0
102
RTVSPost2010PropOp57
 70
     1
  0
XRECORD
  5
1AD
102
{ACAD_REACTORS
330
1AC
102
}
330
1AC
100
AcDbXrecord
280
     1
102
RTVSPost2010Prop28
280
     0
102
RTVSPost2010PropOp28
 70
     1
102
RTVSPost2010Prop29
280
     1
102
RTVSPost2010PropOp29
 70
     1
102
RTVSPost2010Prop30
280
     1
102
RTVSPost2010PropOp30
 70
     1
102
RTVSPost2010Prop31
280
     0
102
RTVSPost2010PropOp31
 70
     1
102
RTVSPost2010Prop32
280
     0
102
RTVSPost2010PropOp32
 70
     1
102
RTVSPost2010Prop33
280
     0
102
RTVSPost2010PropOp33
 70
     1
102
RTVSPost2010Prop34
280
     0
102
RTVSPost2010PropOp34
 70
     1
102
RTVSPost2010Prop35
280
     0
102
RTVSPost2010PropOp35
 70
     1
102
RTVSPost2010Prop36
280
     0
102
RTVSPost2010PropOp36
 70
     1
102
RTVSPost2010Prop37
 90
       50
102
RTVSPost2010PropOp37
 70
     1
102
RTVSPost2010Prop38
140
0.0
102
RTVSPost2010PropOp38
 70
     1
102
RTVSPost2010Prop39
140
1.0
102
RTVSPost2010PropOp39
 70
     1
102
RTVSPost2010Prop40
 90
        0
102
RTVSPost2010PropOp40
 70
     1
102
RTVSPost2010Prop41ColorIndex
 90
       18
102
RTVSPost2010Prop41ColorRGB
 90
        0
102
RTVSPost2010PropOp41
 70
     1
102
RTVSPost2010Prop42
 90
       50
102
RTVSPost2010PropOp42
 70
     1
102
RTVSPost2010Prop43
 90
        3
102
RTVSPost2010PropOp43
 70
     1
102
RTVSPost2010Prop44ColorIndex
 90
        5
102
RTVSPost2010Prop44ColorRGB
 90
      255
102
RTVSPost2010PropOp44
 70
     1
102
RTVSPost2010Prop45
280
     0
102
RTVSPost2010PropOp45
 70
     1
102
RTVSPost2010Prop46
 90
       50
102
RTVSPost2010PropOp46
 70
     1
102
RTVSPost2010Prop47
 90
       50
102
RTVSPost2010PropOp47
 70
     1
102
RTVSPost2010Prop48
 90
       50
102
RTVSPost2010PropOp48
 70
     1
102
RTVSPost2010Prop49
280
     0
102
RTVSPost2010PropOp49
 70
     1
102
RTVSPost2010Prop50
 90
       50
102
RTVSPost2010PropOp50
 70
     1
102
RTVSPost2010Prop51ColorIndex
 90
      256
102
RTVSPost2010Prop51ColorRGB
 90
-16777216
102
RTVSPost2010PropOp51
 70
     0
102
RTVSPost2010Prop52
140
1.0
102
RTVSPost2010PropOp52
 70
     0
102
RTVSPost2010Prop53
 90
        2
102
RTVSPost2010PropOp53
 70
     1
102
RTVSPost2010Prop54
  1
strokes_ogs.tif
102
RTVSPost2010PropOp54
 70
     1
102
RTVSPost2010Prop55
280
     0
102
RTVSPost2010PropOp55
 70
     1
102
RTVSPost2010Prop56
140
1.0
102
RTVSPost2010PropOp56
 70
     1
102
RTVSPost2010Prop57
140
1.0
102
RTVSPost2010PropOp57
 70
     1
  0
XRECORD
  5
1A7
102
{ACAD_REACTORS
330
1A6
102
}
330
1A6
100
AcDbXrecord
280
     1
102
RTVSPost2010Prop28
280
     0
102
RTVSPost2010PropOp28
 70
     1
102
RTVSPost2010Prop29
280
     1
102
RTVSPost2010PropOp29
 70
     1
102
RTVSPost2010Prop30
280
     1
102
RTVSPost2010PropOp30
 70
     1
102
RTVSPost2010Prop31
280
     0
102
RTVSPost2010PropOp31
 70
     1
102
RTVSPost2010Prop32
280
     0
102
RTVSPost2010PropOp32
 70
     1
102
RTVSPost2010Prop33
280
     0
102
RTVSPost2010PropOp33
 70
     1
102
RTVSPost2010Prop34
280
     0
102
RTVSPost2010PropOp34
 70
     1
102
RTVSPost2010Prop35
280
     0
102
RTVSPost2010PropOp35
 70
     1
102
RTVSPost2010Prop36
280
     0
102
RTVSPost2010PropOp36
 70
     1
102
RTVSPost2010Prop37
 90
       50
102
RTVSPost2010PropOp37
 70
     1
102
RTVSPost2010Prop38
140
0.0
102
RTVSPost2010PropOp38
 70
     1
102
RTVSPost2010Prop39
140
1.0
102
RTVSPost2010PropOp39
 70
     1
102
RTVSPost2010Prop40
 90
        0
102
RTVSPost2010PropOp40
 70
     1
102
RTVSPost2010Prop41ColorIndex
 90
       18
102
RTVSPost2010Prop41ColorRGB
 90
        0
102
RTVSPost2010PropOp41
 70
     1
102
RTVSPost2010Prop42
 90
       50
102
RTVSPost2010PropOp42
 70
     1
102
RTVSPost2010Prop43
 90
        3
102
RTVSPost2010PropOp43
 70
     1
102
RTVSPost2010Prop44ColorIndex
 90
        5
102
RTVSPost2010Prop44ColorRGB
 90
      255
102
RTVSPost2010PropOp44
 70
     1
102
RTVSPost2010Prop45
280
     0
102
RTVSPost2010PropOp45
 70
     1
102
RTVSPost2010Prop46
 90
       50
102
RTVSPost2010PropOp46
 70
     1
102
RTVSPost2010Prop47
 90
       50
102
RTVSPost2010PropOp47
 70
     1
102
RTVSPost2010Prop48
 90
       50
102
RTVSPost2010PropOp48
 70
     1
102
RTVSPost2010Prop49
280
     0
102
RTVSPost2010PropOp49
 70
     1
102
RTVSPost2010Prop50
 90
       50
102
RTVSPost2010PropOp50
 70
     1
102
RTVSPost2010Prop51ColorIndex
 90
      256
102
RTVSPost2010Prop51ColorRGB
 90
-16777216
102
RTVSPost2010PropOp51
 70
     0
102
RTVSPost2010Prop52
140
1.0
102
RTVSPost2010PropOp52
 70
     0
102
RTVSPost2010Prop53
 90
        2
102
RTVSPost2010PropOp53
 70
     1
102
RTVSPost2010Prop54
  1
strokes_ogs.tif
102
RTVSPost2010PropOp54
 70
     1
102
RTVSPost2010Prop55
280
     0
102
RTVSPost2010PropOp55
 70
     1
102
RTVSPost2010Prop56
140
1.0
102
RTVSPost2010PropOp56
 70
     1
102
RTVSPost2010Prop57
140
1.0
102
RTVSPost2010PropOp57
 70
     1
  0
XRECORD
  5
1A9
102
{ACAD_REACTORS
330
1A8
102
}
330
1A8
100
AcDbXrecord
280
     1
102
RTVSPost2010Prop28
280
     0
102
RTVSPost2010PropOp28
 70
     1
102
RTVSPost2010Prop29
280
     1
102
RTVSPost2010PropOp29
 70
     1
102
RTVSPost2010Prop30
280
     1
102
RTVSPost2010PropOp30
 70
     1
102
RTVSPost2010Prop31
280
     0
102
RTVSPost2010PropOp31
 70
     1
102
RTVSPost2010Prop32
280
     0
102
RTVSPost2010PropOp32
 70
     1
102
RTVSPost2010Prop33
280
     0
102
RTVSPost2010PropOp33
 70
     1
102
RTVSPost2010Prop34
280
     0
102
RTVSPost2010PropOp34
 70
     1
102
RTVSPost2010Prop35
280
     0
102
RTVSPost2010PropOp35
 70
     1
102
RTVSPost2010Prop36
280
     0
102
RTVSPost2010PropOp36
 70
     1
102
RTVSPost2010Prop37
 90
       50
102
RTVSPost2010PropOp37
 70
     1
102
RTVSPost2010Prop38
140
0.0
102
RTVSPost2010PropOp38
 70
     1
102
RTVSPost2010Prop39
140
1.0
102
RTVSPost2010PropOp39
 70
     1
102
RTVSPost2010Prop40
 90
        0
102
RTVSPost2010PropOp40
 70
     1
102
RTVSPost2010Prop41ColorIndex
 90
       18
102
RTVSPost2010Prop41ColorRGB
 90
        0
102
RTVSPost2010PropOp41
 70
     1
102
RTVSPost2010Prop42
 90
       50
102
RTVSPost2010PropOp42
 70
     1
102
RTVSPost2010Prop43
 90
        3
102
RTVSPost2010PropOp43
 70
     1
102
RTVSPost2010Prop44ColorIndex
 90
        5
102
RTVSPost2010Prop44ColorRGB
 90
      255
102
RTVSPost2010PropOp44
 70
     1
102
RTVSPost2010Prop45
280
     0
102
RTVSPost2010PropOp45
 70
     1
102
RTVSPost2010Prop46
 90
       50
102
RTVSPost2010PropOp46
 70
     1
102
RTVSPost2010Prop47
 90
       50
102
RTVSPost2010PropOp47
 70
     1
102
RTVSPost2010Prop48
 90
       50
102
RTVSPost2010PropOp48
 70
     1
102
RTVSPost2010Prop49
280
     0
102
RTVSPost2010PropOp49
 70
     1
102
RTVSPost2010Prop50
 90
       50
102
RTVSPost2010PropOp50
 70
     1
102
RTVSPost2010Prop51ColorIndex
 90
      256
102
RTVSPost2010Prop51ColorRGB
 90
-16777216
102
RTVSPost2010PropOp51
 70
     0
102
RTVSPost2010Prop52
140
1.0
102
RTVSPost2010PropOp52
 70
     0
102
RTVSPost2010Prop53
 90
        2
102
RTVSPost2010PropOp53
 70
     1
102
RTVSPost2010Prop54
  1
strokes_ogs.tif
102
RTVSPost2010PropOp54
 70
     1
102
RTVSPost2010Prop55
280
     0
102
RTVSPost2010PropOp55
 70
     1
102
RTVSPost2010Prop56
140
1.0
102
RTVSPost2010PropOp56
 70
     1
102
RTVSPost2010Prop57
140
1.0
102
RTVSPost2010PropOp57
 70
     1
  0
XRECORD
  5
19F
102
{ACAD_REACTORS
330
19E
102
}
330
19E
100
AcDbXrecord
280
     1
102
RTVSPost2010Prop28
280
     0
102
RTVSPost2010PropOp28
 70
     1
102
RTVSPost2010Prop29
280
     1
102
RTVSPost2010PropOp29
 70
     1
102
RTVSPost2010Prop30
280
     1
102
RTVSPost2010PropOp30
 70
     1
102
RTVSPost2010Prop31
280
     0
102
RTVSPost2010PropOp31
 70
     1
102
RTVSPost2010Prop32
280
     0
102
RTVSPost2010PropOp32
 70
     1
102
RTVSPost2010Prop33
280
     0
102
RTVSPost2010PropOp33
 70
     1
102
RTVSPost2010Prop34
280
     0
102
RTVSPost2010PropOp34
 70
     1
102
RTVSPost2010Prop35
280
     0
102
RTVSPost2010PropOp35
 70
     1
102
RTVSPost2010Prop36
280
     0
102
RTVSPost2010PropOp36
 70
     1
102
RTVSPost2010Prop37
 90
       50
102
RTVSPost2010PropOp37
 70
     1
102
RTVSPost2010Prop38
140
0.0
102
RTVSPost2010PropOp38
 70
     1
102
RTVSPost2010Prop39
140
1.0
102
RTVSPost2010PropOp39
 70
     1
102
RTVSPost2010Prop40
 90
        0
102
RTVSPost2010PropOp40
 70
     1
102
RTVSPost2010Prop41ColorIndex
 90
       18
102
RTVSPost2010Prop41ColorRGB
 90
        0
102
RTVSPost2010PropOp41
 70
     1
102
RTVSPost2010Prop42
 90
       50
102
RTVSPost2010PropOp42
 70
     1
102
RTVSPost2010Prop43
 90
        3
102
RTVSPost2010PropOp43
 70
     1
102
RTVSPost2010Prop44ColorIndex
 90
        5
102
RTVSPost2010Prop44ColorRGB
 90
      255
102
RTVSPost2010PropOp44
 70
     1
102
RTVSPost2010Prop45
280
     0
102
RTVSPost2010PropOp45
 70
     1
102
RTVSPost2010Prop46
 90
       50
102
RTVSPost2010PropOp46
 70
     1
102
RTVSPost2010Prop47
 90
       50
102
RTVSPost2010PropOp47
 70
     1
102
RTVSPost2010Prop48
 90
       50
102
RTVSPost2010PropOp48
 70
     1
102
RTVSPost2010Prop49
280
     0
102
RTVSPost2010PropOp49
 70
     1
102
RTVSPost2010Prop50
 90
       50
102
RTVSPost2010PropOp50
 70
     1
102
RTVSPost2010Prop51ColorIndex
 90
      256
102
RTVSPost2010Prop51ColorRGB
 90
-16777216
102
RTVSPost2010PropOp51
 70
     0
102
RTVSPost2010Prop52
140
1.0
102
RTVSPost2010PropOp52
 70
     0
102
RTVSPost2010Prop53
 90
        2
102
RTVSPost2010PropOp53
 70
     1
102
RTVSPost2010Prop54
  1
strokes_ogs.tif
102
RTVSPost2010PropOp54
 70
     1
102
RTVSPost2010Prop55
280
     0
102
RTVSPost2010PropOp55
 70
     1
102
RTVSPost2010Prop56
140
1.0
102
RTVSPost2010PropOp56
 70
     1
102
RTVSPost2010Prop57
140
1.0
102
RTVSPost2010PropOp57
 70
     1
  0
XRECORD
  5
193
102
{ACAD_REACTORS
330
192
102
}
330
192
100
AcDbXrecord
280
     1
102
RTVSPost2010Prop28
280
     0
102
RTVSPost2010PropOp28
 70
     1
102
RTVSPost2010Prop29
280
     1
102
RTVSPost2010PropOp29
 70
     1
102
RTVSPost2010Prop30
280
     1
102
RTVSPost2010PropOp30
 70
     1
102
RTVSPost2010Prop31
280
     0
102
RTVSPost2010PropOp31
 70
     1
102
RTVSPost2010Prop32
280
     0
102
RTVSPost2010PropOp32
 70
     1
102
RTVSPost2010Prop33
280
     0
102
RTVSPost2010PropOp33
 70
     1
102
RTVSPost2010Prop34
280
     0
102
RTVSPost2010PropOp34
 70
     1
102
RTVSPost2010Prop35
280
     0
102
RTVSPost2010PropOp35
 70
     1
102
RTVSPost2010Prop36
280
     0
102
RTVSPost2010PropOp36
 70
     1
102
RTVSPost2010Prop37
 90
       50
102
RTVSPost2010PropOp37
 70
     1
102
RTVSPost2010Prop38
140
0.0
102
RTVSPost2010PropOp38
 70
     1
102
RTVSPost2010Prop39
140
1.0
102
RTVSPost2010PropOp39
 70
     1
102
RTVSPost2010Prop40
 90
        0
102
RTVSPost2010PropOp40
 70
     1
102
RTVSPost2010Prop41ColorIndex
 90
       18
102
RTVSPost2010Prop41ColorRGB
 90
        0
102
RTVSPost2010PropOp41
 70
     1
102
RTVSPost2010Prop42
 90
       50
102
RTVSPost2010PropOp42
 70
     1
102
RTVSPost2010Prop43
 90
        3
102
RTVSPost2010PropOp43
 70
     1
102
RTVSPost2010Prop44ColorIndex
 90
        5
102
RTVSPost2010Prop44ColorRGB
 90
      255
102
RTVSPost2010PropOp44
 70
     1
102
RTVSPost2010Prop45
280
     0
102
RTVSPost2010PropOp45
 70
     1
102
RTVSPost2010Prop46
 90
       50
102
RTVSPost2010PropOp46
 70
     1
102
RTVSPost2010Prop47
 90
       50
102
RTVSPost2010PropOp47
 70
     1
102
RTVSPost2010Prop48
 90
       50
102
RTVSPost2010PropOp48
 70
     1
102
RTVSPost2010Prop49
280
     0
102
RTVSPost2010PropOp49
 70
     1
102
RTVSPost2010Prop50
 90
       50
102
RTVSPost2010PropOp50
 70
     1
102
RTVSPost2010Prop51ColorIndex
 90
      256
102
RTVSPost2010Prop51ColorRGB
 90
-16777216
102
RTVSPost2010PropOp51
 70
     0
102
RTVSPost2010Prop52
140
1.0
102
RTVSPost2010PropOp52
 70
     0
102
RTVSPost2010Prop53
 90
        2
102
RTVSPost2010PropOp53
 70
     1
102
RTVSPost2010Prop54
  1
strokes_ogs.tif
102
RTVSPost2010PropOp54
 70
     1
102
RTVSPost2010Prop55
280
     0
102
RTVSPost2010PropOp55
 70
     1
102
RTVSPost2010Prop56
140
1.0
102
RTVSPost2010PropOp56
 70
     1
102
RTVSPost2010Prop57
140
1.0
102
RTVSPost2010PropOp57
 70
     1
  0
XRECORD
  5
1AB
102
{ACAD_REACTORS
330
1AA
102
}
330
1AA
100
AcDbXrecord
280
     1
102
RTVSPost2010Prop28
280
     0
102
RTVSPost2010PropOp28
 70
     1
102
RTVSPost2010Prop29
280
     1
102
RTVSPost2010PropOp29
 70
     1
102
RTVSPost2010Prop30
280
     1
102
RTVSPost2010PropOp30
 70
     1
102
RTVSPost2010Prop31
280
     0
102
RTVSPost2010PropOp31
 70
     1
102
RTVSPost2010Prop32
280
     0
102
RTVSPost2010PropOp32
 70
     1
102
RTVSPost2010Prop33
280
     0
102
RTVSPost2010PropOp33
 70
     1
102
RTVSPost2010Prop34
280
     0
102
RTVSPost2010PropOp34
 70
     1
102
RTVSPost2010Prop35
280
     0
102
RTVSPost2010PropOp35
 70
     1
102
RTVSPost2010Prop36
280
     0
102
RTVSPost2010PropOp36
 70
     1
102
RTVSPost2010Prop37
 90
       50
102
RTVSPost2010PropOp37
 70
     1
102
RTVSPost2010Prop38
140
0.0
102
RTVSPost2010PropOp38
 70
     1
102
RTVSPost2010Prop39
140
1.0
102
RTVSPost2010PropOp39
 70
     1
102
RTVSPost2010Prop40
 90
        0
102
RTVSPost2010PropOp40
 70
     1
102
RTVSPost2010Prop41ColorIndex
 90
       18
102
RTVSPost2010Prop41ColorRGB
 90
        0
102
RTVSPost2010PropOp41
 70
     1
102
RTVSPost2010Prop42
 90
       50
102
RTVSPost2010PropOp42
 70
     1
102
RTVSPost2010Prop43
 90
        3
102
RTVSPost2010PropOp43
 70
     1
102
RTVSPost2010Prop44ColorIndex
 90
        5
102
RTVSPost2010Prop44ColorRGB
 90
      255
102
RTVSPost2010PropOp44
 70
     1
102
RTVSPost2010Prop45
280
     0
102
RTVSPost2010PropOp45
 70
     1
102
RTVSPost2010Prop46
 90
       50
102
RTVSPost2010PropOp46
 70
     1
102
RTVSPost2010Prop47
 90
       50
102
RTVSPost2010PropOp47
 70
     1
102
RTVSPost2010Prop48
 90
       50
102
RTVSPost2010PropOp48
 70
     1
102
RTVSPost2010Prop49
280
     0
102
RTVSPost2010PropOp49
 70
     1
102
RTVSPost2010Prop50
 90
       50
102
RTVSPost2010PropOp50
 70
     1
102
RTVSPost2010Prop51ColorIndex
 90
      256
102
RTVSPost2010Prop51ColorRGB
 90
-16777216
102
RTVSPost2010PropOp51
 70
     0
102
RTVSPost2010Prop52
140
1.0
102
RTVSPost2010PropOp52
 70
     0
102
RTVSPost2010Prop53
 90
        2
102
RTVSPost2010PropOp53
 70
     1
102
RTVSPost2010Prop54
  1
strokes_ogs.tif
102
RTVSPost2010PropOp54
 70
     1
102
RTVSPost2010Prop55
280
     0
102
RTVSPost2010PropOp55
 70
     1
102
RTVSPost2010Prop56
140
1.0
102
RTVSPost2010PropOp56
 70
     1
102
RTVSPost2010Prop57
140
1.0
102
RTVSPost2010PropOp57
 70
     1
  0
ENDSEC
  0
EOF
