  0
SECTION
  2
HEADER
  9
$ACADVER
  1
AC1024
  9
$ACADMAINTVER
 70
     6
  9
$DWGCODEPAGE
  3
UNDEFINED
  9
$INSBASE
 10
0.0
 20
0.0
 30
0.0
  9
$EXTMIN
 10
1.000000000000000E+20
 20
1.000000000000000E+20
 30
1.000000000000000E+20
  9
$EXTMAX
 10
-1.000000000000000E+20
 20
-1.000000000000000E+20
 30
-1.000000000000000E+20
  9
$LIMMIN
 10
0.0
 20
0.0
  9
$LIMMAX
 10
12.0
 20
9.0
  9
$ORTHOMODE
 70
     0
  9
$REGENMODE
 70
     1
  9
$FILLMODE
 70
     1
  9
$QTEXTMODE
 70
     0
  9
$MIRRTEXT
 70
     1
  9
$LTSCALE
 40
1.0
  9
$ATTMODE
 70
     1
  9
$TEXTSIZE
 40
0.2
  9
$TRACEWID
 40
0.05
  9
$TEXTSTYLE
  7
Standard
  9
$CLAYER
  8
0
  9
$CELTYPE
  6
ByLayer
  9
$CECOLOR
 62
   256
  9
$CELTSCALE
 40
1.0
  9
$DISPSILH
 70
     0
  9
$DIMSCALE
 40
1.0
  9
$DIMASZ
 40
0.18
  9
$DIMEXO
 40
0.0625
  9
$DIMDLI
 40
0.38
  9
$DIMRND
 40
0.0
  9
$DIMDLE
 40
0.0
  9
$DIMEXE
 40
0.18
  9
$DIMTP
 40
0.0
  9
$DIMTM
 40
0.0
  9
$DIMTXT
 40
0.18
  9
$DIMCEN
 40
0.09
  9
$DIMTSZ
 40
0.0
  9
$DIMTOL
 70
     0
  9
$DIMLIM
 70
     0
  9
$DIMTIH
 70
     1
  9
$DIMTOH
 70
     1
  9
$DIMSE1
 70
     0
  9
$DIMSE2
 70
     0
  9
$DIMTAD
 70
     0
  9
$DIMZIN
 70
     0
  9
$DIMBLK
  1

  9
$DIMASO
 70
     1
  9
$DIMSHO
 70
     1
  9
$DIMPOST
  1

  9
$DIMAPOST
  1

  9
$DIMALT
 70
     0
  9
$DIMALTD
 70
     2
  9
$DIMALTF
 40
25.4
  9
$DIMLFAC
 40
1.0
  9
$DIMTOFL
 70
     0
  9
$DIMTVP
 40
0.0
  9
$DIMTIX
 70
     0
  9
$DIMSOXD
 70
     0
  9
$DIMSAH
 70
     0
  9
$DIMBLK1
  1

  9
$DIMBLK2
  1

  9
$DIMSTYLE
  2
Standard
  9
$DIMCLRD
 70
     0
  9
$DIMCLRE
 70
     0
  9
$DIMCLRT
 70
     0
  9
$DIMTFAC
 40
1.0
  9
$DIMGAP
 40
0.09
  9
$DIMJUST
 70
     0
  9
$DIMSD1
 70
     0
  9
$DIMSD2
 70
     0
  9
$DIMTOLJ
 70
     1
  9
$DIMTZIN
 70
     0
  9
$DIMALTZ
 70
     0
  9
$DIMALTTZ
 70
     0
  9
$DIMUPT
 70
     0
  9
$DIMDEC
 70
     4
  9
$DIMTDEC
 70
     4
  9
$DIMALTU
 70
     2
  9
$DIMALTTD
 70
     2
  9
$DIMTXSTY
  7
Standard
  9
$DIMAUNIT
 70
     0
  9
$DIMADEC
 70
     0
  9
$DIMALTRND
 40
0.0
  9
$DIMAZIN
 70
     0
  9
$DIMDSEP
 70
    46
  9
$DIMATFIT
 70
     3
  9
$DIMFRAC
 70
     0
  9
$DIMLDRBLK
  1

  9
$DIMLUNIT
 70
     2
  9
$DIMLWD
 70
    -2
  9
$DIMLWE
 70
    -2
  9
$DIMTMOVE
 70
     0
  9
$DIMFXL
 40
1.0
  9
$DIMFXLON
 70
     0
  9
$DIMJOGANG
 40
0.7853981633974483
  9
$DIMTFILL
 70
     0
  9
$DIMTFILLCLR
 70
     0
  9
$DIMARCSYM
 70
     0
  9
$DIMLTYPE
  6

  9
$DIMLTEX1
  6

  9
$DIMLTEX2
  6

  9
$DIMTXTDIRECTION
 70
     0
  9
$LUNITS
 70
     2
  9
$LUPREC
 70
     4
  9
$SKETCHINC
 40
0.1
  9
$FILLETRAD
 40
0.5
  9
$AUNITS
 70
     0
  9
$AUPREC
 70
     0
  9
$MENU
  1
.
  9
$ELEVATION
 40
0.0
  9
$PELEVATION
 40
0.0
  9
$THICKNESS
 40
0.0
  9
$LIMCHECK
 70
     0
  9
$CHAMFERA
 40
0.5
  9
$CHAMFERB
 40
0.5
  9
$CHAMFERC
 40
1.0
  9
$CHAMFERD
 40
0.0
  9
$SKPOLY
 70
     0
  9
$TDCREATE
 40
2458270.58835647
  9
$TDUCREATE
 40
2458270.213356481
  9
$TDUPDATE
 40
2458270.58835647
  9
$TDUUPDATE
 40
2458270.213356481
  9
$TDINDWG
 40
0.0000000116
  9
$TDUSRTIMER
 40
0.0000000116
  9
$USRTIMER
 70
     1
  9
$ANGBASE
 50
0.0
  9
$ANGDIR
 70
     0
  9
$PDMODE
 70
     0
  9
$PDSIZE
 40
0.0
  9
$PLINEWID
 40
0.0
  9
$SPLFRAME
 70
     0
  9
$SPLINETYPE
 70
     6
  9
$SPLINESEGS
 70
     8
  9
$HANDSEED
  5
1E6
  9
$SURFTAB1
 70
     6
  9
$SURFTAB2
 70
     6
  9
$SURFTYPE
 70
     6
  9
$SURFU
 70
     6
  9
$SURFV
 70
     6
  9
$UCSBASE
  2

  9
$UCSNAME
  2

  9
$UCSORG
 10
0.0
 20
0.0
 30
0.0
  9
$UCSXDIR
 10
1.0
 20
0.0
 30
0.0
  9
$UCSYDIR
 10
0.0
 20
1.0
 30
0.0
  9
$UCSORTHOREF
  2

  9
$UCSORTHOVIEW
 70
     0
  9
$UCSORGTOP
 10
0.0
 20
0.0
 30
0.0
  9
$UCSORGBOTTOM
 10
0.0
 20
0.0
 30
0.0
  9
$UCSORGLEFT
 10
0.0
 20
0.0
 30
0.0
  9
$UCSORGRIGHT
 10
0.0
 20
0.0
 30
0.0
  9
$UCSORGFRONT
 10
0.0
 20
0.0
 30
0.0
  9
$UCSORGBACK
 10
0.0
 20
0.0
 30
0.0
  9
$PUCSBASE
  2

  9
$PUCSNAME
  2

  9
$PUCSORG
 10
0.0
 20
0.0
 30
0.0
  9
$PUCSXDIR
 10
1.0
 20
0.0
 30
0.0
  9
$PUCSYDIR
 10
0.0
 20
1.0
 30
0.0
  9
$PUCSORTHOREF
  2

  9
$PUCSORTHOVIEW
 70
     0
  9
$PUCSORGTOP
 10
0.0
 20
0.0
 30
0.0
  9
$PUCSORGBOTTOM
 10
0.0
 20
0.0
 30
0.0
  9
$PUCSORGLEFT
 10
0.0
 20
0.0
 30
0.0
  9
$PUCSORGRIGHT
 10
0.0
 20
0.0
 30
0.0
  9
$PUCSORGFRONT
 10
0.0
 20
0.0
 30
0.0
  9
$PUCSORGBACK
 10
0.0
 20
0.0
 30
0.0
  9
$USERI1
 70
     0
  9
$USERI2
 70
     0
  9
$USERI3
 70
     0
  9
$USERI4
 70
     0
  9
$USERI5
 70
     0
  9
$USERR1
 40
0.0
  9
$USERR2
 40
0.0
  9
$USERR3
 40
0.0
  9
$USERR4
 40
0.0
  9
$USERR5
 40
0.0
  9
$WORLDVIEW
 70
     1
  9
$SHADEDGE
 70
     3
  9
$SHADEDIF
 70
    70
  9
$TILEMODE
 70
     1
  9
$MAXACTVP
 70
    64
  9
$PINSBASE
 10
0.0
 20
0.0
 30
0.0
  9
$PLIMCHECK
 70
     0
  9
$PEXTMIN
 10
1.000000000000000E+20
 20
1.000000000000000E+20
 30
1.000000000000000E+20
  9
$PEXTMAX
 10
-1.000000000000000E+20
 20
-1.000000000000000E+20
 30
-1.000000000000000E+20
  9
$PLIMMIN
 10
0.0
 20
0.0
  9
$PLIMMAX
 10
12.0
 20
9.0
  9
$UNITMODE
 70
     0
  9
$VISRETAIN
 70
     1
  9
$PLINEGEN
 70
     0
  9
$PSLTSCALE
 70
     1
  9
$TREEDEPTH
 70
  3020
  9
$CMLSTYLE
  2
Standard
  9
$CMLJUST
 70
     0
  9
$CMLSCALE
 40
1.0
  9
$PROXYGRAPHICS
 70
     1
  9
$MEASUREMENT
 70
     0
  9
$CELWEIGHT
370
    -1
  9
$ENDCAPS
280
     0
  9
$JOINSTYLE
280
     0
  9
$LWDISPLAY
290
     1
  9
$INSUNITS
 70
     1
  9
$HYPERLINKBASE
  1

  9
$STYLESHEET
  1

  9
$XEDIT
290
     1
  9
$CEPSNTYPE
380
     0
  9
$PSTYLEMODE
290
     1
  9
$FINGERPRINTGUID
  2
{481D0395-35A5-A8EB-54C6-F808C07EAF86}
  9
$VERSIONGUID
  2
{FAEB1C32-E019-11D5-929B-00C0DF256EC4}
  9
$EXTNAMES
290
     1
  9
$PSVPSCALE
 40
0.0
  9
$OLESTARTUP
290
     0
  9
$SORTENTS
280
   127
  9
$INDEXCTL
280
     0
  9
$HIDETEXT
280
     1
  9
$XCLIPFRAME
280
     2
  9
$HALOGAP
280
     0
  9
$OBSCOLOR
 70
   257
  9
$OBSLTYPE
280
     0
  9
$INTERSECTIONDISPLAY
280
     0
  9
$INTERSECTIONCOLOR
 70
   257
  9
$DIMASSOC
280
     2
  9
$PROJECTNAME
  1

  9
$CAMERADISPLAY
290
     0
  9
$LENSLENGTH
 40
50.0
  9
$CAMERAHEIGHT
 40
0.0
  9
$STEPSPERSEC
 40
2.0
  9
$STEPSIZE
 40
6.0
  9
$3DDWFPREC
 40
2.0
  9
$PSOLWIDTH
 40
0.25
  9
$PSOLHEIGHT
 40
4.0
  9
$LOFTANG1
 40
1.570796326794897
  9
$LOFTANG2
 40
1.570796326794897
  9
$LOFTMAG1
 40
0.0
  9
$LOFTMAG2
 40
0.0
  9
$LOFTPARAM
 70
     7
  9
$LOFTNORMALS
280
     1
  9
$LATITUDE
 40
37.795
  9
$LONGITUDE
 40
-122.394
  9
$NORTHDIRECTION
 40
0.0
  9
$TIMEZONE
 70
 -8000
  9
$LIGHTGLYPHDISPLAY
280
     1
  9
$TILEMODELIGHTSYNCH
280
     1
  9
$CMATERIAL
347
3C
  9
$SOLIDHIST
280
     1
  9
$SHOWHIST
280
     1
  9
$DWFFRAME
280
     2
  9
$DGNFRAME
280
     2
  9
$REALWORLDSCALE
290
     1
  9
$INTERFERECOLOR
 62
   256
  9
$CSHADOW
280
     0
  9
$SHADOWPLANELOCATION
 40
0.0
  0
ENDSEC
  0
SECTION
  2
CLASSES
  0
CLASS
  1
ACDBDICTIONARYWDFLT
  2
AcDbDictionaryWithDefault
  3
ObjectDBX Classes
 90
        0
 91
        4
280
     0
281
     0
  0
CLASS
  1
VISUALSTYLE
  2
AcDbVisualStyle
  3
ObjectDBX Classes
 90
     4095
 91
        4
280
     0
281
     0
  0
CLASS
  1
MATERIAL
  2
AcDbMaterial
  3
ObjectDBX Classes
 90
     1153
 91
        4
280
     0
281
     0
  0
CLASS
  1
SUN
  2
AcDbSun
  3
SCENEOE
 90
     1024
 91
        4
280
     0
281
     0
  0
ENDSEC
  0
SECTION
  2
TABLES
  0
TABLE
  2
VPORT
  5
8
330
0
100
AcDbSymbolTable
 70
     1
  0
VPORT
  5
29
330
8
100
AcDbSymbolTableRecord
100
AcDbViewportTableRecord
  2
*Active
 70
     0
 10
0.0
 20
0.0
 11
1.0
 21
1.0
 12
0.0
 22
0.0
 13
0.0
 23
0.0
 14
0.5
 24
0.5
 15
0.5
 25
0.5
 16
0.0
 26
0.0
 36
1.0
 17
105.0007777515277
 27
-148.5000416295416
 37
0.0
 40
297.0000832590831
 41
0.7070757462376333
 42
50.0
 43
0.0
 44
0.0
 50
0.0
 51
0.0
 71
     0
 72
   100
 73
     1
 74
     3
 75
     0
 76
     0
 77
     0
 78
     0
281
     0
 65
     1
110
0.0
120
0.0
130
0.0
111
1.0
121
0.0
131
0.0
112
0.0
122
1.0
132
0.0
 79
     0
146
0.0
 60
     3
 61
     5
292
     1
282
     1
141
0.0
142
0.0
 63
   250
361
3F
  0
ENDTAB
  0
TABLE
  2
LTYPE
  5
5
330
0
100
AcDbSymbolTable
 70
     2
  0
LTYPE
  5
14
330
5
100
AcDbSymbolTableRecord
100
AcDbLinetypeTableRecord
  2
ByBlock
 70
     0
  3

 72
    65
 73
     0
 40
0.0
  0
LTYPE
  5
15
330
5
100
AcDbSymbolTableRecord
100
AcDbLinetypeTableRecord
  2
ByLayer
 70
     0
  3

 72
    65
 73
     0
 40
0.0
  0
LTYPE
  5
16
330
5
100
AcDbSymbolTableRecord
100
AcDbLinetypeTableRecord
  2
Continuous
 70
     0
  3
Solid line
 72
    65
 73
     0
 40
0.0
  0
LTYPE
  5
1E2
330
5
100
AcDbSymbolTableRecord
100
AcDbLinetypeTableRecord
  2
AI-Linetype-1
 70
     0
  3
Adobe Illustrator Linetype No. 1
 72
    65
 73
     2
 40
1.411111110758333
 49
0.7055555553791667
 74
     0
 49
-0.7055555553791667
 74
     0
  0
ENDTAB
  0
TABLE
  2
LAYER
  5
2
330
0
100
AcDbSymbolTable
 70
     2
  0
LAYER
  5
10
330
2
100
AcDbSymbolTableRecord
100
AcDbLayerTableRecord
  2
0
 70
     0
 62
     7
  6
Continuous
370
    -3
390
F
347
3E
  0
LAYER
  5
40
330
2
100
AcDbSymbolTableRecord
100
AcDbLayerTableRecord
  2
_U+30EC_U+30A4_U+30E4_U+30FC 1
 70
     0
 62
     7
  6
Continuous
370
    -3
390
F
347
3E
  0
ENDTAB
  0
TABLE
  2
STYLE
  5
3
330
0
100
AcDbSymbolTable
 70
     1
  0
STYLE
  5
11
330
3
100
AcDbSymbolTableRecord
100
AcDbTextStyleTableRecord
  2
Standard
 70
     0
 40
0.0
 41
1.0
 50
0.0
 71
     0
 42
0.2
  3
txt
  4

  0
ENDTAB
  0
TABLE
  2
VIEW
  5
6
330
0
100
AcDbSymbolTable
 70
     0
  0
ENDTAB
  0
TABLE
  2
UCS
  5
7
330
0
100
AcDbSymbolTable
 70
     0
  0
ENDTAB
  0
TABLE
  2
APPID
  5
9
330
0
100
AcDbSymbolTable
 70
     1
  0
APPID
  5
12
330
9
100
AcDbSymbolTableRecord
100
AcDbRegAppTableRecord
  2
ACAD
 70
     0
  0
ENDTAB
  0
TABLE
  2
DIMSTYLE
  5
A
330
0
100
AcDbSymbolTable
 70
     1
100
AcDbDimStyleTable
  0
DIMSTYLE
105
27
330
A
100
AcDbSymbolTableRecord
100
AcDbDimStyleTableRecord
  2
Standard
 70
     0
178
     0
340
11
  0
ENDTAB
  0
TABLE
  2
BLOCK_RECORD
  5
1
330
0
100
AcDbSymbolTable
 70
     8
  0
BLOCK_RECORD
  5
1F
330
1
100
AcDbSymbolTableRecord
100
AcDbBlockTableRecord
  2
*Model_Space
340
22
 70
     0
280
     1
281
     0
  0
BLOCK_RECORD
  5
1B
330
1
100
AcDbSymbolTableRecord
100
AcDbBlockTableRecord
  2
*Paper_Space
340
1E
 70
     0
280
     1
281
     0
  0
BLOCK_RECORD
  5
23
330
1
100
AcDbSymbolTableRecord
100
AcDbBlockTableRecord
  2
*Paper_Space0
340
26
 70
     0
280
     1
281
     0
  0
BLOCK_RECORD
  5
4F
330
1
100
AcDbSymbolTableRecord
100
AcDbBlockTableRecord
  2
block 2
340
0
102
{BLKREFS
331
50
102
}
 70
     0
280
     1
281
     0
  0
BLOCK_RECORD
  5
E4
330
1
100
AcDbSymbolTableRecord
100
AcDbBlockTableRecord
  2
block 3
340
0
102
{BLKREFS
331
E5
102
}
 70
     0
280
     1
281
     0
  0
BLOCK_RECORD
  5
FB
330
1
100
AcDbSymbolTableRecord
100
AcDbBlockTableRecord
  2
block 4
340
0
102
{BLKREFS
331
FC
102
}
 70
     0
280
     1
281
     0
  0
BLOCK_RECORD
  5
10E
330
1
100
AcDbSymbolTableRecord
100
AcDbBlockTableRecord
  2
block 5
340
0
102
{BLKREFS
331
10F
102
}
 70
     0
280
     1
281
     0
  0
BLOCK_RECORD
  5
133
330
1
100
AcDbSymbolTableRecord
100
AcDbBlockTableRecord
  2
block 6
340
0
102
{BLKREFS
331
134
102
}
 70
     0
280
     1
281
     0
  0
BLOCK_RECORD
  5
198
330
1
100
AcDbSymbolTableRecord
100
AcDbBlockTableRecord
  2
block 7
340
0
102
{BLKREFS
331
199
102
}
 70
     0
280
     1
281
     0
  0
BLOCK_RECORD
  5
1C7
330
1
100
AcDbSymbolTableRecord
100
AcDbBlockTableRecord
  2
block 8
340
0
102
{BLKREFS
331
1C8
102
}
 70
     0
280
     1
281
     0
  0
ENDTAB
  0
ENDSEC
  0
SECTION
  2
BLOCKS
  0
BLOCK
  5
20
330
1F
100
AcDbEntity
  8
0
100
AcDbBlockBegin
  2
*Model_Space
 70
     0
 10
0.0
 20
0.0
 30
0.0
  3
*Model_Space
  1

  0
ENDBLK
  5
21
330
1F
100
AcDbEntity
  8
0
100
AcDbBlockEnd
  0
BLOCK
  5
1C
330
1B
100
AcDbEntity
 67
     1
  8
0
100
AcDbBlockBegin
  2
*Paper_Space
 70
     0
 10
0.0
 20
0.0
 30
0.0
  3
*Paper_Space
  1

  0
ENDBLK
  5
1D
330
1B
100
AcDbEntity
 67
     1
  8
0
100
AcDbBlockEnd
  0
BLOCK
  5
24
330
23
100
AcDbEntity
  8
0
100
AcDbBlockBegin
  2
*Paper_Space0
 70
     0
 10
0.0
 20
0.0
 30
0.0
  3
*Paper_Space0
  1

  0
ENDBLK
  5
25
330
23
100
AcDbEntity
  8
0
100
AcDbBlockEnd
  0
BLOCK
  5
51
330
4F
100
AcDbEntity
  8
0
100
AcDbBlockBegin
  2
block 2
 70
     0
 10
0.0
 20
0.0
 30
0.0
  3
block 2
  1

  0
SPLINE
  5
53
330
4F
100
AcDbEntity
  8
_U+30EC_U+30A4_U+30E4_U+30FC 1
370
     0
100
AcDbSpline
210
0.0
220
0.0
230
1.0
 70
    11
 71
     3
 72
    26
 73
    22
 74
     0
 42
0.0000000001
 43
0.0000000001
 12
1.0
 22
0.0
 32
0.0
 13
1.0
 23
0.0
 33
0.0
 40
0.0
 40
0.0
 40
0.0
 40
0.0
 40
1.0
 40
1.0
 40
1.0
 40
2.0
 40
2.0
 40
2.0
 40
3.0
 40
3.0
 40
3.0
 40
4.0
 40
4.0
 40
4.0
 40
5.0
 40
5.0
 40
5.0
 40
6.0
 40
6.0
 40
6.0
 40
7.0
 40
7.0
 40
7.0
 40
7.0
 10
92.47566458191581
 20
-165.0548692078682
 30
0.0
 10
92.47566458191581
 20
-165.0548692078682
 30
0.0
 10
92.47566458191581
 20
-163.9507161048457
 30
0.0
 10
92.47566458191581
 20
-163.9507161048457
 30
0.0
 10
92.47566458191581
 20
-163.9507161048457
 30
0.0
 10
92.14562443442888
 20
-163.9507161048457
 30
0.0
 10
92.14562443442888
 20
-163.9507161048457
 30
0.0
 10
92.14562443442888
 20
-163.9507161048457
 30
0.0
 10
92.14562443442888
 20
-163.8025769989799
 30
0.0
 10
92.14562443442888
 20
-163.8025769989799
 30
0.0
 10
92.47773163920697
 20
-163.7877630883933
 30
0.0
 10
92.52424042825783
 20
-163.624810071941
 30
0.0
 10
92.55386824943098
 20
-163.5104329018307
 30
0.0
 10
92.55386824943098
 20
-163.5104329018307
 30
0.0
 10
92.69994029800557
 20
-163.5104329018307
 30
0.0
 10
92.69994029800557
 20
-163.5104329018307
 30
0.0
 10
92.69994029800557
 20
-163.5104329018307
 30
0.0
 10
92.69994029800557
 20
-165.0548692078682
 30
0.0
 10
92.69994029800557
 20
-165.0548692078682
 30
0.0
 10
92.69994029800557
 20
-165.0548692078682
 30
0.0
 10
92.47566458191581
 20
-165.0548692078682
 30
0.0
 10
92.47566458191581
 20
-165.0548692078682
 30
0.0
  0
HATCH
  5
54
330
4F
100
AcDbEntity
  8
_U+30EC_U+30A4_U+30E4_U+30FC 1
 62
   179
420
  2234388
100
AcDbHatch
 10
0.0
 20
0.0
 30
0.0
210
0.0
220
0.0
230
1.0
  2
SOLID
 70
     1
 71
     0
 91
        1
 92
        1
 93
        1
 72
     4
 94
        3
 73
     0
 74
     1
 95
       26
 96
       22
 40
0.0
 40
0.0
 40
0.0
 40
0.0
 40
1.0
 40
1.0
 40
1.0
 40
2.0
 40
2.0
 40
2.0
 40
3.0
 40
3.0
 40
3.0
 40
4.0
 40
4.0
 40
4.0
 40
5.0
 40
5.0
 40
5.0
 40
6.0
 40
6.0
 40
6.0
 40
7.0
 40
7.0
 40
7.0
 40
7.0
 10
92.47566458191581
 20
-165.0548692078682
 10
92.47566458191581
 20
-165.0548692078682
 10
92.47566458191581
 20
-163.9507161048457
 10
92.47566458191581
 20
-163.9507161048457
 10
92.47566458191581
 20
-163.9507161048457
 10
92.14562443442888
 20
-163.9507161048457
 10
92.14562443442888
 20
-163.9507161048457
 10
92.14562443442888
 20
-163.9507161048457
 10
92.14562443442888
 20
-163.8025769989799
 10
92.14562443442888
 20
-163.8025769989799
 10
92.47773163920697
 20
-163.7877630883933
 10
92.52424042825783
 20
-163.624810071941
 10
92.55386824943098
 20
-163.5104329018307
 10
92.55386824943098
 20
-163.5104329018307
 10
92.69994029800557
 20
-163.5104329018307
 10
92.69994029800557
 20
-163.5104329018307
 10
92.69994029800557
 20
-163.5104329018307
 10
92.69994029800557
 20
-165.0548692078682
 10
92.69994029800557
 20
-165.0548692078682
 10
92.69994029800557
 20
-165.0548692078682
 10
92.47566458191581
 20
-165.0548692078682
 10
92.47566458191581
 20
-165.0548692078682
 97
        0
 97
        0
 75
     2
 76
     1
 98
        0
  0
SPLINE
  5
55
330
4F
100
AcDbEntity
  8
_U+30EC_U+30A4_U+30E4_U+30FC 1
370
     0
100
AcDbSpline
210
0.0
220
0.0
230
1.0
 70
    11
 71
     3
 72
    29
 73
    25
 74
     0
 42
0.0000000001
 43
0.0000000001
 12
1.0
 22
0.0
 32
0.0
 13
1.0
 23
0.0
 33
0.0
 40
0.0
 40
0.0
 40
0.0
 40
0.0
 40
1.0
 40
1.0
 40
1.0
 40
2.0
 40
2.0
 40
2.0
 40
3.0
 40
3.0
 40
3.0
 40
4.0
 40
4.0
 40
4.0
 40
5.0
 40
5.0
 40
5.0
 40
6.0
 40
6.0
 40
6.0
 40
7.0
 40
7.0
 40
7.0
 40
8.0
 40
8.0
 40
8.0
 40
8.0
 10
94.09899357456554
 20
-164.8771022808293
 30
0.0
 10
93.9908175763287
 20
-165.0865640863325
 30
0.0
 10
93.81752927342062
 20
-165.1055121115014
 30
0.0
 10
93.70108504601917
 20
-165.1055121115014
 30
0.0
 10
93.54019908685801
 20
-165.1055121115014
 30
0.0
 10
93.39860566241424
 20
-165.0590033224505
 30
0.0
 10
93.30352102702135
 20
-164.8771022808293
 30
0.0
 10
93.19982365291533
 20
-164.6824543859127
 30
0.0
 10
93.18087562774645
 20
-164.4454318165275
 30
0.0
 10
93.18087562774645
 20
-164.2828233096238
 30
0.0
 10
93.18087562774645
 20
-164.1388183183403
 30
0.0
 10
93.19775659562417
 20
-163.8869818383685
 30
0.0
 10
93.30352102702135
 20
-163.6881998288696
 30
0.0
 10
93.41135251570967
 20
-163.4852837047884
 30
0.0
 10
93.57223847487083
 20
-163.4618570554887
 30
0.0
 10
93.70108504601917
 20
-163.4618570554887
 30
0.0
 10
93.8599039478892
 20
-163.4618570554887
 30
0.0
 10
94.00356442962412
 20
-163.5062987872484
 30
0.0
 10
94.09899357456554
 20
-163.6881998288696
 30
0.0
 10
94.19821232454073
 20
-163.8807806664951
 30
0.0
 10
94.22163897384043
 20
-164.1091904971672
 30
0.0
 10
94.22163897384043
 20
-164.2828233096238
 30
0.0
 10
94.22163897384043
 20
-164.4540445552407
 30
0.0
 10
94.20027938183188
 20
-164.6845214432039
 30
0.0
 10
94.09899357456554
 20
-164.8771022808293
 30
0.0
  0
SPLINE
  5
56
330
4F
100
AcDbEntity
  8
_U+30EC_U+30A4_U+30E4_U+30FC 1
370
     0
100
AcDbSpline
210
0.0
220
0.0
230
1.0
 70
    11
 71
     3
 72
    17
 73
    13
 74
     0
 42
0.0000000001
 43
0.0000000001
 12
1.0
 22
0.0
 32
0.0
 13
1.0
 23
0.0
 33
0.0
 40
0.0
 40
0.0
 40
0.0
 40
0.0
 40
1.0
 40
1.0
 40
1.0
 40
2.0
 40
2.0
 40
2.0
 40
3.0
 40
3.0
 40
3.0
 40
4.0
 40
4.0
 40
4.0
 40
4.0
 10
93.70108504601917
 20
-163.6544378931142
 30
0.0
 10
93.45166013288708
 20
-163.6544378931142
 30
0.0
 10
93.4048068342877
 20
-163.9379692515502
 30
0.0
 10
93.4048068342877
 20
-164.2828233096238
 30
0.0
 10
93.4048068342877
 20
-164.6021836611064
 30
0.0
 10
93.44098033688282
 20
-164.9108642165848
 30
0.0
 10
93.70108504601917
 20
-164.9108642165848
 30
0.0
 10
93.94878741140865
 20
-164.9108642165848
 30
0.0
 10
93.99736325775066
 20
-164.6297444249884
 30
0.0
 10
93.99736325775066
 20
-164.2828233096238
 30
0.0
 10
93.99736325775066
 20
-163.9631184485926
 30
0.0
 10
93.95912269786439
 20
-163.6544378931142
 30
0.0
 10
93.70108504601917
 20
-163.6544378931142
 30
0.0
  0
HATCH
  5
57
330
4F
100
AcDbEntity
  8
_U+30EC_U+30A4_U+30E4_U+30FC 1
 62
   179
420
  2234388
100
AcDbHatch
 10
0.0
 20
0.0
 30
0.0
210
0.0
220
0.0
230
1.0
  2
SOLID
 70
     1
 71
     0
 91
        2
 92
        1
 93
        1
 72
     4
 94
        3
 73
     0
 74
     1
 95
       29
 96
       25
 40
0.0
 40
0.0
 40
0.0
 40
0.0
 40
1.0
 40
1.0
 40
1.0
 40
2.0
 40
2.0
 40
2.0
 40
3.0
 40
3.0
 40
3.0
 40
4.0
 40
4.0
 40
4.0
 40
5.0
 40
5.0
 40
5.0
 40
6.0
 40
6.0
 40
6.0
 40
7.0
 40
7.0
 40
7.0
 40
8.0
 40
8.0
 40
8.0
 40
8.0
 10
94.09899357456554
 20
-164.8771022808293
 10
93.9908175763287
 20
-165.0865640863325
 10
93.81752927342062
 20
-165.1055121115014
 10
93.70108504601917
 20
-165.1055121115014
 10
93.54019908685801
 20
-165.1055121115014
 10
93.39860566241424
 20
-165.0590033224505
 10
93.30352102702135
 20
-164.8771022808293
 10
93.19982365291533
 20
-164.6824543859127
 10
93.18087562774645
 20
-164.4454318165275
 10
93.18087562774645
 20
-164.2828233096238
 10
93.18087562774645
 20
-164.1388183183403
 10
93.19775659562417
 20
-163.8869818383685
 10
93.30352102702135
 20
-163.6881998288696
 10
93.41135251570967
 20
-163.4852837047884
 10
93.57223847487083
 20
-163.4618570554887
 10
93.70108504601917
 20
-163.4618570554887
 10
93.8599039478892
 20
-163.4618570554887
 10
94.00356442962412
 20
-163.5062987872484
 10
94.09899357456554
 20
-163.6881998288696
 10
94.19821232454073
 20
-163.8807806664951
 10
94.22163897384043
 20
-164.1091904971672
 10
94.22163897384043
 20
-164.2828233096238
 10
94.22163897384043
 20
-164.4540445552407
 10
94.20027938183188
 20
-164.6845214432039
 10
94.09899357456554
 20
-164.8771022808293
 97
        0
 97
        0
 92
        1
 93
        1
 72
     4
 94
        3
 73
     0
 74
     1
 95
       17
 96
       13
 40
0.0
 40
0.0
 40
0.0
 40
0.0
 40
1.0
 40
1.0
 40
1.0
 40
2.0
 40
2.0
 40
2.0
 40
3.0
 40
3.0
 40
3.0
 40
4.0
 40
4.0
 40
4.0
 40
4.0
 10
93.70108504601917
 20
-163.6544378931142
 10
93.45166013288708
 20
-163.6544378931142
 10
93.4048068342877
 20
-163.9379692515502
 10
93.4048068342877
 20
-164.2828233096238
 10
93.4048068342877
 20
-164.6021836611064
 10
93.44098033688282
 20
-164.9108642165848
 10
93.70108504601917
 20
-164.9108642165848
 10
93.94878741140865
 20
-164.9108642165848
 10
93.99736325775066
 20
-164.6297444249884
 10
93.99736325775066
 20
-164.2828233096238
 10
93.99736325775066
 20
-163.9631184485926
 10
93.95912269786439
 20
-163.6544378931142
 10
93.70108504601917
 20
-163.6544378931142
 97
        0
 97
        0
 75
     2
 76
     1
 98
        0
  0
ENDBLK
  5
52
330
4F
100
AcDbEntity
  8
0
100
AcDbBlockEnd
  0
BLOCK
  5
E6
330
E4
100
AcDbEntity
  8
0
100
AcDbBlockBegin
  2
block 3
 70
     0
 10
0.0
 20
0.0
 30
0.0
  3
block 3
  1

  0
SPLINE
  5
E8
330
E4
100
AcDbEntity
  8
_U+30EC_U+30A4_U+30E4_U+30FC 1
370
     0
100
AcDbSpline
210
0.0
220
0.0
230
1.0
 70
    11
 71
     3
 72
    44
 73
    40
 74
     0
 42
0.0000000001
 43
0.0000000001
 12
1.0
 22
0.0
 32
0.0
 13
1.0
 23
0.0
 33
0.0
 40
0.0
 40
0.0
 40
0.0
 40
0.0
 40
1.0
 40
1.0
 40
1.0
 40
2.0
 40
2.0
 40
2.0
 40
3.0
 40
3.0
 40
3.0
 40
4.0
 40
4.0
 40
4.0
 40
5.0
 40
5.0
 40
5.0
 40
6.0
 40
6.0
 40
6.0
 40
7.0
 40
7.0
 40
7.0
 40
8.0
 40
8.0
 40
8.0
 40
9.0
 40
9.0
 40
9.0
 40
10.0
 40
10.0
 40
10.0
 40
11.0
 40
11.0
 40
11.0
 40
12.0
 40
12.0
 40
12.0
 40
13.0
 40
13.0
 40
13.0
 40
13.0
 10
111.8202202411422
 20
-132.3166435758618
 30
0.0
 10
111.6024902064744
 20
-132.4754624777318
 30
0.0
 10
111.5094726283726
 20
-132.5495320306647
 30
0.0
 10
111.4605522724821
 20
-132.6931925123996
 30
0.0
 10
111.4605522724821
 20
-132.6931925123996
 30
0.0
 10
112.2391438521486
 20
-132.6931925123996
 30
0.0
 10
112.2391438521486
 20
-132.6931925123996
 30
0.0
 10
112.2391438521486
 20
-132.6931925123996
 30
0.0
 10
112.2391438521486
 20
-132.8985202033205
 30
0.0
 10
112.2391438521486
 20
-132.8985202033205
 30
0.0
 10
112.2391438521486
 20
-132.8985202033205
 30
0.0
 10
111.21112735935
 20
-132.8985202033205
 30
0.0
 10
111.21112735935
 20
-132.8985202033205
 30
0.0
 10
111.2428222378143
 20
-132.5409192919516
 30
0.0
 10
111.3082790520341
 20
-132.4627156244364
 30
0.0
 10
111.693440727285
 20
-132.1643703554138
 30
0.0
 10
111.949411321839
 20
-131.9655883459149
 30
0.0
 10
112.0148681360588
 20
-131.8977199648554
 30
0.0
 10
112.0148681360588
 20
-131.760260654994
 30
0.0
 10
112.0148681360588
 20
-131.6417493703014
 30
0.0
 10
111.9428656404171
 20
-131.5108357418619
 30
0.0
 10
111.7461506882093
 20
-131.5108357418619
 30
0.0
 10
111.4860459790729
 20
-131.5108357418619
 30
0.0
 10
111.4777777499083
 20
-131.7413126298251
 30
0.0
 10
111.4732991257775
 20
-131.8577568572265
 30
0.0
 10
111.4732991257775
 20
-131.8577568572265
 30
0.0
 10
111.2490234096878
 20
-131.8577568572265
 30
0.0
 10
111.2490234096878
 20
-131.8577568572265
 30
0.0
 10
111.2576361484009
 20
-131.7306328338208
 30
0.0
 10
111.2683159444051
 20
-131.6186672305502
 30
0.0
 10
111.3485866692115
 20
-131.5001559458576
 30
0.0
 10
111.4584852151909
 20
-131.3392699866965
 30
0.0
 10
111.644864880943
 20
-131.305508050941
 30
0.0
 10
111.7609645987959
 20
-131.305508050941
 30
0.0
 10
112.0382947853585
 20
-131.305508050941
 30
0.0
 10
112.2456895335705
 20
-131.4894761498533
 30
0.0
 10
112.2456895335705
 20
-131.7623277122851
 30
0.0
 10
112.2456895335705
 20
-131.9910820525057
 30
0.0
 10
112.1292453061691
 20
-132.0903008024809
 30
0.0
 10
111.8202202411422
 20
-132.3166435758618
 30
0.0
  0
HATCH
  5
E9
330
E4
100
AcDbEntity
  8
_U+30EC_U+30A4_U+30E4_U+30FC 1
 62
   179
420
  2234388
100
AcDbHatch
 10
0.0
 20
0.0
 30
0.0
210
0.0
220
0.0
230
1.0
  2
SOLID
 70
     1
 71
     0
 91
        1
 92
        1
 93
        1
 72
     4
 94
        3
 73
     0
 74
     1
 95
       44
 96
       40
 40
0.0
 40
0.0
 40
0.0
 40
0.0
 40
1.0
 40
1.0
 40
1.0
 40
2.0
 40
2.0
 40
2.0
 40
3.0
 40
3.0
 40
3.0
 40
4.0
 40
4.0
 40
4.0
 40
5.0
 40
5.0
 40
5.0
 40
6.0
 40
6.0
 40
6.0
 40
7.0
 40
7.0
 40
7.0
 40
8.0
 40
8.0
 40
8.0
 40
9.0
 40
9.0
 40
9.0
 40
10.0
 40
10.0
 40
10.0
 40
11.0
 40
11.0
 40
11.0
 40
12.0
 40
12.0
 40
12.0
 40
13.0
 40
13.0
 40
13.0
 40
13.0
 10
111.8202202411422
 20
-132.3166435758618
 10
111.6024902064744
 20
-132.4754624777318
 10
111.5094726283726
 20
-132.5495320306647
 10
111.4605522724821
 20
-132.6931925123996
 10
111.4605522724821
 20
-132.6931925123996
 10
112.2391438521486
 20
-132.6931925123996
 10
112.2391438521486
 20
-132.6931925123996
 10
112.2391438521486
 20
-132.6931925123996
 10
112.2391438521486
 20
-132.8985202033205
 10
112.2391438521486
 20
-132.8985202033205
 10
112.2391438521486
 20
-132.8985202033205
 10
111.21112735935
 20
-132.8985202033205
 10
111.21112735935
 20
-132.8985202033205
 10
111.2428222378143
 20
-132.5409192919516
 10
111.3082790520341
 20
-132.4627156244364
 10
111.693440727285
 20
-132.1643703554138
 10
111.949411321839
 20
-131.9655883459149
 10
112.0148681360588
 20
-131.8977199648554
 10
112.0148681360588
 20
-131.760260654994
 10
112.0148681360588
 20
-131.6417493703014
 10
111.9428656404171
 20
-131.5108357418619
 10
111.7461506882093
 20
-131.5108357418619
 10
111.4860459790729
 20
-131.5108357418619
 10
111.4777777499083
 20
-131.7413126298251
 10
111.4732991257775
 20
-131.8577568572265
 10
111.4732991257775
 20
-131.8577568572265
 10
111.2490234096878
 20
-131.8577568572265
 10
111.2490234096878
 20
-131.8577568572265
 10
111.2576361484009
 20
-131.7306328338208
 10
111.2683159444051
 20
-131.6186672305502
 10
111.3485866692115
 20
-131.5001559458576
 10
111.4584852151909
 20
-131.3392699866965
 10
111.644864880943
 20
-131.305508050941
 10
111.7609645987959
 20
-131.305508050941
 10
112.0382947853585
 20
-131.305508050941
 10
112.2456895335705
 20
-131.4894761498533
 10
112.2456895335705
 20
-131.7623277122851
 10
112.2456895335705
 20
-131.9910820525057
 10
112.1292453061691
 20
-132.0903008024809
 10
111.8202202411422
 20
-132.3166435758618
 97
        0
 97
        0
 75
     2
 76
     1
 98
        0
  0
SPLINE
  5
EA
330
E4
100
AcDbEntity
  8
_U+30EC_U+30A4_U+30E4_U+30FC 1
370
     0
100
AcDbSpline
210
0.0
220
0.0
230
1.0
 70
    11
 71
     3
 72
    32
 73
    28
 74
     0
 42
0.0000000001
 43
0.0000000001
 12
1.0
 22
0.0
 32
0.0
 13
1.0
 23
0.0
 33
0.0
 40
0.0
 40
0.0
 40
0.0
 40
0.0
 40
1.0
 40
1.0
 40
1.0
 40
2.0
 40
2.0
 40
2.0
 40
3.0
 40
3.0
 40
3.0
 40
4.0
 40
4.0
 40
4.0
 40
5.0
 40
5.0
 40
5.0
 40
6.0
 40
6.0
 40
6.0
 40
7.0
 40
7.0
 40
7.0
 40
8.0
 40
8.0
 40
8.0
 40
9.0
 40
9.0
 40
9.0
 40
9.0
 10
112.9081813953841
 20
-132.9491631069537
 30
0.0
 10
112.3921060916936
 20
-132.9491631069537
 30
0.0
 10
112.383837862529
 20
-132.3951917529255
 30
0.0
 10
112.383837862529
 20
-132.1812513232915
 30
0.0
 10
112.383837862529
 20
-131.9507744353283
 30
0.0
 10
112.4027858876979
 20
-131.3034409936498
 30
0.0
 10
112.9464219552703
 20
-131.3034409936498
 30
0.0
 10
113.1197102581784
 20
-131.3034409936498
 30
0.0
 10
113.3653455662767
 20
-131.3733764320004
 30
0.0
 10
113.4032416166145
 20
-131.7054836367785
 30
0.0
 10
113.4032416166145
 20
-131.7054836367785
 30
0.0
 10
113.189645696529
 20
-131.7054836367785
 30
0.0
 10
113.189645696529
 20
-131.7054836367785
 30
0.0
 10
113.1789659005247
 20
-131.6482950517234
 30
0.0
 10
113.1472710220604
 20
-131.5001559458576
 30
0.0
 10
112.9443548979792
 20
-131.5001559458576
 30
0.0
 10
112.65221080083
 20
-131.5001559458576
 30
0.0
 10
112.6122476932011
 20
-131.8281290360534
 30
0.0
 10
112.5995008399057
 20
-132.0331122174258
 30
0.0
 10
112.6925184180074
 20
-131.9549085499106
 30
0.0
 10
112.7603867990669
 20
-131.8956529075643
 30
0.0
 10
112.942287840688
 20
-131.8956529075643
 30
0.0
 10
113.1221218250181
 20
-131.8956529075643
 30
0.0
 10
113.424601208623
 20
-132.0038289058011
 30
0.0
 10
113.424601208623
 20
-132.4100056635121
 30
0.0
 10
113.424601208623
 20
-132.7293660149948
 30
0.0
 10
113.2254746895756
 20
-132.9491631069537
 30
0.0
 10
112.9081813953841
 20
-132.9491631069537
 30
0.0
  0
SPLINE
  5
EB
330
E4
100
AcDbEntity
  8
_U+30EC_U+30A4_U+30E4_U+30FC 1
370
     0
100
AcDbSpline
210
0.0
220
0.0
230
1.0
 70
    11
 71
     3
 72
    17
 73
    13
 74
     0
 42
0.0000000001
 43
0.0000000001
 12
1.0
 22
0.0
 32
0.0
 13
1.0
 23
0.0
 33
0.0
 40
0.0
 40
0.0
 40
0.0
 40
0.0
 40
1.0
 40
1.0
 40
1.0
 40
2.0
 40
2.0
 40
2.0
 40
3.0
 40
3.0
 40
3.0
 40
4.0
 40
4.0
 40
4.0
 40
4.0
 10
112.9254068728103
 20
-132.0903008024809
 30
0.0
 10
112.6628905968343
 20
-132.0903008024809
 30
0.0
 10
112.6249945464965
 20
-132.3018296652752
 30
0.0
 10
112.6249945464965
 20
-132.4182738926767
 30
0.0
 10
112.6249945464965
 20
-132.5939737624244
 30
0.0
 10
112.7200791818894
 20
-132.7569267788768
 30
0.0
 10
112.9040472808018
 20
-132.7569267788768
 30
0.0
 10
113.0246256227855
 20
-132.7569267788768
 30
0.0
 10
113.2003254925333
 20
-132.6976711365305
 30
0.0
 10
113.2003254925333
 20
-132.4120727208033
 30
0.0
 10
113.2003254925333
 20
-132.1877970047135
 30
0.0
 10
113.0604546158321
 20
-132.0903008024809
 30
0.0
 10
112.9254068728103
 20
-132.0903008024809
 30
0.0
  0
HATCH
  5
EC
330
E4
100
AcDbEntity
  8
_U+30EC_U+30A4_U+30E4_U+30FC 1
 62
   179
420
  2234388
100
AcDbHatch
 10
0.0
 20
0.0
 30
0.0
210
0.0
220
0.0
230
1.0
  2
SOLID
 70
     1
 71
     0
 91
        2
 92
        1
 93
        1
 72
     4
 94
        3
 73
     0
 74
     1
 95
       32
 96
       28
 40
0.0
 40
0.0
 40
0.0
 40
0.0
 40
1.0
 40
1.0
 40
1.0
 40
2.0
 40
2.0
 40
2.0
 40
3.0
 40
3.0
 40
3.0
 40
4.0
 40
4.0
 40
4.0
 40
5.0
 40
5.0
 40
5.0
 40
6.0
 40
6.0
 40
6.0
 40
7.0
 40
7.0
 40
7.0
 40
8.0
 40
8.0
 40
8.0
 40
9.0
 40
9.0
 40
9.0
 40
9.0
 10
112.9081813953841
 20
-132.9491631069537
 10
112.3921060916936
 20
-132.9491631069537
 10
112.383837862529
 20
-132.3951917529255
 10
112.383837862529
 20
-132.1812513232915
 10
112.383837862529
 20
-131.9507744353283
 10
112.4027858876979
 20
-131.3034409936498
 10
112.9464219552703
 20
-131.3034409936498
 10
113.1197102581784
 20
-131.3034409936498
 10
113.3653455662767
 20
-131.3733764320004
 10
113.4032416166145
 20
-131.7054836367785
 10
113.4032416166145
 20
-131.7054836367785
 10
113.189645696529
 20
-131.7054836367785
 10
113.189645696529
 20
-131.7054836367785
 10
113.1789659005247
 20
-131.6482950517234
 10
113.1472710220604
 20
-131.5001559458576
 10
112.9443548979792
 20
-131.5001559458576
 10
112.65221080083
 20
-131.5001559458576
 10
112.6122476932011
 20
-131.8281290360534
 10
112.5995008399057
 20
-132.0331122174258
 10
112.6925184180074
 20
-131.9549085499106
 10
112.7603867990669
 20
-131.8956529075643
 10
112.942287840688
 20
-131.8956529075643
 10
113.1221218250181
 20
-131.8956529075643
 10
113.424601208623
 20
-132.0038289058011
 10
113.424601208623
 20
-132.4100056635121
 10
113.424601208623
 20
-132.7293660149948
 10
113.2254746895756
 20
-132.9491631069537
 10
112.9081813953841
 20
-132.9491631069537
 97
        0
 97
        0
 92
        1
 93
        1
 72
     4
 94
        3
 73
     0
 74
     1
 95
       17
 96
       13
 40
0.0
 40
0.0
 40
0.0
 40
0.0
 40
1.0
 40
1.0
 40
1.0
 40
2.0
 40
2.0
 40
2.0
 40
3.0
 40
3.0
 40
3.0
 40
4.0
 40
4.0
 40
4.0
 40
4.0
 10
112.9254068728103
 20
-132.0903008024809
 10
112.6628905968343
 20
-132.0903008024809
 10
112.6249945464965
 20
-132.3018296652752
 10
112.6249945464965
 20
-132.4182738926767
 10
112.6249945464965
 20
-132.5939737624244
 10
112.7200791818894
 20
-132.7569267788768
 10
112.9040472808018
 20
-132.7569267788768
 10
113.0246256227855
 20
-132.7569267788768
 10
113.2003254925333
 20
-132.6976711365305
 10
113.2003254925333
 20
-132.4120727208033
 10
113.2003254925333
 20
-132.1877970047135
 10
113.0604546158321
 20
-132.0903008024809
 10
112.9254068728103
 20
-132.0903008024809
 97
        0
 97
        0
 75
     2
 76
     1
 98
        0
  0
ENDBLK
  5
E7
330
E4
100
AcDbEntity
  8
0
100
AcDbBlockEnd
  0
BLOCK
  5
FD
330
FB
100
AcDbEntity
  8
0
100
AcDbBlockBegin
  2
block 4
 70
     0
 10
0.0
 20
0.0
 30
0.0
  3
block 4
  1

  0
SPLINE
  5
FF
330
FB
100
AcDbEntity
  8
_U+30EC_U+30A4_U+30E4_U+30FC 1
370
     0
100
AcDbSpline
210
0.0
220
0.0
230
1.0
 70
    11
 71
     3
 72
    32
 73
    28
 74
     0
 42
0.0000000001
 43
0.0000000001
 12
1.0
 22
0.0
 32
0.0
 13
1.0
 23
0.0
 33
0.0
 40
0.0
 40
0.0
 40
0.0
 40
0.0
 40
1.0
 40
1.0
 40
1.0
 40
2.0
 40
2.0
 40
2.0
 40
3.0
 40
3.0
 40
3.0
 40
4.0
 40
4.0
 40
4.0
 40
5.0
 40
5.0
 40
5.0
 40
6.0
 40
6.0
 40
6.0
 40
7.0
 40
7.0
 40
7.0
 40
8.0
 40
8.0
 40
8.0
 40
9.0
 40
9.0
 40
9.0
 40
9.0
 10
130.5518934135426
 20
-140.761778393629
 30
0.0
 10
130.5518934135426
 20
-141.2778536973194
 30
0.0
 10
129.9979220595144
 20
-141.286121926484
 30
0.0
 10
129.7839816298804
 20
-141.286121926484
 30
0.0
 10
129.5535047419172
 20
-141.286121926484
 30
0.0
 10
128.9061713002388
 20
-141.2671739013151
 30
0.0
 10
128.9061713002388
 20
-140.7235378337427
 30
0.0
 10
128.9061713002388
 20
-140.5502495308347
 30
0.0
 10
128.9761067385893
 20
-140.3046142227363
 30
0.0
 10
129.3082139433674
 20
-140.2667181723986
 30
0.0
 10
129.3082139433674
 20
-140.2667181723986
 30
0.0
 10
129.3082139433674
 20
-140.4803140924841
 30
0.0
 10
129.3082139433674
 20
-140.4803140924841
 30
0.0
 10
129.2510253583123
 20
-140.4909938884884
 30
0.0
 10
129.1028862524465
 20
-140.5226887669527
 30
0.0
 10
129.1028862524465
 20
-140.7256048910339
 30
0.0
 10
129.1028862524465
 20
-141.0177489881831
 30
0.0
 10
129.4308593426423
 20
-141.057712095812
 30
0.0
 10
129.6358425240147
 20
-141.0704589491074
 30
0.0
 10
129.5576388564995
 20
-140.9774413710057
 30
0.0
 10
129.4983832141532
 20
-140.9095729899462
 30
0.0
 10
129.4983832141532
 20
-140.727671948325
 30
0.0
 10
129.4983832141532
 20
-140.547837963995
 30
0.0
 10
129.60655921239
 20
-140.24535858039
 30
0.0
 10
130.012735970101
 20
-140.24535858039
 30
0.0
 10
130.3320963215836
 20
-140.24535858039
 30
0.0
 10
130.5518934135426
 20
-140.4444850994375
 30
0.0
 10
130.5518934135426
 20
-140.761778393629
 30
0.0
  0
SPLINE
  5
100
330
FB
100
AcDbEntity
  8
_U+30EC_U+30A4_U+30E4_U+30FC 1
370
     0
100
AcDbSpline
210
0.0
220
0.0
230
1.0
 70
    11
 71
     3
 72
    17
 73
    13
 74
     0
 42
0.0000000001
 43
0.0000000001
 12
1.0
 22
0.0
 32
0.0
 13
1.0
 23
0.0
 33
0.0
 40
0.0
 40
0.0
 40
0.0
 40
0.0
 40
1.0
 40
1.0
 40
1.0
 40
2.0
 40
2.0
 40
2.0
 40
3.0
 40
3.0
 40
3.0
 40
4.0
 40
4.0
 40
4.0
 40
4.0
 10
129.6930311090698
 20
-140.7445529162028
 30
0.0
 10
129.6930311090698
 20
-141.0070691921788
 30
0.0
 10
129.9045599718641
 20
-141.0449652425166
 30
0.0
 10
130.0210041992656
 20
-141.0449652425166
 30
0.0
 10
130.1967040690133
 20
-141.0449652425166
 30
0.0
 10
130.3596570854656
 20
-140.9498806071236
 30
0.0
 10
130.3596570854656
 20
-140.7659125082113
 30
0.0
 10
130.3596570854656
 20
-140.6453341662276
 30
0.0
 10
130.3004014431193
 20
-140.4696342964798
 30
0.0
 10
130.0148030273921
 20
-140.4696342964798
 30
0.0
 10
129.7905273113024
 20
-140.4696342964798
 30
0.0
 10
129.6930311090698
 20
-140.609505173181
 30
0.0
 10
129.6930311090698
 20
-140.7445529162028
 30
0.0
  0
HATCH
  5
101
330
FB
100
AcDbEntity
  8
_U+30EC_U+30A4_U+30E4_U+30FC 1
 62
   179
420
  2234388
100
AcDbHatch
 10
0.0
 20
0.0
 30
0.0
210
0.0
220
0.0
230
1.0
  2
SOLID
 70
     1
 71
     0
 91
        2
 92
        1
 93
        1
 72
     4
 94
        3
 73
     0
 74
     1
 95
       32
 96
       28
 40
0.0
 40
0.0
 40
0.0
 40
0.0
 40
1.0
 40
1.0
 40
1.0
 40
2.0
 40
2.0
 40
2.0
 40
3.0
 40
3.0
 40
3.0
 40
4.0
 40
4.0
 40
4.0
 40
5.0
 40
5.0
 40
5.0
 40
6.0
 40
6.0
 40
6.0
 40
7.0
 40
7.0
 40
7.0
 40
8.0
 40
8.0
 40
8.0
 40
9.0
 40
9.0
 40
9.0
 40
9.0
 10
130.5518934135426
 20
-140.761778393629
 10
130.5518934135426
 20
-141.2778536973194
 10
129.9979220595144
 20
-141.286121926484
 10
129.7839816298804
 20
-141.286121926484
 10
129.5535047419172
 20
-141.286121926484
 10
128.9061713002388
 20
-141.2671739013151
 10
128.9061713002388
 20
-140.7235378337427
 10
128.9061713002388
 20
-140.5502495308347
 10
128.9761067385893
 20
-140.3046142227363
 10
129.3082139433674
 20
-140.2667181723986
 10
129.3082139433674
 20
-140.2667181723986
 10
129.3082139433674
 20
-140.4803140924841
 10
129.3082139433674
 20
-140.4803140924841
 10
129.2510253583123
 20
-140.4909938884884
 10
129.1028862524465
 20
-140.5226887669527
 10
129.1028862524465
 20
-140.7256048910339
 10
129.1028862524465
 20
-141.0177489881831
 10
129.4308593426423
 20
-141.057712095812
 10
129.6358425240147
 20
-141.0704589491074
 10
129.5576388564995
 20
-140.9774413710057
 10
129.4983832141532
 20
-140.9095729899462
 10
129.4983832141532
 20
-140.727671948325
 10
129.4983832141532
 20
-140.547837963995
 10
129.60655921239
 20
-140.24535858039
 10
130.012735970101
 20
-140.24535858039
 10
130.3320963215836
 20
-140.24535858039
 10
130.5518934135426
 20
-140.4444850994375
 10
130.5518934135426
 20
-140.761778393629
 97
        0
 97
        0
 92
        1
 93
        1
 72
     4
 94
        3
 73
     0
 74
     1
 95
       17
 96
       13
 40
0.0
 40
0.0
 40
0.0
 40
0.0
 40
1.0
 40
1.0
 40
1.0
 40
2.0
 40
2.0
 40
2.0
 40
3.0
 40
3.0
 40
3.0
 40
4.0
 40
4.0
 40
4.0
 40
4.0
 10
129.6930311090698
 20
-140.7445529162028
 10
129.6930311090698
 20
-141.0070691921788
 10
129.9045599718641
 20
-141.0449652425166
 10
130.0210041992656
 20
-141.0449652425166
 10
130.1967040690133
 20
-141.0449652425166
 10
130.3596570854656
 20
-140.9498806071236
 10
130.3596570854656
 20
-140.7659125082113
 10
130.3596570854656
 20
-140.6453341662276
 10
130.3004014431193
 20
-140.4696342964798
 10
130.0148030273921
 20
-140.4696342964798
 10
129.7905273113024
 20
-140.4696342964798
 10
129.6930311090698
 20
-140.609505173181
 10
129.6930311090698
 20
-140.7445529162028
 97
        0
 97
        0
 75
     2
 76
     1
 98
        0
  0
ENDBLK
  5
FE
330
FB
100
AcDbEntity
  8
0
100
AcDbBlockEnd
  0
BLOCK
  5
110
330
10E
100
AcDbEntity
  8
0
100
AcDbBlockBegin
  2
block 5
 70
     0
 10
0.0
 20
0.0
 30
0.0
  3
block 5
  1

  0
SPLINE
  5
112
330
10E
100
AcDbEntity
  8
_U+30EC_U+30A4_U+30E4_U+30FC 1
370
     0
100
AcDbSpline
210
0.0
220
0.0
230
1.0
 70
    11
 71
     3
 72
    44
 73
    40
 74
     0
 42
0.0000000001
 43
0.0000000001
 12
1.0
 22
0.0
 32
0.0
 13
1.0
 23
0.0
 33
0.0
 40
0.0
 40
0.0
 40
0.0
 40
0.0
 40
1.0
 40
1.0
 40
1.0
 40
2.0
 40
2.0
 40
2.0
 40
3.0
 40
3.0
 40
3.0
 40
4.0
 40
4.0
 40
4.0
 40
5.0
 40
5.0
 40
5.0
 40
6.0
 40
6.0
 40
6.0
 40
7.0
 40
7.0
 40
7.0
 40
8.0
 40
8.0
 40
8.0
 40
9.0
 40
9.0
 40
9.0
 40
10.0
 40
10.0
 40
10.0
 40
11.0
 40
11.0
 40
11.0
 40
12.0
 40
12.0
 40
12.0
 40
13.0
 40
13.0
 40
13.0
 40
13.0
 10
80.86448701320403
 20
-151.2503715984721
 30
0.0
 10
81.02330591507403
 20
-151.4681016331399
 30
0.0
 10
81.09737546800692
 20
-151.5611192112417
 30
0.0
 10
81.24103594974183
 20
-151.6100395671322
 30
0.0
 10
81.24103594974183
 20
-151.6100395671322
 30
0.0
 10
81.24103594974183
 20
-150.8314479874658
 30
0.0
 10
81.24103594974183
 20
-150.8314479874658
 30
0.0
 10
81.24103594974183
 20
-150.8314479874658
 30
0.0
 10
81.44636364066272
 20
-150.8314479874658
 30
0.0
 10
81.44636364066272
 20
-150.8314479874658
 30
0.0
 10
81.44636364066272
 20
-150.8314479874658
 30
0.0
 10
81.44636364066272
 20
-151.8594644802643
 30
0.0
 10
81.44636364066272
 20
-151.8594644802643
 30
0.0
 10
81.08876272929379
 20
-151.8277696018
 30
0.0
 10
81.01055906177861
 20
-151.7623127875803
 30
0.0
 10
80.71221379275597
 20
-151.3771511123293
 30
0.0
 10
80.51343178325706
 20
-151.1211805177753
 30
0.0
 10
80.44556340219764
 20
-151.0557237035555
 30
0.0
 10
80.30810409233617
 20
-151.0557237035555
 30
0.0
 10
80.18959280764358
 20
-151.0557237035555
 30
0.0
 10
80.05867917920408
 20
-151.1277261991972
 30
0.0
 10
80.05867917920408
 20
-151.324441151405
 30
0.0
 10
80.05867917920408
 20
-151.5845458605414
 30
0.0
 10
80.2891560671673
 20
-151.5931585992545
 30
0.0
 10
80.40560029456874
 20
-151.5972927138368
 30
0.0
 10
80.40560029456874
 20
-151.5972927138368
 30
0.0
 10
80.40560029456874
 20
-151.8215684299266
 30
0.0
 10
80.40560029456874
 20
-151.8215684299266
 30
0.0
 10
80.27847627116303
 20
-151.8129556912134
 30
0.0
 10
80.16651066789241
 20
-151.8022758952092
 30
0.0
 10
80.04799938319981
 20
-151.7220051704028
 30
0.0
 10
79.88711342403865
 20
-151.6121066244234
 30
0.0
 10
79.8533514882832
 20
-151.4257269586714
 30
0.0
 10
79.8533514882832
 20
-151.3096272408184
 30
0.0
 10
79.8533514882832
 20
-151.0322970542558
 30
0.0
 10
80.03731958719554
 20
-150.8249023060438
 30
0.0
 10
80.31017114962732
 20
-150.8249023060438
 30
0.0
 10
80.53892548984791
 20
-150.8249023060438
 30
0.0
 10
80.6381442398231
 20
-150.9413465334452
 30
0.0
 10
80.86448701320403
 20
-151.2503715984721
 30
0.0
  0
HATCH
  5
113
330
10E
100
AcDbEntity
  8
_U+30EC_U+30A4_U+30E4_U+30FC 1
 62
   179
420
  2234388
100
AcDbHatch
 10
0.0
 20
0.0
 30
0.0
210
0.0
220
0.0
230
1.0
  2
SOLID
 70
     1
 71
     0
 91
        1
 92
        1
 93
        1
 72
     4
 94
        3
 73
     0
 74
     1
 95
       44
 96
       40
 40
0.0
 40
0.0
 40
0.0
 40
0.0
 40
1.0
 40
1.0
 40
1.0
 40
2.0
 40
2.0
 40
2.0
 40
3.0
 40
3.0
 40
3.0
 40
4.0
 40
4.0
 40
4.0
 40
5.0
 40
5.0
 40
5.0
 40
6.0
 40
6.0
 40
6.0
 40
7.0
 40
7.0
 40
7.0
 40
8.0
 40
8.0
 40
8.0
 40
9.0
 40
9.0
 40
9.0
 40
10.0
 40
10.0
 40
10.0
 40
11.0
 40
11.0
 40
11.0
 40
12.0
 40
12.0
 40
12.0
 40
13.0
 40
13.0
 40
13.0
 40
13.0
 10
80.86448701320403
 20
-151.2503715984721
 10
81.02330591507403
 20
-151.4681016331399
 10
81.09737546800692
 20
-151.5611192112417
 10
81.24103594974183
 20
-151.6100395671322
 10
81.24103594974183
 20
-151.6100395671322
 10
81.24103594974183
 20
-150.8314479874658
 10
81.24103594974183
 20
-150.8314479874658
 10
81.24103594974183
 20
-150.8314479874658
 10
81.44636364066272
 20
-150.8314479874658
 10
81.44636364066272
 20
-150.8314479874658
 10
81.44636364066272
 20
-150.8314479874658
 10
81.44636364066272
 20
-151.8594644802643
 10
81.44636364066272
 20
-151.8594644802643
 10
81.08876272929379
 20
-151.8277696018
 10
81.01055906177861
 20
-151.7623127875803
 10
80.71221379275597
 20
-151.3771511123293
 10
80.51343178325706
 20
-151.1211805177753
 10
80.44556340219764
 20
-151.0557237035555
 10
80.30810409233617
 20
-151.0557237035555
 10
80.18959280764358
 20
-151.0557237035555
 10
80.05867917920408
 20
-151.1277261991972
 10
80.05867917920408
 20
-151.324441151405
 10
80.05867917920408
 20
-151.5845458605414
 10
80.2891560671673
 20
-151.5931585992545
 10
80.40560029456874
 20
-151.5972927138368
 10
80.40560029456874
 20
-151.5972927138368
 10
80.40560029456874
 20
-151.8215684299266
 10
80.40560029456874
 20
-151.8215684299266
 10
80.27847627116303
 20
-151.8129556912134
 10
80.16651066789241
 20
-151.8022758952092
 10
80.04799938319981
 20
-151.7220051704028
 10
79.88711342403865
 20
-151.6121066244234
 10
79.8533514882832
 20
-151.4257269586714
 10
79.8533514882832
 20
-151.3096272408184
 10
79.8533514882832
 20
-151.0322970542558
 10
80.03731958719554
 20
-150.8249023060438
 10
80.31017114962732
 20
-150.8249023060438
 10
80.53892548984791
 20
-150.8249023060438
 10
80.6381442398231
 20
-150.9413465334452
 10
80.86448701320403
 20
-151.2503715984721
 97
        0
 97
        0
 75
     2
 76
     1
 98
        0
  0
SPLINE
  5
114
330
10E
100
AcDbEntity
  8
_U+30EC_U+30A4_U+30E4_U+30FC 1
370
     0
100
AcDbSpline
210
0.0
220
0.0
230
1.0
 70
    11
 71
     3
 72
    32
 73
    28
 74
     0
 42
0.0000000001
 43
0.0000000001
 12
1.0
 22
0.0
 32
0.0
 13
1.0
 23
0.0
 33
0.0
 40
0.0
 40
0.0
 40
0.0
 40
0.0
 40
1.0
 40
1.0
 40
1.0
 40
2.0
 40
2.0
 40
2.0
 40
3.0
 40
3.0
 40
3.0
 40
4.0
 40
4.0
 40
4.0
 40
5.0
 40
5.0
 40
5.0
 40
6.0
 40
6.0
 40
6.0
 40
7.0
 40
7.0
 40
7.0
 40
8.0
 40
8.0
 40
8.0
 40
9.0
 40
9.0
 40
9.0
 40
9.0
 10
81.49700654429589
 20
-150.1624104442302
 30
0.0
 10
81.49700654429589
 20
-150.6784857479207
 30
0.0
 10
80.94303519026772
 20
-150.6870984866338
 30
0.0
 10
80.7290947606337
 20
-150.6870984866338
 30
0.0
 10
80.4986178726705
 20
-150.6870984866338
 30
0.0
 10
79.85128443099204
 20
-150.6678059519164
 30
0.0
 10
79.85128443099204
 20
-150.124169884344
 30
0.0
 10
79.85128443099204
 20
-149.9508815814359
 30
0.0
 10
79.92121986934262
 20
-149.7052462733376
 30
0.0
 10
80.2533270741207
 20
-149.6673502229998
 30
0.0
 10
80.2533270741207
 20
-149.6673502229998
 30
0.0
 10
80.2533270741207
 20
-149.8809461430853
 30
0.0
 10
80.2533270741207
 20
-149.8809461430853
 30
0.0
 10
80.19613848906555
 20
-149.8916259390896
 30
0.0
 10
80.04799938319981
 20
-149.9233208175539
 30
0.0
 10
80.04799938319981
 20
-150.1262369416351
 30
0.0
 10
80.04799938319981
 20
-150.4183810387843
 30
0.0
 10
80.37597247339559
 20
-150.4583441464132
 30
0.0
 10
80.58095565476796
 20
-150.4710909997086
 30
0.0
 10
80.5027519872528
 20
-150.3780734216069
 30
0.0
 10
80.44349634490649
 20
-150.3102050405475
 30
0.0
 10
80.44349634490649
 20
-150.1283039989263
 30
0.0
 10
80.44349634490649
 20
-149.9484700145962
 30
0.0
 10
80.55167234314334
 20
-149.6459906309913
 30
0.0
 10
80.95784910085429
 20
-149.6459906309913
 30
0.0
 10
81.27720945233695
 20
-149.6459906309913
 30
0.0
 10
81.49700654429589
 20
-149.8451171500387
 30
0.0
 10
81.49700654429589
 20
-150.1624104442302
 30
0.0
  0
SPLINE
  5
115
330
10E
100
AcDbEntity
  8
_U+30EC_U+30A4_U+30E4_U+30FC 1
370
     0
100
AcDbSpline
210
0.0
220
0.0
230
1.0
 70
    11
 71
     3
 72
    17
 73
    13
 74
     0
 42
0.0000000001
 43
0.0000000001
 12
1.0
 22
0.0
 32
0.0
 13
1.0
 23
0.0
 33
0.0
 40
0.0
 40
0.0
 40
0.0
 40
0.0
 40
1.0
 40
1.0
 40
1.0
 40
2.0
 40
2.0
 40
2.0
 40
3.0
 40
3.0
 40
3.0
 40
4.0
 40
4.0
 40
4.0
 40
4.0
 10
80.6381442398231
 20
-150.1455294763525
 30
0.0
 10
80.6381442398231
 20
-150.40770124278
 30
0.0
 10
80.84967310261744
 20
-150.4455972931178
 30
0.0
 10
80.96611733001889
 20
-150.4455972931178
 30
0.0
 10
81.14181719976663
 20
-150.4455972931178
 30
0.0
 10
81.30477021621896
 20
-150.3505126577249
 30
0.0
 10
81.30477021621896
 20
-150.1665445588125
 30
0.0
 10
81.30477021621896
 20
-150.0459662168288
 30
0.0
 10
81.24551457387265
 20
-149.870266347081
 30
0.0
 10
80.95991615814545
 20
-149.870266347081
 30
0.0
 10
80.73564044205568
 20
-149.870266347081
 30
0.0
 10
80.6381442398231
 20
-150.0097927142337
 30
0.0
 10
80.6381442398231
 20
-150.1455294763525
 30
0.0
  0
HATCH
  5
116
330
10E
100
AcDbEntity
  8
_U+30EC_U+30A4_U+30E4_U+30FC 1
 62
   179
420
  2234388
100
AcDbHatch
 10
0.0
 20
0.0
 30
0.0
210
0.0
220
0.0
230
1.0
  2
SOLID
 70
     1
 71
     0
 91
        2
 92
        1
 93
        1
 72
     4
 94
        3
 73
     0
 74
     1
 95
       32
 96
       28
 40
0.0
 40
0.0
 40
0.0
 40
0.0
 40
1.0
 40
1.0
 40
1.0
 40
2.0
 40
2.0
 40
2.0
 40
3.0
 40
3.0
 40
3.0
 40
4.0
 40
4.0
 40
4.0
 40
5.0
 40
5.0
 40
5.0
 40
6.0
 40
6.0
 40
6.0
 40
7.0
 40
7.0
 40
7.0
 40
8.0
 40
8.0
 40
8.0
 40
9.0
 40
9.0
 40
9.0
 40
9.0
 10
81.49700654429589
 20
-150.1624104442302
 10
81.49700654429589
 20
-150.6784857479207
 10
80.94303519026772
 20
-150.6870984866338
 10
80.7290947606337
 20
-150.6870984866338
 10
80.4986178726705
 20
-150.6870984866338
 10
79.85128443099204
 20
-150.6678059519164
 10
79.85128443099204
 20
-150.124169884344
 10
79.85128443099204
 20
-149.9508815814359
 10
79.92121986934262
 20
-149.7052462733376
 10
80.2533270741207
 20
-149.6673502229998
 10
80.2533270741207
 20
-149.6673502229998
 10
80.2533270741207
 20
-149.8809461430853
 10
80.2533270741207
 20
-149.8809461430853
 10
80.19613848906555
 20
-149.8916259390896
 10
80.04799938319981
 20
-149.9233208175539
 10
80.04799938319981
 20
-150.1262369416351
 10
80.04799938319981
 20
-150.4183810387843
 10
80.37597247339559
 20
-150.4583441464132
 10
80.58095565476796
 20
-150.4710909997086
 10
80.5027519872528
 20
-150.3780734216069
 10
80.44349634490649
 20
-150.3102050405475
 10
80.44349634490649
 20
-150.1283039989263
 10
80.44349634490649
 20
-149.9484700145962
 10
80.55167234314334
 20
-149.6459906309913
 10
80.95784910085429
 20
-149.6459906309913
 10
81.27720945233695
 20
-149.6459906309913
 10
81.49700654429589
 20
-149.8451171500387
 10
81.49700654429589
 20
-150.1624104442302
 97
        0
 97
        0
 92
        1
 93
        1
 72
     4
 94
        3
 73
     0
 74
     1
 95
       17
 96
       13
 40
0.0
 40
0.0
 40
0.0
 40
0.0
 40
1.0
 40
1.0
 40
1.0
 40
2.0
 40
2.0
 40
2.0
 40
3.0
 40
3.0
 40
3.0
 40
4.0
 40
4.0
 40
4.0
 40
4.0
 10
80.6381442398231
 20
-150.1455294763525
 10
80.6381442398231
 20
-150.40770124278
 10
80.84967310261744
 20
-150.4455972931178
 10
80.96611733001889
 20
-150.4455972931178
 10
81.14181719976663
 20
-150.4455972931178
 10
81.30477021621896
 20
-150.3505126577249
 10
81.30477021621896
 20
-150.1665445588125
 10
81.30477021621896
 20
-150.0459662168288
 10
81.24551457387265
 20
-149.870266347081
 10
80.95991615814545
 20
-149.870266347081
 10
80.73564044205568
 20
-149.870266347081
 10
80.6381442398231
 20
-150.0097927142337
 10
80.6381442398231
 20
-150.1455294763525
 97
        0
 97
        0
 75
     2
 76
     1
 98
        0
  0
ENDBLK
  5
111
330
10E
100
AcDbEntity
  8
0
100
AcDbBlockEnd
  0
BLOCK
  5
135
330
133
100
AcDbEntity
  8
0
100
AcDbBlockBegin
  2
block 6
 70
     0
 10
0.0
 20
0.0
 30
0.0
  3
block 6
  1

  0
POLYLINE
  5
137
330
133
100
AcDbEntity
  8
_U+30EC_U+30A4_U+30E4_U+30FC 1
370
     0
100
AcDb2dPolyline
 66
     1
 10
0.0
 20
0.0
 30
0.0
  0
VERTEX
  5
138
330
137
100
AcDbEntity
  8
_U+30EC_U+30A4_U+30E4_U+30FC 1
370
     0
100
AcDbVertex
100
AcDb2dVertex
 10
85.45938311665599
 20
-132.9326266486245
 30
0.0
  0
VERTEX
  5
139
330
137
100
AcDbEntity
  8
_U+30EC_U+30A4_U+30E4_U+30FC 1
370
     0
100
AcDbVertex
100
AcDb2dVertex
 10
85.45938311665599
 20
-132.7717406894633
 30
0.0
  0
VERTEX
  5
13A
330
137
100
AcDbEntity
  8
_U+30EC_U+30A4_U+30E4_U+30FC 1
370
     0
100
AcDbVertex
100
AcDb2dVertex
 10
85.6140679039437
 20
-132.7717406894633
 30
0.0
  0
VERTEX
  5
13B
330
137
100
AcDbEntity
  8
_U+30EC_U+30A4_U+30E4_U+30FC 1
370
     0
100
AcDbVertex
100
AcDb2dVertex
 10
85.6140679039437
 20
-132.9326266486245
 30
0.0
  0
VERTEX
  5
13C
330
137
100
AcDbEntity
  8
_U+30EC_U+30A4_U+30E4_U+30FC 1
370
     0
100
AcDbVertex
100
AcDb2dVertex
 10
86.00749780835925
 20
-132.9326266486245
 30
0.0
  0
VERTEX
  5
13D
330
137
100
AcDbEntity
  8
_U+30EC_U+30A4_U+30E4_U+30FC 1
370
     0
100
AcDbVertex
100
AcDb2dVertex
 10
86.00749780835925
 20
-133.0869669263637
 30
0.0
  0
VERTEX
  5
13E
330
137
100
AcDbEntity
  8
_U+30EC_U+30A4_U+30E4_U+30FC 1
370
     0
100
AcDbVertex
100
AcDb2dVertex
 10
85.6140679039437
 20
-133.0869669263637
 30
0.0
  0
VERTEX
  5
13F
330
137
100
AcDbEntity
  8
_U+30EC_U+30A4_U+30E4_U+30FC 1
370
     0
100
AcDbVertex
100
AcDb2dVertex
 10
85.6140679039437
 20
-133.2416517136514
 30
0.0
  0
VERTEX
  5
140
330
137
100
AcDbEntity
  8
_U+30EC_U+30A4_U+30E4_U+30FC 1
370
     0
100
AcDbVertex
100
AcDb2dVertex
 10
85.96925724847297
 20
-133.2416517136514
 30
0.0
  0
VERTEX
  5
141
330
137
100
AcDbEntity
  8
_U+30EC_U+30A4_U+30E4_U+30FC 1
370
     0
100
AcDbVertex
100
AcDb2dVertex
 10
85.96925724847297
 20
-134.0540052290733
 30
0.0
  0
VERTEX
  5
142
330
137
100
AcDbEntity
  8
_U+30EC_U+30A4_U+30E4_U+30FC 1
370
     0
100
AcDbVertex
100
AcDb2dVertex
 10
85.6140679039437
 20
-134.0540052290733
 30
0.0
  0
VERTEX
  5
143
330
137
100
AcDbEntity
  8
_U+30EC_U+30A4_U+30E4_U+30FC 1
370
     0
100
AcDbVertex
100
AcDb2dVertex
 10
85.6140679039437
 20
-134.2231594173991
 30
0.0
  0
VERTEX
  5
144
330
137
100
AcDbEntity
  8
_U+30EC_U+30A4_U+30E4_U+30FC 1
370
     0
100
AcDbVertex
100
AcDb2dVertex
 10
86.02231171894582
 20
-134.2231594173991
 30
0.0
  0
VERTEX
  5
145
330
137
100
AcDbEntity
  8
_U+30EC_U+30A4_U+30E4_U+30FC 1
370
     0
100
AcDbVertex
100
AcDb2dVertex
 10
86.02231171894582
 20
-134.3774996951383
 30
0.0
  0
VERTEX
  5
146
330
137
100
AcDbEntity
  8
_U+30EC_U+30A4_U+30E4_U+30FC 1
370
     0
100
AcDbVertex
100
AcDb2dVertex
 10
85.6140679039437
 20
-134.3774996951383
 30
0.0
  0
VERTEX
  5
147
330
137
100
AcDbEntity
  8
_U+30EC_U+30A4_U+30E4_U+30FC 1
370
     0
100
AcDbVertex
100
AcDb2dVertex
 10
85.6140679039437
 20
-134.7309664919249
 30
0.0
  0
VERTEX
  5
148
330
137
100
AcDbEntity
  8
_U+30EC_U+30A4_U+30E4_U+30FC 1
370
     0
100
AcDbVertex
100
AcDb2dVertex
 10
85.45938311665599
 20
-134.7309664919249
 30
0.0
  0
VERTEX
  5
149
330
137
100
AcDbEntity
  8
_U+30EC_U+30A4_U+30E4_U+30FC 1
370
     0
100
AcDbVertex
100
AcDb2dVertex
 10
85.45938311665599
 20
-134.3774996951383
 30
0.0
  0
VERTEX
  5
14A
330
137
100
AcDbEntity
  8
_U+30EC_U+30A4_U+30E4_U+30FC 1
370
     0
100
AcDbVertex
100
AcDb2dVertex
 10
85.04907224436273
 20
-134.3774996951383
 30
0.0
  0
VERTEX
  5
14B
330
137
100
AcDbEntity
  8
_U+30EC_U+30A4_U+30E4_U+30FC 1
370
     0
100
AcDbVertex
100
AcDb2dVertex
 10
85.04907224436273
 20
-134.2231594173991
 30
0.0
  0
VERTEX
  5
14C
330
137
100
AcDbEntity
  8
_U+30EC_U+30A4_U+30E4_U+30FC 1
370
     0
100
AcDbVertex
100
AcDb2dVertex
 10
85.45938311665599
 20
-134.2231594173991
 30
0.0
  0
VERTEX
  5
14D
330
137
100
AcDbEntity
  8
_U+30EC_U+30A4_U+30E4_U+30FC 1
370
     0
100
AcDbVertex
100
AcDb2dVertex
 10
85.45938311665599
 20
-134.0540052290733
 30
0.0
  0
VERTEX
  5
14E
330
137
100
AcDbEntity
  8
_U+30EC_U+30A4_U+30E4_U+30FC 1
370
     0
100
AcDbVertex
100
AcDb2dVertex
 10
85.11039494400018
 20
-134.0540052290733
 30
0.0
  0
VERTEX
  5
14F
330
137
100
AcDbEntity
  8
_U+30EC_U+30A4_U+30E4_U+30FC 1
370
     0
100
AcDbVertex
100
AcDb2dVertex
 10
85.11039494400018
 20
-133.2416517136514
 30
0.0
  0
VERTEX
  5
150
330
137
100
AcDbEntity
  8
_U+30EC_U+30A4_U+30E4_U+30FC 1
370
     0
100
AcDbVertex
100
AcDb2dVertex
 10
85.45938311665599
 20
-133.2416517136514
 30
0.0
  0
VERTEX
  5
151
330
137
100
AcDbEntity
  8
_U+30EC_U+30A4_U+30E4_U+30FC 1
370
     0
100
AcDbVertex
100
AcDb2dVertex
 10
85.45938311665599
 20
-133.0869669263637
 30
0.0
  0
VERTEX
  5
152
330
137
100
AcDbEntity
  8
_U+30EC_U+30A4_U+30E4_U+30FC 1
370
     0
100
AcDbVertex
100
AcDb2dVertex
 10
85.07008732682276
 20
-133.0869669263637
 30
0.0
  0
VERTEX
  5
153
330
137
100
AcDbEntity
  8
_U+30EC_U+30A4_U+30E4_U+30FC 1
370
     0
100
AcDbVertex
100
AcDb2dVertex
 10
85.07008732682276
 20
-132.9326266486245
 30
0.0
  0
VERTEX
  5
154
330
137
100
AcDbEntity
  8
_U+30EC_U+30A4_U+30E4_U+30FC 1
370
     0
100
AcDbVertex
100
AcDb2dVertex
 10
85.45938311665599
 20
-132.9326266486245
 30
0.0
  0
SEQEND
  5
155
330
137
100
AcDbEntity
  8
_U+30EC_U+30A4_U+30E4_U+30FC 1
370
     0
  0
POLYLINE
  5
156
330
133
100
AcDbEntity
  8
_U+30EC_U+30A4_U+30E4_U+30FC 1
370
     0
100
AcDb2dPolyline
 66
     1
 10
0.0
 20
0.0
 30
0.0
  0
VERTEX
  5
157
330
156
100
AcDbEntity
  8
_U+30EC_U+30A4_U+30E4_U+30FC 1
370
     0
100
AcDbVertex
100
AcDb2dVertex
 10
85.45938311665599
 20
-133.381178080804
 30
0.0
  0
VERTEX
  5
158
330
156
100
AcDbEntity
  8
_U+30EC_U+30A4_U+30E4_U+30FC 1
370
     0
100
AcDbVertex
100
AcDb2dVertex
 10
85.25233287799247
 20
-133.381178080804
 30
0.0
  0
VERTEX
  5
159
330
156
100
AcDbEntity
  8
_U+30EC_U+30A4_U+30E4_U+30FC 1
370
     0
100
AcDbVertex
100
AcDb2dVertex
 10
85.25233287799247
 20
-133.5840942048852
 30
0.0
  0
VERTEX
  5
15A
330
156
100
AcDbEntity
  8
_U+30EC_U+30A4_U+30E4_U+30FC 1
370
     0
100
AcDbVertex
100
AcDb2dVertex
 10
85.45938311665599
 20
-133.5840942048852
 30
0.0
  0
VERTEX
  5
15B
330
156
100
AcDbEntity
  8
_U+30EC_U+30A4_U+30E4_U+30FC 1
370
     0
100
AcDbVertex
100
AcDb2dVertex
 10
85.45938311665599
 20
-133.381178080804
 30
0.0
  0
SEQEND
  5
15C
330
156
100
AcDbEntity
  8
_U+30EC_U+30A4_U+30E4_U+30FC 1
370
     0
  0
POLYLINE
  5
15D
330
133
100
AcDbEntity
  8
_U+30EC_U+30A4_U+30E4_U+30FC 1
370
     0
100
AcDb2dPolyline
 66
     1
 10
0.0
 20
0.0
 30
0.0
  0
VERTEX
  5
15E
330
15D
100
AcDbEntity
  8
_U+30EC_U+30A4_U+30E4_U+30FC 1
370
     0
100
AcDbVertex
100
AcDb2dVertex
 10
85.45938311665599
 20
-133.7070841137086
 30
0.0
  0
VERTEX
  5
15F
330
15D
100
AcDbEntity
  8
_U+30EC_U+30A4_U+30E4_U+30FC 1
370
     0
100
AcDbVertex
100
AcDb2dVertex
 10
85.25233287799247
 20
-133.7070841137086
 30
0.0
  0
VERTEX
  5
160
330
15D
100
AcDbEntity
  8
_U+30EC_U+30A4_U+30E4_U+30FC 1
370
     0
100
AcDbVertex
100
AcDb2dVertex
 10
85.25233287799247
 20
-133.9141343523722
 30
0.0
  0
VERTEX
  5
161
330
15D
100
AcDbEntity
  8
_U+30EC_U+30A4_U+30E4_U+30FC 1
370
     0
100
AcDbVertex
100
AcDb2dVertex
 10
85.45938311665599
 20
-133.9141343523722
 30
0.0
  0
VERTEX
  5
162
330
15D
100
AcDbEntity
  8
_U+30EC_U+30A4_U+30E4_U+30FC 1
370
     0
100
AcDbVertex
100
AcDb2dVertex
 10
85.45938311665599
 20
-133.7070841137086
 30
0.0
  0
SEQEND
  5
163
330
15D
100
AcDbEntity
  8
_U+30EC_U+30A4_U+30E4_U+30FC 1
370
     0
  0
POLYLINE
  5
164
330
133
100
AcDbEntity
  8
_U+30EC_U+30A4_U+30E4_U+30FC 1
370
     0
100
AcDb2dPolyline
 66
     1
 10
0.0
 20
0.0
 30
0.0
  0
VERTEX
  5
165
330
164
100
AcDbEntity
  8
_U+30EC_U+30A4_U+30E4_U+30FC 1
370
     0
100
AcDbVertex
100
AcDb2dVertex
 10
85.82559676673804
 20
-133.381178080804
 30
0.0
  0
VERTEX
  5
166
330
164
100
AcDbEntity
  8
_U+30EC_U+30A4_U+30E4_U+30FC 1
370
     0
100
AcDbVertex
100
AcDb2dVertex
 10
85.6140679039437
 20
-133.381178080804
 30
0.0
  0
VERTEX
  5
167
330
164
100
AcDbEntity
  8
_U+30EC_U+30A4_U+30E4_U+30FC 1
370
     0
100
AcDbVertex
100
AcDb2dVertex
 10
85.6140679039437
 20
-133.5840942048852
 30
0.0
  0
VERTEX
  5
168
330
164
100
AcDbEntity
  8
_U+30EC_U+30A4_U+30E4_U+30FC 1
370
     0
100
AcDbVertex
100
AcDb2dVertex
 10
85.82559676673804
 20
-133.5840942048852
 30
0.0
  0
VERTEX
  5
169
330
164
100
AcDbEntity
  8
_U+30EC_U+30A4_U+30E4_U+30FC 1
370
     0
100
AcDbVertex
100
AcDb2dVertex
 10
85.82559676673804
 20
-133.381178080804
 30
0.0
  0
SEQEND
  5
16A
330
164
100
AcDbEntity
  8
_U+30EC_U+30A4_U+30E4_U+30FC 1
370
     0
  0
POLYLINE
  5
16B
330
133
100
AcDbEntity
  8
_U+30EC_U+30A4_U+30E4_U+30FC 1
370
     0
100
AcDb2dPolyline
 66
     1
 10
0.0
 20
0.0
 30
0.0
  0
VERTEX
  5
16C
330
16B
100
AcDbEntity
  8
_U+30EC_U+30A4_U+30E4_U+30FC 1
370
     0
100
AcDbVertex
100
AcDb2dVertex
 10
85.82559676673804
 20
-133.7070841137086
 30
0.0
  0
VERTEX
  5
16D
330
16B
100
AcDbEntity
  8
_U+30EC_U+30A4_U+30E4_U+30FC 1
370
     0
100
AcDbVertex
100
AcDb2dVertex
 10
85.6140679039437
 20
-133.7070841137086
 30
0.0
  0
VERTEX
  5
16E
330
16B
100
AcDbEntity
  8
_U+30EC_U+30A4_U+30E4_U+30FC 1
370
     0
100
AcDbVertex
100
AcDb2dVertex
 10
85.6140679039437
 20
-133.9141343523722
 30
0.0
  0
VERTEX
  5
16F
330
16B
100
AcDbEntity
  8
_U+30EC_U+30A4_U+30E4_U+30FC 1
370
     0
100
AcDbVertex
100
AcDb2dVertex
 10
85.82559676673804
 20
-133.9141343523722
 30
0.0
  0
VERTEX
  5
170
330
16B
100
AcDbEntity
  8
_U+30EC_U+30A4_U+30E4_U+30FC 1
370
     0
100
AcDbVertex
100
AcDb2dVertex
 10
85.82559676673804
 20
-133.7070841137086
 30
0.0
  0
SEQEND
  5
171
330
16B
100
AcDbEntity
  8
_U+30EC_U+30A4_U+30E4_U+30FC 1
370
     0
  0
SPLINE
  5
172
330
133
100
AcDbEntity
  8
_U+30EC_U+30A4_U+30E4_U+30FC 1
370
     0
100
AcDbSpline
210
0.0
220
0.0
230
1.0
 70
    11
 71
     3
 72
    38
 73
    34
 74
     0
 42
0.0000000001
 43
0.0000000001
 12
1.0
 22
0.0
 32
0.0
 13
1.0
 23
0.0
 33
0.0
 40
0.0
 40
0.0
 40
0.0
 40
0.0
 40
1.0
 40
1.0
 40
1.0
 40
2.0
 40
2.0
 40
2.0
 40
3.0
 40
3.0
 40
3.0
 40
4.0
 40
4.0
 40
4.0
 40
5.0
 40
5.0
 40
5.0
 40
6.0
 40
6.0
 40
6.0
 40
7.0
 40
7.0
 40
7.0
 40
8.0
 40
8.0
 40
8.0
 40
9.0
 40
9.0
 40
9.0
 40
10.0
 40
10.0
 40
10.0
 40
11.0
 40
11.0
 40
11.0
 40
11.0
 10
85.8676269316581
 20
-134.5955742393546
 30
0.0
 10
85.95030922330409
 20
-134.5425197688817
 30
0.0
 10
86.11532929704757
 20
-134.4346882801934
 30
0.0
 10
86.22109372844473
 20
-134.2272935319814
 30
0.0
 10
86.36923283431048
 20
-133.9354939443807
 30
0.0
 10
86.36923283431048
 20
-133.7091511709998
 30
0.0
 10
86.36923283431048
 20
-133.6244018220627
 30
0.0
 10
86.36923283431048
 20
-133.6244018220627
 30
0.0
 10
86.36923283431048
 20
-133.3897908195171
 30
0.0
 10
86.36923283431048
 20
-133.3897908195171
 30
0.0
 10
86.36923283431048
 20
-133.3897908195171
 30
0.0
 10
86.53425290805394
 20
-133.3897908195171
 30
0.0
 10
86.53425290805394
 20
-133.3897908195171
 30
0.0
 10
86.53425290805394
 20
-133.3897908195171
 30
0.0
 10
86.53425290805394
 20
-133.6161335928981
 30
0.0
 10
86.53425290805394
 20
-133.6161335928981
 30
0.0
 10
86.53425290805394
 20
-133.814915602397
 30
0.0
 10
86.59970972227369
 20
-134.0519381717822
 30
0.0
 10
86.70134003908856
 20
-134.2252264746902
 30
0.0
 10
86.81778426649001
 20
-134.4240084841891
 30
0.0
 10
86.94663083763835
 20
-134.5235717437129
 30
0.0
 10
87.03138018657549
 20
-134.5848944433503
 30
0.0
 10
87.03138018657549
 20
-134.5848944433503
 30
0.0
 10
86.92354869788717
 20
-134.7351006065072
 30
0.0
 10
86.92354869788717
 20
-134.7351006065072
 30
0.0
 10
86.74578177084828
 20
-134.6059095258103
 30
0.0
 10
86.54699976134937
 20
-134.366819899134
 30
0.0
 10
86.46845158428567
 20
-134.0136976118959
 30
0.0
 10
86.40299477006592
 20
-134.2527872385722
 30
0.0
 10
86.30136445325105
 20
-134.5215046864217
 30
0.0
 10
85.99268389777266
 20
-134.7309664919249
 30
0.0
 10
85.99268389777266
 20
-134.7309664919249
 30
0.0
 10
85.8676269316581
 20
-134.5955742393546
 30
0.0
 10
85.8676269316581
 20
-134.5955742393546
 30
0.0
  0
SPLINE
  5
173
330
133
100
AcDbEntity
  8
_U+30EC_U+30A4_U+30E4_U+30FC 1
370
     0
100
AcDbSpline
210
0.0
220
0.0
230
1.0
 70
    11
 71
     3
 72
    38
 73
    34
 74
     0
 42
0.0000000001
 43
0.0000000001
 12
1.0
 22
0.0
 32
0.0
 13
1.0
 23
0.0
 33
0.0
 40
0.0
 40
0.0
 40
0.0
 40
0.0
 40
1.0
 40
1.0
 40
1.0
 40
2.0
 40
2.0
 40
2.0
 40
3.0
 40
3.0
 40
3.0
 40
4.0
 40
4.0
 40
4.0
 40
5.0
 40
5.0
 40
5.0
 40
6.0
 40
6.0
 40
6.0
 40
7.0
 40
7.0
 40
7.0
 40
8.0
 40
8.0
 40
8.0
 40
9.0
 40
9.0
 40
9.0
 40
10.0
 40
10.0
 40
10.0
 40
11.0
 40
11.0
 40
11.0
 40
11.0
 10
85.9820041017684
 20
-133.5227715052478
 30
0.0
 10
86.07502167987013
 20
-133.4001261059729
 30
0.0
 10
86.2000786459847
 20
-133.2202921216428
 30
0.0
 10
86.2951632813776
 20
-132.7717406894633
 30
0.0
 10
86.2951632813776
 20
-132.7717406894633
 30
0.0
 10
86.46225041241222
 20
-132.7910332241807
 30
0.0
 10
86.46225041241222
 20
-132.7910332241807
 30
0.0
 10
86.43675670582137
 20
-132.9116115661645
 30
0.0
 10
86.4136745660702
 20
-133.002562086975
 30
0.0
 10
86.37543400618392
 20
-133.1103935756634
 30
0.0
 10
86.37543400618392
 20
-133.1103935756634
 30
0.0
 10
87.0038194226935
 20
-133.1103935756634
 30
0.0
 10
87.0038194226935
 20
-133.1103935756634
 30
0.0
 10
87.0038194226935
 20
-133.1103935756634
 30
0.0
 10
87.0038194226935
 20
-133.2626667961114
 30
0.0
 10
87.0038194226935
 20
-133.2626667961114
 30
0.0
 10
86.97005748693805
 20
-133.4046047301037
 30
0.0
 10
86.87462834199663
 20
-133.6626423819489
 30
0.0
 10
86.80055878906376
 20
-133.7811536666415
 30
0.0
 10
86.80055878906376
 20
-133.7811536666415
 30
0.0
 10
86.6482855686157
 20
-133.7026054895778
 30
0.0
 10
86.6482855686157
 20
-133.7026054895778
 30
0.0
 10
86.74371471355713
 20
-133.5672132370075
 30
0.0
 10
86.80917152777688
 20
-133.3791110235129
 30
0.0
 10
86.83673229165888
 20
-133.2688679679849
 30
0.0
 10
86.83673229165888
 20
-133.2688679679849
 30
0.0
 10
86.31824542112878
 20
-133.2688679679849
 30
0.0
 10
86.31824542112878
 20
-133.2688679679849
 30
0.0
 10
86.21902667115359
 20
-133.5103691615009
 30
0.0
 10
86.1449571182207
 20
-133.5989081154718
 30
0.0
 10
86.10671655833444
 20
-133.6433498472315
 30
0.0
 10
86.10671655833444
 20
-133.6433498472315
 30
0.0
 10
85.9820041017684
 20
-133.5227715052478
 30
0.0
 10
85.9820041017684
 20
-133.5227715052478
 30
0.0
  0
HATCH
  5
174
330
133
100
AcDbEntity
  8
_U+30EC_U+30A4_U+30E4_U+30FC 1
 62
    12
420
 15007761
100
AcDbHatch
 10
0.0
 20
0.0
 30
0.0
210
0.0
220
0.0
230
1.0
  2
SOLID
 70
     1
 71
     0
 91
        7
 92
        1
 93
       28
 72
     1
 10
85.45938311665599
 20
-132.9326266486245
 11
85.45938311665599
 21
-132.7717406894633
 72
     1
 10
85.45938311665599
 20
-132.7717406894633
 11
85.6140679039437
 21
-132.7717406894633
 72
     1
 10
85.6140679039437
 20
-132.7717406894633
 11
85.6140679039437
 21
-132.9326266486245
 72
     1
 10
85.6140679039437
 20
-132.9326266486245
 11
86.00749780835925
 21
-132.9326266486245
 72
     1
 10
86.00749780835925
 20
-132.9326266486245
 11
86.00749780835925
 21
-133.0869669263637
 72
     1
 10
86.00749780835925
 20
-133.0869669263637
 11
85.6140679039437
 21
-133.0869669263637
 72
     1
 10
85.6140679039437
 20
-133.0869669263637
 11
85.6140679039437
 21
-133.2416517136514
 72
     1
 10
85.6140679039437
 20
-133.2416517136514
 11
85.96925724847297
 21
-133.2416517136514
 72
     1
 10
85.96925724847297
 20
-133.2416517136514
 11
85.96925724847297
 21
-134.0540052290733
 72
     1
 10
85.96925724847297
 20
-134.0540052290733
 11
85.6140679039437
 21
-134.0540052290733
 72
     1
 10
85.6140679039437
 20
-134.0540052290733
 11
85.6140679039437
 21
-134.2231594173991
 72
     1
 10
85.6140679039437
 20
-134.2231594173991
 11
86.02231171894582
 21
-134.2231594173991
 72
     1
 10
86.02231171894582
 20
-134.2231594173991
 11
86.02231171894582
 21
-134.3774996951383
 72
     1
 10
86.02231171894582
 20
-134.3774996951383
 11
85.6140679039437
 21
-134.3774996951383
 72
     1
 10
85.6140679039437
 20
-134.3774996951383
 11
85.6140679039437
 21
-134.7309664919249
 72
     1
 10
85.6140679039437
 20
-134.7309664919249
 11
85.45938311665599
 21
-134.7309664919249
 72
     1
 10
85.45938311665599
 20
-134.7309664919249
 11
85.45938311665599
 21
-134.3774996951383
 72
     1
 10
85.45938311665599
 20
-134.3774996951383
 11
85.04907224436273
 21
-134.3774996951383
 72
     1
 10
85.04907224436273
 20
-134.3774996951383
 11
85.04907224436273
 21
-134.2231594173991
 72
     1
 10
85.04907224436273
 20
-134.2231594173991
 11
85.45938311665599
 21
-134.2231594173991
 72
     1
 10
85.45938311665599
 20
-134.2231594173991
 11
85.45938311665599
 21
-134.0540052290733
 72
     1
 10
85.45938311665599
 20
-134.0540052290733
 11
85.11039494400018
 21
-134.0540052290733
 72
     1
 10
85.11039494400018
 20
-134.0540052290733
 11
85.11039494400018
 21
-133.2416517136514
 72
     1
 10
85.11039494400018
 20
-133.2416517136514
 11
85.45938311665599
 21
-133.2416517136514
 72
     1
 10
85.45938311665599
 20
-133.2416517136514
 11
85.45938311665599
 21
-133.0869669263637
 72
     1
 10
85.45938311665599
 20
-133.0869669263637
 11
85.07008732682276
 21
-133.0869669263637
 72
     1
 10
85.07008732682276
 20
-133.0869669263637
 11
85.07008732682276
 21
-132.9326266486245
 72
     1
 10
85.07008732682276
 20
-132.9326266486245
 11
85.45938311665599
 21
-132.9326266486245
 97
        0
 92
        1
 93
        4
 72
     1
 10
85.45938311665599
 20
-133.381178080804
 11
85.25233287799247
 21
-133.381178080804
 72
     1
 10
85.25233287799247
 20
-133.381178080804
 11
85.25233287799247
 21
-133.5840942048852
 72
     1
 10
85.25233287799247
 20
-133.5840942048852
 11
85.45938311665599
 21
-133.5840942048852
 72
     1
 10
85.45938311665599
 20
-133.5840942048852
 11
85.45938311665599
 21
-133.381178080804
 97
        0
 92
        1
 93
        4
 72
     1
 10
85.45938311665599
 20
-133.7070841137086
 11
85.25233287799247
 21
-133.7070841137086
 72
     1
 10
85.25233287799247
 20
-133.7070841137086
 11
85.25233287799247
 21
-133.9141343523722
 72
     1
 10
85.25233287799247
 20
-133.9141343523722
 11
85.45938311665599
 21
-133.9141343523722
 72
     1
 10
85.45938311665599
 20
-133.9141343523722
 11
85.45938311665599
 21
-133.7070841137086
 97
        0
 92
        1
 93
        4
 72
     1
 10
85.82559676673804
 20
-133.381178080804
 11
85.6140679039437
 21
-133.381178080804
 72
     1
 10
85.6140679039437
 20
-133.381178080804
 11
85.6140679039437
 21
-133.5840942048852
 72
     1
 10
85.6140679039437
 20
-133.5840942048852
 11
85.82559676673804
 21
-133.5840942048852
 72
     1
 10
85.82559676673804
 20
-133.5840942048852
 11
85.82559676673804
 21
-133.381178080804
 97
        0
 92
        1
 93
        4
 72
     1
 10
85.82559676673804
 20
-133.7070841137086
 11
85.6140679039437
 21
-133.7070841137086
 72
     1
 10
85.6140679039437
 20
-133.7070841137086
 11
85.6140679039437
 21
-133.9141343523722
 72
     1
 10
85.6140679039437
 20
-133.9141343523722
 11
85.82559676673804
 21
-133.9141343523722
 72
     1
 10
85.82559676673804
 20
-133.9141343523722
 11
85.82559676673804
 21
-133.7070841137086
 97
        0
 92
        1
 93
        1
 72
     4
 94
        3
 73
     0
 74
     1
 95
       38
 96
       34
 40
0.0
 40
0.0
 40
0.0
 40
0.0
 40
1.0
 40
1.0
 40
1.0
 40
2.0
 40
2.0
 40
2.0
 40
3.0
 40
3.0
 40
3.0
 40
4.0
 40
4.0
 40
4.0
 40
5.0
 40
5.0
 40
5.0
 40
6.0
 40
6.0
 40
6.0
 40
7.0
 40
7.0
 40
7.0
 40
8.0
 40
8.0
 40
8.0
 40
9.0
 40
9.0
 40
9.0
 40
10.0
 40
10.0
 40
10.0
 40
11.0
 40
11.0
 40
11.0
 40
11.0
 10
85.8676269316581
 20
-134.5955742393546
 10
85.95030922330409
 20
-134.5425197688817
 10
86.11532929704757
 20
-134.4346882801934
 10
86.22109372844473
 20
-134.2272935319814
 10
86.36923283431048
 20
-133.9354939443807
 10
86.36923283431048
 20
-133.7091511709998
 10
86.36923283431048
 20
-133.6244018220627
 10
86.36923283431048
 20
-133.6244018220627
 10
86.36923283431048
 20
-133.3897908195171
 10
86.36923283431048
 20
-133.3897908195171
 10
86.36923283431048
 20
-133.3897908195171
 10
86.53425290805394
 20
-133.3897908195171
 10
86.53425290805394
 20
-133.3897908195171
 10
86.53425290805394
 20
-133.3897908195171
 10
86.53425290805394
 20
-133.6161335928981
 10
86.53425290805394
 20
-133.6161335928981
 10
86.53425290805394
 20
-133.814915602397
 10
86.59970972227369
 20
-134.0519381717822
 10
86.70134003908856
 20
-134.2252264746902
 10
86.81778426649001
 20
-134.4240084841891
 10
86.94663083763835
 20
-134.5235717437129
 10
87.03138018657549
 20
-134.5848944433503
 10
87.03138018657549
 20
-134.5848944433503
 10
86.92354869788717
 20
-134.7351006065072
 10
86.92354869788717
 20
-134.7351006065072
 10
86.74578177084828
 20
-134.6059095258103
 10
86.54699976134937
 20
-134.366819899134
 10
86.46845158428567
 20
-134.0136976118959
 10
86.40299477006592
 20
-134.2527872385722
 10
86.30136445325105
 20
-134.5215046864217
 10
85.99268389777266
 20
-134.7309664919249
 10
85.99268389777266
 20
-134.7309664919249
 10
85.8676269316581
 20
-134.5955742393546
 10
85.8676269316581
 20
-134.5955742393546
 97
        0
 97
        0
 92
        1
 93
        1
 72
     4
 94
        3
 73
     0
 74
     1
 95
       38
 96
       34
 40
0.0
 40
0.0
 40
0.0
 40
0.0
 40
1.0
 40
1.0
 40
1.0
 40
2.0
 40
2.0
 40
2.0
 40
3.0
 40
3.0
 40
3.0
 40
4.0
 40
4.0
 40
4.0
 40
5.0
 40
5.0
 40
5.0
 40
6.0
 40
6.0
 40
6.0
 40
7.0
 40
7.0
 40
7.0
 40
8.0
 40
8.0
 40
8.0
 40
9.0
 40
9.0
 40
9.0
 40
10.0
 40
10.0
 40
10.0
 40
11.0
 40
11.0
 40
11.0
 40
11.0
 10
85.9820041017684
 20
-133.5227715052478
 10
86.07502167987013
 20
-133.4001261059729
 10
86.2000786459847
 20
-133.2202921216428
 10
86.2951632813776
 20
-132.7717406894633
 10
86.2951632813776
 20
-132.7717406894633
 10
86.46225041241222
 20
-132.7910332241807
 10
86.46225041241222
 20
-132.7910332241807
 10
86.43675670582137
 20
-132.9116115661645
 10
86.4136745660702
 20
-133.002562086975
 10
86.37543400618392
 20
-133.1103935756634
 10
86.37543400618392
 20
-133.1103935756634
 10
87.0038194226935
 20
-133.1103935756634
 10
87.0038194226935
 20
-133.1103935756634
 10
87.0038194226935
 20
-133.1103935756634
 10
87.0038194226935
 20
-133.2626667961114
 10
87.0038194226935
 20
-133.2626667961114
 10
86.97005748693805
 20
-133.4046047301037
 10
86.87462834199663
 20
-133.6626423819489
 10
86.80055878906376
 20
-133.7811536666415
 10
86.80055878906376
 20
-133.7811536666415
 10
86.6482855686157
 20
-133.7026054895778
 10
86.6482855686157
 20
-133.7026054895778
 10
86.74371471355713
 20
-133.5672132370075
 10
86.80917152777688
 20
-133.3791110235129
 10
86.83673229165888
 20
-133.2688679679849
 10
86.83673229165888
 20
-133.2688679679849
 10
86.31824542112878
 20
-133.2688679679849
 10
86.31824542112878
 20
-133.2688679679849
 10
86.21902667115359
 20
-133.5103691615009
 10
86.1449571182207
 20
-133.5989081154718
 10
86.10671655833444
 20
-133.6433498472315
 10
86.10671655833444
 20
-133.6433498472315
 10
85.9820041017684
 20
-133.5227715052478
 10
85.9820041017684
 20
-133.5227715052478
 97
        0
 97
        0
 75
     2
 76
     1
 98
        0
  0
SPLINE
  5
175
330
133
100
AcDbEntity
  8
_U+30EC_U+30A4_U+30E4_U+30FC 1
370
     0
100
AcDbSpline
210
0.0
220
0.0
230
1.0
 70
    11
 71
     3
 72
    50
 73
    46
 74
     0
 42
0.0000000001
 43
0.0000000001
 12
1.0
 22
0.0
 32
0.0
 13
1.0
 23
0.0
 33
0.0
 40
0.0
 40
0.0
 40
0.0
 40
0.0
 40
1.0
 40
1.0
 40
1.0
 40
2.0
 40
2.0
 40
2.0
 40
3.0
 40
3.0
 40
3.0
 40
4.0
 40
4.0
 40
4.0
 40
5.0
 40
5.0
 40
5.0
 40
6.0
 40
6.0
 40
6.0
 40
7.0
 40
7.0
 40
7.0
 40
8.0
 40
8.0
 40
8.0
 40
9.0
 40
9.0
 40
9.0
 40
10.0
 40
10.0
 40
10.0
 40
11.0
 40
11.0
 40
11.0
 40
12.0
 40
12.0
 40
12.0
 40
13.0
 40
13.0
 40
13.0
 40
14.0
 40
14.0
 40
14.0
 40
15.0
 40
15.0
 40
15.0
 40
15.0
 10
87.4768310328183
 20
-133.0700859584859
 30
0.0
 10
87.4768310328183
 20
-133.0700859584859
 30
0.0
 10
88.12829858907904
 20
-133.0700859584859
 30
0.0
 10
88.12829858907904
 20
-133.0700859584859
 30
0.0
 10
88.12829858907904
 20
-133.0700859584859
 30
0.0
 10
88.12829858907904
 20
-133.1951429246005
 30
0.0
 10
88.12829858907904
 20
-133.1951429246005
 30
0.0
 10
88.12829858907904
 20
-133.1951429246005
 30
0.0
 10
87.85131291206496
 20
-133.1951429246005
 30
0.0
 10
87.85131291206496
 20
-133.1951429246005
 30
0.0
 10
87.85131291206496
 20
-133.1951429246005
 30
0.0
 10
87.85131291206496
 20
-133.4700615443235
 30
0.0
 10
87.85131291206496
 20
-133.4700615443235
 30
0.0
 10
87.85131291206496
 20
-133.4700615443235
 30
0.0
 10
87.69042695290379
 20
-133.4700615443235
 30
0.0
 10
87.69042695290379
 20
-133.4700615443235
 30
0.0
 10
87.69042695290379
 20
-133.4700615443235
 30
0.0
 10
87.69042695290379
 20
-133.1951429246005
 30
0.0
 10
87.69042695290379
 20
-133.1951429246005
 30
0.0
 10
87.69042695290379
 20
-133.1951429246005
 30
0.0
 10
87.47028535139633
 20
-133.1951429246005
 30
0.0
 10
87.47028535139633
 20
-133.1951429246005
 30
0.0
 10
87.45995006494057
 20
-133.2647338534026
 30
0.0
 10
87.43445635834972
 20
-133.4593817483192
 30
0.0
 10
87.28011608061053
 20
-133.6095879114761
 30
0.0
 10
87.28011608061053
 20
-133.6095879114761
 30
0.0
 10
87.15747068133564
 20
-133.4996893654966
 30
0.0
 10
87.15747068133564
 20
-133.4996893654966
 30
0.0
 10
87.27804902331938
 20
-133.4001261059729
 30
0.0
 10
87.32007918823943
 20
-133.1951429246005
 30
0.0
 10
87.32007918823943
 20
-133.1124606329545
 30
0.0
 10
87.32007918823943
 20
-133.1124606329545
 30
0.0
 10
87.32007918823943
 20
-132.8268622172273
 30
0.0
 10
87.32007918823943
 20
-132.8268622172273
 30
0.0
 10
87.80480412301408
 20
-132.8268622172273
 30
0.0
 10
87.95914440075327
 20
-132.7803534281765
 30
0.0
 10
88.05422903614617
 20
-132.7527926642944
 30
0.0
 10
88.05422903614617
 20
-132.7527926642944
 30
0.0
 10
88.10728350661901
 20
-132.8923190314471
 30
0.0
 10
88.10728350661901
 20
-132.8923190314471
 30
0.0
 10
87.89782170111583
 20
-132.9412393873376
 30
0.0
 10
87.73486868466351
 20
-132.9515746737934
 30
0.0
 10
87.4768310328183
 20
-132.9560532979242
 30
0.0
 10
87.4768310328183
 20
-132.9560532979242
 30
0.0
 10
87.4768310328183
 20
-133.0700859584859
 30
0.0
 10
87.4768310328183
 20
-133.0700859584859
 30
0.0
  0
SPLINE
  5
176
330
133
100
AcDbEntity
  8
_U+30EC_U+30A4_U+30E4_U+30FC 1
370
     0
100
AcDbSpline
210
0.0
220
0.0
230
1.0
 70
    11
 71
     3
 72
    32
 73
    28
 74
     0
 42
0.0000000001
 43
0.0000000001
 12
1.0
 22
0.0
 32
0.0
 13
1.0
 23
0.0
 33
0.0
 40
0.0
 40
0.0
 40
0.0
 40
0.0
 40
1.0
 40
1.0
 40
1.0
 40
2.0
 40
2.0
 40
2.0
 40
3.0
 40
3.0
 40
3.0
 40
4.0
 40
4.0
 40
4.0
 40
5.0
 40
5.0
 40
5.0
 40
6.0
 40
6.0
 40
6.0
 40
7.0
 40
7.0
 40
7.0
 40
8.0
 40
8.0
 40
8.0
 40
9.0
 40
9.0
 40
9.0
 40
9.0
 10
87.39208168388114
 20
-134.4157402550245
 30
0.0
 10
87.39208168388114
 20
-134.4157402550245
 30
0.0
 10
87.39208168388114
 20
-133.5165703333743
 30
0.0
 10
87.39208168388114
 20
-133.5165703333743
 30
0.0
 10
87.39208168388114
 20
-133.5165703333743
 30
0.0
 10
88.89000920086778
 20
-133.5165703333743
 30
0.0
 10
88.89000920086778
 20
-133.5165703333743
 30
0.0
 10
88.89000920086778
 20
-133.5165703333743
 30
0.0
 10
88.89000920086778
 20
-134.4157402550245
 30
0.0
 10
88.89000920086778
 20
-134.4157402550245
 30
0.0
 10
88.89000920086778
 20
-134.4157402550245
 30
0.0
 10
87.74554848066778
 20
-134.4157402550245
 30
0.0
 10
87.74554848066778
 20
-134.4157402550245
 30
0.0
 10
87.74554848066778
 20
-134.4157402550245
 30
0.0
 10
87.85131291206496
 20
-134.525638801004
 30
0.0
 10
87.85131291206496
 20
-134.525638801004
 30
0.0
 10
87.68629283832149
 20
-134.6207234363969
 30
0.0
 10
87.52127276457801
 20
-134.6820461360344
 30
0.0
 10
87.22499455284654
 20
-134.7330335492161
 30
0.0
 10
87.22499455284654
 20
-134.7330335492161
 30
0.0
 10
87.15953773862678
 20
-134.580760328768
 30
0.0
 10
87.15953773862678
 20
-134.580760328768
 30
0.0
 10
87.53815373245574
 20
-134.5277058582951
 30
0.0
 10
87.66079913173064
 20
-134.4601819867843
 30
0.0
 10
87.74106985653695
 20
-134.4157402550245
 30
0.0
 10
87.74106985653695
 20
-134.4157402550245
 30
0.0
 10
87.39208168388114
 20
-134.4157402550245
 30
0.0
 10
87.39208168388114
 20
-134.4157402550245
 30
0.0
  0
POLYLINE
  5
177
330
133
100
AcDbEntity
  8
_U+30EC_U+30A4_U+30E4_U+30FC 1
370
     0
100
AcDb2dPolyline
 66
     1
 10
0.0
 20
0.0
 30
0.0
  0
VERTEX
  5
178
330
177
100
AcDbEntity
  8
_U+30EC_U+30A4_U+30E4_U+30FC 1
370
     0
100
AcDbVertex
100
AcDb2dVertex
 10
88.72051050299349
 20
-133.6498955286535
 30
0.0
  0
VERTEX
  5
179
330
177
100
AcDbEntity
  8
_U+30EC_U+30A4_U+30E4_U+30FC 1
370
     0
100
AcDbVertex
100
AcDb2dVertex
 10
87.56123587220692
 20
-133.6498955286535
 30
0.0
  0
VERTEX
  5
17A
330
177
100
AcDbEntity
  8
_U+30EC_U+30A4_U+30E4_U+30FC 1
370
     0
100
AcDbVertex
100
AcDb2dVertex
 10
87.56123587220692
 20
-133.7787420998019
 30
0.0
  0
VERTEX
  5
17B
330
177
100
AcDbEntity
  8
_U+30EC_U+30A4_U+30E4_U+30FC 1
370
     0
100
AcDbVertex
100
AcDb2dVertex
 10
88.72051050299349
 20
-133.7787420998019
 30
0.0
  0
VERTEX
  5
17C
330
177
100
AcDbEntity
  8
_U+30EC_U+30A4_U+30E4_U+30FC 1
370
     0
100
AcDbVertex
100
AcDb2dVertex
 10
88.72051050299349
 20
-133.6498955286535
 30
0.0
  0
SEQEND
  5
17D
330
177
100
AcDbEntity
  8
_U+30EC_U+30A4_U+30E4_U+30FC 1
370
     0
  0
POLYLINE
  5
17E
330
133
100
AcDbEntity
  8
_U+30EC_U+30A4_U+30E4_U+30FC 1
370
     0
100
AcDb2dPolyline
 66
     1
 10
0.0
 20
0.0
 30
0.0
  0
VERTEX
  5
17F
330
17E
100
AcDbEntity
  8
_U+30EC_U+30A4_U+30E4_U+30FC 1
370
     0
100
AcDbVertex
100
AcDb2dVertex
 10
88.72051050299349
 20
-133.8889851553298
 30
0.0
  0
VERTEX
  5
180
330
17E
100
AcDbEntity
  8
_U+30EC_U+30A4_U+30E4_U+30FC 1
370
     0
100
AcDbVertex
100
AcDb2dVertex
 10
87.56123587220692
 20
-133.8889851553298
 30
0.0
  0
VERTEX
  5
181
330
17E
100
AcDbEntity
  8
_U+30EC_U+30A4_U+30E4_U+30FC 1
370
     0
100
AcDbVertex
100
AcDb2dVertex
 10
87.56123587220692
 20
-134.0305785797736
 30
0.0
  0
VERTEX
  5
182
330
17E
100
AcDbEntity
  8
_U+30EC_U+30A4_U+30E4_U+30FC 1
370
     0
100
AcDbVertex
100
AcDb2dVertex
 10
88.72051050299349
 20
-134.0305785797736
 30
0.0
  0
VERTEX
  5
183
330
17E
100
AcDbEntity
  8
_U+30EC_U+30A4_U+30E4_U+30FC 1
370
     0
100
AcDbVertex
100
AcDb2dVertex
 10
88.72051050299349
 20
-133.8889851553298
 30
0.0
  0
SEQEND
  5
184
330
17E
100
AcDbEntity
  8
_U+30EC_U+30A4_U+30E4_U+30FC 1
370
     0
  0
POLYLINE
  5
185
330
133
100
AcDbEntity
  8
_U+30EC_U+30A4_U+30E4_U+30FC 1
370
     0
100
AcDb2dPolyline
 66
     1
 10
0.0
 20
0.0
 30
0.0
  0
VERTEX
  5
186
330
185
100
AcDbEntity
  8
_U+30EC_U+30A4_U+30E4_U+30FC 1
370
     0
100
AcDbVertex
100
AcDb2dVertex
 10
88.72051050299349
 20
-134.1404771257531
 30
0.0
  0
VERTEX
  5
187
330
185
100
AcDbEntity
  8
_U+30EC_U+30A4_U+30E4_U+30FC 1
370
     0
100
AcDbVertex
100
AcDb2dVertex
 10
87.56123587220692
 20
-134.1404771257531
 30
0.0
  0
VERTEX
  5
188
330
185
100
AcDbEntity
  8
_U+30EC_U+30A4_U+30E4_U+30FC 1
370
     0
100
AcDbVertex
100
AcDb2dVertex
 10
87.56123587220692
 20
-134.2803480024542
 30
0.0
  0
VERTEX
  5
189
330
185
100
AcDbEntity
  8
_U+30EC_U+30A4_U+30E4_U+30FC 1
370
     0
100
AcDbVertex
100
AcDb2dVertex
 10
88.72051050299349
 20
-134.2803480024542
 30
0.0
  0
VERTEX
  5
18A
330
185
100
AcDbEntity
  8
_U+30EC_U+30A4_U+30E4_U+30FC 1
370
     0
100
AcDbVertex
100
AcDb2dVertex
 10
88.72051050299349
 20
-134.1404771257531
 30
0.0
  0
SEQEND
  5
18B
330
185
100
AcDbEntity
  8
_U+30EC_U+30A4_U+30E4_U+30FC 1
370
     0
  0
SPLINE
  5
18C
330
133
100
AcDbEntity
  8
_U+30EC_U+30A4_U+30E4_U+30FC 1
370
     0
100
AcDbSpline
210
0.0
220
0.0
230
1.0
 70
    11
 71
     3
 72
    50
 73
    46
 74
     0
 42
0.0000000001
 43
0.0000000001
 12
1.0
 22
0.0
 32
0.0
 13
1.0
 23
0.0
 33
0.0
 40
0.0
 40
0.0
 40
0.0
 40
0.0
 40
1.0
 40
1.0
 40
1.0
 40
2.0
 40
2.0
 40
2.0
 40
3.0
 40
3.0
 40
3.0
 40
4.0
 40
4.0
 40
4.0
 40
5.0
 40
5.0
 40
5.0
 40
6.0
 40
6.0
 40
6.0
 40
7.0
 40
7.0
 40
7.0
 40
8.0
 40
8.0
 40
8.0
 40
9.0
 40
9.0
 40
9.0
 40
10.0
 40
10.0
 40
10.0
 40
11.0
 40
11.0
 40
11.0
 40
12.0
 40
12.0
 40
12.0
 40
13.0
 40
13.0
 40
13.0
 40
14.0
 40
14.0
 40
14.0
 40
15.0
 40
15.0
 40
15.0
 40
15.0
 10
88.38426918363311
 20
-133.0700859584859
 30
0.0
 10
88.38426918363311
 20
-133.0700859584859
 30
0.0
 10
89.12048608883099
 20
-133.0700859584859
 30
0.0
 10
89.12048608883099
 20
-133.0700859584859
 30
0.0
 10
89.12048608883099
 20
-133.0700859584859
 30
0.0
 10
89.12048608883099
 20
-133.1951429246005
 30
0.0
 10
89.12048608883099
 20
-133.1951429246005
 30
0.0
 10
89.12048608883099
 20
-133.1951429246005
 30
0.0
 10
88.79044594134406
 20
-133.1951429246005
 30
0.0
 10
88.79044594134406
 20
-133.1951429246005
 30
0.0
 10
88.79044594134406
 20
-133.1951429246005
 30
0.0
 10
88.79044594134406
 20
-133.4700615443235
 30
0.0
 10
88.79044594134406
 20
-133.4700615443235
 30
0.0
 10
88.79044594134406
 20
-133.4700615443235
 30
0.0
 10
88.63403860631372
 20
-133.4700615443235
 30
0.0
 10
88.63403860631372
 20
-133.4700615443235
 30
0.0
 10
88.63403860631372
 20
-133.4700615443235
 30
0.0
 10
88.63403860631372
 20
-133.1951429246005
 30
0.0
 10
88.63403860631372
 20
-133.1951429246005
 30
0.0
 10
88.63403860631372
 20
-133.1951429246005
 30
0.0
 10
88.36945527304653
 20
-133.1951429246005
 30
0.0
 10
88.36945527304653
 20
-133.1951429246005
 30
0.0
 10
88.34396156645568
 20
-133.3239894957489
 30
0.0
 10
88.29331866282251
 20
-133.4149400165595
 30
0.0
 10
88.19616697013846
 20
-133.4976223082055
 30
0.0
 10
88.19616697013846
 20
-133.4976223082055
 30
0.0
 10
88.07317706131505
 20
-133.3897908195171
 30
0.0
 10
88.07317706131505
 20
-133.3897908195171
 30
0.0
 10
88.20856931388536
 20
-133.2795477639891
 30
0.0
 10
88.23199596318506
 20
-133.1420884541277
 30
0.0
 10
88.23199596318506
 20
-133.0680189011948
 30
0.0
 10
88.23199596318506
 20
-133.0680189011948
 30
0.0
 10
88.23199596318506
 20
-132.8247951599362
 30
0.0
 10
88.23199596318506
 20
-132.8247951599362
 30
0.0
 10
88.70156247782461
 20
-132.8247951599362
 30
0.0
 10
88.86864960885923
 20
-132.7844875427587
 30
0.0
 10
89.01265460014267
 20
-132.7421128682902
 30
0.0
 10
89.01265460014267
 20
-132.7421128682902
 30
0.0
 10
89.07191024248897
 20
-132.8799166877002
 30
0.0
 10
89.07191024248897
 20
-132.8799166877002
 30
0.0
 10
88.80112573734833
 20
-132.9495076165022
 30
0.0
 10
88.48589950044797
 20
-132.953986240633
 30
0.0
 10
88.38426918363311
 20
-132.953986240633
 30
0.0
 10
88.38426918363311
 20
-132.953986240633
 30
0.0
 10
88.38426918363311
 20
-133.0700859584859
 30
0.0
 10
88.38426918363311
 20
-133.0700859584859
 30
0.0
  0
SPLINE
  5
18D
330
133
100
AcDbEntity
  8
_U+30EC_U+30A4_U+30E4_U+30FC 1
370
     0
100
AcDbSpline
210
0.0
220
0.0
230
1.0
 70
    11
 71
     3
 72
    17
 73
    13
 74
     0
 42
0.0000000001
 43
0.0000000001
 12
1.0
 22
0.0
 32
0.0
 13
1.0
 23
0.0
 33
0.0
 40
0.0
 40
0.0
 40
0.0
 40
0.0
 40
1.0
 40
1.0
 40
1.0
 40
2.0
 40
2.0
 40
2.0
 40
3.0
 40
3.0
 40
3.0
 40
4.0
 40
4.0
 40
4.0
 40
4.0
 10
88.49657929645225
 20
-134.421941426898
 30
0.0
 10
88.71637638841119
 20
-134.5342515397171
 30
0.0
 10
88.98302677896953
 20
-134.5721475900549
 30
0.0
 10
89.11187335011788
 20
-134.5828273860592
 30
0.0
 10
89.11187335011788
 20
-134.5828273860592
 30
0.0
 10
89.04228242131582
 20
-134.7371676637983
 30
0.0
 10
89.04228242131582
 20
-134.7371676637983
 30
0.0
 10
88.92170407933207
 20
-134.7223537532118
 30
0.0
 10
88.65918780335603
 20
-134.6820461360344
 30
0.0
 10
88.39494897963738
 20
-134.5363185970083
 30
0.0
 10
88.39494897963738
 20
-134.5363185970083
 30
0.0
 10
88.49657929645225
 20
-134.421941426898
 30
0.0
 10
88.49657929645225
 20
-134.421941426898
 30
0.0
  0
HATCH
  5
18E
330
133
100
AcDbEntity
  8
_U+30EC_U+30A4_U+30E4_U+30FC 1
 62
    12
420
 15007761
100
AcDbHatch
 10
0.0
 20
0.0
 30
0.0
210
0.0
220
0.0
230
1.0
  2
SOLID
 70
     1
 71
     0
 91
        7
 92
        1
 93
        1
 72
     4
 94
        3
 73
     0
 74
     1
 95
       50
 96
       46
 40
0.0
 40
0.0
 40
0.0
 40
0.0
 40
1.0
 40
1.0
 40
1.0
 40
2.0
 40
2.0
 40
2.0
 40
3.0
 40
3.0
 40
3.0
 40
4.0
 40
4.0
 40
4.0
 40
5.0
 40
5.0
 40
5.0
 40
6.0
 40
6.0
 40
6.0
 40
7.0
 40
7.0
 40
7.0
 40
8.0
 40
8.0
 40
8.0
 40
9.0
 40
9.0
 40
9.0
 40
10.0
 40
10.0
 40
10.0
 40
11.0
 40
11.0
 40
11.0
 40
12.0
 40
12.0
 40
12.0
 40
13.0
 40
13.0
 40
13.0
 40
14.0
 40
14.0
 40
14.0
 40
15.0
 40
15.0
 40
15.0
 40
15.0
 10
87.4768310328183
 20
-133.0700859584859
 10
87.4768310328183
 20
-133.0700859584859
 10
88.12829858907904
 20
-133.0700859584859
 10
88.12829858907904
 20
-133.0700859584859
 10
88.12829858907904
 20
-133.0700859584859
 10
88.12829858907904
 20
-133.1951429246005
 10
88.12829858907904
 20
-133.1951429246005
 10
88.12829858907904
 20
-133.1951429246005
 10
87.85131291206496
 20
-133.1951429246005
 10
87.85131291206496
 20
-133.1951429246005
 10
87.85131291206496
 20
-133.1951429246005
 10
87.85131291206496
 20
-133.4700615443235
 10
87.85131291206496
 20
-133.4700615443235
 10
87.85131291206496
 20
-133.4700615443235
 10
87.69042695290379
 20
-133.4700615443235
 10
87.69042695290379
 20
-133.4700615443235
 10
87.69042695290379
 20
-133.4700615443235
 10
87.69042695290379
 20
-133.1951429246005
 10
87.69042695290379
 20
-133.1951429246005
 10
87.69042695290379
 20
-133.1951429246005
 10
87.47028535139633
 20
-133.1951429246005
 10
87.47028535139633
 20
-133.1951429246005
 10
87.45995006494057
 20
-133.2647338534026
 10
87.43445635834972
 20
-133.4593817483192
 10
87.28011608061053
 20
-133.6095879114761
 10
87.28011608061053
 20
-133.6095879114761
 10
87.15747068133564
 20
-133.4996893654966
 10
87.15747068133564
 20
-133.4996893654966
 10
87.27804902331938
 20
-133.4001261059729
 10
87.32007918823943
 20
-133.1951429246005
 10
87.32007918823943
 20
-133.1124606329545
 10
87.32007918823943
 20
-133.1124606329545
 10
87.32007918823943
 20
-132.8268622172273
 10
87.32007918823943
 20
-132.8268622172273
 10
87.80480412301408
 20
-132.8268622172273
 10
87.95914440075327
 20
-132.7803534281765
 10
88.05422903614617
 20
-132.7527926642944
 10
88.05422903614617
 20
-132.7527926642944
 10
88.10728350661901
 20
-132.8923190314471
 10
88.10728350661901
 20
-132.8923190314471
 10
87.89782170111583
 20
-132.9412393873376
 10
87.73486868466351
 20
-132.9515746737934
 10
87.4768310328183
 20
-132.9560532979242
 10
87.4768310328183
 20
-132.9560532979242
 10
87.4768310328183
 20
-133.0700859584859
 10
87.4768310328183
 20
-133.0700859584859
 97
        0
 97
        0
 92
        1
 93
        1
 72
     4
 94
        3
 73
     0
 74
     1
 95
       32
 96
       28
 40
0.0
 40
0.0
 40
0.0
 40
0.0
 40
1.0
 40
1.0
 40
1.0
 40
2.0
 40
2.0
 40
2.0
 40
3.0
 40
3.0
 40
3.0
 40
4.0
 40
4.0
 40
4.0
 40
5.0
 40
5.0
 40
5.0
 40
6.0
 40
6.0
 40
6.0
 40
7.0
 40
7.0
 40
7.0
 40
8.0
 40
8.0
 40
8.0
 40
9.0
 40
9.0
 40
9.0
 40
9.0
 10
87.39208168388114
 20
-134.4157402550245
 10
87.39208168388114
 20
-134.4157402550245
 10
87.39208168388114
 20
-133.5165703333743
 10
87.39208168388114
 20
-133.5165703333743
 10
87.39208168388114
 20
-133.5165703333743
 10
88.89000920086778
 20
-133.5165703333743
 10
88.89000920086778
 20
-133.5165703333743
 10
88.89000920086778
 20
-133.5165703333743
 10
88.89000920086778
 20
-134.4157402550245
 10
88.89000920086778
 20
-134.4157402550245
 10
88.89000920086778
 20
-134.4157402550245
 10
87.74554848066778
 20
-134.4157402550245
 10
87.74554848066778
 20
-134.4157402550245
 10
87.74554848066778
 20
-134.4157402550245
 10
87.85131291206496
 20
-134.525638801004
 10
87.85131291206496
 20
-134.525638801004
 10
87.68629283832149
 20
-134.6207234363969
 10
87.52127276457801
 20
-134.6820461360344
 10
87.22499455284654
 20
-134.7330335492161
 10
87.22499455284654
 20
-134.7330335492161
 10
87.15953773862678
 20
-134.580760328768
 10
87.15953773862678
 20
-134.580760328768
 10
87.53815373245574
 20
-134.5277058582951
 10
87.66079913173064
 20
-134.4601819867843
 10
87.74106985653695
 20
-134.4157402550245
 10
87.74106985653695
 20
-134.4157402550245
 10
87.39208168388114
 20
-134.4157402550245
 10
87.39208168388114
 20
-134.4157402550245
 97
        0
 97
        0
 92
        1
 93
        4
 72
     1
 10
88.72051050299349
 20
-133.6498955286535
 11
87.56123587220692
 21
-133.6498955286535
 72
     1
 10
87.56123587220692
 20
-133.6498955286535
 11
87.56123587220692
 21
-133.7787420998019
 72
     1
 10
87.56123587220692
 20
-133.7787420998019
 11
88.72051050299349
 21
-133.7787420998019
 72
     1
 10
88.72051050299349
 20
-133.7787420998019
 11
88.72051050299349
 21
-133.6498955286535
 97
        0
 92
        1
 93
        4
 72
     1
 10
88.72051050299349
 20
-133.8889851553298
 11
87.56123587220692
 21
-133.8889851553298
 72
     1
 10
87.56123587220692
 20
-133.8889851553298
 11
87.56123587220692
 21
-134.0305785797736
 72
     1
 10
87.56123587220692
 20
-134.0305785797736
 11
88.72051050299349
 21
-134.0305785797736
 72
     1
 10
88.72051050299349
 20
-134.0305785797736
 11
88.72051050299349
 21
-133.8889851553298
 97
        0
 92
        1
 93
        4
 72
     1
 10
88.72051050299349
 20
-134.1404771257531
 11
87.56123587220692
 21
-134.1404771257531
 72
     1
 10
87.56123587220692
 20
-134.1404771257531
 11
87.56123587220692
 21
-134.2803480024542
 72
     1
 10
87.56123587220692
 20
-134.2803480024542
 11
88.72051050299349
 21
-134.2803480024542
 72
     1
 10
88.72051050299349
 20
-134.2803480024542
 11
88.72051050299349
 21
-134.1404771257531
 97
        0
 92
        1
 93
        1
 72
     4
 94
        3
 73
     0
 74
     1
 95
       50
 96
       46
 40
0.0
 40
0.0
 40
0.0
 40
0.0
 40
1.0
 40
1.0
 40
1.0
 40
2.0
 40
2.0
 40
2.0
 40
3.0
 40
3.0
 40
3.0
 40
4.0
 40
4.0
 40
4.0
 40
5.0
 40
5.0
 40
5.0
 40
6.0
 40
6.0
 40
6.0
 40
7.0
 40
7.0
 40
7.0
 40
8.0
 40
8.0
 40
8.0
 40
9.0
 40
9.0
 40
9.0
 40
10.0
 40
10.0
 40
10.0
 40
11.0
 40
11.0
 40
11.0
 40
12.0
 40
12.0
 40
12.0
 40
13.0
 40
13.0
 40
13.0
 40
14.0
 40
14.0
 40
14.0
 40
15.0
 40
15.0
 40
15.0
 40
15.0
 10
88.38426918363311
 20
-133.0700859584859
 10
88.38426918363311
 20
-133.0700859584859
 10
89.12048608883099
 20
-133.0700859584859
 10
89.12048608883099
 20
-133.0700859584859
 10
89.12048608883099
 20
-133.0700859584859
 10
89.12048608883099
 20
-133.1951429246005
 10
89.12048608883099
 20
-133.1951429246005
 10
89.12048608883099
 20
-133.1951429246005
 10
88.79044594134406
 20
-133.1951429246005
 10
88.79044594134406
 20
-133.1951429246005
 10
88.79044594134406
 20
-133.1951429246005
 10
88.79044594134406
 20
-133.4700615443235
 10
88.79044594134406
 20
-133.4700615443235
 10
88.79044594134406
 20
-133.4700615443235
 10
88.63403860631372
 20
-133.4700615443235
 10
88.63403860631372
 20
-133.4700615443235
 10
88.63403860631372
 20
-133.4700615443235
 10
88.63403860631372
 20
-133.1951429246005
 10
88.63403860631372
 20
-133.1951429246005
 10
88.63403860631372
 20
-133.1951429246005
 10
88.36945527304653
 20
-133.1951429246005
 10
88.36945527304653
 20
-133.1951429246005
 10
88.34396156645568
 20
-133.3239894957489
 10
88.29331866282251
 20
-133.4149400165595
 10
88.19616697013846
 20
-133.4976223082055
 10
88.19616697013846
 20
-133.4976223082055
 10
88.07317706131505
 20
-133.3897908195171
 10
88.07317706131505
 20
-133.3897908195171
 10
88.20856931388536
 20
-133.2795477639891
 10
88.23199596318506
 20
-133.1420884541277
 10
88.23199596318506
 20
-133.0680189011948
 10
88.23199596318506
 20
-133.0680189011948
 10
88.23199596318506
 20
-132.8247951599362
 10
88.23199596318506
 20
-132.8247951599362
 10
88.70156247782461
 20
-132.8247951599362
 10
88.86864960885923
 20
-132.7844875427587
 10
89.01265460014267
 20
-132.7421128682902
 10
89.01265460014267
 20
-132.7421128682902
 10
89.07191024248897
 20
-132.8799166877002
 10
89.07191024248897
 20
-132.8799166877002
 10
88.80112573734833
 20
-132.9495076165022
 10
88.48589950044797
 20
-132.953986240633
 10
88.38426918363311
 20
-132.953986240633
 10
88.38426918363311
 20
-132.953986240633
 10
88.38426918363311
 20
-133.0700859584859
 10
88.38426918363311
 20
-133.0700859584859
 97
        0
 97
        0
 92
        1
 93
        1
 72
     4
 94
        3
 73
     0
 74
     1
 95
       17
 96
       13
 40
0.0
 40
0.0
 40
0.0
 40
0.0
 40
1.0
 40
1.0
 40
1.0
 40
2.0
 40
2.0
 40
2.0
 40
3.0
 40
3.0
 40
3.0
 40
4.0
 40
4.0
 40
4.0
 40
4.0
 10
88.49657929645225
 20
-134.421941426898
 10
88.71637638841119
 20
-134.5342515397171
 10
88.98302677896953
 20
-134.5721475900549
 10
89.11187335011788
 20
-134.5828273860592
 10
89.11187335011788
 20
-134.5828273860592
 10
89.04228242131582
 20
-134.7371676637983
 10
89.04228242131582
 20
-134.7371676637983
 10
88.92170407933207
 20
-134.7223537532118
 10
88.65918780335603
 20
-134.6820461360344
 10
88.39494897963738
 20
-134.5363185970083
 10
88.39494897963738
 20
-134.5363185970083
 10
88.49657929645225
 20
-134.421941426898
 10
88.49657929645225
 20
-134.421941426898
 97
        0
 97
        0
 75
     2
 76
     1
 98
        0
  0
ENDBLK
  5
136
330
133
100
AcDbEntity
  8
0
100
AcDbBlockEnd
  0
BLOCK
  5
19A
330
198
100
AcDbEntity
  8
0
100
AcDbBlockBegin
  2
block 7
 70
     0
 10
0.0
 20
0.0
 30
0.0
  3
block 7
  1

  0
SPLINE
  5
19C
330
198
100
AcDbEntity
  8
_U+30EC_U+30A4_U+30E4_U+30FC 1
370
     0
100
AcDbSpline
210
0.0
220
0.0
230
1.0
 70
    11
 71
     3
 72
    59
 73
    55
 74
     0
 42
0.0000000001
 43
0.0000000001
 12
1.0
 22
0.0
 32
0.0
 13
1.0
 23
0.0
 33
0.0
 40
0.0
 40
0.0
 40
0.0
 40
0.0
 40
1.0
 40
1.0
 40
1.0
 40
2.0
 40
2.0
 40
2.0
 40
3.0
 40
3.0
 40
3.0
 40
4.0
 40
4.0
 40
4.0
 40
5.0
 40
5.0
 40
5.0
 40
6.0
 40
6.0
 40
6.0
 40
7.0
 40
7.0
 40
7.0
 40
8.0
 40
8.0
 40
8.0
 40
9.0
 40
9.0
 40
9.0
 40
10.0
 40
10.0
 40
10.0
 40
11.0
 40
11.0
 40
11.0
 40
12.0
 40
12.0
 40
12.0
 40
13.0
 40
13.0
 40
13.0
 40
14.0
 40
14.0
 40
14.0
 40
15.0
 40
15.0
 40
15.0
 40
16.0
 40
16.0
 40
16.0
 40
17.0
 40
17.0
 40
17.0
 40
18.0
 40
18.0
 40
18.0
 40
18.0
 10
115.6473768157062
 20
-154.5790228563205
 30
0.0
 10
115.4802896846716
 20
-155.0654703388378
 30
0.0
 10
115.2308647715395
 20
-155.5880913239502
 30
0.0
 10
114.6321071762031
 20
-155.9053846181417
 30
0.0
 10
114.6321071762031
 20
-155.9053846181417
 30
0.0
 10
114.4436604531599
 20
-155.7531113976937
 30
0.0
 10
114.4436604531599
 20
-155.7531113976937
 30
0.0
 10
114.6045464123211
 20
-155.6831759593431
 30
0.0
 10
114.8498372108709
 20
-155.5732774133636
 30
0.0
 10
115.1016736908426
 20
-155.2432372658767
 30
0.0
 10
115.3386962602278
 20
-154.9300780862675
 30
0.0
 10
115.395884845283
 20
-154.6741074917134
 30
0.0
 10
115.4231010996164
 20
-154.5473279778562
 30
0.0
 10
115.4231010996164
 20
-154.5473279778562
 30
0.0
 10
114.775767657938
 20
-154.5473279778562
 30
0.0
 10
114.775767657938
 20
-154.5473279778562
 30
0.0
 10
114.672070283832
 20
-154.7082139370174
 30
0.0
 10
114.5514919418482
 20
-154.875301068052
 30
0.0
 10
114.3592556137713
 20
-155.0465223136689
 30
0.0
 10
114.3592556137713
 20
-155.0465223136689
 30
0.0
 10
114.1856228013147
 20
-154.923876914394
 30
0.0
 10
114.1856228013147
 20
-154.923876914394
 30
0.0
 10
114.244878443661
 20
-154.8773681253432
 30
0.0
 10
114.3930175495267
 20
-154.765058012524
 30
0.0
 10
114.5580376232702
 20
-154.5156330993919
 30
0.0
 10
114.6341742334942
 20
-154.3971218146993
 30
0.0
 10
114.7378716076003
 20
-154.2279676263736
 30
0.0
 10
114.7633653141911
 20
-154.1053222270987
 30
0.0
 10
114.7633653141911
 20
-154.1053222270987
 30
0.0
 10
114.9938422021543
 20
-154.206608034365
 30
0.0
 10
114.9938422021543
 20
-154.206608034365
 30
0.0
 10
115.0086561127409
 20
-154.213153715787
 30
0.0
 10
115.0234700233275
 20
-154.2214219449516
 30
0.0
 10
115.0234700233275
 20
-154.2362358555382
 30
0.0
 10
115.0234700233275
 20
-154.2575954475467
 30
0.0
 10
114.9979763167366
 20
-154.2699977912936
 30
0.0
 10
114.989708087572
 20
-154.2724093581333
 30
0.0
 10
114.96214732369
 20
-154.2806775872979
 30
0.0
 10
114.9535345849769
 20
-154.2786105300067
 30
0.0
 10
114.9283853879346
 20
-154.3041042365976
 30
0.0
 10
114.9028916813437
 20
-154.3292534336399
 30
0.0
 10
114.9049587386349
 20
-154.337866172353
 30
0.0
 10
114.8732638601706
 20
-154.3905761332774
 30
0.0
 10
114.8732638601706
 20
-154.3905761332774
 30
0.0
 10
115.2074381222398
 20
-154.3905761332774
 30
0.0
 10
115.2074381222398
 20
-154.3905761332774
 30
0.0
 10
115.4634087167939
 20
-154.3905761332774
 30
0.0
 10
115.4951035952582
 20
-154.3781737895305
 30
0.0
 10
115.5522921803133
 20
-154.3485459683573
 30
0.0
 10
115.5522921803133
 20
-154.3485459683573
 30
0.0
 10
115.7086995153437
 20
-154.5135660421008
 30
0.0
 10
115.7086995153437
 20
-154.5135660421008
 30
0.0
 10
115.6749375795882
 20
-154.5493950351474
 30
0.0
 10
115.6728705222971
 20
-154.5514620924385
 30
0.0
 10
115.6473768157062
 20
-154.5790228563205
 30
0.0
  0
HATCH
  5
19D
330
198
100
AcDbEntity
  8
_U+30EC_U+30A4_U+30E4_U+30FC 1
 62
   179
420
  2234388
100
AcDbHatch
 10
0.0
 20
0.0
 30
0.0
210
0.0
220
0.0
230
1.0
  2
SOLID
 70
     1
 71
     0
 91
        1
 92
        1
 93
        1
 72
     4
 94
        3
 73
     0
 74
     1
 95
       59
 96
       55
 40
0.0
 40
0.0
 40
0.0
 40
0.0
 40
1.0
 40
1.0
 40
1.0
 40
2.0
 40
2.0
 40
2.0
 40
3.0
 40
3.0
 40
3.0
 40
4.0
 40
4.0
 40
4.0
 40
5.0
 40
5.0
 40
5.0
 40
6.0
 40
6.0
 40
6.0
 40
7.0
 40
7.0
 40
7.0
 40
8.0
 40
8.0
 40
8.0
 40
9.0
 40
9.0
 40
9.0
 40
10.0
 40
10.0
 40
10.0
 40
11.0
 40
11.0
 40
11.0
 40
12.0
 40
12.0
 40
12.0
 40
13.0
 40
13.0
 40
13.0
 40
14.0
 40
14.0
 40
14.0
 40
15.0
 40
15.0
 40
15.0
 40
16.0
 40
16.0
 40
16.0
 40
17.0
 40
17.0
 40
17.0
 40
18.0
 40
18.0
 40
18.0
 40
18.0
 10
115.6473768157062
 20
-154.5790228563205
 10
115.4802896846716
 20
-155.0654703388378
 10
115.2308647715395
 20
-155.5880913239502
 10
114.6321071762031
 20
-155.9053846181417
 10
114.6321071762031
 20
-155.9053846181417
 10
114.4436604531599
 20
-155.7531113976937
 10
114.4436604531599
 20
-155.7531113976937
 10
114.6045464123211
 20
-155.6831759593431
 10
114.8498372108709
 20
-155.5732774133636
 10
115.1016736908426
 20
-155.2432372658767
 10
115.3386962602278
 20
-154.9300780862675
 10
115.395884845283
 20
-154.6741074917134
 10
115.4231010996164
 20
-154.5473279778562
 10
115.4231010996164
 20
-154.5473279778562
 10
114.775767657938
 20
-154.5473279778562
 10
114.775767657938
 20
-154.5473279778562
 10
114.672070283832
 20
-154.7082139370174
 10
114.5514919418482
 20
-154.875301068052
 10
114.3592556137713
 20
-155.0465223136689
 10
114.3592556137713
 20
-155.0465223136689
 10
114.1856228013147
 20
-154.923876914394
 10
114.1856228013147
 20
-154.923876914394
 10
114.244878443661
 20
-154.8773681253432
 10
114.3930175495267
 20
-154.765058012524
 10
114.5580376232702
 20
-154.5156330993919
 10
114.6341742334942
 20
-154.3971218146993
 10
114.7378716076003
 20
-154.2279676263736
 10
114.7633653141911
 20
-154.1053222270987
 10
114.7633653141911
 20
-154.1053222270987
 10
114.9938422021543
 20
-154.206608034365
 10
114.9938422021543
 20
-154.206608034365
 10
115.0086561127409
 20
-154.213153715787
 10
115.0234700233275
 20
-154.2214219449516
 10
115.0234700233275
 20
-154.2362358555382
 10
115.0234700233275
 20
-154.2575954475467
 10
114.9979763167366
 20
-154.2699977912936
 10
114.989708087572
 20
-154.2724093581333
 10
114.96214732369
 20
-154.2806775872979
 10
114.9535345849769
 20
-154.2786105300067
 10
114.9283853879346
 20
-154.3041042365976
 10
114.9028916813437
 20
-154.3292534336399
 10
114.9049587386349
 20
-154.337866172353
 10
114.8732638601706
 20
-154.3905761332774
 10
114.8732638601706
 20
-154.3905761332774
 10
115.2074381222398
 20
-154.3905761332774
 10
115.2074381222398
 20
-154.3905761332774
 10
115.4634087167939
 20
-154.3905761332774
 10
115.4951035952582
 20
-154.3781737895305
 10
115.5522921803133
 20
-154.3485459683573
 10
115.5522921803133
 20
-154.3485459683573
 10
115.7086995153437
 20
-154.5135660421008
 10
115.7086995153437
 20
-154.5135660421008
 10
115.6749375795882
 20
-154.5493950351474
 10
115.6728705222971
 20
-154.5514620924385
 10
115.6473768157062
 20
-154.5790228563205
 97
        0
 97
        0
 75
     2
 76
     1
 98
        0
  0
SPLINE
  5
19E
330
198
100
AcDbEntity
  8
_U+30EC_U+30A4_U+30E4_U+30FC 1
370
     0
100
AcDbSpline
210
0.0
220
0.0
230
1.0
 70
    11
 71
     3
 72
    53
 73
    49
 74
     0
 42
0.0000000001
 43
0.0000000001
 12
1.0
 22
0.0
 32
0.0
 13
1.0
 23
0.0
 33
0.0
 40
0.0
 40
0.0
 40
0.0
 40
0.0
 40
1.0
 40
1.0
 40
1.0
 40
2.0
 40
2.0
 40
2.0
 40
3.0
 40
3.0
 40
3.0
 40
4.0
 40
4.0
 40
4.0
 40
5.0
 40
5.0
 40
5.0
 40
6.0
 40
6.0
 40
6.0
 40
7.0
 40
7.0
 40
7.0
 40
8.0
 40
8.0
 40
8.0
 40
9.0
 40
9.0
 40
9.0
 40
10.0
 40
10.0
 40
10.0
 40
11.0
 40
11.0
 40
11.0
 40
12.0
 40
12.0
 40
12.0
 40
13.0
 40
13.0
 40
13.0
 40
14.0
 40
14.0
 40
14.0
 40
15.0
 40
15.0
 40
15.0
 40
16.0
 40
16.0
 40
16.0
 40
16.0
 10
117.2689832606133
 20
-155.6917886980562
 30
0.0
 10
117.2772514897779
 20
-155.6473469662965
 30
0.0
 10
117.2772514897779
 20
-155.6387342275834
 30
0.0
 10
117.2837971711999
 20
-155.565009184199
 30
0.0
 10
117.2837971711999
 20
-155.565009184199
 30
0.0
 10
116.2533691115617
 20
-155.565009184199
 30
0.0
 10
116.2533691115617
 20
-155.565009184199
 30
0.0
 10
116.2533691115617
 20
-155.5967040626633
 30
0.0
 10
116.2533691115617
 20
-155.6514810808788
 30
0.0
 10
116.2578477356925
 20
-155.6876545834739
 30
0.0
 10
116.2578477356925
 20
-155.6876545834739
 30
0.0
 10
116.016691051725
 20
-155.6876545834739
 30
0.0
 10
116.016691051725
 20
-155.6876545834739
 30
0.0
 10
116.0228922235984
 20
-155.6325330557099
 30
0.0
 10
116.0335720196027
 20
-155.5415825348993
 30
0.0
 10
116.0335720196027
 20
-155.4123914542025
 30
0.0
 10
116.0356390768939
 20
-155.2074082728301
 30
0.0
 10
116.0356390768939
 20
-155.1839816235304
 30
0.0
 10
116.0356390768939
 20
-155.1608994837792
 30
0.0
 10
116.0356390768939
 20
-155.1608994837792
 30
0.0
 10
116.0356390768939
 20
-154.7206162807643
 30
0.0
 10
116.0356390768939
 20
-154.7206162807643
 30
0.0
 10
116.0356390768939
 20
-154.6551594665445
 30
0.0
 10
116.0290933954719
 20
-154.3316650004796
 30
0.0
 10
116.0249592808896
 20
-154.2765434727156
 30
0.0
 10
116.1496717374556
 20
-154.289290326011
 30
0.0
 10
116.4142550707228
 20
-154.2934244405933
 30
0.0
 10
116.5455132087108
 20
-154.2934244405933
 30
0.0
 10
116.5455132087108
 20
-154.2934244405933
 30
0.0
 10
117.0002658127638
 20
-154.2934244405933
 30
0.0
 10
117.0002658127638
 20
-154.2934244405933
 30
0.0
 10
117.1504719759207
 20
-154.2934244405933
 30
0.0
 10
117.3747476920105
 20
-154.2913573833022
 30
0.0
 10
117.5208197405851
 20
-154.282744644589
 30
0.0
 10
117.512207001872
 20
-154.392987700117
 30
0.0
 10
117.5080728872897
 20
-154.6424126132491
 30
0.0
 10
117.5080728872897
 20
-154.7609238979417
 30
0.0
 10
117.5080728872897
 20
-154.7609238979417
 30
0.0
 10
117.5080728872897
 20
-155.1798475089481
 30
0.0
 10
117.5080728872897
 20
-155.1798475089481
 30
0.0
 10
117.5080728872897
 20
-155.2222221834167
 30
0.0
 10
117.5142740591631
 20
-155.4041232250379
 30
0.0
 10
117.5142740591631
 20
-155.4420192753756
 30
0.0
 10
117.5163411164543
 20
-155.5922254385325
 30
0.0
 10
117.5249538551674
 20
-155.6432128517142
 30
0.0
 10
117.533222084332
 20
-155.6917886980562
 30
0.0
 10
117.533222084332
 20
-155.6917886980562
 30
0.0
 10
117.2689832606133
 20
-155.6917886980562
 30
0.0
 10
117.2689832606133
 20
-155.6917886980562
 30
0.0
  0
POLYLINE
  5
19F
330
198
100
AcDbEntity
  8
_U+30EC_U+30A4_U+30E4_U+30FC 1
370
     0
100
AcDb2dPolyline
 66
     1
 10
0.0
 20
0.0
 30
0.0
  0
VERTEX
  5
1A0
330
19F
100
AcDbEntity
  8
_U+30EC_U+30A4_U+30E4_U+30FC 1
370
     0
100
AcDbVertex
100
AcDb2dVertex
 10
117.2920654003645
 20
-154.4880723355099
 30
0.0
  0
VERTEX
  5
1A1
330
19F
100
AcDbEntity
  8
_U+30EC_U+30A4_U+30E4_U+30FC 1
370
     0
100
AcDbVertex
100
AcDb2dVertex
 10
116.2513020542705
 20
-154.4880723355099
 30
0.0
  0
VERTEX
  5
1A2
330
19F
100
AcDbEntity
  8
_U+30EC_U+30A4_U+30E4_U+30FC 1
370
     0
100
AcDbVertex
100
AcDb2dVertex
 10
116.2513020542705
 20
-155.3765624611559
 30
0.0
  0
VERTEX
  5
1A3
330
19F
100
AcDbEntity
  8
_U+30EC_U+30A4_U+30E4_U+30FC 1
370
     0
100
AcDbVertex
100
AcDb2dVertex
 10
117.2920654003645
 20
-155.3765624611559
 30
0.0
  0
VERTEX
  5
1A4
330
19F
100
AcDbEntity
  8
_U+30EC_U+30A4_U+30E4_U+30FC 1
370
     0
100
AcDbVertex
100
AcDb2dVertex
 10
117.2920654003645
 20
-154.4880723355099
 30
0.0
  0
SEQEND
  5
1A5
330
19F
100
AcDbEntity
  8
_U+30EC_U+30A4_U+30E4_U+30FC 1
370
     0
  0
HATCH
  5
1A6
330
198
100
AcDbEntity
  8
_U+30EC_U+30A4_U+30E4_U+30FC 1
 62
   179
420
  2234388
100
AcDbHatch
 10
0.0
 20
0.0
 30
0.0
210
0.0
220
0.0
230
1.0
  2
SOLID
 70
     1
 71
     0
 91
        2
 92
        1
 93
        1
 72
     4
 94
        3
 73
     0
 74
     1
 95
       53
 96
       49
 40
0.0
 40
0.0
 40
0.0
 40
0.0
 40
1.0
 40
1.0
 40
1.0
 40
2.0
 40
2.0
 40
2.0
 40
3.0
 40
3.0
 40
3.0
 40
4.0
 40
4.0
 40
4.0
 40
5.0
 40
5.0
 40
5.0
 40
6.0
 40
6.0
 40
6.0
 40
7.0
 40
7.0
 40
7.0
 40
8.0
 40
8.0
 40
8.0
 40
9.0
 40
9.0
 40
9.0
 40
10.0
 40
10.0
 40
10.0
 40
11.0
 40
11.0
 40
11.0
 40
12.0
 40
12.0
 40
12.0
 40
13.0
 40
13.0
 40
13.0
 40
14.0
 40
14.0
 40
14.0
 40
15.0
 40
15.0
 40
15.0
 40
16.0
 40
16.0
 40
16.0
 40
16.0
 10
117.2689832606133
 20
-155.6917886980562
 10
117.2772514897779
 20
-155.6473469662965
 10
117.2772514897779
 20
-155.6387342275834
 10
117.2837971711999
 20
-155.565009184199
 10
117.2837971711999
 20
-155.565009184199
 10
116.2533691115617
 20
-155.565009184199
 10
116.2533691115617
 20
-155.565009184199
 10
116.2533691115617
 20
-155.5967040626633
 10
116.2533691115617
 20
-155.6514810808788
 10
116.2578477356925
 20
-155.6876545834739
 10
116.2578477356925
 20
-155.6876545834739
 10
116.016691051725
 20
-155.6876545834739
 10
116.016691051725
 20
-155.6876545834739
 10
116.0228922235984
 20
-155.6325330557099
 10
116.0335720196027
 20
-155.5415825348993
 10
116.0335720196027
 20
-155.4123914542025
 10
116.0356390768939
 20
-155.2074082728301
 10
116.0356390768939
 20
-155.1839816235304
 10
116.0356390768939
 20
-155.1608994837792
 10
116.0356390768939
 20
-155.1608994837792
 10
116.0356390768939
 20
-154.7206162807643
 10
116.0356390768939
 20
-154.7206162807643
 10
116.0356390768939
 20
-154.6551594665445
 10
116.0290933954719
 20
-154.3316650004796
 10
116.0249592808896
 20
-154.2765434727156
 10
116.1496717374556
 20
-154.289290326011
 10
116.4142550707228
 20
-154.2934244405933
 10
116.5455132087108
 20
-154.2934244405933
 10
116.5455132087108
 20
-154.2934244405933
 10
117.0002658127638
 20
-154.2934244405933
 10
117.0002658127638
 20
-154.2934244405933
 10
117.1504719759207
 20
-154.2934244405933
 10
117.3747476920105
 20
-154.2913573833022
 10
117.5208197405851
 20
-154.282744644589
 10
117.512207001872
 20
-154.392987700117
 10
117.5080728872897
 20
-154.6424126132491
 10
117.5080728872897
 20
-154.7609238979417
 10
117.5080728872897
 20
-154.7609238979417
 10
117.5080728872897
 20
-155.1798475089481
 10
117.5080728872897
 20
-155.1798475089481
 10
117.5080728872897
 20
-155.2222221834167
 10
117.5142740591631
 20
-155.4041232250379
 10
117.5142740591631
 20
-155.4420192753756
 10
117.5163411164543
 20
-155.5922254385325
 10
117.5249538551674
 20
-155.6432128517142
 10
117.533222084332
 20
-155.6917886980562
 10
117.533222084332
 20
-155.6917886980562
 10
117.2689832606133
 20
-155.6917886980562
 10
117.2689832606133
 20
-155.6917886980562
 97
        0
 97
        0
 92
        1
 93
        4
 72
     1
 10
117.2920654003645
 20
-154.4880723355099
 11
116.2513020542705
 21
-154.4880723355099
 72
     1
 10
116.2513020542705
 20
-154.4880723355099
 11
116.2513020542705
 21
-155.3765624611559
 72
     1
 10
116.2513020542705
 20
-155.3765624611559
 11
117.2920654003645
 21
-155.3765624611559
 72
     1
 10
117.2920654003645
 20
-155.3765624611559
 11
117.2920654003645
 21
-154.4880723355099
 97
        0
 75
     2
 76
     1
 98
        0
  0
SPLINE
  5
1A7
330
198
100
AcDbEntity
  8
_U+30EC_U+30A4_U+30E4_U+30FC 1
370
     0
100
AcDbSpline
210
0.0
220
0.0
230
1.0
 70
    11
 71
     3
 72
    56
 73
    52
 74
     0
 42
0.0000000001
 43
0.0000000001
 12
1.0
 22
0.0
 32
0.0
 13
1.0
 23
0.0
 33
0.0
 40
0.0
 40
0.0
 40
0.0
 40
0.0
 40
1.0
 40
1.0
 40
1.0
 40
2.0
 40
2.0
 40
2.0
 40
3.0
 40
3.0
 40
3.0
 40
4.0
 40
4.0
 40
4.0
 40
5.0
 40
5.0
 40
5.0
 40
6.0
 40
6.0
 40
6.0
 40
7.0
 40
7.0
 40
7.0
 40
8.0
 40
8.0
 40
8.0
 40
9.0
 40
9.0
 40
9.0
 40
10.0
 40
10.0
 40
10.0
 40
11.0
 40
11.0
 40
11.0
 40
12.0
 40
12.0
 40
12.0
 40
13.0
 40
13.0
 40
13.0
 40
14.0
 40
14.0
 40
14.0
 40
15.0
 40
15.0
 40
15.0
 40
16.0
 40
16.0
 40
16.0
 40
17.0
 40
17.0
 40
17.0
 40
17.0
 10
119.2798854953536
 20
-155.757245512276
 30
0.0
 10
119.0873046577282
 20
-155.4485649567976
 30
0.0
 10
118.829267005883
 20
-155.2432372658767
 30
0.0
 10
118.7383164850724
 20
-155.177780451657
 30
0.0
 10
118.444105330632
 20
-155.5160888283085
 30
0.0
 10
118.1543728003225
 20
-155.6683620487565
 30
0.0
 10
117.9555907908236
 20
-155.7617241364068
 30
0.0
 10
117.9555907908236
 20
-155.7617241364068
 30
0.0
 10
117.7967718889536
 20
-155.5732774133636
 30
0.0
 10
117.7967718889536
 20
-155.5732774133636
 30
0.0
 10
117.9004692630596
 20
-155.537448420317
 30
0.0
 10
118.1140651831451
 20
-155.461311810093
 30
0.0
 10
118.346953637948
 20
-155.274932144341
 30
0.0
 10
118.6111924616666
 20
-155.0634032815467
 30
0.0
 10
118.7975721274187
 20
-154.7757378085283
 30
0.0
 10
118.9202175266936
 20
-154.4625786289191
 30
0.0
 10
118.9202175266936
 20
-154.4625786289191
 30
0.0
 10
118.5436685901558
 20
-154.4625786289191
 30
0.0
 10
118.5436685901558
 20
-154.4625786289191
 30
0.0
 10
118.3913953697077
 20
-154.4625786289191
 30
0.0
 10
118.1819335642045
 20
-154.4670572530499
 30
0.0
 10
118.0317274010476
 20
-154.4860052782188
 30
0.0
 10
118.0317274010476
 20
-154.4860052782188
 30
0.0
 10
118.0317274010476
 20
-154.2744764154244
 30
0.0
 10
118.0317274010476
 20
-154.2744764154244
 30
0.0
 10
118.0992512725585
 20
-154.2806775872979
 30
0.0
 10
118.3597004912434
 20
-154.2913573833022
 30
0.0
 10
118.4461723879232
 20
-154.2913573833022
 30
0.0
 10
118.4461723879232
 20
-154.2913573833022
 30
0.0
 10
118.7572645102412
 20
-154.2913573833022
 30
0.0
 10
118.7572645102412
 20
-154.2913573833022
 30
0.0
 10
118.9646592584533
 20
-154.2913573833022
 30
0.0
 10
118.9877413982045
 20
-154.2848117018802
 30
0.0
 10
119.0111680475042
 20
-154.2806775872979
 30
0.0
 10
119.0556097792639
 20
-154.2744764154244
 30
0.0
 10
119.0935058296016
 20
-154.2489827088336
 30
0.0
 10
119.1148654216102
 20
-154.2321017409559
 30
0.0
 10
119.1148654216102
 20
-154.2321017409559
 30
0.0
 10
119.2712727566405
 20
-154.4053900438639
 30
0.0
 10
119.2712727566405
 20
-154.4053900438639
 30
0.0
 10
119.2313096490116
 20
-154.4329508077459
 30
0.0
 10
119.2185627957162
 20
-154.4436306037502
 30
0.0
 10
119.1696424398257
 20
-154.4794595967968
 30
0.0
 10
119.0407958686773
 20
-154.7271619621863
 30
0.0
 10
118.960525143871
 20
-154.8773681253432
 30
0.0
 10
118.856827769765
 20
-155.0234401739177
 30
0.0
 10
119.1696424398257
 20
-155.2411702085855
 30
0.0
 10
119.3983967800462
 20
-155.5267686243128
 30
0.0
 10
119.4511067409706
 20
-155.6049722918279
 30
0.0
 10
119.4511067409706
 20
-155.6049722918279
 30
0.0
 10
119.2798854953536
 20
-155.757245512276
 30
0.0
 10
119.2798854953536
 20
-155.757245512276
 30
0.0
  0
HATCH
  5
1A8
330
198
100
AcDbEntity
  8
_U+30EC_U+30A4_U+30E4_U+30FC 1
 62
   179
420
  2234388
100
AcDbHatch
 10
0.0
 20
0.0
 30
0.0
210
0.0
220
0.0
230
1.0
  2
SOLID
 70
     1
 71
     0
 91
        1
 92
        1
 93
        1
 72
     4
 94
        3
 73
     0
 74
     1
 95
       56
 96
       52
 40
0.0
 40
0.0
 40
0.0
 40
0.0
 40
1.0
 40
1.0
 40
1.0
 40
2.0
 40
2.0
 40
2.0
 40
3.0
 40
3.0
 40
3.0
 40
4.0
 40
4.0
 40
4.0
 40
5.0
 40
5.0
 40
5.0
 40
6.0
 40
6.0
 40
6.0
 40
7.0
 40
7.0
 40
7.0
 40
8.0
 40
8.0
 40
8.0
 40
9.0
 40
9.0
 40
9.0
 40
10.0
 40
10.0
 40
10.0
 40
11.0
 40
11.0
 40
11.0
 40
12.0
 40
12.0
 40
12.0
 40
13.0
 40
13.0
 40
13.0
 40
14.0
 40
14.0
 40
14.0
 40
15.0
 40
15.0
 40
15.0
 40
16.0
 40
16.0
 40
16.0
 40
17.0
 40
17.0
 40
17.0
 40
17.0
 10
119.2798854953536
 20
-155.757245512276
 10
119.0873046577282
 20
-155.4485649567976
 10
118.829267005883
 20
-155.2432372658767
 10
118.7383164850724
 20
-155.177780451657
 10
118.444105330632
 20
-155.5160888283085
 10
118.1543728003225
 20
-155.6683620487565
 10
117.9555907908236
 20
-155.7617241364068
 10
117.9555907908236
 20
-155.7617241364068
 10
117.7967718889536
 20
-155.5732774133636
 10
117.7967718889536
 20
-155.5732774133636
 10
117.9004692630596
 20
-155.537448420317
 10
118.1140651831451
 20
-155.461311810093
 10
118.346953637948
 20
-155.274932144341
 10
118.6111924616666
 20
-155.0634032815467
 10
118.7975721274187
 20
-154.7757378085283
 10
118.9202175266936
 20
-154.4625786289191
 10
118.9202175266936
 20
-154.4625786289191
 10
118.5436685901558
 20
-154.4625786289191
 10
118.5436685901558
 20
-154.4625786289191
 10
118.3913953697077
 20
-154.4625786289191
 10
118.1819335642045
 20
-154.4670572530499
 10
118.0317274010476
 20
-154.4860052782188
 10
118.0317274010476
 20
-154.4860052782188
 10
118.0317274010476
 20
-154.2744764154244
 10
118.0317274010476
 20
-154.2744764154244
 10
118.0992512725585
 20
-154.2806775872979
 10
118.3597004912434
 20
-154.2913573833022
 10
118.4461723879232
 20
-154.2913573833022
 10
118.4461723879232
 20
-154.2913573833022
 10
118.7572645102412
 20
-154.2913573833022
 10
118.7572645102412
 20
-154.2913573833022
 10
118.9646592584533
 20
-154.2913573833022
 10
118.9877413982045
 20
-154.2848117018802
 10
119.0111680475042
 20
-154.2806775872979
 10
119.0556097792639
 20
-154.2744764154244
 10
119.0935058296016
 20
-154.2489827088336
 10
119.1148654216102
 20
-154.2321017409559
 10
119.1148654216102
 20
-154.2321017409559
 10
119.2712727566405
 20
-154.4053900438639
 10
119.2712727566405
 20
-154.4053900438639
 10
119.2313096490116
 20
-154.4329508077459
 10
119.2185627957162
 20
-154.4436306037502
 10
119.1696424398257
 20
-154.4794595967968
 10
119.0407958686773
 20
-154.7271619621863
 10
118.960525143871
 20
-154.8773681253432
 10
118.856827769765
 20
-155.0234401739177
 10
119.1696424398257
 20
-155.2411702085855
 10
119.3983967800462
 20
-155.5267686243128
 10
119.4511067409706
 20
-155.6049722918279
 10
119.4511067409706
 20
-155.6049722918279
 10
119.2798854953536
 20
-155.757245512276
 10
119.2798854953536
 20
-155.757245512276
 97
        0
 97
        0
 75
     2
 76
     1
 98
        0
  0
SPLINE
  5
1A9
330
198
100
AcDbEntity
  8
_U+30EC_U+30A4_U+30E4_U+30FC 1
370
     0
100
AcDbSpline
210
0.0
220
0.0
230
1.0
 70
    11
 71
     3
 72
    77
 73
    73
 74
     0
 42
0.0000000001
 43
0.0000000001
 12
1.0
 22
0.0
 32
0.0
 13
1.0
 23
0.0
 33
0.0
 40
0.0
 40
0.0
 40
0.0
 40
0.0
 40
1.0
 40
1.0
 40
1.0
 40
2.0
 40
2.0
 40
2.0
 40
3.0
 40
3.0
 40
3.0
 40
4.0
 40
4.0
 40
4.0
 40
5.0
 40
5.0
 40
5.0
 40
6.0
 40
6.0
 40
6.0
 40
7.0
 40
7.0
 40
7.0
 40
8.0
 40
8.0
 40
8.0
 40
9.0
 40
9.0
 40
9.0
 40
10.0
 40
10.0
 40
10.0
 40
11.0
 40
11.0
 40
11.0
 40
12.0
 40
12.0
 40
12.0
 40
13.0
 40
13.0
 40
13.0
 40
14.0
 40
14.0
 40
14.0
 40
15.0
 40
15.0
 40
15.0
 40
16.0
 40
16.0
 40
16.0
 40
17.0
 40
17.0
 40
17.0
 40
18.0
 40
18.0
 40
18.0
 40
19.0
 40
19.0
 40
19.0
 40
20.0
 40
20.0
 40
20.0
 40
21.0
 40
21.0
 40
21.0
 40
22.0
 40
22.0
 40
22.0
 40
23.0
 40
23.0
 40
23.0
 40
24.0
 40
24.0
 40
24.0
 40
24.0
 10
121.2969889019674
 20
-155.8947048221374
 30
0.0
 10
121.2504801129165
 20
-155.9201985287283
 30
0.0
 10
121.1257676563505
 20
-155.9329453820237
 30
0.0
 10
121.0472194792868
 20
-155.9329453820237
 30
0.0
 10
121.0348171355399
 20
-155.9329453820237
 30
0.0
 10
121.0093234289491
 20
-155.9329453820237
 30
0.0
 10
120.9755614931936
 20
-155.9288112674414
 30
0.0
 10
120.9755614931936
 20
-155.9288112674414
 30
0.0
 10
120.878065290961
 20
-155.7024684940605
 30
0.0
 10
120.878065290961
 20
-155.7024684940605
 30
0.0
 10
120.9076931121342
 20
-155.7086696659339
 30
0.0
 10
120.9648816971893
 20
-155.7172824046471
 30
0.0
 10
121.0813259245908
 20
-155.7172824046471
 30
0.0
 10
121.159529592106
 20
-155.7172824046471
 30
0.0
 10
121.1615966493971
 20
-155.6749077301785
 30
0.0
 10
121.1615966493971
 20
-155.6177191451233
 30
0.0
 10
121.1615966493971
 20
-155.6177191451233
 30
0.0
 10
121.1615966493971
 20
-155.2687309724676
 30
0.0
 10
121.1615966493971
 20
-155.2687309724676
 30
0.0
 10
121.1615966493971
 20
-155.2687309724676
 30
0.0
 10
120.7023654212133
 20
-155.2687309724676
 30
0.0
 10
120.7023654212133
 20
-155.2687309724676
 30
0.0
 10
120.704776988053
 20
-155.406190282329
 30
0.0
 10
120.7068440453441
 20
-155.6049722918279
 30
0.0
 10
120.7130452172176
 20
-155.7382974871071
 30
0.0
 10
120.7151122745087
 20
-155.7658582509891
 30
0.0
 10
120.7151122745087
 20
-155.8102999827488
 30
0.0
 10
120.7278591278042
 20
-155.8716226823863
 30
0.0
 10
120.7278591278042
 20
-155.8716226823863
 30
0.0
 10
120.4867024438367
 20
-155.8716226823863
 30
0.0
 10
120.4867024438367
 20
-155.8716226823863
 30
0.0
 10
120.5121961504275
 20
-155.7469102258202
 30
0.0
 10
120.5121961504275
 20
-155.406190282329
 30
0.0
 10
120.5121961504275
 20
-155.2687309724676
 30
0.0
 10
120.5121961504275
 20
-155.2687309724676
 30
0.0
 10
120.0698458901214
 20
-155.2687309724676
 30
0.0
 10
120.0698458901214
 20
-155.2687309724676
 30
0.0
 10
120.0467637503703
 20
-155.4761257206796
 30
0.0
 10
119.9813069361505
 20
-155.7444986589805
 30
0.0
 10
119.7842474743942
 20
-155.9288112674414
 30
0.0
 10
119.7842474743942
 20
-155.9288112674414
 30
0.0
 10
119.5961452608996
 20
-155.8061658681665
 30
0.0
 10
119.5961452608996
 20
-155.8061658681665
 30
0.0
 10
119.8500487981625
 20
-155.5860242666591
 30
0.0
 10
119.8817436766268
 20
-155.253917061881
 30
0.0
 10
119.8817436766268
 20
-154.9218098571029
 30
0.0
 10
119.8817436766268
 20
-154.9218098571029
 30
0.0
 10
119.8817436766268
 20
-154.4860052782188
 30
0.0
 10
119.8817436766268
 20
-154.4860052782188
 30
0.0
 10
119.8817436766268
 20
-154.4498317756237
 30
0.0
 10
119.8796766193356
 20
-154.2172878303693
 30
0.0
 10
119.8710638806225
 20
-154.1156575135544
 30
0.0
 10
120.0105902477751
 20
-154.1263373095587
 30
0.0
 10
120.2520914412911
 20
-154.1263373095587
 30
0.0
 10
120.3957519230261
 20
-154.1263373095587
 30
0.0
 10
120.3957519230261
 20
-154.1263373095587
 30
0.0
 10
120.8549831512099
 20
-154.1263373095587
 30
0.0
 10
120.8549831512099
 20
-154.1263373095587
 30
0.0
 10
120.8697970617964
 20
-154.1263373095587
 30
0.0
 10
121.2187852344523
 20
-154.1263373095587
 30
0.0
 10
121.3772596267737
 20
-154.1156575135544
 30
0.0
 10
121.3751925694826
 20
-154.1687119840273
 30
0.0
 10
121.3689913976092
 20
-154.3292534336399
 30
0.0
 10
121.3689913976092
 20
-154.3802408468216
 30
0.0
 10
121.3689913976092
 20
-154.3802408468216
 30
0.0
 10
121.3689913976092
 20
-154.9872666713226
 30
0.0
 10
121.3689913976092
 20
-154.9872666713226
 30
0.0
 10
121.3689913976092
 20
-155.0062146964915
 30
0.0
 10
121.3793266840649
 20
-155.5774115279459
 30
0.0
 10
121.3793266840649
 20
-155.6897216407651
 30
0.0
 10
121.3793266840649
 20
-155.7469102258202
 30
0.0
 10
121.3793266840649
 20
-155.8481960330866
 30
0.0
 10
121.2969889019674
 20
-155.8947048221374
 30
0.0
  0
POLYLINE
  5
1AA
330
198
100
AcDbEntity
  8
_U+30EC_U+30A4_U+30E4_U+30FC 1
370
     0
100
AcDb2dPolyline
 66
     1
 10
0.0
 20
0.0
 30
0.0
  0
VERTEX
  5
1AB
330
1AA
100
AcDbEntity
  8
_U+30EC_U+30A4_U+30E4_U+30FC 1
370
     0
100
AcDbVertex
100
AcDb2dVertex
 10
120.5121961504275
 20
-154.3082383511799
 30
0.0
  0
VERTEX
  5
1AC
330
1AA
100
AcDbEntity
  8
_U+30EC_U+30A4_U+30E4_U+30FC 1
370
     0
100
AcDbVertex
100
AcDb2dVertex
 10
120.0743245142523
 20
-154.3082383511799
 30
0.0
  0
VERTEX
  5
1AD
330
1AA
100
AcDbEntity
  8
_U+30EC_U+30A4_U+30E4_U+30FC 1
370
     0
100
AcDbVertex
100
AcDb2dVertex
 10
120.0743245142523
 20
-154.612784792076
 30
0.0
  0
VERTEX
  5
1AE
330
1AA
100
AcDbEntity
  8
_U+30EC_U+30A4_U+30E4_U+30FC 1
370
     0
100
AcDbVertex
100
AcDb2dVertex
 10
120.5121961504275
 20
-154.612784792076
 30
0.0
  0
VERTEX
  5
1AF
330
1AA
100
AcDbEntity
  8
_U+30EC_U+30A4_U+30E4_U+30FC 1
370
     0
100
AcDbVertex
100
AcDb2dVertex
 10
120.5121961504275
 20
-154.3082383511799
 30
0.0
  0
SEQEND
  5
1B0
330
1AA
100
AcDbEntity
  8
_U+30EC_U+30A4_U+30E4_U+30FC 1
370
     0
  0
POLYLINE
  5
1B1
330
198
100
AcDbEntity
  8
_U+30EC_U+30A4_U+30E4_U+30FC 1
370
     0
100
AcDb2dPolyline
 66
     1
 10
0.0
 20
0.0
 30
0.0
  0
VERTEX
  5
1B2
330
1B1
100
AcDbEntity
  8
_U+30EC_U+30A4_U+30E4_U+30FC 1
370
     0
100
AcDbVertex
100
AcDb2dVertex
 10
120.5121961504275
 20
-154.7798719231106
 30
0.0
  0
VERTEX
  5
1B3
330
1B1
100
AcDbEntity
  8
_U+30EC_U+30A4_U+30E4_U+30FC 1
370
     0
100
AcDbVertex
100
AcDb2dVertex
 10
120.0743245142523
 20
-154.7798719231106
 30
0.0
  0
VERTEX
  5
1B4
330
1B1
100
AcDbEntity
  8
_U+30EC_U+30A4_U+30E4_U+30FC 1
370
     0
100
AcDbVertex
100
AcDb2dVertex
 10
120.0743245142523
 20
-155.0888969881375
 30
0.0
  0
VERTEX
  5
1B5
330
1B1
100
AcDbEntity
  8
_U+30EC_U+30A4_U+30E4_U+30FC 1
370
     0
100
AcDbVertex
100
AcDb2dVertex
 10
120.5121961504275
 20
-155.0888969881375
 30
0.0
  0
VERTEX
  5
1B6
330
1B1
100
AcDbEntity
  8
_U+30EC_U+30A4_U+30E4_U+30FC 1
370
     0
100
AcDbVertex
100
AcDb2dVertex
 10
120.5121961504275
 20
-154.7798719231106
 30
0.0
  0
SEQEND
  5
1B7
330
1B1
100
AcDbEntity
  8
_U+30EC_U+30A4_U+30E4_U+30FC 1
370
     0
  0
POLYLINE
  5
1B8
330
198
100
AcDbEntity
  8
_U+30EC_U+30A4_U+30E4_U+30FC 1
370
     0
100
AcDb2dPolyline
 66
     1
 10
0.0
 20
0.0
 30
0.0
  0
VERTEX
  5
1B9
330
1B8
100
AcDbEntity
  8
_U+30EC_U+30A4_U+30E4_U+30FC 1
370
     0
100
AcDbVertex
100
AcDb2dVertex
 10
121.1615966493971
 20
-154.3082383511799
 30
0.0
  0
VERTEX
  5
1BA
330
1B8
100
AcDbEntity
  8
_U+30EC_U+30A4_U+30E4_U+30FC 1
370
     0
100
AcDbVertex
100
AcDb2dVertex
 10
120.7023654212133
 20
-154.3082383511799
 30
0.0
  0
VERTEX
  5
1BB
330
1B8
100
AcDbEntity
  8
_U+30EC_U+30A4_U+30E4_U+30FC 1
370
     0
100
AcDbVertex
100
AcDb2dVertex
 10
120.7023654212133
 20
-154.612784792076
 30
0.0
  0
VERTEX
  5
1BC
330
1B8
100
AcDbEntity
  8
_U+30EC_U+30A4_U+30E4_U+30FC 1
370
     0
100
AcDbVertex
100
AcDb2dVertex
 10
121.1615966493971
 20
-154.612784792076
 30
0.0
  0
VERTEX
  5
1BD
330
1B8
100
AcDbEntity
  8
_U+30EC_U+30A4_U+30E4_U+30FC 1
370
     0
100
AcDbVertex
100
AcDb2dVertex
 10
121.1615966493971
 20
-154.3082383511799
 30
0.0
  0
SEQEND
  5
1BE
330
1B8
100
AcDbEntity
  8
_U+30EC_U+30A4_U+30E4_U+30FC 1
370
     0
  0
POLYLINE
  5
1BF
330
198
100
AcDbEntity
  8
_U+30EC_U+30A4_U+30E4_U+30FC 1
370
     0
100
AcDb2dPolyline
 66
     1
 10
0.0
 20
0.0
 30
0.0
  0
VERTEX
  5
1C0
330
1BF
100
AcDbEntity
  8
_U+30EC_U+30A4_U+30E4_U+30FC 1
370
     0
100
AcDbVertex
100
AcDb2dVertex
 10
121.1615966493971
 20
-154.7798719231106
 30
0.0
  0
VERTEX
  5
1C1
330
1BF
100
AcDbEntity
  8
_U+30EC_U+30A4_U+30E4_U+30FC 1
370
     0
100
AcDbVertex
100
AcDb2dVertex
 10
120.7023654212133
 20
-154.7798719231106
 30
0.0
  0
VERTEX
  5
1C2
330
1BF
100
AcDbEntity
  8
_U+30EC_U+30A4_U+30E4_U+30FC 1
370
     0
100
AcDbVertex
100
AcDb2dVertex
 10
120.7023654212133
 20
-155.0888969881375
 30
0.0
  0
VERTEX
  5
1C3
330
1BF
100
AcDbEntity
  8
_U+30EC_U+30A4_U+30E4_U+30FC 1
370
     0
100
AcDbVertex
100
AcDb2dVertex
 10
121.1615966493971
 20
-155.0888969881375
 30
0.0
  0
VERTEX
  5
1C4
330
1BF
100
AcDbEntity
  8
_U+30EC_U+30A4_U+30E4_U+30FC 1
370
     0
100
AcDbVertex
100
AcDb2dVertex
 10
121.1615966493971
 20
-154.7798719231106
 30
0.0
  0
SEQEND
  5
1C5
330
1BF
100
AcDbEntity
  8
_U+30EC_U+30A4_U+30E4_U+30FC 1
370
     0
  0
HATCH
  5
1C6
330
198
100
AcDbEntity
  8
_U+30EC_U+30A4_U+30E4_U+30FC 1
 62
   179
420
  2234388
100
AcDbHatch
 10
0.0
 20
0.0
 30
0.0
210
0.0
220
0.0
230
1.0
  2
SOLID
 70
     1
 71
     0
 91
        5
 92
        1
 93
        1
 72
     4
 94
        3
 73
     0
 74
     1
 95
       77
 96
       73
 40
0.0
 40
0.0
 40
0.0
 40
0.0
 40
1.0
 40
1.0
 40
1.0
 40
2.0
 40
2.0
 40
2.0
 40
3.0
 40
3.0
 40
3.0
 40
4.0
 40
4.0
 40
4.0
 40
5.0
 40
5.0
 40
5.0
 40
6.0
 40
6.0
 40
6.0
 40
7.0
 40
7.0
 40
7.0
 40
8.0
 40
8.0
 40
8.0
 40
9.0
 40
9.0
 40
9.0
 40
10.0
 40
10.0
 40
10.0
 40
11.0
 40
11.0
 40
11.0
 40
12.0
 40
12.0
 40
12.0
 40
13.0
 40
13.0
 40
13.0
 40
14.0
 40
14.0
 40
14.0
 40
15.0
 40
15.0
 40
15.0
 40
16.0
 40
16.0
 40
16.0
 40
17.0
 40
17.0
 40
17.0
 40
18.0
 40
18.0
 40
18.0
 40
19.0
 40
19.0
 40
19.0
 40
20.0
 40
20.0
 40
20.0
 40
21.0
 40
21.0
 40
21.0
 40
22.0
 40
22.0
 40
22.0
 40
23.0
 40
23.0
 40
23.0
 40
24.0
 40
24.0
 40
24.0
 40
24.0
 10
121.2969889019674
 20
-155.8947048221374
 10
121.2504801129165
 20
-155.9201985287283
 10
121.1257676563505
 20
-155.9329453820237
 10
121.0472194792868
 20
-155.9329453820237
 10
121.0348171355399
 20
-155.9329453820237
 10
121.0093234289491
 20
-155.9329453820237
 10
120.9755614931936
 20
-155.9288112674414
 10
120.9755614931936
 20
-155.9288112674414
 10
120.878065290961
 20
-155.7024684940605
 10
120.878065290961
 20
-155.7024684940605
 10
120.9076931121342
 20
-155.7086696659339
 10
120.9648816971893
 20
-155.7172824046471
 10
121.0813259245908
 20
-155.7172824046471
 10
121.159529592106
 20
-155.7172824046471
 10
121.1615966493971
 20
-155.6749077301785
 10
121.1615966493971
 20
-155.6177191451233
 10
121.1615966493971
 20
-155.6177191451233
 10
121.1615966493971
 20
-155.2687309724676
 10
121.1615966493971
 20
-155.2687309724676
 10
121.1615966493971
 20
-155.2687309724676
 10
120.7023654212133
 20
-155.2687309724676
 10
120.7023654212133
 20
-155.2687309724676
 10
120.704776988053
 20
-155.406190282329
 10
120.7068440453441
 20
-155.6049722918279
 10
120.7130452172176
 20
-155.7382974871071
 10
120.7151122745087
 20
-155.7658582509891
 10
120.7151122745087
 20
-155.8102999827488
 10
120.7278591278042
 20
-155.8716226823863
 10
120.7278591278042
 20
-155.8716226823863
 10
120.4867024438367
 20
-155.8716226823863
 10
120.4867024438367
 20
-155.8716226823863
 10
120.5121961504275
 20
-155.7469102258202
 10
120.5121961504275
 20
-155.406190282329
 10
120.5121961504275
 20
-155.2687309724676
 10
120.5121961504275
 20
-155.2687309724676
 10
120.0698458901214
 20
-155.2687309724676
 10
120.0698458901214
 20
-155.2687309724676
 10
120.0467637503703
 20
-155.4761257206796
 10
119.9813069361505
 20
-155.7444986589805
 10
119.7842474743942
 20
-155.9288112674414
 10
119.7842474743942
 20
-155.9288112674414
 10
119.5961452608996
 20
-155.8061658681665
 10
119.5961452608996
 20
-155.8061658681665
 10
119.8500487981625
 20
-155.5860242666591
 10
119.8817436766268
 20
-155.253917061881
 10
119.8817436766268
 20
-154.9218098571029
 10
119.8817436766268
 20
-154.9218098571029
 10
119.8817436766268
 20
-154.4860052782188
 10
119.8817436766268
 20
-154.4860052782188
 10
119.8817436766268
 20
-154.4498317756237
 10
119.8796766193356
 20
-154.2172878303693
 10
119.8710638806225
 20
-154.1156575135544
 10
120.0105902477751
 20
-154.1263373095587
 10
120.2520914412911
 20
-154.1263373095587
 10
120.3957519230261
 20
-154.1263373095587
 10
120.3957519230261
 20
-154.1263373095587
 10
120.8549831512099
 20
-154.1263373095587
 10
120.8549831512099
 20
-154.1263373095587
 10
120.8697970617964
 20
-154.1263373095587
 10
121.2187852344523
 20
-154.1263373095587
 10
121.3772596267737
 20
-154.1156575135544
 10
121.3751925694826
 20
-154.1687119840273
 10
121.3689913976092
 20
-154.3292534336399
 10
121.3689913976092
 20
-154.3802408468216
 10
121.3689913976092
 20
-154.3802408468216
 10
121.3689913976092
 20
-154.9872666713226
 10
121.3689913976092
 20
-154.9872666713226
 10
121.3689913976092
 20
-155.0062146964915
 10
121.3793266840649
 20
-155.5774115279459
 10
121.3793266840649
 20
-155.6897216407651
 10
121.3793266840649
 20
-155.7469102258202
 10
121.3793266840649
 20
-155.8481960330866
 10
121.2969889019674
 20
-155.8947048221374
 97
        0
 97
        0
 92
        1
 93
        4
 72
     1
 10
120.5121961504275
 20
-154.3082383511799
 11
120.0743245142523
 21
-154.3082383511799
 72
     1
 10
120.0743245142523
 20
-154.3082383511799
 11
120.0743245142523
 21
-154.612784792076
 72
     1
 10
120.0743245142523
 20
-154.612784792076
 11
120.5121961504275
 21
-154.612784792076
 72
     1
 10
120.5121961504275
 20
-154.612784792076
 11
120.5121961504275
 21
-154.3082383511799
 97
        0
 92
        1
 93
        4
 72
     1
 10
120.5121961504275
 20
-154.7798719231106
 11
120.0743245142523
 21
-154.7798719231106
 72
     1
 10
120.0743245142523
 20
-154.7798719231106
 11
120.0743245142523
 21
-155.0888969881375
 72
     1
 10
120.0743245142523
 20
-155.0888969881375
 11
120.5121961504275
 21
-155.0888969881375
 72
     1
 10
120.5121961504275
 20
-155.0888969881375
 11
120.5121961504275
 21
-154.7798719231106
 97
        0
 92
        1
 93
        4
 72
     1
 10
121.1615966493971
 20
-154.3082383511799
 11
120.7023654212133
 21
-154.3082383511799
 72
     1
 10
120.7023654212133
 20
-154.3082383511799
 11
120.7023654212133
 21
-154.612784792076
 72
     1
 10
120.7023654212133
 20
-154.612784792076
 11
121.1615966493971
 21
-154.612784792076
 72
     1
 10
121.1615966493971
 20
-154.612784792076
 11
121.1615966493971
 21
-154.3082383511799
 97
        0
 92
        1
 93
        4
 72
     1
 10
121.1615966493971
 20
-154.7798719231106
 11
120.7023654212133
 21
-154.7798719231106
 72
     1
 10
120.7023654212133
 20
-154.7798719231106
 11
120.7023654212133
 21
-155.0888969881375
 72
     1
 10
120.7023654212133
 20
-155.0888969881375
 11
121.1615966493971
 21
-155.0888969881375
 72
     1
 10
121.1615966493971
 20
-155.0888969881375
 11
121.1615966493971
 21
-154.7798719231106
 97
        0
 75
     2
 76
     1
 98
        0
  0
ENDBLK
  5
19B
330
198
100
AcDbEntity
  8
0
100
AcDbBlockEnd
  0
BLOCK
  5
1C9
330
1C7
100
AcDbEntity
  8
0
100
AcDbBlockBegin
  2
block 8
 70
     0
 10
0.0
 20
0.0
 30
0.0
  3
block 8
  1

  0
SPLINE
  5
1CB
330
1C7
100
AcDbEntity
  8
_U+30EC_U+30A4_U+30E4_U+30FC 1
370
     0
100
AcDbSpline
210
0.0
220
0.0
230
1.0
 70
    11
 71
     3
 72
    44
 73
    40
 74
     0
 42
0.0000000001
 43
0.0000000001
 12
1.0
 22
0.0
 32
0.0
 13
1.0
 23
0.0
 33
0.0
 40
0.0
 40
0.0
 40
0.0
 40
0.0
 40
1.0
 40
1.0
 40
1.0
 40
2.0
 40
2.0
 40
2.0
 40
3.0
 40
3.0
 40
3.0
 40
4.0
 40
4.0
 40
4.0
 40
5.0
 40
5.0
 40
5.0
 40
6.0
 40
6.0
 40
6.0
 40
7.0
 40
7.0
 40
7.0
 40
8.0
 40
8.0
 40
8.0
 40
9.0
 40
9.0
 40
9.0
 40
10.0
 40
10.0
 40
10.0
 40
11.0
 40
11.0
 40
11.0
 40
12.0
 40
12.0
 40
12.0
 40
13.0
 40
13.0
 40
13.0
 40
13.0
 10
115.6325629051196
 20
-157.184548571815
 30
0.0
 10
115.520597301849
 20
-157.5528292791882
 30
0.0
 10
115.4699543982158
 20
-157.7113036715097
 30
0.0
 10
115.2732394460081
 20
-157.9610730941903
 30
0.0
 10
115.0889268375472
 20
-158.1915499821535
 30
0.0
 10
114.8522487777106
 20
-158.3779296479055
 30
0.0
 10
114.5728515338568
 20
-158.4709472260073
 30
0.0
 10
114.5728515338568
 20
-158.4709472260073
 30
0.0
 10
114.3802706962313
 20
-158.2911132416772
 30
0.0
 10
114.3802706962313
 20
-158.2911132416772
 30
0.0
 10
115.0214029660363
 20
-158.1388400212292
 30
0.0
 10
115.3514431135233
 20
-157.5824571003613
 30
0.0
 10
115.4148328704518
 20
-157.1425184068949
 30
0.0
 10
115.4148328704518
 20
-157.1425184068949
 30
0.0
 10
114.6489881440808
 20
-157.1425184068949
 30
0.0
 10
114.6489881440808
 20
-157.1425184068949
 30
0.0
 10
114.5559705659791
 20
-157.1425184068949
 30
0.0
 10
114.3720024670667
 20
-157.1466525214772
 30
0.0
 10
114.2152506224879
 20
-157.1656005466461
 30
0.0
 10
114.2152506224879
 20
-157.1656005466461
 30
0.0
 10
114.2152506224879
 20
-156.9454589451387
 30
0.0
 10
114.2152506224879
 20
-156.9454589451387
 30
0.0
 10
114.3020670287162
 20
-156.9668185371472
 30
0.0
 10
114.5539035086879
 20
-156.9668185371472
 30
0.0
 10
114.6531222586631
 20
-156.9668185371472
 30
0.0
 10
114.6531222586631
 20
-156.9668185371472
 30
0.0
 10
115.0847927229649
 20
-156.9668185371472
 30
0.0
 10
115.0847927229649
 20
-156.9668185371472
 30
0.0
 10
115.1271673974335
 20
-156.9668185371472
 30
0.0
 10
115.361778399979
 20
-156.964751479856
 30
0.0
 10
115.4000189598653
 20
-156.9582057984341
 30
0.0
 10
115.4423936343339
 20
-156.9520046265606
 30
0.0
 10
115.444460691625
 20
-156.9499375692695
 30
0.0
 10
115.5057833912625
 20
-156.909629952092
 30
0.0
 10
115.5057833912625
 20
-156.909629952092
 30
0.0
 10
115.6938856047571
 20
-157.0639702298312
 30
0.0
 10
115.6938856047571
 20
-157.0639702298312
 30
0.0
 10
115.6646022931325
 20
-157.0935980510044
 30
0.0
 10
115.6497883825459
 20
-157.1252929294687
 30
0.0
 10
115.6325629051196
 20
-157.184548571815
 30
0.0
  0
SPLINE
  5
1CC
330
1C7
100
AcDbEntity
  8
_U+30EC_U+30A4_U+30E4_U+30FC 1
370
     0
100
AcDbSpline
210
0.0
220
0.0
230
1.0
 70
    11
 71
     3
 72
    17
 73
    13
 74
     0
 42
0.0000000001
 43
0.0000000001
 12
1.0
 22
0.0
 32
0.0
 13
1.0
 23
0.0
 33
0.0
 40
0.0
 40
0.0
 40
0.0
 40
0.0
 40
1.0
 40
1.0
 40
1.0
 40
2.0
 40
2.0
 40
2.0
 40
3.0
 40
3.0
 40
3.0
 40
4.0
 40
4.0
 40
4.0
 40
4.0
 10
115.8420247106228
 20
-156.9857665623161
 30
0.0
 10
115.7152451967656
 20
-156.9857665623161
 30
0.0
 10
115.6136148799508
 20
-156.8841362455012
 30
0.0
 10
115.6136148799508
 20
-156.757356731644
 30
0.0
 10
115.6136148799508
 20
-156.6305772177868
 30
0.0
 10
115.7152451967656
 20
-156.5268798436808
 30
0.0
 10
115.8420247106228
 20
-156.5268798436808
 30
0.0
 10
115.9691487340286
 20
-156.5268798436808
 30
0.0
 10
116.0728461081346
 20
-156.6305772177868
 30
0.0
 10
116.0728461081346
 20
-156.757356731644
 30
0.0
 10
116.0728461081346
 20
-156.8841362455012
 30
0.0
 10
115.9691487340286
 20
-156.9857665623161
 30
0.0
 10
115.8420247106228
 20
-156.9857665623161
 30
0.0
  0
SPLINE
  5
1CD
330
1C7
100
AcDbEntity
  8
_U+30EC_U+30A4_U+30E4_U+30FC 1
370
     0
100
AcDbSpline
210
0.0
220
0.0
230
1.0
 70
    11
 71
     3
 72
    17
 73
    13
 74
     0
 42
0.0000000001
 43
0.0000000001
 12
1.0
 22
0.0
 32
0.0
 13
1.0
 23
0.0
 33
0.0
 40
0.0
 40
0.0
 40
0.0
 40
0.0
 40
1.0
 40
1.0
 40
1.0
 40
2.0
 40
2.0
 40
2.0
 40
3.0
 40
3.0
 40
3.0
 40
4.0
 40
4.0
 40
4.0
 40
4.0
 10
115.8399576533317
 20
-156.6557264148291
 30
0.0
 10
115.7851806351162
 20
-156.6557264148291
 30
0.0
 10
115.7407389033565
 20
-156.7001681465889
 30
0.0
 10
115.7407389033565
 20
-156.7552896743528
 30
0.0
 10
115.7407389033565
 20
-156.812478259408
 30
0.0
 10
115.7851806351162
 20
-156.86105410575
 30
0.0
 10
115.844091767914
 20
-156.86105410575
 30
0.0
 10
115.9033474102603
 20
-156.86105410575
 30
0.0
 10
115.9436550274377
 20
-156.8100666925683
 30
0.0
 10
115.9436550274377
 20
-156.757356731644
 30
0.0
 10
115.9436550274377
 20
-156.7001681465889
 30
0.0
 10
115.8971462383868
 20
-156.6557264148291
 30
0.0
 10
115.8399576533317
 20
-156.6557264148291
 30
0.0
  0
HATCH
  5
1CE
330
1C7
100
AcDbEntity
  8
_U+30EC_U+30A4_U+30E4_U+30FC 1
 62
   179
420
  2234388
100
AcDbHatch
 10
0.0
 20
0.0
 30
0.0
210
0.0
220
0.0
230
1.0
  2
SOLID
 70
     1
 71
     0
 91
        3
 92
        1
 93
        1
 72
     4
 94
        3
 73
     0
 74
     1
 95
       44
 96
       40
 40
0.0
 40
0.0
 40
0.0
 40
0.0
 40
1.0
 40
1.0
 40
1.0
 40
2.0
 40
2.0
 40
2.0
 40
3.0
 40
3.0
 40
3.0
 40
4.0
 40
4.0
 40
4.0
 40
5.0
 40
5.0
 40
5.0
 40
6.0
 40
6.0
 40
6.0
 40
7.0
 40
7.0
 40
7.0
 40
8.0
 40
8.0
 40
8.0
 40
9.0
 40
9.0
 40
9.0
 40
10.0
 40
10.0
 40
10.0
 40
11.0
 40
11.0
 40
11.0
 40
12.0
 40
12.0
 40
12.0
 40
13.0
 40
13.0
 40
13.0
 40
13.0
 10
115.6325629051196
 20
-157.184548571815
 10
115.520597301849
 20
-157.5528292791882
 10
115.4699543982158
 20
-157.7113036715097
 10
115.2732394460081
 20
-157.9610730941903
 10
115.0889268375472
 20
-158.1915499821535
 10
114.8522487777106
 20
-158.3779296479055
 10
114.5728515338568
 20
-158.4709472260073
 10
114.5728515338568
 20
-158.4709472260073
 10
114.3802706962313
 20
-158.2911132416772
 10
114.3802706962313
 20
-158.2911132416772
 10
115.0214029660363
 20
-158.1388400212292
 10
115.3514431135233
 20
-157.5824571003613
 10
115.4148328704518
 20
-157.1425184068949
 10
115.4148328704518
 20
-157.1425184068949
 10
114.6489881440808
 20
-157.1425184068949
 10
114.6489881440808
 20
-157.1425184068949
 10
114.5559705659791
 20
-157.1425184068949
 10
114.3720024670667
 20
-157.1466525214772
 10
114.2152506224879
 20
-157.1656005466461
 10
114.2152506224879
 20
-157.1656005466461
 10
114.2152506224879
 20
-156.9454589451387
 10
114.2152506224879
 20
-156.9454589451387
 10
114.3020670287162
 20
-156.9668185371472
 10
114.5539035086879
 20
-156.9668185371472
 10
114.6531222586631
 20
-156.9668185371472
 10
114.6531222586631
 20
-156.9668185371472
 10
115.0847927229649
 20
-156.9668185371472
 10
115.0847927229649
 20
-156.9668185371472
 10
115.1271673974335
 20
-156.9668185371472
 10
115.361778399979
 20
-156.964751479856
 10
115.4000189598653
 20
-156.9582057984341
 10
115.4423936343339
 20
-156.9520046265606
 10
115.444460691625
 20
-156.9499375692695
 10
115.5057833912625
 20
-156.909629952092
 10
115.5057833912625
 20
-156.909629952092
 10
115.6938856047571
 20
-157.0639702298312
 10
115.6938856047571
 20
-157.0639702298312
 10
115.6646022931325
 20
-157.0935980510044
 10
115.6497883825459
 20
-157.1252929294687
 10
115.6325629051196
 20
-157.184548571815
 97
        0
 97
        0
 92
        1
 93
        1
 72
     4
 94
        3
 73
     0
 74
     1
 95
       17
 96
       13
 40
0.0
 40
0.0
 40
0.0
 40
0.0
 40
1.0
 40
1.0
 40
1.0
 40
2.0
 40
2.0
 40
2.0
 40
3.0
 40
3.0
 40
3.0
 40
4.0
 40
4.0
 40
4.0
 40
4.0
 10
115.8420247106228
 20
-156.9857665623161
 10
115.7152451967656
 20
-156.9857665623161
 10
115.6136148799508
 20
-156.8841362455012
 10
115.6136148799508
 20
-156.757356731644
 10
115.6136148799508
 20
-156.6305772177868
 10
115.7152451967656
 20
-156.5268798436808
 10
115.8420247106228
 20
-156.5268798436808
 10
115.9691487340286
 20
-156.5268798436808
 10
116.0728461081346
 20
-156.6305772177868
 10
116.0728461081346
 20
-156.757356731644
 10
116.0728461081346
 20
-156.8841362455012
 10
115.9691487340286
 20
-156.9857665623161
 10
115.8420247106228
 20
-156.9857665623161
 97
        0
 97
        0
 92
        1
 93
        1
 72
     4
 94
        3
 73
     0
 74
     1
 95
       17
 96
       13
 40
0.0
 40
0.0
 40
0.0
 40
0.0
 40
1.0
 40
1.0
 40
1.0
 40
2.0
 40
2.0
 40
2.0
 40
3.0
 40
3.0
 40
3.0
 40
4.0
 40
4.0
 40
4.0
 40
4.0
 10
115.8399576533317
 20
-156.6557264148291
 10
115.7851806351162
 20
-156.6557264148291
 10
115.7407389033565
 20
-156.7001681465889
 10
115.7407389033565
 20
-156.7552896743528
 10
115.7407389033565
 20
-156.812478259408
 10
115.7851806351162
 20
-156.86105410575
 10
115.844091767914
 20
-156.86105410575
 10
115.9033474102603
 20
-156.86105410575
 10
115.9436550274377
 20
-156.8100666925683
 10
115.9436550274377
 20
-156.757356731644
 10
115.9436550274377
 20
-156.7001681465889
 10
115.8971462383868
 20
-156.6557264148291
 10
115.8399576533317
 20
-156.6557264148291
 97
        0
 97
        0
 75
     2
 76
     1
 98
        0
  0
SPLINE
  5
1CF
330
1C7
100
AcDbEntity
  8
_U+30EC_U+30A4_U+30E4_U+30FC 1
370
     0
100
AcDbSpline
210
0.0
220
0.0
230
1.0
 70
    11
 71
     3
 72
    50
 73
    46
 74
     0
 42
0.0000000001
 43
0.0000000001
 12
1.0
 22
0.0
 32
0.0
 13
1.0
 23
0.0
 33
0.0
 40
0.0
 40
0.0
 40
0.0
 40
0.0
 40
1.0
 40
1.0
 40
1.0
 40
2.0
 40
2.0
 40
2.0
 40
3.0
 40
3.0
 40
3.0
 40
4.0
 40
4.0
 40
4.0
 40
5.0
 40
5.0
 40
5.0
 40
6.0
 40
6.0
 40
6.0
 40
7.0
 40
7.0
 40
7.0
 40
8.0
 40
8.0
 40
8.0
 40
9.0
 40
9.0
 40
9.0
 40
10.0
 40
10.0
 40
10.0
 40
11.0
 40
11.0
 40
11.0
 40
12.0
 40
12.0
 40
12.0
 40
13.0
 40
13.0
 40
13.0
 40
14.0
 40
14.0
 40
14.0
 40
15.0
 40
15.0
 40
15.0
 40
15.0
 10
117.6393310252777
 20
-157.4935736368419
 30
0.0
 10
117.560782848214
 20
-157.6713405638808
 30
0.0
 10
117.4253905956437
 20
-157.8783908025443
 30
0.0
 10
117.2879312857822
 20
-158.0182616792455
 30
0.0
 10
117.1187770974564
 20
-158.1894829248623
 30
0.0
 10
116.9558240810041
 20
-158.2783663883818
 30
0.0
 10
116.6364637295214
 20
-158.4199598128256
 30
0.0
 10
116.6364637295214
 20
-158.4199598128256
 30
0.0
 10
116.4673095411957
 20
-158.2318575993309
 30
0.0
 10
116.4673095411957
 20
-158.2318575993309
 30
0.0
 10
116.6533446973992
 20
-158.2084309500312
 30
0.0
 10
116.8245659430161
 20
-158.1219590533515
 30
0.0
 10
116.9771836730127
 20
-158.0161946219543
 30
0.0
 10
117.2393554394402
 20
-157.8342935803331
 30
0.0
 10
117.4298692197745
 20
-157.5211344007239
 30
0.0
 10
117.4784450661165
 20
-157.3392333591027
 30
0.0
 10
117.4784450661165
 20
-157.3392333591027
 30
0.0
 10
116.8076849751384
 20
-157.3392333591027
 30
0.0
 10
116.8076849751384
 20
-157.3392333591027
 30
0.0
 10
116.6492105828169
 20
-157.3392333591027
 30
0.0
 10
116.3570664856677
 20
-157.3475015882673
 30
0.0
 10
116.2047932652196
 20
-157.364382556145
 30
0.0
 10
116.2047932652196
 20
-157.364382556145
 30
0.0
 10
116.2047932652196
 20
-157.135972725473
 30
0.0
 10
116.2047932652196
 20
-157.135972725473
 30
0.0
 10
116.2388997105236
 20
-157.1425184068949
 30
0.0
 10
116.2640489075659
 20
-157.1487195787684
 30
0.0
 10
116.3171033780388
 20
-157.1528536933507
 30
0.0
 10
116.4183891853051
 20
-157.1593993747726
 30
0.0
 10
116.6154486470614
 20
-157.1614664320638
 30
0.0
 10
116.69985348645
 20
-157.1614664320638
 30
0.0
 10
116.69985348645
 20
-157.1614664320638
 30
0.0
 10
117.2055935036847
 20
-157.1614664320638
 30
0.0
 10
117.2055935036847
 20
-157.1614664320638
 30
0.0
 10
117.2731173751956
 20
-157.1614664320638
 30
0.0
 10
117.4191894237702
 20
-157.1573323174815
 30
0.0
 10
117.4805121234076
 20
-157.1507866360595
 30
0.0
 10
117.5525146190494
 20
-157.1425184068949
 30
0.0
 10
117.5800753829314
 20
-157.1277044963084
 30
0.0
 10
117.6138373186868
 20
-157.1042778470087
 30
0.0
 10
117.6138373186868
 20
-157.1042778470087
 30
0.0
 10
117.7788573924303
 20
-157.2713649780433
 30
0.0
 10
117.7788573924303
 20
-157.2713649780433
 30
0.0
 10
117.7089219540797
 20
-157.3392333591027
 30
0.0
 10
117.6624131650289
 20
-157.4429307332087
 30
0.0
 10
117.6393310252777
 20
-157.4935736368419
 30
0.0
  0
SPLINE
  5
1D0
330
1C7
100
AcDbEntity
  8
_U+30EC_U+30A4_U+30E4_U+30FC 1
370
     0
100
AcDbSpline
210
0.0
220
0.0
230
1.0
 70
    11
 71
     3
 72
    29
 73
    25
 74
     0
 42
0.0000000001
 43
0.0000000001
 12
1.0
 22
0.0
 32
0.0
 13
1.0
 23
0.0
 33
0.0
 40
0.0
 40
0.0
 40
0.0
 40
0.0
 40
1.0
 40
1.0
 40
1.0
 40
2.0
 40
2.0
 40
2.0
 40
3.0
 40
3.0
 40
3.0
 40
4.0
 40
4.0
 40
4.0
 40
5.0
 40
5.0
 40
5.0
 40
6.0
 40
6.0
 40
6.0
 40
7.0
 40
7.0
 40
7.0
 40
8.0
 40
8.0
 40
8.0
 40
8.0
 10
117.1463378613384
 20
-156.8672552776235
 30
0.0
 10
117.1463378613384
 20
-156.8672552776235
 30
0.0
 10
116.8056179178472
 20
-156.8672552776235
 30
0.0
 10
116.8056179178472
 20
-156.8672552776235
 30
0.0
 10
116.6915852572854
 20
-156.8672552776235
 30
0.0
 10
116.575141029884
 20
-156.8717339017543
 30
0.0
 10
116.4607638597737
 20
-156.8865478123409
 30
0.0
 10
116.4607638597737
 20
-156.8865478123409
 30
0.0
 10
116.4607638597737
 20
-156.6770860068377
 30
0.0
 10
116.4607638597737
 20
-156.6770860068377
 30
0.0
 10
116.5792751444663
 20
-156.6918999174243
 30
0.0
 10
116.7529079569229
 20
-156.6960340320066
 30
0.0
 10
116.8056179178472
 20
-156.6960340320066
 30
0.0
 10
116.8056179178472
 20
-156.6960340320066
 30
0.0
 10
117.1463378613384
 20
-156.6960340320066
 30
0.0
 10
117.1463378613384
 20
-156.6960340320066
 30
0.0
 10
117.2627820887399
 20
-156.6960340320066
 30
0.0
 10
117.3788818065928
 20
-156.6918999174243
 30
0.0
 10
117.4953260339942
 20
-156.6770860068377
 30
0.0
 10
117.4953260339942
 20
-156.6770860068377
 30
0.0
 10
117.4953260339942
 20
-156.8865478123409
 30
0.0
 10
117.4953260339942
 20
-156.8865478123409
 30
0.0
 10
117.3451198708373
 20
-156.8672552776235
 30
0.0
 10
117.161151771925
 20
-156.8672552776235
 30
0.0
 10
117.1463378613384
 20
-156.8672552776235
 30
0.0
  0
HATCH
  5
1D1
330
1C7
100
AcDbEntity
  8
_U+30EC_U+30A4_U+30E4_U+30FC 1
 62
   179
420
  2234388
100
AcDbHatch
 10
0.0
 20
0.0
 30
0.0
210
0.0
220
0.0
230
1.0
  2
SOLID
 70
     1
 71
     0
 91
        2
 92
        1
 93
        1
 72
     4
 94
        3
 73
     0
 74
     1
 95
       50
 96
       46
 40
0.0
 40
0.0
 40
0.0
 40
0.0
 40
1.0
 40
1.0
 40
1.0
 40
2.0
 40
2.0
 40
2.0
 40
3.0
 40
3.0
 40
3.0
 40
4.0
 40
4.0
 40
4.0
 40
5.0
 40
5.0
 40
5.0
 40
6.0
 40
6.0
 40
6.0
 40
7.0
 40
7.0
 40
7.0
 40
8.0
 40
8.0
 40
8.0
 40
9.0
 40
9.0
 40
9.0
 40
10.0
 40
10.0
 40
10.0
 40
11.0
 40
11.0
 40
11.0
 40
12.0
 40
12.0
 40
12.0
 40
13.0
 40
13.0
 40
13.0
 40
14.0
 40
14.0
 40
14.0
 40
15.0
 40
15.0
 40
15.0
 40
15.0
 10
117.6393310252777
 20
-157.4935736368419
 10
117.560782848214
 20
-157.6713405638808
 10
117.4253905956437
 20
-157.8783908025443
 10
117.2879312857822
 20
-158.0182616792455
 10
117.1187770974564
 20
-158.1894829248623
 10
116.9558240810041
 20
-158.2783663883818
 10
116.6364637295214
 20
-158.4199598128256
 10
116.6364637295214
 20
-158.4199598128256
 10
116.4673095411957
 20
-158.2318575993309
 10
116.4673095411957
 20
-158.2318575993309
 10
116.6533446973992
 20
-158.2084309500312
 10
116.8245659430161
 20
-158.1219590533515
 10
116.9771836730127
 20
-158.0161946219543
 10
117.2393554394402
 20
-157.8342935803331
 10
117.4298692197745
 20
-157.5211344007239
 10
117.4784450661165
 20
-157.3392333591027
 10
117.4784450661165
 20
-157.3392333591027
 10
116.8076849751384
 20
-157.3392333591027
 10
116.8076849751384
 20
-157.3392333591027
 10
116.6492105828169
 20
-157.3392333591027
 10
116.3570664856677
 20
-157.3475015882673
 10
116.2047932652196
 20
-157.364382556145
 10
116.2047932652196
 20
-157.364382556145
 10
116.2047932652196
 20
-157.135972725473
 10
116.2047932652196
 20
-157.135972725473
 10
116.2388997105236
 20
-157.1425184068949
 10
116.2640489075659
 20
-157.1487195787684
 10
116.3171033780388
 20
-157.1528536933507
 10
116.4183891853051
 20
-157.1593993747726
 10
116.6154486470614
 20
-157.1614664320638
 10
116.69985348645
 20
-157.1614664320638
 10
116.69985348645
 20
-157.1614664320638
 10
117.2055935036847
 20
-157.1614664320638
 10
117.2055935036847
 20
-157.1614664320638
 10
117.2731173751956
 20
-157.1614664320638
 10
117.4191894237702
 20
-157.1573323174815
 10
117.4805121234076
 20
-157.1507866360595
 10
117.5525146190494
 20
-157.1425184068949
 10
117.5800753829314
 20
-157.1277044963084
 10
117.6138373186868
 20
-157.1042778470087
 10
117.6138373186868
 20
-157.1042778470087
 10
117.7788573924303
 20
-157.2713649780433
 10
117.7788573924303
 20
-157.2713649780433
 10
117.7089219540797
 20
-157.3392333591027
 10
117.6624131650289
 20
-157.4429307332087
 10
117.6393310252777
 20
-157.4935736368419
 97
        0
 97
        0
 92
        1
 93
        1
 72
     4
 94
        3
 73
     0
 74
     1
 95
       29
 96
       25
 40
0.0
 40
0.0
 40
0.0
 40
0.0
 40
1.0
 40
1.0
 40
1.0
 40
2.0
 40
2.0
 40
2.0
 40
3.0
 40
3.0
 40
3.0
 40
4.0
 40
4.0
 40
4.0
 40
5.0
 40
5.0
 40
5.0
 40
6.0
 40
6.0
 40
6.0
 40
7.0
 40
7.0
 40
7.0
 40
8.0
 40
8.0
 40
8.0
 40
8.0
 10
117.1463378613384
 20
-156.8672552776235
 10
117.1463378613384
 20
-156.8672552776235
 10
116.8056179178472
 20
-156.8672552776235
 10
116.8056179178472
 20
-156.8672552776235
 10
116.6915852572854
 20
-156.8672552776235
 10
116.575141029884
 20
-156.8717339017543
 10
116.4607638597737
 20
-156.8865478123409
 10
116.4607638597737
 20
-156.8865478123409
 10
116.4607638597737
 20
-156.6770860068377
 10
116.4607638597737
 20
-156.6770860068377
 10
116.5792751444663
 20
-156.6918999174243
 10
116.7529079569229
 20
-156.6960340320066
 10
116.8056179178472
 20
-156.6960340320066
 10
116.8056179178472
 20
-156.6960340320066
 10
117.1463378613384
 20
-156.6960340320066
 10
117.1463378613384
 20
-156.6960340320066
 10
117.2627820887399
 20
-156.6960340320066
 10
117.3788818065928
 20
-156.6918999174243
 10
117.4953260339942
 20
-156.6770860068377
 10
117.4953260339942
 20
-156.6770860068377
 10
117.4953260339942
 20
-156.8865478123409
 10
117.4953260339942
 20
-156.8865478123409
 10
117.3451198708373
 20
-156.8672552776235
 10
117.161151771925
 20
-156.8672552776235
 10
117.1463378613384
 20
-156.8672552776235
 97
        0
 97
        0
 75
     2
 76
     1
 98
        0
  0
SPLINE
  5
1D2
330
1C7
100
AcDbEntity
  8
_U+30EC_U+30A4_U+30E4_U+30FC 1
370
     0
100
AcDbSpline
210
0.0
220
0.0
230
1.0
 70
    11
 71
     3
 72
    50
 73
    46
 74
     0
 42
0.0000000001
 43
0.0000000001
 12
1.0
 22
0.0
 32
0.0
 13
1.0
 23
0.0
 33
0.0
 40
0.0
 40
0.0
 40
0.0
 40
0.0
 40
1.0
 40
1.0
 40
1.0
 40
2.0
 40
2.0
 40
2.0
 40
3.0
 40
3.0
 40
3.0
 40
4.0
 40
4.0
 40
4.0
 40
5.0
 40
5.0
 40
5.0
 40
6.0
 40
6.0
 40
6.0
 40
7.0
 40
7.0
 40
7.0
 40
8.0
 40
8.0
 40
8.0
 40
9.0
 40
9.0
 40
9.0
 40
10.0
 40
10.0
 40
10.0
 40
11.0
 40
11.0
 40
11.0
 40
12.0
 40
12.0
 40
12.0
 40
13.0
 40
13.0
 40
13.0
 40
14.0
 40
14.0
 40
14.0
 40
15.0
 40
15.0
 40
15.0
 40
15.0
 10
119.3494764241557
 20
-156.8524413670369
 30
0.0
 10
119.1400146186525
 20
-157.0660372871224
 30
0.0
 10
119.0683566325593
 20
-157.1380397827641
 30
0.0
 10
118.926418698567
 20
-157.2565510674567
 30
0.0
 10
118.926418698567
 20
-157.2565510674567
 30
0.0
 10
118.926418698567
 20
-157.8236137843288
 30
0.0
 10
118.926418698567
 20
-157.8236137843288
 30
0.0
 10
118.926418698567
 20
-157.9738199474857
 30
0.0
 10
118.932964379989
 20
-157.9927679726546
 30
0.0
 10
118.9370984945713
 20
-158.1705348996935
 30
0.0
 10
118.9391655518624
 20
-158.3017930376815
 30
0.0
 10
118.9453667237359
 20
-158.3503688840235
 30
0.0
 10
118.9519124051579
 20
-158.4096245263698
 30
0.0
 10
118.9519124051579
 20
-158.4096245263698
 30
0.0
 10
118.7255696317769
 20
-158.4096245263698
 30
0.0
 10
118.7255696317769
 20
-158.4096245263698
 30
0.0
 10
118.7297037463592
 20
-158.3651827946101
 30
0.0
 10
118.7338378609415
 20
-158.3186740055592
 30
0.0
 10
118.7338378609415
 20
-158.3100612668461
 30
0.0
 10
118.7338378609415
 20
-158.2297905420398
 30
0.0
 10
118.7383164850724
 20
-157.8783908025443
 30
0.0
 10
118.7383164850724
 20
-157.8067328164511
 30
0.0
 10
118.7383164850724
 20
-157.8067328164511
 30
0.0
 10
118.7383164850724
 20
-157.4005560587401
 30
0.0
 10
118.7383164850724
 20
-157.4005560587401
 30
0.0
 10
118.5564154434512
 20
-157.5252685153062
 30
0.0
 10
118.3617675485346
 20
-157.6351670612857
 30
0.0
 10
118.1585069149048
 20
-157.721983467514
 30
0.0
 10
118.1585069149048
 20
-157.721983467514
 30
0.0
 10
117.9555907908236
 20
-157.5590304510616
 30
0.0
 10
117.9555907908236
 20
-157.5590304510616
 30
0.0
 10
118.0782361900985
 20
-157.5232014580151
 30
0.0
 10
118.3342067846526
 20
-157.4491319050822
 30
0.0
 10
118.6790608427261
 20
-157.1931613105281
 30
0.0
 10
118.8947238201027
 20
-157.0343424086581
 30
0.0
 10
119.0873046577282
 20
-156.8462401951635
 30
0.0
 10
119.2395778781762
 20
-156.626098593656
 30
0.0
 10
119.2395778781762
 20
-156.626098593656
 30
0.0
 10
119.4321587158017
 20
-156.7701035849394
 30
0.0
 10
119.4321587158017
 20
-156.7701035849394
 30
0.0
 10
119.4449055690971
 20
-156.7807833809437
 30
0.0
 10
119.4531737982617
 20
-156.7952527819818
 30
0.0
 10
119.4531737982617
 20
-156.8079996352772
 30
0.0
 10
119.4531737982617
 20
-156.8483072524546
 30
0.0
 10
119.415277747924
 20
-156.8483072524546
 30
0.0
 10
119.3494764241557
 20
-156.8524413670369
 30
0.0
  0
HATCH
  5
1D3
330
1C7
100
AcDbEntity
  8
_U+30EC_U+30A4_U+30E4_U+30FC 1
 62
   179
420
  2234388
100
AcDbHatch
 10
0.0
 20
0.0
 30
0.0
210
0.0
220
0.0
230
1.0
  2
SOLID
 70
     1
 71
     0
 91
        1
 92
        1
 93
        1
 72
     4
 94
        3
 73
     0
 74
     1
 95
       50
 96
       46
 40
0.0
 40
0.0
 40
0.0
 40
0.0
 40
1.0
 40
1.0
 40
1.0
 40
2.0
 40
2.0
 40
2.0
 40
3.0
 40
3.0
 40
3.0
 40
4.0
 40
4.0
 40
4.0
 40
5.0
 40
5.0
 40
5.0
 40
6.0
 40
6.0
 40
6.0
 40
7.0
 40
7.0
 40
7.0
 40
8.0
 40
8.0
 40
8.0
 40
9.0
 40
9.0
 40
9.0
 40
10.0
 40
10.0
 40
10.0
 40
11.0
 40
11.0
 40
11.0
 40
12.0
 40
12.0
 40
12.0
 40
13.0
 40
13.0
 40
13.0
 40
14.0
 40
14.0
 40
14.0
 40
15.0
 40
15.0
 40
15.0
 40
15.0
 10
119.3494764241557
 20
-156.8524413670369
 10
119.1400146186525
 20
-157.0660372871224
 10
119.0683566325593
 20
-157.1380397827641
 10
118.926418698567
 20
-157.2565510674567
 10
118.926418698567
 20
-157.2565510674567
 10
118.926418698567
 20
-157.8236137843288
 10
118.926418698567
 20
-157.8236137843288
 10
118.926418698567
 20
-157.9738199474857
 10
118.932964379989
 20
-157.9927679726546
 10
118.9370984945713
 20
-158.1705348996935
 10
118.9391655518624
 20
-158.3017930376815
 10
118.9453667237359
 20
-158.3503688840235
 10
118.9519124051579
 20
-158.4096245263698
 10
118.9519124051579
 20
-158.4096245263698
 10
118.7255696317769
 20
-158.4096245263698
 10
118.7255696317769
 20
-158.4096245263698
 10
118.7297037463592
 20
-158.3651827946101
 10
118.7338378609415
 20
-158.3186740055592
 10
118.7338378609415
 20
-158.3100612668461
 10
118.7338378609415
 20
-158.2297905420398
 10
118.7383164850724
 20
-157.8783908025443
 10
118.7383164850724
 20
-157.8067328164511
 10
118.7383164850724
 20
-157.8067328164511
 10
118.7383164850724
 20
-157.4005560587401
 10
118.7383164850724
 20
-157.4005560587401
 10
118.5564154434512
 20
-157.5252685153062
 10
118.3617675485346
 20
-157.6351670612857
 10
118.1585069149048
 20
-157.721983467514
 10
118.1585069149048
 20
-157.721983467514
 10
117.9555907908236
 20
-157.5590304510616
 10
117.9555907908236
 20
-157.5590304510616
 10
118.0782361900985
 20
-157.5232014580151
 10
118.3342067846526
 20
-157.4491319050822
 10
118.6790608427261
 20
-157.1931613105281
 10
118.8947238201027
 20
-157.0343424086581
 10
119.0873046577282
 20
-156.8462401951635
 10
119.2395778781762
 20
-156.626098593656
 10
119.2395778781762
 20
-156.626098593656
 10
119.4321587158017
 20
-156.7701035849394
 10
119.4321587158017
 20
-156.7701035849394
 10
119.4449055690971
 20
-156.7807833809437
 10
119.4531737982617
 20
-156.7952527819818
 10
119.4531737982617
 20
-156.8079996352772
 10
119.4531737982617
 20
-156.8483072524546
 10
119.415277747924
 20
-156.8483072524546
 10
119.3494764241557
 20
-156.8524413670369
 97
        0
 97
        0
 75
     2
 76
     1
 98
        0
  0
SPLINE
  5
1D4
330
1C7
100
AcDbEntity
  8
_U+30EC_U+30A4_U+30E4_U+30FC 1
370
     0
100
AcDbSpline
210
0.0
220
0.0
230
1.0
 70
    11
 71
     3
 72
    50
 73
    46
 74
     0
 42
0.0000000001
 43
0.0000000001
 12
1.0
 22
0.0
 32
0.0
 13
1.0
 23
0.0
 33
0.0
 40
0.0
 40
0.0
 40
0.0
 40
0.0
 40
1.0
 40
1.0
 40
1.0
 40
2.0
 40
2.0
 40
2.0
 40
3.0
 40
3.0
 40
3.0
 40
4.0
 40
4.0
 40
4.0
 40
5.0
 40
5.0
 40
5.0
 40
6.0
 40
6.0
 40
6.0
 40
7.0
 40
7.0
 40
7.0
 40
8.0
 40
8.0
 40
8.0
 40
9.0
 40
9.0
 40
9.0
 40
10.0
 40
10.0
 40
10.0
 40
11.0
 40
11.0
 40
11.0
 40
12.0
 40
12.0
 40
12.0
 40
13.0
 40
13.0
 40
13.0
 40
14.0
 40
14.0
 40
14.0
 40
15.0
 40
15.0
 40
15.0
 40
15.0
 10
121.0599663325822
 20
-157.3791964667316
 30
0.0
 10
120.9986436329448
 20
-157.4511989623733
 30
0.0
 10
120.7381944142599
 20
-157.7684922565648
 30
0.0
 10
120.6813503387533
 20
-157.8318820134934
 30
0.0
 10
120.7657551781419
 20
-157.929378215726
 30
0.0
 10
120.8167425913236
 20
-157.9927679726546
 30
0.0
 10
120.8821994055433
 20
-158.0837184934652
 30
0.0
 10
120.8821994055433
 20
-158.0837184934652
 30
0.0
 10
120.698231306631
 20
-158.2211778033267
 30
0.0
 10
120.698231306631
 20
-158.2211778033267
 30
0.0
 10
120.5628390540607
 20
-158.0096489405323
 30
0.0
 10
120.3912732988952
 20
-157.7853732244426
 30
0.0
 10
120.0974066540034
 20
-157.5865912149436
 30
0.0
 10
120.0974066540034
 20
-157.5865912149436
 30
0.0
 10
120.2455457598692
 20
-157.4322509372045
 30
0.0
 10
120.2455457598692
 20
-157.4322509372045
 30
0.0
 10
120.3554443058486
 20
-157.5125216620108
 30
0.0
 10
120.4591416799547
 20
-157.6014051255302
 30
0.0
 10
120.5562933726387
 20
-157.6964897609231
 30
0.0
 10
120.6241617536981
 20
-157.6203531506991
 30
0.0
 10
120.8270778777793
 20
-157.3771294094404
 30
0.0
 10
120.9604030730585
 20
-157.1487195787684
 30
0.0
 10
120.9604030730585
 20
-157.1487195787684
 30
0.0
 10
120.2875759247892
 20
-157.1487195787684
 30
0.0
 10
120.2875759247892
 20
-157.1487195787684
 30
0.0
 10
120.1628634682232
 20
-157.1487195787684
 30
0.0
 10
119.9110269882514
 20
-157.1573323174815
 30
0.0
 10
119.7015651827482
 20
-157.1676676039372
 30
0.0
 10
119.7015651827482
 20
-157.1676676039372
 30
0.0
 10
119.7015651827482
 20
-156.9478705119783
 30
0.0
 10
119.7015651827482
 20
-156.9478705119783
 30
0.0
 10
119.8858777912091
 20
-156.9668185371472
 30
0.0
 10
120.0908609725815
 20
-156.9709526517295
 30
0.0
 10
120.2793076956246
 20
-156.9709526517295
 30
0.0
 10
120.2793076956246
 20
-156.9709526517295
 30
0.0
 10
120.7826361460196
 20
-156.9709526517295
 30
0.0
 10
120.7826361460196
 20
-156.9709526517295
 30
0.0
 10
121.1212890322197
 20
-156.9709526517295
 30
0.0
 10
121.1657307639794
 20
-156.9561387411429
 30
0.0
 10
121.2480685460769
 20
-156.9158311239655
 30
0.0
 10
121.2480685460769
 20
-156.9158311239655
 30
0.0
 10
121.4151556771115
 20
-157.0746500258355
 30
0.0
 10
121.4151556771115
 20
-157.0746500258355
 30
0.0
 10
121.2628824566634
 20
-157.1466525214772
 30
0.0
 10
121.1192219749285
 20
-157.3096055379295
 30
0.0
 10
121.0599663325822
 20
-157.3791964667316
 30
0.0
  0
HATCH
  5
1D5
330
1C7
100
AcDbEntity
  8
_U+30EC_U+30A4_U+30E4_U+30FC 1
 62
   179
420
  2234388
100
AcDbHatch
 10
0.0
 20
0.0
 30
0.0
210
0.0
220
0.0
230
1.0
  2
SOLID
 70
     1
 71
     0
 91
        1
 92
        1
 93
        1
 72
     4
 94
        3
 73
     0
 74
     1
 95
       50
 96
       46
 40
0.0
 40
0.0
 40
0.0
 40
0.0
 40
1.0
 40
1.0
 40
1.0
 40
2.0
 40
2.0
 40
2.0
 40
3.0
 40
3.0
 40
3.0
 40
4.0
 40
4.0
 40
4.0
 40
5.0
 40
5.0
 40
5.0
 40
6.0
 40
6.0
 40
6.0
 40
7.0
 40
7.0
 40
7.0
 40
8.0
 40
8.0
 40
8.0
 40
9.0
 40
9.0
 40
9.0
 40
10.0
 40
10.0
 40
10.0
 40
11.0
 40
11.0
 40
11.0
 40
12.0
 40
12.0
 40
12.0
 40
13.0
 40
13.0
 40
13.0
 40
14.0
 40
14.0
 40
14.0
 40
15.0
 40
15.0
 40
15.0
 40
15.0
 10
121.0599663325822
 20
-157.3791964667316
 10
120.9986436329448
 20
-157.4511989623733
 10
120.7381944142599
 20
-157.7684922565648
 10
120.6813503387533
 20
-157.8318820134934
 10
120.7657551781419
 20
-157.929378215726
 10
120.8167425913236
 20
-157.9927679726546
 10
120.8821994055433
 20
-158.0837184934652
 10
120.8821994055433
 20
-158.0837184934652
 10
120.698231306631
 20
-158.2211778033267
 10
120.698231306631
 20
-158.2211778033267
 10
120.5628390540607
 20
-158.0096489405323
 10
120.3912732988952
 20
-157.7853732244426
 10
120.0974066540034
 20
-157.5865912149436
 10
120.0974066540034
 20
-157.5865912149436
 10
120.2455457598692
 20
-157.4322509372045
 10
120.2455457598692
 20
-157.4322509372045
 10
120.3554443058486
 20
-157.5125216620108
 10
120.4591416799547
 20
-157.6014051255302
 10
120.5562933726387
 20
-157.6964897609231
 10
120.6241617536981
 20
-157.6203531506991
 10
120.8270778777793
 20
-157.3771294094404
 10
120.9604030730585
 20
-157.1487195787684
 10
120.9604030730585
 20
-157.1487195787684
 10
120.2875759247892
 20
-157.1487195787684
 10
120.2875759247892
 20
-157.1487195787684
 10
120.1628634682232
 20
-157.1487195787684
 10
119.9110269882514
 20
-157.1573323174815
 10
119.7015651827482
 20
-157.1676676039372
 10
119.7015651827482
 20
-157.1676676039372
 10
119.7015651827482
 20
-156.9478705119783
 10
119.7015651827482
 20
-156.9478705119783
 10
119.8858777912091
 20
-156.9668185371472
 10
120.0908609725815
 20
-156.9709526517295
 10
120.2793076956246
 20
-156.9709526517295
 10
120.2793076956246
 20
-156.9709526517295
 10
120.7826361460196
 20
-156.9709526517295
 10
120.7826361460196
 20
-156.9709526517295
 10
121.1212890322197
 20
-156.9709526517295
 10
121.1657307639794
 20
-156.9561387411429
 10
121.2480685460769
 20
-156.9158311239655
 10
121.2480685460769
 20
-156.9158311239655
 10
121.4151556771115
 20
-157.0746500258355
 10
121.4151556771115
 20
-157.0746500258355
 10
121.2628824566634
 20
-157.1466525214772
 10
121.1192219749285
 20
-157.3096055379295
 10
121.0599663325822
 20
-157.3791964667316
 97
        0
 97
        0
 75
     2
 76
     1
 98
        0
  0
SPLINE
  5
1D6
330
1C7
100
AcDbEntity
  8
_U+30EC_U+30A4_U+30E4_U+30FC 1
370
     0
100
AcDbSpline
210
0.0
220
0.0
230
1.0
 70
    11
 71
     3
 72
    29
 73
    25
 74
     0
 42
0.0000000001
 43
0.0000000001
 12
1.0
 22
0.0
 32
0.0
 13
1.0
 23
0.0
 33
0.0
 40
0.0
 40
0.0
 40
0.0
 40
0.0
 40
1.0
 40
1.0
 40
1.0
 40
2.0
 40
2.0
 40
2.0
 40
3.0
 40
3.0
 40
3.0
 40
4.0
 40
4.0
 40
4.0
 40
5.0
 40
5.0
 40
5.0
 40
6.0
 40
6.0
 40
6.0
 40
7.0
 40
7.0
 40
7.0
 40
8.0
 40
8.0
 40
8.0
 40
8.0
 10
122.6836398347805
 20
-157.6224202079902
 30
0.0
 10
122.6836398347805
 20
-157.6224202079902
 30
0.0
 10
122.1992594095544
 20
-157.6224202079902
 30
0.0
 10
122.1992594095544
 20
-157.6224202079902
 30
0.0
 10
122.1716986456724
 20
-157.6224202079902
 30
0.0
 10
121.8544053514808
 20
-157.6224202079902
 30
0.0
 10
121.6428764886865
 20
-157.6479139145811
 30
0.0
 10
121.6428764886865
 20
-157.6479139145811
 30
0.0
 10
121.6428764886865
 20
-157.4174370266179
 30
0.0
 10
121.6428764886865
 20
-157.4174370266179
 30
0.0
 10
121.801350881008
 20
-157.4405191663691
 30
0.0
 10
121.9918646613423
 20
-157.4429307332087
 30
0.0
 10
122.1992594095544
 20
-157.4429307332087
 30
0.0
 10
122.1992594095544
 20
-157.4429307332087
 30
0.0
 10
122.6836398347805
 20
-157.4429307332087
 30
0.0
 10
122.6836398347805
 20
-157.4429307332087
 30
0.0
 10
122.869674990984
 20
-157.4429307332087
 30
0.0
 10
123.056054656736
 20
-157.4405191663691
 30
0.0
 10
123.2400227556483
 20
-157.4174370266179
 30
0.0
 10
123.2400227556483
 20
-157.4174370266179
 30
0.0
 10
123.2400227556483
 20
-157.6479139145811
 30
0.0
 10
123.2400227556483
 20
-157.6479139145811
 30
0.0
 10
123.056054656736
 20
-157.6248317748299
 30
0.0
 10
122.8083522913465
 20
-157.6224202079902
 30
0.0
 10
122.6836398347805
 20
-157.6224202079902
 30
0.0
  0
HATCH
  5
1D7
330
1C7
100
AcDbEntity
  8
_U+30EC_U+30A4_U+30E4_U+30FC 1
 62
   179
420
  2234388
100
AcDbHatch
 10
0.0
 20
0.0
 30
0.0
210
0.0
220
0.0
230
1.0
  2
SOLID
 70
     1
 71
     0
 91
        1
 92
        1
 93
        1
 72
     4
 94
        3
 73
     0
 74
     1
 95
       29
 96
       25
 40
0.0
 40
0.0
 40
0.0
 40
0.0
 40
1.0
 40
1.0
 40
1.0
 40
2.0
 40
2.0
 40
2.0
 40
3.0
 40
3.0
 40
3.0
 40
4.0
 40
4.0
 40
4.0
 40
5.0
 40
5.0
 40
5.0
 40
6.0
 40
6.0
 40
6.0
 40
7.0
 40
7.0
 40
7.0
 40
8.0
 40
8.0
 40
8.0
 40
8.0
 10
122.6836398347805
 20
-157.6224202079902
 10
122.6836398347805
 20
-157.6224202079902
 10
122.1992594095544
 20
-157.6224202079902
 10
122.1992594095544
 20
-157.6224202079902
 10
122.1716986456724
 20
-157.6224202079902
 10
121.8544053514808
 20
-157.6224202079902
 10
121.6428764886865
 20
-157.6479139145811
 10
121.6428764886865
 20
-157.6479139145811
 10
121.6428764886865
 20
-157.4174370266179
 10
121.6428764886865
 20
-157.4174370266179
 10
121.801350881008
 20
-157.4405191663691
 10
121.9918646613423
 20
-157.4429307332087
 10
122.1992594095544
 20
-157.4429307332087
 10
122.1992594095544
 20
-157.4429307332087
 10
122.6836398347805
 20
-157.4429307332087
 10
122.6836398347805
 20
-157.4429307332087
 10
122.869674990984
 20
-157.4429307332087
 10
123.056054656736
 20
-157.4405191663691
 10
123.2400227556483
 20
-157.4174370266179
 10
123.2400227556483
 20
-157.4174370266179
 10
123.2400227556483
 20
-157.6479139145811
 10
123.2400227556483
 20
-157.6479139145811
 10
123.056054656736
 20
-157.6248317748299
 10
122.8083522913465
 20
-157.6224202079902
 10
122.6836398347805
 20
-157.6224202079902
 97
        0
 97
        0
 75
     2
 76
     1
 98
        0
  0
SPLINE
  5
1D8
330
1C7
100
AcDbEntity
  8
_U+30EC_U+30A4_U+30E4_U+30FC 1
370
     0
100
AcDbSpline
210
0.0
220
0.0
230
1.0
 70
    11
 71
     3
 72
    53
 73
    49
 74
     0
 42
0.0000000001
 43
0.0000000001
 12
1.0
 22
0.0
 32
0.0
 13
1.0
 23
0.0
 33
0.0
 40
0.0
 40
0.0
 40
0.0
 40
0.0
 40
1.0
 40
1.0
 40
1.0
 40
2.0
 40
2.0
 40
2.0
 40
3.0
 40
3.0
 40
3.0
 40
4.0
 40
4.0
 40
4.0
 40
5.0
 40
5.0
 40
5.0
 40
6.0
 40
6.0
 40
6.0
 40
7.0
 40
7.0
 40
7.0
 40
8.0
 40
8.0
 40
8.0
 40
9.0
 40
9.0
 40
9.0
 40
10.0
 40
10.0
 40
10.0
 40
11.0
 40
11.0
 40
11.0
 40
12.0
 40
12.0
 40
12.0
 40
13.0
 40
13.0
 40
13.0
 40
14.0
 40
14.0
 40
14.0
 40
15.0
 40
15.0
 40
15.0
 40
16.0
 40
16.0
 40
16.0
 40
16.0
 10
124.104052703349
 20
-156.7487439929309
 30
0.0
 10
124.0365288318381
 20
-156.9013617229274
 30
0.0
 10
123.9941541573695
 20
-156.9795653904426
 30
0.0
 10
123.9559135974832
 20
-157.0470892619535
 30
0.0
 10
123.9982882719518
 20
-157.0684488539621
 30
0.0
 10
124.0024223865341
 20
-157.0705159112532
 30
0.0
 10
124.0024223865341
 20
-157.0853298218398
 30
0.0
 10
124.0024223865341
 20
-157.0980766751352
 30
0.0
 10
123.9686604507787
 20
-157.1318386108907
 30
0.0
 10
123.9579806547744
 20
-157.1401068400553
 30
0.0
 10
123.9559135974832
 20
-157.336821792263
 30
0.0
 10
123.9559135974832
 20
-157.3581813842716
 30
0.0
 10
123.9559135974832
 20
-157.4915065795507
 30
0.0
 10
123.9538465401921
 20
-157.5042534328462
 30
0.0
 10
123.9538465401921
 20
-157.5190673434327
 30
0.0
 10
123.9538465401921
 20
-157.5338812540193
 30
0.0
 10
123.9538465401921
 20
-157.5338812540193
 30
0.0
 10
123.9538465401921
 20
-158.0689045828786
 30
0.0
 10
123.9538465401921
 20
-158.0689045828786
 30
0.0
 10
123.9538465401921
 20
-158.1409070785203
 30
0.0
 10
123.9579806547744
 20
-158.3758625906144
 30
0.0
 10
123.9665933934875
 20
-158.4857611365939
 30
0.0
 10
123.9665933934875
 20
-158.4857611365939
 30
0.0
 10
123.7233696522289
 20
-158.4857611365939
 30
0.0
 10
123.7233696522289
 20
-158.4857611365939
 30
0.0
 10
123.7464517919801
 20
-158.3269422347238
 30
0.0
 10
123.752997473402
 20
-158.0857855507563
 30
0.0
 10
123.752997473402
 20
-158.0647704682963
 30
0.0
 10
123.752997473402
 20
-158.0647704682963
 30
0.0
 10
123.752997473402
 20
-157.3475015882673
 30
0.0
 10
123.752997473402
 20
-157.3475015882673
 30
0.0
 10
123.6620469525914
 20
-157.4618787583776
 30
0.0
 10
123.600724252954
 20
-157.5211344007239
 30
0.0
 10
123.5583495784854
 20
-157.5635090751925
 30
0.0
 10
123.5583495784854
 20
-157.5635090751925
 30
0.0
 10
123.3678357981511
 20
-157.4257052557825
 30
0.0
 10
123.3678357981511
 20
-157.4257052557825
 30
0.0
 10
123.649300099296
 20
-157.2100422784058
 30
0.0
 10
123.8418809369215
 20
-156.9013617229274
 30
0.0
 10
123.9538465401921
 20
-156.5647758940185
 30
0.0
 10
123.9538465401921
 20
-156.5647758940185
 30
0.0
 10
124.1739881416996
 20
-156.6791530641288
 30
0.0
 10
124.1739881416996
 20
-156.6791530641288
 30
0.0
 10
124.186734994995
 20
-156.6853542360023
 30
0.0
 10
124.1950032241596
 20
-156.6894883505846
 30
0.0
 10
124.1950032241596
 20
-156.7043022611712
 30
0.0
 10
124.1950032241596
 20
-156.729795967762
 30
0.0
 10
124.1781222562819
 20
-156.7339300823443
 30
0.0
 10
124.104052703349
 20
-156.7487439929309
 30
0.0
  0
SPLINE
  5
1D9
330
1C7
100
AcDbEntity
  8
_U+30EC_U+30A4_U+30E4_U+30FC 1
370
     0
100
AcDbSpline
210
0.0
220
0.0
230
1.0
 70
    11
 71
     3
 72
    77
 73
    73
 74
     0
 42
0.0000000001
 43
0.0000000001
 12
1.0
 22
0.0
 32
0.0
 13
1.0
 23
0.0
 33
0.0
 40
0.0
 40
0.0
 40
0.0
 40
0.0
 40
1.0
 40
1.0
 40
1.0
 40
2.0
 40
2.0
 40
2.0
 40
3.0
 40
3.0
 40
3.0
 40
4.0
 40
4.0
 40
4.0
 40
5.0
 40
5.0
 40
5.0
 40
6.0
 40
6.0
 40
6.0
 40
7.0
 40
7.0
 40
7.0
 40
8.0
 40
8.0
 40
8.0
 40
9.0
 40
9.0
 40
9.0
 40
10.0
 40
10.0
 40
10.0
 40
11.0
 40
11.0
 40
11.0
 40
12.0
 40
12.0
 40
12.0
 40
13.0
 40
13.0
 40
13.0
 40
14.0
 40
14.0
 40
14.0
 40
15.0
 40
15.0
 40
15.0
 40
16.0
 40
16.0
 40
16.0
 40
17.0
 40
17.0
 40
17.0
 40
18.0
 40
18.0
 40
18.0
 40
19.0
 40
19.0
 40
19.0
 40
20.0
 40
20.0
 40
20.0
 40
21.0
 40
21.0
 40
21.0
 40
22.0
 40
22.0
 40
22.0
 40
23.0
 40
23.0
 40
23.0
 40
24.0
 40
24.0
 40
24.0
 40
24.0
 10
125.255059104971
 20
-157.2482828382921
 30
0.0
 10
125.1851236666204
 20
-157.2438042141613
 30
0.0
 10
125.117255285561
 20
-157.2438042141613
 30
0.0
 10
125.0497314140501
 20
-157.2438042141613
 30
0.0
 10
125.0497314140501
 20
-157.2438042141613
 30
0.0
 10
125.0497314140501
 20
-158.0182616792455
 30
0.0
 10
125.0497314140501
 20
-158.0182616792455
 30
0.0
 10
125.0497314140501
 20
-158.2825005029641
 30
0.0
 10
125.0476643567589
 20
-158.3121283241373
 30
0.0
 10
125.0411186753369
 20
-158.3417561453104
 30
0.0
 10
125.0073567395815
 20
-158.4750813405896
 30
0.0
 10
124.9057264227666
 20
-158.4836940793027
 30
0.0
 10
124.7303710625674
 20
-158.4836940793027
 30
0.0
 10
124.69006344539
 20
-158.4836940793027
 30
0.0
 10
124.6731824775123
 20
-158.4836940793027
 30
0.0
 10
124.6328748603348
 20
-158.4792154551719
 30
0.0
 10
124.6328748603348
 20
-158.4792154551719
 30
0.0
 10
124.5081624037688
 20
-158.2380587712044
 30
0.0
 10
124.5081624037688
 20
-158.2380587712044
 30
0.0
 10
124.6246066311702
 20
-158.2697536496687
 30
0.0
 10
124.7069444132677
 20
-158.2697536496687
 30
0.0
 10
124.7303710625674
 20
-158.2697536496687
 30
0.0
 10
124.7999619913695
 20
-158.2697536496687
 30
0.0
 10
124.8340684366734
 20
-158.252872681791
 30
0.0
 10
124.8382025512557
 20
-158.1960286062843
 30
0.0
 10
124.8382025512557
 20
-158.1832817529889
 30
0.0
 10
124.8402696085469
 20
-158.0857855507563
 30
0.0
 10
124.8402696085469
 20
-158.0285969657012
 30
0.0
 10
124.8402696085469
 20
-158.0285969657012
 30
0.0
 10
124.8402696085469
 20
-157.2417371568701
 30
0.0
 10
124.8402696085469
 20
-157.2417371568701
 30
0.0
 10
124.8402696085469
 20
-157.2417371568701
 30
0.0
 10
124.5460584541065
 20
-157.2417371568701
 30
0.0
 10
124.5460584541065
 20
-157.2417371568701
 30
0.0
 10
124.4003309150805
 20
-157.2417371568701
 30
0.0
 10
124.2542588665059
 20
-157.2482828382921
 30
0.0
 10
124.1102538752224
 20
-157.260685182039
 30
0.0
 10
124.1102538752224
 20
-157.260685182039
 30
0.0
 10
124.1102538752224
 20
-157.0536349433755
 30
0.0
 10
124.1102538752224
 20
-157.0536349433755
 30
0.0
 10
124.2604600383793
 20
-157.0660372871224
 30
0.0
 10
124.4785345825957
 20
-157.0705159112532
 30
0.0
 10
124.5460584541065
 20
-157.0705159112532
 30
0.0
 10
124.5460584541065
 20
-157.0705159112532
 30
0.0
 10
124.8402696085469
 20
-157.0705159112532
 30
0.0
 10
124.8402696085469
 20
-157.0705159112532
 30
0.0
 10
124.8382025512557
 20
-156.8017984634037
 30
0.0
 10
124.8382025512557
 20
-156.7256618531797
 30
0.0
 10
124.8295898125426
 20
-156.577522747314
 30
0.0
 10
124.8295898125426
 20
-156.577522747314
 30
0.0
 10
125.0876274643878
 20
-156.6157633072002
 30
0.0
 10
125.0876274643878
 20
-156.6157633072002
 30
0.0
 10
125.1024413749744
 20
-156.6178303644914
 30
0.0
 10
125.117255285561
 20
-156.6240315363648
 30
0.0
 10
125.117255285561
 20
-156.6450466188249
 30
0.0
 10
125.117255285561
 20
-156.6643391535422
 30
0.0
 10
125.1110541136875
 20
-156.6664062108334
 30
0.0
 10
125.0538655286324
 20
-156.7001681465889
 30
0.0
 10
125.0497314140501
 20
-156.778371814104
 30
0.0
 10
125.0497314140501
 20
-156.7931857246906
 30
0.0
 10
125.0497314140501
 20
-157.0705159112532
 30
0.0
 10
125.227498341089
 20
-157.0660372871224
 30
0.0
 10
125.2464463662578
 20
-157.0660372871224
 30
0.0
 10
125.2802083020133
 20
-157.0619031725401
 30
0.0
 10
125.331195715195
 20
-157.0577690579578
 30
0.0
 10
125.3353298297773
 20
-157.0557020006666
 30
0.0
 10
125.379771561537
 20
-157.0536349433755
 30
0.0
 10
125.379771561537
 20
-157.0536349433755
 30
0.0
 10
125.379771561537
 20
-157.260685182039
 30
0.0
 10
125.379771561537
 20
-157.260685182039
 30
0.0
 10
125.3501437403639
 20
-157.2586181247478
 30
0.0
 10
125.2950222125999
 20
-157.2503498955832
 30
0.0
 10
125.255059104971
 20
-157.2482828382921
 30
0.0
  0
SPLINE
  5
1DA
330
1C7
100
AcDbEntity
  8
_U+30EC_U+30A4_U+30E4_U+30FC 1
370
     0
100
AcDbSpline
210
0.0
220
0.0
230
1.0
 70
    11
 71
     3
 72
    20
 73
    16
 74
     0
 42
0.0000000001
 43
0.0000000001
 12
1.0
 22
0.0
 32
0.0
 13
1.0
 23
0.0
 33
0.0
 40
0.0
 40
0.0
 40
0.0
 40
0.0
 40
1.0
 40
1.0
 40
1.0
 40
2.0
 40
2.0
 40
2.0
 40
3.0
 40
3.0
 40
3.0
 40
4.0
 40
4.0
 40
4.0
 40
5.0
 40
5.0
 40
5.0
 40
5.0
 10
124.4847357544691
 20
-157.9738199474857
 30
0.0
 10
124.4382269654182
 20
-157.7960530204468
 30
0.0
 10
124.3410752727342
 20
-157.6544595960031
 30
0.0
 10
124.2015489055816
 20
-157.5442165404751
 30
0.0
 10
124.2015489055816
 20
-157.5442165404751
 30
0.0
 10
124.3620903551942
 20
-157.4301838799133
 30
0.0
 10
124.3620903551942
 20
-157.4301838799133
 30
0.0
 10
124.4234130548317
 20
-157.4722140448334
 30
0.0
 10
124.4637206720091
 20
-157.5063204901373
 30
0.0
 10
124.5398572822331
 20
-157.6141519788256
 30
0.0
 10
124.6201280070394
 20
-157.7305962062271
 30
0.0
 10
124.641487599048
 20
-157.7833061671514
 30
0.0
 10
124.6666367960903
 20
-157.8491074909197
 30
0.0
 10
124.6666367960903
 20
-157.8491074909197
 30
0.0
 10
124.4847357544691
 20
-157.9738199474857
 30
0.0
 10
124.4847357544691
 20
-157.9738199474857
 30
0.0
  0
HATCH
  5
1DB
330
1C7
100
AcDbEntity
  8
_U+30EC_U+30A4_U+30E4_U+30FC 1
 62
   179
420
  2234388
100
AcDbHatch
 10
0.0
 20
0.0
 30
0.0
210
0.0
220
0.0
230
1.0
  2
SOLID
 70
     1
 71
     0
 91
        3
 92
        1
 93
        1
 72
     4
 94
        3
 73
     0
 74
     1
 95
       53
 96
       49
 40
0.0
 40
0.0
 40
0.0
 40
0.0
 40
1.0
 40
1.0
 40
1.0
 40
2.0
 40
2.0
 40
2.0
 40
3.0
 40
3.0
 40
3.0
 40
4.0
 40
4.0
 40
4.0
 40
5.0
 40
5.0
 40
5.0
 40
6.0
 40
6.0
 40
6.0
 40
7.0
 40
7.0
 40
7.0
 40
8.0
 40
8.0
 40
8.0
 40
9.0
 40
9.0
 40
9.0
 40
10.0
 40
10.0
 40
10.0
 40
11.0
 40
11.0
 40
11.0
 40
12.0
 40
12.0
 40
12.0
 40
13.0
 40
13.0
 40
13.0
 40
14.0
 40
14.0
 40
14.0
 40
15.0
 40
15.0
 40
15.0
 40
16.0
 40
16.0
 40
16.0
 40
16.0
 10
124.104052703349
 20
-156.7487439929309
 10
124.0365288318381
 20
-156.9013617229274
 10
123.9941541573695
 20
-156.9795653904426
 10
123.9559135974832
 20
-157.0470892619535
 10
123.9982882719518
 20
-157.0684488539621
 10
124.0024223865341
 20
-157.0705159112532
 10
124.0024223865341
 20
-157.0853298218398
 10
124.0024223865341
 20
-157.0980766751352
 10
123.9686604507787
 20
-157.1318386108907
 10
123.9579806547744
 20
-157.1401068400553
 10
123.9559135974832
 20
-157.336821792263
 10
123.9559135974832
 20
-157.3581813842716
 10
123.9559135974832
 20
-157.4915065795507
 10
123.9538465401921
 20
-157.5042534328462
 10
123.9538465401921
 20
-157.5190673434327
 10
123.9538465401921
 20
-157.5338812540193
 10
123.9538465401921
 20
-157.5338812540193
 10
123.9538465401921
 20
-158.0689045828786
 10
123.9538465401921
 20
-158.0689045828786
 10
123.9538465401921
 20
-158.1409070785203
 10
123.9579806547744
 20
-158.3758625906144
 10
123.9665933934875
 20
-158.4857611365939
 10
123.9665933934875
 20
-158.4857611365939
 10
123.7233696522289
 20
-158.4857611365939
 10
123.7233696522289
 20
-158.4857611365939
 10
123.7464517919801
 20
-158.3269422347238
 10
123.752997473402
 20
-158.0857855507563
 10
123.752997473402
 20
-158.0647704682963
 10
123.752997473402
 20
-158.0647704682963
 10
123.752997473402
 20
-157.3475015882673
 10
123.752997473402
 20
-157.3475015882673
 10
123.6620469525914
 20
-157.4618787583776
 10
123.600724252954
 20
-157.5211344007239
 10
123.5583495784854
 20
-157.5635090751925
 10
123.5583495784854
 20
-157.5635090751925
 10
123.3678357981511
 20
-157.4257052557825
 10
123.3678357981511
 20
-157.4257052557825
 10
123.649300099296
 20
-157.2100422784058
 10
123.8418809369215
 20
-156.9013617229274
 10
123.9538465401921
 20
-156.5647758940185
 10
123.9538465401921
 20
-156.5647758940185
 10
124.1739881416996
 20
-156.6791530641288
 10
124.1739881416996
 20
-156.6791530641288
 10
124.186734994995
 20
-156.6853542360023
 10
124.1950032241596
 20
-156.6894883505846
 10
124.1950032241596
 20
-156.7043022611712
 10
124.1950032241596
 20
-156.729795967762
 10
124.1781222562819
 20
-156.7339300823443
 10
124.104052703349
 20
-156.7487439929309
 97
        0
 97
        0
 92
        1
 93
        1
 72
     4
 94
        3
 73
     0
 74
     1
 95
       77
 96
       73
 40
0.0
 40
0.0
 40
0.0
 40
0.0
 40
1.0
 40
1.0
 40
1.0
 40
2.0
 40
2.0
 40
2.0
 40
3.0
 40
3.0
 40
3.0
 40
4.0
 40
4.0
 40
4.0
 40
5.0
 40
5.0
 40
5.0
 40
6.0
 40
6.0
 40
6.0
 40
7.0
 40
7.0
 40
7.0
 40
8.0
 40
8.0
 40
8.0
 40
9.0
 40
9.0
 40
9.0
 40
10.0
 40
10.0
 40
10.0
 40
11.0
 40
11.0
 40
11.0
 40
12.0
 40
12.0
 40
12.0
 40
13.0
 40
13.0
 40
13.0
 40
14.0
 40
14.0
 40
14.0
 40
15.0
 40
15.0
 40
15.0
 40
16.0
 40
16.0
 40
16.0
 40
17.0
 40
17.0
 40
17.0
 40
18.0
 40
18.0
 40
18.0
 40
19.0
 40
19.0
 40
19.0
 40
20.0
 40
20.0
 40
20.0
 40
21.0
 40
21.0
 40
21.0
 40
22.0
 40
22.0
 40
22.0
 40
23.0
 40
23.0
 40
23.0
 40
24.0
 40
24.0
 40
24.0
 40
24.0
 10
125.255059104971
 20
-157.2482828382921
 10
125.1851236666204
 20
-157.2438042141613
 10
125.117255285561
 20
-157.2438042141613
 10
125.0497314140501
 20
-157.2438042141613
 10
125.0497314140501
 20
-157.2438042141613
 10
125.0497314140501
 20
-158.0182616792455
 10
125.0497314140501
 20
-158.0182616792455
 10
125.0497314140501
 20
-158.2825005029641
 10
125.0476643567589
 20
-158.3121283241373
 10
125.0411186753369
 20
-158.3417561453104
 10
125.0073567395815
 20
-158.4750813405896
 10
124.9057264227666
 20
-158.4836940793027
 10
124.7303710625674
 20
-158.4836940793027
 10
124.69006344539
 20
-158.4836940793027
 10
124.6731824775123
 20
-158.4836940793027
 10
124.6328748603348
 20
-158.4792154551719
 10
124.6328748603348
 20
-158.4792154551719
 10
124.5081624037688
 20
-158.2380587712044
 10
124.5081624037688
 20
-158.2380587712044
 10
124.6246066311702
 20
-158.2697536496687
 10
124.7069444132677
 20
-158.2697536496687
 10
124.7303710625674
 20
-158.2697536496687
 10
124.7999619913695
 20
-158.2697536496687
 10
124.8340684366734
 20
-158.252872681791
 10
124.8382025512557
 20
-158.1960286062843
 10
124.8382025512557
 20
-158.1832817529889
 10
124.8402696085469
 20
-158.0857855507563
 10
124.8402696085469
 20
-158.0285969657012
 10
124.8402696085469
 20
-158.0285969657012
 10
124.8402696085469
 20
-157.2417371568701
 10
124.8402696085469
 20
-157.2417371568701
 10
124.8402696085469
 20
-157.2417371568701
 10
124.5460584541065
 20
-157.2417371568701
 10
124.5460584541065
 20
-157.2417371568701
 10
124.4003309150805
 20
-157.2417371568701
 10
124.2542588665059
 20
-157.2482828382921
 10
124.1102538752224
 20
-157.260685182039
 10
124.1102538752224
 20
-157.260685182039
 10
124.1102538752224
 20
-157.0536349433755
 10
124.1102538752224
 20
-157.0536349433755
 10
124.2604600383793
 20
-157.0660372871224
 10
124.4785345825957
 20
-157.0705159112532
 10
124.5460584541065
 20
-157.0705159112532
 10
124.5460584541065
 20
-157.0705159112532
 10
124.8402696085469
 20
-157.0705159112532
 10
124.8402696085469
 20
-157.0705159112532
 10
124.8382025512557
 20
-156.8017984634037
 10
124.8382025512557
 20
-156.7256618531797
 10
124.8295898125426
 20
-156.577522747314
 10
124.8295898125426
 20
-156.577522747314
 10
125.0876274643878
 20
-156.6157633072002
 10
125.0876274643878
 20
-156.6157633072002
 10
125.1024413749744
 20
-156.6178303644914
 10
125.117255285561
 20
-156.6240315363648
 10
125.117255285561
 20
-156.6450466188249
 10
125.117255285561
 20
-156.6643391535422
 10
125.1110541136875
 20
-156.6664062108334
 10
125.0538655286324
 20
-156.7001681465889
 10
125.0497314140501
 20
-156.778371814104
 10
125.0497314140501
 20
-156.7931857246906
 10
125.0497314140501
 20
-157.0705159112532
 10
125.227498341089
 20
-157.0660372871224
 10
125.2464463662578
 20
-157.0660372871224
 10
125.2802083020133
 20
-157.0619031725401
 10
125.331195715195
 20
-157.0577690579578
 10
125.3353298297773
 20
-157.0557020006666
 10
125.379771561537
 20
-157.0536349433755
 10
125.379771561537
 20
-157.0536349433755
 10
125.379771561537
 20
-157.260685182039
 10
125.379771561537
 20
-157.260685182039
 10
125.3501437403639
 20
-157.2586181247478
 10
125.2950222125999
 20
-157.2503498955832
 10
125.255059104971
 20
-157.2482828382921
 97
        0
 97
        0
 92
        1
 93
        1
 72
     4
 94
        3
 73
     0
 74
     1
 95
       20
 96
       16
 40
0.0
 40
0.0
 40
0.0
 40
0.0
 40
1.0
 40
1.0
 40
1.0
 40
2.0
 40
2.0
 40
2.0
 40
3.0
 40
3.0
 40
3.0
 40
4.0
 40
4.0
 40
4.0
 40
5.0
 40
5.0
 40
5.0
 40
5.0
 10
124.4847357544691
 20
-157.9738199474857
 10
124.4382269654182
 20
-157.7960530204468
 10
124.3410752727342
 20
-157.6544595960031
 10
124.2015489055816
 20
-157.5442165404751
 10
124.2015489055816
 20
-157.5442165404751
 10
124.3620903551942
 20
-157.4301838799133
 10
124.3620903551942
 20
-157.4301838799133
 10
124.4234130548317
 20
-157.4722140448334
 10
124.4637206720091
 20
-157.5063204901373
 10
124.5398572822331
 20
-157.6141519788256
 10
124.6201280070394
 20
-157.7305962062271
 10
124.641487599048
 20
-157.7833061671514
 10
124.6666367960903
 20
-157.8491074909197
 10
124.6666367960903
 20
-157.8491074909197
 10
124.4847357544691
 20
-157.9738199474857
 10
124.4847357544691
 20
-157.9738199474857
 97
        0
 97
        0
 75
     2
 76
     1
 98
        0
  0
ENDBLK
  5
1CA
330
1C7
100
AcDbEntity
  8
0
100
AcDbBlockEnd
  0
ENDSEC
  0
SECTION
  2
ENTITIES
  0
SPLINE
  5
41
330
1F
100
AcDbEntity
  8
_U+30EC_U+30A4_U+30E4_U+30FC 1
 62
   179
420
  2234388
370
     9
100
AcDbSpline
210
0.0
220
0.0
230
1.0
 70
    11
 71
     3
 72
    17
 73
    13
 74
     0
 42
0.0000000001
 43
0.0000000001
 12
1.0
 22
0.0
 32
0.0
 13
1.0
 23
0.0
 33
0.0
 40
0.0
 40
0.0
 40
0.0
 40
0.0
 40
1.0
 40
1.0
 40
1.0
 40
2.0
 40
2.0
 40
2.0
 40
3.0
 40
3.0
 40
3.0
 40
4.0
 40
4.0
 40
4.0
 40
4.0
 10
98.01309574643889
 20
-165.7267543378408
 30
0.0
 10
98.01309574643889
 20
-165.7817897382176
 30
0.0
 10
98.05789275367022
 20
-165.826592128411
 30
0.0
 10
98.11292815404708
 20
-165.826592128411
 30
0.0
 10
98.16796355442395
 20
-165.826592128411
 30
0.0
 10
98.21276056165559
 20
-165.7817897382176
 30
0.0
 10
98.21276056165559
 20
-165.7267543378408
 30
0.0
 10
98.21276056165559
 20
-165.6717243204256
 30
0.0
 10
98.16796355442395
 20
-165.6269219302323
 30
0.0
 10
98.11292815404708
 20
-165.6269219302323
 30
0.0
 10
98.05789275367022
 20
-165.6269219302323
 30
0.0
 10
98.01309574643889
 20
-165.6717243204256
 30
0.0
 10
98.01309574643889
 20
-165.7267543378408
 30
0.0
  0
SPLINE
  5
42
330
1F
100
AcDbEntity
  8
_U+30EC_U+30A4_U+30E4_U+30FC 1
 62
   179
420
  2234388
370
     9
100
AcDbSpline
210
0.0
220
0.0
230
1.0
 70
    11
 71
     3
 72
    17
 73
    13
 74
     0
 42
0.0000000001
 43
0.0000000001
 12
1.0
 22
0.0
 32
0.0
 13
1.0
 23
0.0
 33
0.0
 40
0.0
 40
0.0
 40
0.0
 40
0.0
 40
1.0
 40
1.0
 40
1.0
 40
2.0
 40
2.0
 40
2.0
 40
3.0
 40
3.0
 40
3.0
 40
4.0
 40
4.0
 40
4.0
 40
4.0
 10
88.01336159095271
 20
-165.7267543378408
 30
0.0
 10
88.01336159095271
 20
-165.7817897382176
 30
0.0
 10
88.05815859818404
 20
-165.826592128411
 30
0.0
 10
88.1131939985609
 20
-165.826592128411
 30
0.0
 10
88.16892918395821
 20
-165.826592128411
 30
0.0
 10
88.21373695711324
 20
-165.7817897382176
 30
0.0
 10
88.21373695711324
 20
-165.7267543378408
 30
0.0
 10
88.21373695711324
 20
-165.6717243204256
 30
0.0
 10
88.16892918395821
 20
-165.6269219302323
 30
0.0
 10
88.1131939985609
 20
-165.6269219302323
 30
0.0
 10
88.05815859818404
 20
-165.6269219302323
 30
0.0
 10
88.01336159095271
 20
-165.6717243204256
 30
0.0
 10
88.01336159095271
 20
-165.7267543378408
 30
0.0
  0
POLYLINE
  5
43
330
1F
100
AcDbEntity
  8
_U+30EC_U+30A4_U+30E4_U+30FC 1
 62
   179
420
  2234388
370
     9
100
AcDb2dPolyline
 66
     1
 10
0.0
 20
0.0
 30
0.0
  0
VERTEX
  5
44
330
43
100
AcDbEntity
  8
_U+30EC_U+30A4_U+30E4_U+30FC 1
 62
   179
420
  2234388
370
     9
100
AcDbVertex
100
AcDb2dVertex
 10
88.11326936002496
 20
-164.7269822450596
 30
0.0
  0
VERTEX
  5
45
330
43
100
AcDbEntity
  8
_U+30EC_U+30A4_U+30E4_U+30FC 1
 62
   179
420
  2234388
370
     9
100
AcDbVertex
100
AcDb2dVertex
 10
88.11326936002496
 20
-166.7272369815658
 30
0.0
  0
SEQEND
  5
46
330
43
100
AcDbEntity
  8
_U+30EC_U+30A4_U+30E4_U+30FC 1
 62
   179
420
  2234388
370
     9
  0
POLYLINE
  5
47
330
1F
100
AcDbEntity
  8
_U+30EC_U+30A4_U+30E4_U+30FC 1
 62
   179
420
  2234388
370
     9
100
AcDb2dPolyline
 66
     1
 10
0.0
 20
0.0
 30
0.0
  0
VERTEX
  5
48
330
47
100
AcDbEntity
  8
_U+30EC_U+30A4_U+30E4_U+30FC 1
 62
   179
420
  2234388
370
     9
100
AcDbVertex
100
AcDb2dVertex
 10
88.11326936002496
 20
-165.7267543378408
 30
0.0
  0
VERTEX
  5
49
330
47
100
AcDbEntity
  8
_U+30EC_U+30A4_U+30E4_U+30FC 1
 62
   179
420
  2234388
370
     9
100
AcDbVertex
100
AcDb2dVertex
 10
98.11310040882134
 20
-165.7267543378408
 30
0.0
  0
SEQEND
  5
4A
330
47
100
AcDbEntity
  8
_U+30EC_U+30A4_U+30E4_U+30FC 1
 62
   179
420
  2234388
370
     9
  0
POLYLINE
  5
4B
330
1F
100
AcDbEntity
  8
_U+30EC_U+30A4_U+30E4_U+30FC 1
 62
   179
420
  2234388
370
     9
100
AcDb2dPolyline
 66
     1
 10
0.0
 20
0.0
 30
0.0
  0
VERTEX
  5
4C
330
4B
100
AcDbEntity
  8
_U+30EC_U+30A4_U+30E4_U+30FC 1
 62
   179
420
  2234388
370
     9
100
AcDbVertex
100
AcDb2dVertex
 10
98.11300351551114
 20
-148.0713559098409
 30
0.0
  0
VERTEX
  5
4D
330
4B
100
AcDbEntity
  8
_U+30EC_U+30A4_U+30E4_U+30FC 1
 62
   179
420
  2234388
370
     9
100
AcDbVertex
100
AcDb2dVertex
 10
98.11300351551114
 20
-166.7273069600679
 30
0.0
  0
SEQEND
  5
4E
330
4B
100
AcDbEntity
  8
_U+30EC_U+30A4_U+30E4_U+30FC 1
 62
   179
420
  2234388
370
     9
  0
INSERT
  5
50
330
1F
100
AcDbEntity
  8
_U+30EC_U+30A4_U+30E4_U+30FC 1
100
AcDbBlockReference
  2
block 2
 10
0.0
 20
0.0
 30
0.0
  0
POLYLINE
  5
58
330
1F
100
AcDbEntity
  8
_U+30EC_U+30A4_U+30E4_U+30FC 1
 62
   179
420
  2234388
370
    25
100
AcDb2dPolyline
 66
     1
 10
0.0
 20
0.0
 30
0.0
  0
VERTEX
  5
59
330
58
100
AcDbEntity
  8
_U+30EC_U+30A4_U+30E4_U+30FC 1
 62
   179
420
  2234388
370
    25
100
AcDbVertex
100
AcDb2dVertex
 10
88.31103937272476
 20
-138.6765589897178
 30
0.0
  0
VERTEX
  5
5A
330
58
100
AcDbEntity
  8
_U+30EC_U+30A4_U+30E4_U+30FC 1
 62
   179
420
  2234388
370
    25
100
AcDbVertex
100
AcDb2dVertex
 10
88.09830472651059
 20
-139.1609286490205
 30
0.0
  0
VERTEX
  5
5B
330
58
100
AcDbEntity
  8
_U+30EC_U+30A4_U+30E4_U+30FC 1
 62
   179
420
  2234388
370
    25
100
AcDbVertex
100
AcDb2dVertex
 10
88.28563179352105
 20
-139.6551706600735
 30
0.0
  0
VERTEX
  5
5C
330
58
100
AcDbEntity
  8
_U+30EC_U+30A4_U+30E4_U+30FC 1
 62
   179
420
  2234388
370
    25
100
AcDbVertex
100
AcDb2dVertex
 10
88.07326318870217
 20
-140.1395295534525
 30
0.0
  0
VERTEX
  5
5D
330
58
100
AcDbEntity
  8
_U+30EC_U+30A4_U+30E4_U+30FC 1
 62
   179
420
  2234388
370
    25
100
AcDbVertex
100
AcDb2dVertex
 10
88.2598797047688
 20
-140.6348373909209
 30
0.0
  0
VERTEX
  5
5E
330
58
100
AcDbEntity
  8
_U+30EC_U+30A4_U+30E4_U+30FC 1
 62
   179
420
  2234388
370
    25
100
AcDbVertex
100
AcDb2dVertex
 10
88.04786637542185
 20
-141.1195515597722
 30
0.0
  0
VERTEX
  5
5F
330
58
100
AcDbEntity
  8
_U+30EC_U+30A4_U+30E4_U+30FC 1
 62
   179
420
  2234388
370
    25
100
AcDbVertex
100
AcDb2dVertex
 10
88.23448289148847
 20
-141.6141488462968
 30
0.0
  0
VERTEX
  5
60
330
58
100
AcDbEntity
  8
_U+30EC_U+30A4_U+30E4_U+30FC 1
 62
   179
420
  2234388
370
    25
100
AcDbVertex
100
AcDb2dVertex
 10
88.02245879621813
 20
-142.0981524642042
 30
0.0
  0
VERTEX
  5
61
330
58
100
AcDbEntity
  8
_U+30EC_U+30A4_U+30E4_U+30FC 1
 62
   179
420
  2234388
370
    25
100
AcDbVertex
100
AcDb2dVertex
 10
88.20943058775667
 20
-142.5931050262007
 30
0.0
  0
VERTEX
  5
62
330
58
100
AcDbEntity
  8
_U+30EC_U+30A4_U+30E4_U+30FC 1
 62
   179
420
  2234388
370
    25
100
AcDbVertex
100
AcDb2dVertex
 10
87.99670670746589
 20
-143.0771194100315
 30
0.0
  0
VERTEX
  5
63
330
58
100
AcDbEntity
  8
_U+30EC_U+30A4_U+30E4_U+30FC 1
 62
   179
420
  2234388
370
    25
100
AcDbVertex
100
AcDb2dVertex
 10
88.18403377447635
 20
-143.5720612061046
 30
0.0
  0
VERTEX
  5
64
330
58
100
AcDbEntity
  8
_U+30EC_U+30A4_U+30E4_U+30FC 1
 62
   179
420
  2234388
370
    25
100
AcDbVertex
100
AcDb2dVertex
 10
87.97130989418557
 20
-144.0564200994839
 30
0.0
  0
VERTEX
  5
65
330
58
100
AcDbEntity
  8
_U+30EC_U+30A4_U+30E4_U+30FC 1
 62
   179
420
  2234388
370
    25
100
AcDbVertex
100
AcDb2dVertex
 10
88.1582816857241
 20
-144.5517225539907
 30
0.0
  0
VERTEX
  5
66
330
58
100
AcDbEntity
  8
_U+30EC_U+30A4_U+30E4_U+30FC 1
 62
   179
420
  2234388
370
    25
100
AcDbVertex
100
AcDb2dVertex
 10
87.94591308090524
 20
-145.0360868303317
 30
0.0
  0
VERTEX
  5
67
330
58
100
AcDbEntity
  8
_U+30EC_U+30A4_U+30E4_U+30FC 1
 62
   179
420
  2234388
370
    25
100
AcDbVertex
100
AcDb2dVertex
 10
88.13322938199231
 20
-145.5310340093665
 30
0.0
  0
VERTEX
  5
68
330
58
100
AcDbEntity
  8
_U+30EC_U+30A4_U+30E4_U+30FC 1
 62
   179
420
  2234388
370
    25
100
AcDbVertex
100
AcDb2dVertex
 10
87.92050550170151
 20
-146.0153982857075
 30
0.0
  0
VERTEX
  5
69
330
58
100
AcDbEntity
  8
_U+30EC_U+30A4_U+30E4_U+30FC 1
 62
   179
420
  2234388
370
    25
100
AcDbVertex
100
AcDb2dVertex
 10
88.10783256871198
 20
-146.5082299607959
 30
0.0
  0
VERTEX
  5
6A
330
58
100
AcDbEntity
  8
_U+30EC_U+30A4_U+30E4_U+30FC 1
 62
   179
420
  2234388
370
    25
100
AcDbVertex
100
AcDb2dVertex
 10
87.89510868842152
 20
-146.9908286257008
 30
0.0
  0
VERTEX
  5
6B
330
58
100
AcDbEntity
  8
_U+30EC_U+30A4_U+30E4_U+30FC 1
 62
   179
420
  2234388
370
    25
100
AcDbVertex
100
AcDb2dVertex
 10
88.08243575543197
 20
-147.4840101932994
 30
0.0
  0
VERTEX
  5
6C
330
58
100
AcDbEntity
  8
_U+30EC_U+30A4_U+30E4_U+30FC 1
 62
   179
420
  2234388
370
    25
100
AcDbVertex
100
AcDb2dVertex
 10
87.87006715061278
 20
-147.967319409148
 30
0.0
  0
VERTEX
  5
6D
330
58
100
AcDbEntity
  8
_U+30EC_U+30A4_U+30E4_U+30FC 1
 62
   179
420
  2234388
370
    25
100
AcDbVertex
100
AcDb2dVertex
 10
88.05668366667973
 20
-148.4612061447288
 30
0.0
  0
VERTEX
  5
6E
330
58
100
AcDbEntity
  8
_U+30EC_U+30A4_U+30E4_U+30FC 1
 62
   179
420
  2234388
370
    25
100
AcDbVertex
100
AcDb2dVertex
 10
87.84465957140907
 20
-148.9455704210698
 30
0.0
  0
VERTEX
  5
6F
330
58
100
AcDbEntity
  8
_U+30EC_U+30A4_U+30E4_U+30FC 1
 62
   179
420
  2234388
370
    25
100
AcDbVertex
100
AcDb2dVertex
 10
88.03127608747602
 20
-149.441572660597
 30
0.0
  0
VERTEX
  5
70
330
58
100
AcDbEntity
  8
_U+30EC_U+30A4_U+30E4_U+30FC 1
 62
   179
420
  2234388
370
    25
100
AcDbVertex
100
AcDb2dVertex
 10
87.81890748265683
 20
-149.9262922124099
 30
0.0
  0
VERTEX
  5
71
330
58
100
AcDbEntity
  8
_U+30EC_U+30A4_U+30E4_U+30FC 1
 62
   179
420
  2234388
370
    25
100
AcDbVertex
100
AcDb2dVertex
 10
88.00587927419537
 20
-150.4201789479907
 30
0.0
  0
VERTEX
  5
72
330
58
100
AcDbEntity
  8
_U+30EC_U+30A4_U+30E4_U+30FC 1
 62
   179
420
  2234388
370
    25
100
AcDbVertex
100
AcDb2dVertex
 10
87.7935106693765
 20
-150.9038380563496
 30
0.0
  0
VERTEX
  5
73
330
58
100
AcDbEntity
  8
_U+30EC_U+30A4_U+30E4_U+30FC 1
 62
   179
420
  2234388
370
    25
100
AcDbVertex
100
AcDb2dVertex
 10
87.98048246091504
 20
-151.3980800674022
 30
0.0
  0
VERTEX
  5
74
330
58
100
AcDbEntity
  8
_U+30EC_U+30A4_U+30E4_U+30FC 1
 62
   179
420
  2234388
370
    25
100
AcDbVertex
100
AcDb2dVertex
 10
87.76811385609616
 20
-151.8831495117254
 30
0.0
  0
VERTEX
  5
75
330
58
100
AcDbEntity
  8
_U+30EC_U+30A4_U+30E4_U+30FC 1
 62
   179
420
  2234388
370
    25
100
AcDbVertex
100
AcDb2dVertex
 10
87.95508564763472
 20
-152.3784519662321
 30
0.0
  0
VERTEX
  5
76
330
58
100
AcDbEntity
  8
_U+30EC_U+30A4_U+30E4_U+30FC 1
 62
   179
420
  2234388
370
    25
100
AcDbVertex
100
AcDb2dVertex
 10
87.74270627689245
 20
-152.8642265785374
 30
0.0
  0
VERTEX
  5
77
330
58
100
AcDbEntity
  8
_U+30EC_U+30A4_U+30E4_U+30FC 1
 62
   179
420
  2234388
370
    25
100
AcDbVertex
100
AcDb2dVertex
 10
87.9300333439029
 20
-153.357408146136
 30
0.0
  0
VERTEX
  5
78
330
58
100
AcDbEntity
  8
_U+30EC_U+30A4_U+30E4_U+30FC 1
 62
   179
420
  2234388
370
    25
100
AcDbVertex
100
AcDb2dVertex
 10
87.7169541881402
 20
-153.8417724224771
 30
0.0
  0
VERTEX
  5
79
330
58
100
AcDbEntity
  8
_U+30EC_U+30A4_U+30E4_U+30FC 1
 62
   179
420
  2234388
370
    25
100
AcDbVertex
100
AcDb2dVertex
 10
87.90463653062258
 20
-154.3367196015118
 30
0.0
  0
VERTEX
  5
7A
330
58
100
AcDbEntity
  8
_U+30EC_U+30A4_U+30E4_U+30FC 1
 62
   179
420
  2234388
370
    25
100
AcDbVertex
100
AcDb2dVertex
 10
87.69155737485988
 20
-154.821789045835
 30
0.0
  0
VERTEX
  5
7B
330
58
100
AcDbEntity
  8
_U+30EC_U+30A4_U+30E4_U+30FC 1
 62
   179
420
  2234388
370
    25
100
AcDbVertex
100
AcDb2dVertex
 10
87.87888444187034
 20
-155.3170861173801
 30
0.0
  0
VERTEX
  5
7C
330
58
100
AcDbEntity
  8
_U+30EC_U+30A4_U+30E4_U+30FC 1
 62
   179
420
  2234388
370
    25
100
AcDbVertex
100
AcDb2dVertex
 10
87.66616056157956
 20
-155.8014503937211
 30
0.0
  0
VERTEX
  5
7D
330
58
100
AcDbEntity
  8
_U+30EC_U+30A4_U+30E4_U+30FC 1
 62
   179
420
  2234388
370
    25
100
AcDbVertex
100
AcDb2dVertex
 10
87.85347686266662
 20
-156.2967528482278
 30
0.0
  0
VERTEX
  5
7E
330
58
100
AcDbEntity
  8
_U+30EC_U+30A4_U+30E4_U+30FC 1
 62
   179
420
  2234388
370
    25
100
AcDbVertex
100
AcDb2dVertex
 10
87.64110825784776
 20
-156.7811171245688
 30
0.0
  0
VERTEX
  5
7F
330
58
100
AcDbEntity
  8
_U+30EC_U+30A4_U+30E4_U+30FC 1
 62
   179
420
  2234388
370
    25
100
AcDbVertex
100
AcDb2dVertex
 10
87.8280800493863
 20
-157.27817980755
 30
0.0
  0
VERTEX
  5
80
330
58
100
AcDbEntity
  8
_U+30EC_U+30A4_U+30E4_U+30FC 1
 62
   179
420
  2234388
370
    25
100
AcDbVertex
100
AcDb2dVertex
 10
87.6150008936236
 20
-157.7650148633094
 30
0.0
  0
VERTEX
  5
81
330
58
100
AcDbEntity
  8
_U+30EC_U+30A4_U+30E4_U+30FC 1
 62
   179
420
  2234388
370
    25
100
AcDbVertex
100
AcDb2dVertex
 10
87.80268323610598
 20
-158.2620775462906
 30
0.0
  0
VERTEX
  5
82
330
58
100
AcDbEntity
  8
_U+30EC_U+30A4_U+30E4_U+30FC 1
 62
   179
420
  2234388
370
    25
100
AcDbVertex
100
AcDb2dVertex
 10
87.58960408034328
 20
-158.7482074340678
 30
0.0
  0
VERTEX
  5
83
330
58
100
AcDbEntity
  8
_U+30EC_U+30A4_U+30E4_U+30FC 1
 62
   179
420
  2234388
370
    25
100
AcDbVertex
100
AcDb2dVertex
 10
87.77693114735374
 20
-159.245270117049
 30
0.0
  0
VERTEX
  5
84
330
58
100
AcDbEntity
  8
_U+30EC_U+30A4_U+30E4_U+30FC 1
 62
   179
420
  2234388
370
    25
100
AcDbVertex
100
AcDb2dVertex
 10
87.56420726706327
 20
-159.7324550653186
 30
0.0
  0
VERTEX
  5
85
330
58
100
AcDbEntity
  8
_U+30EC_U+30A4_U+30E4_U+30FC 1
 62
   179
420
  2234388
370
    25
100
AcDbVertex
100
AcDb2dVertex
 10
87.7511790586015
 20
-160.2298730237717
 30
0.0
  0
VERTEX
  5
86
330
58
100
AcDbEntity
  8
_U+30EC_U+30A4_U+30E4_U+30FC 1
 62
   179
420
  2234388
370
    25
100
AcDbVertex
100
AcDb2dVertex
 10
87.53879968785955
 20
-160.7174132475133
 30
0.0
  0
VERTEX
  5
87
330
58
100
AcDbEntity
  8
_U+30EC_U+30A4_U+30E4_U+30FC 1
 62
   179
420
  2234388
370
    25
100
AcDbVertex
100
AcDb2dVertex
 10
87.72577147939778
 20
-161.2151810984766
 30
0.0
  0
VERTEX
  5
88
330
58
100
AcDbEntity
  8
_U+30EC_U+30A4_U+30E4_U+30FC 1
 62
   179
420
  2234388
370
    25
100
AcDbVertex
100
AcDb2dVertex
 10
87.51304759910731
 20
-161.7009557107819
 30
0.0
  0
VERTEX
  5
89
330
58
100
AcDbEntity
  8
_U+30EC_U+30A4_U+30E4_U+30FC 1
 62
   179
420
  2234388
370
    25
100
AcDbVertex
100
AcDb2dVertex
 10
87.70037466611777
 20
-162.1976685012529
 30
0.0
  0
VERTEX
  5
8A
330
58
100
AcDbEntity
  8
_U+30EC_U+30A4_U+30E4_U+30FC 1
 62
   179
420
  2234388
370
    25
100
AcDbVertex
100
AcDb2dVertex
 10
87.48765078582666
 20
-162.6834431135582
 30
0.0
  0
VERTEX
  5
8B
330
58
100
AcDbEntity
  8
_U+30EC_U+30A4_U+30E4_U+30FC 1
 62
   179
420
  2234388
370
    25
100
AcDbVertex
100
AcDb2dVertex
 10
87.67462257736553
 20
-163.1787401851032
 30
0.0
  0
VERTEX
  5
8C
330
58
100
AcDbEntity
  8
_U+30EC_U+30A4_U+30E4_U+30FC 1
 62
   179
420
  2234388
370
    25
100
AcDbVertex
100
AcDb2dVertex
 10
87.46225397254634
 20
-163.6631044614442
 30
0.0
  0
SEQEND
  5
8D
330
58
100
AcDbEntity
  8
_U+30EC_U+30A4_U+30E4_U+30FC 1
 62
   179
420
  2234388
370
    25
  0
POLYLINE
  5
8E
330
1F
100
AcDbEntity
  8
_U+30EC_U+30A4_U+30E4_U+30FC 1
 62
   179
420
  2234388
370
    25
100
AcDb2dPolyline
 66
     1
 10
0.0
 20
0.0
 30
0.0
  0
VERTEX
  5
8F
330
8E
100
AcDbEntity
  8
_U+30EC_U+30A4_U+30E4_U+30FC 1
 62
   179
420
  2234388
370
    25
100
AcDbVertex
100
AcDb2dVertex
 10
87.56205408238499
 20
-163.6655806238243
 30
0.0
  0
VERTEX
  5
90
330
8E
100
AcDbEntity
  8
_U+30EC_U+30A4_U+30E4_U+30FC 1
 62
   179
420
  2234388
370
    25
100
AcDbVertex
100
AcDb2dVertex
 10
87.16164785961182
 20
-163.6549977211305
 30
0.0
  0
SEQEND
  5
91
330
8E
100
AcDbEntity
  8
_U+30EC_U+30A4_U+30E4_U+30FC 1
 62
   179
420
  2234388
370
    25
  0
POLYLINE
  5
92
330
1F
100
AcDbEntity
  8
_U+30EC_U+30A4_U+30E4_U+30FC 1
 62
   179
420
  2234388
370
    25
100
AcDb2dPolyline
 66
     1
 10
0.0
 20
0.0
 30
0.0
  0
VERTEX
  5
93
330
92
100
AcDbEntity
  8
_U+30EC_U+30A4_U+30E4_U+30FC 1
 62
   179
420
  2234388
370
    25
100
AcDbVertex
100
AcDb2dVertex
 10
87.16175551884541
 20
-163.6548900618966
 30
0.0
  0
VERTEX
  5
94
330
92
100
AcDbEntity
  8
_U+30EC_U+30A4_U+30E4_U+30FC 1
 62
   179
420
  2234388
370
    25
100
AcDbVertex
100
AcDb2dVertex
 10
87.21643564375036
 20
-137.6548190302564
 30
0.0
  0
SEQEND
  5
95
330
92
100
AcDbEntity
  8
_U+30EC_U+30A4_U+30E4_U+30FC 1
 62
   179
420
  2234388
370
    25
  0
POLYLINE
  5
96
330
1F
100
AcDbEntity
  8
_U+30EC_U+30A4_U+30E4_U+30FC 1
 62
   179
420
  2234388
370
    25
100
AcDb2dPolyline
 66
     1
 10
0.0
 20
0.0
 30
0.0
  0
VERTEX
  5
97
330
96
100
AcDbEntity
  8
_U+30EC_U+30A4_U+30E4_U+30FC 1
 62
   179
420
  2234388
370
    25
100
AcDbVertex
100
AcDb2dVertex
 10
98.23322658202264
 20
-144.8140181285372
 30
0.0
  0
VERTEX
  5
98
330
96
100
AcDbEntity
  8
_U+30EC_U+30A4_U+30E4_U+30FC 1
 62
   179
420
  2234388
370
    25
100
AcDbVertex
100
AcDb2dVertex
 10
98.76626898097793
 20
-145.0009953030374
 30
0.0
  0
VERTEX
  5
99
330
96
100
AcDbEntity
  8
_U+30EC_U+30A4_U+30E4_U+30FC 1
 62
   179
420
  2234388
370
    25
100
AcDbVertex
100
AcDb2dVertex
 10
99.2897943036552
 20
-144.7886213152572
 30
0.0
  0
VERTEX
  5
9A
330
96
100
AcDbEntity
  8
_U+30EC_U+30A4_U+30E4_U+30FC 1
 62
   179
420
  2234388
370
    25
100
AcDbVertex
100
AcDb2dVertex
 10
99.82389176310284
 20
-144.9755931067954
 30
0.0
  0
VERTEX
  5
9B
330
96
100
AcDbEntity
  8
_U+30EC_U+30A4_U+30E4_U+30FC 1
 62
   179
420
  2234388
370
    25
100
AcDbVertex
100
AcDb2dVertex
 10
100.348127636724
 20
-144.7628692265049
 30
0.0
  0
VERTEX
  5
9C
330
96
100
AcDbEntity
  8
_U+30EC_U+30A4_U+30E4_U+30FC 1
 62
   179
420
  2234388
370
    25
100
AcDbVertex
100
AcDb2dVertex
 10
100.8815253111512
 20
-144.9501909105534
 30
0.0
  0
VERTEX
  5
9D
330
96
100
AcDbEntity
  8
_U+30EC_U+30A4_U+30E4_U+30FC 1
 62
   179
420
  2234388
370
    25
100
AcDbVertex
100
AcDb2dVertex
 10
101.4050506338288
 20
-144.7378223057345
 30
0.0
  0
VERTEX
  5
9E
330
96
100
AcDbEntity
  8
_U+30EC_U+30A4_U+30E4_U+30FC 1
 62
   179
420
  2234388
370
    25
100
AcDbVertex
100
AcDb2dVertex
 10
101.9384483082556
 20
-144.924794097273
 30
0.0
  0
VERTEX
  5
9F
330
96
100
AcDbEntity
  8
_U+30EC_U+30A4_U+30E4_U+30FC 1
 62
   179
420
  2234388
370
    25
100
AcDbVertex
100
AcDb2dVertex
 10
102.4612630799891
 20
-144.7124201094925
 30
0.0
  0
VERTEX
  5
A0
330
96
100
AcDbEntity
  8
_U+30EC_U+30A4_U+30E4_U+30FC 1
 62
   179
420
  2234388
370
    25
100
AcDbVertex
100
AcDb2dVertex
 10
102.9943054789444
 20
-144.899391901031
 30
0.0
  0
VERTEX
  5
A1
330
96
100
AcDbEntity
  8
_U+30EC_U+30A4_U+30E4_U+30FC 1
 62
   179
420
  2234388
370
    25
100
AcDbVertex
100
AcDb2dVertex
 10
103.5174755261497
 20
-144.6870232962121
 30
0.0
  0
VERTEX
  5
A2
330
96
100
AcDbEntity
  8
_U+30EC_U+30A4_U+30E4_U+30FC 1
 62
   179
420
  2234388
370
    25
100
AcDbVertex
100
AcDb2dVertex
 10
104.0501734155565
 20
-144.8743449802609
 30
0.0
  0
VERTEX
  5
A3
330
96
100
AcDbEntity
  8
_U+30EC_U+30A4_U+30E4_U+30FC 1
 62
   179
420
  2234388
370
    25
100
AcDbVertex
100
AcDb2dVertex
 10
104.5740540137057
 20
-144.6612658244982
 30
0.0
  0
VERTEX
  5
A4
330
96
100
AcDbEntity
  8
_U+30EC_U+30A4_U+30E4_U+30FC 1
 62
   179
420
  2234388
370
    25
100
AcDbVertex
100
AcDb2dVertex
 10
105.107096412661
 20
-144.8489481669806
 30
0.0
  0
VERTEX
  5
A5
330
96
100
AcDbEntity
  8
_U+30EC_U+30A4_U+30E4_U+30FC 1
 62
   179
420
  2234388
370
    25
100
AcDbVertex
100
AcDb2dVertex
 10
105.6309662448867
 20
-144.6358690112179
 30
0.0
  0
VERTEX
  5
A6
330
96
100
AcDbEntity
  8
_U+30EC_U+30A4_U+30E4_U+30FC 1
 62
   179
420
  2234388
370
    25
100
AcDbVertex
100
AcDb2dVertex
 10
106.1647191947859
 20
-144.8231906952666
 30
0.0
  0
VERTEX
  5
A7
330
96
100
AcDbEntity
  8
_U+30EC_U+30A4_U+30E4_U+30FC 1
 62
   179
420
  2234388
370
    25
100
AcDbVertex
100
AcDb2dVertex
 10
106.688955068407
 20
-144.6108220904478
 30
0.0
  0
VERTEX
  5
A8
330
96
100
AcDbEntity
  8
_U+30EC_U+30A4_U+30E4_U+30FC 1
 62
   179
420
  2234388
370
    25
100
AcDbVertex
100
AcDb2dVertex
 10
107.2216421918903
 20
-144.7977938819863
 30
0.0
  0
VERTEX
  5
A9
330
96
100
AcDbEntity
  8
_U+30EC_U+30A4_U+30E4_U+30FC 1
 62
   179
420
  2234388
370
    25
100
AcDbVertex
100
AcDb2dVertex
 10
107.7448122390957
 20
-144.5854198942058
 30
0.0
  0
VERTEX
  5
AA
330
96
100
AcDbEntity
  8
_U+30EC_U+30A4_U+30E4_U+30FC 1
 62
   179
420
  2234388
370
    25
100
AcDbVertex
100
AcDb2dVertex
 10
108.2782206794463
 20
-144.7723916857443
 30
0.0
  0
VERTEX
  5
AB
330
96
100
AcDbEntity
  8
_U+30EC_U+30A4_U+30E4_U+30FC 1
 62
   179
420
  2234388
370
    25
100
AcDbVertex
100
AcDb2dVertex
 10
108.8017352362002
 20
-144.5600230809254
 30
0.0
  0
VERTEX
  5
AC
330
96
100
AcDbEntity
  8
_U+30EC_U+30A4_U+30E4_U+30FC 1
 62
   179
420
  2234388
370
    25
100
AcDbVertex
100
AcDb2dVertex
 10
109.3358434615712
 20
-144.746994872464
 30
0.0
  0
VERTEX
  5
AD
330
96
100
AcDbEntity
  8
_U+30EC_U+30A4_U+30E4_U+30FC 1
 62
   179
420
  2234388
370
    25
100
AcDbVertex
100
AcDb2dVertex
 10
109.8600685692689
 20
-144.5346208846834
 30
0.0
  0
VERTEX
  5
AE
330
96
100
AcDbEntity
  8
_U+30EC_U+30A4_U+30E4_U+30FC 1
 62
   179
420
  2234388
370
    25
100
AcDbVertex
100
AcDb2dVertex
 10
110.3941660287166
 20
-144.7212427837117
 30
0.0
  0
VERTEX
  5
AF
330
96
100
AcDbEntity
  8
_U+30EC_U+30A4_U+30E4_U+30FC 1
 62
   179
420
  2234388
370
    25
100
AcDbVertex
100
AcDb2dVertex
 10
110.9173468418453
 20
-144.5092186884414
 30
0.0
  0
VERTEX
  5
B0
330
96
100
AcDbEntity
  8
_U+30EC_U+30A4_U+30E4_U+30FC 1
 62
   179
420
  2234388
370
    25
100
AcDbVertex
100
AcDb2dVertex
 10
111.4510997917444
 20
-144.6961904799799
 30
0.0
  0
VERTEX
  5
B1
330
96
100
AcDbEntity
  8
_U+30EC_U+30A4_U+30E4_U+30FC 1
 62
   179
420
  2234388
370
    25
100
AcDbVertex
100
AcDb2dVertex
 10
111.9760246844626
 20
-144.4834665996891
 30
0.0
  0
VERTEX
  5
B2
330
96
100
AcDbEntity
  8
_U+30EC_U+30A4_U+30E4_U+30FC 1
 62
   179
420
  2234388
370
    25
100
AcDbVertex
100
AcDb2dVertex
 10
112.5108326948541
 20
-144.6707936666996
 30
0.0
  0
VERTEX
  5
B3
330
96
100
AcDbEntity
  8
_U+30EC_U+30A4_U+30E4_U+30FC 1
 62
   179
420
  2234388
370
    25
100
AcDbVertex
100
AcDb2dVertex
 10
113.0364681385161
 20
-144.4580697864088
 30
0.0
  0
VERTEX
  5
B4
330
96
100
AcDbEntity
  8
_U+30EC_U+30A4_U+30E4_U+30FC 1
 62
   179
420
  2234388
370
    25
100
AcDbVertex
100
AcDb2dVertex
 10
113.5719866998514
 20
-144.6450415779474
 30
0.0
  0
VERTEX
  5
B5
330
96
100
AcDbEntity
  8
_U+30EC_U+30A4_U+30E4_U+30FC 1
 62
   179
420
  2234388
370
    25
100
AcDbVertex
100
AcDb2dVertex
 10
114.099043245401
 20
-144.4326675901668
 30
0.0
  0
VERTEX
  5
B6
330
96
100
AcDbEntity
  8
_U+30EC_U+30A4_U+30E4_U+30FC 1
 62
   179
420
  2234388
370
    25
100
AcDbVertex
100
AcDb2dVertex
 10
114.6349063162849
 20
-144.6192894891951
 30
0.0
  0
VERTEX
  5
B7
330
96
100
AcDbEntity
  8
_U+30EC_U+30A4_U+30E4_U+30FC 1
 62
   179
420
  2234388
370
    25
100
AcDbVertex
100
AcDb2dVertex
 10
115.1619628618345
 20
-144.4072653939248
 30
0.0
  0
VERTEX
  5
B8
330
96
100
AcDbEntity
  8
_U+30EC_U+30A4_U+30E4_U+30FC 1
 62
   179
420
  2234388
370
    25
100
AcDbVertex
100
AcDb2dVertex
 10
115.6988809932107
 20
-144.5938872929534
 30
0.0
  0
VERTEX
  5
B9
330
96
100
AcDbEntity
  8
_U+30EC_U+30A4_U+30E4_U+30FC 1
 62
   179
420
  2234388
370
    25
100
AcDbVertex
100
AcDb2dVertex
 10
116.2259375387604
 20
-144.3811634126623
 30
0.0
  0
VERTEX
  5
BA
330
96
100
AcDbEntity
  8
_U+30EC_U+30A4_U+30E4_U+30FC 1
 62
   179
420
  2234388
370
    25
100
AcDbVertex
100
AcDb2dVertex
 10
116.7607455491518
 20
-144.5684850967111
 30
0.0
  0
VERTEX
  5
BB
330
96
100
AcDbEntity
  8
_U+30EC_U+30A4_U+30E4_U+30FC 1
 62
   179
420
  2234388
370
    25
100
AcDbVertex
100
AcDb2dVertex
 10
117.2856919737168
 20
-144.3561164918922
 30
0.0
  0
VERTEX
  5
BC
330
96
100
AcDbEntity
  8
_U+30EC_U+30A4_U+30E4_U+30FC 1
 62
   179
420
  2234388
370
    25
100
AcDbVertex
100
AcDb2dVertex
 10
117.8201339427129
 20
-144.5427330079588
 30
0.0
  0
VERTEX
  5
BD
330
96
100
AcDbEntity
  8
_U+30EC_U+30A4_U+30E4_U+30FC 1
 62
   179
420
  2234388
370
    25
100
AcDbVertex
100
AcDb2dVertex
 10
118.3454248768264
 20
-144.3307142956502
 30
0.0
  0
VERTEX
  5
BE
330
96
100
AcDbEntity
  8
_U+30EC_U+30A4_U+30E4_U+30FC 1
 62
   179
420
  2234388
370
    25
100
AcDbVertex
100
AcDb2dVertex
 10
118.8798883776694
 20
-144.5173361946785
 30
0.0
  0
VERTEX
  5
BF
330
96
100
AcDbEntity
  8
_U+30EC_U+30A4_U+30E4_U+30FC 1
 62
   179
420
  2234388
370
    25
100
AcDbVertex
100
AcDb2dVertex
 10
119.4051793117828
 20
-144.3053174823698
 30
0.0
  0
VERTEX
  5
C0
330
96
100
AcDbEntity
  8
_U+30EC_U+30A4_U+30E4_U+30FC 1
 62
   179
420
  2234388
370
    25
100
AcDbVertex
100
AcDb2dVertex
 10
119.9396428126258
 20
-144.4919339984365
 30
0.0
  0
VERTEX
  5
C1
330
96
100
AcDbEntity
  8
_U+30EC_U+30A4_U+30E4_U+30FC 1
 62
   179
420
  2234388
370
    25
100
AcDbVertex
100
AcDb2dVertex
 10
120.4642231957954
 20
-144.2795600106559
 30
0.0
  0
VERTEX
  5
C2
330
96
100
AcDbEntity
  8
_U+30EC_U+30A4_U+30E4_U+30FC 1
 62
   179
420
  2234388
370
    25
100
AcDbVertex
100
AcDb2dVertex
 10
120.9979761456945
 20
-144.4665371851562
 30
0.0
  0
VERTEX
  5
C3
330
96
100
AcDbEntity
  8
_U+30EC_U+30A4_U+30E4_U+30FC 1
 62
   179
420
  2234388
370
    25
100
AcDbVertex
100
AcDb2dVertex
 10
121.5225565288642
 20
-144.2541631973756
 30
0.0
  0
VERTEX
  5
C4
330
96
100
AcDbEntity
  8
_U+30EC_U+30A4_U+30E4_U+30FC 1
 62
   179
420
  2234388
370
    25
100
AcDbVertex
100
AcDb2dVertex
 10
122.058419599748
 20
-144.4407797134422
 30
0.0
  0
VERTEX
  5
C5
330
96
100
AcDbEntity
  8
_U+30EC_U+30A4_U+30E4_U+30FC 1
 62
   179
420
  2234388
370
    25
100
AcDbVertex
100
AcDb2dVertex
 10
122.58405504341
 20
-144.2287610011336
 30
0.0
  0
VERTEX
  5
C6
330
96
100
AcDbEntity
  8
_U+30EC_U+30A4_U+30E4_U+30FC 1
 62
   179
420
  2234388
370
    25
100
AcDbVertex
100
AcDb2dVertex
 10
123.1181525028576
 20
-144.4153829001619
 30
0.0
  0
VERTEX
  5
C7
330
96
100
AcDbEntity
  8
_U+30EC_U+30A4_U+30E4_U+30FC 1
 62
   179
420
  2234388
370
    25
100
AcDbVertex
100
AcDb2dVertex
 10
123.6423883764787
 20
-144.2033641878533
 30
0.0
  0
VERTEX
  5
C8
330
96
100
AcDbEntity
  8
_U+30EC_U+30A4_U+30E4_U+30FC 1
 62
   179
420
  2234388
370
    25
100
AcDbVertex
100
AcDb2dVertex
 10
124.1750862658855
 20
-144.3899807039199
 30
0.0
  0
VERTEX
  5
C9
330
96
100
AcDbEntity
  8
_U+30EC_U+30A4_U+30E4_U+30FC 1
 62
   179
420
  2234388
370
    25
100
AcDbVertex
100
AcDb2dVertex
 10
124.6982455471675
 20
-144.177612099101
 30
0.0
  0
VERTEX
  5
CA
330
96
100
AcDbEntity
  8
_U+30EC_U+30A4_U+30E4_U+30FC 1
 62
   179
420
  2234388
370
    25
100
AcDbVertex
100
AcDb2dVertex
 10
125.229177825138
 20
-144.3649337831498
 30
0.0
  0
SEQEND
  5
CB
330
96
100
AcDbEntity
  8
_U+30EC_U+30A4_U+30E4_U+30FC 1
 62
   179
420
  2234388
370
    25
  0
POLYLINE
  5
CC
330
1F
100
AcDbEntity
  8
_U+30EC_U+30A4_U+30E4_U+30FC 1
 62
   179
420
  2234388
370
    25
100
AcDb2dPolyline
 66
     1
 10
0.0
 20
0.0
 30
0.0
  0
VERTEX
  5
CD
330
CC
100
AcDbEntity
  8
_U+30EC_U+30A4_U+30E4_U+30FC 1
 62
   179
420
  2234388
370
    25
100
AcDbVertex
100
AcDb2dVertex
 10
125.2272830226211
 20
-144.2648483763416
 30
0.0
  0
VERTEX
  5
CE
330
CC
100
AcDbEntity
  8
_U+30EC_U+30A4_U+30E4_U+30FC 1
 62
   179
420
  2234388
370
    25
100
AcDbVertex
100
AcDb2dVertex
 10
125.2170338635525
 20
-143.8644475365301
 30
0.0
  0
SEQEND
  5
CF
330
CC
100
AcDbEntity
  8
_U+30EC_U+30A4_U+30E4_U+30FC 1
 62
   179
420
  2234388
370
    25
  0
POLYLINE
  5
D0
330
1F
100
AcDbEntity
  8
_U+30EC_U+30A4_U+30E4_U+30FC 1
 62
   179
420
  2234388
370
    25
100
AcDb2dPolyline
 66
     1
 10
0.0
 20
0.0
 30
0.0
  0
VERTEX
  5
D1
330
D0
100
AcDbEntity
  8
_U+30EC_U+30A4_U+30E4_U+30FC 1
 62
   179
420
  2234388
370
    25
100
AcDbVertex
100
AcDb2dVertex
 10
125.2169477361654
 20
-143.8645121320704
 30
0.0
  0
VERTEX
  5
D2
330
D0
100
AcDbEntity
  8
_U+30EC_U+30A4_U+30E4_U+30FC 1
 62
   179
420
  2234388
370
    25
100
AcDbVertex
100
AcDb2dVertex
 10
98.26048590004969
 20
-143.9191976399371
 30
0.0
  0
SEQEND
  5
D3
330
D0
100
AcDbEntity
  8
_U+30EC_U+30A4_U+30E4_U+30FC 1
 62
   179
420
  2234388
370
    25
  0
SPLINE
  5
D4
330
1F
100
AcDbEntity
  8
_U+30EC_U+30A4_U+30E4_U+30FC 1
 62
   179
420
  2234388
370
     9
100
AcDbSpline
210
0.0
220
0.0
230
1.0
 70
    11
 71
     3
 72
    17
 73
    13
 74
     0
 42
0.0000000001
 43
0.0000000001
 12
1.0
 22
0.0
 32
0.0
 13
1.0
 23
0.0
 33
0.0
 40
0.0
 40
0.0
 40
0.0
 40
0.0
 40
1.0
 40
1.0
 40
1.0
 40
2.0
 40
2.0
 40
2.0
 40
3.0
 40
3.0
 40
3.0
 40
4.0
 40
4.0
 40
4.0
 40
4.0
 10
99.2161446217346
 20
-133.6553323199662
 30
0.0
 10
99.2161446217346
 20
-133.710367720343
 30
0.0
 10
99.26094162896624
 20
-133.7551754934981
 30
0.0
 10
99.3159770293431
 20
-133.7551754934981
 30
0.0
 10
99.37101242971997
 20
-133.7551754934981
 30
0.0
 10
99.4158094369516
 20
-133.710367720343
 30
0.0
 10
99.4158094369516
 20
-133.6553323199662
 30
0.0
 10
99.4158094369516
 20
-133.6003076855127
 30
0.0
 10
99.37101242971997
 20
-133.5554999123576
 30
0.0
 10
99.3159770293431
 20
-133.5554999123576
 30
0.0
 10
99.26094162896624
 20
-133.5554999123576
 30
0.0
 10
99.2161446217346
 20
-133.6003076855127
 30
0.0
 10
99.2161446217346
 20
-133.6553323199662
 30
0.0
  0
SPLINE
  5
D5
330
1F
100
AcDbEntity
  8
_U+30EC_U+30A4_U+30E4_U+30FC 1
 62
   179
420
  2234388
370
     9
100
AcDbSpline
210
0.0
220
0.0
230
1.0
 70
    11
 71
     3
 72
    17
 73
    13
 74
     0
 42
0.0000000001
 43
0.0000000001
 12
1.0
 22
0.0
 32
0.0
 13
1.0
 23
0.0
 33
0.0
 40
0.0
 40
0.0
 40
0.0
 40
0.0
 40
1.0
 40
1.0
 40
1.0
 40
2.0
 40
2.0
 40
2.0
 40
3.0
 40
3.0
 40
3.0
 40
4.0
 40
4.0
 40
4.0
 40
4.0
 10
82.08987517953722
 20
-137.7546514378649
 30
0.0
 10
82.08987517953722
 20
-137.8096868382418
 30
0.0
 10
82.13467218676885
 20
-137.8544946113968
 30
0.0
 10
82.18970758714572
 20
-137.8544946113968
 30
0.0
 10
82.24474298752259
 20
-137.8544946113968
 30
0.0
 10
82.28953999475422
 20
-137.8096868382418
 30
0.0
 10
82.28953999475422
 20
-137.7546514378649
 30
0.0
 10
82.28953999475422
 20
-137.6989162524676
 30
0.0
 10
82.24474298752259
 20
-137.6548190302564
 30
0.0
 10
82.18970758714572
 20
-137.6548190302564
 30
0.0
 10
82.13467218676885
 20
-137.6548190302564
 30
0.0
 10
82.08987517953722
 20
-137.6989162524676
 30
0.0
 10
82.08987517953722
 20
-137.7546514378649
 30
0.0
  0
SPLINE
  5
D6
330
1F
100
AcDbEntity
  8
_U+30EC_U+30A4_U+30E4_U+30FC 1
 62
   179
420
  2234388
370
     9
100
AcDbSpline
210
0.0
220
0.0
230
1.0
 70
    11
 71
     3
 72
    17
 73
    13
 74
     0
 42
0.0000000001
 43
0.0000000001
 12
1.0
 22
0.0
 32
0.0
 13
1.0
 23
0.0
 33
0.0
 40
0.0
 40
0.0
 40
0.0
 40
0.0
 40
1.0
 40
1.0
 40
1.0
 40
2.0
 40
2.0
 40
2.0
 40
3.0
 40
3.0
 40
3.0
 40
4.0
 40
4.0
 40
4.0
 40
4.0
 10
125.2162587170683
 20
-133.6553323199662
 30
0.0
 10
125.2162587170683
 20
-133.710367720343
 30
0.0
 10
125.2610449583766
 20
-133.7551754934981
 30
0.0
 10
125.3160803587535
 20
-133.7551754934981
 30
0.0
 10
125.3711157591303
 20
-133.7551754934981
 30
0.0
 10
125.4159235322853
 20
-133.710367720343
 30
0.0
 10
125.4159235322853
 20
-133.6553323199662
 30
0.0
 10
125.4159235322853
 20
-133.6003076855127
 30
0.0
 10
125.3711157591303
 20
-133.5554999123576
 30
0.0
 10
125.3160803587535
 20
-133.5554999123576
 30
0.0
 10
125.2610449583766
 20
-133.5554999123576
 30
0.0
 10
125.2162587170683
 20
-133.6003076855127
 30
0.0
 10
125.2162587170683
 20
-133.6553323199662
 30
0.0
  0
SPLINE
  5
D7
330
1F
100
AcDbEntity
  8
_U+30EC_U+30A4_U+30E4_U+30FC 1
 62
   179
420
  2234388
370
     9
100
AcDbSpline
210
0.0
220
0.0
230
1.0
 70
    11
 71
     3
 72
    17
 73
    13
 74
     0
 42
0.0000000001
 43
0.0000000001
 12
1.0
 22
0.0
 32
0.0
 13
1.0
 23
0.0
 33
0.0
 40
0.0
 40
0.0
 40
0.0
 40
0.0
 40
1.0
 40
1.0
 40
1.0
 40
2.0
 40
2.0
 40
2.0
 40
3.0
 40
3.0
 40
3.0
 40
4.0
 40
4.0
 40
4.0
 40
4.0
 10
82.08987517953722
 20
-163.754442555497
 30
0.0
 10
82.08987517953722
 20
-163.8094779558738
 30
0.0
 10
82.13467218676885
 20
-163.8542803460672
 30
0.0
 10
82.18970758714572
 20
-163.8542803460672
 30
0.0
 10
82.24474298752259
 20
-163.8542803460672
 30
0.0
 10
82.28953999475422
 20
-163.8094779558738
 30
0.0
 10
82.28953999475422
 20
-163.754442555497
 30
0.0
 10
82.28953999475422
 20
-163.6994125380818
 30
0.0
 10
82.24474298752259
 20
-163.6546101478884
 30
0.0
 10
82.18970758714572
 20
-163.6546101478884
 30
0.0
 10
82.13467218676885
 20
-163.6546101478884
 30
0.0
 10
82.08987517953722
 20
-163.6994125380818
 30
0.0
 10
82.08987517953722
 20
-163.754442555497
 30
0.0
  0
POLYLINE
  5
D8
330
1F
100
AcDbEntity
  8
_U+30EC_U+30A4_U+30E4_U+30FC 1
 62
   179
420
  2234388
370
     9
100
AcDb2dPolyline
 66
     1
 10
0.0
 20
0.0
 30
0.0
  0
VERTEX
  5
D9
330
D8
100
AcDbEntity
  8
_U+30EC_U+30A4_U+30E4_U+30FC 1
 62
   179
420
  2234388
370
     9
100
AcDbVertex
100
AcDb2dVertex
 10
125.3161664861406
 20
-133.6553323199662
 30
0.0
  0
VERTEX
  5
DA
330
D8
100
AcDbEntity
  8
_U+30EC_U+30A4_U+30E4_U+30FC 1
 62
   179
420
  2234388
370
     9
100
AcDbVertex
100
AcDb2dVertex
 10
99.31608468857702
 20
-133.6553323199662
 30
0.0
  0
SEQEND
  5
DB
330
D8
100
AcDbEntity
  8
_U+30EC_U+30A4_U+30E4_U+30FC 1
 62
   179
420
  2234388
370
     9
  0
POLYLINE
  5
DC
330
1F
100
AcDbEntity
  8
_U+30EC_U+30A4_U+30E4_U+30FC 1
 62
   179
420
  2234388
370
     9
100
AcDb2dPolyline
 66
     1
 10
0.0
 20
0.0
 30
0.0
  0
VERTEX
  5
DD
330
DC
100
AcDbEntity
  8
_U+30EC_U+30A4_U+30E4_U+30FC 1
 62
   179
420
  2234388
370
     9
100
AcDbVertex
100
AcDb2dVertex
 10
125.3161664861406
 20
-135.9152718945965
 30
0.0
  0
VERTEX
  5
DE
330
DC
100
AcDbEntity
  8
_U+30EC_U+30A4_U+30E4_U+30FC 1
 62
   179
420
  2234388
370
     9
100
AcDbVertex
100
AcDb2dVertex
 10
125.3161664861406
 20
-132.6556086738402
 30
0.0
  0
SEQEND
  5
DF
330
DC
100
AcDbEntity
  8
_U+30EC_U+30A4_U+30E4_U+30FC 1
 62
   179
420
  2234388
370
     9
  0
POLYLINE
  5
E0
330
1F
100
AcDbEntity
  8
_U+30EC_U+30A4_U+30E4_U+30FC 1
 62
   179
420
  2234388
370
     9
100
AcDb2dPolyline
 66
     1
 10
0.0
 20
0.0
 30
0.0
  0
VERTEX
  5
E1
330
E0
100
AcDbEntity
  8
_U+30EC_U+30A4_U+30E4_U+30FC 1
 62
   179
420
  2234388
370
     9
100
AcDbVertex
100
AcDb2dVertex
 10
99.31604162488345
 20
-135.7154886542222
 30
0.0
  0
VERTEX
  5
E2
330
E0
100
AcDbEntity
  8
_U+30EC_U+30A4_U+30E4_U+30FC 1
 62
   179
420
  2234388
370
     9
100
AcDbVertex
100
AcDb2dVertex
 10
99.31604162488345
 20
-132.6555010146063
 30
0.0
  0
SEQEND
  5
E3
330
E0
100
AcDbEntity
  8
_U+30EC_U+30A4_U+30E4_U+30FC 1
 62
   179
420
  2234388
370
     9
  0
INSERT
  5
E5
330
1F
100
AcDbEntity
  8
_U+30EC_U+30A4_U+30E4_U+30FC 1
100
AcDbBlockReference
  2
block 3
 10
0.0
 20
0.0
 30
0.0
  0
SPLINE
  5
ED
330
1F
100
AcDbEntity
  8
_U+30EC_U+30A4_U+30E4_U+30FC 1
 62
   179
420
  2234388
370
     9
100
AcDbSpline
210
0.0
220
0.0
230
1.0
 70
    11
 71
     3
 72
    17
 73
    13
 74
     0
 42
0.0000000001
 43
0.0000000001
 12
1.0
 22
0.0
 32
0.0
 13
1.0
 23
0.0
 33
0.0
 40
0.0
 40
0.0
 40
0.0
 40
0.0
 40
1.0
 40
1.0
 40
1.0
 40
2.0
 40
2.0
 40
2.0
 40
3.0
 40
3.0
 40
3.0
 40
4.0
 40
4.0
 40
4.0
 40
4.0
 10
128.1632149269978
 20
-143.8645121320704
 30
0.0
 10
128.2182287955279
 20
-143.8645121320704
 30
0.0
 10
128.2630365686829
 20
-143.8197097418771
 30
0.0
 10
128.2630365686829
 20
-143.7646797244619
 30
0.0
 10
128.2630365686829
 20
-143.7096443240851
 30
0.0
 10
128.2182287955279
 20
-143.6648419338918
 30
0.0
 10
128.1632149269978
 20
-143.6648419338918
 30
0.0
 10
128.108179526621
 20
-143.6648419338918
 30
0.0
 10
128.0633717534659
 20
-143.7096443240851
 30
0.0
 10
128.0633717534659
 20
-143.7646797244619
 30
0.0
 10
128.0633717534659
 20
-143.8197097418771
 30
0.0
 10
128.108179526621
 20
-143.8645121320704
 30
0.0
 10
128.1632149269978
 20
-143.8645121320704
 30
0.0
  0
SPLINE
  5
EE
330
1F
100
AcDbEntity
  8
_U+30EC_U+30A4_U+30E4_U+30FC 1
 62
   179
420
  2234388
370
     9
100
AcDbSpline
210
0.0
220
0.0
230
1.0
 70
    11
 71
     3
 72
    17
 73
    13
 74
     0
 42
0.0000000001
 43
0.0000000001
 12
1.0
 22
0.0
 32
0.0
 13
1.0
 23
0.0
 33
0.0
 40
0.0
 40
0.0
 40
0.0
 40
0.0
 40
1.0
 40
1.0
 40
1.0
 40
2.0
 40
2.0
 40
2.0
 40
3.0
 40
3.0
 40
3.0
 40
4.0
 40
4.0
 40
4.0
 40
4.0
 10
128.1632149269978
 20
-137.8648944933929
 30
0.0
 10
128.2182287955279
 20
-137.8648944933929
 30
0.0
 10
128.2630365686829
 20
-137.8200974861613
 30
0.0
 10
128.2630365686829
 20
-137.7647068103125
 30
0.0
 10
128.2630365686829
 20
-137.7096821758591
 30
0.0
 10
128.2182287955279
 20
-137.664874402704
 30
0.0
 10
128.1632149269978
 20
-137.664874402704
 30
0.0
 10
128.108179526621
 20
-137.664874402704
 30
0.0
 10
128.0633717534659
 20
-137.7096821758591
 30
0.0
 10
128.0633717534659
 20
-137.7647068103125
 30
0.0
 10
128.0633717534659
 20
-137.8200974861613
 30
0.0
 10
128.108179526621
 20
-137.8648944933929
 30
0.0
 10
128.1632149269978
 20
-137.8648944933929
 30
0.0
  0
POLYLINE
  5
EF
330
1F
100
AcDbEntity
  8
_U+30EC_U+30A4_U+30E4_U+30FC 1
 62
   179
420
  2234388
370
     9
100
AcDb2dPolyline
 66
     1
 10
0.0
 20
0.0
 30
0.0
  0
VERTEX
  5
F0
330
EF
100
AcDbEntity
  8
_U+30EC_U+30A4_U+30E4_U+30FC 1
 62
   179
420
  2234388
370
     9
100
AcDbVertex
100
AcDb2dVertex
 10
128.1632149269978
 20
-137.7646314488488
 30
0.0
  0
VERTEX
  5
F1
330
EF
100
AcDbEntity
  8
_U+30EC_U+30A4_U+30E4_U+30FC 1
 62
   179
420
  2234388
370
     9
100
AcDbVertex
100
AcDb2dVertex
 10
128.1632149269978
 20
-143.7646797244619
 30
0.0
  0
SEQEND
  5
F2
330
EF
100
AcDbEntity
  8
_U+30EC_U+30A4_U+30E4_U+30FC 1
 62
   179
420
  2234388
370
     9
  0
POLYLINE
  5
F3
330
1F
100
AcDbEntity
  8
_U+30EC_U+30A4_U+30E4_U+30FC 1
 62
   179
420
  2234388
370
     9
100
AcDb2dPolyline
 66
     1
 10
0.0
 20
0.0
 30
0.0
  0
VERTEX
  5
F4
330
F3
100
AcDbEntity
  8
_U+30EC_U+30A4_U+30E4_U+30FC 1
 62
   179
420
  2234388
370
     9
100
AcDbVertex
100
AcDb2dVertex
 10
129.1567804649439
 20
-137.7646314488488
 30
0.0
  0
VERTEX
  5
F5
330
F3
100
AcDbEntity
  8
_U+30EC_U+30A4_U+30E4_U+30FC 1
 62
   179
420
  2234388
370
     9
100
AcDbVertex
100
AcDb2dVertex
 10
125.8970957123408
 20
-137.7646314488488
 30
0.0
  0
SEQEND
  5
F6
330
F3
100
AcDbEntity
  8
_U+30EC_U+30A4_U+30E4_U+30FC 1
 62
   179
420
  2234388
370
     9
  0
POLYLINE
  5
F7
330
1F
100
AcDbEntity
  8
_U+30EC_U+30A4_U+30E4_U+30FC 1
 62
   179
420
  2234388
370
     9
100
AcDb2dPolyline
 66
     1
 10
0.0
 20
0.0
 30
0.0
  0
VERTEX
  5
F8
330
F7
100
AcDbEntity
  8
_U+30EC_U+30A4_U+30E4_U+30FC 1
 62
   179
420
  2234388
370
     9
100
AcDbVertex
100
AcDb2dVertex
 10
129.1567804649439
 20
-143.7646097459599
 30
0.0
  0
VERTEX
  5
F9
330
F7
100
AcDbEntity
  8
_U+30EC_U+30A4_U+30E4_U+30FC 1
 62
   179
420
  2234388
370
     9
100
AcDbVertex
100
AcDb2dVertex
 10
125.8970957123408
 20
-143.7646097459599
 30
0.0
  0
SEQEND
  5
FA
330
F7
100
AcDbEntity
  8
_U+30EC_U+30A4_U+30E4_U+30FC 1
 62
   179
420
  2234388
370
     9
  0
INSERT
  5
FC
330
1F
100
AcDbEntity
  8
_U+30EC_U+30A4_U+30E4_U+30FC 1
100
AcDbBlockReference
  2
block 4
 10
0.0
 20
0.0
 30
0.0
  0
POLYLINE
  5
102
330
1F
100
AcDbEntity
  8
_U+30EC_U+30A4_U+30E4_U+30FC 1
 62
   179
420
  2234388
370
     9
100
AcDb2dPolyline
 66
     1
 10
0.0
 20
0.0
 30
0.0
  0
VERTEX
  5
103
330
102
100
AcDbEntity
  8
_U+30EC_U+30A4_U+30E4_U+30FC 1
 62
   179
420
  2234388
370
     9
100
AcDbVertex
100
AcDb2dVertex
 10
82.18978294860946
 20
-137.7546514378649
 30
0.0
  0
VERTEX
  5
104
330
102
100
AcDbEntity
  8
_U+30EC_U+30A4_U+30E4_U+30FC 1
 62
   179
420
  2234388
370
     9
100
AcDbVertex
100
AcDb2dVertex
 10
82.18978294860946
 20
-163.7543725769949
 30
0.0
  0
SEQEND
  5
105
330
102
100
AcDbEntity
  8
_U+30EC_U+30A4_U+30E4_U+30FC 1
 62
   179
420
  2234388
370
     9
  0
POLYLINE
  5
106
330
1F
100
AcDbEntity
  8
_U+30EC_U+30A4_U+30E4_U+30FC 1
 62
   179
420
  2234388
370
     9
100
AcDb2dPolyline
 66
     1
 10
0.0
 20
0.0
 30
0.0
  0
VERTEX
  5
107
330
106
100
AcDbEntity
  8
_U+30EC_U+30A4_U+30E4_U+30FC 1
 62
   179
420
  2234388
370
     9
100
AcDbVertex
100
AcDb2dVertex
 10
80.89994996485531
 20
-137.7546514378649
 30
0.0
  0
VERTEX
  5
108
330
106
100
AcDbEntity
  8
_U+30EC_U+30A4_U+30E4_U+30FC 1
 62
   179
420
  2234388
370
     9
100
AcDbVertex
100
AcDb2dVertex
 10
85.25992285398341
 20
-137.7546514378649
 30
0.0
  0
SEQEND
  5
109
330
106
100
AcDbEntity
  8
_U+30EC_U+30A4_U+30E4_U+30FC 1
 62
   179
420
  2234388
370
     9
  0
POLYLINE
  5
10A
330
1F
100
AcDbEntity
  8
_U+30EC_U+30A4_U+30E4_U+30FC 1
 62
   179
420
  2234388
370
     9
100
AcDb2dPolyline
 66
     1
 10
0.0
 20
0.0
 30
0.0
  0
VERTEX
  5
10B
330
10A
100
AcDbEntity
  8
_U+30EC_U+30A4_U+30E4_U+30FC 1
 62
   179
420
  2234388
370
     9
100
AcDbVertex
100
AcDb2dVertex
 10
80.89994996485531
 20
-163.754442555497
 30
0.0
  0
VERTEX
  5
10C
330
10A
100
AcDbEntity
  8
_U+30EC_U+30A4_U+30E4_U+30FC 1
 62
   179
420
  2234388
370
     9
100
AcDbVertex
100
AcDb2dVertex
 10
85.25992285398341
 20
-163.754442555497
 30
0.0
  0
SEQEND
  5
10D
330
10A
100
AcDbEntity
  8
_U+30EC_U+30A4_U+30E4_U+30FC 1
 62
   179
420
  2234388
370
     9
  0
INSERT
  5
10F
330
1F
100
AcDbEntity
  8
_U+30EC_U+30A4_U+30E4_U+30FC 1
100
AcDbBlockReference
  2
block 5
 10
0.0
 20
0.0
 30
0.0
  0
POLYLINE
  5
117
330
1F
100
AcDbEntity
  8
_U+30EC_U+30A4_U+30E4_U+30FC 1
 62
   179
420
  2234388
370
    25
100
AcDb2dPolyline
 66
     1
 10
0.0
 20
0.0
 30
0.0
  0
VERTEX
  5
118
330
117
100
AcDbEntity
  8
_U+30EC_U+30A4_U+30E4_U+30FC 1
 62
   179
420
  2234388
370
    25
100
AcDbVertex
100
AcDb2dVertex
 10
88.21113160365252
 20
-138.6741689547249
 30
0.0
  0
VERTEX
  5
119
330
117
100
AcDbEntity
  8
_U+30EC_U+30A4_U+30E4_U+30FC 1
 62
   179
420
  2234388
370
    25
100
AcDbVertex
100
AcDb2dVertex
 10
98.21096265244921
 20
-138.6741689547249
 30
0.0
  0
SEQEND
  5
11A
330
117
100
AcDbEntity
  8
_U+30EC_U+30A4_U+30E4_U+30FC 1
 62
   179
420
  2234388
370
    25
  0
POLYLINE
  5
11B
330
1F
100
AcDbEntity
  8
_U+30EC_U+30A4_U+30E4_U+30FC 1
 62
   179
420
  2234388
370
    25
100
AcDb2dPolyline
 66
     1
 10
0.0
 20
0.0
 30
0.0
  0
VERTEX
  5
11C
330
11B
100
AcDbEntity
  8
_U+30EC_U+30A4_U+30E4_U+30FC 1
 62
   179
420
  2234388
370
    25
100
AcDbVertex
100
AcDb2dVertex
 10
87.21651100521443
 20
-137.6547436687927
 30
0.0
  0
VERTEX
  5
11D
330
11B
100
AcDbEntity
  8
_U+30EC_U+30A4_U+30E4_U+30FC 1
 62
   179
420
  2234388
370
    25
100
AcDbVertex
100
AcDb2dVertex
 10
99.21624151504511
 20
-137.6547436687927
 30
0.0
  0
SEQEND
  5
11E
330
11B
100
AcDbEntity
  8
_U+30EC_U+30A4_U+30E4_U+30FC 1
 62
   179
420
  2234388
370
    25
  0
POLYLINE
  5
11F
330
1F
100
AcDbEntity
  8
_U+30EC_U+30A4_U+30E4_U+30FC 1
 62
   179
420
  2234388
370
    25
100
AcDb2dPolyline
 66
     1
 10
0.0
 20
0.0
 30
0.0
  0
VERTEX
  5
120
330
11F
100
AcDbEntity
  8
_U+30EC_U+30A4_U+30E4_U+30FC 1
 62
   179
420
  2234388
370
    25
100
AcDbVertex
100
AcDb2dVertex
 10
99.2161446217346
 20
-143.7914868737065
 30
0.0
  0
VERTEX
  5
121
330
11F
100
AcDbEntity
  8
_U+30EC_U+30A4_U+30E4_U+30FC 1
 62
   179
420
  2234388
370
    25
100
AcDbVertex
100
AcDb2dVertex
 10
99.2161446217346
 20
-137.7914493640168
 30
0.0
  0
SEQEND
  5
122
330
11F
100
AcDbEntity
  8
_U+30EC_U+30A4_U+30E4_U+30FC 1
 62
   179
420
  2234388
370
    25
  0
POLYLINE
  5
123
330
1F
100
AcDbEntity
  8
_U+30EC_U+30A4_U+30E4_U+30FC 1
 62
   179
420
  2234388
370
    25
100
AcDb2dPolyline
 66
     1
 10
0.0
 20
0.0
 30
0.0
  0
VERTEX
  5
124
330
123
100
AcDbEntity
  8
_U+30EC_U+30A4_U+30E4_U+30FC 1
 62
   179
420
  2234388
370
    25
100
AcDbVertex
100
AcDb2dVertex
 10
98.2108657591387
 20
-144.8519034129515
 30
0.0
  0
VERTEX
  5
125
330
123
100
AcDbEntity
  8
_U+30EC_U+30A4_U+30E4_U+30FC 1
 62
   179
420
  2234388
370
    25
100
AcDbVertex
100
AcDb2dVertex
 10
98.2108657591387
 20
-138.674061295491
 30
0.0
  0
SEQEND
  5
126
330
123
100
AcDbEntity
  8
_U+30EC_U+30A4_U+30E4_U+30FC 1
 62
   179
420
  2234388
370
    25
  0
POLYLINE
  5
127
330
1F
100
AcDbEntity
  8
_U+30EC_U+30A4_U+30E4_U+30FC 1
 62
   179
420
  2234388
370
     9
100
AcDb2dPolyline
 66
     1
 10
0.0
 20
0.0
 30
0.0
  0
VERTEX
  5
128
330
127
100
AcDbEntity
  8
_U+30EC_U+30A4_U+30E4_U+30FC 1
 62
   179
420
  2234388
370
     9
100
AcDbVertex
100
AcDb2dVertex
 10
87.78941961848776
 20
-136.6842495046744
 30
0.0
  0
VERTEX
  5
129
330
127
100
AcDbEntity
  8
_U+30EC_U+30A4_U+30E4_U+30FC 1
 62
   179
420
  2234388
370
     9
100
AcDbVertex
100
AcDb2dVertex
 10
88.3464484947591
 20
-137.5146897713939
 30
0.0
  0
SEQEND
  5
12A
330
127
100
AcDbEntity
  8
_U+30EC_U+30A4_U+30E4_U+30FC 1
 62
   179
420
  2234388
370
     9
  0
POLYLINE
  5
12B
330
1F
100
AcDbEntity
  8
_U+30EC_U+30A4_U+30E4_U+30FC 1
 62
   179
420
  2234388
370
     9
100
AcDb2dPolyline
 66
     1
 10
0.0
 20
0.0
 30
0.0
  0
VERTEX
  5
12C
330
12B
100
AcDbEntity
  8
_U+30EC_U+30A4_U+30E4_U+30FC 1
 62
   179
420
  2234388
370
     9
100
AcDbVertex
100
AcDb2dVertex
 10
88.27967823788559
 20
-136.5175284150351
 30
0.0
  0
VERTEX
  5
12D
330
12B
100
AcDbEntity
  8
_U+30EC_U+30A4_U+30E4_U+30FC 1
 62
   179
420
  2234388
370
     9
100
AcDbVertex
100
AcDb2dVertex
 10
88.34635160144857
 20
-137.5148404943214
 30
0.0
  0
SEQEND
  5
12E
330
12B
100
AcDbEntity
  8
_U+30EC_U+30A4_U+30E4_U+30FC 1
 62
   179
420
  2234388
370
     9
  0
POLYLINE
  5
12F
330
1F
100
AcDbEntity
  8
_U+30EC_U+30A4_U+30E4_U+30FC 1
 62
   179
420
  2234388
370
     9
100
AcDb2dPolyline
 66
     1
 10
0.0
 20
0.0
 30
0.0
  0
VERTEX
  5
130
330
12F
100
AcDbEntity
  8
_U+30EC_U+30A4_U+30E4_U+30FC 1
 62
   179
420
  2234388
370
     9
100
AcDbVertex
100
AcDb2dVertex
 10
87.57066682109811
 20
-135.1549931506188
 30
0.0
  0
VERTEX
  5
131
330
12F
100
AcDbEntity
  8
_U+30EC_U+30A4_U+30E4_U+30FC 1
 62
   179
420
  2234388
370
     9
100
AcDbVertex
100
AcDb2dVertex
 10
88.34641619698924
 20
-137.5147328350878
 30
0.0
  0
SEQEND
  5
132
330
12F
100
AcDbEntity
  8
_U+30EC_U+30A4_U+30E4_U+30FC 1
 62
   179
420
  2234388
370
     9
  0
INSERT
  5
134
330
1F
100
AcDbEntity
  8
_U+30EC_U+30A4_U+30E4_U+30FC 1
100
AcDbBlockReference
  2
block 6
 10
0.0
 20
0.0
 30
0.0
  0
POLYLINE
  5
18F
330
1F
100
AcDbEntity
  8
_U+30EC_U+30A4_U+30E4_U+30FC 1
 62
   179
420
  2234388
370
    25
100
AcDb2dPolyline
 66
     1
 10
0.0
 20
0.0
 30
0.0
  0
VERTEX
  5
190
330
18F
100
AcDbEntity
  8
_U+30EC_U+30A4_U+30E4_U+30FC 1
 62
   179
420
  2234388
370
    25
100
AcDbVertex
100
AcDb2dVertex
 10
87.21651100521443
 20
-138.6741689547249
 30
0.0
  0
VERTEX
  5
191
330
18F
100
AcDbEntity
  8
_U+30EC_U+30A4_U+30E4_U+30FC 1
 62
   179
420
  2234388
370
    25
100
AcDbVertex
100
AcDb2dVertex
 10
88.21098088072503
 20
-138.6741689547249
 30
0.0
  0
SEQEND
  5
192
330
18F
100
AcDbEntity
  8
_U+30EC_U+30A4_U+30E4_U+30FC 1
 62
   179
420
  2234388
370
    25
  0
POLYLINE
  5
193
330
1F
100
AcDbEntity
  8
_U+30EC_U+30A4_U+30E4_U+30FC 1
 62
   179
420
  2234388
370
     9
100
AcDb2dPolyline
 66
     1
 10
0.0
 20
0.0
 30
0.0
  0
VERTEX
  5
194
330
193
100
AcDbEntity
  8
_U+30EC_U+30A4_U+30E4_U+30FC 1
 62
   179
420
  2234388
370
     9
100
AcDbVertex
100
AcDb2dVertex
 10
106.2323937892242
 20
-145.3962069677742
 30
0.0
  0
VERTEX
  5
195
330
193
100
AcDbEntity
  8
_U+30EC_U+30A4_U+30E4_U+30FC 1
 62
   179
420
  2234388
370
     9
100
AcDbVertex
100
AcDb2dVertex
 10
111.5681469108558
 20
-159.154540297668
 30
0.0
  0
VERTEX
  5
196
330
193
100
AcDbEntity
  8
_U+30EC_U+30A4_U+30E4_U+30FC 1
 62
   179
420
  2234388
370
     9
100
AcDbVertex
100
AcDb2dVertex
 10
125.5028691295943
 20
-159.154540297668
 30
0.0
  0
SEQEND
  5
197
330
193
100
AcDbEntity
  8
_U+30EC_U+30A4_U+30E4_U+30FC 1
 62
   179
420
  2234388
370
     9
  0
INSERT
  5
199
330
1F
100
AcDbEntity
  8
_U+30EC_U+30A4_U+30E4_U+30FC 1
100
AcDbBlockReference
  2
block 7
 10
0.0
 20
0.0
 30
0.0
  0
INSERT
  5
1C8
330
1F
100
AcDbEntity
  8
_U+30EC_U+30A4_U+30E4_U+30FC 1
100
AcDbBlockReference
  2
block 8
 10
0.0
 20
0.0
 30
0.0
  0
POLYLINE
  5
1DC
330
1F
100
AcDbEntity
  8
_U+30EC_U+30A4_U+30E4_U+30FC 1
  6
AI-Linetype-1
 62
   154
420
    23468
370
    25
100
AcDb2dPolyline
 66
     1
 10
0.0
 20
0.0
 30
0.0
  0
VERTEX
  5
1DD
330
1DC
100
AcDbEntity
  8
_U+30EC_U+30A4_U+30E4_U+30FC 1
  6
AI-Linetype-1
 62
   154
420
    23468
370
    25
100
AcDbVertex
100
AcDb2dVertex
 10
88.2627757381611
 20
-163.6655806238243
 30
0.0
  0
VERTEX
  5
1DE
330
1DC
100
AcDbEntity
  8
_U+30EC_U+30A4_U+30E4_U+30FC 1
  6
AI-Linetype-1
 62
   154
420
    23468
370
    25
100
AcDbVertex
100
AcDb2dVertex
 10
88.8272115697257
 20
-139.3108656640927
 30
0.0
  0
VERTEX
  5
1DF
330
1DC
100
AcDbEntity
  8
_U+30EC_U+30A4_U+30E4_U+30FC 1
  6
AI-Linetype-1
 62
   154
420
    23468
370
    25
100
AcDbVertex
100
AcDb2dVertex
 10
97.58951049060371
 20
-139.3108656640927
 30
0.0
  0
VERTEX
  5
1E0
330
1DC
100
AcDbEntity
  8
_U+30EC_U+30A4_U+30E4_U+30FC 1
  6
AI-Linetype-1
 62
   154
420
    23468
370
    25
100
AcDbVertex
100
AcDb2dVertex
 10
97.58951049060371
 20
-145.5726712180827
 30
0.0
  0
VERTEX
  5
1E1
330
1DC
100
AcDbEntity
  8
_U+30EC_U+30A4_U+30E4_U+30FC 1
  6
AI-Linetype-1
 62
   154
420
    23468
370
    25
100
AcDbVertex
100
AcDb2dVertex
 10
125.2825552733126
 20
-144.9112128849148
 30
0.0
  0
SEQEND
  5
1E3
330
1DC
100
AcDbEntity
  8
_U+30EC_U+30A4_U+30E4_U+30FC 1
  6
AI-Linetype-1
 62
   154
420
    23468
370
    25
  0
ENDSEC
  0
SECTION
  2
OBJECTS
  0
DICTIONARY
  5
C
330
0
100
AcDbDictionary
281
     1
  3
ACAD_GROUP
350
D
  3
ACAD_LAYOUT
350
1A
  3
ACAD_MATERIAL
350
3B
  3
ACAD_MLEADERSTYLE
350
1E5
  3
ACAD_MLINESTYLE
350
17
  3
ACAD_PLOTSETTINGS
350
19
  3
ACAD_PLOTSTYLENAME
350
E
  3
ACAD_TABLESTYLE
350
1E4
  3
ACAD_VISUALSTYLE
350
2A
  0
SUN
  5
3F
330
29
100
AcDbSun
 90
        1
290
     0
 63
     7
421
 16777215
 40
1.0
291
     1
 91
  2455826
 92
 54000000
292
     0
 70
     2
 71
   256
280
     1
  0
DICTIONARY
  5
D
102
{ACAD_REACTORS
330
C
102
}
330
C
100
AcDbDictionary
281
     1
  0
DICTIONARY
  5
1A
102
{ACAD_REACTORS
330
C
102
}
330
C
100
AcDbDictionary
281
     1
  3
Layout1
350
1E
  3
Layout2
350
26
  3
Model
350
22
  0
DICTIONARY
  5
3B
102
{ACAD_REACTORS
330
C
102
}
330
C
100
AcDbDictionary
281
     1
  3
ByBlock
350
3D
  3
ByLayer
350
3C
  3
Global
350
3E
  0
DICTIONARY
  5
1E5
102
{ACAD_REACTORS
330
C
102
}
330
C
100
AcDbDictionary
281
     1
  0
DICTIONARY
  5
17
102
{ACAD_REACTORS
330
C
102
}
330
C
100
AcDbDictionary
281
     1
  3
Standard
350
18
  0
DICTIONARY
  5
19
102
{ACAD_REACTORS
330
C
102
}
330
C
100
AcDbDictionary
281
     1
  0
ACDBDICTIONARYWDFLT
  5
E
102
{ACAD_REACTORS
330
C
102
}
330
C
100
AcDbDictionary
281
     1
  3
Normal
350
F
100
AcDbDictionaryWithDefault
340
F
  0
DICTIONARY
  5
1E4
102
{ACAD_REACTORS
330
C
102
}
330
C
100
AcDbDictionary
281
     1
  0
DICTIONARY
  5
2A
102
{ACAD_REACTORS
330
C
102
}
330
C
100
AcDbDictionary
281
     1
  3
2dWireframe
350
2F
  3
3D Hidden
350
31
  3
3dWireframe
350
30
  3
Basic
350
32
  3
Brighten
350
36
  3
ColorChange
350
3A
  3
Conceptual
350
34
  3
Dim
350
35
  3
Facepattern
350
39
  3
Flat
350
2B
  3
FlatWithEdges
350
2C
  3
Gouraud
350
2D
  3
GouraudWithEdges
350
2E
  3
Linepattern
350
38
  3
Realistic
350
33
  3
Thicken
350
37
  0
LAYOUT
  5
1E
102
{ACAD_REACTORS
330
1A
102
}
330
1A
100
AcDbPlotSettings
  1

  2
none_device
  4

  6

 40
0.0
 41
0.0
 42
0.0
 43
0.0
 44
0.0
 45
0.0
 46
0.0
 47
0.0
 48
0.0
 49
0.0
140
0.0
141
0.0
142
1.0
143
1.0
 70
   688
 72
     0
 73
     0
 74
     5
  7

 75
    16
 76
     0
 77
     2
 78
   300
147
1.0
148
0.0
149
0.0
100
AcDbLayout
  1
Layout1
 70
     1
 71
     1
 10
0.0
 20
0.0
 11
12.0
 21
9.0
 12
0.0
 22
0.0
 32
0.0
 14
1.000000000000000E+20
 24
1.000000000000000E+20
 34
1.000000000000000E+20
 15
-1.000000000000000E+20
 25
-1.000000000000000E+20
 35
-1.000000000000000E+20
146
0.0
 13
0.0
 23
0.0
 33
0.0
 16
1.0
 26
0.0
 36
0.0
 17
0.0
 27
1.0
 37
0.0
 76
     0
330
1B
  0
LAYOUT
  5
26
102
{ACAD_REACTORS
330
1A
102
}
330
1A
100
AcDbPlotSettings
  1

  2
none_device
  4

  6

 40
0.0
 41
0.0
 42
0.0
 43
0.0
 44
0.0
 45
0.0
 46
0.0
 47
0.0
 48
0.0
 49
0.0
140
0.0
141
0.0
142
1.0
143
1.0
 70
   688
 72
     0
 73
     0
 74
     5
  7

 75
    16
 76
     0
 77
     2
 78
   300
147
1.0
148
0.0
149
0.0
100
AcDbLayout
  1
Layout2
 70
     1
 71
     2
 10
0.0
 20
0.0
 11
0.0
 21
0.0
 12
0.0
 22
0.0
 32
0.0
 14
0.0
 24
0.0
 34
0.0
 15
0.0
 25
0.0
 35
0.0
146
0.0
 13
0.0
 23
0.0
 33
0.0
 16
1.0
 26
0.0
 36
0.0
 17
0.0
 27
1.0
 37
0.0
 76
     0
330
23
  0
LAYOUT
  5
22
102
{ACAD_REACTORS
330
1A
102
}
330
1A
100
AcDbPlotSettings
  1

  2
none_device
  4

  6

 40
0.0
 41
0.0
 42
0.0
 43
0.0
 44
0.0
 45
0.0
 46
0.0
 47
0.0
 48
0.0
 49
0.0
140
0.0
141
0.0
142
1.0
143
1.0
 70
  1712
 72
     0
 73
     0
 74
     0
  7

 75
     0
 76
     0
 77
     2
 78
   300
147
1.0
148
0.0
149
0.0
100
AcDbLayout
  1
Model
 70
     1
 71
     0
 10
0.0
 20
0.0
 11
12.0
 21
9.0
 12
0.0
 22
0.0
 32
0.0
 14
1.000000000000000E+20
 24
1.000000000000000E+20
 34
1.000000000000000E+20
 15
-1.000000000000000E+20
 25
-1.000000000000000E+20
 35
-1.000000000000000E+20
146
0.0
 13
0.0
 23
0.0
 33
0.0
 16
1.0
 26
0.0
 36
0.0
 17
0.0
 27
1.0
 37
0.0
 76
     0
330
1F
331
29
  0
MATERIAL
  5
3D
102
{ACAD_REACTORS
330
3B
102
}
330
3B
100
AcDbMaterial
  1
ByBlock
 72
     1
 94
      127
  0
MATERIAL
  5
3C
102
{ACAD_REACTORS
330
3B
102
}
330
3B
100
AcDbMaterial
  1
ByLayer
 72
     1
 94
      127
  0
MATERIAL
  5
3E
102
{ACAD_REACTORS
330
3B
102
}
330
3B
100
AcDbMaterial
  1
Global
 72
     1
 94
      127
  0
MLINESTYLE
  5
18
102
{ACAD_REACTORS
330
17
102
}
330
17
100
AcDbMlineStyle
  2
Standard
 70
     0
  3

 62
   256
 51
90.0
 52
90.0
 71
     2
 49
0.5
 62
   256
  6
BYLAYER
 49
-0.5
 62
   256
  6
BYLAYER
  0
ACDBPLACEHOLDER
  5
F
102
{ACAD_REACTORS
330
E
102
}
330
E
  0
VISUALSTYLE
  5
2F
102
{ACAD_REACTORS
330
2A
102
}
330
2A
100
AcDbVisualStyle
  2
2dWireframe
 70
     4
177
     2
291
     0
 71
     0
176
     1
 72
     2
176
     1
 73
     0
176
     1
 90
        0
176
     1
 40
-0.6
176
     1
 41
-30.0
176
     1
 62
     5
 63
     7
421
 16777215
176
     1
 74
     1
176
     1
 91
        4
176
     1
 64
     7
176
     1
 65
   257
176
     1
 75
     1
176
     1
175
     1
176
     1
 42
1.0
176
     1
 92
        0
176
     1
 66
   257
176
     1
 43
1.0
176
     1
 76
     1
176
     1
 77
     6
176
     1
 78
     2
176
     1
 67
     7
176
     1
 79
     5
176
     1
170
     0
176
     1
171
     0
176
     1
290
     0
176
     1
 93
        1
176
     1
 44
0.0
176
     1
173
     0
176
     1
  0
VISUALSTYLE
  5
31
102
{ACAD_REACTORS
330
2A
102
}
330
2A
100
AcDbVisualStyle
  2
3D Hidden
 70
     6
177
     2
291
     0
 71
     1
176
     1
 72
     2
176
     1
 73
     2
176
     1
 90
        0
176
     1
 40
-0.6
176
     1
 41
-30.0
176
     1
 62
     5
 63
     7
421
 16777215
176
     1
 74
     2
176
     1
 91
        2
176
     1
 64
     7
176
     1
 65
   257
176
     1
 75
     2
176
     1
175
     1
176
     1
 42
40.0
176
     1
 92
        0
176
     1
 66
   257
176
     1
 43
1.0
176
     1
 76
     1
176
     1
 77
     6
176
     1
 78
     2
176
     1
 67
     7
176
     1
 79
     3
176
     1
170
     0
176
     1
171
     0
176
     1
290
     0
176
     1
 93
        1
176
     1
 44
0.0
176
     1
173
     0
176
     1
  0
VISUALSTYLE
  5
30
102
{ACAD_REACTORS
330
2A
102
}
330
2A
100
AcDbVisualStyle
  2
3dWireframe
 70
     5
177
     2
291
     0
 71
     0
176
     1
 72
     2
176
     1
 73
     0
176
     1
 90
        0
176
     1
 40
-0.6
176
     1
 41
-30.0
176
     1
 62
     5
 63
     7
421
 16777215
176
     1
 74
     1
176
     1
 91
        4
176
     1
 64
     7
176
     1
 65
   257
176
     1
 75
     1
176
     1
175
     1
176
     1
 42
1.0
176
     1
 92
        0
176
     1
 66
   257
176
     1
 43
1.0
176
     1
 76
     1
176
     1
 77
     6
176
     1
 78
     2
176
     1
 67
     7
176
     1
 79
     5
176
     1
170
     0
176
     1
171
     0
176
     1
290
     0
176
     1
 93
        1
176
     1
 44
0.0
176
     1
173
     0
176
     1
  0
VISUALSTYLE
  5
32
102
{ACAD_REACTORS
330
2A
102
}
330
2A
100
AcDbVisualStyle
  2
Basic
 70
     7
177
     2
291
     1
 71
     1
176
     1
 72
     0
176
     1
 73
     1
176
     1
 90
        0
176
     1
 40
-0.6
176
     1
 41
-30.0
176
     1
 62
     5
 63
     7
421
 16777215
176
     1
 74
     0
176
     1
 91
        4
176
     1
 64
     7
176
     1
 65
   257
176
     1
 75
     1
176
     1
175
     1
176
     1
 42
1.0
176
     1
 92
        8
176
     1
 66
     7
176
     1
 43
1.0
176
     1
 76
     1
176
     1
 77
     6
176
     1
 78
     2
176
     1
 67
     7
176
     1
 79
     5
176
     1
170
     0
176
     1
171
     0
176
     1
290
     0
176
     1
 93
        1
176
     1
 44
0.0
176
     1
173
     0
176
     1
  0
VISUALSTYLE
  5
36
102
{ACAD_REACTORS
330
2A
102
}
330
2A
100
AcDbVisualStyle
  2
Brighten
 70
    12
177
     2
291
     1
 71
     2
176
     1
 72
     2
176
     1
 73
     0
176
     1
 90
        0
176
     1
 40
-0.6
176
     1
 41
-30.0
176
     1
 62
     5
 63
     7
421
 16777215
176
     1
 74
     1
176
     1
 91
        4
176
     1
 64
     7
176
     1
 65
   257
176
     1
 75
     1
176
     1
175
     1
176
     1
 42
1.0
176
     1
 92
        8
176
     1
 66
     7
176
     1
 43
1.0
176
     1
 76
     1
176
     1
 77
     6
176
     1
 78
     2
176
     1
 67
     7
176
     1
 79
     5
176
     1
170
     0
176
     1
171
     0
176
     1
290
     0
176
     1
 93
        1
176
     1
 44
50.0
176
     1
173
     0
176
     1
  0
VISUALSTYLE
  5
3A
102
{ACAD_REACTORS
330
2A
102
}
330
2A
100
AcDbVisualStyle
  2
ColorChange
 70
    16
177
     2
291
     1
 71
     2
176
     1
 72
     2
176
     1
 73
     3
176
     1
 90
        0
176
     1
 40
-0.6
176
     1
 41
-30.0
176
     1
 62
     5
 63
     8
421
  8421504
176
     1
 74
     1
176
     1
 91
        4
176
     1
 64
     7
176
     1
 65
   257
176
     1
 75
     1
176
     1
175
     1
176
     1
 42
1.0
176
     1
 92
        8
176
     1
 66
     8
424
  8421504
176
     1
 43
1.0
176
     1
 76
     1
176
     1
 77
     6
176
     1
 78
     2
176
     1
 67
     7
176
     1
 79
     5
176
     1
170
     0
176
     1
171
     0
176
     1
290
     0
176
     1
 93
        1
176
     1
 44
0.0
176
     1
173
     0
176
     1
  0
VISUALSTYLE
  5
34
102
{ACAD_REACTORS
330
2A
102
}
330
2A
100
AcDbVisualStyle
  2
Conceptual
 70
     9
177
     2
291
     0
 71
     3
176
     1
 72
     2
176
     1
 73
     0
176
     1
 90
        0
176
     1
 40
-0.6
176
     1
 41
-30.0
176
     1
 62
     5
 63
     7
421
 16777215
176
     1
 74
     2
176
     1
 91
        2
176
     1
 64
     7
176
     1
 65
   257
176
     1
 75
     1
176
     1
175
     1
176
     1
 42
40.0
176
     1
 92
        8
176
     1
 66
     7
176
     1
 43
1.0
176
     1
 76
     1
176
     1
 77
     6
176
     1
 78
     2
176
     1
 67
     7
176
     1
 79
     3
176
     1
170
     0
176
     1
171
     0
176
     1
290
     0
176
     1
 93
        1
176
     1
 44
0.0
176
     1
173
     0
176
     1
  0
VISUALSTYLE
  5
35
102
{ACAD_REACTORS
330
2A
102
}
330
2A
100
AcDbVisualStyle
  2
Dim
 70
    11
177
     2
291
     1
 71
     2
176
     1
 72
     2
176
     1
 73
     0
176
     1
 90
        0
176
     1
 40
-0.6
176
     1
 41
-30.0
176
     1
 62
     5
 63
     7
421
 16777215
176
     1
 74
     1
176
     1
 91
        4
176
     1
 64
     7
176
     1
 65
   257
176
     1
 75
     1
176
     1
175
     1
176
     1
 42
1.0
176
     1
 92
        8
176
     1
 66
     7
176
     1
 43
1.0
176
     1
 76
     1
176
     1
 77
     6
176
     1
 78
     2
176
     1
 67
     7
176
     1
 79
     5
176
     1
170
     0
176
     1
171
     0
176
     1
290
     0
176
     1
 93
        1
176
     1
 44
-50.0
176
     1
173
     0
176
     1
  0
VISUALSTYLE
  5
39
102
{ACAD_REACTORS
330
2A
102
}
330
2A
100
AcDbVisualStyle
  2
Facepattern
 70
    15
177
     2
291
     1
 71
     2
176
     1
 72
     2
176
     1
 73
     0
176
     1
 90
        0
176
     1
 40
-0.6
176
     1
 41
-30.0
176
     1
 62
     5
 63
     7
421
 16777215
176
     1
 74
     1
176
     1
 91
        4
176
     1
 64
     7
176
     1
 65
   257
176
     1
 75
     1
176
     1
175
     1
176
     1
 42
1.0
176
     1
 92
        8
176
     1
 66
     7
176
     1
 43
1.0
176
     1
 76
     1
176
     1
 77
     6
176
     1
 78
     2
176
     1
 67
     7
176
     1
 79
     5
176
     1
170
     0
176
     1
171
     0
176
     1
290
     0
176
     1
 93
        1
176
     1
 44
0.0
176
     1
173
     0
176
     1
  0
VISUALSTYLE
  5
2B
102
{ACAD_REACTORS
330
2A
102
}
330
2A
100
AcDbVisualStyle
  2
Flat
 70
     0
177
     2
291
     1
 71
     2
176
     1
 72
     1
176
     1
 73
     1
176
     1
 90
        2
176
     1
 40
-0.6
176
     1
 41
30.0
176
     1
 62
     5
 63
     7
421
 16777215
176
     1
 74
     0
176
     1
 91
        4
176
     1
 64
     7
176
     1
 65
   257
176
     1
 75
     1
176
     1
175
     1
176
     1
 42
1.0
176
     1
 92
        8
176
     1
 66
     7
176
     1
 43
1.0
176
     1
 76
     1
176
     1
 77
     6
176
     1
 78
     2
176
     1
 67
     7
176
     1
 79
     5
176
     1
170
     0
176
     1
171
     0
176
     1
290
     0
176
     1
 93
       13
176
     1
 44
0.0
176
     1
173
     0
176
     1
  0
VISUALSTYLE
  5
2C
102
{ACAD_REACTORS
330
2A
102
}
330
2A
100
AcDbVisualStyle
  2
FlatWithEdges
 70
     1
177
     2
291
     1
 71
     2
176
     1
 72
     1
176
     1
 73
     1
176
     1
 90
        2
176
     1
 40
-0.6
176
     1
 41
30.0
176
     1
 62
     5
 63
     7
421
 16777215
176
     1
 74
     1
176
     1
 91
        4
176
     1
 64
     7
176
     1
 65
   257
176
     1
 75
     1
176
     1
175
     1
176
     1
 42
1.0
176
     1
 92
        0
176
     1
 66
   257
176
     1
 43
1.0
176
     1
 76
     1
176
     1
 77
     6
176
     1
 78
     2
176
     1
 67
     7
176
     1
 79
     5
176
     1
170
     0
176
     1
171
     0
176
     1
290
     0
176
     1
 93
       13
176
     1
 44
0.0
176
     1
173
     0
176
     1
  0
VISUALSTYLE
  5
2D
102
{ACAD_REACTORS
330
2A
102
}
330
2A
100
AcDbVisualStyle
  2
Gouraud
 70
     2
177
     2
291
     1
 71
     2
176
     1
 72
     2
176
     1
 73
     1
176
     1
 90
        2
176
     1
 40
-0.6
176
     1
 41
30.0
176
     1
 62
     5
 63
     7
421
 16777215
176
     1
 74
     0
176
     1
 91
        4
176
     1
 64
     7
176
     1
 65
   257
176
     1
 75
     1
176
     1
175
     1
176
     1
 42
1.0
176
     1
 92
        0
176
     1
 66
     7
176
     1
 43
1.0
176
     1
 76
     1
176
     1
 77
     6
176
     1
 78
     2
176
     1
 67
     7
176
     1
 79
     5
176
     1
170
     0
176
     1
171
     0
176
     1
290
     0
176
     1
 93
       13
176
     1
 44
0.0
176
     1
173
     0
176
     1
  0
VISUALSTYLE
  5
2E
102
{ACAD_REACTORS
330
2A
102
}
330
2A
100
AcDbVisualStyle
  2
GouraudWithEdges
 70
     3
177
     2
291
     1
 71
     2
176
     1
 72
     2
176
     1
 73
     1
176
     1
 90
        2
176
     1
 40
-0.6
176
     1
 41
30.0
176
     1
 62
     5
 63
     7
421
 16777215
176
     1
 74
     1
176
     1
 91
        4
176
     1
 64
     7
176
     1
 65
   257
176
     1
 75
     1
176
     1
175
     1
176
     1
 42
1.0
176
     1
 92
        0
176
     1
 66
   257
176
     1
 43
1.0
176
     1
 76
     1
176
     1
 77
     6
176
     1
 78
     2
176
     1
 67
     7
176
     1
 79
     5
176
     1
170
     0
176
     1
171
     0
176
     1
290
     0
176
     1
 93
       13
176
     1
 44
0.0
176
     1
173
     0
176
     1
  0
VISUALSTYLE
  5
38
102
{ACAD_REACTORS
330
2A
102
}
330
2A
100
AcDbVisualStyle
  2
Linepattern
 70
    14
177
     2
291
     1
 71
     2
176
     1
 72
     2
176
     1
 73
     0
176
     1
 90
        0
176
     1
 40
-0.6
176
     1
 41
-30.0
176
     1
 62
     5
 63
     7
421
 16777215
176
     1
 74
     1
176
     1
 91
        4
176
     1
 64
     7
176
     1
 65
   257
176
     1
 75
     7
176
     1
175
     7
176
     1
 42
1.0
176
     1
 92
        8
176
     1
 66
     7
176
     1
 43
1.0
176
     1
 76
     1
176
     1
 77
     6
176
     1
 78
     2
176
     1
 67
     7
176
     1
 79
     5
176
     1
170
     0
176
     1
171
     0
176
     1
290
     0
176
     1
 93
        1
176
     1
 44
0.0
176
     1
173
     0
176
     1
  0
VISUALSTYLE
  5
33
102
{ACAD_REACTORS
330
2A
102
}
330
2A
100
AcDbVisualStyle
  2
Realistic
 70
     8
177
     2
291
     0
 71
     2
176
     1
 72
     2
176
     1
 73
     0
176
     1
 90
        0
176
     1
 40
-0.6
176
     1
 41
-30.0
176
     1
 62
     5
 63
     7
421
 16777215
176
     1
 74
     1
176
     1
 91
        0
176
     1
 64
     7
176
     1
 65
   257
176
     1
 75
     1
176
     1
175
     1
176
     1
 42
1.0
176
     1
 92
        8
176
     1
 66
     8
424
  7895160
176
     1
 43
1.0
176
     1
 76
     1
176
     1
 77
     6
176
     1
 78
     2
176
     1
 67
     7
176
     1
 79
     5
176
     1
170
     0
176
     1
171
     0
176
     1
290
     0
176
     1
 93
       13
176
     1
 44
0.0
176
     1
173
     0
176
     1
  0
VISUALSTYLE
  5
37
102
{ACAD_REACTORS
330
2A
102
}
330
2A
100
AcDbVisualStyle
  2
Thicken
 70
    13
177
     2
291
     1
 71
     2
176
     1
 72
     2
176
     1
 73
     0
176
     1
 90
        0
176
     1
 40
-0.6
176
     1
 41
-30.0
176
     1
 62
     5
 63
     7
421
 16777215
176
     1
 74
     1
176
     1
 91
        4
176
     1
 64
     7
176
     1
 65
   257
176
     1
 75
     1
176
     1
175
     1
176
     1
 42
1.0
176
     1
 92
       12
176
     1
 66
     7
176
     1
 43
1.0
176
     1
 76
     1
176
     1
 77
     6
176
     1
 78
     2
176
     1
 67
     7
176
     1
 79
     5
176
     1
170
     0
176
     1
171
     0
176
     1
290
     0
176
     1
 93
        1
176
     1
 44
0.0
176
     1
173
     0
176
     1
  0
ENDSEC
  0
EOF
