  0
SECTION
  2
HEADER
  9
$ACADVER
  1
AC1024
  9
$ACADMAINTVER
 70
     6
  9
$DWGCODEPAGE
  3
UNDEFINED
  9
$INSBASE
 10
0.0
 20
0.0
 30
0.0
  9
$EXTMIN
 10
1.000000000000000E+20
 20
1.000000000000000E+20
 30
1.000000000000000E+20
  9
$EXTMAX
 10
-1.000000000000000E+20
 20
-1.000000000000000E+20
 30
-1.000000000000000E+20
  9
$LIMMIN
 10
0.0
 20
0.0
  9
$LIMMAX
 10
12.0
 20
9.0
  9
$ORTHOMODE
 70
     0
  9
$REGENMODE
 70
     1
  9
$FILLMODE
 70
     1
  9
$QTEXTMODE
 70
     0
  9
$MIRRTEXT
 70
     1
  9
$LTSCALE
 40
1.0
  9
$ATTMODE
 70
     1
  9
$TEXTSIZE
 40
0.2
  9
$TRACEWID
 40
0.05
  9
$TEXTSTYLE
  7
Standard
  9
$CLAYER
  8
0
  9
$CELTYPE
  6
ByLayer
  9
$CECOLOR
 62
   256
  9
$CELTSCALE
 40
1.0
  9
$DISPSILH
 70
     0
  9
$DIMSCALE
 40
1.0
  9
$DIMASZ
 40
0.18
  9
$DIMEXO
 40
0.0625
  9
$DIMDLI
 40
0.38
  9
$DIMRND
 40
0.0
  9
$DIMDLE
 40
0.0
  9
$DIMEXE
 40
0.18
  9
$DIMTP
 40
0.0
  9
$DIMTM
 40
0.0
  9
$DIMTXT
 40
0.18
  9
$DIMCEN
 40
0.09
  9
$DIMTSZ
 40
0.0
  9
$DIMTOL
 70
     0
  9
$DIMLIM
 70
     0
  9
$DIMTIH
 70
     1
  9
$DIMTOH
 70
     1
  9
$DIMSE1
 70
     0
  9
$DIMSE2
 70
     0
  9
$DIMTAD
 70
     0
  9
$DIMZIN
 70
     0
  9
$DIMBLK
  1

  9
$DIMASO
 70
     1
  9
$DIMSHO
 70
     1
  9
$DIMPOST
  1

  9
$DIMAPOST
  1

  9
$DIMALT
 70
     0
  9
$DIMALTD
 70
     2
  9
$DIMALTF
 40
25.4
  9
$DIMLFAC
 40
1.0
  9
$DIMTOFL
 70
     0
  9
$DIMTVP
 40
0.0
  9
$DIMTIX
 70
     0
  9
$DIMSOXD
 70
     0
  9
$DIMSAH
 70
     0
  9
$DIMBLK1
  1

  9
$DIMBLK2
  1

  9
$DIMSTYLE
  2
Standard
  9
$DIMCLRD
 70
     0
  9
$DIMCLRE
 70
     0
  9
$DIMCLRT
 70
     0
  9
$DIMTFAC
 40
1.0
  9
$DIMGAP
 40
0.09
  9
$DIMJUST
 70
     0
  9
$DIMSD1
 70
     0
  9
$DIMSD2
 70
     0
  9
$DIMTOLJ
 70
     1
  9
$DIMTZIN
 70
     0
  9
$DIMALTZ
 70
     0
  9
$DIMALTTZ
 70
     0
  9
$DIMUPT
 70
     0
  9
$DIMDEC
 70
     4
  9
$DIMTDEC
 70
     4
  9
$DIMALTU
 70
     2
  9
$DIMALTTD
 70
     2
  9
$DIMTXSTY
  7
Standard
  9
$DIMAUNIT
 70
     0
  9
$DIMADEC
 70
     0
  9
$DIMALTRND
 40
0.0
  9
$DIMAZIN
 70
     0
  9
$DIMDSEP
 70
    46
  9
$DIMATFIT
 70
     3
  9
$DIMFRAC
 70
     0
  9
$DIMLDRBLK
  1

  9
$DIMLUNIT
 70
     2
  9
$DIMLWD
 70
    -2
  9
$DIMLWE
 70
    -2
  9
$DIMTMOVE
 70
     0
  9
$DIMFXL
 40
1.0
  9
$DIMFXLON
 70
     0
  9
$DIMJOGANG
 40
0.7853981633974483
  9
$DIMTFILL
 70
     0
  9
$DIMTFILLCLR
 70
     0
  9
$DIMARCSYM
 70
     0
  9
$DIMLTYPE
  6

  9
$DIMLTEX1
  6

  9
$DIMLTEX2
  6

  9
$DIMTXTDIRECTION
 70
     0
  9
$LUNITS
 70
     2
  9
$LUPREC
 70
     4
  9
$SKETCHINC
 40
0.1
  9
$FILLETRAD
 40
0.5
  9
$AUNITS
 70
     0
  9
$AUPREC
 70
     0
  9
$MENU
  1
.
  9
$ELEVATION
 40
0.0
  9
$PELEVATION
 40
0.0
  9
$THICKNESS
 40
0.0
  9
$LIMCHECK
 70
     0
  9
$CHAMFERA
 40
0.5
  9
$CHAMFERB
 40
0.5
  9
$CHAMFERC
 40
1.0
  9
$CHAMFERD
 40
0.0
  9
$SKPOLY
 70
     0
  9
$TDCREATE
 40
2458270.588310185
  9
$TDUCREATE
 40
2458270.213310185
  9
$TDUPDATE
 40
2458270.588321759
  9
$TDUUPDATE
 40
2458270.213321759
  9
$TDINDWG
 40
0.0000000116
  9
$TDUSRTIMER
 40
0.0000000116
  9
$USRTIMER
 70
     1
  9
$ANGBASE
 50
0.0
  9
$ANGDIR
 70
     0
  9
$PDMODE
 70
     0
  9
$PDSIZE
 40
0.0
  9
$PLINEWID
 40
0.0
  9
$SPLFRAME
 70
     0
  9
$SPLINETYPE
 70
     6
  9
$SPLINESEGS
 70
     8
  9
$HANDSEED
  5
1E8
  9
$SURFTAB1
 70
     6
  9
$SURFTAB2
 70
     6
  9
$SURFTYPE
 70
     6
  9
$SURFU
 70
     6
  9
$SURFV
 70
     6
  9
$UCSBASE
  2

  9
$UCSNAME
  2

  9
$UCSORG
 10
0.0
 20
0.0
 30
0.0
  9
$UCSXDIR
 10
1.0
 20
0.0
 30
0.0
  9
$UCSYDIR
 10
0.0
 20
1.0
 30
0.0
  9
$UCSORTHOREF
  2

  9
$UCSORTHOVIEW
 70
     0
  9
$UCSORGTOP
 10
0.0
 20
0.0
 30
0.0
  9
$UCSORGBOTTOM
 10
0.0
 20
0.0
 30
0.0
  9
$UCSORGLEFT
 10
0.0
 20
0.0
 30
0.0
  9
$UCSORGRIGHT
 10
0.0
 20
0.0
 30
0.0
  9
$UCSORGFRONT
 10
0.0
 20
0.0
 30
0.0
  9
$UCSORGBACK
 10
0.0
 20
0.0
 30
0.0
  9
$PUCSBASE
  2

  9
$PUCSNAME
  2

  9
$PUCSORG
 10
0.0
 20
0.0
 30
0.0
  9
$PUCSXDIR
 10
1.0
 20
0.0
 30
0.0
  9
$PUCSYDIR
 10
0.0
 20
1.0
 30
0.0
  9
$PUCSORTHOREF
  2

  9
$PUCSORTHOVIEW
 70
     0
  9
$PUCSORGTOP
 10
0.0
 20
0.0
 30
0.0
  9
$PUCSORGBOTTOM
 10
0.0
 20
0.0
 30
0.0
  9
$PUCSORGLEFT
 10
0.0
 20
0.0
 30
0.0
  9
$PUCSORGRIGHT
 10
0.0
 20
0.0
 30
0.0
  9
$PUCSORGFRONT
 10
0.0
 20
0.0
 30
0.0
  9
$PUCSORGBACK
 10
0.0
 20
0.0
 30
0.0
  9
$USERI1
 70
     0
  9
$USERI2
 70
     0
  9
$USERI3
 70
     0
  9
$USERI4
 70
     0
  9
$USERI5
 70
     0
  9
$USERR1
 40
0.0
  9
$USERR2
 40
0.0
  9
$USERR3
 40
0.0
  9
$USERR4
 40
0.0
  9
$USERR5
 40
0.0
  9
$WORLDVIEW
 70
     1
  9
$SHADEDGE
 70
     3
  9
$SHADEDIF
 70
    70
  9
$TILEMODE
 70
     1
  9
$MAXACTVP
 70
    64
  9
$PINSBASE
 10
0.0
 20
0.0
 30
0.0
  9
$PLIMCHECK
 70
     0
  9
$PEXTMIN
 10
1.000000000000000E+20
 20
1.000000000000000E+20
 30
1.000000000000000E+20
  9
$PEXTMAX
 10
-1.000000000000000E+20
 20
-1.000000000000000E+20
 30
-1.000000000000000E+20
  9
$PLIMMIN
 10
0.0
 20
0.0
  9
$PLIMMAX
 10
12.0
 20
9.0
  9
$UNITMODE
 70
     0
  9
$VISRETAIN
 70
     1
  9
$PLINEGEN
 70
     0
  9
$PSLTSCALE
 70
     1
  9
$TREEDEPTH
 70
  3020
  9
$CMLSTYLE
  2
Standard
  9
$CMLJUST
 70
     0
  9
$CMLSCALE
 40
1.0
  9
$PROXYGRAPHICS
 70
     1
  9
$MEASUREMENT
 70
     0
  9
$CELWEIGHT
370
    -1
  9
$ENDCAPS
280
     0
  9
$JOINSTYLE
280
     0
  9
$LWDISPLAY
290
     1
  9
$INSUNITS
 70
     1
  9
$HYPERLINKBASE
  1

  9
$STYLESHEET
  1

  9
$XEDIT
290
     1
  9
$CEPSNTYPE
380
     0
  9
$PSTYLEMODE
290
     1
  9
$FINGERPRINTGUID
  2
{CBF5D485-218D-A4C2-48DC-AEAA1DA62699}
  9
$VERSIONGUID
  2
{FAEB1C32-E019-11D5-929B-00C0DF256EC4}
  9
$EXTNAMES
290
     1
  9
$PSVPSCALE
 40
0.0
  9
$OLESTARTUP
290
     0
  9
$SORTENTS
280
   127
  9
$INDEXCTL
280
     0
  9
$HIDETEXT
280
     1
  9
$XCLIPFRAME
280
     2
  9
$HALOGAP
280
     0
  9
$OBSCOLOR
 70
   257
  9
$OBSLTYPE
280
     0
  9
$INTERSECTIONDISPLAY
280
     0
  9
$INTERSECTIONCOLOR
 70
   257
  9
$DIMASSOC
280
     2
  9
$PROJECTNAME
  1

  9
$CAMERADISPLAY
290
     0
  9
$LENSLENGTH
 40
50.0
  9
$CAMERAHEIGHT
 40
0.0
  9
$STEPSPERSEC
 40
2.0
  9
$STEPSIZE
 40
6.0
  9
$3DDWFPREC
 40
2.0
  9
$PSOLWIDTH
 40
0.25
  9
$PSOLHEIGHT
 40
4.0
  9
$LOFTANG1
 40
1.570796326794897
  9
$LOFTANG2
 40
1.570796326794897
  9
$LOFTMAG1
 40
0.0
  9
$LOFTMAG2
 40
0.0
  9
$LOFTPARAM
 70
     7
  9
$LOFTNORMALS
280
     1
  9
$LATITUDE
 40
37.795
  9
$LONGITUDE
 40
-122.394
  9
$NORTHDIRECTION
 40
0.0
  9
$TIMEZONE
 70
 -8000
  9
$LIGHTGLYPHDISPLAY
280
     1
  9
$TILEMODELIGHTSYNCH
280
     1
  9
$CMATERIAL
347
3C
  9
$SOLIDHIST
280
     1
  9
$SHOWHIST
280
     1
  9
$DWFFRAME
280
     2
  9
$DGNFRAME
280
     2
  9
$REALWORLDSCALE
290
     1
  9
$INTERFERECOLOR
 62
   256
  9
$CSHADOW
280
     0
  9
$SHADOWPLANELOCATION
 40
0.0
  0
ENDSEC
  0
SECTION
  2
CLASSES
  0
CLASS
  1
ACDBDICTIONARYWDFLT
  2
AcDbDictionaryWithDefault
  3
ObjectDBX Classes
 90
        0
 91
        4
280
     0
281
     0
  0
CLASS
  1
VISUALSTYLE
  2
AcDbVisualStyle
  3
ObjectDBX Classes
 90
     4095
 91
        4
280
     0
281
     0
  0
CLASS
  1
MATERIAL
  2
AcDbMaterial
  3
ObjectDBX Classes
 90
     1153
 91
        4
280
     0
281
     0
  0
CLASS
  1
SUN
  2
AcDbSun
  3
SCENEOE
 90
     1024
 91
        4
280
     0
281
     0
  0
ENDSEC
  0
SECTION
  2
TABLES
  0
TABLE
  2
VPORT
  5
8
330
0
100
AcDbSymbolTable
 70
     1
  0
VPORT
  5
29
330
8
100
AcDbSymbolTableRecord
100
AcDbViewportTableRecord
  2
*Active
 70
     0
 10
0.0
 20
0.0
 11
1.0
 21
1.0
 12
0.0
 22
0.0
 13
0.0
 23
0.0
 14
0.5
 24
0.5
 15
0.5
 25
0.5
 16
0.0
 26
0.0
 36
1.0
 17
105.0007777515277
 27
-148.5000416295416
 37
0.0
 40
297.0000832590831
 41
0.7070757462376333
 42
50.0
 43
0.0
 44
0.0
 50
0.0
 51
0.0
 71
     0
 72
   100
 73
     1
 74
     3
 75
     0
 76
     0
 77
     0
 78
     0
281
     0
 65
     1
110
0.0
120
0.0
130
0.0
111
1.0
121
0.0
131
0.0
112
0.0
122
1.0
132
0.0
 79
     0
146
0.0
 60
     3
 61
     5
292
     1
282
     1
141
0.0
142
0.0
 63
   250
361
3F
  0
ENDTAB
  0
TABLE
  2
LTYPE
  5
5
330
0
100
AcDbSymbolTable
 70
     2
  0
LTYPE
  5
14
330
5
100
AcDbSymbolTableRecord
100
AcDbLinetypeTableRecord
  2
ByBlock
 70
     0
  3

 72
    65
 73
     0
 40
0.0
  0
LTYPE
  5
15
330
5
100
AcDbSymbolTableRecord
100
AcDbLinetypeTableRecord
  2
ByLayer
 70
     0
  3

 72
    65
 73
     0
 40
0.0
  0
LTYPE
  5
16
330
5
100
AcDbSymbolTableRecord
100
AcDbLinetypeTableRecord
  2
Continuous
 70
     0
  3
Solid line
 72
    65
 73
     0
 40
0.0
  0
LTYPE
  5
1E4
330
5
100
AcDbSymbolTableRecord
100
AcDbLinetypeTableRecord
  2
AI-Linetype-1
 70
     0
  3
Adobe Illustrator Linetype No. 1
 72
    65
 73
     2
 40
1.411111110758333
 49
0.7055555553791667
 74
     0
 49
-0.7055555553791667
 74
     0
  0
ENDTAB
  0
TABLE
  2
LAYER
  5
2
330
0
100
AcDbSymbolTable
 70
     2
  0
LAYER
  5
10
330
2
100
AcDbSymbolTableRecord
100
AcDbLayerTableRecord
  2
0
 70
     0
 62
     7
  6
Continuous
370
    -3
390
F
347
3E
  0
LAYER
  5
40
330
2
100
AcDbSymbolTableRecord
100
AcDbLayerTableRecord
  2
_U+30EC_U+30A4_U+30E4_U+30FC 1
 70
     0
 62
     7
  6
Continuous
370
    -3
390
F
347
3E
  0
ENDTAB
  0
TABLE
  2
STYLE
  5
3
330
0
100
AcDbSymbolTable
 70
     1
  0
STYLE
  5
11
330
3
100
AcDbSymbolTableRecord
100
AcDbTextStyleTableRecord
  2
Standard
 70
     0
 40
0.0
 41
1.0
 50
0.0
 71
     0
 42
0.2
  3
txt
  4

  0
ENDTAB
  0
TABLE
  2
VIEW
  5
6
330
0
100
AcDbSymbolTable
 70
     0
  0
ENDTAB
  0
TABLE
  2
UCS
  5
7
330
0
100
AcDbSymbolTable
 70
     0
  0
ENDTAB
  0
TABLE
  2
APPID
  5
9
330
0
100
AcDbSymbolTable
 70
     1
  0
APPID
  5
12
330
9
100
AcDbSymbolTableRecord
100
AcDbRegAppTableRecord
  2
ACAD
 70
     0
  0
ENDTAB
  0
TABLE
  2
DIMSTYLE
  5
A
330
0
100
AcDbSymbolTable
 70
     1
100
AcDbDimStyleTable
  0
DIMSTYLE
105
27
330
A
100
AcDbSymbolTableRecord
100
AcDbDimStyleTableRecord
  2
Standard
 70
     0
178
     0
340
11
  0
ENDTAB
  0
TABLE
  2
BLOCK_RECORD
  5
1
330
0
100
AcDbSymbolTable
 70
     8
  0
BLOCK_RECORD
  5
1F
330
1
100
AcDbSymbolTableRecord
100
AcDbBlockTableRecord
  2
*Model_Space
340
22
 70
     0
280
     1
281
     0
  0
BLOCK_RECORD
  5
1B
330
1
100
AcDbSymbolTableRecord
100
AcDbBlockTableRecord
  2
*Paper_Space
340
1E
 70
     0
280
     1
281
     0
  0
BLOCK_RECORD
  5
23
330
1
100
AcDbSymbolTableRecord
100
AcDbBlockTableRecord
  2
*Paper_Space0
340
26
 70
     0
280
     1
281
     0
  0
BLOCK_RECORD
  5
4F
330
1
100
AcDbSymbolTableRecord
100
AcDbBlockTableRecord
  2
block 2
340
0
102
{BLKREFS
331
50
102
}
 70
     0
280
     1
281
     0
  0
BLOCK_RECORD
  5
E4
330
1
100
AcDbSymbolTableRecord
100
AcDbBlockTableRecord
  2
block 3
340
0
102
{BLKREFS
331
E5
102
}
 70
     0
280
     1
281
     0
  0
BLOCK_RECORD
  5
FB
330
1
100
AcDbSymbolTableRecord
100
AcDbBlockTableRecord
  2
block 4
340
0
102
{BLKREFS
331
FC
102
}
 70
     0
280
     1
281
     0
  0
BLOCK_RECORD
  5
10E
330
1
100
AcDbSymbolTableRecord
100
AcDbBlockTableRecord
  2
block 5
340
0
102
{BLKREFS
331
10F
102
}
 70
     0
280
     1
281
     0
  0
BLOCK_RECORD
  5
133
330
1
100
AcDbSymbolTableRecord
100
AcDbBlockTableRecord
  2
block 6
340
0
102
{BLKREFS
331
134
102
}
 70
     0
280
     1
281
     0
  0
BLOCK_RECORD
  5
198
330
1
100
AcDbSymbolTableRecord
100
AcDbBlockTableRecord
  2
block 7
340
0
102
{BLKREFS
331
199
102
}
 70
     0
280
     1
281
     0
  0
BLOCK_RECORD
  5
1C9
330
1
100
AcDbSymbolTableRecord
100
AcDbBlockTableRecord
  2
block 8
340
0
102
{BLKREFS
331
1CA
102
}
 70
     0
280
     1
281
     0
  0
ENDTAB
  0
ENDSEC
  0
SECTION
  2
BLOCKS
  0
BLOCK
  5
20
330
1F
100
AcDbEntity
  8
0
100
AcDbBlockBegin
  2
*Model_Space
 70
     0
 10
0.0
 20
0.0
 30
0.0
  3
*Model_Space
  1

  0
ENDBLK
  5
21
330
1F
100
AcDbEntity
  8
0
100
AcDbBlockEnd
  0
BLOCK
  5
1C
330
1B
100
AcDbEntity
 67
     1
  8
0
100
AcDbBlockBegin
  2
*Paper_Space
 70
     0
 10
0.0
 20
0.0
 30
0.0
  3
*Paper_Space
  1

  0
ENDBLK
  5
1D
330
1B
100
AcDbEntity
 67
     1
  8
0
100
AcDbBlockEnd
  0
BLOCK
  5
24
330
23
100
AcDbEntity
  8
0
100
AcDbBlockBegin
  2
*Paper_Space0
 70
     0
 10
0.0
 20
0.0
 30
0.0
  3
*Paper_Space0
  1

  0
ENDBLK
  5
25
330
23
100
AcDbEntity
  8
0
100
AcDbBlockEnd
  0
BLOCK
  5
51
330
4F
100
AcDbEntity
  8
0
100
AcDbBlockBegin
  2
block 2
 70
     0
 10
0.0
 20
0.0
 30
0.0
  3
block 2
  1

  0
SPLINE
  5
53
330
4F
100
AcDbEntity
  8
_U+30EC_U+30A4_U+30E4_U+30FC 1
370
     0
100
AcDbSpline
210
0.0
220
0.0
230
1.0
 70
    11
 71
     3
 72
    26
 73
    22
 74
     0
 42
0.0000000001
 43
0.0000000001
 12
1.0
 22
0.0
 32
0.0
 13
1.0
 23
0.0
 33
0.0
 40
0.0
 40
0.0
 40
0.0
 40
0.0
 40
1.0
 40
1.0
 40
1.0
 40
2.0
 40
2.0
 40
2.0
 40
3.0
 40
3.0
 40
3.0
 40
4.0
 40
4.0
 40
4.0
 40
5.0
 40
5.0
 40
5.0
 40
6.0
 40
6.0
 40
6.0
 40
7.0
 40
7.0
 40
7.0
 40
7.0
 10
92.40934649382476
 20
-165.0548692078682
 30
0.0
 10
92.40934649382476
 20
-165.0548692078682
 30
0.0
 10
92.40934649382476
 20
-163.9507161048457
 30
0.0
 10
92.40934649382476
 20
-163.9507161048457
 30
0.0
 10
92.40934649382476
 20
-163.9507161048457
 30
0.0
 10
92.07930634633782
 20
-163.9507161048457
 30
0.0
 10
92.07930634633782
 20
-163.9507161048457
 30
0.0
 10
92.07930634633782
 20
-163.9507161048457
 30
0.0
 10
92.07930634633782
 20
-163.8025769989799
 30
0.0
 10
92.07930634633782
 20
-163.8025769989799
 30
0.0
 10
92.4114135511159
 20
-163.7877630883933
 30
0.0
 10
92.45792234016677
 20
-163.624810071941
 30
0.0
 10
92.48755016133993
 20
-163.5104329018307
 30
0.0
 10
92.48755016133993
 20
-163.5104329018307
 30
0.0
 10
92.63362220991452
 20
-163.5104329018307
 30
0.0
 10
92.63362220991452
 20
-163.5104329018307
 30
0.0
 10
92.63362220991452
 20
-163.5104329018307
 30
0.0
 10
92.63362220991452
 20
-165.0548692078682
 30
0.0
 10
92.63362220991452
 20
-165.0548692078682
 30
0.0
 10
92.63362220991452
 20
-165.0548692078682
 30
0.0
 10
92.40934649382476
 20
-165.0548692078682
 30
0.0
 10
92.40934649382476
 20
-165.0548692078682
 30
0.0
  0
HATCH
  5
54
330
4F
100
AcDbEntity
  8
_U+30EC_U+30A4_U+30E4_U+30FC 1
 62
   179
420
  2234388
100
AcDbHatch
 10
0.0
 20
0.0
 30
0.0
210
0.0
220
0.0
230
1.0
  2
SOLID
 70
     1
 71
     0
 91
        1
 92
        1
 93
        1
 72
     4
 94
        3
 73
     0
 74
     1
 95
       26
 96
       22
 40
0.0
 40
0.0
 40
0.0
 40
0.0
 40
1.0
 40
1.0
 40
1.0
 40
2.0
 40
2.0
 40
2.0
 40
3.0
 40
3.0
 40
3.0
 40
4.0
 40
4.0
 40
4.0
 40
5.0
 40
5.0
 40
5.0
 40
6.0
 40
6.0
 40
6.0
 40
7.0
 40
7.0
 40
7.0
 40
7.0
 10
92.40934649382476
 20
-165.0548692078682
 10
92.40934649382476
 20
-165.0548692078682
 10
92.40934649382476
 20
-163.9507161048457
 10
92.40934649382476
 20
-163.9507161048457
 10
92.40934649382476
 20
-163.9507161048457
 10
92.07930634633782
 20
-163.9507161048457
 10
92.07930634633782
 20
-163.9507161048457
 10
92.07930634633782
 20
-163.9507161048457
 10
92.07930634633782
 20
-163.8025769989799
 10
92.07930634633782
 20
-163.8025769989799
 10
92.4114135511159
 20
-163.7877630883933
 10
92.45792234016677
 20
-163.624810071941
 10
92.48755016133993
 20
-163.5104329018307
 10
92.48755016133993
 20
-163.5104329018307
 10
92.63362220991452
 20
-163.5104329018307
 10
92.63362220991452
 20
-163.5104329018307
 10
92.63362220991452
 20
-163.5104329018307
 10
92.63362220991452
 20
-165.0548692078682
 10
92.63362220991452
 20
-165.0548692078682
 10
92.63362220991452
 20
-165.0548692078682
 10
92.40934649382476
 20
-165.0548692078682
 10
92.40934649382476
 20
-165.0548692078682
 97
        0
 97
        0
 75
     2
 76
     1
 98
        0
  0
SPLINE
  5
55
330
4F
100
AcDbEntity
  8
_U+30EC_U+30A4_U+30E4_U+30FC 1
370
     0
100
AcDbSpline
210
0.0
220
0.0
230
1.0
 70
    11
 71
     3
 72
    29
 73
    25
 74
     0
 42
0.0000000001
 43
0.0000000001
 12
1.0
 22
0.0
 32
0.0
 13
1.0
 23
0.0
 33
0.0
 40
0.0
 40
0.0
 40
0.0
 40
0.0
 40
1.0
 40
1.0
 40
1.0
 40
2.0
 40
2.0
 40
2.0
 40
3.0
 40
3.0
 40
3.0
 40
4.0
 40
4.0
 40
4.0
 40
5.0
 40
5.0
 40
5.0
 40
6.0
 40
6.0
 40
6.0
 40
7.0
 40
7.0
 40
7.0
 40
8.0
 40
8.0
 40
8.0
 40
8.0
 10
94.03250323170022
 20
-164.8771022808293
 30
0.0
 10
93.92467174301188
 20
-165.0865640863325
 30
0.0
 10
93.75121118532957
 20
-165.1055121115014
 30
0.0
 10
93.63476695792812
 20
-165.1055121115014
 30
0.0
 10
93.47405325354121
 20
-165.1055121115014
 30
0.0
 10
93.33228757432319
 20
-165.0590033224505
 30
0.0
 10
93.23703068415603
 20
-164.8771022808293
 30
0.0
 10
93.13350556482426
 20
-164.6824543859127
 30
0.0
 10
93.11438528488112
 20
-164.4454318165275
 30
0.0
 10
93.11438528488112
 20
-164.2828233096238
 30
0.0
 10
93.11438528488112
 20
-164.1388183183403
 30
0.0
 10
93.13126625275885
 20
-163.8869818383685
 30
0.0
 10
93.23703068415603
 20
-163.6881998288696
 30
0.0
 10
93.3450344276186
 20
-163.4852837047884
 30
0.0
 10
93.50574813200551
 20
-163.4618570554887
 30
0.0
 10
93.63476695792812
 20
-163.4618570554887
 30
0.0
 10
93.79341360502387
 20
-163.4618570554887
 30
0.0
 10
93.93724634153305
 20
-163.5062987872484
 30
0.0
 10
94.03250323170022
 20
-163.6881998288696
 30
0.0
 10
94.13189423644967
 20
-163.8807806664951
 30
0.0
 10
94.1551486309751
 20
-164.1091904971672
 30
0.0
 10
94.1551486309751
 20
-164.2828233096238
 30
0.0
 10
94.1551486309751
 20
-164.4540445552407
 30
0.0
 10
94.13413354851508
 20
-164.6845214432039
 30
0.0
 10
94.03250323170022
 20
-164.8771022808293
 30
0.0
  0
SPLINE
  5
56
330
4F
100
AcDbEntity
  8
_U+30EC_U+30A4_U+30E4_U+30FC 1
370
     0
100
AcDbSpline
210
0.0
220
0.0
230
1.0
 70
    11
 71
     3
 72
    17
 73
    13
 74
     0
 42
0.0000000001
 43
0.0000000001
 12
1.0
 22
0.0
 32
0.0
 13
1.0
 23
0.0
 33
0.0
 40
0.0
 40
0.0
 40
0.0
 40
0.0
 40
1.0
 40
1.0
 40
1.0
 40
2.0
 40
2.0
 40
2.0
 40
3.0
 40
3.0
 40
3.0
 40
4.0
 40
4.0
 40
4.0
 40
4.0
 10
93.63476695792812
 20
-163.6544378931142
 30
0.0
 10
93.38516979002176
 20
-163.6544378931142
 30
0.0
 10
93.33866100097089
 20
-163.9379692515502
 30
0.0
 10
93.33866100097089
 20
-164.2828233096238
 30
0.0
 10
93.33866100097089
 20
-164.6021836611064
 30
0.0
 10
93.37466224879175
 20
-164.9108642165848
 30
0.0
 10
93.63476695792812
 20
-164.9108642165848
 30
0.0
 10
93.88229706854332
 20
-164.9108642165848
 30
0.0
 10
93.9310451696596
 20
-164.6297444249884
 30
0.0
 10
93.9310451696596
 20
-164.2828233096238
 30
0.0
 10
93.9310451696596
 20
-163.9631184485926
 30
0.0
 10
93.89297686454759
 20
-163.6544378931142
 30
0.0
 10
93.63476695792812
 20
-163.6544378931142
 30
0.0
  0
HATCH
  5
57
330
4F
100
AcDbEntity
  8
_U+30EC_U+30A4_U+30E4_U+30FC 1
 62
   179
420
  2234388
100
AcDbHatch
 10
0.0
 20
0.0
 30
0.0
210
0.0
220
0.0
230
1.0
  2
SOLID
 70
     1
 71
     0
 91
        2
 92
        1
 93
        1
 72
     4
 94
        3
 73
     0
 74
     1
 95
       29
 96
       25
 40
0.0
 40
0.0
 40
0.0
 40
0.0
 40
1.0
 40
1.0
 40
1.0
 40
2.0
 40
2.0
 40
2.0
 40
3.0
 40
3.0
 40
3.0
 40
4.0
 40
4.0
 40
4.0
 40
5.0
 40
5.0
 40
5.0
 40
6.0
 40
6.0
 40
6.0
 40
7.0
 40
7.0
 40
7.0
 40
8.0
 40
8.0
 40
8.0
 40
8.0
 10
94.03250323170022
 20
-164.8771022808293
 10
93.92467174301188
 20
-165.0865640863325
 10
93.75121118532957
 20
-165.1055121115014
 10
93.63476695792812
 20
-165.1055121115014
 10
93.47405325354121
 20
-165.1055121115014
 10
93.33228757432319
 20
-165.0590033224505
 10
93.23703068415603
 20
-164.8771022808293
 10
93.13350556482426
 20
-164.6824543859127
 10
93.11438528488112
 20
-164.4454318165275
 10
93.11438528488112
 20
-164.2828233096238
 10
93.11438528488112
 20
-164.1388183183403
 10
93.13126625275885
 20
-163.8869818383685
 10
93.23703068415603
 20
-163.6881998288696
 10
93.3450344276186
 20
-163.4852837047884
 10
93.50574813200551
 20
-163.4618570554887
 10
93.63476695792812
 20
-163.4618570554887
 10
93.79341360502387
 20
-163.4618570554887
 10
93.93724634153305
 20
-163.5062987872484
 10
94.03250323170022
 20
-163.6881998288696
 10
94.13189423644967
 20
-163.8807806664951
 10
94.1551486309751
 20
-164.1091904971672
 10
94.1551486309751
 20
-164.2828233096238
 10
94.1551486309751
 20
-164.4540445552407
 10
94.13413354851508
 20
-164.6845214432039
 10
94.03250323170022
 20
-164.8771022808293
 97
        0
 97
        0
 92
        1
 93
        1
 72
     4
 94
        3
 73
     0
 74
     1
 95
       17
 96
       13
 40
0.0
 40
0.0
 40
0.0
 40
0.0
 40
1.0
 40
1.0
 40
1.0
 40
2.0
 40
2.0
 40
2.0
 40
3.0
 40
3.0
 40
3.0
 40
4.0
 40
4.0
 40
4.0
 40
4.0
 10
93.63476695792812
 20
-163.6544378931142
 10
93.38516979002176
 20
-163.6544378931142
 10
93.33866100097089
 20
-163.9379692515502
 10
93.33866100097089
 20
-164.2828233096238
 10
93.33866100097089
 20
-164.6021836611064
 10
93.37466224879175
 20
-164.9108642165848
 10
93.63476695792812
 20
-164.9108642165848
 10
93.88229706854332
 20
-164.9108642165848
 10
93.9310451696596
 20
-164.6297444249884
 10
93.9310451696596
 20
-164.2828233096238
 10
93.9310451696596
 20
-163.9631184485926
 10
93.89297686454759
 20
-163.6544378931142
 10
93.63476695792812
 20
-163.6544378931142
 97
        0
 97
        0
 75
     2
 76
     1
 98
        0
  0
ENDBLK
  5
52
330
4F
100
AcDbEntity
  8
0
100
AcDbBlockEnd
  0
BLOCK
  5
E6
330
E4
100
AcDbEntity
  8
0
100
AcDbBlockBegin
  2
block 3
 70
     0
 10
0.0
 20
0.0
 30
0.0
  3
block 3
  1

  0
SPLINE
  5
E8
330
E4
100
AcDbEntity
  8
_U+30EC_U+30A4_U+30E4_U+30FC 1
370
     0
100
AcDbSpline
210
0.0
220
0.0
230
1.0
 70
    11
 71
     3
 72
    44
 73
    40
 74
     0
 42
0.0000000001
 43
0.0000000001
 12
1.0
 22
0.0
 32
0.0
 13
1.0
 23
0.0
 33
0.0
 40
0.0
 40
0.0
 40
0.0
 40
0.0
 40
1.0
 40
1.0
 40
1.0
 40
2.0
 40
2.0
 40
2.0
 40
3.0
 40
3.0
 40
3.0
 40
4.0
 40
4.0
 40
4.0
 40
5.0
 40
5.0
 40
5.0
 40
6.0
 40
6.0
 40
6.0
 40
7.0
 40
7.0
 40
7.0
 40
8.0
 40
8.0
 40
8.0
 40
9.0
 40
9.0
 40
9.0
 40
10.0
 40
10.0
 40
10.0
 40
11.0
 40
11.0
 40
11.0
 40
12.0
 40
12.0
 40
12.0
 40
13.0
 40
13.0
 40
13.0
 40
13.0
 10
111.7533853887283
 20
-132.3166435758618
 30
0.0
 10
111.5356553540605
 20
-132.4754624777318
 30
0.0
 10
111.4426377759588
 20
-132.5495320306647
 30
0.0
 10
111.3937174200682
 20
-132.6931925123996
 30
0.0
 10
111.3937174200682
 20
-132.6931925123996
 30
0.0
 10
112.1723089997347
 20
-132.6931925123996
 30
0.0
 10
112.1723089997347
 20
-132.6931925123996
 30
0.0
 10
112.1723089997347
 20
-132.6931925123996
 30
0.0
 10
112.1723089997347
 20
-132.8985202033205
 30
0.0
 10
112.1723089997347
 20
-132.8985202033205
 30
0.0
 10
112.1723089997347
 20
-132.8985202033205
 30
0.0
 10
111.1442925069362
 20
-132.8985202033205
 30
0.0
 10
111.1442925069362
 20
-132.8985202033205
 30
0.0
 10
111.1759873854004
 20
-132.5409192919516
 30
0.0
 10
111.2414441996202
 20
-132.4627156244364
 30
0.0
 10
111.6266058748711
 20
-132.1643703554138
 30
0.0
 10
111.8825764694252
 20
-131.9655883459149
 30
0.0
 10
111.9480332836449
 20
-131.8977199648554
 30
0.0
 10
111.9480332836449
 20
-131.760260654994
 30
0.0
 10
111.9480332836449
 20
-131.6417493703014
 30
0.0
 10
111.8760307880032
 20
-131.5108357418619
 30
0.0
 10
111.6793158357954
 20
-131.5108357418619
 30
0.0
 10
111.4192111266591
 20
-131.5108357418619
 30
0.0
 10
111.4109428974945
 20
-131.7413126298251
 30
0.0
 10
111.4064642733637
 20
-131.8577568572265
 30
0.0
 10
111.4064642733637
 20
-131.8577568572265
 30
0.0
 10
111.1821885572739
 20
-131.8577568572265
 30
0.0
 10
111.1821885572739
 20
-131.8577568572265
 30
0.0
 10
111.190801295987
 20
-131.7306328338208
 30
0.0
 10
111.2014810919913
 20
-131.6186672305502
 30
0.0
 10
111.2817518167976
 20
-131.5001559458576
 30
0.0
 10
111.3916503627771
 20
-131.3392699866965
 30
0.0
 10
111.5780300285291
 20
-131.305508050941
 30
0.0
 10
111.694129746382
 20
-131.305508050941
 30
0.0
 10
111.9714599329446
 20
-131.305508050941
 30
0.0
 10
112.1788546811567
 20
-131.4894761498533
 30
0.0
 10
112.1788546811567
 20
-131.7623277122851
 30
0.0
 10
112.1788546811567
 20
-131.9910820525057
 30
0.0
 10
112.0624104537552
 20
-132.0903008024809
 30
0.0
 10
111.7533853887283
 20
-132.3166435758618
 30
0.0
  0
HATCH
  5
E9
330
E4
100
AcDbEntity
  8
_U+30EC_U+30A4_U+30E4_U+30FC 1
 62
   179
420
  2234388
100
AcDbHatch
 10
0.0
 20
0.0
 30
0.0
210
0.0
220
0.0
230
1.0
  2
SOLID
 70
     1
 71
     0
 91
        1
 92
        1
 93
        1
 72
     4
 94
        3
 73
     0
 74
     1
 95
       44
 96
       40
 40
0.0
 40
0.0
 40
0.0
 40
0.0
 40
1.0
 40
1.0
 40
1.0
 40
2.0
 40
2.0
 40
2.0
 40
3.0
 40
3.0
 40
3.0
 40
4.0
 40
4.0
 40
4.0
 40
5.0
 40
5.0
 40
5.0
 40
6.0
 40
6.0
 40
6.0
 40
7.0
 40
7.0
 40
7.0
 40
8.0
 40
8.0
 40
8.0
 40
9.0
 40
9.0
 40
9.0
 40
10.0
 40
10.0
 40
10.0
 40
11.0
 40
11.0
 40
11.0
 40
12.0
 40
12.0
 40
12.0
 40
13.0
 40
13.0
 40
13.0
 40
13.0
 10
111.7533853887283
 20
-132.3166435758618
 10
111.5356553540605
 20
-132.4754624777318
 10
111.4426377759588
 20
-132.5495320306647
 10
111.3937174200682
 20
-132.6931925123996
 10
111.3937174200682
 20
-132.6931925123996
 10
112.1723089997347
 20
-132.6931925123996
 10
112.1723089997347
 20
-132.6931925123996
 10
112.1723089997347
 20
-132.6931925123996
 10
112.1723089997347
 20
-132.8985202033205
 10
112.1723089997347
 20
-132.8985202033205
 10
112.1723089997347
 20
-132.8985202033205
 10
111.1442925069362
 20
-132.8985202033205
 10
111.1442925069362
 20
-132.8985202033205
 10
111.1759873854004
 20
-132.5409192919516
 10
111.2414441996202
 20
-132.4627156244364
 10
111.6266058748711
 20
-132.1643703554138
 10
111.8825764694252
 20
-131.9655883459149
 10
111.9480332836449
 20
-131.8977199648554
 10
111.9480332836449
 20
-131.760260654994
 10
111.9480332836449
 20
-131.6417493703014
 10
111.8760307880032
 20
-131.5108357418619
 10
111.6793158357954
 20
-131.5108357418619
 10
111.4192111266591
 20
-131.5108357418619
 10
111.4109428974945
 20
-131.7413126298251
 10
111.4064642733637
 20
-131.8577568572265
 10
111.4064642733637
 20
-131.8577568572265
 10
111.1821885572739
 20
-131.8577568572265
 10
111.1821885572739
 20
-131.8577568572265
 10
111.190801295987
 20
-131.7306328338208
 10
111.2014810919913
 20
-131.6186672305502
 10
111.2817518167976
 20
-131.5001559458576
 10
111.3916503627771
 20
-131.3392699866965
 10
111.5780300285291
 20
-131.305508050941
 10
111.694129746382
 20
-131.305508050941
 10
111.9714599329446
 20
-131.305508050941
 10
112.1788546811567
 20
-131.4894761498533
 10
112.1788546811567
 20
-131.7623277122851
 10
112.1788546811567
 20
-131.9910820525057
 10
112.0624104537552
 20
-132.0903008024809
 10
111.7533853887283
 20
-132.3166435758618
 97
        0
 97
        0
 75
     2
 76
     1
 98
        0
  0
SPLINE
  5
EA
330
E4
100
AcDbEntity
  8
_U+30EC_U+30A4_U+30E4_U+30FC 1
370
     0
100
AcDbSpline
210
0.0
220
0.0
230
1.0
 70
    11
 71
     3
 72
    32
 73
    28
 74
     0
 42
0.0000000001
 43
0.0000000001
 12
1.0
 22
0.0
 32
0.0
 13
1.0
 23
0.0
 33
0.0
 40
0.0
 40
0.0
 40
0.0
 40
0.0
 40
1.0
 40
1.0
 40
1.0
 40
2.0
 40
2.0
 40
2.0
 40
3.0
 40
3.0
 40
3.0
 40
4.0
 40
4.0
 40
4.0
 40
5.0
 40
5.0
 40
5.0
 40
6.0
 40
6.0
 40
6.0
 40
7.0
 40
7.0
 40
7.0
 40
8.0
 40
8.0
 40
8.0
 40
9.0
 40
9.0
 40
9.0
 40
9.0
 10
112.8413465429702
 20
-132.9491631069537
 30
0.0
 10
112.3252712392798
 20
-132.9491631069537
 30
0.0
 10
112.3170030101152
 20
-132.3951917529255
 30
0.0
 10
112.3170030101152
 20
-132.1812513232915
 30
0.0
 10
112.3170030101152
 20
-131.9507744353283
 30
0.0
 10
112.3359510352841
 20
-131.3034409936498
 30
0.0
 10
112.8795871028565
 20
-131.3034409936498
 30
0.0
 10
113.0528754057646
 20
-131.3034409936498
 30
0.0
 10
113.2985107138629
 20
-131.3733764320004
 30
0.0
 10
113.3364067642006
 20
-131.7054836367785
 30
0.0
 10
113.3364067642006
 20
-131.7054836367785
 30
0.0
 10
113.1228108441151
 20
-131.7054836367785
 30
0.0
 10
113.1228108441151
 20
-131.7054836367785
 30
0.0
 10
113.1121310481109
 20
-131.6482950517234
 30
0.0
 10
113.0804361696466
 20
-131.5001559458576
 30
0.0
 10
112.8775200455653
 20
-131.5001559458576
 30
0.0
 10
112.5853759484162
 20
-131.5001559458576
 30
0.0
 10
112.5454128407873
 20
-131.8281290360534
 30
0.0
 10
112.5326659874918
 20
-132.0331122174258
 30
0.0
 10
112.6256835655936
 20
-131.9549085499106
 30
0.0
 10
112.693551946653
 20
-131.8956529075643
 30
0.0
 10
112.8754529882742
 20
-131.8956529075643
 30
0.0
 10
113.0552869726042
 20
-131.8956529075643
 30
0.0
 10
113.3577663562092
 20
-132.0038289058011
 30
0.0
 10
113.3577663562092
 20
-132.4100056635121
 30
0.0
 10
113.3577663562092
 20
-132.7293660149948
 30
0.0
 10
113.1586398371617
 20
-132.9491631069537
 30
0.0
 10
112.8413465429702
 20
-132.9491631069537
 30
0.0
  0
SPLINE
  5
EB
330
E4
100
AcDbEntity
  8
_U+30EC_U+30A4_U+30E4_U+30FC 1
370
     0
100
AcDbSpline
210
0.0
220
0.0
230
1.0
 70
    11
 71
     3
 72
    17
 73
    13
 74
     0
 42
0.0000000001
 43
0.0000000001
 12
1.0
 22
0.0
 32
0.0
 13
1.0
 23
0.0
 33
0.0
 40
0.0
 40
0.0
 40
0.0
 40
0.0
 40
1.0
 40
1.0
 40
1.0
 40
2.0
 40
2.0
 40
2.0
 40
3.0
 40
3.0
 40
3.0
 40
4.0
 40
4.0
 40
4.0
 40
4.0
 10
112.8585720203965
 20
-132.0903008024809
 30
0.0
 10
112.5960557444204
 20
-132.0903008024809
 30
0.0
 10
112.5581596940827
 20
-132.3018296652752
 30
0.0
 10
112.5581596940827
 20
-132.4182738926767
 30
0.0
 10
112.5581596940827
 20
-132.5939737624244
 30
0.0
 10
112.6532443294756
 20
-132.7569267788768
 30
0.0
 10
112.8372124283879
 20
-132.7569267788768
 30
0.0
 10
112.9577907703717
 20
-132.7569267788768
 30
0.0
 10
113.1334906401194
 20
-132.6976711365305
 30
0.0
 10
113.1334906401194
 20
-132.4120727208033
 30
0.0
 10
113.1334906401194
 20
-132.1877970047135
 30
0.0
 10
112.9936197634183
 20
-132.0903008024809
 30
0.0
 10
112.8585720203965
 20
-132.0903008024809
 30
0.0
  0
HATCH
  5
EC
330
E4
100
AcDbEntity
  8
_U+30EC_U+30A4_U+30E4_U+30FC 1
 62
   179
420
  2234388
100
AcDbHatch
 10
0.0
 20
0.0
 30
0.0
210
0.0
220
0.0
230
1.0
  2
SOLID
 70
     1
 71
     0
 91
        2
 92
        1
 93
        1
 72
     4
 94
        3
 73
     0
 74
     1
 95
       32
 96
       28
 40
0.0
 40
0.0
 40
0.0
 40
0.0
 40
1.0
 40
1.0
 40
1.0
 40
2.0
 40
2.0
 40
2.0
 40
3.0
 40
3.0
 40
3.0
 40
4.0
 40
4.0
 40
4.0
 40
5.0
 40
5.0
 40
5.0
 40
6.0
 40
6.0
 40
6.0
 40
7.0
 40
7.0
 40
7.0
 40
8.0
 40
8.0
 40
8.0
 40
9.0
 40
9.0
 40
9.0
 40
9.0
 10
112.8413465429702
 20
-132.9491631069537
 10
112.3252712392798
 20
-132.9491631069537
 10
112.3170030101152
 20
-132.3951917529255
 10
112.3170030101152
 20
-132.1812513232915
 10
112.3170030101152
 20
-131.9507744353283
 10
112.3359510352841
 20
-131.3034409936498
 10
112.8795871028565
 20
-131.3034409936498
 10
113.0528754057646
 20
-131.3034409936498
 10
113.2985107138629
 20
-131.3733764320004
 10
113.3364067642006
 20
-131.7054836367785
 10
113.3364067642006
 20
-131.7054836367785
 10
113.1228108441151
 20
-131.7054836367785
 10
113.1228108441151
 20
-131.7054836367785
 10
113.1121310481109
 20
-131.6482950517234
 10
113.0804361696466
 20
-131.5001559458576
 10
112.8775200455653
 20
-131.5001559458576
 10
112.5853759484162
 20
-131.5001559458576
 10
112.5454128407873
 20
-131.8281290360534
 10
112.5326659874918
 20
-132.0331122174258
 10
112.6256835655936
 20
-131.9549085499106
 10
112.693551946653
 20
-131.8956529075643
 10
112.8754529882742
 20
-131.8956529075643
 10
113.0552869726042
 20
-131.8956529075643
 10
113.3577663562092
 20
-132.0038289058011
 10
113.3577663562092
 20
-132.4100056635121
 10
113.3577663562092
 20
-132.7293660149948
 10
113.1586398371617
 20
-132.9491631069537
 10
112.8413465429702
 20
-132.9491631069537
 97
        0
 97
        0
 92
        1
 93
        1
 72
     4
 94
        3
 73
     0
 74
     1
 95
       17
 96
       13
 40
0.0
 40
0.0
 40
0.0
 40
0.0
 40
1.0
 40
1.0
 40
1.0
 40
2.0
 40
2.0
 40
2.0
 40
3.0
 40
3.0
 40
3.0
 40
4.0
 40
4.0
 40
4.0
 40
4.0
 10
112.8585720203965
 20
-132.0903008024809
 10
112.5960557444204
 20
-132.0903008024809
 10
112.5581596940827
 20
-132.3018296652752
 10
112.5581596940827
 20
-132.4182738926767
 10
112.5581596940827
 20
-132.5939737624244
 10
112.6532443294756
 20
-132.7569267788768
 10
112.8372124283879
 20
-132.7569267788768
 10
112.9577907703717
 20
-132.7569267788768
 10
113.1334906401194
 20
-132.6976711365305
 10
113.1334906401194
 20
-132.4120727208033
 10
113.1334906401194
 20
-132.1877970047135
 10
112.9936197634183
 20
-132.0903008024809
 10
112.8585720203965
 20
-132.0903008024809
 97
        0
 97
        0
 75
     2
 76
     1
 98
        0
  0
ENDBLK
  5
E7
330
E4
100
AcDbEntity
  8
0
100
AcDbBlockEnd
  0
BLOCK
  5
FD
330
FB
100
AcDbEntity
  8
0
100
AcDbBlockBegin
  2
block 4
 70
     0
 10
0.0
 20
0.0
 30
0.0
  3
block 4
  1

  0
SPLINE
  5
FF
330
FB
100
AcDbEntity
  8
_U+30EC_U+30A4_U+30E4_U+30FC 1
370
     0
100
AcDbSpline
210
0.0
220
0.0
230
1.0
 70
    11
 71
     3
 72
    32
 73
    28
 74
     0
 42
0.0000000001
 43
0.0000000001
 12
1.0
 22
0.0
 32
0.0
 13
1.0
 23
0.0
 33
0.0
 40
0.0
 40
0.0
 40
0.0
 40
0.0
 40
1.0
 40
1.0
 40
1.0
 40
2.0
 40
2.0
 40
2.0
 40
3.0
 40
3.0
 40
3.0
 40
4.0
 40
4.0
 40
4.0
 40
5.0
 40
5.0
 40
5.0
 40
6.0
 40
6.0
 40
6.0
 40
7.0
 40
7.0
 40
7.0
 40
8.0
 40
8.0
 40
8.0
 40
9.0
 40
9.0
 40
9.0
 40
9.0
 10
130.4850585611287
 20
-140.761778393629
 30
0.0
 10
130.4850585611287
 20
-141.2778536973194
 30
0.0
 10
129.9310872071006
 20
-141.286121926484
 30
0.0
 10
129.7174912870151
 20
-141.286121926484
 30
0.0
 10
129.4866698895033
 20
-141.286121926484
 30
0.0
 10
128.8396809573734
 20
-141.2671739013151
 30
0.0
 10
128.8396809573734
 20
-140.7235378337427
 30
0.0
 10
128.8396809573734
 20
-140.5502495308347
 30
0.0
 10
128.9092718861755
 20
-140.3046142227363
 30
0.0
 10
129.2413790909536
 20
-140.2667181723986
 30
0.0
 10
129.2413790909536
 20
-140.2667181723986
 30
0.0
 10
129.2413790909536
 20
-140.4803140924841
 30
0.0
 10
129.2413790909536
 20
-140.4803140924841
 30
0.0
 10
129.1841905058984
 20
-140.4909938884884
 30
0.0
 10
129.0360514000326
 20
-140.5226887669527
 30
0.0
 10
129.0360514000326
 20
-140.7256048910339
 30
0.0
 10
129.0360514000326
 20
-141.0177489881831
 30
0.0
 10
129.3640244902284
 20
-141.057712095812
 30
0.0
 10
129.5693521811493
 20
-141.0704589491074
 30
0.0
 10
129.4908040040856
 20
-140.9774413710057
 30
0.0
 10
129.4315483617393
 20
-140.9095729899462
 30
0.0
 10
129.4315483617393
 20
-140.727671948325
 30
0.0
 10
129.4315483617393
 20
-140.547837963995
 30
0.0
 10
129.5397243599762
 20
-140.24535858039
 30
0.0
 10
129.9462456272357
 20
-140.24535858039
 30
0.0
 10
130.2652614691698
 20
-140.24535858039
 30
0.0
 10
130.4850585611287
 20
-140.4444850994375
 30
0.0
 10
130.4850585611287
 20
-140.761778393629
 30
0.0
  0
SPLINE
  5
100
330
FB
100
AcDbEntity
  8
_U+30EC_U+30A4_U+30E4_U+30FC 1
370
     0
100
AcDbSpline
210
0.0
220
0.0
230
1.0
 70
    11
 71
     3
 72
    17
 73
    13
 74
     0
 42
0.0000000001
 43
0.0000000001
 12
1.0
 22
0.0
 32
0.0
 13
1.0
 23
0.0
 33
0.0
 40
0.0
 40
0.0
 40
0.0
 40
0.0
 40
1.0
 40
1.0
 40
1.0
 40
2.0
 40
2.0
 40
2.0
 40
3.0
 40
3.0
 40
3.0
 40
4.0
 40
4.0
 40
4.0
 40
4.0
 10
129.6265407662045
 20
-140.7445529162028
 30
0.0
 10
129.6265407662045
 20
-141.0070691921788
 30
0.0
 10
129.8380696289988
 20
-141.0449652425166
 30
0.0
 10
129.9545138564003
 20
-141.0449652425166
 30
0.0
 10
130.130213726148
 20
-141.0449652425166
 30
0.0
 10
130.2928222330518
 20
-140.9498806071236
 30
0.0
 10
130.2928222330518
 20
-140.7659125082113
 30
0.0
 10
130.2928222330518
 20
-140.6453341662276
 30
0.0
 10
130.2335665907055
 20
-140.4696342964798
 30
0.0
 10
129.9483126845268
 20
-140.4696342964798
 30
0.0
 10
129.7236924588885
 20
-140.4696342964798
 30
0.0
 10
129.6265407662045
 20
-140.609505173181
 30
0.0
 10
129.6265407662045
 20
-140.7445529162028
 30
0.0
  0
HATCH
  5
101
330
FB
100
AcDbEntity
  8
_U+30EC_U+30A4_U+30E4_U+30FC 1
 62
   179
420
  2234388
100
AcDbHatch
 10
0.0
 20
0.0
 30
0.0
210
0.0
220
0.0
230
1.0
  2
SOLID
 70
     1
 71
     0
 91
        2
 92
        1
 93
        1
 72
     4
 94
        3
 73
     0
 74
     1
 95
       32
 96
       28
 40
0.0
 40
0.0
 40
0.0
 40
0.0
 40
1.0
 40
1.0
 40
1.0
 40
2.0
 40
2.0
 40
2.0
 40
3.0
 40
3.0
 40
3.0
 40
4.0
 40
4.0
 40
4.0
 40
5.0
 40
5.0
 40
5.0
 40
6.0
 40
6.0
 40
6.0
 40
7.0
 40
7.0
 40
7.0
 40
8.0
 40
8.0
 40
8.0
 40
9.0
 40
9.0
 40
9.0
 40
9.0
 10
130.4850585611287
 20
-140.761778393629
 10
130.4850585611287
 20
-141.2778536973194
 10
129.9310872071006
 20
-141.286121926484
 10
129.7174912870151
 20
-141.286121926484
 10
129.4866698895033
 20
-141.286121926484
 10
128.8396809573734
 20
-141.2671739013151
 10
128.8396809573734
 20
-140.7235378337427
 10
128.8396809573734
 20
-140.5502495308347
 10
128.9092718861755
 20
-140.3046142227363
 10
129.2413790909536
 20
-140.2667181723986
 10
129.2413790909536
 20
-140.2667181723986
 10
129.2413790909536
 20
-140.4803140924841
 10
129.2413790909536
 20
-140.4803140924841
 10
129.1841905058984
 20
-140.4909938884884
 10
129.0360514000326
 20
-140.5226887669527
 10
129.0360514000326
 20
-140.7256048910339
 10
129.0360514000326
 20
-141.0177489881831
 10
129.3640244902284
 20
-141.057712095812
 10
129.5693521811493
 20
-141.0704589491074
 10
129.4908040040856
 20
-140.9774413710057
 10
129.4315483617393
 20
-140.9095729899462
 10
129.4315483617393
 20
-140.727671948325
 10
129.4315483617393
 20
-140.547837963995
 10
129.5397243599762
 20
-140.24535858039
 10
129.9462456272357
 20
-140.24535858039
 10
130.2652614691698
 20
-140.24535858039
 10
130.4850585611287
 20
-140.4444850994375
 10
130.4850585611287
 20
-140.761778393629
 97
        0
 97
        0
 92
        1
 93
        1
 72
     4
 94
        3
 73
     0
 74
     1
 95
       17
 96
       13
 40
0.0
 40
0.0
 40
0.0
 40
0.0
 40
1.0
 40
1.0
 40
1.0
 40
2.0
 40
2.0
 40
2.0
 40
3.0
 40
3.0
 40
3.0
 40
4.0
 40
4.0
 40
4.0
 40
4.0
 10
129.6265407662045
 20
-140.7445529162028
 10
129.6265407662045
 20
-141.0070691921788
 10
129.8380696289988
 20
-141.0449652425166
 10
129.9545138564003
 20
-141.0449652425166
 10
130.130213726148
 20
-141.0449652425166
 10
130.2928222330518
 20
-140.9498806071236
 10
130.2928222330518
 20
-140.7659125082113
 10
130.2928222330518
 20
-140.6453341662276
 10
130.2335665907055
 20
-140.4696342964798
 10
129.9483126845268
 20
-140.4696342964798
 10
129.7236924588885
 20
-140.4696342964798
 10
129.6265407662045
 20
-140.609505173181
 10
129.6265407662045
 20
-140.7445529162028
 97
        0
 97
        0
 75
     2
 76
     1
 98
        0
  0
ENDBLK
  5
FE
330
FB
100
AcDbEntity
  8
0
100
AcDbBlockEnd
  0
BLOCK
  5
110
330
10E
100
AcDbEntity
  8
0
100
AcDbBlockBegin
  2
block 5
 70
     0
 10
0.0
 20
0.0
 30
0.0
  3
block 5
  1

  0
SPLINE
  5
112
330
10E
100
AcDbEntity
  8
_U+30EC_U+30A4_U+30E4_U+30FC 1
370
     0
100
AcDbSpline
210
0.0
220
0.0
230
1.0
 70
    11
 71
     3
 72
    44
 73
    40
 74
     0
 42
0.0000000001
 43
0.0000000001
 12
1.0
 22
0.0
 32
0.0
 13
1.0
 23
0.0
 33
0.0
 40
0.0
 40
0.0
 40
0.0
 40
0.0
 40
1.0
 40
1.0
 40
1.0
 40
2.0
 40
2.0
 40
2.0
 40
3.0
 40
3.0
 40
3.0
 40
4.0
 40
4.0
 40
4.0
 40
5.0
 40
5.0
 40
5.0
 40
6.0
 40
6.0
 40
6.0
 40
7.0
 40
7.0
 40
7.0
 40
8.0
 40
8.0
 40
8.0
 40
9.0
 40
9.0
 40
9.0
 40
10.0
 40
10.0
 40
10.0
 40
11.0
 40
11.0
 40
11.0
 40
12.0
 40
12.0
 40
12.0
 40
13.0
 40
13.0
 40
13.0
 40
13.0
 10
80.79782441556443
 20
-151.2500270889236
 30
0.0
 10
80.95664331743446
 20
-151.4677571235914
 30
0.0
 10
81.03071287036732
 20
-151.5607747016931
 30
0.0
 10
81.17437335210225
 20
-151.6096950575837
 30
0.0
 10
81.17437335210225
 20
-151.6096950575837
 30
0.0
 10
81.17437335210225
 20
-150.8311034779172
 30
0.0
 10
81.17437335210225
 20
-150.8311034779172
 30
0.0
 10
81.17437335210225
 20
-150.8311034779172
 30
0.0
 10
81.37970104302313
 20
-150.8311034779172
 30
0.0
 10
81.37970104302313
 20
-150.8311034779172
 30
0.0
 10
81.37970104302313
 20
-150.8311034779172
 30
0.0
 10
81.37970104302313
 20
-151.8591199707158
 30
0.0
 10
81.37970104302313
 20
-151.8591199707158
 30
0.0
 10
81.0221001316542
 20
-151.8274250922515
 30
0.0
 10
80.94389646413903
 20
-151.7619682780317
 30
0.0
 10
80.6455511951164
 20
-151.3768066027808
 30
0.0
 10
80.44676918561748
 20
-151.1208360082267
 30
0.0
 10
80.37890080455806
 20
-151.055379194007
 30
0.0
 10
80.24144149469659
 20
-151.055379194007
 30
0.0
 10
80.122930210004
 20
-151.055379194007
 30
0.0
 10
79.9920165815645
 20
-151.1273816896487
 30
0.0
 10
79.9920165815645
 20
-151.323752132308
 30
0.0
 10
79.9920165815645
 20
-151.5842013509929
 30
0.0
 10
80.22249346952772
 20
-151.5924695801575
 30
0.0
 10
80.33893769692916
 20
-151.5969482042883
 30
0.0
 10
80.33893769692916
 20
-151.5969482042883
 30
0.0
 10
80.33893769692916
 20
-151.821223920378
 30
0.0
 10
80.33893769692916
 20
-151.821223920378
 30
0.0
 10
80.21181367352344
 20
-151.8126111816649
 30
0.0
 10
80.09984807025282
 20
-151.8019313856606
 30
0.0
 10
79.98133678556023
 20
-151.7216606608543
 30
0.0
 10
79.82045082639905
 20
-151.6117621148748
 30
0.0
 10
79.7866888906436
 20
-151.4257269586714
 30
0.0
 10
79.7866888906436
 20
-151.3092827312699
 30
0.0
 10
79.7866888906436
 20
-151.0319525447073
 30
0.0
 10
79.97065698955595
 20
-150.8249023060438
 30
0.0
 10
80.24350855198774
 20
-150.8249023060438
 30
0.0
 10
80.47226289220832
 20
-150.8249023060438
 30
0.0
 10
80.57148164218353
 20
-150.9410020238967
 30
0.0
 10
80.79782441556443
 20
-151.2500270889236
 30
0.0
  0
HATCH
  5
113
330
10E
100
AcDbEntity
  8
_U+30EC_U+30A4_U+30E4_U+30FC 1
 62
   179
420
  2234388
100
AcDbHatch
 10
0.0
 20
0.0
 30
0.0
210
0.0
220
0.0
230
1.0
  2
SOLID
 70
     1
 71
     0
 91
        1
 92
        1
 93
        1
 72
     4
 94
        3
 73
     0
 74
     1
 95
       44
 96
       40
 40
0.0
 40
0.0
 40
0.0
 40
0.0
 40
1.0
 40
1.0
 40
1.0
 40
2.0
 40
2.0
 40
2.0
 40
3.0
 40
3.0
 40
3.0
 40
4.0
 40
4.0
 40
4.0
 40
5.0
 40
5.0
 40
5.0
 40
6.0
 40
6.0
 40
6.0
 40
7.0
 40
7.0
 40
7.0
 40
8.0
 40
8.0
 40
8.0
 40
9.0
 40
9.0
 40
9.0
 40
10.0
 40
10.0
 40
10.0
 40
11.0
 40
11.0
 40
11.0
 40
12.0
 40
12.0
 40
12.0
 40
13.0
 40
13.0
 40
13.0
 40
13.0
 10
80.79782441556443
 20
-151.2500270889236
 10
80.95664331743446
 20
-151.4677571235914
 10
81.03071287036732
 20
-151.5607747016931
 10
81.17437335210225
 20
-151.6096950575837
 10
81.17437335210225
 20
-151.6096950575837
 10
81.17437335210225
 20
-150.8311034779172
 10
81.17437335210225
 20
-150.8311034779172
 10
81.17437335210225
 20
-150.8311034779172
 10
81.37970104302313
 20
-150.8311034779172
 10
81.37970104302313
 20
-150.8311034779172
 10
81.37970104302313
 20
-150.8311034779172
 10
81.37970104302313
 20
-151.8591199707158
 10
81.37970104302313
 20
-151.8591199707158
 10
81.0221001316542
 20
-151.8274250922515
 10
80.94389646413903
 20
-151.7619682780317
 10
80.6455511951164
 20
-151.3768066027808
 10
80.44676918561748
 20
-151.1208360082267
 10
80.37890080455806
 20
-151.055379194007
 10
80.24144149469659
 20
-151.055379194007
 10
80.122930210004
 20
-151.055379194007
 10
79.9920165815645
 20
-151.1273816896487
 10
79.9920165815645
 20
-151.323752132308
 10
79.9920165815645
 20
-151.5842013509929
 10
80.22249346952772
 20
-151.5924695801575
 10
80.33893769692916
 20
-151.5969482042883
 10
80.33893769692916
 20
-151.5969482042883
 10
80.33893769692916
 20
-151.821223920378
 10
80.33893769692916
 20
-151.821223920378
 10
80.21181367352344
 20
-151.8126111816649
 10
80.09984807025282
 20
-151.8019313856606
 10
79.98133678556023
 20
-151.7216606608543
 10
79.82045082639905
 20
-151.6117621148748
 10
79.7866888906436
 20
-151.4257269586714
 10
79.7866888906436
 20
-151.3092827312699
 10
79.7866888906436
 20
-151.0319525447073
 10
79.97065698955595
 20
-150.8249023060438
 10
80.24350855198774
 20
-150.8249023060438
 10
80.47226289220832
 20
-150.8249023060438
 10
80.57148164218353
 20
-150.9410020238967
 10
80.79782441556443
 20
-151.2500270889236
 97
        0
 97
        0
 75
     2
 76
     1
 98
        0
  0
SPLINE
  5
114
330
10E
100
AcDbEntity
  8
_U+30EC_U+30A4_U+30E4_U+30FC 1
370
     0
100
AcDbSpline
210
0.0
220
0.0
230
1.0
 70
    11
 71
     3
 72
    32
 73
    28
 74
     0
 42
0.0000000001
 43
0.0000000001
 12
1.0
 22
0.0
 32
0.0
 13
1.0
 23
0.0
 33
0.0
 40
0.0
 40
0.0
 40
0.0
 40
0.0
 40
1.0
 40
1.0
 40
1.0
 40
2.0
 40
2.0
 40
2.0
 40
3.0
 40
3.0
 40
3.0
 40
4.0
 40
4.0
 40
4.0
 40
5.0
 40
5.0
 40
5.0
 40
6.0
 40
6.0
 40
6.0
 40
7.0
 40
7.0
 40
7.0
 40
8.0
 40
8.0
 40
8.0
 40
9.0
 40
9.0
 40
9.0
 40
9.0
 10
81.43034394665631
 20
-150.1620659346817
 30
0.0
 10
81.43034394665631
 20
-150.6781412383721
 30
0.0
 10
80.87637259262813
 20
-150.6864094675367
 30
0.0
 10
80.66243216299412
 20
-150.6864094675367
 30
0.0
 10
80.4319552750309
 20
-150.6864094675367
 30
0.0
 10
79.78462183335246
 20
-150.6674614423679
 30
0.0
 10
79.78462183335246
 20
-150.1238253747954
 30
0.0
 10
79.78462183335246
 20
-149.9505370718874
 30
0.0
 10
79.85455727170303
 20
-149.7049017637891
 30
0.0
 10
80.18666447648111
 20
-149.6666612039028
 30
0.0
 10
80.18666447648111
 20
-149.6666612039028
 30
0.0
 10
80.18666447648111
 20
-149.8806016335368
 30
0.0
 10
80.18666447648111
 20
-149.8806016335368
 30
0.0
 10
80.12947589142597
 20
-149.8912814295411
 30
0.0
 10
79.98133678556023
 20
-149.9229763080054
 30
0.0
 10
79.98133678556023
 20
-150.1258924320866
 30
0.0
 10
79.98133678556023
 20
-150.4176920196873
 30
0.0
 10
80.30930987575601
 20
-150.4583441464132
 30
0.0
 10
80.51429305712837
 20
-150.4707464901601
 30
0.0
 10
80.4360893896132
 20
-150.3777289120584
 30
0.0
 10
80.3768337472669
 20
-150.3102050405475
 30
0.0
 10
80.3768337472669
 20
-150.1283039989263
 30
0.0
 10
80.3768337472669
 20
-149.9484700145962
 30
0.0
 10
80.48500974550375
 20
-149.6459906309913
 30
0.0
 10
80.89118650321471
 20
-149.6459906309913
 30
0.0
 10
81.21054685469737
 20
-149.6459906309913
 30
0.0
 10
81.43034394665631
 20
-149.8444281309417
 30
0.0
 10
81.43034394665631
 20
-150.1620659346817
 30
0.0
  0
SPLINE
  5
115
330
10E
100
AcDbEntity
  8
_U+30EC_U+30A4_U+30E4_U+30FC 1
370
     0
100
AcDbSpline
210
0.0
220
0.0
230
1.0
 70
    11
 71
     3
 72
    17
 73
    13
 74
     0
 42
0.0000000001
 43
0.0000000001
 12
1.0
 22
0.0
 32
0.0
 13
1.0
 23
0.0
 33
0.0
 40
0.0
 40
0.0
 40
0.0
 40
0.0
 40
1.0
 40
1.0
 40
1.0
 40
2.0
 40
2.0
 40
2.0
 40
3.0
 40
3.0
 40
3.0
 40
4.0
 40
4.0
 40
4.0
 40
4.0
 10
80.57148164218353
 20
-150.1448404572555
 30
0.0
 10
80.57148164218353
 20
-150.4073567332315
 30
0.0
 10
80.78301050497787
 20
-150.4452527835693
 30
0.0
 10
80.89945473237931
 20
-150.4452527835693
 30
0.0
 10
81.07515460212704
 20
-150.4452527835693
 30
0.0
 10
81.23810761857936
 20
-150.3501681481764
 30
0.0
 10
81.23810761857936
 20
-150.166200049264
 30
0.0
 10
81.23810761857936
 20
-150.0456217072803
 30
0.0
 10
81.17885197623306
 20
-149.8699218375325
 30
0.0
 10
80.89325356050585
 20
-149.8699218375325
 30
0.0
 10
80.66897784441609
 20
-149.8699218375325
 30
0.0
 10
80.57148164218353
 20
-150.0097927142337
 30
0.0
 10
80.57148164218353
 20
-150.1448404572555
 30
0.0
  0
HATCH
  5
116
330
10E
100
AcDbEntity
  8
_U+30EC_U+30A4_U+30E4_U+30FC 1
 62
   179
420
  2234388
100
AcDbHatch
 10
0.0
 20
0.0
 30
0.0
210
0.0
220
0.0
230
1.0
  2
SOLID
 70
     1
 71
     0
 91
        2
 92
        1
 93
        1
 72
     4
 94
        3
 73
     0
 74
     1
 95
       32
 96
       28
 40
0.0
 40
0.0
 40
0.0
 40
0.0
 40
1.0
 40
1.0
 40
1.0
 40
2.0
 40
2.0
 40
2.0
 40
3.0
 40
3.0
 40
3.0
 40
4.0
 40
4.0
 40
4.0
 40
5.0
 40
5.0
 40
5.0
 40
6.0
 40
6.0
 40
6.0
 40
7.0
 40
7.0
 40
7.0
 40
8.0
 40
8.0
 40
8.0
 40
9.0
 40
9.0
 40
9.0
 40
9.0
 10
81.43034394665631
 20
-150.1620659346817
 10
81.43034394665631
 20
-150.6781412383721
 10
80.87637259262813
 20
-150.6864094675367
 10
80.66243216299412
 20
-150.6864094675367
 10
80.4319552750309
 20
-150.6864094675367
 10
79.78462183335246
 20
-150.6674614423679
 10
79.78462183335246
 20
-150.1238253747954
 10
79.78462183335246
 20
-149.9505370718874
 10
79.85455727170303
 20
-149.7049017637891
 10
80.18666447648111
 20
-149.6666612039028
 10
80.18666447648111
 20
-149.6666612039028
 10
80.18666447648111
 20
-149.8806016335368
 10
80.18666447648111
 20
-149.8806016335368
 10
80.12947589142597
 20
-149.8912814295411
 10
79.98133678556023
 20
-149.9229763080054
 10
79.98133678556023
 20
-150.1258924320866
 10
79.98133678556023
 20
-150.4176920196873
 10
80.30930987575601
 20
-150.4583441464132
 10
80.51429305712837
 20
-150.4707464901601
 10
80.4360893896132
 20
-150.3777289120584
 10
80.3768337472669
 20
-150.3102050405475
 10
80.3768337472669
 20
-150.1283039989263
 10
80.3768337472669
 20
-149.9484700145962
 10
80.48500974550375
 20
-149.6459906309913
 10
80.89118650321471
 20
-149.6459906309913
 10
81.21054685469737
 20
-149.6459906309913
 10
81.43034394665631
 20
-149.8444281309417
 10
81.43034394665631
 20
-150.1620659346817
 97
        0
 97
        0
 92
        1
 93
        1
 72
     4
 94
        3
 73
     0
 74
     1
 95
       17
 96
       13
 40
0.0
 40
0.0
 40
0.0
 40
0.0
 40
1.0
 40
1.0
 40
1.0
 40
2.0
 40
2.0
 40
2.0
 40
3.0
 40
3.0
 40
3.0
 40
4.0
 40
4.0
 40
4.0
 40
4.0
 10
80.57148164218353
 20
-150.1448404572555
 10
80.57148164218353
 20
-150.4073567332315
 10
80.78301050497787
 20
-150.4452527835693
 10
80.89945473237931
 20
-150.4452527835693
 10
81.07515460212704
 20
-150.4452527835693
 10
81.23810761857936
 20
-150.3501681481764
 10
81.23810761857936
 20
-150.166200049264
 10
81.23810761857936
 20
-150.0456217072803
 10
81.17885197623306
 20
-149.8699218375325
 10
80.89325356050585
 20
-149.8699218375325
 10
80.66897784441609
 20
-149.8699218375325
 10
80.57148164218353
 20
-150.0097927142337
 10
80.57148164218353
 20
-150.1448404572555
 97
        0
 97
        0
 75
     2
 76
     1
 98
        0
  0
ENDBLK
  5
111
330
10E
100
AcDbEntity
  8
0
100
AcDbBlockEnd
  0
BLOCK
  5
135
330
133
100
AcDbEntity
  8
0
100
AcDbBlockBegin
  2
block 6
 70
     0
 10
0.0
 20
0.0
 30
0.0
  3
block 6
  1

  0
POLYLINE
  5
137
330
133
100
AcDbEntity
  8
_U+30EC_U+30A4_U+30E4_U+30FC 1
370
     0
100
AcDb2dPolyline
 66
     1
 10
0.0
 20
0.0
 30
0.0
  0
VERTEX
  5
138
330
137
100
AcDbEntity
  8
_U+30EC_U+30A4_U+30E4_U+30FC 1
370
     0
100
AcDbVertex
100
AcDb2dVertex
 10
85.39306502856493
 20
-132.9326266486245
 30
0.0
  0
VERTEX
  5
139
330
137
100
AcDbEntity
  8
_U+30EC_U+30A4_U+30E4_U+30FC 1
370
     0
100
AcDbVertex
100
AcDb2dVertex
 10
85.39306502856493
 20
-132.7717406894633
 30
0.0
  0
VERTEX
  5
13A
330
137
100
AcDbEntity
  8
_U+30EC_U+30A4_U+30E4_U+30FC 1
370
     0
100
AcDbVertex
100
AcDb2dVertex
 10
85.54740530630413
 20
-132.7717406894633
 30
0.0
  0
VERTEX
  5
13B
330
137
100
AcDbEntity
  8
_U+30EC_U+30A4_U+30E4_U+30FC 1
370
     0
100
AcDbVertex
100
AcDb2dVertex
 10
85.54740530630413
 20
-132.9326266486245
 30
0.0
  0
VERTEX
  5
13C
330
137
100
AcDbEntity
  8
_U+30EC_U+30A4_U+30E4_U+30FC 1
370
     0
100
AcDbVertex
100
AcDb2dVertex
 10
85.94100746549393
 20
-132.9326266486245
 30
0.0
  0
VERTEX
  5
13D
330
137
100
AcDbEntity
  8
_U+30EC_U+30A4_U+30E4_U+30FC 1
370
     0
100
AcDbVertex
100
AcDb2dVertex
 10
85.94100746549393
 20
-133.0869669263637
 30
0.0
  0
VERTEX
  5
13E
330
137
100
AcDbEntity
  8
_U+30EC_U+30A4_U+30E4_U+30FC 1
370
     0
100
AcDbVertex
100
AcDb2dVertex
 10
85.54740530630413
 20
-133.0869669263637
 30
0.0
  0
VERTEX
  5
13F
330
137
100
AcDbEntity
  8
_U+30EC_U+30A4_U+30E4_U+30FC 1
370
     0
100
AcDbVertex
100
AcDb2dVertex
 10
85.54740530630413
 20
-133.2416517136514
 30
0.0
  0
VERTEX
  5
140
330
137
100
AcDbEntity
  8
_U+30EC_U+30A4_U+30E4_U+30FC 1
370
     0
100
AcDbVertex
100
AcDb2dVertex
 10
85.90276690560765
 20
-133.2416517136514
 30
0.0
  0
VERTEX
  5
141
330
137
100
AcDbEntity
  8
_U+30EC_U+30A4_U+30E4_U+30FC 1
370
     0
100
AcDbVertex
100
AcDb2dVertex
 10
85.90276690560765
 20
-134.0540052290733
 30
0.0
  0
VERTEX
  5
142
330
137
100
AcDbEntity
  8
_U+30EC_U+30A4_U+30E4_U+30FC 1
370
     0
100
AcDbVertex
100
AcDb2dVertex
 10
85.54740530630413
 20
-134.0540052290733
 30
0.0
  0
VERTEX
  5
143
330
137
100
AcDbEntity
  8
_U+30EC_U+30A4_U+30E4_U+30FC 1
370
     0
100
AcDbVertex
100
AcDb2dVertex
 10
85.54740530630413
 20
-134.2231594173991
 30
0.0
  0
VERTEX
  5
144
330
137
100
AcDbEntity
  8
_U+30EC_U+30A4_U+30E4_U+30FC 1
370
     0
100
AcDbVertex
100
AcDb2dVertex
 10
85.9558213760805
 20
-134.2231594173991
 30
0.0
  0
VERTEX
  5
145
330
137
100
AcDbEntity
  8
_U+30EC_U+30A4_U+30E4_U+30FC 1
370
     0
100
AcDbVertex
100
AcDb2dVertex
 10
85.9558213760805
 20
-134.3774996951383
 30
0.0
  0
VERTEX
  5
146
330
137
100
AcDbEntity
  8
_U+30EC_U+30A4_U+30E4_U+30FC 1
370
     0
100
AcDbVertex
100
AcDb2dVertex
 10
85.54740530630413
 20
-134.3774996951383
 30
0.0
  0
VERTEX
  5
147
330
137
100
AcDbEntity
  8
_U+30EC_U+30A4_U+30E4_U+30FC 1
370
     0
100
AcDbVertex
100
AcDb2dVertex
 10
85.54740530630413
 20
-134.7309664919249
 30
0.0
  0
VERTEX
  5
148
330
137
100
AcDbEntity
  8
_U+30EC_U+30A4_U+30E4_U+30FC 1
370
     0
100
AcDbVertex
100
AcDb2dVertex
 10
85.39306502856493
 20
-134.7309664919249
 30
0.0
  0
VERTEX
  5
149
330
137
100
AcDbEntity
  8
_U+30EC_U+30A4_U+30E4_U+30FC 1
370
     0
100
AcDbVertex
100
AcDb2dVertex
 10
85.39306502856493
 20
-134.3774996951383
 30
0.0
  0
VERTEX
  5
14A
330
137
100
AcDbEntity
  8
_U+30EC_U+30A4_U+30E4_U+30FC 1
370
     0
100
AcDbVertex
100
AcDb2dVertex
 10
84.98258190149741
 20
-134.3774996951383
 30
0.0
  0
VERTEX
  5
14B
330
137
100
AcDbEntity
  8
_U+30EC_U+30A4_U+30E4_U+30FC 1
370
     0
100
AcDbVertex
100
AcDb2dVertex
 10
84.98258190149741
 20
-134.2231594173991
 30
0.0
  0
VERTEX
  5
14C
330
137
100
AcDbEntity
  8
_U+30EC_U+30A4_U+30E4_U+30FC 1
370
     0
100
AcDbVertex
100
AcDb2dVertex
 10
85.39306502856493
 20
-134.2231594173991
 30
0.0
  0
VERTEX
  5
14D
330
137
100
AcDbEntity
  8
_U+30EC_U+30A4_U+30E4_U+30FC 1
370
     0
100
AcDbVertex
100
AcDb2dVertex
 10
85.39306502856493
 20
-134.0540052290733
 30
0.0
  0
VERTEX
  5
14E
330
137
100
AcDbEntity
  8
_U+30EC_U+30A4_U+30E4_U+30FC 1
370
     0
100
AcDbVertex
100
AcDb2dVertex
 10
85.04390460113486
 20
-134.0540052290733
 30
0.0
  0
VERTEX
  5
14F
330
137
100
AcDbEntity
  8
_U+30EC_U+30A4_U+30E4_U+30FC 1
370
     0
100
AcDbVertex
100
AcDb2dVertex
 10
85.04390460113486
 20
-133.2416517136514
 30
0.0
  0
VERTEX
  5
150
330
137
100
AcDbEntity
  8
_U+30EC_U+30A4_U+30E4_U+30FC 1
370
     0
100
AcDbVertex
100
AcDb2dVertex
 10
85.39306502856493
 20
-133.2416517136514
 30
0.0
  0
VERTEX
  5
151
330
137
100
AcDbEntity
  8
_U+30EC_U+30A4_U+30E4_U+30FC 1
370
     0
100
AcDbVertex
100
AcDb2dVertex
 10
85.39306502856493
 20
-133.0869669263637
 30
0.0
  0
VERTEX
  5
152
330
137
100
AcDbEntity
  8
_U+30EC_U+30A4_U+30E4_U+30FC 1
370
     0
100
AcDbVertex
100
AcDb2dVertex
 10
85.0037692387317
 20
-133.0869669263637
 30
0.0
  0
VERTEX
  5
153
330
137
100
AcDbEntity
  8
_U+30EC_U+30A4_U+30E4_U+30FC 1
370
     0
100
AcDbVertex
100
AcDb2dVertex
 10
85.0037692387317
 20
-132.9326266486245
 30
0.0
  0
VERTEX
  5
154
330
137
100
AcDbEntity
  8
_U+30EC_U+30A4_U+30E4_U+30FC 1
370
     0
100
AcDbVertex
100
AcDb2dVertex
 10
85.39306502856493
 20
-132.9326266486245
 30
0.0
  0
SEQEND
  5
155
330
137
100
AcDbEntity
  8
_U+30EC_U+30A4_U+30E4_U+30FC 1
370
     0
  0
POLYLINE
  5
156
330
133
100
AcDbEntity
  8
_U+30EC_U+30A4_U+30E4_U+30FC 1
370
     0
100
AcDb2dPolyline
 66
     1
 10
0.0
 20
0.0
 30
0.0
  0
VERTEX
  5
157
330
156
100
AcDbEntity
  8
_U+30EC_U+30A4_U+30E4_U+30FC 1
370
     0
100
AcDbVertex
100
AcDb2dVertex
 10
85.39306502856493
 20
-133.381178080804
 30
0.0
  0
VERTEX
  5
158
330
156
100
AcDbEntity
  8
_U+30EC_U+30A4_U+30E4_U+30FC 1
370
     0
100
AcDbVertex
100
AcDb2dVertex
 10
85.1856702803529
 20
-133.381178080804
 30
0.0
  0
VERTEX
  5
159
330
156
100
AcDbEntity
  8
_U+30EC_U+30A4_U+30E4_U+30FC 1
370
     0
100
AcDbVertex
100
AcDb2dVertex
 10
85.1856702803529
 20
-133.5840942048852
 30
0.0
  0
VERTEX
  5
15A
330
156
100
AcDbEntity
  8
_U+30EC_U+30A4_U+30E4_U+30FC 1
370
     0
100
AcDbVertex
100
AcDb2dVertex
 10
85.39306502856493
 20
-133.5840942048852
 30
0.0
  0
VERTEX
  5
15B
330
156
100
AcDbEntity
  8
_U+30EC_U+30A4_U+30E4_U+30FC 1
370
     0
100
AcDbVertex
100
AcDb2dVertex
 10
85.39306502856493
 20
-133.381178080804
 30
0.0
  0
SEQEND
  5
15C
330
156
100
AcDbEntity
  8
_U+30EC_U+30A4_U+30E4_U+30FC 1
370
     0
  0
POLYLINE
  5
15D
330
133
100
AcDbEntity
  8
_U+30EC_U+30A4_U+30E4_U+30FC 1
370
     0
100
AcDb2dPolyline
 66
     1
 10
0.0
 20
0.0
 30
0.0
  0
VERTEX
  5
15E
330
15D
100
AcDbEntity
  8
_U+30EC_U+30A4_U+30E4_U+30FC 1
370
     0
100
AcDbVertex
100
AcDb2dVertex
 10
85.39306502856493
 20
-133.7070841137086
 30
0.0
  0
VERTEX
  5
15F
330
15D
100
AcDbEntity
  8
_U+30EC_U+30A4_U+30E4_U+30FC 1
370
     0
100
AcDbVertex
100
AcDb2dVertex
 10
85.1856702803529
 20
-133.7070841137086
 30
0.0
  0
VERTEX
  5
160
330
15D
100
AcDbEntity
  8
_U+30EC_U+30A4_U+30E4_U+30FC 1
370
     0
100
AcDbVertex
100
AcDb2dVertex
 10
85.1856702803529
 20
-133.9141343523722
 30
0.0
  0
VERTEX
  5
161
330
15D
100
AcDbEntity
  8
_U+30EC_U+30A4_U+30E4_U+30FC 1
370
     0
100
AcDbVertex
100
AcDb2dVertex
 10
85.39306502856493
 20
-133.9141343523722
 30
0.0
  0
VERTEX
  5
162
330
15D
100
AcDbEntity
  8
_U+30EC_U+30A4_U+30E4_U+30FC 1
370
     0
100
AcDbVertex
100
AcDb2dVertex
 10
85.39306502856493
 20
-133.7070841137086
 30
0.0
  0
SEQEND
  5
163
330
15D
100
AcDbEntity
  8
_U+30EC_U+30A4_U+30E4_U+30FC 1
370
     0
  0
POLYLINE
  5
164
330
133
100
AcDbEntity
  8
_U+30EC_U+30A4_U+30E4_U+30FC 1
370
     0
100
AcDb2dPolyline
 66
     1
 10
0.0
 20
0.0
 30
0.0
  0
VERTEX
  5
165
330
164
100
AcDbEntity
  8
_U+30EC_U+30A4_U+30E4_U+30FC 1
370
     0
100
AcDbVertex
100
AcDb2dVertex
 10
85.75893416909847
 20
-133.381178080804
 30
0.0
  0
VERTEX
  5
166
330
164
100
AcDbEntity
  8
_U+30EC_U+30A4_U+30E4_U+30FC 1
370
     0
100
AcDbVertex
100
AcDb2dVertex
 10
85.54740530630413
 20
-133.381178080804
 30
0.0
  0
VERTEX
  5
167
330
164
100
AcDbEntity
  8
_U+30EC_U+30A4_U+30E4_U+30FC 1
370
     0
100
AcDbVertex
100
AcDb2dVertex
 10
85.54740530630413
 20
-133.5840942048852
 30
0.0
  0
VERTEX
  5
168
330
164
100
AcDbEntity
  8
_U+30EC_U+30A4_U+30E4_U+30FC 1
370
     0
100
AcDbVertex
100
AcDb2dVertex
 10
85.75893416909847
 20
-133.5840942048852
 30
0.0
  0
VERTEX
  5
169
330
164
100
AcDbEntity
  8
_U+30EC_U+30A4_U+30E4_U+30FC 1
370
     0
100
AcDbVertex
100
AcDb2dVertex
 10
85.75893416909847
 20
-133.381178080804
 30
0.0
  0
SEQEND
  5
16A
330
164
100
AcDbEntity
  8
_U+30EC_U+30A4_U+30E4_U+30FC 1
370
     0
  0
POLYLINE
  5
16B
330
133
100
AcDbEntity
  8
_U+30EC_U+30A4_U+30E4_U+30FC 1
370
     0
100
AcDb2dPolyline
 66
     1
 10
0.0
 20
0.0
 30
0.0
  0
VERTEX
  5
16C
330
16B
100
AcDbEntity
  8
_U+30EC_U+30A4_U+30E4_U+30FC 1
370
     0
100
AcDbVertex
100
AcDb2dVertex
 10
85.75893416909847
 20
-133.7070841137086
 30
0.0
  0
VERTEX
  5
16D
330
16B
100
AcDbEntity
  8
_U+30EC_U+30A4_U+30E4_U+30FC 1
370
     0
100
AcDbVertex
100
AcDb2dVertex
 10
85.54740530630413
 20
-133.7070841137086
 30
0.0
  0
VERTEX
  5
16E
330
16B
100
AcDbEntity
  8
_U+30EC_U+30A4_U+30E4_U+30FC 1
370
     0
100
AcDbVertex
100
AcDb2dVertex
 10
85.54740530630413
 20
-133.9141343523722
 30
0.0
  0
VERTEX
  5
16F
330
16B
100
AcDbEntity
  8
_U+30EC_U+30A4_U+30E4_U+30FC 1
370
     0
100
AcDbVertex
100
AcDb2dVertex
 10
85.75893416909847
 20
-133.9141343523722
 30
0.0
  0
VERTEX
  5
170
330
16B
100
AcDbEntity
  8
_U+30EC_U+30A4_U+30E4_U+30FC 1
370
     0
100
AcDbVertex
100
AcDb2dVertex
 10
85.75893416909847
 20
-133.7070841137086
 30
0.0
  0
SEQEND
  5
171
330
16B
100
AcDbEntity
  8
_U+30EC_U+30A4_U+30E4_U+30FC 1
370
     0
  0
SPLINE
  5
172
330
133
100
AcDbEntity
  8
_U+30EC_U+30A4_U+30E4_U+30FC 1
370
     0
100
AcDbSpline
210
0.0
220
0.0
230
1.0
 70
    11
 71
     3
 72
    38
 73
    34
 74
     0
 42
0.0000000001
 43
0.0000000001
 12
1.0
 22
0.0
 32
0.0
 13
1.0
 23
0.0
 33
0.0
 40
0.0
 40
0.0
 40
0.0
 40
0.0
 40
1.0
 40
1.0
 40
1.0
 40
2.0
 40
2.0
 40
2.0
 40
3.0
 40
3.0
 40
3.0
 40
4.0
 40
4.0
 40
4.0
 40
5.0
 40
5.0
 40
5.0
 40
6.0
 40
6.0
 40
6.0
 40
7.0
 40
7.0
 40
7.0
 40
8.0
 40
8.0
 40
8.0
 40
9.0
 40
9.0
 40
9.0
 40
10.0
 40
10.0
 40
10.0
 40
11.0
 40
11.0
 40
11.0
 40
11.0
 10
85.80130884356704
 20
-134.5955742393546
 30
0.0
 10
85.88381888043877
 20
-134.5425197688817
 30
0.0
 10
86.04883895418224
 20
-134.4346882801934
 30
0.0
 10
86.1546033855794
 20
-134.2272935319814
 30
0.0
 10
86.30274249144516
 20
-133.9354939443807
 30
0.0
 10
86.30274249144516
 20
-133.7091511709998
 30
0.0
 10
86.30274249144516
 20
-133.6244018220627
 30
0.0
 10
86.30274249144516
 20
-133.6244018220627
 30
0.0
 10
86.30274249144516
 20
-133.3897908195171
 30
0.0
 10
86.30274249144516
 20
-133.3897908195171
 30
0.0
 10
86.30274249144516
 20
-133.3897908195171
 30
0.0
 10
86.46776256518862
 20
-133.3897908195171
 30
0.0
 10
86.46776256518862
 20
-133.3897908195171
 30
0.0
 10
86.46776256518862
 20
-133.3897908195171
 30
0.0
 10
86.46776256518862
 20
-133.6161335928981
 30
0.0
 10
86.46776256518862
 20
-133.6161335928981
 30
0.0
 10
86.46776256518862
 20
-133.814915602397
 30
0.0
 10
86.53321937940837
 20
-134.0519381717822
 30
0.0
 10
86.63484969622324
 20
-134.2252264746902
 30
0.0
 10
86.75112166885042
 20
-134.4240084841891
 30
0.0
 10
86.88014049477303
 20
-134.5235717437129
 30
0.0
 10
86.96488984371017
 20
-134.5848944433503
 30
0.0
 10
86.96488984371017
 20
-134.5848944433503
 30
0.0
 10
86.85688610024759
 20
-134.7351006065072
 30
0.0
 10
86.85688610024759
 20
-134.7351006065072
 30
0.0
 10
86.67929142798296
 20
-134.6059095258103
 30
0.0
 10
86.48033716370978
 20
-134.366819899134
 30
0.0
 10
86.40213349619461
 20
-134.0136976118959
 30
0.0
 10
86.3365044272006
 20
-134.2527872385722
 30
0.0
 10
86.23504636515999
 20
-134.5215046864217
 30
0.0
 10
85.92619355490734
 20
-134.7309664919249
 30
0.0
 10
85.92619355490734
 20
-134.7309664919249
 30
0.0
 10
85.80130884356704
 20
-134.5955742393546
 30
0.0
 10
85.80130884356704
 20
-134.5955742393546
 30
0.0
  0
SPLINE
  5
173
330
133
100
AcDbEntity
  8
_U+30EC_U+30A4_U+30E4_U+30FC 1
370
     0
100
AcDbSpline
210
0.0
220
0.0
230
1.0
 70
    11
 71
     3
 72
    38
 73
    34
 74
     0
 42
0.0000000001
 43
0.0000000001
 12
1.0
 22
0.0
 32
0.0
 13
1.0
 23
0.0
 33
0.0
 40
0.0
 40
0.0
 40
0.0
 40
0.0
 40
1.0
 40
1.0
 40
1.0
 40
2.0
 40
2.0
 40
2.0
 40
3.0
 40
3.0
 40
3.0
 40
4.0
 40
4.0
 40
4.0
 40
5.0
 40
5.0
 40
5.0
 40
6.0
 40
6.0
 40
6.0
 40
7.0
 40
7.0
 40
7.0
 40
8.0
 40
8.0
 40
8.0
 40
9.0
 40
9.0
 40
9.0
 40
10.0
 40
10.0
 40
10.0
 40
11.0
 40
11.0
 40
11.0
 40
11.0
 10
85.91551375890307
 20
-133.5227715052478
 30
0.0
 10
86.00870359177908
 20
-133.4001261059729
 30
0.0
 10
86.13341604834513
 20
-133.2202921216428
 30
0.0
 10
86.22867293851228
 20
-132.7717406894633
 30
0.0
 10
86.22867293851228
 20
-132.7717406894633
 30
0.0
 10
86.3957600695469
 20
-132.7910332241807
 30
0.0
 10
86.3957600695469
 20
-132.7910332241807
 30
0.0
 10
86.37043861773031
 20
-132.9116115661645
 30
0.0
 10
86.34718422320488
 20
-133.002562086975
 30
0.0
 10
86.3089436633186
 20
-133.1103935756634
 30
0.0
 10
86.3089436633186
 20
-133.1103935756634
 30
0.0
 10
86.93732907982817
 20
-133.1103935756634
 30
0.0
 10
86.93732907982817
 20
-133.1103935756634
 30
0.0
 10
86.93732907982817
 20
-133.1103935756634
 30
0.0
 10
86.93732907982817
 20
-133.2626667961114
 30
0.0
 10
86.93732907982817
 20
-133.2626667961114
 30
0.0
 10
86.90356714407272
 20
-133.4046047301037
 30
0.0
 10
86.80831025390556
 20
-133.6626423819489
 30
0.0
 10
86.73424070097269
 20
-133.7811536666415
 30
0.0
 10
86.73424070097269
 20
-133.7811536666415
 30
0.0
 10
86.58196748052465
 20
-133.7026054895778
 30
0.0
 10
86.58196748052465
 20
-133.7026054895778
 30
0.0
 10
86.67705211591755
 20
-133.5672132370075
 30
0.0
 10
86.74268118491156
 20
-133.3791110235129
 30
0.0
 10
86.77024194879355
 20
-133.2688679679849
 30
0.0
 10
86.77024194879355
 20
-133.2688679679849
 30
0.0
 10
86.25192733303771
 20
-133.2688679679849
 30
0.0
 10
86.25192733303771
 20
-133.2688679679849
 30
0.0
 10
86.15253632828826
 20
-133.5103691615009
 30
0.0
 10
86.07846677535538
 20
-133.5989081154718
 30
0.0
 10
86.04039847024337
 20
-133.6433498472315
 30
0.0
 10
86.04039847024337
 20
-133.6433498472315
 30
0.0
 10
85.91551375890307
 20
-133.5227715052478
 30
0.0
 10
85.91551375890307
 20
-133.5227715052478
 30
0.0
  0
HATCH
  5
174
330
133
100
AcDbEntity
  8
_U+30EC_U+30A4_U+30E4_U+30FC 1
 62
    12
420
 15007761
100
AcDbHatch
 10
0.0
 20
0.0
 30
0.0
210
0.0
220
0.0
230
1.0
  2
SOLID
 70
     1
 71
     0
 91
        7
 92
        1
 93
       28
 72
     1
 10
85.39306502856493
 20
-132.9326266486245
 11
85.39306502856493
 21
-132.7717406894633
 72
     1
 10
85.39306502856493
 20
-132.7717406894633
 11
85.54740530630413
 21
-132.7717406894633
 72
     1
 10
85.54740530630413
 20
-132.7717406894633
 11
85.54740530630413
 21
-132.9326266486245
 72
     1
 10
85.54740530630413
 20
-132.9326266486245
 11
85.94100746549393
 21
-132.9326266486245
 72
     1
 10
85.94100746549393
 20
-132.9326266486245
 11
85.94100746549393
 21
-133.0869669263637
 72
     1
 10
85.94100746549393
 20
-133.0869669263637
 11
85.54740530630413
 21
-133.0869669263637
 72
     1
 10
85.54740530630413
 20
-133.0869669263637
 11
85.54740530630413
 21
-133.2416517136514
 72
     1
 10
85.54740530630413
 20
-133.2416517136514
 11
85.90276690560765
 21
-133.2416517136514
 72
     1
 10
85.90276690560765
 20
-133.2416517136514
 11
85.90276690560765
 21
-134.0540052290733
 72
     1
 10
85.90276690560765
 20
-134.0540052290733
 11
85.54740530630413
 21
-134.0540052290733
 72
     1
 10
85.54740530630413
 20
-134.0540052290733
 11
85.54740530630413
 21
-134.2231594173991
 72
     1
 10
85.54740530630413
 20
-134.2231594173991
 11
85.9558213760805
 21
-134.2231594173991
 72
     1
 10
85.9558213760805
 20
-134.2231594173991
 11
85.9558213760805
 21
-134.3774996951383
 72
     1
 10
85.9558213760805
 20
-134.3774996951383
 11
85.54740530630413
 21
-134.3774996951383
 72
     1
 10
85.54740530630413
 20
-134.3774996951383
 11
85.54740530630413
 21
-134.7309664919249
 72
     1
 10
85.54740530630413
 20
-134.7309664919249
 11
85.39306502856493
 21
-134.7309664919249
 72
     1
 10
85.39306502856493
 20
-134.7309664919249
 11
85.39306502856493
 21
-134.3774996951383
 72
     1
 10
85.39306502856493
 20
-134.3774996951383
 11
84.98258190149741
 21
-134.3774996951383
 72
     1
 10
84.98258190149741
 20
-134.3774996951383
 11
84.98258190149741
 21
-134.2231594173991
 72
     1
 10
84.98258190149741
 20
-134.2231594173991
 11
85.39306502856493
 21
-134.2231594173991
 72
     1
 10
85.39306502856493
 20
-134.2231594173991
 11
85.39306502856493
 21
-134.0540052290733
 72
     1
 10
85.39306502856493
 20
-134.0540052290733
 11
85.04390460113486
 21
-134.0540052290733
 72
     1
 10
85.04390460113486
 20
-134.0540052290733
 11
85.04390460113486
 21
-133.2416517136514
 72
     1
 10
85.04390460113486
 20
-133.2416517136514
 11
85.39306502856493
 21
-133.2416517136514
 72
     1
 10
85.39306502856493
 20
-133.2416517136514
 11
85.39306502856493
 21
-133.0869669263637
 72
     1
 10
85.39306502856493
 20
-133.0869669263637
 11
85.0037692387317
 21
-133.0869669263637
 72
     1
 10
85.0037692387317
 20
-133.0869669263637
 11
85.0037692387317
 21
-132.9326266486245
 72
     1
 10
85.0037692387317
 20
-132.9326266486245
 11
85.39306502856493
 21
-132.9326266486245
 97
        0
 92
        1
 93
        4
 72
     1
 10
85.39306502856493
 20
-133.381178080804
 11
85.1856702803529
 21
-133.381178080804
 72
     1
 10
85.1856702803529
 20
-133.381178080804
 11
85.1856702803529
 21
-133.5840942048852
 72
     1
 10
85.1856702803529
 20
-133.5840942048852
 11
85.39306502856493
 21
-133.5840942048852
 72
     1
 10
85.39306502856493
 20
-133.5840942048852
 11
85.39306502856493
 21
-133.381178080804
 97
        0
 92
        1
 93
        4
 72
     1
 10
85.39306502856493
 20
-133.7070841137086
 11
85.1856702803529
 21
-133.7070841137086
 72
     1
 10
85.1856702803529
 20
-133.7070841137086
 11
85.1856702803529
 21
-133.9141343523722
 72
     1
 10
85.1856702803529
 20
-133.9141343523722
 11
85.39306502856493
 21
-133.9141343523722
 72
     1
 10
85.39306502856493
 20
-133.9141343523722
 11
85.39306502856493
 21
-133.7070841137086
 97
        0
 92
        1
 93
        4
 72
     1
 10
85.75893416909847
 20
-133.381178080804
 11
85.54740530630413
 21
-133.381178080804
 72
     1
 10
85.54740530630413
 20
-133.381178080804
 11
85.54740530630413
 21
-133.5840942048852
 72
     1
 10
85.54740530630413
 20
-133.5840942048852
 11
85.75893416909847
 21
-133.5840942048852
 72
     1
 10
85.75893416909847
 20
-133.5840942048852
 11
85.75893416909847
 21
-133.381178080804
 97
        0
 92
        1
 93
        4
 72
     1
 10
85.75893416909847
 20
-133.7070841137086
 11
85.54740530630413
 21
-133.7070841137086
 72
     1
 10
85.54740530630413
 20
-133.7070841137086
 11
85.54740530630413
 21
-133.9141343523722
 72
     1
 10
85.54740530630413
 20
-133.9141343523722
 11
85.75893416909847
 21
-133.9141343523722
 72
     1
 10
85.75893416909847
 20
-133.9141343523722
 11
85.75893416909847
 21
-133.7070841137086
 97
        0
 92
        1
 93
        1
 72
     4
 94
        3
 73
     0
 74
     1
 95
       38
 96
       34
 40
0.0
 40
0.0
 40
0.0
 40
0.0
 40
1.0
 40
1.0
 40
1.0
 40
2.0
 40
2.0
 40
2.0
 40
3.0
 40
3.0
 40
3.0
 40
4.0
 40
4.0
 40
4.0
 40
5.0
 40
5.0
 40
5.0
 40
6.0
 40
6.0
 40
6.0
 40
7.0
 40
7.0
 40
7.0
 40
8.0
 40
8.0
 40
8.0
 40
9.0
 40
9.0
 40
9.0
 40
10.0
 40
10.0
 40
10.0
 40
11.0
 40
11.0
 40
11.0
 40
11.0
 10
85.80130884356704
 20
-134.5955742393546
 10
85.88381888043877
 20
-134.5425197688817
 10
86.04883895418224
 20
-134.4346882801934
 10
86.1546033855794
 20
-134.2272935319814
 10
86.30274249144516
 20
-133.9354939443807
 10
86.30274249144516
 20
-133.7091511709998
 10
86.30274249144516
 20
-133.6244018220627
 10
86.30274249144516
 20
-133.6244018220627
 10
86.30274249144516
 20
-133.3897908195171
 10
86.30274249144516
 20
-133.3897908195171
 10
86.30274249144516
 20
-133.3897908195171
 10
86.46776256518862
 20
-133.3897908195171
 10
86.46776256518862
 20
-133.3897908195171
 10
86.46776256518862
 20
-133.3897908195171
 10
86.46776256518862
 20
-133.6161335928981
 10
86.46776256518862
 20
-133.6161335928981
 10
86.46776256518862
 20
-133.814915602397
 10
86.53321937940837
 20
-134.0519381717822
 10
86.63484969622324
 20
-134.2252264746902
 10
86.75112166885042
 20
-134.4240084841891
 10
86.88014049477303
 20
-134.5235717437129
 10
86.96488984371017
 20
-134.5848944433503
 10
86.96488984371017
 20
-134.5848944433503
 10
86.85688610024759
 20
-134.7351006065072
 10
86.85688610024759
 20
-134.7351006065072
 10
86.67929142798296
 20
-134.6059095258103
 10
86.48033716370978
 20
-134.366819899134
 10
86.40213349619461
 20
-134.0136976118959
 10
86.3365044272006
 20
-134.2527872385722
 10
86.23504636515999
 20
-134.5215046864217
 10
85.92619355490734
 20
-134.7309664919249
 10
85.92619355490734
 20
-134.7309664919249
 10
85.80130884356704
 20
-134.5955742393546
 10
85.80130884356704
 20
-134.5955742393546
 97
        0
 97
        0
 92
        1
 93
        1
 72
     4
 94
        3
 73
     0
 74
     1
 95
       38
 96
       34
 40
0.0
 40
0.0
 40
0.0
 40
0.0
 40
1.0
 40
1.0
 40
1.0
 40
2.0
 40
2.0
 40
2.0
 40
3.0
 40
3.0
 40
3.0
 40
4.0
 40
4.0
 40
4.0
 40
5.0
 40
5.0
 40
5.0
 40
6.0
 40
6.0
 40
6.0
 40
7.0
 40
7.0
 40
7.0
 40
8.0
 40
8.0
 40
8.0
 40
9.0
 40
9.0
 40
9.0
 40
10.0
 40
10.0
 40
10.0
 40
11.0
 40
11.0
 40
11.0
 40
11.0
 10
85.91551375890307
 20
-133.5227715052478
 10
86.00870359177908
 20
-133.4001261059729
 10
86.13341604834513
 20
-133.2202921216428
 10
86.22867293851228
 20
-132.7717406894633
 10
86.22867293851228
 20
-132.7717406894633
 10
86.3957600695469
 20
-132.7910332241807
 10
86.3957600695469
 20
-132.7910332241807
 10
86.37043861773031
 20
-132.9116115661645
 10
86.34718422320488
 20
-133.002562086975
 10
86.3089436633186
 20
-133.1103935756634
 10
86.3089436633186
 20
-133.1103935756634
 10
86.93732907982817
 20
-133.1103935756634
 10
86.93732907982817
 20
-133.1103935756634
 10
86.93732907982817
 20
-133.1103935756634
 10
86.93732907982817
 20
-133.2626667961114
 10
86.93732907982817
 20
-133.2626667961114
 10
86.90356714407272
 20
-133.4046047301037
 10
86.80831025390556
 20
-133.6626423819489
 10
86.73424070097269
 20
-133.7811536666415
 10
86.73424070097269
 20
-133.7811536666415
 10
86.58196748052465
 20
-133.7026054895778
 10
86.58196748052465
 20
-133.7026054895778
 10
86.67705211591755
 20
-133.5672132370075
 10
86.74268118491156
 20
-133.3791110235129
 10
86.77024194879355
 20
-133.2688679679849
 10
86.77024194879355
 20
-133.2688679679849
 10
86.25192733303771
 20
-133.2688679679849
 10
86.25192733303771
 20
-133.2688679679849
 10
86.15253632828826
 20
-133.5103691615009
 10
86.07846677535538
 20
-133.5989081154718
 10
86.04039847024337
 20
-133.6433498472315
 10
86.04039847024337
 20
-133.6433498472315
 10
85.91551375890307
 20
-133.5227715052478
 10
85.91551375890307
 20
-133.5227715052478
 97
        0
 97
        0
 75
     2
 76
     1
 98
        0
  0
SPLINE
  5
175
330
133
100
AcDbEntity
  8
_U+30EC_U+30A4_U+30E4_U+30FC 1
370
     0
100
AcDbSpline
210
0.0
220
0.0
230
1.0
 70
    11
 71
     3
 72
    50
 73
    46
 74
     0
 42
0.0000000001
 43
0.0000000001
 12
1.0
 22
0.0
 32
0.0
 13
1.0
 23
0.0
 33
0.0
 40
0.0
 40
0.0
 40
0.0
 40
0.0
 40
1.0
 40
1.0
 40
1.0
 40
2.0
 40
2.0
 40
2.0
 40
3.0
 40
3.0
 40
3.0
 40
4.0
 40
4.0
 40
4.0
 40
5.0
 40
5.0
 40
5.0
 40
6.0
 40
6.0
 40
6.0
 40
7.0
 40
7.0
 40
7.0
 40
8.0
 40
8.0
 40
8.0
 40
9.0
 40
9.0
 40
9.0
 40
10.0
 40
10.0
 40
10.0
 40
11.0
 40
11.0
 40
11.0
 40
12.0
 40
12.0
 40
12.0
 40
13.0
 40
13.0
 40
13.0
 40
14.0
 40
14.0
 40
14.0
 40
15.0
 40
15.0
 40
15.0
 40
15.0
 10
87.41016843517872
 20
-133.0700859584859
 30
0.0
 10
87.41016843517872
 20
-133.0700859584859
 30
0.0
 10
88.06180824621372
 20
-133.0700859584859
 30
0.0
 10
88.06180824621372
 20
-133.0700859584859
 30
0.0
 10
88.06180824621372
 20
-133.0700859584859
 30
0.0
 10
88.06180824621372
 20
-133.1951429246005
 30
0.0
 10
88.06180824621372
 20
-133.1951429246005
 30
0.0
 10
88.06180824621372
 20
-133.1951429246005
 30
0.0
 10
87.78465031442536
 20
-133.1951429246005
 30
0.0
 10
87.78465031442536
 20
-133.1951429246005
 30
0.0
 10
87.78465031442536
 20
-133.1951429246005
 30
0.0
 10
87.78465031442536
 20
-133.4700615443235
 30
0.0
 10
87.78465031442536
 20
-133.4700615443235
 30
0.0
 10
87.78465031442536
 20
-133.4700615443235
 30
0.0
 10
87.62393661003847
 20
-133.4700615443235
 30
0.0
 10
87.62393661003847
 20
-133.4700615443235
 30
0.0
 10
87.62393661003847
 20
-133.4700615443235
 30
0.0
 10
87.62393661003847
 20
-133.1951429246005
 30
0.0
 10
87.62393661003847
 20
-133.1951429246005
 30
0.0
 10
87.62393661003847
 20
-133.1951429246005
 30
0.0
 10
87.40396726330526
 20
-133.1951429246005
 30
0.0
 10
87.40396726330526
 20
-133.1951429246005
 30
0.0
 10
87.393287467301
 20
-133.2647338534026
 30
0.0
 10
87.3679660154844
 20
-133.4593817483192
 30
0.0
 10
87.21345348297095
 20
-133.6095879114761
 30
0.0
 10
87.21345348297095
 20
-133.6095879114761
 30
0.0
 10
87.09080808369605
 20
-133.4996893654966
 30
0.0
 10
87.09080808369605
 20
-133.4996893654966
 30
0.0
 10
87.21138642567979
 20
-133.4001261059729
 30
0.0
 10
87.25376110014837
 20
-133.1951429246005
 30
0.0
 10
87.25376110014837
 20
-133.1124606329545
 30
0.0
 10
87.25376110014837
 20
-133.1124606329545
 30
0.0
 10
87.25376110014837
 20
-132.8268622172273
 30
0.0
 10
87.25376110014837
 20
-132.8268622172273
 30
0.0
 10
87.7381415253745
 20
-132.8268622172273
 30
0.0
 10
87.89265405788795
 20
-132.7803534281765
 30
0.0
 10
87.98773869328085
 20
-132.7527926642944
 30
0.0
 10
87.98773869328085
 20
-132.7527926642944
 30
0.0
 10
88.04062090897943
 20
-132.8923190314471
 30
0.0
 10
88.04062090897943
 20
-132.8923190314471
 30
0.0
 10
87.83115910347624
 20
-132.9412393873376
 30
0.0
 10
87.66837834179819
 20
-132.9515746737934
 30
0.0
 10
87.41016843517872
 20
-132.9560532979242
 30
0.0
 10
87.41016843517872
 20
-132.9560532979242
 30
0.0
 10
87.41016843517872
 20
-133.0700859584859
 30
0.0
 10
87.41016843517872
 20
-133.0700859584859
 30
0.0
  0
SPLINE
  5
176
330
133
100
AcDbEntity
  8
_U+30EC_U+30A4_U+30E4_U+30FC 1
370
     0
100
AcDbSpline
210
0.0
220
0.0
230
1.0
 70
    11
 71
     3
 72
    32
 73
    28
 74
     0
 42
0.0000000001
 43
0.0000000001
 12
1.0
 22
0.0
 32
0.0
 13
1.0
 23
0.0
 33
0.0
 40
0.0
 40
0.0
 40
0.0
 40
0.0
 40
1.0
 40
1.0
 40
1.0
 40
2.0
 40
2.0
 40
2.0
 40
3.0
 40
3.0
 40
3.0
 40
4.0
 40
4.0
 40
4.0
 40
5.0
 40
5.0
 40
5.0
 40
6.0
 40
6.0
 40
6.0
 40
7.0
 40
7.0
 40
7.0
 40
8.0
 40
8.0
 40
8.0
 40
9.0
 40
9.0
 40
9.0
 40
9.0
 10
87.32559134101582
 20
-134.4157402550245
 30
0.0
 10
87.32559134101582
 20
-134.4157402550245
 30
0.0
 10
87.32559134101582
 20
-133.5165703333743
 30
0.0
 10
87.32559134101582
 20
-133.5165703333743
 30
0.0
 10
87.32559134101582
 20
-133.5165703333743
 30
0.0
 10
88.82334660322819
 20
-133.5165703333743
 30
0.0
 10
88.82334660322819
 20
-133.5165703333743
 30
0.0
 10
88.82334660322819
 20
-133.5165703333743
 30
0.0
 10
88.82334660322819
 20
-134.4157402550245
 30
0.0
 10
88.82334660322819
 20
-134.4157402550245
 30
0.0
 10
88.82334660322819
 20
-134.4157402550245
 30
0.0
 10
87.6788858830282
 20
-134.4157402550245
 30
0.0
 10
87.6788858830282
 20
-134.4157402550245
 30
0.0
 10
87.6788858830282
 20
-134.4157402550245
 30
0.0
 10
87.78465031442536
 20
-134.525638801004
 30
0.0
 10
87.78465031442536
 20
-134.525638801004
 30
0.0
 10
87.6196302406819
 20
-134.6207234363969
 30
0.0
 10
87.45461016693844
 20
-134.6820461360344
 30
0.0
 10
87.15850420998122
 20
-134.7330335492161
 30
0.0
 10
87.15850420998122
 20
-134.7330335492161
 30
0.0
 10
87.0928751409872
 20
-134.580760328768
 30
0.0
 10
87.0928751409872
 20
-134.580760328768
 30
0.0
 10
87.47166338959042
 20
-134.5277058582951
 30
0.0
 10
87.59430878886532
 20
-134.4601819867843
 30
0.0
 10
87.6747517684459
 20
-134.4157402550245
 30
0.0
 10
87.6747517684459
 20
-134.4157402550245
 30
0.0
 10
87.32559134101582
 20
-134.4157402550245
 30
0.0
 10
87.32559134101582
 20
-134.4157402550245
 30
0.0
  0
POLYLINE
  5
177
330
133
100
AcDbEntity
  8
_U+30EC_U+30A4_U+30E4_U+30FC 1
370
     0
100
AcDb2dPolyline
 66
     1
 10
0.0
 20
0.0
 30
0.0
  0
VERTEX
  5
178
330
177
100
AcDbEntity
  8
_U+30EC_U+30A4_U+30E4_U+30FC 1
370
     0
100
AcDbVertex
100
AcDb2dVertex
 10
88.65419241490243
 20
-133.6498955286535
 30
0.0
  0
VERTEX
  5
179
330
177
100
AcDbEntity
  8
_U+30EC_U+30A4_U+30E4_U+30FC 1
370
     0
100
AcDbVertex
100
AcDb2dVertex
 10
87.49491778411586
 20
-133.6498955286535
 30
0.0
  0
VERTEX
  5
17A
330
177
100
AcDbEntity
  8
_U+30EC_U+30A4_U+30E4_U+30FC 1
370
     0
100
AcDbVertex
100
AcDb2dVertex
 10
87.49491778411586
 20
-133.7787420998019
 30
0.0
  0
VERTEX
  5
17B
330
177
100
AcDbEntity
  8
_U+30EC_U+30A4_U+30E4_U+30FC 1
370
     0
100
AcDbVertex
100
AcDb2dVertex
 10
88.65419241490243
 20
-133.7787420998019
 30
0.0
  0
VERTEX
  5
17C
330
177
100
AcDbEntity
  8
_U+30EC_U+30A4_U+30E4_U+30FC 1
370
     0
100
AcDbVertex
100
AcDb2dVertex
 10
88.65419241490243
 20
-133.6498955286535
 30
0.0
  0
SEQEND
  5
17D
330
177
100
AcDbEntity
  8
_U+30EC_U+30A4_U+30E4_U+30FC 1
370
     0
  0
POLYLINE
  5
17E
330
133
100
AcDbEntity
  8
_U+30EC_U+30A4_U+30E4_U+30FC 1
370
     0
100
AcDb2dPolyline
 66
     1
 10
0.0
 20
0.0
 30
0.0
  0
VERTEX
  5
17F
330
17E
100
AcDbEntity
  8
_U+30EC_U+30A4_U+30E4_U+30FC 1
370
     0
100
AcDbVertex
100
AcDb2dVertex
 10
88.65419241490243
 20
-133.8889851553298
 30
0.0
  0
VERTEX
  5
180
330
17E
100
AcDbEntity
  8
_U+30EC_U+30A4_U+30E4_U+30FC 1
370
     0
100
AcDbVertex
100
AcDb2dVertex
 10
87.49491778411586
 20
-133.8889851553298
 30
0.0
  0
VERTEX
  5
181
330
17E
100
AcDbEntity
  8
_U+30EC_U+30A4_U+30E4_U+30FC 1
370
     0
100
AcDbVertex
100
AcDb2dVertex
 10
87.49491778411586
 20
-134.0305785797736
 30
0.0
  0
VERTEX
  5
182
330
17E
100
AcDbEntity
  8
_U+30EC_U+30A4_U+30E4_U+30FC 1
370
     0
100
AcDbVertex
100
AcDb2dVertex
 10
88.65419241490243
 20
-134.0305785797736
 30
0.0
  0
VERTEX
  5
183
330
17E
100
AcDbEntity
  8
_U+30EC_U+30A4_U+30E4_U+30FC 1
370
     0
100
AcDbVertex
100
AcDb2dVertex
 10
88.65419241490243
 20
-133.8889851553298
 30
0.0
  0
SEQEND
  5
184
330
17E
100
AcDbEntity
  8
_U+30EC_U+30A4_U+30E4_U+30FC 1
370
     0
  0
POLYLINE
  5
185
330
133
100
AcDbEntity
  8
_U+30EC_U+30A4_U+30E4_U+30FC 1
370
     0
100
AcDb2dPolyline
 66
     1
 10
0.0
 20
0.0
 30
0.0
  0
VERTEX
  5
186
330
185
100
AcDbEntity
  8
_U+30EC_U+30A4_U+30E4_U+30FC 1
370
     0
100
AcDbVertex
100
AcDb2dVertex
 10
88.65419241490243
 20
-134.1404771257531
 30
0.0
  0
VERTEX
  5
187
330
185
100
AcDbEntity
  8
_U+30EC_U+30A4_U+30E4_U+30FC 1
370
     0
100
AcDbVertex
100
AcDb2dVertex
 10
87.49491778411586
 20
-134.1404771257531
 30
0.0
  0
VERTEX
  5
188
330
185
100
AcDbEntity
  8
_U+30EC_U+30A4_U+30E4_U+30FC 1
370
     0
100
AcDbVertex
100
AcDb2dVertex
 10
87.49491778411586
 20
-134.2803480024542
 30
0.0
  0
VERTEX
  5
189
330
185
100
AcDbEntity
  8
_U+30EC_U+30A4_U+30E4_U+30FC 1
370
     0
100
AcDbVertex
100
AcDb2dVertex
 10
88.65419241490243
 20
-134.2803480024542
 30
0.0
  0
VERTEX
  5
18A
330
185
100
AcDbEntity
  8
_U+30EC_U+30A4_U+30E4_U+30FC 1
370
     0
100
AcDbVertex
100
AcDb2dVertex
 10
88.65419241490243
 20
-134.1404771257531
 30
0.0
  0
SEQEND
  5
18B
330
185
100
AcDbEntity
  8
_U+30EC_U+30A4_U+30E4_U+30FC 1
370
     0
  0
SPLINE
  5
18C
330
133
100
AcDbEntity
  8
_U+30EC_U+30A4_U+30E4_U+30FC 1
370
     0
100
AcDbSpline
210
0.0
220
0.0
230
1.0
 70
    11
 71
     3
 72
    50
 73
    46
 74
     0
 42
0.0000000001
 43
0.0000000001
 12
1.0
 22
0.0
 32
0.0
 13
1.0
 23
0.0
 33
0.0
 40
0.0
 40
0.0
 40
0.0
 40
0.0
 40
1.0
 40
1.0
 40
1.0
 40
2.0
 40
2.0
 40
2.0
 40
3.0
 40
3.0
 40
3.0
 40
4.0
 40
4.0
 40
4.0
 40
5.0
 40
5.0
 40
5.0
 40
6.0
 40
6.0
 40
6.0
 40
7.0
 40
7.0
 40
7.0
 40
8.0
 40
8.0
 40
8.0
 40
9.0
 40
9.0
 40
9.0
 40
10.0
 40
10.0
 40
10.0
 40
11.0
 40
11.0
 40
11.0
 40
12.0
 40
12.0
 40
12.0
 40
13.0
 40
13.0
 40
13.0
 40
14.0
 40
14.0
 40
14.0
 40
15.0
 40
15.0
 40
15.0
 40
15.0
 10
88.31777884076779
 20
-133.0700859584859
 30
0.0
 10
88.31777884076779
 20
-133.0700859584859
 30
0.0
 10
89.05399574596566
 20
-133.0700859584859
 30
0.0
 10
89.05399574596566
 20
-133.0700859584859
 30
0.0
 10
89.05399574596566
 20
-133.0700859584859
 30
0.0
 10
89.05399574596566
 20
-133.1951429246005
 30
0.0
 10
89.05399574596566
 20
-133.1951429246005
 30
0.0
 10
89.05399574596566
 20
-133.1951429246005
 30
0.0
 10
88.72395559847874
 20
-133.1951429246005
 30
0.0
 10
88.72395559847874
 20
-133.1951429246005
 30
0.0
 10
88.72395559847874
 20
-133.1951429246005
 30
0.0
 10
88.72395559847874
 20
-133.4700615443235
 30
0.0
 10
88.72395559847874
 20
-133.4700615443235
 30
0.0
 10
88.72395559847874
 20
-133.4700615443235
 30
0.0
 10
88.56737600867413
 20
-133.4700615443235
 30
0.0
 10
88.56737600867413
 20
-133.4700615443235
 30
0.0
 10
88.56737600867413
 20
-133.4700615443235
 30
0.0
 10
88.56737600867413
 20
-133.1951429246005
 30
0.0
 10
88.56737600867413
 20
-133.1951429246005
 30
0.0
 10
88.56737600867413
 20
-133.1951429246005
 30
0.0
 10
88.3029649301812
 20
-133.1951429246005
 30
0.0
 10
88.3029649301812
 20
-133.1951429246005
 30
0.0
 10
88.27764347836462
 20
-133.3239894957489
 30
0.0
 10
88.22682831995719
 20
-133.4149400165595
 30
0.0
 10
88.12950437249887
 20
-133.4976223082055
 30
0.0
 10
88.12950437249887
 20
-133.4976223082055
 30
0.0
 10
88.00685897322398
 20
-133.3897908195171
 30
0.0
 10
88.00685897322398
 20
-133.3897908195171
 30
0.0
 10
88.1422512257943
 20
-133.2795477639891
 30
0.0
 10
88.16550562031973
 20
-133.1420884541277
 30
0.0
 10
88.16550562031973
 20
-133.0680189011948
 30
0.0
 10
88.16550562031973
 20
-133.0680189011948
 30
0.0
 10
88.16550562031973
 20
-132.8247951599362
 30
0.0
 10
88.16550562031973
 20
-132.8247951599362
 30
0.0
 10
88.63507213495929
 20
-132.8247951599362
 30
0.0
 10
88.80233152076818
 20
-132.7844875427587
 30
0.0
 10
88.94616425727735
 20
-132.7421128682902
 30
0.0
 10
88.94616425727735
 20
-132.7421128682902
 30
0.0
 10
89.00541989962365
 20
-132.8799166877002
 30
0.0
 10
89.00541989962365
 20
-132.8799166877002
 30
0.0
 10
88.734635394483
 20
-132.9495076165022
 30
0.0
 10
88.41940915758265
 20
-132.953986240633
 30
0.0
 10
88.31777884076779
 20
-132.953986240633
 30
0.0
 10
88.31777884076779
 20
-132.953986240633
 30
0.0
 10
88.31777884076779
 20
-133.0700859584859
 30
0.0
 10
88.31777884076779
 20
-133.0700859584859
 30
0.0
  0
SPLINE
  5
18D
330
133
100
AcDbEntity
  8
_U+30EC_U+30A4_U+30E4_U+30FC 1
370
     0
100
AcDbSpline
210
0.0
220
0.0
230
1.0
 70
    11
 71
     3
 72
    17
 73
    13
 74
     0
 42
0.0000000001
 43
0.0000000001
 12
1.0
 22
0.0
 32
0.0
 13
1.0
 23
0.0
 33
0.0
 40
0.0
 40
0.0
 40
0.0
 40
0.0
 40
1.0
 40
1.0
 40
1.0
 40
2.0
 40
2.0
 40
2.0
 40
3.0
 40
3.0
 40
3.0
 40
4.0
 40
4.0
 40
4.0
 40
4.0
 10
88.42991669881266
 20
-134.421941426898
 30
0.0
 10
88.64988604554587
 20
-134.5342515397171
 30
0.0
 10
88.91653643610421
 20
-134.5721475900549
 30
0.0
 10
89.04555526202681
 20
-134.5828273860592
 30
0.0
 10
89.04555526202681
 20
-134.5828273860592
 30
0.0
 10
88.9757920784505
 20
-134.7371676637983
 30
0.0
 10
88.9757920784505
 20
-134.7371676637983
 30
0.0
 10
88.85521373646675
 20
-134.7223537532118
 30
0.0
 10
88.59286971526498
 20
-134.6820461360344
 30
0.0
 10
88.32845863677206
 20
-134.5363185970083
 30
0.0
 10
88.32845863677206
 20
-134.5363185970083
 30
0.0
 10
88.42991669881266
 20
-134.421941426898
 30
0.0
 10
88.42991669881266
 20
-134.421941426898
 30
0.0
  0
HATCH
  5
18E
330
133
100
AcDbEntity
  8
_U+30EC_U+30A4_U+30E4_U+30FC 1
 62
    12
420
 15007761
100
AcDbHatch
 10
0.0
 20
0.0
 30
0.0
210
0.0
220
0.0
230
1.0
  2
SOLID
 70
     1
 71
     0
 91
        7
 92
        1
 93
        1
 72
     4
 94
        3
 73
     0
 74
     1
 95
       50
 96
       46
 40
0.0
 40
0.0
 40
0.0
 40
0.0
 40
1.0
 40
1.0
 40
1.0
 40
2.0
 40
2.0
 40
2.0
 40
3.0
 40
3.0
 40
3.0
 40
4.0
 40
4.0
 40
4.0
 40
5.0
 40
5.0
 40
5.0
 40
6.0
 40
6.0
 40
6.0
 40
7.0
 40
7.0
 40
7.0
 40
8.0
 40
8.0
 40
8.0
 40
9.0
 40
9.0
 40
9.0
 40
10.0
 40
10.0
 40
10.0
 40
11.0
 40
11.0
 40
11.0
 40
12.0
 40
12.0
 40
12.0
 40
13.0
 40
13.0
 40
13.0
 40
14.0
 40
14.0
 40
14.0
 40
15.0
 40
15.0
 40
15.0
 40
15.0
 10
87.41016843517872
 20
-133.0700859584859
 10
87.41016843517872
 20
-133.0700859584859
 10
88.06180824621372
 20
-133.0700859584859
 10
88.06180824621372
 20
-133.0700859584859
 10
88.06180824621372
 20
-133.0700859584859
 10
88.06180824621372
 20
-133.1951429246005
 10
88.06180824621372
 20
-133.1951429246005
 10
88.06180824621372
 20
-133.1951429246005
 10
87.78465031442536
 20
-133.1951429246005
 10
87.78465031442536
 20
-133.1951429246005
 10
87.78465031442536
 20
-133.1951429246005
 10
87.78465031442536
 20
-133.4700615443235
 10
87.78465031442536
 20
-133.4700615443235
 10
87.78465031442536
 20
-133.4700615443235
 10
87.62393661003847
 20
-133.4700615443235
 10
87.62393661003847
 20
-133.4700615443235
 10
87.62393661003847
 20
-133.4700615443235
 10
87.62393661003847
 20
-133.1951429246005
 10
87.62393661003847
 20
-133.1951429246005
 10
87.62393661003847
 20
-133.1951429246005
 10
87.40396726330526
 20
-133.1951429246005
 10
87.40396726330526
 20
-133.1951429246005
 10
87.393287467301
 20
-133.2647338534026
 10
87.3679660154844
 20
-133.4593817483192
 10
87.21345348297095
 20
-133.6095879114761
 10
87.21345348297095
 20
-133.6095879114761
 10
87.09080808369605
 20
-133.4996893654966
 10
87.09080808369605
 20
-133.4996893654966
 10
87.21138642567979
 20
-133.4001261059729
 10
87.25376110014837
 20
-133.1951429246005
 10
87.25376110014837
 20
-133.1124606329545
 10
87.25376110014837
 20
-133.1124606329545
 10
87.25376110014837
 20
-132.8268622172273
 10
87.25376110014837
 20
-132.8268622172273
 10
87.7381415253745
 20
-132.8268622172273
 10
87.89265405788795
 20
-132.7803534281765
 10
87.98773869328085
 20
-132.7527926642944
 10
87.98773869328085
 20
-132.7527926642944
 10
88.04062090897943
 20
-132.8923190314471
 10
88.04062090897943
 20
-132.8923190314471
 10
87.83115910347624
 20
-132.9412393873376
 10
87.66837834179819
 20
-132.9515746737934
 10
87.41016843517872
 20
-132.9560532979242
 10
87.41016843517872
 20
-132.9560532979242
 10
87.41016843517872
 20
-133.0700859584859
 10
87.41016843517872
 20
-133.0700859584859
 97
        0
 97
        0
 92
        1
 93
        1
 72
     4
 94
        3
 73
     0
 74
     1
 95
       32
 96
       28
 40
0.0
 40
0.0
 40
0.0
 40
0.0
 40
1.0
 40
1.0
 40
1.0
 40
2.0
 40
2.0
 40
2.0
 40
3.0
 40
3.0
 40
3.0
 40
4.0
 40
4.0
 40
4.0
 40
5.0
 40
5.0
 40
5.0
 40
6.0
 40
6.0
 40
6.0
 40
7.0
 40
7.0
 40
7.0
 40
8.0
 40
8.0
 40
8.0
 40
9.0
 40
9.0
 40
9.0
 40
9.0
 10
87.32559134101582
 20
-134.4157402550245
 10
87.32559134101582
 20
-134.4157402550245
 10
87.32559134101582
 20
-133.5165703333743
 10
87.32559134101582
 20
-133.5165703333743
 10
87.32559134101582
 20
-133.5165703333743
 10
88.82334660322819
 20
-133.5165703333743
 10
88.82334660322819
 20
-133.5165703333743
 10
88.82334660322819
 20
-133.5165703333743
 10
88.82334660322819
 20
-134.4157402550245
 10
88.82334660322819
 20
-134.4157402550245
 10
88.82334660322819
 20
-134.4157402550245
 10
87.6788858830282
 20
-134.4157402550245
 10
87.6788858830282
 20
-134.4157402550245
 10
87.6788858830282
 20
-134.4157402550245
 10
87.78465031442536
 20
-134.525638801004
 10
87.78465031442536
 20
-134.525638801004
 10
87.6196302406819
 20
-134.6207234363969
 10
87.45461016693844
 20
-134.6820461360344
 10
87.15850420998122
 20
-134.7330335492161
 10
87.15850420998122
 20
-134.7330335492161
 10
87.0928751409872
 20
-134.580760328768
 10
87.0928751409872
 20
-134.580760328768
 10
87.47166338959042
 20
-134.5277058582951
 10
87.59430878886532
 20
-134.4601819867843
 10
87.6747517684459
 20
-134.4157402550245
 10
87.6747517684459
 20
-134.4157402550245
 10
87.32559134101582
 20
-134.4157402550245
 10
87.32559134101582
 20
-134.4157402550245
 97
        0
 97
        0
 92
        1
 93
        4
 72
     1
 10
88.65419241490243
 20
-133.6498955286535
 11
87.49491778411586
 21
-133.6498955286535
 72
     1
 10
87.49491778411586
 20
-133.6498955286535
 11
87.49491778411586
 21
-133.7787420998019
 72
     1
 10
87.49491778411586
 20
-133.7787420998019
 11
88.65419241490243
 21
-133.7787420998019
 72
     1
 10
88.65419241490243
 20
-133.7787420998019
 11
88.65419241490243
 21
-133.6498955286535
 97
        0
 92
        1
 93
        4
 72
     1
 10
88.65419241490243
 20
-133.8889851553298
 11
87.49491778411586
 21
-133.8889851553298
 72
     1
 10
87.49491778411586
 20
-133.8889851553298
 11
87.49491778411586
 21
-134.0305785797736
 72
     1
 10
87.49491778411586
 20
-134.0305785797736
 11
88.65419241490243
 21
-134.0305785797736
 72
     1
 10
88.65419241490243
 20
-134.0305785797736
 11
88.65419241490243
 21
-133.8889851553298
 97
        0
 92
        1
 93
        4
 72
     1
 10
88.65419241490243
 20
-134.1404771257531
 11
87.49491778411586
 21
-134.1404771257531
 72
     1
 10
87.49491778411586
 20
-134.1404771257531
 11
87.49491778411586
 21
-134.2803480024542
 72
     1
 10
87.49491778411586
 20
-134.2803480024542
 11
88.65419241490243
 21
-134.2803480024542
 72
     1
 10
88.65419241490243
 20
-134.2803480024542
 11
88.65419241490243
 21
-134.1404771257531
 97
        0
 92
        1
 93
        1
 72
     4
 94
        3
 73
     0
 74
     1
 95
       50
 96
       46
 40
0.0
 40
0.0
 40
0.0
 40
0.0
 40
1.0
 40
1.0
 40
1.0
 40
2.0
 40
2.0
 40
2.0
 40
3.0
 40
3.0
 40
3.0
 40
4.0
 40
4.0
 40
4.0
 40
5.0
 40
5.0
 40
5.0
 40
6.0
 40
6.0
 40
6.0
 40
7.0
 40
7.0
 40
7.0
 40
8.0
 40
8.0
 40
8.0
 40
9.0
 40
9.0
 40
9.0
 40
10.0
 40
10.0
 40
10.0
 40
11.0
 40
11.0
 40
11.0
 40
12.0
 40
12.0
 40
12.0
 40
13.0
 40
13.0
 40
13.0
 40
14.0
 40
14.0
 40
14.0
 40
15.0
 40
15.0
 40
15.0
 40
15.0
 10
88.31777884076779
 20
-133.0700859584859
 10
88.31777884076779
 20
-133.0700859584859
 10
89.05399574596566
 20
-133.0700859584859
 10
89.05399574596566
 20
-133.0700859584859
 10
89.05399574596566
 20
-133.0700859584859
 10
89.05399574596566
 20
-133.1951429246005
 10
89.05399574596566
 20
-133.1951429246005
 10
89.05399574596566
 20
-133.1951429246005
 10
88.72395559847874
 20
-133.1951429246005
 10
88.72395559847874
 20
-133.1951429246005
 10
88.72395559847874
 20
-133.1951429246005
 10
88.72395559847874
 20
-133.4700615443235
 10
88.72395559847874
 20
-133.4700615443235
 10
88.72395559847874
 20
-133.4700615443235
 10
88.56737600867413
 20
-133.4700615443235
 10
88.56737600867413
 20
-133.4700615443235
 10
88.56737600867413
 20
-133.4700615443235
 10
88.56737600867413
 20
-133.1951429246005
 10
88.56737600867413
 20
-133.1951429246005
 10
88.56737600867413
 20
-133.1951429246005
 10
88.3029649301812
 20
-133.1951429246005
 10
88.3029649301812
 20
-133.1951429246005
 10
88.27764347836462
 20
-133.3239894957489
 10
88.22682831995719
 20
-133.4149400165595
 10
88.12950437249887
 20
-133.4976223082055
 10
88.12950437249887
 20
-133.4976223082055
 10
88.00685897322398
 20
-133.3897908195171
 10
88.00685897322398
 20
-133.3897908195171
 10
88.1422512257943
 20
-133.2795477639891
 10
88.16550562031973
 20
-133.1420884541277
 10
88.16550562031973
 20
-133.0680189011948
 10
88.16550562031973
 20
-133.0680189011948
 10
88.16550562031973
 20
-132.8247951599362
 10
88.16550562031973
 20
-132.8247951599362
 10
88.63507213495929
 20
-132.8247951599362
 10
88.80233152076818
 20
-132.7844875427587
 10
88.94616425727735
 20
-132.7421128682902
 10
88.94616425727735
 20
-132.7421128682902
 10
89.00541989962365
 20
-132.8799166877002
 10
89.00541989962365
 20
-132.8799166877002
 10
88.734635394483
 20
-132.9495076165022
 10
88.41940915758265
 20
-132.953986240633
 10
88.31777884076779
 20
-132.953986240633
 10
88.31777884076779
 20
-132.953986240633
 10
88.31777884076779
 20
-133.0700859584859
 10
88.31777884076779
 20
-133.0700859584859
 97
        0
 97
        0
 92
        1
 93
        1
 72
     4
 94
        3
 73
     0
 74
     1
 95
       17
 96
       13
 40
0.0
 40
0.0
 40
0.0
 40
0.0
 40
1.0
 40
1.0
 40
1.0
 40
2.0
 40
2.0
 40
2.0
 40
3.0
 40
3.0
 40
3.0
 40
4.0
 40
4.0
 40
4.0
 40
4.0
 10
88.42991669881266
 20
-134.421941426898
 10
88.64988604554587
 20
-134.5342515397171
 10
88.91653643610421
 20
-134.5721475900549
 10
89.04555526202681
 20
-134.5828273860592
 10
89.04555526202681
 20
-134.5828273860592
 10
88.9757920784505
 20
-134.7371676637983
 10
88.9757920784505
 20
-134.7371676637983
 10
88.85521373646675
 20
-134.7223537532118
 10
88.59286971526498
 20
-134.6820461360344
 10
88.32845863677206
 20
-134.5363185970083
 10
88.32845863677206
 20
-134.5363185970083
 10
88.42991669881266
 20
-134.421941426898
 10
88.42991669881266
 20
-134.421941426898
 97
        0
 97
        0
 75
     2
 76
     1
 98
        0
  0
ENDBLK
  5
136
330
133
100
AcDbEntity
  8
0
100
AcDbBlockEnd
  0
BLOCK
  5
19A
330
198
100
AcDbEntity
  8
0
100
AcDbBlockBegin
  2
block 7
 70
     0
 10
0.0
 20
0.0
 30
0.0
  3
block 7
  1

  0
SPLINE
  5
19C
330
198
100
AcDbEntity
  8
_U+30EC_U+30A4_U+30E4_U+30FC 1
370
     0
100
AcDbSpline
210
0.0
220
0.0
230
1.0
 70
    11
 71
     3
 72
    17
 73
    13
 74
     0
 42
0.0000000001
 43
0.0000000001
 12
1.0
 22
0.0
 32
0.0
 13
1.0
 23
0.0
 33
0.0
 40
0.0
 40
0.0
 40
0.0
 40
0.0
 40
1.0
 40
1.0
 40
1.0
 40
2.0
 40
2.0
 40
2.0
 40
3.0
 40
3.0
 40
3.0
 40
4.0
 40
4.0
 40
4.0
 40
4.0
 10
114.362356199708
 20
-154.716482166182
 30
0.0
 10
114.2565917683109
 20
-154.6107177347848
 30
0.0
 10
114.175976533956
 20
-154.5728216844471
 30
0.0
 10
114.0829589558543
 20
-154.5407822964343
 30
0.0
 10
114.0829589558543
 20
-154.5407822964343
 30
0.0
 10
114.1932020113823
 20
-154.3761067322393
 30
0.0
 10
114.1932020113823
 20
-154.3761067322393
 30
0.0
 10
114.2903537040663
 20
-154.4181368971594
 30
0.0
 10
114.41093204605
 20
-154.4966850742231
 30
0.0
 10
114.4639865165229
 20
-154.5514620924385
 30
0.0
 10
114.4639865165229
 20
-154.5514620924385
 30
0.0
 10
114.362356199708
 20
-154.716482166182
 30
0.0
 10
114.362356199708
 20
-154.716482166182
 30
0.0
  0
SPLINE
  5
19D
330
198
100
AcDbEntity
  8
_U+30EC_U+30A4_U+30E4_U+30FC 1
370
     0
100
AcDbSpline
210
0.0
220
0.0
230
1.0
 70
    11
 71
     3
 72
   182
 73
   178
 74
     0
 42
0.0000000001
 43
0.0000000001
 12
1.0
 22
0.0
 32
0.0
 13
1.0
 23
0.0
 33
0.0
 40
0.0
 40
0.0
 40
0.0
 40
0.0
 40
1.0
 40
1.0
 40
1.0
 40
2.0
 40
2.0
 40
2.0
 40
3.0
 40
3.0
 40
3.0
 40
4.0
 40
4.0
 40
4.0
 40
5.0
 40
5.0
 40
5.0
 40
6.0
 40
6.0
 40
6.0
 40
7.0
 40
7.0
 40
7.0
 40
8.0
 40
8.0
 40
8.0
 40
9.0
 40
9.0
 40
9.0
 40
10.0
 40
10.0
 40
10.0
 40
11.0
 40
11.0
 40
11.0
 40
12.0
 40
12.0
 40
12.0
 40
13.0
 40
13.0
 40
13.0
 40
14.0
 40
14.0
 40
14.0
 40
15.0
 40
15.0
 40
15.0
 40
16.0
 40
16.0
 40
16.0
 40
17.0
 40
17.0
 40
17.0
 40
18.0
 40
18.0
 40
18.0
 40
19.0
 40
19.0
 40
19.0
 40
20.0
 40
20.0
 40
20.0
 40
21.0
 40
21.0
 40
21.0
 40
22.0
 40
22.0
 40
22.0
 40
23.0
 40
23.0
 40
23.0
 40
24.0
 40
24.0
 40
24.0
 40
25.0
 40
25.0
 40
25.0
 40
26.0
 40
26.0
 40
26.0
 40
27.0
 40
27.0
 40
27.0
 40
28.0
 40
28.0
 40
28.0
 40
29.0
 40
29.0
 40
29.0
 40
30.0
 40
30.0
 40
30.0
 40
31.0
 40
31.0
 40
31.0
 40
32.0
 40
32.0
 40
32.0
 40
33.0
 40
33.0
 40
33.0
 40
34.0
 40
34.0
 40
34.0
 40
35.0
 40
35.0
 40
35.0
 40
36.0
 40
36.0
 40
36.0
 40
37.0
 40
37.0
 40
37.0
 40
38.0
 40
38.0
 40
38.0
 40
39.0
 40
39.0
 40
39.0
 40
40.0
 40
40.0
 40
40.0
 40
41.0
 40
41.0
 40
41.0
 40
42.0
 40
42.0
 40
42.0
 40
43.0
 40
43.0
 40
43.0
 40
44.0
 40
44.0
 40
44.0
 40
45.0
 40
45.0
 40
45.0
 40
46.0
 40
46.0
 40
46.0
 40
47.0
 40
47.0
 40
47.0
 40
48.0
 40
48.0
 40
48.0
 40
49.0
 40
49.0
 40
49.0
 40
50.0
 40
50.0
 40
50.0
 40
51.0
 40
51.0
 40
51.0
 40
52.0
 40
52.0
 40
52.0
 40
53.0
 40
53.0
 40
53.0
 40
54.0
 40
54.0
 40
54.0
 40
55.0
 40
55.0
 40
55.0
 40
56.0
 40
56.0
 40
56.0
 40
57.0
 40
57.0
 40
57.0
 40
58.0
 40
58.0
 40
58.0
 40
59.0
 40
59.0
 40
59.0
 40
59.0
 10
115.4072536603843
 20
-155.8947048221374
 30
0.0
 10
115.4072536603843
 20
-155.8947048221374
 30
0.0
 10
114.7706000147101
 20
-155.8947048221374
 30
0.0
 10
114.7706000147101
 20
-155.8947048221374
 30
0.0
 10
114.5570040946246
 20
-155.8947048221374
 30
0.0
 10
114.3409966076995
 20
-155.8991834462683
 30
0.0
 10
114.127400687614
 20
-155.9119302995637
 30
0.0
 10
114.127400687614
 20
-155.9119302995637
 30
0.0
 10
114.127400687614
 20
-155.7045355513517
 30
0.0
 10
114.127400687614
 20
-155.7045355513517
 30
0.0
 10
114.3496093464126
 20
-155.7172824046471
 30
0.0
 10
114.6731038124776
 20
-155.7214165192294
 30
0.0
 10
114.7706000147101
 20
-155.7214165192294
 30
0.0
 10
114.7706000147101
 20
-155.7214165192294
 30
0.0
 10
114.9907416162176
 20
-155.7214165192294
 30
0.0
 10
114.9907416162176
 20
-155.7214165192294
 30
0.0
 10
114.9907416162176
 20
-155.7214165192294
 30
0.0
 10
114.9907416162176
 20
-155.5798230947856
 30
0.0
 10
114.9907416162176
 20
-155.5798230947856
 30
0.0
 10
114.9907416162176
 20
-155.5798230947856
 30
0.0
 10
114.8298556570564
 20
-155.5798230947856
 30
0.0
 10
114.8298556570564
 20
-155.5798230947856
 30
0.0
 10
114.664835583313
 20
-155.5798230947856
 30
0.0
 10
114.4998155095695
 20
-155.5839572093679
 30
0.0
 10
114.334795435826
 20
-155.5987711199545
 30
0.0
 10
114.334795435826
 20
-155.5987711199545
 30
0.0
 10
114.334795435826
 20
-155.3893093144513
 30
0.0
 10
114.334795435826
 20
-155.3893093144513
 30
0.0
 10
114.5060166814429
 20
-155.4041232250379
 30
0.0
 10
114.7537190468324
 20
-155.4082573396202
 30
0.0
 10
114.8298556570564
 20
-155.4082573396202
 30
0.0
 10
114.8298556570564
 20
-155.4082573396202
 30
0.0
 10
114.9907416162176
 20
-155.4082573396202
 30
0.0
 10
114.9907416162176
 20
-155.4082573396202
 30
0.0
 10
114.9862629920868
 20
-155.3362548439785
 30
0.0
 10
114.9862629920868
 20
-155.330053672105
 30
0.0
 10
114.9800618202133
 20
-155.2769992016322
 30
0.0
 10
114.9800618202133
 20
-155.2769992016322
 30
0.0
 10
115.1195881873659
 20
-155.2918131122187
 30
0.0
 10
115.1195881873659
 20
-155.2918131122187
 30
0.0
 10
115.1195881873659
 20
-155.2918131122187
 30
0.0
 10
115.0203694373907
 20
-155.1205918666018
 30
0.0
 10
115.0203694373907
 20
-155.1205918666018
 30
0.0
 10
115.0668782264416
 20
-155.1267930384753
 30
0.0
 10
115.1409477793745
 20
-155.1354057771884
 30
0.0
 10
115.1578287472522
 20
-155.1354057771884
 30
0.0
 10
115.2084716508854
 20
-155.1354057771884
 30
0.0
 10
115.2253526187631
 20
-155.1143906947283
 30
0.0
 10
115.2253526187631
 20
-155.0572021096732
 30
0.0
 10
115.2253526187631
 20
-155.0572021096732
 30
0.0
 10
115.2253526187631
 20
-154.9197427998117
 30
0.0
 10
115.2253526187631
 20
-154.9197427998117
 30
0.0
 10
115.2253526187631
 20
-154.9197427998117
 30
0.0
 10
115.1195881873659
 20
-154.9197427998117
 30
0.0
 10
115.1195881873659
 20
-154.9197427998117
 30
0.0
 10
114.9862629920868
 20
-154.9197427998117
 30
0.0
 10
114.8298556570564
 20
-154.9197427998117
 30
0.0
 10
114.7072102577815
 20
-154.9321451435586
 30
0.0
 10
114.7072102577815
 20
-154.9321451435586
 30
0.0
 10
114.7072102577815
 20
-154.7419758727729
 30
0.0
 10
114.7072102577815
 20
-154.7419758727729
 30
0.0
 10
114.8742973888162
 20
-154.7588568406506
 30
0.0
 10
115.1047742767794
 20
-154.7609238979417
 30
0.0
 10
115.1195881873659
 20
-154.7609238979417
 30
0.0
 10
115.1195881873659
 20
-154.7609238979417
 30
0.0
 10
115.2253526187631
 20
-154.7609238979417
 30
0.0
 10
115.2253526187631
 20
-154.7609238979417
 30
0.0
 10
115.2253526187631
 20
-154.7609238979417
 30
0.0
 10
115.2253526187631
 20
-154.6296657599537
 30
0.0
 10
115.2253526187631
 20
-154.6296657599537
 30
0.0
 10
115.2253526187631
 20
-154.6296657599537
 30
0.0
 10
115.1874565684254
 20
-154.6296657599537
 30
0.0
 10
115.1874565684254
 20
-154.6296657599537
 30
0.0
 10
115.1430148366656
 20
-154.6296657599537
 30
0.0
 10
115.0179578705511
 20
-154.6341443840845
 30
0.0
 10
114.9290744070316
 20
-154.6424126132491
 30
0.0
 10
114.9290744070316
 20
-154.6424126132491
 30
0.0
 10
114.9290744070316
 20
-154.5621418884428
 30
0.0
 10
114.9290744070316
 20
-154.5621418884428
 30
0.0
 10
114.8763644461073
 20
-154.6000379387806
 30
0.0
 10
114.8508707395165
 20
-154.6148518493671
 30
0.0
 10
114.8084960650479
 20
-154.6382784986668
 30
0.0
 10
114.8084960650479
 20
-154.6382784986668
 30
0.0
 10
114.6203938515532
 20
-154.50908741797
 30
0.0
 10
114.6203938515532
 20
-154.50908741797
 30
0.0
 10
114.6985975190684
 20
-154.4753254822145
 30
0.0
 10
114.8553493636473
 20
-154.4119357252859
 30
0.0
 10
115.0117566986776
 20
-154.2679307340025
 30
0.0
 10
115.0940944807751
 20
-154.1897270664873
 30
0.0
 10
115.1726426578388
 20
-154.1053222270987
 30
0.0
 10
115.2253526187631
 20
-154.0036919102838
 30
0.0
 10
115.2253526187631
 20
-154.0036919102838
 30
0.0
 10
115.4368814815574
 20
-154.0650146099213
 30
0.0
 10
115.4368814815574
 20
-154.0650146099213
 30
0.0
 10
115.4561740162749
 20
-154.0712157817947
 30
0.0
 10
115.4665093027306
 20
-154.0798285205078
 30
0.0
 10
115.4665093027306
 20
-154.0925753738032
 30
0.0
 10
115.4665093027306
 20
-154.109456341681
 30
0.0
 10
115.4537624494352
 20
-154.1156575135544
 30
0.0
 10
115.4286132523929
 20
-154.1284043668498
 30
0.0
 10
115.5088839771992
 20
-154.2259005690824
 30
0.0
 10
115.6718369936515
 20
-154.3230522617665
 30
0.0
 10
115.7055989294069
 20
-154.3420002869353
 30
0.0
 10
115.8558050925638
 20
-154.4308837504548
 30
0.0
 10
115.9701822626741
 20
-154.4584445143368
 30
0.0
 10
116.0483859301893
 20
-154.4773925395057
 30
0.0
 10
116.0483859301893
 20
-154.4773925395057
 30
0.0
 10
115.9298746454967
 20
-154.6468912373799
 30
0.0
 10
115.9298746454967
 20
-154.6468912373799
 30
0.0
 10
115.8451252965596
 20
-154.6172634162068
 30
0.0
 10
115.7944823929264
 20
-154.5979708814894
 30
0.0
 10
115.6759711082338
 20
-154.5325140672697
 30
0.0
 10
115.6759711082338
 20
-154.5325140672697
 30
0.0
 10
115.6759711082338
 20
-154.6424126132491
 30
0.0
 10
115.6759711082338
 20
-154.6424126132491
 30
0.0
 10
115.5936333261363
 20
-154.6341443840845
 30
0.0
 10
115.4665093027306
 20
-154.6296657599537
 30
0.0
 10
115.4137993418063
 20
-154.6296657599537
 30
0.0
 10
115.4137993418063
 20
-154.6296657599537
 30
0.0
 10
115.4137993418063
 20
-154.7609238979417
 30
0.0
 10
115.4137993418063
 20
-154.7609238979417
 30
0.0
 10
115.4137993418063
 20
-154.7609238979417
 30
0.0
 10
115.53437768379
 20
-154.7609238979417
 30
0.0
 10
115.53437768379
 20
-154.7609238979417
 30
0.0
 10
115.5364447410812
 20
-154.7609238979417
 30
0.0
 10
115.7689886863355
 20
-154.7588568406506
 30
0.0
 10
115.9467556133744
 20
-154.7419758727729
 30
0.0
 10
115.9467556133744
 20
-154.7419758727729
 30
0.0
 10
115.9467556133744
 20
-154.9321451435586
 30
0.0
 10
115.9467556133744
 20
-154.9321451435586
 30
0.0
 10
115.8179090422261
 20
-154.9197427998117
 30
0.0
 10
115.6611571976472
 20
-154.9197427998117
 30
0.0
 10
115.53437768379
 20
-154.9197427998117
 30
0.0
 10
115.53437768379
 20
-154.9197427998117
 30
0.0
 10
115.4137993418063
 20
-154.9197427998117
 30
0.0
 10
115.4137993418063
 20
-154.9197427998117
 30
0.0
 10
115.4137993418063
 20
-154.9197427998117
 30
0.0
 10
115.4137993418063
 20
-155.1460855731927
 30
0.0
 10
115.4137993418063
 20
-155.1460855731927
 30
0.0
 10
115.4137993418063
 20
-155.2645968578852
 30
0.0
 10
115.3883056352154
 20
-155.3004258509318
 30
0.0
 10
115.2274196760543
 20
-155.3152397615184
 30
0.0
 10
115.2318983001851
 20
-155.3341877866873
 30
0.0
 10
115.2253526187631
 20
-155.3448675826916
 30
0.0
 10
115.1874565684254
 20
-155.3679497224427
 30
0.0
 10
115.1853895111342
 20
-155.3872422571602
 30
0.0
 10
115.1853895111342
 20
-155.3934434290336
 30
0.0
 10
115.1829779442945
 20
-155.4082573396202
 30
0.0
 10
115.1829779442945
 20
-155.4082573396202
 30
0.0
 10
115.320437254156
 20
-155.4082573396202
 30
0.0
 10
115.320437254156
 20
-155.4082573396202
 30
0.0
 10
115.4854573278995
 20
-155.4082573396202
 30
0.0
 10
115.6528889684826
 20
-155.4041232250379
 30
0.0
 10
115.8199760995172
 20
-155.3893093144513
 30
0.0
 10
115.8199760995172
 20
-155.3893093144513
 30
0.0
 10
115.8199760995172
 20
-155.5967040626633
 30
0.0
 10
115.8199760995172
 20
-155.5967040626633
 30
0.0
 10
115.6039686125921
 20
-155.5798230947856
 30
0.0
 10
115.3397297888734
 20
-155.5798230947856
 30
0.0
 10
115.320437254156
 20
-155.5798230947856
 30
0.0
 10
115.320437254156
 20
-155.5798230947856
 30
0.0
 10
115.1809108870034
 20
-155.5798230947856
 30
0.0
 10
115.1809108870034
 20
-155.5798230947856
 30
0.0
 10
115.1809108870034
 20
-155.5798230947856
 30
0.0
 10
115.1809108870034
 20
-155.7214165192294
 30
0.0
 10
115.1809108870034
 20
-155.7214165192294
 30
0.0
 10
115.1809108870034
 20
-155.7214165192294
 30
0.0
 10
115.4072536603843
 20
-155.7214165192294
 30
0.0
 10
115.4072536603843
 20
-155.7214165192294
 30
0.0
 10
115.6232611473095
 20
-155.7214165192294
 30
0.0
 10
115.8409911819773
 20
-155.7172824046471
 30
0.0
 10
116.0566541593539
 20
-155.7045355513517
 30
0.0
 10
116.0566541593539
 20
-155.7045355513517
 30
0.0
 10
116.0566541593539
 20
-155.9119302995637
 30
0.0
 10
116.0566541593539
 20
-155.9119302995637
 30
0.0
 10
115.7755343677575
 20
-155.8947048221374
 30
0.0
 10
115.430680309684
 20
-155.8947048221374
 30
0.0
 10
115.4072536603843
 20
-155.8947048221374
 30
0.0
  0
SPLINE
  5
19E
330
198
100
AcDbEntity
  8
_U+30EC_U+30A4_U+30E4_U+30FC 1
370
     0
100
AcDbSpline
210
0.0
220
0.0
230
1.0
 70
    11
 71
     3
 72
    23
 73
    19
 74
     0
 42
0.0000000001
 43
0.0000000001
 12
1.0
 22
0.0
 32
0.0
 13
1.0
 23
0.0
 33
0.0
 40
0.0
 40
0.0
 40
0.0
 40
0.0
 40
1.0
 40
1.0
 40
1.0
 40
2.0
 40
2.0
 40
2.0
 40
3.0
 40
3.0
 40
3.0
 40
4.0
 40
4.0
 40
4.0
 40
5.0
 40
5.0
 40
5.0
 40
6.0
 40
6.0
 40
6.0
 40
6.0
 10
114.2882866467752
 20
-155.2666639151764
 30
0.0
 10
114.2882866467752
 20
-155.2876789976364
 30
0.0
 10
114.2903537040663
 20
-155.3259195575227
 30
0.0
 10
114.2648599974755
 20
-155.3259195575227
 30
0.0
 10
114.2545247110197
 20
-155.3259195575227
 30
0.0
 10
114.2459119723066
 20
-155.3193738761007
 30
0.0
 10
114.2352321763023
 20
-155.302492908223
 30
0.0
 10
114.2352321763023
 20
-155.302492908223
 30
0.0
 10
114.1315348021963
 20
-155.1205918666018
 30
0.0
 10
114.1315348021963
 20
-155.1205918666018
 30
0.0
 10
114.3475422891214
 20
-154.9914007859049
 30
0.0
 10
114.5442572413292
 20
-154.7144151088908
 30
0.0
 10
114.5907660303801
 20
-154.6424126132491
 30
0.0
 10
114.5907660303801
 20
-154.6424126132491
 30
0.0
 10
114.6627685260218
 20
-154.8222465975792
 30
0.0
 10
114.6627685260218
 20
-154.8222465975792
 30
0.0
 10
114.5294433307426
 20
-155.0189615497869
 30
0.0
 10
114.3537434609949
 20
-155.2029296486993
 30
0.0
 10
114.2882866467752
 20
-155.2666639151764
 30
0.0
  0
SPLINE
  5
19F
330
198
100
AcDbEntity
  8
_U+30EC_U+30A4_U+30E4_U+30FC 1
370
     0
100
AcDbSpline
210
0.0
220
0.0
230
1.0
 70
    11
 71
     3
 72
    17
 73
    13
 74
     0
 42
0.0000000001
 43
0.0000000001
 12
1.0
 22
0.0
 32
0.0
 13
1.0
 23
0.0
 33
0.0
 40
0.0
 40
0.0
 40
0.0
 40
0.0
 40
1.0
 40
1.0
 40
1.0
 40
2.0
 40
2.0
 40
2.0
 40
3.0
 40
3.0
 40
3.0
 40
4.0
 40
4.0
 40
4.0
 40
4.0
 10
114.5421901840381
 20
-154.3716281081085
 30
0.0
 10
114.4808674844006
 20
-154.2954914978845
 30
0.0
 10
114.3516764037037
 20
-154.2193548876604
 30
0.0
 10
114.2479790295977
 20
-154.1897270664873
 30
0.0
 10
114.2479790295977
 20
-154.1897270664873
 30
0.0
 10
114.3434081745391
 20
-154.0247069927438
 30
0.0
 10
114.3434081745391
 20
-154.0247069927438
 30
0.0
 10
114.4446939818055
 20
-154.0608804953389
 30
0.0
 10
114.5504584132027
 20
-154.1177245708456
 30
0.0
 10
114.6393418767221
 20
-154.1983398052004
 30
0.0
 10
114.6393418767221
 20
-154.1983398052004
 30
0.0
 10
114.5421901840381
 20
-154.3716281081085
 30
0.0
 10
114.5421901840381
 20
-154.3716281081085
 30
0.0
  0
SPLINE
  5
1A0
330
198
100
AcDbEntity
  8
_U+30EC_U+30A4_U+30E4_U+30FC 1
370
     0
100
AcDbSpline
210
0.0
220
0.0
230
1.0
 70
    11
 71
     3
 72
    23
 73
    19
 74
     0
 42
0.0000000001
 43
0.0000000001
 12
1.0
 22
0.0
 32
0.0
 13
1.0
 23
0.0
 33
0.0
 40
0.0
 40
0.0
 40
0.0
 40
0.0
 40
1.0
 40
1.0
 40
1.0
 40
2.0
 40
2.0
 40
2.0
 40
3.0
 40
3.0
 40
3.0
 40
4.0
 40
4.0
 40
4.0
 40
5.0
 40
5.0
 40
5.0
 40
6.0
 40
6.0
 40
6.0
 40
6.0
 10
114.9948757307999
 20
-155.0761501348421
 30
0.0
 10
114.9735161387914
 20
-155.0995767841418
 30
0.0
 10
114.8763644461073
 20
-155.2115423874124
 30
0.0
 10
114.7368380789547
 20
-155.2918131122187
 30
0.0
 10
114.7368380789547
 20
-155.2918131122187
 30
0.0
 10
114.5697509479201
 20
-155.171234770235
 30
0.0
 10
114.5697509479201
 20
-155.171234770235
 30
0.0
 10
114.719957111077
 20
-155.095098160011
 30
0.0
 10
114.8191758610522
 20
-155.0000135246181
 30
0.0
 10
114.8677517073942
 20
-154.9469590541452
 30
0.0
 10
114.8677517073942
 20
-154.9469590541452
 30
0.0
 10
115.0413845198508
 20
-155.0296413457912
 30
0.0
 10
115.0413845198508
 20
-155.0296413457912
 30
0.0
 10
115.0496527490154
 20
-155.0337754603735
 30
0.0
 10
115.0582654877285
 20
-155.0403211417955
 30
0.0
 10
115.0582654877285
 20
-155.0506564282512
 30
0.0
 10
115.0582654877285
 20
-155.0761501348421
 30
0.0
 10
115.0224364946819
 20
-155.0761501348421
 30
0.0
 10
114.9948757307999
 20
-155.0761501348421
 30
0.0
  0
SPLINE
  5
1A1
330
198
100
AcDbEntity
  8
_U+30EC_U+30A4_U+30E4_U+30FC 1
370
     0
100
AcDbSpline
210
0.0
220
0.0
230
1.0
 70
    11
 71
     3
 72
    20
 73
    16
 74
     0
 42
0.0000000001
 43
0.0000000001
 12
1.0
 22
0.0
 32
0.0
 13
1.0
 23
0.0
 33
0.0
 40
0.0
 40
0.0
 40
0.0
 40
0.0
 40
1.0
 40
1.0
 40
1.0
 40
2.0
 40
2.0
 40
2.0
 40
3.0
 40
3.0
 40
3.0
 40
4.0
 40
4.0
 40
4.0
 40
5.0
 40
5.0
 40
5.0
 40
5.0
 10
115.2932209998225
 20
-154.234168798247
 30
0.0
 10
115.2549804399363
 20
-154.282744644589
 30
0.0
 10
115.1936577402988
 20
-154.3612928216527
 30
0.0
 10
115.0541313731462
 20
-154.4711913676322
 30
0.0
 10
115.1344020979525
 20
-154.4753254822145
 30
0.0
 10
115.1640299191257
 20
-154.4753254822145
 30
0.0
 10
115.1874565684254
 20
-154.4753254822145
 30
0.0
 10
115.1874565684254
 20
-154.4753254822145
 30
0.0
 10
115.4158663990974
 20
-154.4753254822145
 30
0.0
 10
115.4158663990974
 20
-154.4753254822145
 30
0.0
 10
115.4475612775617
 20
-154.4753254822145
 30
0.0
 10
115.4961371239038
 20
-154.4732584249234
 30
0.0
 10
115.5702066768366
 20
-154.4711913676322
 30
0.0
 10
115.458241073566
 20
-154.3971218146993
 30
0.0
 10
115.4093207176755
 20
-154.3506130256485
 30
0.0
 10
115.2932209998225
 20
-154.234168798247
 30
0.0
  0
SPLINE
  5
1A2
330
198
100
AcDbEntity
  8
_U+30EC_U+30A4_U+30E4_U+30FC 1
370
     0
100
AcDbSpline
210
0.0
220
0.0
230
1.0
 70
    11
 71
     3
 72
    17
 73
    13
 74
     0
 42
0.0000000001
 43
0.0000000001
 12
1.0
 22
0.0
 32
0.0
 13
1.0
 23
0.0
 33
0.0
 40
0.0
 40
0.0
 40
0.0
 40
0.0
 40
1.0
 40
1.0
 40
1.0
 40
2.0
 40
2.0
 40
2.0
 40
3.0
 40
3.0
 40
3.0
 40
4.0
 40
4.0
 40
4.0
 40
4.0
 10
115.8537380352727
 20
-155.2897460549276
 30
0.0
 10
115.7183457827024
 20
-155.177780451657
 30
0.0
 10
115.6125813513052
 20
-155.1143906947283
 30
0.0
 10
115.4940700666126
 20
-155.0506564282512
 30
0.0
 10
115.4940700666126
 20
-155.0506564282512
 30
0.0
 10
115.6208495804698
 20
-154.9386908249806
 30
0.0
 10
115.6208495804698
 20
-154.9386908249806
 30
0.0
 10
115.7521077184578
 20
-154.9851996140315
 30
0.0
 10
115.8620062644373
 20
-155.0423881990866
 30
0.0
 10
115.9870632305519
 20
-155.1440185159015
 30
0.0
 10
115.9870632305519
 20
-155.1440185159015
 30
0.0
 10
115.8537380352727
 20
-155.2897460549276
 30
0.0
 10
115.8537380352727
 20
-155.2897460549276
 30
0.0
  0
HATCH
  5
1A3
330
198
100
AcDbEntity
  8
_U+30EC_U+30A4_U+30E4_U+30FC 1
 62
   179
420
  2234388
100
AcDbHatch
 10
0.0
 20
0.0
 30
0.0
210
0.0
220
0.0
230
1.0
  2
SOLID
 70
     1
 71
     0
 91
        7
 92
        1
 93
        1
 72
     4
 94
        3
 73
     0
 74
     1
 95
       17
 96
       13
 40
0.0
 40
0.0
 40
0.0
 40
0.0
 40
1.0
 40
1.0
 40
1.0
 40
2.0
 40
2.0
 40
2.0
 40
3.0
 40
3.0
 40
3.0
 40
4.0
 40
4.0
 40
4.0
 40
4.0
 10
114.362356199708
 20
-154.716482166182
 10
114.2565917683109
 20
-154.6107177347848
 10
114.175976533956
 20
-154.5728216844471
 10
114.0829589558543
 20
-154.5407822964343
 10
114.0829589558543
 20
-154.5407822964343
 10
114.1932020113823
 20
-154.3761067322393
 10
114.1932020113823
 20
-154.3761067322393
 10
114.2903537040663
 20
-154.4181368971594
 10
114.41093204605
 20
-154.4966850742231
 10
114.4639865165229
 20
-154.5514620924385
 10
114.4639865165229
 20
-154.5514620924385
 10
114.362356199708
 20
-154.716482166182
 10
114.362356199708
 20
-154.716482166182
 97
        0
 97
        0
 92
        1
 93
        1
 72
     4
 94
        3
 73
     0
 74
     1
 95
      182
 96
      178
 40
0.0
 40
0.0
 40
0.0
 40
0.0
 40
1.0
 40
1.0
 40
1.0
 40
2.0
 40
2.0
 40
2.0
 40
3.0
 40
3.0
 40
3.0
 40
4.0
 40
4.0
 40
4.0
 40
5.0
 40
5.0
 40
5.0
 40
6.0
 40
6.0
 40
6.0
 40
7.0
 40
7.0
 40
7.0
 40
8.0
 40
8.0
 40
8.0
 40
9.0
 40
9.0
 40
9.0
 40
10.0
 40
10.0
 40
10.0
 40
11.0
 40
11.0
 40
11.0
 40
12.0
 40
12.0
 40
12.0
 40
13.0
 40
13.0
 40
13.0
 40
14.0
 40
14.0
 40
14.0
 40
15.0
 40
15.0
 40
15.0
 40
16.0
 40
16.0
 40
16.0
 40
17.0
 40
17.0
 40
17.0
 40
18.0
 40
18.0
 40
18.0
 40
19.0
 40
19.0
 40
19.0
 40
20.0
 40
20.0
 40
20.0
 40
21.0
 40
21.0
 40
21.0
 40
22.0
 40
22.0
 40
22.0
 40
23.0
 40
23.0
 40
23.0
 40
24.0
 40
24.0
 40
24.0
 40
25.0
 40
25.0
 40
25.0
 40
26.0
 40
26.0
 40
26.0
 40
27.0
 40
27.0
 40
27.0
 40
28.0
 40
28.0
 40
28.0
 40
29.0
 40
29.0
 40
29.0
 40
30.0
 40
30.0
 40
30.0
 40
31.0
 40
31.0
 40
31.0
 40
32.0
 40
32.0
 40
32.0
 40
33.0
 40
33.0
 40
33.0
 40
34.0
 40
34.0
 40
34.0
 40
35.0
 40
35.0
 40
35.0
 40
36.0
 40
36.0
 40
36.0
 40
37.0
 40
37.0
 40
37.0
 40
38.0
 40
38.0
 40
38.0
 40
39.0
 40
39.0
 40
39.0
 40
40.0
 40
40.0
 40
40.0
 40
41.0
 40
41.0
 40
41.0
 40
42.0
 40
42.0
 40
42.0
 40
43.0
 40
43.0
 40
43.0
 40
44.0
 40
44.0
 40
44.0
 40
45.0
 40
45.0
 40
45.0
 40
46.0
 40
46.0
 40
46.0
 40
47.0
 40
47.0
 40
47.0
 40
48.0
 40
48.0
 40
48.0
 40
49.0
 40
49.0
 40
49.0
 40
50.0
 40
50.0
 40
50.0
 40
51.0
 40
51.0
 40
51.0
 40
52.0
 40
52.0
 40
52.0
 40
53.0
 40
53.0
 40
53.0
 40
54.0
 40
54.0
 40
54.0
 40
55.0
 40
55.0
 40
55.0
 40
56.0
 40
56.0
 40
56.0
 40
57.0
 40
57.0
 40
57.0
 40
58.0
 40
58.0
 40
58.0
 40
59.0
 40
59.0
 40
59.0
 40
59.0
 10
115.4072536603843
 20
-155.8947048221374
 10
115.4072536603843
 20
-155.8947048221374
 10
114.7706000147101
 20
-155.8947048221374
 10
114.7706000147101
 20
-155.8947048221374
 10
114.5570040946246
 20
-155.8947048221374
 10
114.3409966076995
 20
-155.8991834462683
 10
114.127400687614
 20
-155.9119302995637
 10
114.127400687614
 20
-155.9119302995637
 10
114.127400687614
 20
-155.7045355513517
 10
114.127400687614
 20
-155.7045355513517
 10
114.3496093464126
 20
-155.7172824046471
 10
114.6731038124776
 20
-155.7214165192294
 10
114.7706000147101
 20
-155.7214165192294
 10
114.7706000147101
 20
-155.7214165192294
 10
114.9907416162176
 20
-155.7214165192294
 10
114.9907416162176
 20
-155.7214165192294
 10
114.9907416162176
 20
-155.7214165192294
 10
114.9907416162176
 20
-155.5798230947856
 10
114.9907416162176
 20
-155.5798230947856
 10
114.9907416162176
 20
-155.5798230947856
 10
114.8298556570564
 20
-155.5798230947856
 10
114.8298556570564
 20
-155.5798230947856
 10
114.664835583313
 20
-155.5798230947856
 10
114.4998155095695
 20
-155.5839572093679
 10
114.334795435826
 20
-155.5987711199545
 10
114.334795435826
 20
-155.5987711199545
 10
114.334795435826
 20
-155.3893093144513
 10
114.334795435826
 20
-155.3893093144513
 10
114.5060166814429
 20
-155.4041232250379
 10
114.7537190468324
 20
-155.4082573396202
 10
114.8298556570564
 20
-155.4082573396202
 10
114.8298556570564
 20
-155.4082573396202
 10
114.9907416162176
 20
-155.4082573396202
 10
114.9907416162176
 20
-155.4082573396202
 10
114.9862629920868
 20
-155.3362548439785
 10
114.9862629920868
 20
-155.330053672105
 10
114.9800618202133
 20
-155.2769992016322
 10
114.9800618202133
 20
-155.2769992016322
 10
115.1195881873659
 20
-155.2918131122187
 10
115.1195881873659
 20
-155.2918131122187
 10
115.1195881873659
 20
-155.2918131122187
 10
115.0203694373907
 20
-155.1205918666018
 10
115.0203694373907
 20
-155.1205918666018
 10
115.0668782264416
 20
-155.1267930384753
 10
115.1409477793745
 20
-155.1354057771884
 10
115.1578287472522
 20
-155.1354057771884
 10
115.2084716508854
 20
-155.1354057771884
 10
115.2253526187631
 20
-155.1143906947283
 10
115.2253526187631
 20
-155.0572021096732
 10
115.2253526187631
 20
-155.0572021096732
 10
115.2253526187631
 20
-154.9197427998117
 10
115.2253526187631
 20
-154.9197427998117
 10
115.2253526187631
 20
-154.9197427998117
 10
115.1195881873659
 20
-154.9197427998117
 10
115.1195881873659
 20
-154.9197427998117
 10
114.9862629920868
 20
-154.9197427998117
 10
114.8298556570564
 20
-154.9197427998117
 10
114.7072102577815
 20
-154.9321451435586
 10
114.7072102577815
 20
-154.9321451435586
 10
114.7072102577815
 20
-154.7419758727729
 10
114.7072102577815
 20
-154.7419758727729
 10
114.8742973888162
 20
-154.7588568406506
 10
115.1047742767794
 20
-154.7609238979417
 10
115.1195881873659
 20
-154.7609238979417
 10
115.1195881873659
 20
-154.7609238979417
 10
115.2253526187631
 20
-154.7609238979417
 10
115.2253526187631
 20
-154.7609238979417
 10
115.2253526187631
 20
-154.7609238979417
 10
115.2253526187631
 20
-154.6296657599537
 10
115.2253526187631
 20
-154.6296657599537
 10
115.2253526187631
 20
-154.6296657599537
 10
115.1874565684254
 20
-154.6296657599537
 10
115.1874565684254
 20
-154.6296657599537
 10
115.1430148366656
 20
-154.6296657599537
 10
115.0179578705511
 20
-154.6341443840845
 10
114.9290744070316
 20
-154.6424126132491
 10
114.9290744070316
 20
-154.6424126132491
 10
114.9290744070316
 20
-154.5621418884428
 10
114.9290744070316
 20
-154.5621418884428
 10
114.8763644461073
 20
-154.6000379387806
 10
114.8508707395165
 20
-154.6148518493671
 10
114.8084960650479
 20
-154.6382784986668
 10
114.8084960650479
 20
-154.6382784986668
 10
114.6203938515532
 20
-154.50908741797
 10
114.6203938515532
 20
-154.50908741797
 10
114.6985975190684
 20
-154.4753254822145
 10
114.8553493636473
 20
-154.4119357252859
 10
115.0117566986776
 20
-154.2679307340025
 10
115.0940944807751
 20
-154.1897270664873
 10
115.1726426578388
 20
-154.1053222270987
 10
115.2253526187631
 20
-154.0036919102838
 10
115.2253526187631
 20
-154.0036919102838
 10
115.4368814815574
 20
-154.0650146099213
 10
115.4368814815574
 20
-154.0650146099213
 10
115.4561740162749
 20
-154.0712157817947
 10
115.4665093027306
 20
-154.0798285205078
 10
115.4665093027306
 20
-154.0925753738032
 10
115.4665093027306
 20
-154.109456341681
 10
115.4537624494352
 20
-154.1156575135544
 10
115.4286132523929
 20
-154.1284043668498
 10
115.5088839771992
 20
-154.2259005690824
 10
115.6718369936515
 20
-154.3230522617665
 10
115.7055989294069
 20
-154.3420002869353
 10
115.8558050925638
 20
-154.4308837504548
 10
115.9701822626741
 20
-154.4584445143368
 10
116.0483859301893
 20
-154.4773925395057
 10
116.0483859301893
 20
-154.4773925395057
 10
115.9298746454967
 20
-154.6468912373799
 10
115.9298746454967
 20
-154.6468912373799
 10
115.8451252965596
 20
-154.6172634162068
 10
115.7944823929264
 20
-154.5979708814894
 10
115.6759711082338
 20
-154.5325140672697
 10
115.6759711082338
 20
-154.5325140672697
 10
115.6759711082338
 20
-154.6424126132491
 10
115.6759711082338
 20
-154.6424126132491
 10
115.5936333261363
 20
-154.6341443840845
 10
115.4665093027306
 20
-154.6296657599537
 10
115.4137993418063
 20
-154.6296657599537
 10
115.4137993418063
 20
-154.6296657599537
 10
115.4137993418063
 20
-154.7609238979417
 10
115.4137993418063
 20
-154.7609238979417
 10
115.4137993418063
 20
-154.7609238979417
 10
115.53437768379
 20
-154.7609238979417
 10
115.53437768379
 20
-154.7609238979417
 10
115.5364447410812
 20
-154.7609238979417
 10
115.7689886863355
 20
-154.7588568406506
 10
115.9467556133744
 20
-154.7419758727729
 10
115.9467556133744
 20
-154.7419758727729
 10
115.9467556133744
 20
-154.9321451435586
 10
115.9467556133744
 20
-154.9321451435586
 10
115.8179090422261
 20
-154.9197427998117
 10
115.6611571976472
 20
-154.9197427998117
 10
115.53437768379
 20
-154.9197427998117
 10
115.53437768379
 20
-154.9197427998117
 10
115.4137993418063
 20
-154.9197427998117
 10
115.4137993418063
 20
-154.9197427998117
 10
115.4137993418063
 20
-154.9197427998117
 10
115.4137993418063
 20
-155.1460855731927
 10
115.4137993418063
 20
-155.1460855731927
 10
115.4137993418063
 20
-155.2645968578852
 10
115.3883056352154
 20
-155.3004258509318
 10
115.2274196760543
 20
-155.3152397615184
 10
115.2318983001851
 20
-155.3341877866873
 10
115.2253526187631
 20
-155.3448675826916
 10
115.1874565684254
 20
-155.3679497224427
 10
115.1853895111342
 20
-155.3872422571602
 10
115.1853895111342
 20
-155.3934434290336
 10
115.1829779442945
 20
-155.4082573396202
 10
115.1829779442945
 20
-155.4082573396202
 10
115.320437254156
 20
-155.4082573396202
 10
115.320437254156
 20
-155.4082573396202
 10
115.4854573278995
 20
-155.4082573396202
 10
115.6528889684826
 20
-155.4041232250379
 10
115.8199760995172
 20
-155.3893093144513
 10
115.8199760995172
 20
-155.3893093144513
 10
115.8199760995172
 20
-155.5967040626633
 10
115.8199760995172
 20
-155.5967040626633
 10
115.6039686125921
 20
-155.5798230947856
 10
115.3397297888734
 20
-155.5798230947856
 10
115.320437254156
 20
-155.5798230947856
 10
115.320437254156
 20
-155.5798230947856
 10
115.1809108870034
 20
-155.5798230947856
 10
115.1809108870034
 20
-155.5798230947856
 10
115.1809108870034
 20
-155.5798230947856
 10
115.1809108870034
 20
-155.7214165192294
 10
115.1809108870034
 20
-155.7214165192294
 10
115.1809108870034
 20
-155.7214165192294
 10
115.4072536603843
 20
-155.7214165192294
 10
115.4072536603843
 20
-155.7214165192294
 10
115.6232611473095
 20
-155.7214165192294
 10
115.8409911819773
 20
-155.7172824046471
 10
116.0566541593539
 20
-155.7045355513517
 10
116.0566541593539
 20
-155.7045355513517
 10
116.0566541593539
 20
-155.9119302995637
 10
116.0566541593539
 20
-155.9119302995637
 10
115.7755343677575
 20
-155.8947048221374
 10
115.430680309684
 20
-155.8947048221374
 10
115.4072536603843
 20
-155.8947048221374
 97
        0
 97
        0
 92
        1
 93
        1
 72
     4
 94
        3
 73
     0
 74
     1
 95
       23
 96
       19
 40
0.0
 40
0.0
 40
0.0
 40
0.0
 40
1.0
 40
1.0
 40
1.0
 40
2.0
 40
2.0
 40
2.0
 40
3.0
 40
3.0
 40
3.0
 40
4.0
 40
4.0
 40
4.0
 40
5.0
 40
5.0
 40
5.0
 40
6.0
 40
6.0
 40
6.0
 40
6.0
 10
114.2882866467752
 20
-155.2666639151764
 10
114.2882866467752
 20
-155.2876789976364
 10
114.2903537040663
 20
-155.3259195575227
 10
114.2648599974755
 20
-155.3259195575227
 10
114.2545247110197
 20
-155.3259195575227
 10
114.2459119723066
 20
-155.3193738761007
 10
114.2352321763023
 20
-155.302492908223
 10
114.2352321763023
 20
-155.302492908223
 10
114.1315348021963
 20
-155.1205918666018
 10
114.1315348021963
 20
-155.1205918666018
 10
114.3475422891214
 20
-154.9914007859049
 10
114.5442572413292
 20
-154.7144151088908
 10
114.5907660303801
 20
-154.6424126132491
 10
114.5907660303801
 20
-154.6424126132491
 10
114.6627685260218
 20
-154.8222465975792
 10
114.6627685260218
 20
-154.8222465975792
 10
114.5294433307426
 20
-155.0189615497869
 10
114.3537434609949
 20
-155.2029296486993
 10
114.2882866467752
 20
-155.2666639151764
 97
        0
 97
        0
 92
        1
 93
        1
 72
     4
 94
        3
 73
     0
 74
     1
 95
       17
 96
       13
 40
0.0
 40
0.0
 40
0.0
 40
0.0
 40
1.0
 40
1.0
 40
1.0
 40
2.0
 40
2.0
 40
2.0
 40
3.0
 40
3.0
 40
3.0
 40
4.0
 40
4.0
 40
4.0
 40
4.0
 10
114.5421901840381
 20
-154.3716281081085
 10
114.4808674844006
 20
-154.2954914978845
 10
114.3516764037037
 20
-154.2193548876604
 10
114.2479790295977
 20
-154.1897270664873
 10
114.2479790295977
 20
-154.1897270664873
 10
114.3434081745391
 20
-154.0247069927438
 10
114.3434081745391
 20
-154.0247069927438
 10
114.4446939818055
 20
-154.0608804953389
 10
114.5504584132027
 20
-154.1177245708456
 10
114.6393418767221
 20
-154.1983398052004
 10
114.6393418767221
 20
-154.1983398052004
 10
114.5421901840381
 20
-154.3716281081085
 10
114.5421901840381
 20
-154.3716281081085
 97
        0
 97
        0
 92
        1
 93
        1
 72
     4
 94
        3
 73
     0
 74
     1
 95
       23
 96
       19
 40
0.0
 40
0.0
 40
0.0
 40
0.0
 40
1.0
 40
1.0
 40
1.0
 40
2.0
 40
2.0
 40
2.0
 40
3.0
 40
3.0
 40
3.0
 40
4.0
 40
4.0
 40
4.0
 40
5.0
 40
5.0
 40
5.0
 40
6.0
 40
6.0
 40
6.0
 40
6.0
 10
114.9948757307999
 20
-155.0761501348421
 10
114.9735161387914
 20
-155.0995767841418
 10
114.8763644461073
 20
-155.2115423874124
 10
114.7368380789547
 20
-155.2918131122187
 10
114.7368380789547
 20
-155.2918131122187
 10
114.5697509479201
 20
-155.171234770235
 10
114.5697509479201
 20
-155.171234770235
 10
114.719957111077
 20
-155.095098160011
 10
114.8191758610522
 20
-155.0000135246181
 10
114.8677517073942
 20
-154.9469590541452
 10
114.8677517073942
 20
-154.9469590541452
 10
115.0413845198508
 20
-155.0296413457912
 10
115.0413845198508
 20
-155.0296413457912
 10
115.0496527490154
 20
-155.0337754603735
 10
115.0582654877285
 20
-155.0403211417955
 10
115.0582654877285
 20
-155.0506564282512
 10
115.0582654877285
 20
-155.0761501348421
 10
115.0224364946819
 20
-155.0761501348421
 10
114.9948757307999
 20
-155.0761501348421
 97
        0
 97
        0
 92
        1
 93
        1
 72
     4
 94
        3
 73
     0
 74
     1
 95
       20
 96
       16
 40
0.0
 40
0.0
 40
0.0
 40
0.0
 40
1.0
 40
1.0
 40
1.0
 40
2.0
 40
2.0
 40
2.0
 40
3.0
 40
3.0
 40
3.0
 40
4.0
 40
4.0
 40
4.0
 40
5.0
 40
5.0
 40
5.0
 40
5.0
 10
115.2932209998225
 20
-154.234168798247
 10
115.2549804399363
 20
-154.282744644589
 10
115.1936577402988
 20
-154.3612928216527
 10
115.0541313731462
 20
-154.4711913676322
 10
115.1344020979525
 20
-154.4753254822145
 10
115.1640299191257
 20
-154.4753254822145
 10
115.1874565684254
 20
-154.4753254822145
 10
115.1874565684254
 20
-154.4753254822145
 10
115.4158663990974
 20
-154.4753254822145
 10
115.4158663990974
 20
-154.4753254822145
 10
115.4475612775617
 20
-154.4753254822145
 10
115.4961371239038
 20
-154.4732584249234
 10
115.5702066768366
 20
-154.4711913676322
 10
115.458241073566
 20
-154.3971218146993
 10
115.4093207176755
 20
-154.3506130256485
 10
115.2932209998225
 20
-154.234168798247
 97
        0
 97
        0
 92
        1
 93
        1
 72
     4
 94
        3
 73
     0
 74
     1
 95
       17
 96
       13
 40
0.0
 40
0.0
 40
0.0
 40
0.0
 40
1.0
 40
1.0
 40
1.0
 40
2.0
 40
2.0
 40
2.0
 40
3.0
 40
3.0
 40
3.0
 40
4.0
 40
4.0
 40
4.0
 40
4.0
 10
115.8537380352727
 20
-155.2897460549276
 10
115.7183457827024
 20
-155.177780451657
 10
115.6125813513052
 20
-155.1143906947283
 10
115.4940700666126
 20
-155.0506564282512
 10
115.4940700666126
 20
-155.0506564282512
 10
115.6208495804698
 20
-154.9386908249806
 10
115.6208495804698
 20
-154.9386908249806
 10
115.7521077184578
 20
-154.9851996140315
 10
115.8620062644373
 20
-155.0423881990866
 10
115.9870632305519
 20
-155.1440185159015
 10
115.9870632305519
 20
-155.1440185159015
 10
115.8537380352727
 20
-155.2897460549276
 10
115.8537380352727
 20
-155.2897460549276
 97
        0
 97
        0
 75
     2
 76
     1
 98
        0
  0
SPLINE
  5
1A4
330
198
100
AcDbEntity
  8
_U+30EC_U+30A4_U+30E4_U+30FC 1
370
     0
100
AcDbSpline
210
0.0
220
0.0
230
1.0
 70
    11
 71
     3
 72
   113
 73
   109
 74
     0
 42
0.0000000001
 43
0.0000000001
 12
1.0
 22
0.0
 32
0.0
 13
1.0
 23
0.0
 33
0.0
 40
0.0
 40
0.0
 40
0.0
 40
0.0
 40
1.0
 40
1.0
 40
1.0
 40
2.0
 40
2.0
 40
2.0
 40
3.0
 40
3.0
 40
3.0
 40
4.0
 40
4.0
 40
4.0
 40
5.0
 40
5.0
 40
5.0
 40
6.0
 40
6.0
 40
6.0
 40
7.0
 40
7.0
 40
7.0
 40
8.0
 40
8.0
 40
8.0
 40
9.0
 40
9.0
 40
9.0
 40
10.0
 40
10.0
 40
10.0
 40
11.0
 40
11.0
 40
11.0
 40
12.0
 40
12.0
 40
12.0
 40
13.0
 40
13.0
 40
13.0
 40
14.0
 40
14.0
 40
14.0
 40
15.0
 40
15.0
 40
15.0
 40
16.0
 40
16.0
 40
16.0
 40
17.0
 40
17.0
 40
17.0
 40
18.0
 40
18.0
 40
18.0
 40
19.0
 40
19.0
 40
19.0
 40
20.0
 40
20.0
 40
20.0
 40
21.0
 40
21.0
 40
21.0
 40
22.0
 40
22.0
 40
22.0
 40
23.0
 40
23.0
 40
23.0
 40
24.0
 40
24.0
 40
24.0
 40
25.0
 40
25.0
 40
25.0
 40
26.0
 40
26.0
 40
26.0
 40
27.0
 40
27.0
 40
27.0
 40
28.0
 40
28.0
 40
28.0
 40
29.0
 40
29.0
 40
29.0
 40
30.0
 40
30.0
 40
30.0
 40
31.0
 40
31.0
 40
31.0
 40
32.0
 40
32.0
 40
32.0
 40
33.0
 40
33.0
 40
33.0
 40
34.0
 40
34.0
 40
34.0
 40
35.0
 40
35.0
 40
35.0
 40
36.0
 40
36.0
 40
36.0
 40
36.0
 10
117.733382132025
 20
-155.2666639151764
 30
0.0
 10
117.733382132025
 20
-155.2666639151764
 30
0.0
 10
117.8329453915487
 20
-155.3658826651516
 30
0.0
 10
117.8329453915487
 20
-155.3658826651516
 30
0.0
 10
117.843625187553
 20
-155.3765624611559
 30
0.0
 10
117.8539604740087
 20
-155.3893093144513
 30
0.0
 10
117.8539604740087
 20
-155.4041232250379
 30
0.0
 10
117.8539604740087
 20
-155.406190282329
 30
0.0
 10
117.8539604740087
 20
-155.4358181035022
 30
0.0
 10
117.816064423671
 20
-155.4358181035022
 30
0.0
 10
117.8074516849579
 20
-155.4358181035022
 30
0.0
 10
117.7671440677804
 20
-155.4316839889199
 30
0.0
 10
117.760942895907
 20
-155.4316839889199
 30
0.0
 10
117.7206352787296
 20
-155.4633788673842
 30
0.0
 10
117.6741264896787
 20
-155.4971408031396
 30
0.0
 10
117.5749077397035
 20
-155.5543293881948
 30
0.0
 10
117.7206352787296
 20
-155.6621608768831
 30
0.0
 10
117.8794541805996
 20
-155.7193494619382
 30
0.0
 10
118.1523057430314
 20
-155.757245512276
 30
0.0
 10
118.1523057430314
 20
-155.757245512276
 30
0.0
 10
118.0020995798745
 20
-155.9329453820237
 30
0.0
 10
118.0020995798745
 20
-155.9329453820237
 30
0.0
 10
117.739927813447
 20
-155.860942886382
 30
0.0
 10
117.5831759688681
 20
-155.7720594228626
 30
0.0
 10
117.5070393586441
 20
-155.7193494619382
 30
0.0
 10
117.3568331954872
 20
-155.6177191451233
 30
0.0
 10
117.2131727137523
 20
-155.454766128671
 30
0.0
 10
117.1370361035282
 20
-155.2897460549276
 30
0.0
 10
117.0691677224688
 20
-155.3555473786958
 30
0.0
 10
116.995098169536
 20
-155.4082573396202
 30
0.0
 10
116.9168945020208
 20
-155.4568331859622
 30
0.0
 10
116.9168945020208
 20
-155.4568331859622
 30
0.0
 10
116.9168945020208
 20
-155.7086696659339
 30
0.0
 10
116.9168945020208
 20
-155.7086696659339
 30
0.0
 10
117.0798475184731
 20
-155.6831759593431
 30
0.0
 10
117.2658826746766
 20
-155.6387342275834
 30
0.0
 10
117.3292724316052
 20
-155.6239203169968
 30
0.0
 10
117.3292724316052
 20
-155.6239203169968
 30
0.0
 10
117.299644610432
 20
-155.7934190148711
 30
0.0
 10
117.299644610432
 20
-155.7934190148711
 30
0.0
 10
117.2975775531409
 20
-155.7934190148711
 30
0.0
 10
117.278629527972
 20
-155.7996201867445
 30
0.0
 10
117.2765624706809
 20
-155.7996201867445
 30
0.0
 10
117.0777804611819
 20
-155.8378607466308
 30
0.0
 10
116.7604871669904
 20
-155.9033175608506
 30
0.0
 10
116.5634277052341
 20
-155.9391465538972
 30
0.0
 10
116.5530924187784
 20
-155.9563720313234
 30
0.0
 10
116.5296657694787
 20
-155.9880669097877
 30
0.0
 10
116.5065836297275
 20
-155.9880669097877
 30
0.0
 10
116.4790228658455
 20
-155.9880669097877
 30
0.0
 10
116.4748887512632
 20
-155.9687743750703
 30
0.0
 10
116.4724771844236
 20
-155.9498263499014
 30
0.0
 10
116.4724771844236
 20
-155.9498263499014
 30
0.0
 10
116.4473279873812
 20
-155.7765380469934
 30
0.0
 10
116.4473279873812
 20
-155.7765380469934
 30
0.0
 10
116.5213975403141
 20
-155.7679253082802
 30
0.0
 10
116.6292290290024
 20
-155.7551784549848
 30
0.0
 10
116.7370605176907
 20
-155.7341633725248
 30
0.0
 10
116.7370605176907
 20
-155.7341633725248
 30
0.0
 10
116.7370605176907
 20
-155.5563964454859
 30
0.0
 10
116.7370605176907
 20
-155.5563964454859
 30
0.0
 10
116.5930555264073
 20
-155.6283989411276
 30
0.0
 10
116.4979708910144
 20
-155.6580267623008
 30
0.0
 10
116.3329508172709
 20
-155.6876545834739
 30
0.0
 10
116.3329508172709
 20
-155.6876545834739
 30
0.0
 10
116.2123724752872
 20
-155.5181558855996
 30
0.0
 10
116.2123724752872
 20
-155.5181558855996
 30
0.0
 10
116.5296657694787
 20
-155.4909396312662
 30
0.0
 10
116.7222466071042
 20
-155.3975775436159
 30
0.0
 10
116.9000135341431
 20
-155.2645968578852
 30
0.0
 10
116.7539414855685
 20
-155.2645968578852
 30
0.0
 10
116.4535291592547
 20
-155.2687309724676
 30
0.0
 10
116.2568142070469
 20
-155.274932144341
 30
0.0
 10
116.2568142070469
 20
-155.274932144341
 30
0.0
 10
116.2568142070469
 20
-155.0971652173021
 30
0.0
 10
116.2568142070469
 20
-155.0971652173021
 30
0.0
 10
116.4111544847861
 20
-155.1037108987241
 30
0.0
 10
116.7074326965176
 20
-155.1099120705975
 30
0.0
 10
116.8914007954299
 20
-155.1099120705975
 30
0.0
 10
116.8914007954299
 20
-155.1099120705975
 30
0.0
 10
117.1029296582243
 20
-155.1099120705975
 30
0.0
 10
117.1029296582243
 20
-155.1099120705975
 30
0.0
 10
117.1029296582243
 20
-155.0148274352046
 30
0.0
 10
117.1008626009331
 20
-154.9641845315714
 30
0.0
 10
117.0946614290597
 20
-154.9176757425206
 30
0.0
 10
117.0946614290597
 20
-154.9176757425206
 30
0.0
 10
117.3103244064363
 20
-154.9345567103983
 30
0.0
 10
117.3103244064363
 20
-154.9345567103983
 30
0.0
 10
117.3589002527783
 20
-154.9386908249806
 30
0.0
 10
117.3675129914915
 20
-154.9535047355672
 30
0.0
 10
117.3675129914915
 20
-154.9683186461538
 30
0.0
 10
117.3675129914915
 20
-154.9938123527446
 30
0.0
 10
117.3506320236137
 20
-155.0020805819092
 30
0.0
 10
117.299644610432
 20
-155.0275742885001
 30
0.0
 10
117.2975775531409
 20
-155.0527234855424
 30
0.0
 10
117.2975775531409
 20
-155.0592691669644
 30
0.0
 10
117.2955104958497
 20
-155.1099120705975
 30
0.0
 10
117.2955104958497
 20
-155.1099120705975
 30
0.0
 10
117.5259873838129
 20
-155.1099120705975
 30
0.0
 10
117.5259873838129
 20
-155.1099120705975
 30
0.0
 10
117.6910074575564
 20
-155.1099120705975
 30
0.0
 10
117.9831515547056
 20
-155.1037108987241
 30
0.0
 10
118.1629855390356
 20
-155.0971652173021
 30
0.0
 10
118.1629855390356
 20
-155.0971652173021
 30
0.0
 10
118.1629855390356
 20
-155.274932144341
 30
0.0
 10
118.1629855390356
 20
-155.274932144341
 30
0.0
 10
118.0337944583388
 20
-155.2707980297587
 30
0.0
 10
118.0107123185876
 20
-155.2707980297587
 30
0.0
 10
117.733382132025
 20
-155.2666639151764
 30
0.0
  0
SPLINE
  5
1A5
330
198
100
AcDbEntity
  8
_U+30EC_U+30A4_U+30E4_U+30FC 1
370
     0
100
AcDbSpline
210
0.0
220
0.0
230
1.0
 70
    11
 71
     3
 72
    23
 73
    19
 74
     0
 42
0.0000000001
 43
0.0000000001
 12
1.0
 22
0.0
 32
0.0
 13
1.0
 23
0.0
 33
0.0
 40
0.0
 40
0.0
 40
0.0
 40
0.0
 40
1.0
 40
1.0
 40
1.0
 40
2.0
 40
2.0
 40
2.0
 40
3.0
 40
3.0
 40
3.0
 40
4.0
 40
4.0
 40
4.0
 40
5.0
 40
5.0
 40
5.0
 40
6.0
 40
6.0
 40
6.0
 40
6.0
 10
116.4493950446724
 20
-154.9152641756809
 30
0.0
 10
116.4325140767947
 20
-154.9555717928583
 30
0.0
 10
116.4259683953727
 20
-154.972452760736
 30
0.0
 10
116.4049533129127
 20
-154.972452760736
 30
0.0
 10
116.3901394023261
 20
-154.972452760736
 30
0.0
 10
116.3794596063218
 20
-154.9555717928583
 30
0.0
 10
116.3732584344484
 20
-154.9428249395629
 30
0.0
 10
116.3732584344484
 20
-154.9428249395629
 30
0.0
 10
116.2736951749246
 20
-154.7778048658194
 30
0.0
 10
116.2736951749246
 20
-154.7778048658194
 30
0.0
 10
116.3753254917395
 20
-154.7461099873551
 30
0.0
 10
116.5255316548964
 20
-154.6909884595912
 30
0.0
 10
116.7243136643953
 20
-154.5283799526873
 30
0.0
 10
116.7243136643953
 20
-154.5283799526873
 30
0.0
 10
116.7815022494505
 20
-154.7016682555954
 30
0.0
 10
116.7815022494505
 20
-154.7016682555954
 30
0.0
 10
116.6884846713487
 20
-154.7843505472414
 30
0.0
 10
116.5996012078293
 20
-154.841194622748
 30
0.0
 10
116.4493950446724
 20
-154.9152641756809
 30
0.0
  0
SPLINE
  5
1A6
330
198
100
AcDbEntity
  8
_U+30EC_U+30A4_U+30E4_U+30FC 1
370
     0
100
AcDbSpline
210
0.0
220
0.0
230
1.0
 70
    11
 71
     3
 72
    17
 73
    13
 74
     0
 42
0.0000000001
 43
0.0000000001
 12
1.0
 22
0.0
 32
0.0
 13
1.0
 23
0.0
 33
0.0
 40
0.0
 40
0.0
 40
0.0
 40
0.0
 40
1.0
 40
1.0
 40
1.0
 40
2.0
 40
2.0
 40
2.0
 40
3.0
 40
3.0
 40
3.0
 40
4.0
 40
4.0
 40
4.0
 40
4.0
 10
116.6016682651204
 20
-154.4498317756237
 30
0.0
 10
116.5720404439473
 20
-154.4098686679948
 30
0.0
 10
116.5041720628878
 20
-154.3123724657622
 30
0.0
 10
116.3222710212667
 20
-154.2024739197827
 30
0.0
 10
116.3222710212667
 20
-154.2024739197827
 30
0.0
 10
116.4493950446724
 20
-154.0691487245035
 30
0.0
 10
116.4493950446724
 20
-154.0691487245035
 30
0.0
 10
116.6354302008759
 20
-154.1707790413184
 30
0.0
 10
116.692618785931
 20
-154.2596625048379
 30
0.0
 10
116.720179549813
 20
-154.3020371793064
 30
0.0
 10
116.720179549813
 20
-154.3020371793064
 30
0.0
 10
116.6016682651204
 20
-154.4498317756237
 30
0.0
 10
116.6016682651204
 20
-154.4498317756237
 30
0.0
  0
SPLINE
  5
1A7
330
198
100
AcDbEntity
  8
_U+30EC_U+30A4_U+30E4_U+30FC 1
370
     0
100
AcDbSpline
210
0.0
220
0.0
230
1.0
 70
    11
 71
     3
 72
    38
 73
    34
 74
     0
 42
0.0000000001
 43
0.0000000001
 12
1.0
 22
0.0
 32
0.0
 13
1.0
 23
0.0
 33
0.0
 40
0.0
 40
0.0
 40
0.0
 40
0.0
 40
1.0
 40
1.0
 40
1.0
 40
2.0
 40
2.0
 40
2.0
 40
3.0
 40
3.0
 40
3.0
 40
4.0
 40
4.0
 40
4.0
 40
5.0
 40
5.0
 40
5.0
 40
6.0
 40
6.0
 40
6.0
 40
7.0
 40
7.0
 40
7.0
 40
8.0
 40
8.0
 40
8.0
 40
9.0
 40
9.0
 40
9.0
 40
10.0
 40
10.0
 40
10.0
 40
11.0
 40
11.0
 40
11.0
 40
11.0
 10
116.9696044629451
 20
-154.1452853347276
 30
0.0
 10
116.967537405654
 20
-154.1917941237784
 30
0.0
 10
116.9654703483628
 20
-154.3082383511799
 30
0.0
 10
116.9654703483628
 20
-154.3526800829396
 30
0.0
 10
116.9654703483628
 20
-154.3526800829396
 30
0.0
 10
116.9654703483628
 20
-154.6996011983043
 30
0.0
 10
116.9654703483628
 20
-154.6996011983043
 30
0.0
 10
116.9654703483628
 20
-154.7864176045326
 30
0.0
 10
116.967537405654
 20
-154.9280110289763
 30
0.0
 10
116.9782172016582
 20
-155.0485893709601
 30
0.0
 10
116.9782172016582
 20
-155.0485893709601
 30
0.0
 10
116.7877034213239
 20
-155.0485893709601
 30
0.0
 10
116.7877034213239
 20
-155.0485893709601
 30
0.0
 10
116.7921820454547
 20
-154.9851996140315
 30
0.0
 10
116.796316160037
 20
-154.9321451435586
 30
0.0
 10
116.7983832173282
 20
-154.8773681253432
 30
0.0
 10
116.8004502746193
 20
-154.7547227260683
 30
0.0
 10
116.8025173319105
 20
-154.7399088154817
 30
0.0
 10
116.8025173319105
 20
-154.695467083722
 30
0.0
 10
116.8025173319105
 20
-154.695467083722
 30
0.0
 10
116.8025173319105
 20
-154.3736951653997
 30
0.0
 10
116.8025173319105
 20
-154.3736951653997
 30
0.0
 10
116.8025173319105
 20
-154.3189181471842
 30
0.0
 10
116.7897704786151
 20
-154.0798285205078
 30
0.0
 10
116.7877034213239
 20
-154.0288411073261
 30
0.0
 10
116.7877034213239
 20
-154.0288411073261
 30
0.0
 10
116.9888969976625
 20
-154.0564018712081
 30
0.0
 10
116.9888969976625
 20
-154.0564018712081
 30
0.0
 10
117.0099120801225
 20
-154.0584689284993
 30
0.0
 10
117.0416069585868
 20
-154.0629475526301
 30
0.0
 10
117.0416069585868
 20
-154.0880967496724
 30
0.0
 10
117.0416069585868
 20
-154.1156575135544
 30
0.0
 10
116.9909640549537
 20
-154.137017105563
 30
0.0
 10
116.9696044629451
 20
-154.1452853347276
 30
0.0
  0
SPLINE
  5
1A8
330
198
100
AcDbEntity
  8
_U+30EC_U+30A4_U+30E4_U+30FC 1
370
     0
100
AcDbSpline
210
0.0
220
0.0
230
1.0
 70
    11
 71
     3
 72
    83
 73
    79
 74
     0
 42
0.0000000001
 43
0.0000000001
 12
1.0
 22
0.0
 32
0.0
 13
1.0
 23
0.0
 33
0.0
 40
0.0
 40
0.0
 40
0.0
 40
0.0
 40
1.0
 40
1.0
 40
1.0
 40
2.0
 40
2.0
 40
2.0
 40
3.0
 40
3.0
 40
3.0
 40
4.0
 40
4.0
 40
4.0
 40
5.0
 40
5.0
 40
5.0
 40
6.0
 40
6.0
 40
6.0
 40
7.0
 40
7.0
 40
7.0
 40
8.0
 40
8.0
 40
8.0
 40
9.0
 40
9.0
 40
9.0
 40
10.0
 40
10.0
 40
10.0
 40
11.0
 40
11.0
 40
11.0
 40
12.0
 40
12.0
 40
12.0
 40
13.0
 40
13.0
 40
13.0
 40
14.0
 40
14.0
 40
14.0
 40
15.0
 40
15.0
 40
15.0
 40
16.0
 40
16.0
 40
16.0
 40
17.0
 40
17.0
 40
17.0
 40
18.0
 40
18.0
 40
18.0
 40
19.0
 40
19.0
 40
19.0
 40
20.0
 40
20.0
 40
20.0
 40
21.0
 40
21.0
 40
21.0
 40
22.0
 40
22.0
 40
22.0
 40
23.0
 40
23.0
 40
23.0
 40
24.0
 40
24.0
 40
24.0
 40
25.0
 40
25.0
 40
25.0
 40
26.0
 40
26.0
 40
26.0
 40
26.0
 10
117.7716226919113
 20
-154.4670572530499
 30
0.0
 10
117.7716226919113
 20
-154.4670572530499
 30
0.0
 10
117.6741264896787
 20
-154.4670572530499
 30
0.0
 10
117.6741264896787
 20
-154.4670572530499
 30
0.0
 10
117.6741264896787
 20
-154.4670572530499
 30
0.0
 10
117.6741264896787
 20
-154.7144151088908
 30
0.0
 10
117.6741264896787
 20
-154.7144151088908
 30
0.0
 10
117.6741264896787
 20
-154.7144151088908
 30
0.0
 10
117.7568087813247
 20
-154.7144151088908
 30
0.0
 10
117.7568087813247
 20
-154.7144151088908
 30
0.0
 10
117.8222655955444
 20
-154.7144151088908
 30
0.0
 10
117.9617919626971
 20
-154.7102809943086
 30
0.0
 10
118.0613552222208
 20
-154.7016682555954
 30
0.0
 10
118.0613552222208
 20
-154.7016682555954
 30
0.0
 10
118.0613552222208
 20
-154.8815022399255
 30
0.0
 10
118.0613552222208
 20
-154.8815022399255
 30
0.0
 10
117.968337644119
 20
-154.8732340107609
 30
0.0
 10
117.8181314809621
 20
-154.86875538663
 30
0.0
 10
117.7568087813247
 20
-154.86875538663
 30
0.0
 10
117.7568087813247
 20
-154.86875538663
 30
0.0
 10
117.4519178308801
 20
-154.86875538663
 30
0.0
 10
117.4519178308801
 20
-154.86875538663
 30
0.0
 10
117.3992078699558
 20
-154.86875538663
 30
0.0
 10
117.2531358213812
 20
-154.8732340107609
 30
0.0
 10
117.147371389984
 20
-154.8815022399255
 30
0.0
 10
117.147371389984
 20
-154.8815022399255
 30
0.0
 10
117.147371389984
 20
-154.7016682555954
 30
0.0
 10
117.147371389984
 20
-154.7016682555954
 30
0.0
 10
117.2469346495077
 20
-154.7102809943086
 30
0.0
 10
117.3864610166603
 20
-154.7144151088908
 30
0.0
 10
117.4519178308801
 20
-154.7144151088908
 30
0.0
 10
117.4519178308801
 20
-154.7144151088908
 30
0.0
 10
117.4963595626398
 20
-154.7144151088908
 30
0.0
 10
117.4963595626398
 20
-154.7144151088908
 30
0.0
 10
117.4963595626398
 20
-154.7144151088908
 30
0.0
 10
117.4963595626398
 20
-154.4670572530499
 30
0.0
 10
117.4963595626398
 20
-154.4670572530499
 30
0.0
 10
117.4963595626398
 20
-154.4670572530499
 30
0.0
 10
117.4226345192555
 20
-154.4670572530499
 30
0.0
 10
117.4226345192555
 20
-154.4670572530499
 30
0.0
 10
117.3609673100695
 20
-154.4670572530499
 30
0.0
 10
117.1938801790349
 20
-154.4711913676322
 30
0.0
 10
117.0733018370511
 20
-154.4794595967968
 30
0.0
 10
117.0733018370511
 20
-154.4794595967968
 30
0.0
 10
117.0733018370511
 20
-154.3020371793064
 30
0.0
 10
117.0733018370511
 20
-154.3020371793064
 30
0.0
 10
117.1876790071614
 20
-154.3082383511799
 30
0.0
 10
117.3461533994829
 20
-154.3123724657622
 30
0.0
 10
117.4226345192555
 20
-154.3123724657622
 30
0.0
 10
117.4226345192555
 20
-154.3123724657622
 30
0.0
 10
117.4942925053487
 20
-154.3123724657622
 30
0.0
 10
117.4942925053487
 20
-154.3123724657622
 30
0.0
 10
117.4901583907664
 20
-154.1600992453141
 30
0.0
 10
117.4880913334752
 20
-154.1263373095587
 30
0.0
 10
117.4815456520532
 20
-154.0333197314569
 30
0.0
 10
117.4815456520532
 20
-154.0333197314569
 30
0.0
 10
117.6934190243961
 20
-154.0564018712081
 30
0.0
 10
117.6934190243961
 20
-154.0564018712081
 30
0.0
 10
117.7185682214384
 20
-154.0584689284993
 30
0.0
 10
117.7419948707381
 20
-154.0629475526301
 30
0.0
 10
117.7419948707381
 20
-154.0860296923813
 30
0.0
 10
117.7419948707381
 20
-154.1177245708456
 30
0.0
 10
117.6975531389784
 20
-154.1346055387233
 30
0.0
 10
117.6741264896787
 20
-154.1432182774364
 30
0.0
 10
117.6741264896787
 20
-154.1432182774364
 30
0.0
 10
117.6741264896787
 20
-154.3123724657622
 30
0.0
 10
117.6741264896787
 20
-154.3123724657622
 30
0.0
 10
117.6741264896787
 20
-154.3123724657622
 30
0.0
 10
117.7716226919113
 20
-154.3123724657622
 30
0.0
 10
117.7716226919113
 20
-154.3123724657622
 30
0.0
 10
117.8477593021353
 20
-154.3123724657622
 30
0.0
 10
118.0062336944568
 20
-154.3082383511799
 30
0.0
 10
118.1226779218582
 20
-154.3020371793064
 30
0.0
 10
118.1226779218582
 20
-154.3020371793064
 30
0.0
 10
118.1226779218582
 20
-154.4794595967968
 30
0.0
 10
118.1226779218582
 20
-154.4794595967968
 30
0.0
 10
118.0148464331699
 20
-154.4732584249234
 30
0.0
 10
117.8412136207133
 20
-154.4670572530499
 30
0.0
 10
117.7716226919113
 20
-154.4670572530499
 30
0.0
  0
SPLINE
  5
1A9
330
198
100
AcDbEntity
  8
_U+30EC_U+30A4_U+30E4_U+30FC 1
370
     0
100
AcDbSpline
210
0.0
220
0.0
230
1.0
 70
    11
 71
     3
 72
    17
 73
    13
 74
     0
 42
0.0000000001
 43
0.0000000001
 12
1.0
 22
0.0
 32
0.0
 13
1.0
 23
0.0
 33
0.0
 40
0.0
 40
0.0
 40
0.0
 40
0.0
 40
1.0
 40
1.0
 40
1.0
 40
2.0
 40
2.0
 40
2.0
 40
3.0
 40
3.0
 40
3.0
 40
4.0
 40
4.0
 40
4.0
 40
4.0
 10
117.5259873838129
 20
-155.2645968578852
 30
0.0
 10
117.5259873838129
 20
-155.2645968578852
 30
0.0
 10
117.3230712597317
 20
-155.2645968578852
 30
0.0
 10
117.3230712597317
 20
-155.2645968578852
 30
0.0
 10
117.3506320236137
 20
-155.323507990683
 30
0.0
 10
117.4054090418292
 20
-155.3955104863248
 30
0.0
 10
117.4329698057112
 20
-155.4251383074979
 30
0.0
 10
117.4605305695932
 20
-155.4103243969113
 30
0.0
 10
117.5749077397035
 20
-155.3469346399827
 30
0.0
 10
117.6658582605141
 20
-155.2645968578852
 30
0.0
 10
117.6658582605141
 20
-155.2645968578852
 30
0.0
 10
117.5259873838129
 20
-155.2645968578852
 30
0.0
 10
117.5259873838129
 20
-155.2645968578852
 30
0.0
  0
HATCH
  5
1AA
330
198
100
AcDbEntity
  8
_U+30EC_U+30A4_U+30E4_U+30FC 1
 62
   179
420
  2234388
100
AcDbHatch
 10
0.0
 20
0.0
 30
0.0
210
0.0
220
0.0
230
1.0
  2
SOLID
 70
     1
 71
     0
 91
        6
 92
        1
 93
        1
 72
     4
 94
        3
 73
     0
 74
     1
 95
      113
 96
      109
 40
0.0
 40
0.0
 40
0.0
 40
0.0
 40
1.0
 40
1.0
 40
1.0
 40
2.0
 40
2.0
 40
2.0
 40
3.0
 40
3.0
 40
3.0
 40
4.0
 40
4.0
 40
4.0
 40
5.0
 40
5.0
 40
5.0
 40
6.0
 40
6.0
 40
6.0
 40
7.0
 40
7.0
 40
7.0
 40
8.0
 40
8.0
 40
8.0
 40
9.0
 40
9.0
 40
9.0
 40
10.0
 40
10.0
 40
10.0
 40
11.0
 40
11.0
 40
11.0
 40
12.0
 40
12.0
 40
12.0
 40
13.0
 40
13.0
 40
13.0
 40
14.0
 40
14.0
 40
14.0
 40
15.0
 40
15.0
 40
15.0
 40
16.0
 40
16.0
 40
16.0
 40
17.0
 40
17.0
 40
17.0
 40
18.0
 40
18.0
 40
18.0
 40
19.0
 40
19.0
 40
19.0
 40
20.0
 40
20.0
 40
20.0
 40
21.0
 40
21.0
 40
21.0
 40
22.0
 40
22.0
 40
22.0
 40
23.0
 40
23.0
 40
23.0
 40
24.0
 40
24.0
 40
24.0
 40
25.0
 40
25.0
 40
25.0
 40
26.0
 40
26.0
 40
26.0
 40
27.0
 40
27.0
 40
27.0
 40
28.0
 40
28.0
 40
28.0
 40
29.0
 40
29.0
 40
29.0
 40
30.0
 40
30.0
 40
30.0
 40
31.0
 40
31.0
 40
31.0
 40
32.0
 40
32.0
 40
32.0
 40
33.0
 40
33.0
 40
33.0
 40
34.0
 40
34.0
 40
34.0
 40
35.0
 40
35.0
 40
35.0
 40
36.0
 40
36.0
 40
36.0
 40
36.0
 10
117.733382132025
 20
-155.2666639151764
 10
117.733382132025
 20
-155.2666639151764
 10
117.8329453915487
 20
-155.3658826651516
 10
117.8329453915487
 20
-155.3658826651516
 10
117.843625187553
 20
-155.3765624611559
 10
117.8539604740087
 20
-155.3893093144513
 10
117.8539604740087
 20
-155.4041232250379
 10
117.8539604740087
 20
-155.406190282329
 10
117.8539604740087
 20
-155.4358181035022
 10
117.816064423671
 20
-155.4358181035022
 10
117.8074516849579
 20
-155.4358181035022
 10
117.7671440677804
 20
-155.4316839889199
 10
117.760942895907
 20
-155.4316839889199
 10
117.7206352787296
 20
-155.4633788673842
 10
117.6741264896787
 20
-155.4971408031396
 10
117.5749077397035
 20
-155.5543293881948
 10
117.7206352787296
 20
-155.6621608768831
 10
117.8794541805996
 20
-155.7193494619382
 10
118.1523057430314
 20
-155.757245512276
 10
118.1523057430314
 20
-155.757245512276
 10
118.0020995798745
 20
-155.9329453820237
 10
118.0020995798745
 20
-155.9329453820237
 10
117.739927813447
 20
-155.860942886382
 10
117.5831759688681
 20
-155.7720594228626
 10
117.5070393586441
 20
-155.7193494619382
 10
117.3568331954872
 20
-155.6177191451233
 10
117.2131727137523
 20
-155.454766128671
 10
117.1370361035282
 20
-155.2897460549276
 10
117.0691677224688
 20
-155.3555473786958
 10
116.995098169536
 20
-155.4082573396202
 10
116.9168945020208
 20
-155.4568331859622
 10
116.9168945020208
 20
-155.4568331859622
 10
116.9168945020208
 20
-155.7086696659339
 10
116.9168945020208
 20
-155.7086696659339
 10
117.0798475184731
 20
-155.6831759593431
 10
117.2658826746766
 20
-155.6387342275834
 10
117.3292724316052
 20
-155.6239203169968
 10
117.3292724316052
 20
-155.6239203169968
 10
117.299644610432
 20
-155.7934190148711
 10
117.299644610432
 20
-155.7934190148711
 10
117.2975775531409
 20
-155.7934190148711
 10
117.278629527972
 20
-155.7996201867445
 10
117.2765624706809
 20
-155.7996201867445
 10
117.0777804611819
 20
-155.8378607466308
 10
116.7604871669904
 20
-155.9033175608506
 10
116.5634277052341
 20
-155.9391465538972
 10
116.5530924187784
 20
-155.9563720313234
 10
116.5296657694787
 20
-155.9880669097877
 10
116.5065836297275
 20
-155.9880669097877
 10
116.4790228658455
 20
-155.9880669097877
 10
116.4748887512632
 20
-155.9687743750703
 10
116.4724771844236
 20
-155.9498263499014
 10
116.4724771844236
 20
-155.9498263499014
 10
116.4473279873812
 20
-155.7765380469934
 10
116.4473279873812
 20
-155.7765380469934
 10
116.5213975403141
 20
-155.7679253082802
 10
116.6292290290024
 20
-155.7551784549848
 10
116.7370605176907
 20
-155.7341633725248
 10
116.7370605176907
 20
-155.7341633725248
 10
116.7370605176907
 20
-155.5563964454859
 10
116.7370605176907
 20
-155.5563964454859
 10
116.5930555264073
 20
-155.6283989411276
 10
116.4979708910144
 20
-155.6580267623008
 10
116.3329508172709
 20
-155.6876545834739
 10
116.3329508172709
 20
-155.6876545834739
 10
116.2123724752872
 20
-155.5181558855996
 10
116.2123724752872
 20
-155.5181558855996
 10
116.5296657694787
 20
-155.4909396312662
 10
116.7222466071042
 20
-155.3975775436159
 10
116.9000135341431
 20
-155.2645968578852
 10
116.7539414855685
 20
-155.2645968578852
 10
116.4535291592547
 20
-155.2687309724676
 10
116.2568142070469
 20
-155.274932144341
 10
116.2568142070469
 20
-155.274932144341
 10
116.2568142070469
 20
-155.0971652173021
 10
116.2568142070469
 20
-155.0971652173021
 10
116.4111544847861
 20
-155.1037108987241
 10
116.7074326965176
 20
-155.1099120705975
 10
116.8914007954299
 20
-155.1099120705975
 10
116.8914007954299
 20
-155.1099120705975
 10
117.1029296582243
 20
-155.1099120705975
 10
117.1029296582243
 20
-155.1099120705975
 10
117.1029296582243
 20
-155.0148274352046
 10
117.1008626009331
 20
-154.9641845315714
 10
117.0946614290597
 20
-154.9176757425206
 10
117.0946614290597
 20
-154.9176757425206
 10
117.3103244064363
 20
-154.9345567103983
 10
117.3103244064363
 20
-154.9345567103983
 10
117.3589002527783
 20
-154.9386908249806
 10
117.3675129914915
 20
-154.9535047355672
 10
117.3675129914915
 20
-154.9683186461538
 10
117.3675129914915
 20
-154.9938123527446
 10
117.3506320236137
 20
-155.0020805819092
 10
117.299644610432
 20
-155.0275742885001
 10
117.2975775531409
 20
-155.0527234855424
 10
117.2975775531409
 20
-155.0592691669644
 10
117.2955104958497
 20
-155.1099120705975
 10
117.2955104958497
 20
-155.1099120705975
 10
117.5259873838129
 20
-155.1099120705975
 10
117.5259873838129
 20
-155.1099120705975
 10
117.6910074575564
 20
-155.1099120705975
 10
117.9831515547056
 20
-155.1037108987241
 10
118.1629855390356
 20
-155.0971652173021
 10
118.1629855390356
 20
-155.0971652173021
 10
118.1629855390356
 20
-155.274932144341
 10
118.1629855390356
 20
-155.274932144341
 10
118.0337944583388
 20
-155.2707980297587
 10
118.0107123185876
 20
-155.2707980297587
 10
117.733382132025
 20
-155.2666639151764
 97
        0
 97
        0
 92
        1
 93
        1
 72
     4
 94
        3
 73
     0
 74
     1
 95
       23
 96
       19
 40
0.0
 40
0.0
 40
0.0
 40
0.0
 40
1.0
 40
1.0
 40
1.0
 40
2.0
 40
2.0
 40
2.0
 40
3.0
 40
3.0
 40
3.0
 40
4.0
 40
4.0
 40
4.0
 40
5.0
 40
5.0
 40
5.0
 40
6.0
 40
6.0
 40
6.0
 40
6.0
 10
116.4493950446724
 20
-154.9152641756809
 10
116.4325140767947
 20
-154.9555717928583
 10
116.4259683953727
 20
-154.972452760736
 10
116.4049533129127
 20
-154.972452760736
 10
116.3901394023261
 20
-154.972452760736
 10
116.3794596063218
 20
-154.9555717928583
 10
116.3732584344484
 20
-154.9428249395629
 10
116.3732584344484
 20
-154.9428249395629
 10
116.2736951749246
 20
-154.7778048658194
 10
116.2736951749246
 20
-154.7778048658194
 10
116.3753254917395
 20
-154.7461099873551
 10
116.5255316548964
 20
-154.6909884595912
 10
116.7243136643953
 20
-154.5283799526873
 10
116.7243136643953
 20
-154.5283799526873
 10
116.7815022494505
 20
-154.7016682555954
 10
116.7815022494505
 20
-154.7016682555954
 10
116.6884846713487
 20
-154.7843505472414
 10
116.5996012078293
 20
-154.841194622748
 10
116.4493950446724
 20
-154.9152641756809
 97
        0
 97
        0
 92
        1
 93
        1
 72
     4
 94
        3
 73
     0
 74
     1
 95
       17
 96
       13
 40
0.0
 40
0.0
 40
0.0
 40
0.0
 40
1.0
 40
1.0
 40
1.0
 40
2.0
 40
2.0
 40
2.0
 40
3.0
 40
3.0
 40
3.0
 40
4.0
 40
4.0
 40
4.0
 40
4.0
 10
116.6016682651204
 20
-154.4498317756237
 10
116.5720404439473
 20
-154.4098686679948
 10
116.5041720628878
 20
-154.3123724657622
 10
116.3222710212667
 20
-154.2024739197827
 10
116.3222710212667
 20
-154.2024739197827
 10
116.4493950446724
 20
-154.0691487245035
 10
116.4493950446724
 20
-154.0691487245035
 10
116.6354302008759
 20
-154.1707790413184
 10
116.692618785931
 20
-154.2596625048379
 10
116.720179549813
 20
-154.3020371793064
 10
116.720179549813
 20
-154.3020371793064
 10
116.6016682651204
 20
-154.4498317756237
 10
116.6016682651204
 20
-154.4498317756237
 97
        0
 97
        0
 92
        1
 93
        1
 72
     4
 94
        3
 73
     0
 74
     1
 95
       38
 96
       34
 40
0.0
 40
0.0
 40
0.0
 40
0.0
 40
1.0
 40
1.0
 40
1.0
 40
2.0
 40
2.0
 40
2.0
 40
3.0
 40
3.0
 40
3.0
 40
4.0
 40
4.0
 40
4.0
 40
5.0
 40
5.0
 40
5.0
 40
6.0
 40
6.0
 40
6.0
 40
7.0
 40
7.0
 40
7.0
 40
8.0
 40
8.0
 40
8.0
 40
9.0
 40
9.0
 40
9.0
 40
10.0
 40
10.0
 40
10.0
 40
11.0
 40
11.0
 40
11.0
 40
11.0
 10
116.9696044629451
 20
-154.1452853347276
 10
116.967537405654
 20
-154.1917941237784
 10
116.9654703483628
 20
-154.3082383511799
 10
116.9654703483628
 20
-154.3526800829396
 10
116.9654703483628
 20
-154.3526800829396
 10
116.9654703483628
 20
-154.6996011983043
 10
116.9654703483628
 20
-154.6996011983043
 10
116.9654703483628
 20
-154.7864176045326
 10
116.967537405654
 20
-154.9280110289763
 10
116.9782172016582
 20
-155.0485893709601
 10
116.9782172016582
 20
-155.0485893709601
 10
116.7877034213239
 20
-155.0485893709601
 10
116.7877034213239
 20
-155.0485893709601
 10
116.7921820454547
 20
-154.9851996140315
 10
116.796316160037
 20
-154.9321451435586
 10
116.7983832173282
 20
-154.8773681253432
 10
116.8004502746193
 20
-154.7547227260683
 10
116.8025173319105
 20
-154.7399088154817
 10
116.8025173319105
 20
-154.695467083722
 10
116.8025173319105
 20
-154.695467083722
 10
116.8025173319105
 20
-154.3736951653997
 10
116.8025173319105
 20
-154.3736951653997
 10
116.8025173319105
 20
-154.3189181471842
 10
116.7897704786151
 20
-154.0798285205078
 10
116.7877034213239
 20
-154.0288411073261
 10
116.7877034213239
 20
-154.0288411073261
 10
116.9888969976625
 20
-154.0564018712081
 10
116.9888969976625
 20
-154.0564018712081
 10
117.0099120801225
 20
-154.0584689284993
 10
117.0416069585868
 20
-154.0629475526301
 10
117.0416069585868
 20
-154.0880967496724
 10
117.0416069585868
 20
-154.1156575135544
 10
116.9909640549537
 20
-154.137017105563
 10
116.9696044629451
 20
-154.1452853347276
 97
        0
 97
        0
 92
        1
 93
        1
 72
     4
 94
        3
 73
     0
 74
     1
 95
       83
 96
       79
 40
0.0
 40
0.0
 40
0.0
 40
0.0
 40
1.0
 40
1.0
 40
1.0
 40
2.0
 40
2.0
 40
2.0
 40
3.0
 40
3.0
 40
3.0
 40
4.0
 40
4.0
 40
4.0
 40
5.0
 40
5.0
 40
5.0
 40
6.0
 40
6.0
 40
6.0
 40
7.0
 40
7.0
 40
7.0
 40
8.0
 40
8.0
 40
8.0
 40
9.0
 40
9.0
 40
9.0
 40
10.0
 40
10.0
 40
10.0
 40
11.0
 40
11.0
 40
11.0
 40
12.0
 40
12.0
 40
12.0
 40
13.0
 40
13.0
 40
13.0
 40
14.0
 40
14.0
 40
14.0
 40
15.0
 40
15.0
 40
15.0
 40
16.0
 40
16.0
 40
16.0
 40
17.0
 40
17.0
 40
17.0
 40
18.0
 40
18.0
 40
18.0
 40
19.0
 40
19.0
 40
19.0
 40
20.0
 40
20.0
 40
20.0
 40
21.0
 40
21.0
 40
21.0
 40
22.0
 40
22.0
 40
22.0
 40
23.0
 40
23.0
 40
23.0
 40
24.0
 40
24.0
 40
24.0
 40
25.0
 40
25.0
 40
25.0
 40
26.0
 40
26.0
 40
26.0
 40
26.0
 10
117.7716226919113
 20
-154.4670572530499
 10
117.7716226919113
 20
-154.4670572530499
 10
117.6741264896787
 20
-154.4670572530499
 10
117.6741264896787
 20
-154.4670572530499
 10
117.6741264896787
 20
-154.4670572530499
 10
117.6741264896787
 20
-154.7144151088908
 10
117.6741264896787
 20
-154.7144151088908
 10
117.6741264896787
 20
-154.7144151088908
 10
117.7568087813247
 20
-154.7144151088908
 10
117.7568087813247
 20
-154.7144151088908
 10
117.8222655955444
 20
-154.7144151088908
 10
117.9617919626971
 20
-154.7102809943086
 10
118.0613552222208
 20
-154.7016682555954
 10
118.0613552222208
 20
-154.7016682555954
 10
118.0613552222208
 20
-154.8815022399255
 10
118.0613552222208
 20
-154.8815022399255
 10
117.968337644119
 20
-154.8732340107609
 10
117.8181314809621
 20
-154.86875538663
 10
117.7568087813247
 20
-154.86875538663
 10
117.7568087813247
 20
-154.86875538663
 10
117.4519178308801
 20
-154.86875538663
 10
117.4519178308801
 20
-154.86875538663
 10
117.3992078699558
 20
-154.86875538663
 10
117.2531358213812
 20
-154.8732340107609
 10
117.147371389984
 20
-154.8815022399255
 10
117.147371389984
 20
-154.8815022399255
 10
117.147371389984
 20
-154.7016682555954
 10
117.147371389984
 20
-154.7016682555954
 10
117.2469346495077
 20
-154.7102809943086
 10
117.3864610166603
 20
-154.7144151088908
 10
117.4519178308801
 20
-154.7144151088908
 10
117.4519178308801
 20
-154.7144151088908
 10
117.4963595626398
 20
-154.7144151088908
 10
117.4963595626398
 20
-154.7144151088908
 10
117.4963595626398
 20
-154.7144151088908
 10
117.4963595626398
 20
-154.4670572530499
 10
117.4963595626398
 20
-154.4670572530499
 10
117.4963595626398
 20
-154.4670572530499
 10
117.4226345192555
 20
-154.4670572530499
 10
117.4226345192555
 20
-154.4670572530499
 10
117.3609673100695
 20
-154.4670572530499
 10
117.1938801790349
 20
-154.4711913676322
 10
117.0733018370511
 20
-154.4794595967968
 10
117.0733018370511
 20
-154.4794595967968
 10
117.0733018370511
 20
-154.3020371793064
 10
117.0733018370511
 20
-154.3020371793064
 10
117.1876790071614
 20
-154.3082383511799
 10
117.3461533994829
 20
-154.3123724657622
 10
117.4226345192555
 20
-154.3123724657622
 10
117.4226345192555
 20
-154.3123724657622
 10
117.4942925053487
 20
-154.3123724657622
 10
117.4942925053487
 20
-154.3123724657622
 10
117.4901583907664
 20
-154.1600992453141
 10
117.4880913334752
 20
-154.1263373095587
 10
117.4815456520532
 20
-154.0333197314569
 10
117.4815456520532
 20
-154.0333197314569
 10
117.6934190243961
 20
-154.0564018712081
 10
117.6934190243961
 20
-154.0564018712081
 10
117.7185682214384
 20
-154.0584689284993
 10
117.7419948707381
 20
-154.0629475526301
 10
117.7419948707381
 20
-154.0860296923813
 10
117.7419948707381
 20
-154.1177245708456
 10
117.6975531389784
 20
-154.1346055387233
 10
117.6741264896787
 20
-154.1432182774364
 10
117.6741264896787
 20
-154.1432182774364
 10
117.6741264896787
 20
-154.3123724657622
 10
117.6741264896787
 20
-154.3123724657622
 10
117.6741264896787
 20
-154.3123724657622
 10
117.7716226919113
 20
-154.3123724657622
 10
117.7716226919113
 20
-154.3123724657622
 10
117.8477593021353
 20
-154.3123724657622
 10
118.0062336944568
 20
-154.3082383511799
 10
118.1226779218582
 20
-154.3020371793064
 10
118.1226779218582
 20
-154.3020371793064
 10
118.1226779218582
 20
-154.4794595967968
 10
118.1226779218582
 20
-154.4794595967968
 10
118.0148464331699
 20
-154.4732584249234
 10
117.8412136207133
 20
-154.4670572530499
 10
117.7716226919113
 20
-154.4670572530499
 97
        0
 97
        0
 92
        1
 93
        1
 72
     4
 94
        3
 73
     0
 74
     1
 95
       17
 96
       13
 40
0.0
 40
0.0
 40
0.0
 40
0.0
 40
1.0
 40
1.0
 40
1.0
 40
2.0
 40
2.0
 40
2.0
 40
3.0
 40
3.0
 40
3.0
 40
4.0
 40
4.0
 40
4.0
 40
4.0
 10
117.5259873838129
 20
-155.2645968578852
 10
117.5259873838129
 20
-155.2645968578852
 10
117.3230712597317
 20
-155.2645968578852
 10
117.3230712597317
 20
-155.2645968578852
 10
117.3506320236137
 20
-155.323507990683
 10
117.4054090418292
 20
-155.3955104863248
 10
117.4329698057112
 20
-155.4251383074979
 10
117.4605305695932
 20
-155.4103243969113
 10
117.5749077397035
 20
-155.3469346399827
 10
117.6658582605141
 20
-155.2645968578852
 10
117.6658582605141
 20
-155.2645968578852
 10
117.5259873838129
 20
-155.2645968578852
 10
117.5259873838129
 20
-155.2645968578852
 97
        0
 97
        0
 75
     2
 76
     1
 98
        0
  0
SPLINE
  5
1AB
330
198
100
AcDbEntity
  8
_U+30EC_U+30A4_U+30E4_U+30FC 1
370
     0
100
AcDbSpline
210
0.0
220
0.0
230
1.0
 70
    11
 71
     3
 72
    77
 73
    73
 74
     0
 42
0.0000000001
 43
0.0000000001
 12
1.0
 22
0.0
 32
0.0
 13
1.0
 23
0.0
 33
0.0
 40
0.0
 40
0.0
 40
0.0
 40
0.0
 40
1.0
 40
1.0
 40
1.0
 40
2.0
 40
2.0
 40
2.0
 40
3.0
 40
3.0
 40
3.0
 40
4.0
 40
4.0
 40
4.0
 40
5.0
 40
5.0
 40
5.0
 40
6.0
 40
6.0
 40
6.0
 40
7.0
 40
7.0
 40
7.0
 40
8.0
 40
8.0
 40
8.0
 40
9.0
 40
9.0
 40
9.0
 40
10.0
 40
10.0
 40
10.0
 40
11.0
 40
11.0
 40
11.0
 40
12.0
 40
12.0
 40
12.0
 40
13.0
 40
13.0
 40
13.0
 40
14.0
 40
14.0
 40
14.0
 40
15.0
 40
15.0
 40
15.0
 40
16.0
 40
16.0
 40
16.0
 40
17.0
 40
17.0
 40
17.0
 40
18.0
 40
18.0
 40
18.0
 40
19.0
 40
19.0
 40
19.0
 40
20.0
 40
20.0
 40
20.0
 40
21.0
 40
21.0
 40
21.0
 40
22.0
 40
22.0
 40
22.0
 40
23.0
 40
23.0
 40
23.0
 40
24.0
 40
24.0
 40
24.0
 40
24.0
 10
120.0171359291971
 20
-155.8947048221374
 30
0.0
 10
119.9706271401462
 20
-155.9201985287283
 30
0.0
 10
119.8459146835802
 20
-155.9329453820237
 30
0.0
 10
119.7673665065165
 20
-155.9329453820237
 30
0.0
 10
119.7549641627696
 20
-155.9329453820237
 30
0.0
 10
119.7294704561787
 20
-155.9329453820237
 30
0.0
 10
119.6957085204233
 20
-155.9288112674414
 30
0.0
 10
119.6957085204233
 20
-155.9288112674414
 30
0.0
 10
119.5982123181907
 20
-155.7024684940605
 30
0.0
 10
119.5982123181907
 20
-155.7024684940605
 30
0.0
 10
119.6278401393639
 20
-155.7086696659339
 30
0.0
 10
119.685028724419
 20
-155.7172824046471
 30
0.0
 10
119.8014729518205
 20
-155.7172824046471
 30
0.0
 10
119.8796766193356
 20
-155.7172824046471
 30
0.0
 10
119.8817436766268
 20
-155.6749077301785
 30
0.0
 10
119.8817436766268
 20
-155.6177191451233
 30
0.0
 10
119.8817436766268
 20
-155.6177191451233
 30
0.0
 10
119.8817436766268
 20
-155.2687309724676
 30
0.0
 10
119.8817436766268
 20
-155.2687309724676
 30
0.0
 10
119.8817436766268
 20
-155.2687309724676
 30
0.0
 10
119.422512448443
 20
-155.2687309724676
 30
0.0
 10
119.422512448443
 20
-155.2687309724676
 30
0.0
 10
119.4249240152827
 20
-155.406190282329
 30
0.0
 10
119.4269910725738
 20
-155.6049722918279
 30
0.0
 10
119.4331922444473
 20
-155.7382974871071
 30
0.0
 10
119.4352593017384
 20
-155.7658582509891
 30
0.0
 10
119.4352593017384
 20
-155.8102999827488
 30
0.0
 10
119.4480061550338
 20
-155.8716226823863
 30
0.0
 10
119.4480061550338
 20
-155.8716226823863
 30
0.0
 10
119.2068494710663
 20
-155.8716226823863
 30
0.0
 10
119.2068494710663
 20
-155.8716226823863
 30
0.0
 10
119.2323431776572
 20
-155.7469102258202
 30
0.0
 10
119.2323431776572
 20
-155.406190282329
 30
0.0
 10
119.2323431776572
 20
-155.2687309724676
 30
0.0
 10
119.2323431776572
 20
-155.2687309724676
 30
0.0
 10
118.7899929173511
 20
-155.2687309724676
 30
0.0
 10
118.7899929173511
 20
-155.2687309724676
 30
0.0
 10
118.7669107775999
 20
-155.4761257206796
 30
0.0
 10
118.7014539633802
 20
-155.7444986589805
 30
0.0
 10
118.5043945016239
 20
-155.9288112674414
 30
0.0
 10
118.5043945016239
 20
-155.9288112674414
 30
0.0
 10
118.3162922881293
 20
-155.8061658681665
 30
0.0
 10
118.3162922881293
 20
-155.8061658681665
 30
0.0
 10
118.5701958253922
 20
-155.5860242666591
 30
0.0
 10
118.6018907038565
 20
-155.253917061881
 30
0.0
 10
118.6018907038565
 20
-154.9218098571029
 30
0.0
 10
118.6018907038565
 20
-154.9218098571029
 30
0.0
 10
118.6018907038565
 20
-154.4860052782188
 30
0.0
 10
118.6018907038565
 20
-154.4860052782188
 30
0.0
 10
118.6018907038565
 20
-154.4498317756237
 30
0.0
 10
118.5998236465653
 20
-154.2172878303693
 30
0.0
 10
118.5912109078522
 20
-154.1156575135544
 30
0.0
 10
118.7310817845533
 20
-154.1263373095587
 30
0.0
 10
118.9722384685208
 20
-154.1263373095587
 30
0.0
 10
119.1158989502558
 20
-154.1263373095587
 30
0.0
 10
119.1158989502558
 20
-154.1263373095587
 30
0.0
 10
119.5751301784396
 20
-154.1263373095587
 30
0.0
 10
119.5751301784396
 20
-154.1263373095587
 30
0.0
 10
119.5899440890261
 20
-154.1263373095587
 30
0.0
 10
119.9389322616819
 20
-154.1263373095587
 30
0.0
 10
120.0974066540034
 20
-154.1156575135544
 30
0.0
 10
120.0953395967123
 20
-154.1687119840273
 30
0.0
 10
120.0891384248388
 20
-154.3292534336399
 30
0.0
 10
120.0891384248388
 20
-154.3802408468216
 30
0.0
 10
120.0891384248388
 20
-154.3802408468216
 30
0.0
 10
120.0891384248388
 20
-154.9872666713226
 30
0.0
 10
120.0891384248388
 20
-154.9872666713226
 30
0.0
 10
120.0891384248388
 20
-155.0062146964915
 30
0.0
 10
120.0994737112946
 20
-155.5774115279459
 30
0.0
 10
120.0994737112946
 20
-155.6897216407651
 30
0.0
 10
120.0994737112946
 20
-155.7469102258202
 30
0.0
 10
120.0994737112946
 20
-155.8481960330866
 30
0.0
 10
120.0171359291971
 20
-155.8947048221374
 30
0.0
  0
POLYLINE
  5
1AC
330
198
100
AcDbEntity
  8
_U+30EC_U+30A4_U+30E4_U+30FC 1
370
     0
100
AcDb2dPolyline
 66
     1
 10
0.0
 20
0.0
 30
0.0
  0
VERTEX
  5
1AD
330
1AC
100
AcDbEntity
  8
_U+30EC_U+30A4_U+30E4_U+30FC 1
370
     0
100
AcDbVertex
100
AcDb2dVertex
 10
119.2323431776572
 20
-154.3082383511799
 30
0.0
  0
VERTEX
  5
1AE
330
1AC
100
AcDbEntity
  8
_U+30EC_U+30A4_U+30E4_U+30FC 1
370
     0
100
AcDbVertex
100
AcDb2dVertex
 10
118.7944715414819
 20
-154.3082383511799
 30
0.0
  0
VERTEX
  5
1AF
330
1AC
100
AcDbEntity
  8
_U+30EC_U+30A4_U+30E4_U+30FC 1
370
     0
100
AcDbVertex
100
AcDb2dVertex
 10
118.7944715414819
 20
-154.612784792076
 30
0.0
  0
VERTEX
  5
1B0
330
1AC
100
AcDbEntity
  8
_U+30EC_U+30A4_U+30E4_U+30FC 1
370
     0
100
AcDbVertex
100
AcDb2dVertex
 10
119.2323431776572
 20
-154.612784792076
 30
0.0
  0
VERTEX
  5
1B1
330
1AC
100
AcDbEntity
  8
_U+30EC_U+30A4_U+30E4_U+30FC 1
370
     0
100
AcDbVertex
100
AcDb2dVertex
 10
119.2323431776572
 20
-154.3082383511799
 30
0.0
  0
SEQEND
  5
1B2
330
1AC
100
AcDbEntity
  8
_U+30EC_U+30A4_U+30E4_U+30FC 1
370
     0
  0
POLYLINE
  5
1B3
330
198
100
AcDbEntity
  8
_U+30EC_U+30A4_U+30E4_U+30FC 1
370
     0
100
AcDb2dPolyline
 66
     1
 10
0.0
 20
0.0
 30
0.0
  0
VERTEX
  5
1B4
330
1B3
100
AcDbEntity
  8
_U+30EC_U+30A4_U+30E4_U+30FC 1
370
     0
100
AcDbVertex
100
AcDb2dVertex
 10
119.2323431776572
 20
-154.7798719231106
 30
0.0
  0
VERTEX
  5
1B5
330
1B3
100
AcDbEntity
  8
_U+30EC_U+30A4_U+30E4_U+30FC 1
370
     0
100
AcDbVertex
100
AcDb2dVertex
 10
118.7944715414819
 20
-154.7798719231106
 30
0.0
  0
VERTEX
  5
1B6
330
1B3
100
AcDbEntity
  8
_U+30EC_U+30A4_U+30E4_U+30FC 1
370
     0
100
AcDbVertex
100
AcDb2dVertex
 10
118.7944715414819
 20
-155.0888969881375
 30
0.0
  0
VERTEX
  5
1B7
330
1B3
100
AcDbEntity
  8
_U+30EC_U+30A4_U+30E4_U+30FC 1
370
     0
100
AcDbVertex
100
AcDb2dVertex
 10
119.2323431776572
 20
-155.0888969881375
 30
0.0
  0
VERTEX
  5
1B8
330
1B3
100
AcDbEntity
  8
_U+30EC_U+30A4_U+30E4_U+30FC 1
370
     0
100
AcDbVertex
100
AcDb2dVertex
 10
119.2323431776572
 20
-154.7798719231106
 30
0.0
  0
SEQEND
  5
1B9
330
1B3
100
AcDbEntity
  8
_U+30EC_U+30A4_U+30E4_U+30FC 1
370
     0
  0
POLYLINE
  5
1BA
330
198
100
AcDbEntity
  8
_U+30EC_U+30A4_U+30E4_U+30FC 1
370
     0
100
AcDb2dPolyline
 66
     1
 10
0.0
 20
0.0
 30
0.0
  0
VERTEX
  5
1BB
330
1BA
100
AcDbEntity
  8
_U+30EC_U+30A4_U+30E4_U+30FC 1
370
     0
100
AcDbVertex
100
AcDb2dVertex
 10
119.8817436766268
 20
-154.3082383511799
 30
0.0
  0
VERTEX
  5
1BC
330
1BA
100
AcDbEntity
  8
_U+30EC_U+30A4_U+30E4_U+30FC 1
370
     0
100
AcDbVertex
100
AcDb2dVertex
 10
119.422512448443
 20
-154.3082383511799
 30
0.0
  0
VERTEX
  5
1BD
330
1BA
100
AcDbEntity
  8
_U+30EC_U+30A4_U+30E4_U+30FC 1
370
     0
100
AcDbVertex
100
AcDb2dVertex
 10
119.422512448443
 20
-154.612784792076
 30
0.0
  0
VERTEX
  5
1BE
330
1BA
100
AcDbEntity
  8
_U+30EC_U+30A4_U+30E4_U+30FC 1
370
     0
100
AcDbVertex
100
AcDb2dVertex
 10
119.8817436766268
 20
-154.612784792076
 30
0.0
  0
VERTEX
  5
1BF
330
1BA
100
AcDbEntity
  8
_U+30EC_U+30A4_U+30E4_U+30FC 1
370
     0
100
AcDbVertex
100
AcDb2dVertex
 10
119.8817436766268
 20
-154.3082383511799
 30
0.0
  0
SEQEND
  5
1C0
330
1BA
100
AcDbEntity
  8
_U+30EC_U+30A4_U+30E4_U+30FC 1
370
     0
  0
POLYLINE
  5
1C1
330
198
100
AcDbEntity
  8
_U+30EC_U+30A4_U+30E4_U+30FC 1
370
     0
100
AcDb2dPolyline
 66
     1
 10
0.0
 20
0.0
 30
0.0
  0
VERTEX
  5
1C2
330
1C1
100
AcDbEntity
  8
_U+30EC_U+30A4_U+30E4_U+30FC 1
370
     0
100
AcDbVertex
100
AcDb2dVertex
 10
119.8817436766268
 20
-154.7798719231106
 30
0.0
  0
VERTEX
  5
1C3
330
1C1
100
AcDbEntity
  8
_U+30EC_U+30A4_U+30E4_U+30FC 1
370
     0
100
AcDbVertex
100
AcDb2dVertex
 10
119.422512448443
 20
-154.7798719231106
 30
0.0
  0
VERTEX
  5
1C4
330
1C1
100
AcDbEntity
  8
_U+30EC_U+30A4_U+30E4_U+30FC 1
370
     0
100
AcDbVertex
100
AcDb2dVertex
 10
119.422512448443
 20
-155.0888969881375
 30
0.0
  0
VERTEX
  5
1C5
330
1C1
100
AcDbEntity
  8
_U+30EC_U+30A4_U+30E4_U+30FC 1
370
     0
100
AcDbVertex
100
AcDb2dVertex
 10
119.8817436766268
 20
-155.0888969881375
 30
0.0
  0
VERTEX
  5
1C6
330
1C1
100
AcDbEntity
  8
_U+30EC_U+30A4_U+30E4_U+30FC 1
370
     0
100
AcDbVertex
100
AcDb2dVertex
 10
119.8817436766268
 20
-154.7798719231106
 30
0.0
  0
SEQEND
  5
1C7
330
1C1
100
AcDbEntity
  8
_U+30EC_U+30A4_U+30E4_U+30FC 1
370
     0
  0
HATCH
  5
1C8
330
198
100
AcDbEntity
  8
_U+30EC_U+30A4_U+30E4_U+30FC 1
 62
   179
420
  2234388
100
AcDbHatch
 10
0.0
 20
0.0
 30
0.0
210
0.0
220
0.0
230
1.0
  2
SOLID
 70
     1
 71
     0
 91
        5
 92
        1
 93
        1
 72
     4
 94
        3
 73
     0
 74
     1
 95
       77
 96
       73
 40
0.0
 40
0.0
 40
0.0
 40
0.0
 40
1.0
 40
1.0
 40
1.0
 40
2.0
 40
2.0
 40
2.0
 40
3.0
 40
3.0
 40
3.0
 40
4.0
 40
4.0
 40
4.0
 40
5.0
 40
5.0
 40
5.0
 40
6.0
 40
6.0
 40
6.0
 40
7.0
 40
7.0
 40
7.0
 40
8.0
 40
8.0
 40
8.0
 40
9.0
 40
9.0
 40
9.0
 40
10.0
 40
10.0
 40
10.0
 40
11.0
 40
11.0
 40
11.0
 40
12.0
 40
12.0
 40
12.0
 40
13.0
 40
13.0
 40
13.0
 40
14.0
 40
14.0
 40
14.0
 40
15.0
 40
15.0
 40
15.0
 40
16.0
 40
16.0
 40
16.0
 40
17.0
 40
17.0
 40
17.0
 40
18.0
 40
18.0
 40
18.0
 40
19.0
 40
19.0
 40
19.0
 40
20.0
 40
20.0
 40
20.0
 40
21.0
 40
21.0
 40
21.0
 40
22.0
 40
22.0
 40
22.0
 40
23.0
 40
23.0
 40
23.0
 40
24.0
 40
24.0
 40
24.0
 40
24.0
 10
120.0171359291971
 20
-155.8947048221374
 10
119.9706271401462
 20
-155.9201985287283
 10
119.8459146835802
 20
-155.9329453820237
 10
119.7673665065165
 20
-155.9329453820237
 10
119.7549641627696
 20
-155.9329453820237
 10
119.7294704561787
 20
-155.9329453820237
 10
119.6957085204233
 20
-155.9288112674414
 10
119.6957085204233
 20
-155.9288112674414
 10
119.5982123181907
 20
-155.7024684940605
 10
119.5982123181907
 20
-155.7024684940605
 10
119.6278401393639
 20
-155.7086696659339
 10
119.685028724419
 20
-155.7172824046471
 10
119.8014729518205
 20
-155.7172824046471
 10
119.8796766193356
 20
-155.7172824046471
 10
119.8817436766268
 20
-155.6749077301785
 10
119.8817436766268
 20
-155.6177191451233
 10
119.8817436766268
 20
-155.6177191451233
 10
119.8817436766268
 20
-155.2687309724676
 10
119.8817436766268
 20
-155.2687309724676
 10
119.8817436766268
 20
-155.2687309724676
 10
119.422512448443
 20
-155.2687309724676
 10
119.422512448443
 20
-155.2687309724676
 10
119.4249240152827
 20
-155.406190282329
 10
119.4269910725738
 20
-155.6049722918279
 10
119.4331922444473
 20
-155.7382974871071
 10
119.4352593017384
 20
-155.7658582509891
 10
119.4352593017384
 20
-155.8102999827488
 10
119.4480061550338
 20
-155.8716226823863
 10
119.4480061550338
 20
-155.8716226823863
 10
119.2068494710663
 20
-155.8716226823863
 10
119.2068494710663
 20
-155.8716226823863
 10
119.2323431776572
 20
-155.7469102258202
 10
119.2323431776572
 20
-155.406190282329
 10
119.2323431776572
 20
-155.2687309724676
 10
119.2323431776572
 20
-155.2687309724676
 10
118.7899929173511
 20
-155.2687309724676
 10
118.7899929173511
 20
-155.2687309724676
 10
118.7669107775999
 20
-155.4761257206796
 10
118.7014539633802
 20
-155.7444986589805
 10
118.5043945016239
 20
-155.9288112674414
 10
118.5043945016239
 20
-155.9288112674414
 10
118.3162922881293
 20
-155.8061658681665
 10
118.3162922881293
 20
-155.8061658681665
 10
118.5701958253922
 20
-155.5860242666591
 10
118.6018907038565
 20
-155.253917061881
 10
118.6018907038565
 20
-154.9218098571029
 10
118.6018907038565
 20
-154.9218098571029
 10
118.6018907038565
 20
-154.4860052782188
 10
118.6018907038565
 20
-154.4860052782188
 10
118.6018907038565
 20
-154.4498317756237
 10
118.5998236465653
 20
-154.2172878303693
 10
118.5912109078522
 20
-154.1156575135544
 10
118.7310817845533
 20
-154.1263373095587
 10
118.9722384685208
 20
-154.1263373095587
 10
119.1158989502558
 20
-154.1263373095587
 10
119.1158989502558
 20
-154.1263373095587
 10
119.5751301784396
 20
-154.1263373095587
 10
119.5751301784396
 20
-154.1263373095587
 10
119.5899440890261
 20
-154.1263373095587
 10
119.9389322616819
 20
-154.1263373095587
 10
120.0974066540034
 20
-154.1156575135544
 10
120.0953395967123
 20
-154.1687119840273
 10
120.0891384248388
 20
-154.3292534336399
 10
120.0891384248388
 20
-154.3802408468216
 10
120.0891384248388
 20
-154.3802408468216
 10
120.0891384248388
 20
-154.9872666713226
 10
120.0891384248388
 20
-154.9872666713226
 10
120.0891384248388
 20
-155.0062146964915
 10
120.0994737112946
 20
-155.5774115279459
 10
120.0994737112946
 20
-155.6897216407651
 10
120.0994737112946
 20
-155.7469102258202
 10
120.0994737112946
 20
-155.8481960330866
 10
120.0171359291971
 20
-155.8947048221374
 97
        0
 97
        0
 92
        1
 93
        4
 72
     1
 10
119.2323431776572
 20
-154.3082383511799
 11
118.7944715414819
 21
-154.3082383511799
 72
     1
 10
118.7944715414819
 20
-154.3082383511799
 11
118.7944715414819
 21
-154.612784792076
 72
     1
 10
118.7944715414819
 20
-154.612784792076
 11
119.2323431776572
 21
-154.612784792076
 72
     1
 10
119.2323431776572
 20
-154.612784792076
 11
119.2323431776572
 21
-154.3082383511799
 97
        0
 92
        1
 93
        4
 72
     1
 10
119.2323431776572
 20
-154.7798719231106
 11
118.7944715414819
 21
-154.7798719231106
 72
     1
 10
118.7944715414819
 20
-154.7798719231106
 11
118.7944715414819
 21
-155.0888969881375
 72
     1
 10
118.7944715414819
 20
-155.0888969881375
 11
119.2323431776572
 21
-155.0888969881375
 72
     1
 10
119.2323431776572
 20
-155.0888969881375
 11
119.2323431776572
 21
-154.7798719231106
 97
        0
 92
        1
 93
        4
 72
     1
 10
119.8817436766268
 20
-154.3082383511799
 11
119.422512448443
 21
-154.3082383511799
 72
     1
 10
119.422512448443
 20
-154.3082383511799
 11
119.422512448443
 21
-154.612784792076
 72
     1
 10
119.422512448443
 20
-154.612784792076
 11
119.8817436766268
 21
-154.612784792076
 72
     1
 10
119.8817436766268
 20
-154.612784792076
 11
119.8817436766268
 21
-154.3082383511799
 97
        0
 92
        1
 93
        4
 72
     1
 10
119.8817436766268
 20
-154.7798719231106
 11
119.422512448443
 21
-154.7798719231106
 72
     1
 10
119.422512448443
 20
-154.7798719231106
 11
119.422512448443
 21
-155.0888969881375
 72
     1
 10
119.422512448443
 20
-155.0888969881375
 11
119.8817436766268
 21
-155.0888969881375
 72
     1
 10
119.8817436766268
 20
-155.0888969881375
 11
119.8817436766268
 21
-154.7798719231106
 97
        0
 75
     2
 76
     1
 98
        0
  0
ENDBLK
  5
19B
330
198
100
AcDbEntity
  8
0
100
AcDbBlockEnd
  0
BLOCK
  5
1CB
330
1C9
100
AcDbEntity
  8
0
100
AcDbBlockBegin
  2
block 8
 70
     0
 10
0.0
 20
0.0
 30
0.0
  3
block 8
  1

  0
SPLINE
  5
1CD
330
1C9
100
AcDbEntity
  8
_U+30EC_U+30A4_U+30E4_U+30FC 1
370
     0
100
AcDbSpline
210
0.0
220
0.0
230
1.0
 70
    11
 71
     3
 72
    44
 73
    40
 74
     0
 42
0.0000000001
 43
0.0000000001
 12
1.0
 22
0.0
 32
0.0
 13
1.0
 23
0.0
 33
0.0
 40
0.0
 40
0.0
 40
0.0
 40
0.0
 40
1.0
 40
1.0
 40
1.0
 40
2.0
 40
2.0
 40
2.0
 40
3.0
 40
3.0
 40
3.0
 40
4.0
 40
4.0
 40
4.0
 40
5.0
 40
5.0
 40
5.0
 40
6.0
 40
6.0
 40
6.0
 40
7.0
 40
7.0
 40
7.0
 40
8.0
 40
8.0
 40
8.0
 40
9.0
 40
9.0
 40
9.0
 40
10.0
 40
10.0
 40
10.0
 40
11.0
 40
11.0
 40
11.0
 40
12.0
 40
12.0
 40
12.0
 40
13.0
 40
13.0
 40
13.0
 40
13.0
 10
115.5660725622543
 20
-157.184548571815
 30
0.0
 10
115.4541069589837
 20
-157.5528292791882
 30
0.0
 10
115.4034640553505
 20
-157.7113036715097
 30
0.0
 10
115.2067491031428
 20
-157.9610730941903
 30
0.0
 10
115.0224364946819
 20
-158.1915499821535
 30
0.0
 10
114.7857584348452
 20
-158.3779296479055
 30
0.0
 10
114.5063611909915
 20
-158.4709472260073
 30
0.0
 10
114.5063611909915
 20
-158.4709472260073
 30
0.0
 10
114.313780353366
 20
-158.2911132416772
 30
0.0
 10
114.313780353366
 20
-158.2911132416772
 30
0.0
 10
114.954912623171
 20
-158.1388400212292
 30
0.0
 10
115.2849527706579
 20
-157.5824571003613
 30
0.0
 10
115.3483425275865
 20
-157.1425184068949
 30
0.0
 10
115.3483425275865
 20
-157.1425184068949
 30
0.0
 10
114.5824978012155
 20
-157.1425184068949
 30
0.0
 10
114.5824978012155
 20
-157.1425184068949
 30
0.0
 10
114.4894802231137
 20
-157.1425184068949
 30
0.0
 10
114.3055121242014
 20
-157.1466525214772
 30
0.0
 10
114.1487602796225
 20
-157.1656005466461
 30
0.0
 10
114.1487602796225
 20
-157.1656005466461
 30
0.0
 10
114.1487602796225
 20
-156.9454589451387
 30
0.0
 10
114.1487602796225
 20
-156.9454589451387
 30
0.0
 10
114.2355766858508
 20
-156.9668185371472
 30
0.0
 10
114.4874131658226
 20
-156.9668185371472
 30
0.0
 10
114.5866319157978
 20
-156.9668185371472
 30
0.0
 10
114.5866319157978
 20
-156.9668185371472
 30
0.0
 10
115.0183023800996
 20
-156.9668185371472
 30
0.0
 10
115.0183023800996
 20
-156.9668185371472
 30
0.0
 10
115.0606770545682
 20
-156.9668185371472
 30
0.0
 10
115.2952880571137
 20
-156.964751479856
 30
0.0
 10
115.333528617
 20
-156.9582057984341
 30
0.0
 10
115.3759032914685
 20
-156.9520046265606
 30
0.0
 10
115.3779703487597
 20
-156.9499375692695
 30
0.0
 10
115.4392930483971
 20
-156.909629952092
 30
0.0
 10
115.4392930483971
 20
-156.909629952092
 30
0.0
 10
115.6277397714403
 20
-157.0639702298312
 30
0.0
 10
115.6277397714403
 20
-157.0639702298312
 30
0.0
 10
115.5981119502671
 20
-157.0935980510044
 30
0.0
 10
115.5832980396806
 20
-157.1252929294687
 30
0.0
 10
115.5660725622543
 20
-157.184548571815
 30
0.0
  0
SPLINE
  5
1CE
330
1C9
100
AcDbEntity
  8
_U+30EC_U+30A4_U+30E4_U+30FC 1
370
     0
100
AcDbSpline
210
0.0
220
0.0
230
1.0
 70
    11
 71
     3
 72
    17
 73
    13
 74
     0
 42
0.0000000001
 43
0.0000000001
 12
1.0
 22
0.0
 32
0.0
 13
1.0
 23
0.0
 33
0.0
 40
0.0
 40
0.0
 40
0.0
 40
0.0
 40
1.0
 40
1.0
 40
1.0
 40
2.0
 40
2.0
 40
2.0
 40
3.0
 40
3.0
 40
3.0
 40
4.0
 40
4.0
 40
4.0
 40
4.0
 10
115.7755343677575
 20
-156.9857665623161
 30
0.0
 10
115.6487548539003
 20
-156.9857665623161
 30
0.0
 10
115.5471245370855
 20
-156.8841362455012
 30
0.0
 10
115.5471245370855
 20
-156.757356731644
 30
0.0
 10
115.5471245370855
 20
-156.6305772177868
 30
0.0
 10
115.6487548539003
 20
-156.5268798436808
 30
0.0
 10
115.7755343677575
 20
-156.5268798436808
 30
0.0
 10
115.9026583911632
 20
-156.5268798436808
 30
0.0
 10
116.0063557652692
 20
-156.6305772177868
 30
0.0
 10
116.0063557652692
 20
-156.757356731644
 30
0.0
 10
116.0063557652692
 20
-156.8841362455012
 30
0.0
 10
115.9026583911632
 20
-156.9857665623161
 30
0.0
 10
115.7755343677575
 20
-156.9857665623161
 30
0.0
  0
SPLINE
  5
1CF
330
1C9
100
AcDbEntity
  8
_U+30EC_U+30A4_U+30E4_U+30FC 1
370
     0
100
AcDbSpline
210
0.0
220
0.0
230
1.0
 70
    11
 71
     3
 72
    17
 73
    13
 74
     0
 42
0.0000000001
 43
0.0000000001
 12
1.0
 22
0.0
 32
0.0
 13
1.0
 23
0.0
 33
0.0
 40
0.0
 40
0.0
 40
0.0
 40
0.0
 40
1.0
 40
1.0
 40
1.0
 40
2.0
 40
2.0
 40
2.0
 40
3.0
 40
3.0
 40
3.0
 40
4.0
 40
4.0
 40
4.0
 40
4.0
 10
115.7734673104664
 20
-156.6557264148291
 30
0.0
 10
115.7186902922509
 20
-156.6557264148291
 30
0.0
 10
115.6742485604912
 20
-156.7001681465889
 30
0.0
 10
115.6742485604912
 20
-156.7552896743528
 30
0.0
 10
115.6742485604912
 20
-156.812478259408
 30
0.0
 10
115.7186902922509
 20
-156.86105410575
 30
0.0
 10
115.7776014250487
 20
-156.86105410575
 30
0.0
 10
115.836857067395
 20
-156.86105410575
 30
0.0
 10
115.8771646845724
 20
-156.8100666925683
 30
0.0
 10
115.8771646845724
 20
-156.757356731644
 30
0.0
 10
115.8771646845724
 20
-156.7001681465889
 30
0.0
 10
115.8306558955215
 20
-156.6557264148291
 30
0.0
 10
115.7734673104664
 20
-156.6557264148291
 30
0.0
  0
HATCH
  5
1D0
330
1C9
100
AcDbEntity
  8
_U+30EC_U+30A4_U+30E4_U+30FC 1
 62
   179
420
  2234388
100
AcDbHatch
 10
0.0
 20
0.0
 30
0.0
210
0.0
220
0.0
230
1.0
  2
SOLID
 70
     1
 71
     0
 91
        3
 92
        1
 93
        1
 72
     4
 94
        3
 73
     0
 74
     1
 95
       44
 96
       40
 40
0.0
 40
0.0
 40
0.0
 40
0.0
 40
1.0
 40
1.0
 40
1.0
 40
2.0
 40
2.0
 40
2.0
 40
3.0
 40
3.0
 40
3.0
 40
4.0
 40
4.0
 40
4.0
 40
5.0
 40
5.0
 40
5.0
 40
6.0
 40
6.0
 40
6.0
 40
7.0
 40
7.0
 40
7.0
 40
8.0
 40
8.0
 40
8.0
 40
9.0
 40
9.0
 40
9.0
 40
10.0
 40
10.0
 40
10.0
 40
11.0
 40
11.0
 40
11.0
 40
12.0
 40
12.0
 40
12.0
 40
13.0
 40
13.0
 40
13.0
 40
13.0
 10
115.5660725622543
 20
-157.184548571815
 10
115.4541069589837
 20
-157.5528292791882
 10
115.4034640553505
 20
-157.7113036715097
 10
115.2067491031428
 20
-157.9610730941903
 10
115.0224364946819
 20
-158.1915499821535
 10
114.7857584348452
 20
-158.3779296479055
 10
114.5063611909915
 20
-158.4709472260073
 10
114.5063611909915
 20
-158.4709472260073
 10
114.313780353366
 20
-158.2911132416772
 10
114.313780353366
 20
-158.2911132416772
 10
114.954912623171
 20
-158.1388400212292
 10
115.2849527706579
 20
-157.5824571003613
 10
115.3483425275865
 20
-157.1425184068949
 10
115.3483425275865
 20
-157.1425184068949
 10
114.5824978012155
 20
-157.1425184068949
 10
114.5824978012155
 20
-157.1425184068949
 10
114.4894802231137
 20
-157.1425184068949
 10
114.3055121242014
 20
-157.1466525214772
 10
114.1487602796225
 20
-157.1656005466461
 10
114.1487602796225
 20
-157.1656005466461
 10
114.1487602796225
 20
-156.9454589451387
 10
114.1487602796225
 20
-156.9454589451387
 10
114.2355766858508
 20
-156.9668185371472
 10
114.4874131658226
 20
-156.9668185371472
 10
114.5866319157978
 20
-156.9668185371472
 10
114.5866319157978
 20
-156.9668185371472
 10
115.0183023800996
 20
-156.9668185371472
 10
115.0183023800996
 20
-156.9668185371472
 10
115.0606770545682
 20
-156.9668185371472
 10
115.2952880571137
 20
-156.964751479856
 10
115.333528617
 20
-156.9582057984341
 10
115.3759032914685
 20
-156.9520046265606
 10
115.3779703487597
 20
-156.9499375692695
 10
115.4392930483971
 20
-156.909629952092
 10
115.4392930483971
 20
-156.909629952092
 10
115.6277397714403
 20
-157.0639702298312
 10
115.6277397714403
 20
-157.0639702298312
 10
115.5981119502671
 20
-157.0935980510044
 10
115.5832980396806
 20
-157.1252929294687
 10
115.5660725622543
 20
-157.184548571815
 97
        0
 97
        0
 92
        1
 93
        1
 72
     4
 94
        3
 73
     0
 74
     1
 95
       17
 96
       13
 40
0.0
 40
0.0
 40
0.0
 40
0.0
 40
1.0
 40
1.0
 40
1.0
 40
2.0
 40
2.0
 40
2.0
 40
3.0
 40
3.0
 40
3.0
 40
4.0
 40
4.0
 40
4.0
 40
4.0
 10
115.7755343677575
 20
-156.9857665623161
 10
115.6487548539003
 20
-156.9857665623161
 10
115.5471245370855
 20
-156.8841362455012
 10
115.5471245370855
 20
-156.757356731644
 10
115.5471245370855
 20
-156.6305772177868
 10
115.6487548539003
 20
-156.5268798436808
 10
115.7755343677575
 20
-156.5268798436808
 10
115.9026583911632
 20
-156.5268798436808
 10
116.0063557652692
 20
-156.6305772177868
 10
116.0063557652692
 20
-156.757356731644
 10
116.0063557652692
 20
-156.8841362455012
 10
115.9026583911632
 20
-156.9857665623161
 10
115.7755343677575
 20
-156.9857665623161
 97
        0
 97
        0
 92
        1
 93
        1
 72
     4
 94
        3
 73
     0
 74
     1
 95
       17
 96
       13
 40
0.0
 40
0.0
 40
0.0
 40
0.0
 40
1.0
 40
1.0
 40
1.0
 40
2.0
 40
2.0
 40
2.0
 40
3.0
 40
3.0
 40
3.0
 40
4.0
 40
4.0
 40
4.0
 40
4.0
 10
115.7734673104664
 20
-156.6557264148291
 10
115.7186902922509
 20
-156.6557264148291
 10
115.6742485604912
 20
-156.7001681465889
 10
115.6742485604912
 20
-156.7552896743528
 10
115.6742485604912
 20
-156.812478259408
 10
115.7186902922509
 20
-156.86105410575
 10
115.7776014250487
 20
-156.86105410575
 10
115.836857067395
 20
-156.86105410575
 10
115.8771646845724
 20
-156.8100666925683
 10
115.8771646845724
 20
-156.757356731644
 10
115.8771646845724
 20
-156.7001681465889
 10
115.8306558955215
 20
-156.6557264148291
 10
115.7734673104664
 20
-156.6557264148291
 97
        0
 97
        0
 75
     2
 76
     1
 98
        0
  0
SPLINE
  5
1D1
330
1C9
100
AcDbEntity
  8
_U+30EC_U+30A4_U+30E4_U+30FC 1
370
     0
100
AcDbSpline
210
0.0
220
0.0
230
1.0
 70
    11
 71
     3
 72
    50
 73
    46
 74
     0
 42
0.0000000001
 43
0.0000000001
 12
1.0
 22
0.0
 32
0.0
 13
1.0
 23
0.0
 33
0.0
 40
0.0
 40
0.0
 40
0.0
 40
0.0
 40
1.0
 40
1.0
 40
1.0
 40
2.0
 40
2.0
 40
2.0
 40
3.0
 40
3.0
 40
3.0
 40
4.0
 40
4.0
 40
4.0
 40
5.0
 40
5.0
 40
5.0
 40
6.0
 40
6.0
 40
6.0
 40
7.0
 40
7.0
 40
7.0
 40
8.0
 40
8.0
 40
8.0
 40
9.0
 40
9.0
 40
9.0
 40
10.0
 40
10.0
 40
10.0
 40
11.0
 40
11.0
 40
11.0
 40
12.0
 40
12.0
 40
12.0
 40
13.0
 40
13.0
 40
13.0
 40
14.0
 40
14.0
 40
14.0
 40
15.0
 40
15.0
 40
15.0
 40
15.0
 10
117.5707736251212
 20
-157.4935736368419
 30
0.0
 10
117.4922254480575
 20
-157.6713405638808
 30
0.0
 10
117.3568331954872
 20
-157.8783908025443
 30
0.0
 10
117.2193738856257
 20
-158.0182616792455
 30
0.0
 10
117.0502196973
 20
-158.1894829248623
 30
0.0
 10
116.8872666808476
 20
-158.2783663883818
 30
0.0
 10
116.567906329365
 20
-158.4199598128256
 30
0.0
 10
116.567906329365
 20
-158.4199598128256
 30
0.0
 10
116.3987521410392
 20
-158.2318575993309
 30
0.0
 10
116.3987521410392
 20
-158.2318575993309
 30
0.0
 10
116.5847872972427
 20
-158.2084309500312
 30
0.0
 10
116.7560085428596
 20
-158.1219590533515
 30
0.0
 10
116.9086262728562
 20
-158.0161946219543
 30
0.0
 10
117.1707980392837
 20
-157.8342935803331
 30
0.0
 10
117.361311819618
 20
-157.5211344007239
 30
0.0
 10
117.40988766596
 20
-157.3392333591027
 30
0.0
 10
117.40988766596
 20
-157.3392333591027
 30
0.0
 10
116.7391275749819
 20
-157.3392333591027
 30
0.0
 10
116.7391275749819
 20
-157.3392333591027
 30
0.0
 10
116.5806531826604
 20
-157.3392333591027
 30
0.0
 10
116.2885090855112
 20
-157.3475015882673
 30
0.0
 10
116.1362358650632
 20
-157.364382556145
 30
0.0
 10
116.1362358650632
 20
-157.364382556145
 30
0.0
 10
116.1362358650632
 20
-157.135972725473
 30
0.0
 10
116.1362358650632
 20
-157.135972725473
 30
0.0
 10
116.1703423103671
 20
-157.1425184068949
 30
0.0
 10
116.1954915074095
 20
-157.1487195787684
 30
0.0
 10
116.2485459778823
 20
-157.1528536933507
 30
0.0
 10
116.3498317851487
 20
-157.1593993747726
 30
0.0
 10
116.5468912469049
 20
-157.1614664320638
 30
0.0
 10
116.6312960862936
 20
-157.1614664320638
 30
0.0
 10
116.6312960862936
 20
-157.1614664320638
 30
0.0
 10
117.1370361035282
 20
-157.1614664320638
 30
0.0
 10
117.1370361035282
 20
-157.1614664320638
 30
0.0
 10
117.2045599750391
 20
-157.1614664320638
 30
0.0
 10
117.3506320236137
 20
-157.1573323174815
 30
0.0
 10
117.4119547232512
 20
-157.1507866360595
 30
0.0
 10
117.4839572188929
 20
-157.1425184068949
 30
0.0
 10
117.5115179827749
 20
-157.1277044963084
 30
0.0
 10
117.5452799185304
 20
-157.1042778470087
 30
0.0
 10
117.5452799185304
 20
-157.1042778470087
 30
0.0
 10
117.7102999922738
 20
-157.2713649780433
 30
0.0
 10
117.7102999922738
 20
-157.2713649780433
 30
0.0
 10
117.6403645539232
 20
-157.3392333591027
 30
0.0
 10
117.5938557648724
 20
-157.4429307332087
 30
0.0
 10
117.5707736251212
 20
-157.4935736368419
 30
0.0
  0
SPLINE
  5
1D2
330
1C9
100
AcDbEntity
  8
_U+30EC_U+30A4_U+30E4_U+30FC 1
370
     0
100
AcDbSpline
210
0.0
220
0.0
230
1.0
 70
    11
 71
     3
 72
    29
 73
    25
 74
     0
 42
0.0000000001
 43
0.0000000001
 12
1.0
 22
0.0
 32
0.0
 13
1.0
 23
0.0
 33
0.0
 40
0.0
 40
0.0
 40
0.0
 40
0.0
 40
1.0
 40
1.0
 40
1.0
 40
2.0
 40
2.0
 40
2.0
 40
3.0
 40
3.0
 40
3.0
 40
4.0
 40
4.0
 40
4.0
 40
5.0
 40
5.0
 40
5.0
 40
6.0
 40
6.0
 40
6.0
 40
7.0
 40
7.0
 40
7.0
 40
8.0
 40
8.0
 40
8.0
 40
8.0
 10
117.0777804611819
 20
-156.8672552776235
 30
0.0
 10
117.0777804611819
 20
-156.8672552776235
 30
0.0
 10
116.7370605176907
 20
-156.8672552776235
 30
0.0
 10
116.7370605176907
 20
-156.8672552776235
 30
0.0
 10
116.623027857129
 20
-156.8672552776235
 30
0.0
 10
116.5065836297275
 20
-156.8717339017543
 30
0.0
 10
116.3922064596172
 20
-156.8865478123409
 30
0.0
 10
116.3922064596172
 20
-156.8865478123409
 30
0.0
 10
116.3922064596172
 20
-156.6770860068377
 30
0.0
 10
116.3922064596172
 20
-156.6770860068377
 30
0.0
 10
116.5107177443098
 20
-156.6918999174243
 30
0.0
 10
116.6843505567664
 20
-156.6960340320066
 30
0.0
 10
116.7370605176907
 20
-156.6960340320066
 30
0.0
 10
116.7370605176907
 20
-156.6960340320066
 30
0.0
 10
117.0777804611819
 20
-156.6960340320066
 30
0.0
 10
117.0777804611819
 20
-156.6960340320066
 30
0.0
 10
117.1942246885834
 20
-156.6960340320066
 30
0.0
 10
117.3103244064363
 20
-156.6918999174243
 30
0.0
 10
117.4267686338378
 20
-156.6770860068377
 30
0.0
 10
117.4267686338378
 20
-156.6770860068377
 30
0.0
 10
117.4267686338378
 20
-156.8865478123409
 30
0.0
 10
117.4267686338378
 20
-156.8865478123409
 30
0.0
 10
117.2765624706809
 20
-156.8672552776235
 30
0.0
 10
117.0925943717685
 20
-156.8672552776235
 30
0.0
 10
117.0777804611819
 20
-156.8672552776235
 30
0.0
  0
HATCH
  5
1D3
330
1C9
100
AcDbEntity
  8
_U+30EC_U+30A4_U+30E4_U+30FC 1
 62
   179
420
  2234388
100
AcDbHatch
 10
0.0
 20
0.0
 30
0.0
210
0.0
220
0.0
230
1.0
  2
SOLID
 70
     1
 71
     0
 91
        2
 92
        1
 93
        1
 72
     4
 94
        3
 73
     0
 74
     1
 95
       50
 96
       46
 40
0.0
 40
0.0
 40
0.0
 40
0.0
 40
1.0
 40
1.0
 40
1.0
 40
2.0
 40
2.0
 40
2.0
 40
3.0
 40
3.0
 40
3.0
 40
4.0
 40
4.0
 40
4.0
 40
5.0
 40
5.0
 40
5.0
 40
6.0
 40
6.0
 40
6.0
 40
7.0
 40
7.0
 40
7.0
 40
8.0
 40
8.0
 40
8.0
 40
9.0
 40
9.0
 40
9.0
 40
10.0
 40
10.0
 40
10.0
 40
11.0
 40
11.0
 40
11.0
 40
12.0
 40
12.0
 40
12.0
 40
13.0
 40
13.0
 40
13.0
 40
14.0
 40
14.0
 40
14.0
 40
15.0
 40
15.0
 40
15.0
 40
15.0
 10
117.5707736251212
 20
-157.4935736368419
 10
117.4922254480575
 20
-157.6713405638808
 10
117.3568331954872
 20
-157.8783908025443
 10
117.2193738856257
 20
-158.0182616792455
 10
117.0502196973
 20
-158.1894829248623
 10
116.8872666808476
 20
-158.2783663883818
 10
116.567906329365
 20
-158.4199598128256
 10
116.567906329365
 20
-158.4199598128256
 10
116.3987521410392
 20
-158.2318575993309
 10
116.3987521410392
 20
-158.2318575993309
 10
116.5847872972427
 20
-158.2084309500312
 10
116.7560085428596
 20
-158.1219590533515
 10
116.9086262728562
 20
-158.0161946219543
 10
117.1707980392837
 20
-157.8342935803331
 10
117.361311819618
 20
-157.5211344007239
 10
117.40988766596
 20
-157.3392333591027
 10
117.40988766596
 20
-157.3392333591027
 10
116.7391275749819
 20
-157.3392333591027
 10
116.7391275749819
 20
-157.3392333591027
 10
116.5806531826604
 20
-157.3392333591027
 10
116.2885090855112
 20
-157.3475015882673
 10
116.1362358650632
 20
-157.364382556145
 10
116.1362358650632
 20
-157.364382556145
 10
116.1362358650632
 20
-157.135972725473
 10
116.1362358650632
 20
-157.135972725473
 10
116.1703423103671
 20
-157.1425184068949
 10
116.1954915074095
 20
-157.1487195787684
 10
116.2485459778823
 20
-157.1528536933507
 10
116.3498317851487
 20
-157.1593993747726
 10
116.5468912469049
 20
-157.1614664320638
 10
116.6312960862936
 20
-157.1614664320638
 10
116.6312960862936
 20
-157.1614664320638
 10
117.1370361035282
 20
-157.1614664320638
 10
117.1370361035282
 20
-157.1614664320638
 10
117.2045599750391
 20
-157.1614664320638
 10
117.3506320236137
 20
-157.1573323174815
 10
117.4119547232512
 20
-157.1507866360595
 10
117.4839572188929
 20
-157.1425184068949
 10
117.5115179827749
 20
-157.1277044963084
 10
117.5452799185304
 20
-157.1042778470087
 10
117.5452799185304
 20
-157.1042778470087
 10
117.7102999922738
 20
-157.2713649780433
 10
117.7102999922738
 20
-157.2713649780433
 10
117.6403645539232
 20
-157.3392333591027
 10
117.5938557648724
 20
-157.4429307332087
 10
117.5707736251212
 20
-157.4935736368419
 97
        0
 97
        0
 92
        1
 93
        1
 72
     4
 94
        3
 73
     0
 74
     1
 95
       29
 96
       25
 40
0.0
 40
0.0
 40
0.0
 40
0.0
 40
1.0
 40
1.0
 40
1.0
 40
2.0
 40
2.0
 40
2.0
 40
3.0
 40
3.0
 40
3.0
 40
4.0
 40
4.0
 40
4.0
 40
5.0
 40
5.0
 40
5.0
 40
6.0
 40
6.0
 40
6.0
 40
7.0
 40
7.0
 40
7.0
 40
8.0
 40
8.0
 40
8.0
 40
8.0
 10
117.0777804611819
 20
-156.8672552776235
 10
117.0777804611819
 20
-156.8672552776235
 10
116.7370605176907
 20
-156.8672552776235
 10
116.7370605176907
 20
-156.8672552776235
 10
116.623027857129
 20
-156.8672552776235
 10
116.5065836297275
 20
-156.8717339017543
 10
116.3922064596172
 20
-156.8865478123409
 10
116.3922064596172
 20
-156.8865478123409
 10
116.3922064596172
 20
-156.6770860068377
 10
116.3922064596172
 20
-156.6770860068377
 10
116.5107177443098
 20
-156.6918999174243
 10
116.6843505567664
 20
-156.6960340320066
 10
116.7370605176907
 20
-156.6960340320066
 10
116.7370605176907
 20
-156.6960340320066
 10
117.0777804611819
 20
-156.6960340320066
 10
117.0777804611819
 20
-156.6960340320066
 10
117.1942246885834
 20
-156.6960340320066
 10
117.3103244064363
 20
-156.6918999174243
 10
117.4267686338378
 20
-156.6770860068377
 10
117.4267686338378
 20
-156.6770860068377
 10
117.4267686338378
 20
-156.8865478123409
 10
117.4267686338378
 20
-156.8865478123409
 10
117.2765624706809
 20
-156.8672552776235
 10
117.0925943717685
 20
-156.8672552776235
 10
117.0777804611819
 20
-156.8672552776235
 97
        0
 97
        0
 75
     2
 76
     1
 98
        0
  0
SPLINE
  5
1D4
330
1C9
100
AcDbEntity
  8
_U+30EC_U+30A4_U+30E4_U+30FC 1
370
     0
100
AcDbSpline
210
0.0
220
0.0
230
1.0
 70
    11
 71
     3
 72
    50
 73
    46
 74
     0
 42
0.0000000001
 43
0.0000000001
 12
1.0
 22
0.0
 32
0.0
 13
1.0
 23
0.0
 33
0.0
 40
0.0
 40
0.0
 40
0.0
 40
0.0
 40
1.0
 40
1.0
 40
1.0
 40
2.0
 40
2.0
 40
2.0
 40
3.0
 40
3.0
 40
3.0
 40
4.0
 40
4.0
 40
4.0
 40
5.0
 40
5.0
 40
5.0
 40
6.0
 40
6.0
 40
6.0
 40
7.0
 40
7.0
 40
7.0
 40
8.0
 40
8.0
 40
8.0
 40
9.0
 40
9.0
 40
9.0
 40
10.0
 40
10.0
 40
10.0
 40
11.0
 40
11.0
 40
11.0
 40
12.0
 40
12.0
 40
12.0
 40
13.0
 40
13.0
 40
13.0
 40
14.0
 40
14.0
 40
14.0
 40
15.0
 40
15.0
 40
15.0
 40
15.0
 10
119.2809190239992
 20
-156.8524413670369
 30
0.0
 10
119.071457218496
 20
-157.0660372871224
 30
0.0
 10
118.9997992324028
 20
-157.1380397827641
 30
0.0
 10
118.8578612984105
 20
-157.2565510674567
 30
0.0
 10
118.8578612984105
 20
-157.2565510674567
 30
0.0
 10
118.8578612984105
 20
-157.8236137843288
 30
0.0
 10
118.8578612984105
 20
-157.8236137843288
 30
0.0
 10
118.8578612984105
 20
-157.9738199474857
 30
0.0
 10
118.8644069798325
 20
-157.9927679726546
 30
0.0
 10
118.8685410944148
 20
-158.1705348996935
 30
0.0
 10
118.870608151706
 20
-158.3017930376815
 30
0.0
 10
118.8768093235794
 20
-158.3503688840235
 30
0.0
 10
118.8833550050014
 20
-158.4096245263698
 30
0.0
 10
118.8833550050014
 20
-158.4096245263698
 30
0.0
 10
118.6570122316205
 20
-158.4096245263698
 30
0.0
 10
118.6570122316205
 20
-158.4096245263698
 30
0.0
 10
118.6611463462028
 20
-158.3651827946101
 30
0.0
 10
118.6652804607851
 20
-158.3186740055592
 30
0.0
 10
118.6652804607851
 20
-158.3100612668461
 30
0.0
 10
118.6652804607851
 20
-158.2297905420398
 30
0.0
 10
118.6697590849159
 20
-157.8783908025443
 30
0.0
 10
118.6697590849159
 20
-157.8067328164511
 30
0.0
 10
118.6697590849159
 20
-157.8067328164511
 30
0.0
 10
118.6697590849159
 20
-157.4005560587401
 30
0.0
 10
118.6697590849159
 20
-157.4005560587401
 30
0.0
 10
118.4878580432947
 20
-157.5252685153062
 30
0.0
 10
118.2932101483781
 20
-157.6351670612857
 30
0.0
 10
118.0899495147484
 20
-157.721983467514
 30
0.0
 10
118.0899495147484
 20
-157.721983467514
 30
0.0
 10
117.8870333906671
 20
-157.5590304510616
 30
0.0
 10
117.8870333906671
 20
-157.5590304510616
 30
0.0
 10
118.009678789942
 20
-157.5232014580151
 30
0.0
 10
118.2656493844961
 20
-157.4491319050822
 30
0.0
 10
118.6105034425696
 20
-157.1931613105281
 30
0.0
 10
118.8261664199462
 20
-157.0343424086581
 30
0.0
 10
119.0187472575717
 20
-156.8462401951635
 30
0.0
 10
119.1710204780198
 20
-156.626098593656
 30
0.0
 10
119.1710204780198
 20
-156.626098593656
 30
0.0
 10
119.3636013156452
 20
-156.7701035849394
 30
0.0
 10
119.3636013156452
 20
-156.7701035849394
 30
0.0
 10
119.3763481689406
 20
-156.7807833809437
 30
0.0
 10
119.3846163981052
 20
-156.7952527819818
 30
0.0
 10
119.3846163981052
 20
-156.8079996352772
 30
0.0
 10
119.3846163981052
 20
-156.8483072524546
 30
0.0
 10
119.3467203477675
 20
-156.8483072524546
 30
0.0
 10
119.2809190239992
 20
-156.8524413670369
 30
0.0
  0
HATCH
  5
1D5
330
1C9
100
AcDbEntity
  8
_U+30EC_U+30A4_U+30E4_U+30FC 1
 62
   179
420
  2234388
100
AcDbHatch
 10
0.0
 20
0.0
 30
0.0
210
0.0
220
0.0
230
1.0
  2
SOLID
 70
     1
 71
     0
 91
        1
 92
        1
 93
        1
 72
     4
 94
        3
 73
     0
 74
     1
 95
       50
 96
       46
 40
0.0
 40
0.0
 40
0.0
 40
0.0
 40
1.0
 40
1.0
 40
1.0
 40
2.0
 40
2.0
 40
2.0
 40
3.0
 40
3.0
 40
3.0
 40
4.0
 40
4.0
 40
4.0
 40
5.0
 40
5.0
 40
5.0
 40
6.0
 40
6.0
 40
6.0
 40
7.0
 40
7.0
 40
7.0
 40
8.0
 40
8.0
 40
8.0
 40
9.0
 40
9.0
 40
9.0
 40
10.0
 40
10.0
 40
10.0
 40
11.0
 40
11.0
 40
11.0
 40
12.0
 40
12.0
 40
12.0
 40
13.0
 40
13.0
 40
13.0
 40
14.0
 40
14.0
 40
14.0
 40
15.0
 40
15.0
 40
15.0
 40
15.0
 10
119.2809190239992
 20
-156.8524413670369
 10
119.071457218496
 20
-157.0660372871224
 10
118.9997992324028
 20
-157.1380397827641
 10
118.8578612984105
 20
-157.2565510674567
 10
118.8578612984105
 20
-157.2565510674567
 10
118.8578612984105
 20
-157.8236137843288
 10
118.8578612984105
 20
-157.8236137843288
 10
118.8578612984105
 20
-157.9738199474857
 10
118.8644069798325
 20
-157.9927679726546
 10
118.8685410944148
 20
-158.1705348996935
 10
118.870608151706
 20
-158.3017930376815
 10
118.8768093235794
 20
-158.3503688840235
 10
118.8833550050014
 20
-158.4096245263698
 10
118.8833550050014
 20
-158.4096245263698
 10
118.6570122316205
 20
-158.4096245263698
 10
118.6570122316205
 20
-158.4096245263698
 10
118.6611463462028
 20
-158.3651827946101
 10
118.6652804607851
 20
-158.3186740055592
 10
118.6652804607851
 20
-158.3100612668461
 10
118.6652804607851
 20
-158.2297905420398
 10
118.6697590849159
 20
-157.8783908025443
 10
118.6697590849159
 20
-157.8067328164511
 10
118.6697590849159
 20
-157.8067328164511
 10
118.6697590849159
 20
-157.4005560587401
 10
118.6697590849159
 20
-157.4005560587401
 10
118.4878580432947
 20
-157.5252685153062
 10
118.2932101483781
 20
-157.6351670612857
 10
118.0899495147484
 20
-157.721983467514
 10
118.0899495147484
 20
-157.721983467514
 10
117.8870333906671
 20
-157.5590304510616
 10
117.8870333906671
 20
-157.5590304510616
 10
118.009678789942
 20
-157.5232014580151
 10
118.2656493844961
 20
-157.4491319050822
 10
118.6105034425696
 20
-157.1931613105281
 10
118.8261664199462
 20
-157.0343424086581
 10
119.0187472575717
 20
-156.8462401951635
 10
119.1710204780198
 20
-156.626098593656
 10
119.1710204780198
 20
-156.626098593656
 10
119.3636013156452
 20
-156.7701035849394
 10
119.3636013156452
 20
-156.7701035849394
 10
119.3763481689406
 20
-156.7807833809437
 10
119.3846163981052
 20
-156.7952527819818
 10
119.3846163981052
 20
-156.8079996352772
 10
119.3846163981052
 20
-156.8483072524546
 10
119.3467203477675
 20
-156.8483072524546
 10
119.2809190239992
 20
-156.8524413670369
 97
        0
 97
        0
 75
     2
 76
     1
 98
        0
  0
SPLINE
  5
1D6
330
1C9
100
AcDbEntity
  8
_U+30EC_U+30A4_U+30E4_U+30FC 1
370
     0
100
AcDbSpline
210
0.0
220
0.0
230
1.0
 70
    11
 71
     3
 72
    50
 73
    46
 74
     0
 42
0.0000000001
 43
0.0000000001
 12
1.0
 22
0.0
 32
0.0
 13
1.0
 23
0.0
 33
0.0
 40
0.0
 40
0.0
 40
0.0
 40
0.0
 40
1.0
 40
1.0
 40
1.0
 40
2.0
 40
2.0
 40
2.0
 40
3.0
 40
3.0
 40
3.0
 40
4.0
 40
4.0
 40
4.0
 40
5.0
 40
5.0
 40
5.0
 40
6.0
 40
6.0
 40
6.0
 40
7.0
 40
7.0
 40
7.0
 40
8.0
 40
8.0
 40
8.0
 40
9.0
 40
9.0
 40
9.0
 40
10.0
 40
10.0
 40
10.0
 40
11.0
 40
11.0
 40
11.0
 40
12.0
 40
12.0
 40
12.0
 40
13.0
 40
13.0
 40
13.0
 40
14.0
 40
14.0
 40
14.0
 40
15.0
 40
15.0
 40
15.0
 40
15.0
 10
120.9914089324258
 20
-157.3791964667316
 30
0.0
 10
120.9300862327883
 20
-157.4511989623733
 30
0.0
 10
120.6696370141034
 20
-157.7684922565648
 30
0.0
 10
120.6127929385968
 20
-157.8318820134934
 30
0.0
 10
120.6971977779854
 20
-157.929378215726
 30
0.0
 10
120.7481851911671
 20
-157.9927679726546
 30
0.0
 10
120.8136420053869
 20
-158.0837184934652
 30
0.0
 10
120.8136420053869
 20
-158.0837184934652
 30
0.0
 10
120.6296739064745
 20
-158.2211778033267
 30
0.0
 10
120.6296739064745
 20
-158.2211778033267
 30
0.0
 10
120.4942816539042
 20
-158.0096489405323
 30
0.0
 10
120.3227158987388
 20
-157.7853732244426
 30
0.0
 10
120.028849253847
 20
-157.5865912149436
 30
0.0
 10
120.028849253847
 20
-157.5865912149436
 30
0.0
 10
120.1769883597127
 20
-157.4322509372045
 30
0.0
 10
120.1769883597127
 20
-157.4322509372045
 30
0.0
 10
120.2868869056922
 20
-157.5125216620108
 30
0.0
 10
120.3905842797982
 20
-157.6014051255302
 30
0.0
 10
120.4877359724822
 20
-157.6964897609231
 30
0.0
 10
120.5556043535417
 20
-157.6203531506991
 30
0.0
 10
120.7585204776229
 20
-157.3771294094404
 30
0.0
 10
120.8918456729021
 20
-157.1487195787684
 30
0.0
 10
120.8918456729021
 20
-157.1487195787684
 30
0.0
 10
120.2190185246327
 20
-157.1487195787684
 30
0.0
 10
120.2190185246327
 20
-157.1487195787684
 30
0.0
 10
120.0943060680667
 20
-157.1487195787684
 30
0.0
 10
119.8424695880949
 20
-157.1573323174815
 30
0.0
 10
119.6330077825917
 20
-157.1676676039372
 30
0.0
 10
119.6330077825917
 20
-157.1676676039372
 30
0.0
 10
119.6330077825917
 20
-156.9478705119783
 30
0.0
 10
119.6330077825917
 20
-156.9478705119783
 30
0.0
 10
119.8173203910526
 20
-156.9668185371472
 30
0.0
 10
120.022303572425
 20
-156.9709526517295
 30
0.0
 10
120.2107502954681
 20
-156.9709526517295
 30
0.0
 10
120.2107502954681
 20
-156.9709526517295
 30
0.0
 10
120.7140787458631
 20
-156.9709526517295
 30
0.0
 10
120.7140787458631
 20
-156.9709526517295
 30
0.0
 10
121.0527316320632
 20
-156.9709526517295
 30
0.0
 10
121.0971733638229
 20
-156.9561387411429
 30
0.0
 10
121.1795111459204
 20
-156.9158311239655
 30
0.0
 10
121.1795111459204
 20
-156.9158311239655
 30
0.0
 10
121.346598276955
 20
-157.0746500258355
 30
0.0
 10
121.346598276955
 20
-157.0746500258355
 30
0.0
 10
121.194325056507
 20
-157.1466525214772
 30
0.0
 10
121.0506645747721
 20
-157.3096055379295
 30
0.0
 10
120.9914089324258
 20
-157.3791964667316
 30
0.0
  0
HATCH
  5
1D7
330
1C9
100
AcDbEntity
  8
_U+30EC_U+30A4_U+30E4_U+30FC 1
 62
   179
420
  2234388
100
AcDbHatch
 10
0.0
 20
0.0
 30
0.0
210
0.0
220
0.0
230
1.0
  2
SOLID
 70
     1
 71
     0
 91
        1
 92
        1
 93
        1
 72
     4
 94
        3
 73
     0
 74
     1
 95
       50
 96
       46
 40
0.0
 40
0.0
 40
0.0
 40
0.0
 40
1.0
 40
1.0
 40
1.0
 40
2.0
 40
2.0
 40
2.0
 40
3.0
 40
3.0
 40
3.0
 40
4.0
 40
4.0
 40
4.0
 40
5.0
 40
5.0
 40
5.0
 40
6.0
 40
6.0
 40
6.0
 40
7.0
 40
7.0
 40
7.0
 40
8.0
 40
8.0
 40
8.0
 40
9.0
 40
9.0
 40
9.0
 40
10.0
 40
10.0
 40
10.0
 40
11.0
 40
11.0
 40
11.0
 40
12.0
 40
12.0
 40
12.0
 40
13.0
 40
13.0
 40
13.0
 40
14.0
 40
14.0
 40
14.0
 40
15.0
 40
15.0
 40
15.0
 40
15.0
 10
120.9914089324258
 20
-157.3791964667316
 10
120.9300862327883
 20
-157.4511989623733
 10
120.6696370141034
 20
-157.7684922565648
 10
120.6127929385968
 20
-157.8318820134934
 10
120.6971977779854
 20
-157.929378215726
 10
120.7481851911671
 20
-157.9927679726546
 10
120.8136420053869
 20
-158.0837184934652
 10
120.8136420053869
 20
-158.0837184934652
 10
120.6296739064745
 20
-158.2211778033267
 10
120.6296739064745
 20
-158.2211778033267
 10
120.4942816539042
 20
-158.0096489405323
 10
120.3227158987388
 20
-157.7853732244426
 10
120.028849253847
 20
-157.5865912149436
 10
120.028849253847
 20
-157.5865912149436
 10
120.1769883597127
 20
-157.4322509372045
 10
120.1769883597127
 20
-157.4322509372045
 10
120.2868869056922
 20
-157.5125216620108
 10
120.3905842797982
 20
-157.6014051255302
 10
120.4877359724822
 20
-157.6964897609231
 10
120.5556043535417
 20
-157.6203531506991
 10
120.7585204776229
 20
-157.3771294094404
 10
120.8918456729021
 20
-157.1487195787684
 10
120.8918456729021
 20
-157.1487195787684
 10
120.2190185246327
 20
-157.1487195787684
 10
120.2190185246327
 20
-157.1487195787684
 10
120.0943060680667
 20
-157.1487195787684
 10
119.8424695880949
 20
-157.1573323174815
 10
119.6330077825917
 20
-157.1676676039372
 10
119.6330077825917
 20
-157.1676676039372
 10
119.6330077825917
 20
-156.9478705119783
 10
119.6330077825917
 20
-156.9478705119783
 10
119.8173203910526
 20
-156.9668185371472
 10
120.022303572425
 20
-156.9709526517295
 10
120.2107502954681
 20
-156.9709526517295
 10
120.2107502954681
 20
-156.9709526517295
 10
120.7140787458631
 20
-156.9709526517295
 10
120.7140787458631
 20
-156.9709526517295
 10
121.0527316320632
 20
-156.9709526517295
 10
121.0971733638229
 20
-156.9561387411429
 10
121.1795111459204
 20
-156.9158311239655
 10
121.1795111459204
 20
-156.9158311239655
 10
121.346598276955
 20
-157.0746500258355
 10
121.346598276955
 20
-157.0746500258355
 10
121.194325056507
 20
-157.1466525214772
 10
121.0506645747721
 20
-157.3096055379295
 10
120.9914089324258
 20
-157.3791964667316
 97
        0
 97
        0
 75
     2
 76
     1
 98
        0
  0
SPLINE
  5
1D8
330
1C9
100
AcDbEntity
  8
_U+30EC_U+30A4_U+30E4_U+30FC 1
370
     0
100
AcDbSpline
210
0.0
220
0.0
230
1.0
 70
    11
 71
     3
 72
    29
 73
    25
 74
     0
 42
0.0000000001
 43
0.0000000001
 12
1.0
 22
0.0
 32
0.0
 13
1.0
 23
0.0
 33
0.0
 40
0.0
 40
0.0
 40
0.0
 40
0.0
 40
1.0
 40
1.0
 40
1.0
 40
2.0
 40
2.0
 40
2.0
 40
3.0
 40
3.0
 40
3.0
 40
4.0
 40
4.0
 40
4.0
 40
5.0
 40
5.0
 40
5.0
 40
6.0
 40
6.0
 40
6.0
 40
7.0
 40
7.0
 40
7.0
 40
8.0
 40
8.0
 40
8.0
 40
8.0
 10
122.6147379250755
 20
-157.6224202079902
 30
0.0
 10
122.6147379250755
 20
-157.6224202079902
 30
0.0
 10
122.1303574998494
 20
-157.6224202079902
 30
0.0
 10
122.1303574998494
 20
-157.6224202079902
 30
0.0
 10
122.1027967359674
 20
-157.6224202079902
 30
0.0
 10
121.7855034417759
 20
-157.6224202079902
 30
0.0
 10
121.5739745789815
 20
-157.6479139145811
 30
0.0
 10
121.5739745789815
 20
-157.6479139145811
 30
0.0
 10
121.5739745789815
 20
-157.4174370266179
 30
0.0
 10
121.5739745789815
 20
-157.4174370266179
 30
0.0
 10
121.732448971303
 20
-157.4405191663691
 30
0.0
 10
121.9229627516373
 20
-157.4429307332087
 30
0.0
 10
122.1303574998494
 20
-157.4429307332087
 30
0.0
 10
122.1303574998494
 20
-157.4429307332087
 30
0.0
 10
122.6147379250755
 20
-157.4429307332087
 30
0.0
 10
122.6147379250755
 20
-157.4429307332087
 30
0.0
 10
122.800773081279
 20
-157.4429307332087
 30
0.0
 10
122.987152747031
 20
-157.4405191663691
 30
0.0
 10
123.1711208459433
 20
-157.4174370266179
 30
0.0
 10
123.1711208459433
 20
-157.4174370266179
 30
0.0
 10
123.1711208459433
 20
-157.6479139145811
 30
0.0
 10
123.1711208459433
 20
-157.6479139145811
 30
0.0
 10
122.987152747031
 20
-157.6248317748299
 30
0.0
 10
122.7394503816415
 20
-157.6224202079902
 30
0.0
 10
122.6147379250755
 20
-157.6224202079902
 30
0.0
  0
HATCH
  5
1D9
330
1C9
100
AcDbEntity
  8
_U+30EC_U+30A4_U+30E4_U+30FC 1
 62
   179
420
  2234388
100
AcDbHatch
 10
0.0
 20
0.0
 30
0.0
210
0.0
220
0.0
230
1.0
  2
SOLID
 70
     1
 71
     0
 91
        1
 92
        1
 93
        1
 72
     4
 94
        3
 73
     0
 74
     1
 95
       29
 96
       25
 40
0.0
 40
0.0
 40
0.0
 40
0.0
 40
1.0
 40
1.0
 40
1.0
 40
2.0
 40
2.0
 40
2.0
 40
3.0
 40
3.0
 40
3.0
 40
4.0
 40
4.0
 40
4.0
 40
5.0
 40
5.0
 40
5.0
 40
6.0
 40
6.0
 40
6.0
 40
7.0
 40
7.0
 40
7.0
 40
8.0
 40
8.0
 40
8.0
 40
8.0
 10
122.6147379250755
 20
-157.6224202079902
 10
122.6147379250755
 20
-157.6224202079902
 10
122.1303574998494
 20
-157.6224202079902
 10
122.1303574998494
 20
-157.6224202079902
 10
122.1027967359674
 20
-157.6224202079902
 10
121.7855034417759
 20
-157.6224202079902
 10
121.5739745789815
 20
-157.6479139145811
 10
121.5739745789815
 20
-157.6479139145811
 10
121.5739745789815
 20
-157.4174370266179
 10
121.5739745789815
 20
-157.4174370266179
 10
121.732448971303
 20
-157.4405191663691
 10
121.9229627516373
 20
-157.4429307332087
 10
122.1303574998494
 20
-157.4429307332087
 10
122.1303574998494
 20
-157.4429307332087
 10
122.6147379250755
 20
-157.4429307332087
 10
122.6147379250755
 20
-157.4429307332087
 10
122.800773081279
 20
-157.4429307332087
 10
122.987152747031
 20
-157.4405191663691
 10
123.1711208459433
 20
-157.4174370266179
 10
123.1711208459433
 20
-157.4174370266179
 10
123.1711208459433
 20
-157.6479139145811
 10
123.1711208459433
 20
-157.6479139145811
 10
122.987152747031
 20
-157.6248317748299
 10
122.7394503816415
 20
-157.6224202079902
 10
122.6147379250755
 20
-157.6224202079902
 97
        0
 97
        0
 75
     2
 76
     1
 98
        0
  0
SPLINE
  5
1DA
330
1C9
100
AcDbEntity
  8
_U+30EC_U+30A4_U+30E4_U+30FC 1
370
     0
100
AcDbSpline
210
0.0
220
0.0
230
1.0
 70
    11
 71
     3
 72
    53
 73
    49
 74
     0
 42
0.0000000001
 43
0.0000000001
 12
1.0
 22
0.0
 32
0.0
 13
1.0
 23
0.0
 33
0.0
 40
0.0
 40
0.0
 40
0.0
 40
0.0
 40
1.0
 40
1.0
 40
1.0
 40
2.0
 40
2.0
 40
2.0
 40
3.0
 40
3.0
 40
3.0
 40
4.0
 40
4.0
 40
4.0
 40
5.0
 40
5.0
 40
5.0
 40
6.0
 40
6.0
 40
6.0
 40
7.0
 40
7.0
 40
7.0
 40
8.0
 40
8.0
 40
8.0
 40
9.0
 40
9.0
 40
9.0
 40
10.0
 40
10.0
 40
10.0
 40
11.0
 40
11.0
 40
11.0
 40
12.0
 40
12.0
 40
12.0
 40
13.0
 40
13.0
 40
13.0
 40
14.0
 40
14.0
 40
14.0
 40
15.0
 40
15.0
 40
15.0
 40
16.0
 40
16.0
 40
16.0
 40
16.0
 10
124.0334282459014
 20
-156.7487439929309
 30
0.0
 10
123.9659043743905
 20
-156.9013617229274
 30
0.0
 10
123.9235296999219
 20
-156.9795653904426
 30
0.0
 10
123.8852891400356
 20
-157.0470892619535
 30
0.0
 10
123.9276638145042
 20
-157.0684488539621
 30
0.0
 10
123.9317979290865
 20
-157.0705159112532
 30
0.0
 10
123.9317979290865
 20
-157.0853298218398
 30
0.0
 10
123.9317979290865
 20
-157.0980766751352
 30
0.0
 10
123.898035993331
 20
-157.1318386108907
 30
0.0
 10
123.8873561973268
 20
-157.1401068400553
 30
0.0
 10
123.8852891400356
 20
-157.336821792263
 30
0.0
 10
123.8852891400356
 20
-157.3581813842716
 30
0.0
 10
123.8852891400356
 20
-157.4915065795507
 30
0.0
 10
123.8832220827445
 20
-157.5042534328462
 30
0.0
 10
123.8832220827445
 20
-157.5190673434327
 30
0.0
 10
123.8832220827445
 20
-157.5338812540193
 30
0.0
 10
123.8832220827445
 20
-157.5338812540193
 30
0.0
 10
123.8832220827445
 20
-158.0689045828786
 30
0.0
 10
123.8832220827445
 20
-158.0689045828786
 30
0.0
 10
123.8832220827445
 20
-158.1409070785203
 30
0.0
 10
123.8873561973268
 20
-158.3758625906144
 30
0.0
 10
123.8959689360399
 20
-158.4857611365939
 30
0.0
 10
123.8959689360399
 20
-158.4857611365939
 30
0.0
 10
123.6527451947813
 20
-158.4857611365939
 30
0.0
 10
123.6527451947813
 20
-158.4857611365939
 30
0.0
 10
123.6758273345324
 20
-158.3269422347238
 30
0.0
 10
123.6823730159544
 20
-158.0857855507563
 30
0.0
 10
123.6823730159544
 20
-158.0647704682963
 30
0.0
 10
123.6823730159544
 20
-158.0647704682963
 30
0.0
 10
123.6823730159544
 20
-157.3475015882673
 30
0.0
 10
123.6823730159544
 20
-157.3475015882673
 30
0.0
 10
123.5914224951438
 20
-157.4618787583776
 30
0.0
 10
123.5300997955064
 20
-157.5211344007239
 30
0.0
 10
123.4877251210378
 20
-157.5635090751925
 30
0.0
 10
123.4877251210378
 20
-157.5635090751925
 30
0.0
 10
123.2972113407035
 20
-157.4257052557825
 30
0.0
 10
123.2972113407035
 20
-157.4257052557825
 30
0.0
 10
123.5786756418484
 20
-157.2100422784058
 30
0.0
 10
123.7712564794739
 20
-156.9013617229274
 30
0.0
 10
123.8832220827445
 20
-156.5647758940185
 30
0.0
 10
123.8832220827445
 20
-156.5647758940185
 30
0.0
 10
124.1033636842519
 20
-156.6791530641288
 30
0.0
 10
124.1033636842519
 20
-156.6791530641288
 30
0.0
 10
124.1161105375474
 20
-156.6853542360023
 30
0.0
 10
124.124378766712
 20
-156.6894883505846
 30
0.0
 10
124.124378766712
 20
-156.7043022611712
 30
0.0
 10
124.124378766712
 20
-156.729795967762
 30
0.0
 10
124.1074977988342
 20
-156.7339300823443
 30
0.0
 10
124.0334282459014
 20
-156.7487439929309
 30
0.0
  0
SPLINE
  5
1DB
330
1C9
100
AcDbEntity
  8
_U+30EC_U+30A4_U+30E4_U+30FC 1
370
     0
100
AcDbSpline
210
0.0
220
0.0
230
1.0
 70
    11
 71
     3
 72
    77
 73
    73
 74
     0
 42
0.0000000001
 43
0.0000000001
 12
1.0
 22
0.0
 32
0.0
 13
1.0
 23
0.0
 33
0.0
 40
0.0
 40
0.0
 40
0.0
 40
0.0
 40
1.0
 40
1.0
 40
1.0
 40
2.0
 40
2.0
 40
2.0
 40
3.0
 40
3.0
 40
3.0
 40
4.0
 40
4.0
 40
4.0
 40
5.0
 40
5.0
 40
5.0
 40
6.0
 40
6.0
 40
6.0
 40
7.0
 40
7.0
 40
7.0
 40
8.0
 40
8.0
 40
8.0
 40
9.0
 40
9.0
 40
9.0
 40
10.0
 40
10.0
 40
10.0
 40
11.0
 40
11.0
 40
11.0
 40
12.0
 40
12.0
 40
12.0
 40
13.0
 40
13.0
 40
13.0
 40
14.0
 40
14.0
 40
14.0
 40
15.0
 40
15.0
 40
15.0
 40
16.0
 40
16.0
 40
16.0
 40
17.0
 40
17.0
 40
17.0
 40
18.0
 40
18.0
 40
18.0
 40
19.0
 40
19.0
 40
19.0
 40
20.0
 40
20.0
 40
20.0
 40
21.0
 40
21.0
 40
21.0
 40
22.0
 40
22.0
 40
22.0
 40
23.0
 40
23.0
 40
23.0
 40
24.0
 40
24.0
 40
24.0
 40
24.0
 10
125.1844346475233
 20
-157.2482828382921
 30
0.0
 10
125.1144992091728
 20
-157.2438042141613
 30
0.0
 10
125.0466308281134
 20
-157.2438042141613
 30
0.0
 10
124.9791069566025
 20
-157.2438042141613
 30
0.0
 10
124.9791069566025
 20
-157.2438042141613
 30
0.0
 10
124.9791069566025
 20
-158.0182616792455
 30
0.0
 10
124.9791069566025
 20
-158.0182616792455
 30
0.0
 10
124.9791069566025
 20
-158.2825005029641
 30
0.0
 10
124.9770398993113
 20
-158.3121283241373
 30
0.0
 10
124.9704942178893
 20
-158.3417561453104
 30
0.0
 10
124.9367322821339
 20
-158.4750813405896
 30
0.0
 10
124.835101965319
 20
-158.4836940793027
 30
0.0
 10
124.6597466051198
 20
-158.4836940793027
 30
0.0
 10
124.6194389879424
 20
-158.4836940793027
 30
0.0
 10
124.6025580200646
 20
-158.4836940793027
 30
0.0
 10
124.5622504028872
 20
-158.4792154551719
 30
0.0
 10
124.5622504028872
 20
-158.4792154551719
 30
0.0
 10
124.4375379463212
 20
-158.2380587712044
 30
0.0
 10
124.4375379463212
 20
-158.2380587712044
 30
0.0
 10
124.5539821737226
 20
-158.2697536496687
 30
0.0
 10
124.6363199558201
 20
-158.2697536496687
 30
0.0
 10
124.6597466051198
 20
-158.2697536496687
 30
0.0
 10
124.7293375339218
 20
-158.2697536496687
 30
0.0
 10
124.7634439792258
 20
-158.252872681791
 30
0.0
 10
124.7675780938081
 20
-158.1960286062843
 30
0.0
 10
124.7675780938081
 20
-158.1832817529889
 30
0.0
 10
124.7696451510993
 20
-158.0857855507563
 30
0.0
 10
124.7696451510993
 20
-158.0285969657012
 30
0.0
 10
124.7696451510993
 20
-158.0285969657012
 30
0.0
 10
124.7696451510993
 20
-157.2417371568701
 30
0.0
 10
124.7696451510993
 20
-157.2417371568701
 30
0.0
 10
124.7696451510993
 20
-157.2417371568701
 30
0.0
 10
124.4754339966589
 20
-157.2417371568701
 30
0.0
 10
124.4754339966589
 20
-157.2417371568701
 30
0.0
 10
124.3297064576329
 20
-157.2417371568701
 30
0.0
 10
124.1836344090583
 20
-157.2482828382921
 30
0.0
 10
124.0399739273233
 20
-157.260685182039
 30
0.0
 10
124.0399739273233
 20
-157.260685182039
 30
0.0
 10
124.0399739273233
 20
-157.0536349433755
 30
0.0
 10
124.0399739273233
 20
-157.0536349433755
 30
0.0
 10
124.1898355809317
 20
-157.0660372871224
 30
0.0
 10
124.407910125148
 20
-157.0705159112532
 30
0.0
 10
124.4754339966589
 20
-157.0705159112532
 30
0.0
 10
124.4754339966589
 20
-157.0705159112532
 30
0.0
 10
124.7696451510993
 20
-157.0705159112532
 30
0.0
 10
124.7696451510993
 20
-157.0705159112532
 30
0.0
 10
124.7675780938081
 20
-156.8017984634037
 30
0.0
 10
124.7675780938081
 20
-156.7256618531797
 30
0.0
 10
124.758965355095
 20
-156.577522747314
 30
0.0
 10
124.758965355095
 20
-156.577522747314
 30
0.0
 10
125.0170030069402
 20
-156.6157633072002
 30
0.0
 10
125.0170030069402
 20
-156.6157633072002
 30
0.0
 10
125.0318169175268
 20
-156.6178303644914
 30
0.0
 10
125.0466308281134
 20
-156.6240315363648
 30
0.0
 10
125.0466308281134
 20
-156.6450466188249
 30
0.0
 10
125.0466308281134
 20
-156.6643391535422
 30
0.0
 10
125.0404296562399
 20
-156.6664062108334
 30
0.0
 10
124.9832410711848
 20
-156.7001681465889
 30
0.0
 10
124.9791069566025
 20
-156.778371814104
 30
0.0
 10
124.9791069566025
 20
-156.7931857246906
 30
0.0
 10
124.9791069566025
 20
-157.0705159112532
 30
0.0
 10
125.1568738836413
 20
-157.0660372871224
 30
0.0
 10
125.1758219088102
 20
-157.0660372871224
 30
0.0
 10
125.2095838445657
 20
-157.0619031725401
 30
0.0
 10
125.2605712577474
 20
-157.0577690579578
 30
0.0
 10
125.2647053723297
 20
-157.0557020006666
 30
0.0
 10
125.3091471040894
 20
-157.0536349433755
 30
0.0
 10
125.3091471040894
 20
-157.0536349433755
 30
0.0
 10
125.3091471040894
 20
-157.260685182039
 30
0.0
 10
125.3091471040894
 20
-157.260685182039
 30
0.0
 10
125.2795192829162
 20
-157.2586181247478
 30
0.0
 10
125.2243977551522
 20
-157.2503498955832
 30
0.0
 10
125.1844346475233
 20
-157.2482828382921
 30
0.0
  0
SPLINE
  5
1DC
330
1C9
100
AcDbEntity
  8
_U+30EC_U+30A4_U+30E4_U+30FC 1
370
     0
100
AcDbSpline
210
0.0
220
0.0
230
1.0
 70
    11
 71
     3
 72
    20
 73
    16
 74
     0
 42
0.0000000001
 43
0.0000000001
 12
1.0
 22
0.0
 32
0.0
 13
1.0
 23
0.0
 33
0.0
 40
0.0
 40
0.0
 40
0.0
 40
0.0
 40
1.0
 40
1.0
 40
1.0
 40
2.0
 40
2.0
 40
2.0
 40
3.0
 40
3.0
 40
3.0
 40
4.0
 40
4.0
 40
4.0
 40
5.0
 40
5.0
 40
5.0
 40
5.0
 10
124.4141112970215
 20
-157.9738199474857
 30
0.0
 10
124.3676025079706
 20
-157.7960530204468
 30
0.0
 10
124.2704508152866
 20
-157.6544595960031
 30
0.0
 10
124.1309244481339
 20
-157.5442165404751
 30
0.0
 10
124.1309244481339
 20
-157.5442165404751
 30
0.0
 10
124.2914658977466
 20
-157.4301838799133
 30
0.0
 10
124.2914658977466
 20
-157.4301838799133
 30
0.0
 10
124.352788597384
 20
-157.4722140448334
 30
0.0
 10
124.3930962145615
 20
-157.5063204901373
 30
0.0
 10
124.4692328247855
 20
-157.6141519788256
 30
0.0
 10
124.5495035495918
 20
-157.7305962062271
 30
0.0
 10
124.5708631416003
 20
-157.7833061671514
 30
0.0
 10
124.5960123386427
 20
-157.8491074909197
 30
0.0
 10
124.5960123386427
 20
-157.8491074909197
 30
0.0
 10
124.4141112970215
 20
-157.9738199474857
 30
0.0
 10
124.4141112970215
 20
-157.9738199474857
 30
0.0
  0
HATCH
  5
1DD
330
1C9
100
AcDbEntity
  8
_U+30EC_U+30A4_U+30E4_U+30FC 1
 62
   179
420
  2234388
100
AcDbHatch
 10
0.0
 20
0.0
 30
0.0
210
0.0
220
0.0
230
1.0
  2
SOLID
 70
     1
 71
     0
 91
        3
 92
        1
 93
        1
 72
     4
 94
        3
 73
     0
 74
     1
 95
       53
 96
       49
 40
0.0
 40
0.0
 40
0.0
 40
0.0
 40
1.0
 40
1.0
 40
1.0
 40
2.0
 40
2.0
 40
2.0
 40
3.0
 40
3.0
 40
3.0
 40
4.0
 40
4.0
 40
4.0
 40
5.0
 40
5.0
 40
5.0
 40
6.0
 40
6.0
 40
6.0
 40
7.0
 40
7.0
 40
7.0
 40
8.0
 40
8.0
 40
8.0
 40
9.0
 40
9.0
 40
9.0
 40
10.0
 40
10.0
 40
10.0
 40
11.0
 40
11.0
 40
11.0
 40
12.0
 40
12.0
 40
12.0
 40
13.0
 40
13.0
 40
13.0
 40
14.0
 40
14.0
 40
14.0
 40
15.0
 40
15.0
 40
15.0
 40
16.0
 40
16.0
 40
16.0
 40
16.0
 10
124.0334282459014
 20
-156.7487439929309
 10
123.9659043743905
 20
-156.9013617229274
 10
123.9235296999219
 20
-156.9795653904426
 10
123.8852891400356
 20
-157.0470892619535
 10
123.9276638145042
 20
-157.0684488539621
 10
123.9317979290865
 20
-157.0705159112532
 10
123.9317979290865
 20
-157.0853298218398
 10
123.9317979290865
 20
-157.0980766751352
 10
123.898035993331
 20
-157.1318386108907
 10
123.8873561973268
 20
-157.1401068400553
 10
123.8852891400356
 20
-157.336821792263
 10
123.8852891400356
 20
-157.3581813842716
 10
123.8852891400356
 20
-157.4915065795507
 10
123.8832220827445
 20
-157.5042534328462
 10
123.8832220827445
 20
-157.5190673434327
 10
123.8832220827445
 20
-157.5338812540193
 10
123.8832220827445
 20
-157.5338812540193
 10
123.8832220827445
 20
-158.0689045828786
 10
123.8832220827445
 20
-158.0689045828786
 10
123.8832220827445
 20
-158.1409070785203
 10
123.8873561973268
 20
-158.3758625906144
 10
123.8959689360399
 20
-158.4857611365939
 10
123.8959689360399
 20
-158.4857611365939
 10
123.6527451947813
 20
-158.4857611365939
 10
123.6527451947813
 20
-158.4857611365939
 10
123.6758273345324
 20
-158.3269422347238
 10
123.6823730159544
 20
-158.0857855507563
 10
123.6823730159544
 20
-158.0647704682963
 10
123.6823730159544
 20
-158.0647704682963
 10
123.6823730159544
 20
-157.3475015882673
 10
123.6823730159544
 20
-157.3475015882673
 10
123.5914224951438
 20
-157.4618787583776
 10
123.5300997955064
 20
-157.5211344007239
 10
123.4877251210378
 20
-157.5635090751925
 10
123.4877251210378
 20
-157.5635090751925
 10
123.2972113407035
 20
-157.4257052557825
 10
123.2972113407035
 20
-157.4257052557825
 10
123.5786756418484
 20
-157.2100422784058
 10
123.7712564794739
 20
-156.9013617229274
 10
123.8832220827445
 20
-156.5647758940185
 10
123.8832220827445
 20
-156.5647758940185
 10
124.1033636842519
 20
-156.6791530641288
 10
124.1033636842519
 20
-156.6791530641288
 10
124.1161105375474
 20
-156.6853542360023
 10
124.124378766712
 20
-156.6894883505846
 10
124.124378766712
 20
-156.7043022611712
 10
124.124378766712
 20
-156.729795967762
 10
124.1074977988342
 20
-156.7339300823443
 10
124.0334282459014
 20
-156.7487439929309
 97
        0
 97
        0
 92
        1
 93
        1
 72
     4
 94
        3
 73
     0
 74
     1
 95
       77
 96
       73
 40
0.0
 40
0.0
 40
0.0
 40
0.0
 40
1.0
 40
1.0
 40
1.0
 40
2.0
 40
2.0
 40
2.0
 40
3.0
 40
3.0
 40
3.0
 40
4.0
 40
4.0
 40
4.0
 40
5.0
 40
5.0
 40
5.0
 40
6.0
 40
6.0
 40
6.0
 40
7.0
 40
7.0
 40
7.0
 40
8.0
 40
8.0
 40
8.0
 40
9.0
 40
9.0
 40
9.0
 40
10.0
 40
10.0
 40
10.0
 40
11.0
 40
11.0
 40
11.0
 40
12.0
 40
12.0
 40
12.0
 40
13.0
 40
13.0
 40
13.0
 40
14.0
 40
14.0
 40
14.0
 40
15.0
 40
15.0
 40
15.0
 40
16.0
 40
16.0
 40
16.0
 40
17.0
 40
17.0
 40
17.0
 40
18.0
 40
18.0
 40
18.0
 40
19.0
 40
19.0
 40
19.0
 40
20.0
 40
20.0
 40
20.0
 40
21.0
 40
21.0
 40
21.0
 40
22.0
 40
22.0
 40
22.0
 40
23.0
 40
23.0
 40
23.0
 40
24.0
 40
24.0
 40
24.0
 40
24.0
 10
125.1844346475233
 20
-157.2482828382921
 10
125.1144992091728
 20
-157.2438042141613
 10
125.0466308281134
 20
-157.2438042141613
 10
124.9791069566025
 20
-157.2438042141613
 10
124.9791069566025
 20
-157.2438042141613
 10
124.9791069566025
 20
-158.0182616792455
 10
124.9791069566025
 20
-158.0182616792455
 10
124.9791069566025
 20
-158.2825005029641
 10
124.9770398993113
 20
-158.3121283241373
 10
124.9704942178893
 20
-158.3417561453104
 10
124.9367322821339
 20
-158.4750813405896
 10
124.835101965319
 20
-158.4836940793027
 10
124.6597466051198
 20
-158.4836940793027
 10
124.6194389879424
 20
-158.4836940793027
 10
124.6025580200646
 20
-158.4836940793027
 10
124.5622504028872
 20
-158.4792154551719
 10
124.5622504028872
 20
-158.4792154551719
 10
124.4375379463212
 20
-158.2380587712044
 10
124.4375379463212
 20
-158.2380587712044
 10
124.5539821737226
 20
-158.2697536496687
 10
124.6363199558201
 20
-158.2697536496687
 10
124.6597466051198
 20
-158.2697536496687
 10
124.7293375339218
 20
-158.2697536496687
 10
124.7634439792258
 20
-158.252872681791
 10
124.7675780938081
 20
-158.1960286062843
 10
124.7675780938081
 20
-158.1832817529889
 10
124.7696451510993
 20
-158.0857855507563
 10
124.7696451510993
 20
-158.0285969657012
 10
124.7696451510993
 20
-158.0285969657012
 10
124.7696451510993
 20
-157.2417371568701
 10
124.7696451510993
 20
-157.2417371568701
 10
124.7696451510993
 20
-157.2417371568701
 10
124.4754339966589
 20
-157.2417371568701
 10
124.4754339966589
 20
-157.2417371568701
 10
124.3297064576329
 20
-157.2417371568701
 10
124.1836344090583
 20
-157.2482828382921
 10
124.0399739273233
 20
-157.260685182039
 10
124.0399739273233
 20
-157.260685182039
 10
124.0399739273233
 20
-157.0536349433755
 10
124.0399739273233
 20
-157.0536349433755
 10
124.1898355809317
 20
-157.0660372871224
 10
124.407910125148
 20
-157.0705159112532
 10
124.4754339966589
 20
-157.0705159112532
 10
124.4754339966589
 20
-157.0705159112532
 10
124.7696451510993
 20
-157.0705159112532
 10
124.7696451510993
 20
-157.0705159112532
 10
124.7675780938081
 20
-156.8017984634037
 10
124.7675780938081
 20
-156.7256618531797
 10
124.758965355095
 20
-156.577522747314
 10
124.758965355095
 20
-156.577522747314
 10
125.0170030069402
 20
-156.6157633072002
 10
125.0170030069402
 20
-156.6157633072002
 10
125.0318169175268
 20
-156.6178303644914
 10
125.0466308281134
 20
-156.6240315363648
 10
125.0466308281134
 20
-156.6450466188249
 10
125.0466308281134
 20
-156.6643391535422
 10
125.0404296562399
 20
-156.6664062108334
 10
124.9832410711848
 20
-156.7001681465889
 10
124.9791069566025
 20
-156.778371814104
 10
124.9791069566025
 20
-156.7931857246906
 10
124.9791069566025
 20
-157.0705159112532
 10
125.1568738836413
 20
-157.0660372871224
 10
125.1758219088102
 20
-157.0660372871224
 10
125.2095838445657
 20
-157.0619031725401
 10
125.2605712577474
 20
-157.0577690579578
 10
125.2647053723297
 20
-157.0557020006666
 10
125.3091471040894
 20
-157.0536349433755
 10
125.3091471040894
 20
-157.0536349433755
 10
125.3091471040894
 20
-157.260685182039
 10
125.3091471040894
 20
-157.260685182039
 10
125.2795192829162
 20
-157.2586181247478
 10
125.2243977551522
 20
-157.2503498955832
 10
125.1844346475233
 20
-157.2482828382921
 97
        0
 97
        0
 92
        1
 93
        1
 72
     4
 94
        3
 73
     0
 74
     1
 95
       20
 96
       16
 40
0.0
 40
0.0
 40
0.0
 40
0.0
 40
1.0
 40
1.0
 40
1.0
 40
2.0
 40
2.0
 40
2.0
 40
3.0
 40
3.0
 40
3.0
 40
4.0
 40
4.0
 40
4.0
 40
5.0
 40
5.0
 40
5.0
 40
5.0
 10
124.4141112970215
 20
-157.9738199474857
 10
124.3676025079706
 20
-157.7960530204468
 10
124.2704508152866
 20
-157.6544595960031
 10
124.1309244481339
 20
-157.5442165404751
 10
124.1309244481339
 20
-157.5442165404751
 10
124.2914658977466
 20
-157.4301838799133
 10
124.2914658977466
 20
-157.4301838799133
 10
124.352788597384
 20
-157.4722140448334
 10
124.3930962145615
 20
-157.5063204901373
 10
124.4692328247855
 20
-157.6141519788256
 10
124.5495035495918
 20
-157.7305962062271
 10
124.5708631416003
 20
-157.7833061671514
 10
124.5960123386427
 20
-157.8491074909197
 10
124.5960123386427
 20
-157.8491074909197
 10
124.4141112970215
 20
-157.9738199474857
 10
124.4141112970215
 20
-157.9738199474857
 97
        0
 97
        0
 75
     2
 76
     1
 98
        0
  0
ENDBLK
  5
1CC
330
1C9
100
AcDbEntity
  8
0
100
AcDbBlockEnd
  0
ENDSEC
  0
SECTION
  2
ENTITIES
  0
SPLINE
  5
41
330
1F
100
AcDbEntity
  8
_U+30EC_U+30A4_U+30E4_U+30FC 1
 62
   179
420
  2234388
370
     9
100
AcDbSpline
210
0.0
220
0.0
230
1.0
 70
    11
 71
     3
 72
    17
 73
    13
 74
     0
 42
0.0000000001
 43
0.0000000001
 12
1.0
 22
0.0
 32
0.0
 13
1.0
 23
0.0
 33
0.0
 40
0.0
 40
0.0
 40
0.0
 40
0.0
 40
1.0
 40
1.0
 40
1.0
 40
2.0
 40
2.0
 40
2.0
 40
3.0
 40
3.0
 40
3.0
 40
4.0
 40
4.0
 40
4.0
 40
4.0
 10
97.94677765834783
 20
-165.7267543378408
 30
0.0
 10
97.94677765834783
 20
-165.7817897382176
 30
0.0
 10
97.99157466557915
 20
-165.826592128411
 30
0.0
 10
98.04661006595602
 20
-165.826592128411
 30
0.0
 10
98.10164546633288
 20
-165.826592128411
 30
0.0
 10
98.14644247356452
 20
-165.7817897382176
 30
0.0
 10
98.14644247356452
 20
-165.7267543378408
 30
0.0
 10
98.14644247356452
 20
-165.6717243204256
 30
0.0
 10
98.10164546633288
 20
-165.6269219302323
 30
0.0
 10
98.04661006595602
 20
-165.6269219302323
 30
0.0
 10
97.99157466557915
 20
-165.6269219302323
 30
0.0
 10
97.94677765834783
 20
-165.6717243204256
 30
0.0
 10
97.94677765834783
 20
-165.7267543378408
 30
0.0
  0
SPLINE
  5
42
330
1F
100
AcDbEntity
  8
_U+30EC_U+30A4_U+30E4_U+30FC 1
 62
   179
420
  2234388
370
     9
100
AcDbSpline
210
0.0
220
0.0
230
1.0
 70
    11
 71
     3
 72
    17
 73
    13
 74
     0
 42
0.0000000001
 43
0.0000000001
 12
1.0
 22
0.0
 32
0.0
 13
1.0
 23
0.0
 33
0.0
 40
0.0
 40
0.0
 40
0.0
 40
0.0
 40
1.0
 40
1.0
 40
1.0
 40
2.0
 40
2.0
 40
2.0
 40
3.0
 40
3.0
 40
3.0
 40
4.0
 40
4.0
 40
4.0
 40
4.0
 10
87.94668822738942
 20
-165.7267543378408
 30
0.0
 10
87.94668822738942
 20
-165.7817897382176
 30
0.0
 10
87.99148523462138
 20
-165.826592128411
 30
0.0
 10
88.04652063499825
 20
-165.826592128411
 30
0.0
 10
88.10225582039523
 20
-165.826592128411
 30
0.0
 10
88.14706359355026
 20
-165.7817897382176
 30
0.0
 10
88.14706359355026
 20
-165.7267543378408
 30
0.0
 10
88.14706359355026
 20
-165.6717243204256
 30
0.0
 10
88.10225582039523
 20
-165.6269219302323
 30
0.0
 10
88.04652063499825
 20
-165.6269219302323
 30
0.0
 10
87.99148523462138
 20
-165.6269219302323
 30
0.0
 10
87.94668822738942
 20
-165.6717243204256
 30
0.0
 10
87.94668822738942
 20
-165.7267543378408
 30
0.0
  0
POLYLINE
  5
43
330
1F
100
AcDbEntity
  8
_U+30EC_U+30A4_U+30E4_U+30FC 1
 62
   179
420
  2234388
370
     9
100
AcDb2dPolyline
 66
     1
 10
0.0
 20
0.0
 30
0.0
  0
VERTEX
  5
44
330
43
100
AcDbEntity
  8
_U+30EC_U+30A4_U+30E4_U+30FC 1
 62
   179
420
  2234388
370
     9
100
AcDbVertex
100
AcDb2dVertex
 10
88.04662829423184
 20
-164.7269822450596
 30
0.0
  0
VERTEX
  5
45
330
43
100
AcDbEntity
  8
_U+30EC_U+30A4_U+30E4_U+30FC 1
 62
   179
420
  2234388
370
     9
100
AcDbVertex
100
AcDb2dVertex
 10
88.04662829423184
 20
-166.7272369815658
 30
0.0
  0
SEQEND
  5
46
330
43
100
AcDbEntity
  8
_U+30EC_U+30A4_U+30E4_U+30FC 1
 62
   179
420
  2234388
370
     9
  0
POLYLINE
  5
47
330
1F
100
AcDbEntity
  8
_U+30EC_U+30A4_U+30E4_U+30FC 1
 62
   179
420
  2234388
370
     9
100
AcDb2dPolyline
 66
     1
 10
0.0
 20
0.0
 30
0.0
  0
VERTEX
  5
48
330
47
100
AcDbEntity
  8
_U+30EC_U+30A4_U+30E4_U+30FC 1
 62
   179
420
  2234388
370
     9
100
AcDbVertex
100
AcDb2dVertex
 10
88.04662829423184
 20
-165.7267543378408
 30
0.0
  0
VERTEX
  5
49
330
47
100
AcDbEntity
  8
_U+30EC_U+30A4_U+30E4_U+30FC 1
 62
   179
420
  2234388
370
     9
100
AcDbVertex
100
AcDb2dVertex
 10
98.04681461850045
 20
-165.7267543378408
 30
0.0
  0
SEQEND
  5
4A
330
47
100
AcDbEntity
  8
_U+30EC_U+30A4_U+30E4_U+30FC 1
 62
   179
420
  2234388
370
     9
  0
POLYLINE
  5
4B
330
1F
100
AcDbEntity
  8
_U+30EC_U+30A4_U+30E4_U+30FC 1
 62
   179
420
  2234388
370
     9
100
AcDb2dPolyline
 66
     1
 10
0.0
 20
0.0
 30
0.0
  0
VERTEX
  5
4C
330
4B
100
AcDbEntity
  8
_U+30EC_U+30A4_U+30E4_U+30FC 1
 62
   179
420
  2234388
370
     9
100
AcDbVertex
100
AcDb2dVertex
 10
98.04668542742007
 20
-148.0713559098409
 30
0.0
  0
VERTEX
  5
4D
330
4B
100
AcDbEntity
  8
_U+30EC_U+30A4_U+30E4_U+30FC 1
 62
   179
420
  2234388
370
     9
100
AcDbVertex
100
AcDb2dVertex
 10
98.04668542742007
 20
-166.7273069600679
 30
0.0
  0
SEQEND
  5
4E
330
4B
100
AcDbEntity
  8
_U+30EC_U+30A4_U+30E4_U+30FC 1
 62
   179
420
  2234388
370
     9
  0
INSERT
  5
50
330
1F
100
AcDbEntity
  8
_U+30EC_U+30A4_U+30E4_U+30FC 1
100
AcDbBlockReference
  2
block 2
 10
0.0
 20
0.0
 30
0.0
  0
POLYLINE
  5
58
330
1F
100
AcDbEntity
  8
_U+30EC_U+30A4_U+30E4_U+30FC 1
 62
   179
420
  2234388
370
    25
100
AcDb2dPolyline
 66
     1
 10
0.0
 20
0.0
 30
0.0
  0
VERTEX
  5
59
330
58
100
AcDbEntity
  8
_U+30EC_U+30A4_U+30E4_U+30FC 1
 62
   179
420
  2234388
370
    25
100
AcDbVertex
100
AcDb2dVertex
 10
88.24436600916178
 20
-138.6765589897178
 30
0.0
  0
VERTEX
  5
5A
330
58
100
AcDbEntity
  8
_U+30EC_U+30A4_U+30E4_U+30FC 1
 62
   179
420
  2234388
370
    25
100
AcDbVertex
100
AcDb2dVertex
 10
88.0316313629476
 20
-139.1609286490205
 30
0.0
  0
VERTEX
  5
5B
330
58
100
AcDbEntity
  8
_U+30EC_U+30A4_U+30E4_U+30FC 1
 62
   179
420
  2234388
370
    25
100
AcDbVertex
100
AcDb2dVertex
 10
88.21895842995806
 20
-139.6551706600735
 30
0.0
  0
VERTEX
  5
5C
330
58
100
AcDbEntity
  8
_U+30EC_U+30A4_U+30E4_U+30FC 1
 62
   179
420
  2234388
370
    25
100
AcDbVertex
100
AcDb2dVertex
 10
88.0065898251392
 20
-140.1395295534525
 30
0.0
  0
VERTEX
  5
5D
330
58
100
AcDbEntity
  8
_U+30EC_U+30A4_U+30E4_U+30FC 1
 62
   179
420
  2234388
370
    25
100
AcDbVertex
100
AcDb2dVertex
 10
88.19356161667774
 20
-140.6348373909209
 30
0.0
  0
VERTEX
  5
5E
330
58
100
AcDbEntity
  8
_U+30EC_U+30A4_U+30E4_U+30FC 1
 62
   179
420
  2234388
370
    25
100
AcDbVertex
100
AcDb2dVertex
 10
87.98083773638696
 20
-141.1195515597722
 30
0.0
  0
VERTEX
  5
5F
330
58
100
AcDbEntity
  8
_U+30EC_U+30A4_U+30E4_U+30FC 1
 62
   179
420
  2234388
370
    25
100
AcDbVertex
100
AcDb2dVertex
 10
88.16816480339742
 20
-141.6141488462968
 30
0.0
  0
VERTEX
  5
60
330
58
100
AcDbEntity
  8
_U+30EC_U+30A4_U+30E4_U+30FC 1
 62
   179
420
  2234388
370
    25
100
AcDbVertex
100
AcDb2dVertex
 10
87.95544092310664
 20
-142.0981524642042
 30
0.0
  0
VERTEX
  5
61
330
58
100
AcDbEntity
  8
_U+30EC_U+30A4_U+30E4_U+30FC 1
 62
   179
420
  2234388
370
    25
100
AcDbVertex
100
AcDb2dVertex
 10
88.1427572241937
 20
-142.5931050262007
 30
0.0
  0
VERTEX
  5
62
330
58
100
AcDbEntity
  8
_U+30EC_U+30A4_U+30E4_U+30FC 1
 62
   179
420
  2234388
370
    25
100
AcDbVertex
100
AcDb2dVertex
 10
87.9300333439029
 20
-143.0771194100315
 30
0.0
  0
VERTEX
  5
63
330
58
100
AcDbEntity
  8
_U+30EC_U+30A4_U+30E4_U+30FC 1
 62
   179
420
  2234388
370
    25
100
AcDbVertex
100
AcDb2dVertex
 10
88.11736041091338
 20
-143.5720612061046
 30
0.0
  0
VERTEX
  5
64
330
58
100
AcDbEntity
  8
_U+30EC_U+30A4_U+30E4_U+30FC 1
 62
   179
420
  2234388
370
    25
100
AcDbVertex
100
AcDb2dVertex
 10
87.90463653062258
 20
-144.0564200994839
 30
0.0
  0
VERTEX
  5
65
330
58
100
AcDbEntity
  8
_U+30EC_U+30A4_U+30E4_U+30FC 1
 62
   179
420
  2234388
370
    25
100
AcDbVertex
100
AcDb2dVertex
 10
88.09160832216114
 20
-144.5517225539907
 30
0.0
  0
VERTEX
  5
66
330
58
100
AcDbEntity
  8
_U+30EC_U+30A4_U+30E4_U+30FC 1
 62
   179
420
  2234388
370
    25
100
AcDbVertex
100
AcDb2dVertex
 10
87.87923971734226
 20
-145.0360868303317
 30
0.0
  0
VERTEX
  5
67
330
58
100
AcDbEntity
  8
_U+30EC_U+30A4_U+30E4_U+30FC 1
 62
   179
420
  2234388
370
    25
100
AcDbVertex
100
AcDb2dVertex
 10
88.06655601842932
 20
-145.5310340093665
 30
0.0
  0
VERTEX
  5
68
330
58
100
AcDbEntity
  8
_U+30EC_U+30A4_U+30E4_U+30FC 1
 62
   179
420
  2234388
370
    25
100
AcDbVertex
100
AcDb2dVertex
 10
87.85383213813854
 20
-146.0153982857075
 30
0.0
  0
VERTEX
  5
69
330
58
100
AcDbEntity
  8
_U+30EC_U+30A4_U+30E4_U+30FC 1
 62
   179
420
  2234388
370
    25
100
AcDbVertex
100
AcDb2dVertex
 10
88.04080392967708
 20
-146.5082299607959
 30
0.0
  0
VERTEX
  5
6A
330
58
100
AcDbEntity
  8
_U+30EC_U+30A4_U+30E4_U+30FC 1
 62
   179
420
  2234388
370
    25
100
AcDbVertex
100
AcDb2dVertex
 10
87.82843532485822
 20
-146.9908286257008
 30
0.0
  0
VERTEX
  5
6B
330
58
100
AcDbEntity
  8
_U+30EC_U+30A4_U+30E4_U+30FC 1
 62
   179
420
  2234388
370
    25
100
AcDbVertex
100
AcDb2dVertex
 10
88.01576239186868
 20
-147.4840101932994
 30
0.0
  0
VERTEX
  5
6C
330
58
100
AcDbEntity
  8
_U+30EC_U+30A4_U+30E4_U+30FC 1
 62
   179
420
  2234388
370
    25
100
AcDbVertex
100
AcDb2dVertex
 10
87.80339378704981
 20
-147.967319409148
 30
0.0
  0
VERTEX
  5
6D
330
58
100
AcDbEntity
  8
_U+30EC_U+30A4_U+30E4_U+30FC 1
 62
   179
420
  2234388
370
    25
100
AcDbVertex
100
AcDb2dVertex
 10
87.99036557858867
 20
-148.4612061447288
 30
0.0
  0
VERTEX
  5
6E
330
58
100
AcDbEntity
  8
_U+30EC_U+30A4_U+30E4_U+30FC 1
 62
   179
420
  2234388
370
    25
100
AcDbVertex
100
AcDb2dVertex
 10
87.77763093237449
 20
-148.9455704210698
 30
0.0
  0
VERTEX
  5
6F
330
58
100
AcDbEntity
  8
_U+30EC_U+30A4_U+30E4_U+30FC 1
 62
   179
420
  2234388
370
    25
100
AcDbVertex
100
AcDb2dVertex
 10
87.96495799938495
 20
-149.441572660597
 30
0.0
  0
VERTEX
  5
70
330
58
100
AcDbEntity
  8
_U+30EC_U+30A4_U+30E4_U+30FC 1
 62
   179
420
  2234388
370
    25
100
AcDbVertex
100
AcDb2dVertex
 10
87.75223411909384
 20
-149.9262922124099
 30
0.0
  0
VERTEX
  5
71
330
58
100
AcDbEntity
  8
_U+30EC_U+30A4_U+30E4_U+30FC 1
 62
   179
420
  2234388
370
    25
100
AcDbVertex
100
AcDb2dVertex
 10
87.93920591063271
 20
-150.4201789479907
 30
0.0
  0
VERTEX
  5
72
330
58
100
AcDbEntity
  8
_U+30EC_U+30A4_U+30E4_U+30FC 1
 62
   179
420
  2234388
370
    25
100
AcDbVertex
100
AcDb2dVertex
 10
87.72683730581352
 20
-150.9038380563496
 30
0.0
  0
VERTEX
  5
73
330
58
100
AcDbEntity
  8
_U+30EC_U+30A4_U+30E4_U+30FC 1
 62
   179
420
  2234388
370
    25
100
AcDbVertex
100
AcDb2dVertex
 10
87.91380909735206
 20
-151.3980800674022
 30
0.0
  0
VERTEX
  5
74
330
58
100
AcDbEntity
  8
_U+30EC_U+30A4_U+30E4_U+30FC 1
 62
   179
420
  2234388
370
    25
100
AcDbVertex
100
AcDb2dVertex
 10
87.7014404925332
 20
-151.8831495117254
 30
0.0
  0
VERTEX
  5
75
330
58
100
AcDbEntity
  8
_U+30EC_U+30A4_U+30E4_U+30FC 1
 62
   179
420
  2234388
370
    25
100
AcDbVertex
100
AcDb2dVertex
 10
87.88841228407173
 20
-152.3784519662321
 30
0.0
  0
VERTEX
  5
76
330
58
100
AcDbEntity
  8
_U+30EC_U+30A4_U+30E4_U+30FC 1
 62
   179
420
  2234388
370
    25
100
AcDbVertex
100
AcDb2dVertex
 10
87.67603291332948
 20
-152.8642265785374
 30
0.0
  0
VERTEX
  5
77
330
58
100
AcDbEntity
  8
_U+30EC_U+30A4_U+30E4_U+30FC 1
 62
   179
420
  2234388
370
    25
100
AcDbVertex
100
AcDb2dVertex
 10
87.86300470486802
 20
-153.357408146136
 30
0.0
  0
VERTEX
  5
78
330
58
100
AcDbEntity
  8
_U+30EC_U+30A4_U+30E4_U+30FC 1
 62
   179
420
  2234388
370
    25
100
AcDbVertex
100
AcDb2dVertex
 10
87.65063610004916
 20
-153.8417724224771
 30
0.0
  0
VERTEX
  5
79
330
58
100
AcDbEntity
  8
_U+30EC_U+30A4_U+30E4_U+30FC 1
 62
   179
420
  2234388
370
    25
100
AcDbVertex
100
AcDb2dVertex
 10
87.8376078915877
 20
-154.3367196015118
 30
0.0
  0
VERTEX
  5
7A
330
58
100
AcDbEntity
  8
_U+30EC_U+30A4_U+30E4_U+30FC 1
 62
   179
420
  2234388
370
    25
100
AcDbVertex
100
AcDb2dVertex
 10
87.62523928676883
 20
-154.821789045835
 30
0.0
  0
VERTEX
  5
7B
330
58
100
AcDbEntity
  8
_U+30EC_U+30A4_U+30E4_U+30FC 1
 62
   179
420
  2234388
370
    25
100
AcDbVertex
100
AcDb2dVertex
 10
87.81221107830737
 20
-155.3170861173801
 30
0.0
  0
VERTEX
  5
7C
330
58
100
AcDbEntity
  8
_U+30EC_U+30A4_U+30E4_U+30FC 1
 62
   179
420
  2234388
370
    25
100
AcDbVertex
100
AcDb2dVertex
 10
87.59948719801658
 20
-155.8014503937211
 30
0.0
  0
VERTEX
  5
7D
330
58
100
AcDbEntity
  8
_U+30EC_U+30A4_U+30E4_U+30FC 1
 62
   179
420
  2234388
370
    25
100
AcDbVertex
100
AcDb2dVertex
 10
87.78680349910366
 20
-156.2967528482278
 30
0.0
  0
VERTEX
  5
7E
330
58
100
AcDbEntity
  8
_U+30EC_U+30A4_U+30E4_U+30FC 1
 62
   179
420
  2234388
370
    25
100
AcDbVertex
100
AcDb2dVertex
 10
87.57443489428478
 20
-156.7811171245688
 30
0.0
  0
VERTEX
  5
7F
330
58
100
AcDbEntity
  8
_U+30EC_U+30A4_U+30E4_U+30FC 1
 62
   179
420
  2234388
370
    25
100
AcDbVertex
100
AcDb2dVertex
 10
87.76105141035141
 20
-157.27817980755
 30
0.0
  0
VERTEX
  5
80
330
58
100
AcDbEntity
  8
_U+30EC_U+30A4_U+30E4_U+30FC 1
 62
   179
420
  2234388
370
    25
100
AcDbVertex
100
AcDb2dVertex
 10
87.54868280553254
 20
-157.7650148633094
 30
0.0
  0
VERTEX
  5
81
330
58
100
AcDbEntity
  8
_U+30EC_U+30A4_U+30E4_U+30FC 1
 62
   179
420
  2234388
370
    25
100
AcDbVertex
100
AcDb2dVertex
 10
87.73565459707108
 20
-158.2620775462906
 30
0.0
  0
VERTEX
  5
82
330
58
100
AcDbEntity
  8
_U+30EC_U+30A4_U+30E4_U+30FC 1
 62
   179
420
  2234388
370
    25
100
AcDbVertex
100
AcDb2dVertex
 10
87.52328599225221
 20
-158.7482074340678
 30
0.0
  0
VERTEX
  5
83
330
58
100
AcDbEntity
  8
_U+30EC_U+30A4_U+30E4_U+30FC 1
 62
   179
420
  2234388
370
    25
100
AcDbVertex
100
AcDb2dVertex
 10
87.71025778379075
 20
-159.245270117049
 30
0.0
  0
VERTEX
  5
84
330
58
100
AcDbEntity
  8
_U+30EC_U+30A4_U+30E4_U+30FC 1
 62
   179
420
  2234388
370
    25
100
AcDbVertex
100
AcDb2dVertex
 10
87.49753390349997
 20
-159.7324550653186
 30
0.0
  0
VERTEX
  5
85
330
58
100
AcDbEntity
  8
_U+30EC_U+30A4_U+30E4_U+30FC 1
 62
   179
420
  2234388
370
    25
100
AcDbVertex
100
AcDb2dVertex
 10
87.68450569503851
 20
-160.2298730237717
 30
0.0
  0
VERTEX
  5
86
330
58
100
AcDbEntity
  8
_U+30EC_U+30A4_U+30E4_U+30FC 1
 62
   179
420
  2234388
370
    25
100
AcDbVertex
100
AcDb2dVertex
 10
87.47212632429626
 20
-160.7174132475133
 30
0.0
  0
VERTEX
  5
87
330
58
100
AcDbEntity
  8
_U+30EC_U+30A4_U+30E4_U+30FC 1
 62
   179
420
  2234388
370
    25
100
AcDbVertex
100
AcDb2dVertex
 10
87.6590981158348
 20
-161.2151810984766
 30
0.0
  0
VERTEX
  5
88
330
58
100
AcDbEntity
  8
_U+30EC_U+30A4_U+30E4_U+30FC 1
 62
   179
420
  2234388
370
    25
100
AcDbVertex
100
AcDb2dVertex
 10
87.44637423554401
 20
-161.7009557107819
 30
0.0
  0
VERTEX
  5
89
330
58
100
AcDbEntity
  8
_U+30EC_U+30A4_U+30E4_U+30FC 1
 62
   179
420
  2234388
370
    25
100
AcDbVertex
100
AcDb2dVertex
 10
87.63370130255447
 20
-162.1976685012529
 30
0.0
  0
VERTEX
  5
8A
330
58
100
AcDbEntity
  8
_U+30EC_U+30A4_U+30E4_U+30FC 1
 62
   179
420
  2234388
370
    25
100
AcDbVertex
100
AcDb2dVertex
 10
87.420977422264
 20
-162.6834431135582
 30
0.0
  0
VERTEX
  5
8B
330
58
100
AcDbEntity
  8
_U+30EC_U+30A4_U+30E4_U+30FC 1
 62
   179
420
  2234388
370
    25
100
AcDbVertex
100
AcDb2dVertex
 10
87.60794921380223
 20
-163.1787401851032
 30
0.0
  0
VERTEX
  5
8C
330
58
100
AcDbEntity
  8
_U+30EC_U+30A4_U+30E4_U+30FC 1
 62
   179
420
  2234388
370
    25
100
AcDbVertex
100
AcDb2dVertex
 10
87.39558060898335
 20
-163.6631044614442
 30
0.0
  0
SEQEND
  5
8D
330
58
100
AcDbEntity
  8
_U+30EC_U+30A4_U+30E4_U+30FC 1
 62
   179
420
  2234388
370
    25
  0
POLYLINE
  5
8E
330
1F
100
AcDbEntity
  8
_U+30EC_U+30A4_U+30E4_U+30FC 1
 62
   179
420
  2234388
370
    25
100
AcDb2dPolyline
 66
     1
 10
0.0
 20
0.0
 30
0.0
  0
VERTEX
  5
8F
330
8E
100
AcDbEntity
  8
_U+30EC_U+30A4_U+30E4_U+30FC 1
 62
   179
420
  2234388
370
    25
100
AcDbVertex
100
AcDb2dVertex
 10
87.49541301659187
 20
-163.6655806238243
 30
0.0
  0
VERTEX
  5
90
330
8E
100
AcDbEntity
  8
_U+30EC_U+30A4_U+30E4_U+30FC 1
 62
   179
420
  2234388
370
    25
100
AcDbVertex
100
AcDb2dVertex
 10
87.0950067938187
 20
-163.6549977211305
 30
0.0
  0
SEQEND
  5
91
330
8E
100
AcDbEntity
  8
_U+30EC_U+30A4_U+30E4_U+30FC 1
 62
   179
420
  2234388
370
    25
  0
POLYLINE
  5
92
330
1F
100
AcDbEntity
  8
_U+30EC_U+30A4_U+30E4_U+30FC 1
 62
   179
420
  2234388
370
    25
100
AcDb2dPolyline
 66
     1
 10
0.0
 20
0.0
 30
0.0
  0
VERTEX
  5
93
330
92
100
AcDbEntity
  8
_U+30EC_U+30A4_U+30E4_U+30FC 1
 62
   179
420
  2234388
370
    25
100
AcDbVertex
100
AcDb2dVertex
 10
87.09508215528244
 20
-163.6548900618966
 30
0.0
  0
VERTEX
  5
94
330
92
100
AcDbEntity
  8
_U+30EC_U+30A4_U+30E4_U+30FC 1
 62
   179
420
  2234388
370
    25
100
AcDbVertex
100
AcDb2dVertex
 10
87.14976228018772
 20
-137.6548190302564
 30
0.0
  0
SEQEND
  5
95
330
92
100
AcDbEntity
  8
_U+30EC_U+30A4_U+30E4_U+30FC 1
 62
   179
420
  2234388
370
    25
  0
POLYLINE
  5
96
330
1F
100
AcDbEntity
  8
_U+30EC_U+30A4_U+30E4_U+30FC 1
 62
   179
420
  2234388
370
    25
100
AcDb2dPolyline
 66
     1
 10
0.0
 20
0.0
 30
0.0
  0
VERTEX
  5
97
330
96
100
AcDbEntity
  8
_U+30EC_U+30A4_U+30E4_U+30FC 1
 62
   179
420
  2234388
370
    25
100
AcDbVertex
100
AcDb2dVertex
 10
98.16694079170176
 20
-144.8140181285372
 30
0.0
  0
VERTEX
  5
98
330
96
100
AcDbEntity
  8
_U+30EC_U+30A4_U+30E4_U+30FC 1
 62
   179
420
  2234388
370
    25
100
AcDbVertex
100
AcDb2dVertex
 10
98.69998319065704
 20
-145.0009953030374
 30
0.0
  0
VERTEX
  5
99
330
96
100
AcDbEntity
  8
_U+30EC_U+30A4_U+30E4_U+30FC 1
 62
   179
420
  2234388
370
    25
100
AcDbVertex
100
AcDb2dVertex
 10
99.22385302288285
 20
-144.7886213152572
 30
0.0
  0
VERTEX
  5
9A
330
96
100
AcDbEntity
  8
_U+30EC_U+30A4_U+30E4_U+30FC 1
 62
   179
420
  2234388
370
    25
100
AcDbVertex
100
AcDb2dVertex
 10
99.75726146323375
 20
-144.9755931067954
 30
0.0
  0
VERTEX
  5
9B
330
96
100
AcDbEntity
  8
_U+30EC_U+30A4_U+30E4_U+30FC 1
 62
   179
420
  2234388
370
    25
100
AcDbVertex
100
AcDb2dVertex
 10
100.2818418464031
 20
-144.7628692265049
 30
0.0
  0
VERTEX
  5
9C
330
96
100
AcDbEntity
  8
_U+30EC_U+30A4_U+30E4_U+30FC 1
 62
   179
420
  2234388
370
    25
100
AcDbVertex
100
AcDb2dVertex
 10
100.8155947963025
 20
-144.9501909105534
 30
0.0
  0
VERTEX
  5
9D
330
96
100
AcDbEntity
  8
_U+30EC_U+30A4_U+30E4_U+30FC 1
 62
   179
420
  2234388
370
    25
100
AcDbVertex
100
AcDb2dVertex
 10
101.339464628528
 20
-144.7378223057345
 30
0.0
  0
VERTEX
  5
9E
330
96
100
AcDbEntity
  8
_U+30EC_U+30A4_U+30E4_U+30FC 1
 62
   179
420
  2234388
370
    25
100
AcDbVertex
100
AcDb2dVertex
 10
101.8725177934067
 20
-144.924794097273
 30
0.0
  0
VERTEX
  5
9F
330
96
100
AcDbEntity
  8
_U+30EC_U+30A4_U+30E4_U+30FC 1
 62
   179
420
  2234388
370
    25
100
AcDbVertex
100
AcDb2dVertex
 10
102.3963876256325
 20
-144.7124201094925
 30
0.0
  0
VERTEX
  5
A0
330
96
100
AcDbEntity
  8
_U+30EC_U+30A4_U+30E4_U+30FC 1
 62
   179
420
  2234388
370
    25
100
AcDbVertex
100
AcDb2dVertex
 10
102.9290855150392
 20
-144.899391901031
 30
0.0
  0
VERTEX
  5
A1
330
96
100
AcDbEntity
  8
_U+30EC_U+30A4_U+30E4_U+30FC 1
 62
   179
420
  2234388
370
    25
100
AcDbVertex
100
AcDb2dVertex
 10
103.4536658982089
 20
-144.6870232962121
 30
0.0
  0
VERTEX
  5
A2
330
96
100
AcDbEntity
  8
_U+30EC_U+30A4_U+30E4_U+30FC 1
 62
   179
420
  2234388
370
    25
100
AcDbVertex
100
AcDb2dVertex
 10
103.9870635726364
 20
-144.8739950877507
 30
0.0
  0
VERTEX
  5
A3
330
96
100
AcDbEntity
  8
_U+30EC_U+30A4_U+30E4_U+30FC 1
 62
   179
420
  2234388
370
    25
100
AcDbVertex
100
AcDb2dVertex
 10
104.5102336198414
 20
-144.6612658244982
 30
0.0
  0
VERTEX
  5
A4
330
96
100
AcDbEntity
  8
_U+30EC_U+30A4_U+30E4_U+30FC 1
 62
   179
420
  2234388
370
    25
100
AcDbVertex
100
AcDb2dVertex
 10
105.0436312942686
 20
-144.8485928915087
 30
0.0
  0
VERTEX
  5
A5
330
96
100
AcDbEntity
  8
_U+30EC_U+30A4_U+30E4_U+30FC 1
 62
   179
420
  2234388
370
    25
100
AcDbVertex
100
AcDb2dVertex
 10
105.5671566169459
 20
-144.6358690112179
 30
0.0
  0
VERTEX
  5
A6
330
96
100
AcDbEntity
  8
_U+30EC_U+30A4_U+30E4_U+30FC 1
 62
   179
420
  2234388
370
    25
100
AcDbVertex
100
AcDb2dVertex
 10
106.1005542913731
 20
-144.8231906952666
 30
0.0
  0
VERTEX
  5
A7
330
96
100
AcDbEntity
  8
_U+30EC_U+30A4_U+30E4_U+30FC 1
 62
   179
420
  2234388
370
    25
100
AcDbVertex
100
AcDb2dVertex
 10
106.6244348895223
 20
-144.6108220904478
 30
0.0
  0
VERTEX
  5
A8
330
96
100
AcDbEntity
  8
_U+30EC_U+30A4_U+30E4_U+30FC 1
 62
   179
420
  2234388
370
    25
100
AcDbVertex
100
AcDb2dVertex
 10
107.1578325639495
 20
-144.7977938819863
 30
0.0
  0
VERTEX
  5
A9
330
96
100
AcDbEntity
  8
_U+30EC_U+30A4_U+30E4_U+30FC 1
 62
   179
420
  2234388
370
    25
100
AcDbVertex
100
AcDb2dVertex
 10
107.6820576716472
 20
-144.5854198942058
 30
0.0
  0
VERTEX
  5
AA
330
96
100
AcDbEntity
  8
_U+30EC_U+30A4_U+30E4_U+30FC 1
 62
   179
420
  2234388
370
    25
100
AcDbVertex
100
AcDb2dVertex
 10
108.2147555610539
 20
-144.7723916857443
 30
0.0
  0
VERTEX
  5
AB
330
96
100
AcDbEntity
  8
_U+30EC_U+30A4_U+30E4_U+30FC 1
 62
   179
420
  2234388
370
    25
100
AcDbVertex
100
AcDb2dVertex
 10
108.7386253932798
 20
-144.5596678054535
 30
0.0
  0
VERTEX
  5
AC
330
96
100
AcDbEntity
  8
_U+30EC_U+30A4_U+30E4_U+30FC 1
 62
   179
420
  2234388
370
    25
100
AcDbVertex
100
AcDb2dVertex
 10
109.272023067707
 20
-144.746994872464
 30
0.0
  0
VERTEX
  5
AD
330
96
100
AcDbEntity
  8
_U+30EC_U+30A4_U+30E4_U+30FC 1
 62
   179
420
  2234388
370
    25
100
AcDbVertex
100
AcDb2dVertex
 10
109.7959036658561
 20
-144.5342656092115
 30
0.0
  0
VERTEX
  5
AE
330
96
100
AcDbEntity
  8
_U+30EC_U+30A4_U+30E4_U+30FC 1
 62
   179
420
  2234388
370
    25
100
AcDbVertex
100
AcDb2dVertex
 10
110.3300118912272
 20
-144.7212427837117
 30
0.0
  0
VERTEX
  5
AF
330
96
100
AcDbEntity
  8
_U+30EC_U+30A4_U+30E4_U+30FC 1
 62
   179
420
  2234388
370
    25
100
AcDbVertex
100
AcDb2dVertex
 10
110.8542369989249
 20
-144.5088687959312
 30
0.0
  0
VERTEX
  5
B0
330
96
100
AcDbEntity
  8
_U+30EC_U+30A4_U+30E4_U+30FC 1
 62
   179
420
  2234388
370
    25
100
AcDbVertex
100
AcDb2dVertex
 10
111.3865796128597
 20
-144.6961904799799
 30
0.0
  0
VERTEX
  5
B1
330
96
100
AcDbEntity
  8
_U+30EC_U+30A4_U+30E4_U+30FC 1
 62
   179
420
  2234388
370
    25
100
AcDbVertex
100
AcDb2dVertex
 10
111.9104494450855
 20
-144.4834665996891
 30
0.0
  0
VERTEX
  5
B2
330
96
100
AcDbEntity
  8
_U+30EC_U+30A4_U+30E4_U+30FC 1
 62
   179
420
  2234388
370
    25
100
AcDbVertex
100
AcDb2dVertex
 10
112.4438578854361
 20
-144.6707936666996
 30
0.0
  0
VERTEX
  5
B3
330
96
100
AcDbEntity
  8
_U+30EC_U+30A4_U+30E4_U+30FC 1
 62
   179
420
  2234388
370
    25
100
AcDbVertex
100
AcDb2dVertex
 10
112.9687827781543
 20
-144.4580697864088
 30
0.0
  0
VERTEX
  5
B4
330
96
100
AcDbEntity
  8
_U+30EC_U+30A4_U+30E4_U+30FC 1
 62
   179
420
  2234388
370
    25
100
AcDbVertex
100
AcDb2dVertex
 10
113.5036015544692
 20
-144.6450415779474
 30
0.0
  0
VERTEX
  5
B5
330
96
100
AcDbEntity
  8
_U+30EC_U+30A4_U+30E4_U+30FC 1
 62
   179
420
  2234388
370
    25
100
AcDbVertex
100
AcDb2dVertex
 10
114.0295922736031
 20
-144.4326675901668
 30
0.0
  0
VERTEX
  5
B6
330
96
100
AcDbEntity
  8
_U+30EC_U+30A4_U+30E4_U+30FC 1
 62
   179
420
  2234388
370
    25
100
AcDbVertex
100
AcDb2dVertex
 10
114.5654553444869
 20
-144.6196393817057
 30
0.0
  0
VERTEX
  5
B7
330
96
100
AcDbEntity
  8
_U+30EC_U+30A4_U+30E4_U+30FC 1
 62
   179
420
  2234388
370
    25
100
AcDbVertex
100
AcDb2dVertex
 10
115.0921566145646
 20
-144.4072653939248
 30
0.0
  0
VERTEX
  5
B8
330
96
100
AcDbEntity
  8
_U+30EC_U+30A4_U+30E4_U+30FC 1
 62
   179
420
  2234388
370
    25
100
AcDbVertex
100
AcDb2dVertex
 10
115.6287302363923
 20
-144.5938872929534
 30
0.0
  0
VERTEX
  5
B9
330
96
100
AcDbEntity
  8
_U+30EC_U+30A4_U+30E4_U+30FC 1
 62
   179
420
  2234388
370
    25
100
AcDbVertex
100
AcDb2dVertex
 10
116.1554315064701
 20
-144.3811634126623
 30
0.0
  0
VERTEX
  5
BA
330
96
100
AcDbEntity
  8
_U+30EC_U+30A4_U+30E4_U+30FC 1
 62
   179
420
  2234388
370
    25
100
AcDbVertex
100
AcDb2dVertex
 10
116.6920051282977
 20
-144.5684850967111
 30
0.0
  0
VERTEX
  5
BB
330
96
100
AcDbEntity
  8
_U+30EC_U+30A4_U+30E4_U+30FC 1
 62
   179
420
  2234388
370
    25
100
AcDbVertex
100
AcDb2dVertex
 10
117.219050907924
 20
-144.3557612164203
 30
0.0
  0
VERTEX
  5
BC
330
96
100
AcDbEntity
  8
_U+30EC_U+30A4_U+30E4_U+30FC 1
 62
   179
420
  2234388
370
    25
100
AcDbVertex
100
AcDb2dVertex
 10
117.7538589183154
 20
-144.5427330079588
 30
0.0
  0
VERTEX
  5
BD
330
96
100
AcDbEntity
  8
_U+30EC_U+30A4_U+30E4_U+30FC 1
 62
   179
420
  2234388
370
    25
100
AcDbVertex
100
AcDb2dVertex
 10
118.278794576957
 20
-144.33036440314
 30
0.0
  0
VERTEX
  5
BE
330
96
100
AcDbEntity
  8
_U+30EC_U+30A4_U+30E4_U+30FC 1
 62
   179
420
  2234388
370
    25
100
AcDbVertex
100
AcDb2dVertex
 10
118.8136133532719
 20
-144.5173361946785
 30
0.0
  0
VERTEX
  5
BF
330
96
100
AcDbEntity
  8
_U+30EC_U+30A4_U+30E4_U+30FC 1
 62
   179
420
  2234388
370
    25
100
AcDbVertex
100
AcDb2dVertex
 10
119.33853824599
 20
-144.304962206898
 30
0.0
  0
VERTEX
  5
C0
330
96
100
AcDbEntity
  8
_U+30EC_U+30A4_U+30E4_U+30FC 1
 62
   179
420
  2234388
370
    25
100
AcDbVertex
100
AcDb2dVertex
 10
119.873001746833
 20
-144.4919339984365
 30
0.0
  0
VERTEX
  5
C1
330
96
100
AcDbEntity
  8
_U+30EC_U+30A4_U+30E4_U+30FC 1
 62
   179
420
  2234388
370
    25
100
AcDbVertex
100
AcDb2dVertex
 10
120.3972268545307
 20
-144.2792101181457
 30
0.0
  0
VERTEX
  5
C2
330
96
100
AcDbEntity
  8
_U+30EC_U+30A4_U+30E4_U+30FC 1
 62
   179
420
  2234388
370
    25
100
AcDbVertex
100
AcDb2dVertex
 10
120.9313350799017
 20
-144.4665371851562
 30
0.0
  0
VERTEX
  5
C3
330
96
100
AcDbEntity
  8
_U+30EC_U+30A4_U+30E4_U+30FC 1
 62
   179
420
  2234388
370
    25
100
AcDbVertex
100
AcDb2dVertex
 10
121.4566152480918
 20
-144.2538079219037
 30
0.0
  0
VERTEX
  5
C4
330
96
100
AcDbEntity
  8
_U+30EC_U+30A4_U+30E4_U+30FC 1
 62
   179
420
  2234388
370
    25
100
AcDbVertex
100
AcDb2dVertex
 10
121.992489084899
 20
-144.4407797134422
 30
0.0
  0
VERTEX
  5
C5
330
96
100
AcDbEntity
  8
_U+30EC_U+30A4_U+30E4_U+30FC 1
 62
   179
420
  2234388
370
    25
100
AcDbVertex
100
AcDb2dVertex
 10
122.518124528561
 20
-144.2284111086234
 30
0.0
  0
VERTEX
  5
C6
330
96
100
AcDbEntity
  8
_U+30EC_U+30A4_U+30E4_U+30FC 1
 62
   179
420
  2234388
370
    25
100
AcDbVertex
100
AcDb2dVertex
 10
123.052232753932
 20
-144.4153829001619
 30
0.0
  0
VERTEX
  5
C7
330
96
100
AcDbEntity
  8
_U+30EC_U+30A4_U+30E4_U+30FC 1
 62
   179
420
  2234388
370
    25
100
AcDbVertex
100
AcDb2dVertex
 10
123.5761133520812
 20
-144.2030089123813
 30
0.0
  0
VERTEX
  5
C8
330
96
100
AcDbEntity
  8
_U+30EC_U+30A4_U+30E4_U+30FC 1
 62
   179
420
  2234388
370
    25
100
AcDbVertex
100
AcDb2dVertex
 10
124.1088004755646
 20
-144.3903359793918
 30
0.0
  0
VERTEX
  5
C9
330
96
100
AcDbEntity
  8
_U+30EC_U+30A4_U+30E4_U+30FC 1
 62
   179
420
  2234388
370
    25
100
AcDbVertex
100
AcDb2dVertex
 10
124.6312707377495
 20
-144.177612099101
 30
0.0
  0
VERTEX
  5
CA
330
96
100
AcDbEntity
  8
_U+30EC_U+30A4_U+30E4_U+30FC 1
 62
   179
420
  2234388
370
    25
100
AcDbVertex
100
AcDb2dVertex
 10
125.1629028007405
 20
-144.3649337831498
 30
0.0
  0
SEQEND
  5
CB
330
96
100
AcDbEntity
  8
_U+30EC_U+30A4_U+30E4_U+30FC 1
 62
   179
420
  2234388
370
    25
  0
POLYLINE
  5
CC
330
1F
100
AcDbEntity
  8
_U+30EC_U+30A4_U+30E4_U+30FC 1
 62
   179
420
  2234388
370
    25
100
AcDb2dPolyline
 66
     1
 10
0.0
 20
0.0
 30
0.0
  0
VERTEX
  5
CD
330
CC
100
AcDbEntity
  8
_U+30EC_U+30A4_U+30E4_U+30FC 1
 62
   179
420
  2234388
370
    25
100
AcDbVertex
100
AcDb2dVertex
 10
125.1604374042839
 20
-144.2648483763416
 30
0.0
  0
VERTEX
  5
CE
330
CC
100
AcDbEntity
  8
_U+30EC_U+30A4_U+30E4_U+30FC 1
 62
   179
420
  2234388
370
    25
100
AcDbVertex
100
AcDb2dVertex
 10
125.1501990111387
 20
-143.8644475365301
 30
0.0
  0
SEQEND
  5
CF
330
CC
100
AcDbEntity
  8
_U+30EC_U+30A4_U+30E4_U+30FC 1
 62
   179
420
  2234388
370
    25
  0
POLYLINE
  5
D0
330
1F
100
AcDbEntity
  8
_U+30EC_U+30A4_U+30E4_U+30FC 1
 62
   179
420
  2234388
370
    25
100
AcDb2dPolyline
 66
     1
 10
0.0
 20
0.0
 30
0.0
  0
VERTEX
  5
D1
330
D0
100
AcDbEntity
  8
_U+30EC_U+30A4_U+30E4_U+30FC 1
 62
   179
420
  2234388
370
    25
100
AcDbVertex
100
AcDb2dVertex
 10
125.1501021178282
 20
-143.8645121320704
 30
0.0
  0
VERTEX
  5
D2
330
D0
100
AcDbEntity
  8
_U+30EC_U+30A4_U+30E4_U+30FC 1
 62
   179
420
  2234388
370
    25
100
AcDbVertex
100
AcDb2dVertex
 10
98.19399555718437
 20
-143.9191976399371
 30
0.0
  0
SEQEND
  5
D3
330
D0
100
AcDbEntity
  8
_U+30EC_U+30A4_U+30E4_U+30FC 1
 62
   179
420
  2234388
370
    25
  0
SPLINE
  5
D4
330
1F
100
AcDbEntity
  8
_U+30EC_U+30A4_U+30E4_U+30FC 1
 62
   179
420
  2234388
370
     9
100
AcDbSpline
210
0.0
220
0.0
230
1.0
 70
    11
 71
     3
 72
    17
 73
    13
 74
     0
 42
0.0000000001
 43
0.0000000001
 12
1.0
 22
0.0
 32
0.0
 13
1.0
 23
0.0
 33
0.0
 40
0.0
 40
0.0
 40
0.0
 40
0.0
 40
1.0
 40
1.0
 40
1.0
 40
2.0
 40
2.0
 40
2.0
 40
3.0
 40
3.0
 40
3.0
 40
4.0
 40
4.0
 40
4.0
 40
4.0
 10
99.14981576772014
 20
-133.6553323199662
 30
0.0
 10
99.14981576772014
 20
-133.710367720343
 30
0.0
 10
99.19461277495178
 20
-133.7551754934981
 30
0.0
 10
99.24964817532864
 20
-133.7551754934981
 30
0.0
 10
99.30468357570551
 20
-133.7551754934981
 30
0.0
 10
99.34948058293716
 20
-133.710367720343
 30
0.0
 10
99.34948058293716
 20
-133.6553323199662
 30
0.0
 10
99.34948058293716
 20
-133.6003076855127
 30
0.0
 10
99.30468357570551
 20
-133.5554999123576
 30
0.0
 10
99.24964817532864
 20
-133.5554999123576
 30
0.0
 10
99.19461277495178
 20
-133.5554999123576
 30
0.0
 10
99.14981576772014
 20
-133.6003076855127
 30
0.0
 10
99.14981576772014
 20
-133.6553323199662
 30
0.0
  0
SPLINE
  5
D5
330
1F
100
AcDbEntity
  8
_U+30EC_U+30A4_U+30E4_U+30FC 1
 62
   179
420
  2234388
370
     9
100
AcDbSpline
210
0.0
220
0.0
230
1.0
 70
    11
 71
     3
 72
    17
 73
    13
 74
     0
 42
0.0000000001
 43
0.0000000001
 12
1.0
 22
0.0
 32
0.0
 13
1.0
 23
0.0
 33
0.0
 40
0.0
 40
0.0
 40
0.0
 40
0.0
 40
1.0
 40
1.0
 40
1.0
 40
2.0
 40
2.0
 40
2.0
 40
3.0
 40
3.0
 40
3.0
 40
4.0
 40
4.0
 40
4.0
 40
4.0
 10
82.02320181597456
 20
-137.7546514378649
 30
0.0
 10
82.02320181597456
 20
-137.8096868382418
 30
0.0
 10
82.06799882320588
 20
-137.8544946113968
 30
0.0
 10
82.12303422358275
 20
-137.8544946113968
 30
0.0
 10
82.17806962395962
 20
-137.8544946113968
 30
0.0
 10
82.22286663119125
 20
-137.8096868382418
 30
0.0
 10
82.22286663119125
 20
-137.7546514378649
 30
0.0
 10
82.22286663119125
 20
-137.6989162524676
 30
0.0
 10
82.17806962395962
 20
-137.6548190302564
 30
0.0
 10
82.12303422358275
 20
-137.6548190302564
 30
0.0
 10
82.06799882320588
 20
-137.6548190302564
 30
0.0
 10
82.02320181597456
 20
-137.6989162524676
 30
0.0
 10
82.02320181597456
 20
-137.7546514378649
 30
0.0
  0
SPLINE
  5
D6
330
1F
100
AcDbEntity
  8
_U+30EC_U+30A4_U+30E4_U+30FC 1
 62
   179
420
  2234388
370
     9
100
AcDbSpline
210
0.0
220
0.0
230
1.0
 70
    11
 71
     3
 72
    17
 73
    13
 74
     0
 42
0.0000000001
 43
0.0000000001
 12
1.0
 22
0.0
 32
0.0
 13
1.0
 23
0.0
 33
0.0
 40
0.0
 40
0.0
 40
0.0
 40
0.0
 40
1.0
 40
1.0
 40
1.0
 40
2.0
 40
2.0
 40
2.0
 40
3.0
 40
3.0
 40
3.0
 40
4.0
 40
4.0
 40
4.0
 40
4.0
 10
125.1494346305779
 20
-133.6553323199662
 30
0.0
 10
125.1494346305779
 20
-133.710367720343
 30
0.0
 10
125.1942316378095
 20
-133.7551754934981
 30
0.0
 10
125.2492670381864
 20
-133.7551754934981
 30
0.0
 10
125.3043024385633
 20
-133.7551754934981
 30
0.0
 10
125.3490994457949
 20
-133.710367720343
 30
0.0
 10
125.3490994457949
 20
-133.6553323199662
 30
0.0
 10
125.3490994457949
 20
-133.6003076855127
 30
0.0
 10
125.3043024385633
 20
-133.5554999123576
 30
0.0
 10
125.2492670381864
 20
-133.5554999123576
 30
0.0
 10
125.1942316378095
 20
-133.5554999123576
 30
0.0
 10
125.1494346305779
 20
-133.6003076855127
 30
0.0
 10
125.1494346305779
 20
-133.6553323199662
 30
0.0
  0
SPLINE
  5
D7
330
1F
100
AcDbEntity
  8
_U+30EC_U+30A4_U+30E4_U+30FC 1
 62
   179
420
  2234388
370
     9
100
AcDbSpline
210
0.0
220
0.0
230
1.0
 70
    11
 71
     3
 72
    17
 73
    13
 74
     0
 42
0.0000000001
 43
0.0000000001
 12
1.0
 22
0.0
 32
0.0
 13
1.0
 23
0.0
 33
0.0
 40
0.0
 40
0.0
 40
0.0
 40
0.0
 40
1.0
 40
1.0
 40
1.0
 40
2.0
 40
2.0
 40
2.0
 40
3.0
 40
3.0
 40
3.0
 40
4.0
 40
4.0
 40
4.0
 40
4.0
 10
82.02320181597456
 20
-163.754442555497
 30
0.0
 10
82.02320181597456
 20
-163.8094779558738
 30
0.0
 10
82.06799882320588
 20
-163.8542803460672
 30
0.0
 10
82.12303422358275
 20
-163.8542803460672
 30
0.0
 10
82.17806962395962
 20
-163.8542803460672
 30
0.0
 10
82.22286663119125
 20
-163.8094779558738
 30
0.0
 10
82.22286663119125
 20
-163.754442555497
 30
0.0
 10
82.22286663119125
 20
-163.6994125380818
 30
0.0
 10
82.17806962395962
 20
-163.6546101478884
 30
0.0
 10
82.12303422358275
 20
-163.6546101478884
 30
0.0
 10
82.06799882320588
 20
-163.6546101478884
 30
0.0
 10
82.02320181597456
 20
-163.6994125380818
 30
0.0
 10
82.02320181597456
 20
-163.754442555497
 30
0.0
  0
POLYLINE
  5
D8
330
1F
100
AcDbEntity
  8
_U+30EC_U+30A4_U+30E4_U+30FC 1
 62
   179
420
  2234388
370
     9
100
AcDb2dPolyline
 66
     1
 10
0.0
 20
0.0
 30
0.0
  0
VERTEX
  5
D9
330
D8
100
AcDbEntity
  8
_U+30EC_U+30A4_U+30E4_U+30FC 1
 62
   179
420
  2234388
370
     9
100
AcDbVertex
100
AcDb2dVertex
 10
125.2493423996501
 20
-133.6553323199662
 30
0.0
  0
VERTEX
  5
DA
330
D8
100
AcDbEntity
  8
_U+30EC_U+30A4_U+30E4_U+30FC 1
 62
   179
420
  2234388
370
     9
100
AcDbVertex
100
AcDb2dVertex
 10
99.24961587755848
 20
-133.6553323199662
 30
0.0
  0
SEQEND
  5
DB
330
D8
100
AcDbEntity
  8
_U+30EC_U+30A4_U+30E4_U+30FC 1
 62
   179
420
  2234388
370
     9
  0
POLYLINE
  5
DC
330
1F
100
AcDbEntity
  8
_U+30EC_U+30A4_U+30E4_U+30FC 1
 62
   179
420
  2234388
370
     9
100
AcDb2dPolyline
 66
     1
 10
0.0
 20
0.0
 30
0.0
  0
VERTEX
  5
DD
330
DC
100
AcDbEntity
  8
_U+30EC_U+30A4_U+30E4_U+30FC 1
 62
   179
420
  2234388
370
     9
100
AcDbVertex
100
AcDb2dVertex
 10
125.2493423996501
 20
-135.9152718945965
 30
0.0
  0
VERTEX
  5
DE
330
DC
100
AcDbEntity
  8
_U+30EC_U+30A4_U+30E4_U+30FC 1
 62
   179
420
  2234388
370
     9
100
AcDbVertex
100
AcDb2dVertex
 10
125.2493423996501
 20
-132.6556086738402
 30
0.0
  0
SEQEND
  5
DF
330
DC
100
AcDbEntity
  8
_U+30EC_U+30A4_U+30E4_U+30FC 1
 62
   179
420
  2234388
370
     9
  0
POLYLINE
  5
E0
330
1F
100
AcDbEntity
  8
_U+30EC_U+30A4_U+30E4_U+30FC 1
 62
   179
420
  2234388
370
     9
100
AcDb2dPolyline
 66
     1
 10
0.0
 20
0.0
 30
0.0
  0
VERTEX
  5
E1
330
E0
100
AcDbEntity
  8
_U+30EC_U+30A4_U+30E4_U+30FC 1
 62
   179
420
  2234388
370
     9
100
AcDbVertex
100
AcDb2dVertex
 10
99.24972353679239
 20
-135.7154886542222
 30
0.0
  0
VERTEX
  5
E2
330
E0
100
AcDbEntity
  8
_U+30EC_U+30A4_U+30E4_U+30FC 1
 62
   179
420
  2234388
370
     9
100
AcDbVertex
100
AcDb2dVertex
 10
99.24972353679239
 20
-132.6555010146063
 30
0.0
  0
SEQEND
  5
E3
330
E0
100
AcDbEntity
  8
_U+30EC_U+30A4_U+30E4_U+30FC 1
 62
   179
420
  2234388
370
     9
  0
INSERT
  5
E5
330
1F
100
AcDbEntity
  8
_U+30EC_U+30A4_U+30E4_U+30FC 1
100
AcDbBlockReference
  2
block 3
 10
0.0
 20
0.0
 30
0.0
  0
SPLINE
  5
ED
330
1F
100
AcDbEntity
  8
_U+30EC_U+30A4_U+30E4_U+30FC 1
 62
   179
420
  2234388
370
     9
100
AcDbSpline
210
0.0
220
0.0
230
1.0
 70
    11
 71
     3
 72
    17
 73
    13
 74
     0
 42
0.0000000001
 43
0.0000000001
 12
1.0
 22
0.0
 32
0.0
 13
1.0
 23
0.0
 33
0.0
 40
0.0
 40
0.0
 40
0.0
 40
0.0
 40
1.0
 40
1.0
 40
1.0
 40
2.0
 40
2.0
 40
2.0
 40
3.0
 40
3.0
 40
3.0
 40
4.0
 40
4.0
 40
4.0
 40
4.0
 10
128.0963585427372
 20
-143.8645121320704
 30
0.0
 10
128.1513831771907
 20
-143.8645121320704
 30
0.0
 10
128.1961909503457
 20
-143.8197097418771
 30
0.0
 10
128.1961909503457
 20
-143.7646797244619
 30
0.0
 10
128.1961909503457
 20
-143.7096443240851
 30
0.0
 10
128.1513831771907
 20
-143.6648419338918
 30
0.0
 10
128.0963585427372
 20
-143.6648419338918
 30
0.0
 10
128.0413231423603
 20
-143.6648419338918
 30
0.0
 10
127.9965153692053
 20
-143.7096443240851
 30
0.0
 10
127.9965153692053
 20
-143.7646797244619
 30
0.0
 10
127.9965153692053
 20
-143.8197097418771
 30
0.0
 10
128.0413231423603
 20
-143.8645121320704
 30
0.0
 10
128.0963585427372
 20
-143.8645121320704
 30
0.0
  0
SPLINE
  5
EE
330
1F
100
AcDbEntity
  8
_U+30EC_U+30A4_U+30E4_U+30FC 1
 62
   179
420
  2234388
370
     9
100
AcDbSpline
210
0.0
220
0.0
230
1.0
 70
    11
 71
     3
 72
    17
 73
    13
 74
     0
 42
0.0000000001
 43
0.0000000001
 12
1.0
 22
0.0
 32
0.0
 13
1.0
 23
0.0
 33
0.0
 40
0.0
 40
0.0
 40
0.0
 40
0.0
 40
1.0
 40
1.0
 40
1.0
 40
2.0
 40
2.0
 40
2.0
 40
3.0
 40
3.0
 40
3.0
 40
4.0
 40
4.0
 40
4.0
 40
4.0
 10
128.0963585427372
 20
-137.8648944933929
 30
0.0
 10
128.1513831771907
 20
-137.8648944933929
 30
0.0
 10
128.1961909503457
 20
-137.8200974861613
 30
0.0
 10
128.1961909503457
 20
-137.7647068103125
 30
0.0
 10
128.1961909503457
 20
-137.7096821758591
 30
0.0
 10
128.1513831771907
 20
-137.664874402704
 30
0.0
 10
128.0963585427372
 20
-137.664874402704
 30
0.0
 10
128.0413231423603
 20
-137.664874402704
 30
0.0
 10
127.9965153692053
 20
-137.7096821758591
 30
0.0
 10
127.9965153692053
 20
-137.7647068103125
 30
0.0
 10
127.9965153692053
 20
-137.8200974861613
 30
0.0
 10
128.0413231423603
 20
-137.8648944933929
 30
0.0
 10
128.0963585427372
 20
-137.8648944933929
 30
0.0
  0
POLYLINE
  5
EF
330
1F
100
AcDbEntity
  8
_U+30EC_U+30A4_U+30E4_U+30FC 1
 62
   179
420
  2234388
370
     9
100
AcDb2dPolyline
 66
     1
 10
0.0
 20
0.0
 30
0.0
  0
VERTEX
  5
F0
330
EF
100
AcDbEntity
  8
_U+30EC_U+30A4_U+30E4_U+30FC 1
 62
   179
420
  2234388
370
     9
100
AcDbVertex
100
AcDb2dVertex
 10
128.0963585427372
 20
-137.7646314488488
 30
0.0
  0
VERTEX
  5
F1
330
EF
100
AcDbEntity
  8
_U+30EC_U+30A4_U+30E4_U+30FC 1
 62
   179
420
  2234388
370
     9
100
AcDbVertex
100
AcDb2dVertex
 10
128.0963585427372
 20
-143.7646797244619
 30
0.0
  0
SEQEND
  5
F2
330
EF
100
AcDbEntity
  8
_U+30EC_U+30A4_U+30E4_U+30FC 1
 62
   179
420
  2234388
370
     9
  0
POLYLINE
  5
F3
330
1F
100
AcDbEntity
  8
_U+30EC_U+30A4_U+30E4_U+30FC 1
 62
   179
420
  2234388
370
     9
100
AcDb2dPolyline
 66
     1
 10
0.0
 20
0.0
 30
0.0
  0
VERTEX
  5
F4
330
F3
100
AcDbEntity
  8
_U+30EC_U+30A4_U+30E4_U+30FC 1
 62
   179
420
  2234388
370
     9
100
AcDbVertex
100
AcDb2dVertex
 10
129.0899240806833
 20
-137.7646314488488
 30
0.0
  0
VERTEX
  5
F5
330
F3
100
AcDbEntity
  8
_U+30EC_U+30A4_U+30E4_U+30FC 1
 62
   179
420
  2234388
370
     9
100
AcDbVertex
100
AcDb2dVertex
 10
125.8302500940036
 20
-137.7646314488488
 30
0.0
  0
SEQEND
  5
F6
330
F3
100
AcDbEntity
  8
_U+30EC_U+30A4_U+30E4_U+30FC 1
 62
   179
420
  2234388
370
     9
  0
POLYLINE
  5
F7
330
1F
100
AcDbEntity
  8
_U+30EC_U+30A4_U+30E4_U+30FC 1
 62
   179
420
  2234388
370
     9
100
AcDb2dPolyline
 66
     1
 10
0.0
 20
0.0
 30
0.0
  0
VERTEX
  5
F8
330
F7
100
AcDbEntity
  8
_U+30EC_U+30A4_U+30E4_U+30FC 1
 62
   179
420
  2234388
370
     9
100
AcDbVertex
100
AcDb2dVertex
 10
129.0899240806833
 20
-143.7646097459599
 30
0.0
  0
VERTEX
  5
F9
330
F7
100
AcDbEntity
  8
_U+30EC_U+30A4_U+30E4_U+30FC 1
 62
   179
420
  2234388
370
     9
100
AcDbVertex
100
AcDb2dVertex
 10
125.8302500940036
 20
-143.7646097459599
 30
0.0
  0
SEQEND
  5
FA
330
F7
100
AcDbEntity
  8
_U+30EC_U+30A4_U+30E4_U+30FC 1
 62
   179
420
  2234388
370
     9
  0
INSERT
  5
FC
330
1F
100
AcDbEntity
  8
_U+30EC_U+30A4_U+30E4_U+30FC 1
100
AcDbBlockReference
  2
block 4
 10
0.0
 20
0.0
 30
0.0
  0
POLYLINE
  5
102
330
1F
100
AcDbEntity
  8
_U+30EC_U+30A4_U+30E4_U+30FC 1
 62
   179
420
  2234388
370
     9
100
AcDb2dPolyline
 66
     1
 10
0.0
 20
0.0
 30
0.0
  0
VERTEX
  5
103
330
102
100
AcDbEntity
  8
_U+30EC_U+30A4_U+30E4_U+30FC 1
 62
   179
420
  2234388
370
     9
100
AcDbVertex
100
AcDb2dVertex
 10
82.12309881912309
 20
-137.7546514378649
 30
0.0
  0
VERTEX
  5
104
330
102
100
AcDbEntity
  8
_U+30EC_U+30A4_U+30E4_U+30FC 1
 62
   179
420
  2234388
370
     9
100
AcDbVertex
100
AcDb2dVertex
 10
82.12309881912309
 20
-163.7543725769949
 30
0.0
  0
SEQEND
  5
105
330
102
100
AcDbEntity
  8
_U+30EC_U+30A4_U+30E4_U+30FC 1
 62
   179
420
  2234388
370
     9
  0
POLYLINE
  5
106
330
1F
100
AcDbEntity
  8
_U+30EC_U+30A4_U+30E4_U+30FC 1
 62
   179
420
  2234388
370
     9
100
AcDb2dPolyline
 66
     1
 10
0.0
 20
0.0
 30
0.0
  0
VERTEX
  5
107
330
106
100
AcDbEntity
  8
_U+30EC_U+30A4_U+30E4_U+30FC 1
 62
   179
420
  2234388
370
     9
100
AcDbVertex
100
AcDb2dVertex
 10
80.83327660129234
 20
-137.7546514378649
 30
0.0
  0
VERTEX
  5
108
330
106
100
AcDbEntity
  8
_U+30EC_U+30A4_U+30E4_U+30FC 1
 62
   179
420
  2234388
370
     9
100
AcDbVertex
100
AcDb2dVertex
 10
85.19324949042044
 20
-137.7546514378649
 30
0.0
  0
SEQEND
  5
109
330
106
100
AcDbEntity
  8
_U+30EC_U+30A4_U+30E4_U+30FC 1
 62
   179
420
  2234388
370
     9
  0
POLYLINE
  5
10A
330
1F
100
AcDbEntity
  8
_U+30EC_U+30A4_U+30E4_U+30FC 1
 62
   179
420
  2234388
370
     9
100
AcDb2dPolyline
 66
     1
 10
0.0
 20
0.0
 30
0.0
  0
VERTEX
  5
10B
330
10A
100
AcDbEntity
  8
_U+30EC_U+30A4_U+30E4_U+30FC 1
 62
   179
420
  2234388
370
     9
100
AcDbVertex
100
AcDb2dVertex
 10
80.83327660129234
 20
-163.754442555497
 30
0.0
  0
VERTEX
  5
10C
330
10A
100
AcDbEntity
  8
_U+30EC_U+30A4_U+30E4_U+30FC 1
 62
   179
420
  2234388
370
     9
100
AcDbVertex
100
AcDb2dVertex
 10
85.19324949042044
 20
-163.754442555497
 30
0.0
  0
SEQEND
  5
10D
330
10A
100
AcDbEntity
  8
_U+30EC_U+30A4_U+30E4_U+30FC 1
 62
   179
420
  2234388
370
     9
  0
INSERT
  5
10F
330
1F
100
AcDbEntity
  8
_U+30EC_U+30A4_U+30E4_U+30FC 1
100
AcDbBlockReference
  2
block 5
 10
0.0
 20
0.0
 30
0.0
  0
POLYLINE
  5
117
330
1F
100
AcDbEntity
  8
_U+30EC_U+30A4_U+30E4_U+30FC 1
 62
   179
420
  2234388
370
    25
100
AcDb2dPolyline
 66
     1
 10
0.0
 20
0.0
 30
0.0
  0
VERTEX
  5
118
330
117
100
AcDbEntity
  8
_U+30EC_U+30A4_U+30E4_U+30FC 1
 62
   179
420
  2234388
370
    25
100
AcDbVertex
100
AcDb2dVertex
 10
88.14445824008953
 20
-138.6741689547249
 30
0.0
  0
VERTEX
  5
119
330
117
100
AcDbEntity
  8
_U+30EC_U+30A4_U+30E4_U+30FC 1
 62
   179
420
  2234388
370
    25
100
AcDbVertex
100
AcDb2dVertex
 10
98.14464456435816
 20
-138.6741689547249
 30
0.0
  0
SEQEND
  5
11A
330
117
100
AcDbEntity
  8
_U+30EC_U+30A4_U+30E4_U+30FC 1
 62
   179
420
  2234388
370
    25
  0
POLYLINE
  5
11B
330
1F
100
AcDbEntity
  8
_U+30EC_U+30A4_U+30E4_U+30FC 1
 62
   179
420
  2234388
370
    25
100
AcDb2dPolyline
 66
     1
 10
0.0
 20
0.0
 30
0.0
  0
VERTEX
  5
11C
330
11B
100
AcDbEntity
  8
_U+30EC_U+30A4_U+30E4_U+30FC 1
 62
   179
420
  2234388
370
    25
100
AcDbVertex
100
AcDb2dVertex
 10
87.14986993942131
 20
-137.6547436687927
 30
0.0
  0
VERTEX
  5
11D
330
11B
100
AcDbEntity
  8
_U+30EC_U+30A4_U+30E4_U+30FC 1
 62
   179
420
  2234388
370
    25
100
AcDbVertex
100
AcDb2dVertex
 10
99.14995572472424
 20
-137.6547436687927
 30
0.0
  0
SEQEND
  5
11E
330
11B
100
AcDbEntity
  8
_U+30EC_U+30A4_U+30E4_U+30FC 1
 62
   179
420
  2234388
370
    25
  0
POLYLINE
  5
11F
330
1F
100
AcDbEntity
  8
_U+30EC_U+30A4_U+30E4_U+30FC 1
 62
   179
420
  2234388
370
    25
100
AcDb2dPolyline
 66
     1
 10
0.0
 20
0.0
 30
0.0
  0
VERTEX
  5
120
330
11F
100
AcDbEntity
  8
_U+30EC_U+30A4_U+30E4_U+30FC 1
 62
   179
420
  2234388
370
    25
100
AcDbVertex
100
AcDb2dVertex
 10
99.14981576772014
 20
-143.7914868737065
 30
0.0
  0
VERTEX
  5
121
330
11F
100
AcDbEntity
  8
_U+30EC_U+30A4_U+30E4_U+30FC 1
 62
   179
420
  2234388
370
    25
100
AcDbVertex
100
AcDb2dVertex
 10
99.14981576772014
 20
-137.7914493640168
 30
0.0
  0
SEQEND
  5
122
330
11F
100
AcDbEntity
  8
_U+30EC_U+30A4_U+30E4_U+30FC 1
 62
   179
420
  2234388
370
    25
  0
POLYLINE
  5
123
330
1F
100
AcDbEntity
  8
_U+30EC_U+30A4_U+30E4_U+30FC 1
 62
   179
420
  2234388
370
    25
100
AcDb2dPolyline
 66
     1
 10
0.0
 20
0.0
 30
0.0
  0
VERTEX
  5
124
330
123
100
AcDbEntity
  8
_U+30EC_U+30A4_U+30E4_U+30FC 1
 62
   179
420
  2234388
370
    25
100
AcDbVertex
100
AcDb2dVertex
 10
98.14453690512424
 20
-144.8519034129515
 30
0.0
  0
VERTEX
  5
125
330
123
100
AcDbEntity
  8
_U+30EC_U+30A4_U+30E4_U+30FC 1
 62
   179
420
  2234388
370
    25
100
AcDbVertex
100
AcDb2dVertex
 10
98.14453690512424
 20
-138.674061295491
 30
0.0
  0
SEQEND
  5
126
330
123
100
AcDbEntity
  8
_U+30EC_U+30A4_U+30E4_U+30FC 1
 62
   179
420
  2234388
370
    25
  0
POLYLINE
  5
127
330
1F
100
AcDbEntity
  8
_U+30EC_U+30A4_U+30E4_U+30FC 1
 62
   179
420
  2234388
370
     9
100
AcDb2dPolyline
 66
     1
 10
0.0
 20
0.0
 30
0.0
  0
VERTEX
  5
128
330
127
100
AcDbEntity
  8
_U+30EC_U+30A4_U+30E4_U+30FC 1
 62
   179
420
  2234388
370
     9
100
AcDbVertex
100
AcDb2dVertex
 10
87.72277855269496
 20
-136.6842495046744
 30
0.0
  0
VERTEX
  5
129
330
127
100
AcDbEntity
  8
_U+30EC_U+30A4_U+30E4_U+30FC 1
 62
   179
420
  2234388
370
     9
100
AcDbVertex
100
AcDb2dVertex
 10
88.2798074289663
 20
-137.5146897713939
 30
0.0
  0
SEQEND
  5
12A
330
127
100
AcDbEntity
  8
_U+30EC_U+30A4_U+30E4_U+30FC 1
 62
   179
420
  2234388
370
     9
  0
POLYLINE
  5
12B
330
1F
100
AcDbEntity
  8
_U+30EC_U+30A4_U+30E4_U+30FC 1
 62
   179
420
  2234388
370
     9
100
AcDb2dPolyline
 66
     1
 10
0.0
 20
0.0
 30
0.0
  0
VERTEX
  5
12C
330
12B
100
AcDbEntity
  8
_U+30EC_U+30A4_U+30E4_U+30FC 1
 62
   179
420
  2234388
370
     9
100
AcDbVertex
100
AcDb2dVertex
 10
88.21300487432295
 20
-136.5175284150351
 30
0.0
  0
VERTEX
  5
12D
330
12B
100
AcDbEntity
  8
_U+30EC_U+30A4_U+30E4_U+30FC 1
 62
   179
420
  2234388
370
     9
100
AcDbVertex
100
AcDb2dVertex
 10
88.27967823788559
 20
-137.5148404943214
 30
0.0
  0
SEQEND
  5
12E
330
12B
100
AcDbEntity
  8
_U+30EC_U+30A4_U+30E4_U+30FC 1
 62
   179
420
  2234388
370
     9
  0
POLYLINE
  5
12F
330
1F
100
AcDbEntity
  8
_U+30EC_U+30A4_U+30E4_U+30FC 1
 62
   179
420
  2234388
370
     9
100
AcDb2dPolyline
 66
     1
 10
0.0
 20
0.0
 30
0.0
  0
VERTEX
  5
130
330
12F
100
AcDbEntity
  8
_U+30EC_U+30A4_U+30E4_U+30FC 1
 62
   179
420
  2234388
370
     9
100
AcDbVertex
100
AcDb2dVertex
 10
87.504025755305
 20
-135.1549931506188
 30
0.0
  0
VERTEX
  5
131
330
12F
100
AcDbEntity
  8
_U+30EC_U+30A4_U+30E4_U+30FC 1
 62
   179
420
  2234388
370
     9
100
AcDbVertex
100
AcDb2dVertex
 10
88.27977513119612
 20
-137.5147328350878
 30
0.0
  0
SEQEND
  5
132
330
12F
100
AcDbEntity
  8
_U+30EC_U+30A4_U+30E4_U+30FC 1
 62
   179
420
  2234388
370
     9
  0
INSERT
  5
134
330
1F
100
AcDbEntity
  8
_U+30EC_U+30A4_U+30E4_U+30FC 1
100
AcDbBlockReference
  2
block 6
 10
0.0
 20
0.0
 30
0.0
  0
POLYLINE
  5
18F
330
1F
100
AcDbEntity
  8
_U+30EC_U+30A4_U+30E4_U+30FC 1
 62
   179
420
  2234388
370
    25
100
AcDb2dPolyline
 66
     1
 10
0.0
 20
0.0
 30
0.0
  0
VERTEX
  5
190
330
18F
100
AcDbEntity
  8
_U+30EC_U+30A4_U+30E4_U+30FC 1
 62
   179
420
  2234388
370
    25
100
AcDbVertex
100
AcDb2dVertex
 10
87.14986993942131
 20
-138.6741689547249
 30
0.0
  0
VERTEX
  5
191
330
18F
100
AcDbEntity
  8
_U+30EC_U+30A4_U+30E4_U+30FC 1
 62
   179
420
  2234388
370
    25
100
AcDbVertex
100
AcDb2dVertex
 10
88.14433981493224
 20
-138.6741689547249
 30
0.0
  0
SEQEND
  5
192
330
18F
100
AcDbEntity
  8
_U+30EC_U+30A4_U+30E4_U+30FC 1
 62
   179
420
  2234388
370
    25
  0
POLYLINE
  5
193
330
1F
100
AcDbEntity
  8
_U+30EC_U+30A4_U+30E4_U+30FC 1
 62
   179
420
  2234388
370
     9
100
AcDb2dPolyline
 66
     1
 10
0.0
 20
0.0
 30
0.0
  0
VERTEX
  5
194
330
193
100
AcDbEntity
  8
_U+30EC_U+30A4_U+30E4_U+30FC 1
 62
   179
420
  2234388
370
     9
100
AcDbVertex
100
AcDb2dVertex
 10
106.1659357441291
 20
-145.3962069677742
 30
0.0
  0
VERTEX
  5
195
330
193
100
AcDbEntity
  8
_U+30EC_U+30A4_U+30E4_U+30FC 1
 62
   179
420
  2234388
370
     9
100
AcDbVertex
100
AcDb2dVertex
 10
111.501699631684
 20
-159.154540297668
 30
0.0
  0
VERTEX
  5
196
330
193
100
AcDbEntity
  8
_U+30EC_U+30A4_U+30E4_U+30FC 1
 62
   179
420
  2234388
370
     9
100
AcDbVertex
100
AcDb2dVertex
 10
125.4360665749507
 20
-159.154540297668
 30
0.0
  0
SEQEND
  5
197
330
193
100
AcDbEntity
  8
_U+30EC_U+30A4_U+30E4_U+30FC 1
 62
   179
420
  2234388
370
     9
  0
INSERT
  5
199
330
1F
100
AcDbEntity
  8
_U+30EC_U+30A4_U+30E4_U+30FC 1
100
AcDbBlockReference
  2
block 7
 10
0.0
 20
0.0
 30
0.0
  0
INSERT
  5
1CA
330
1F
100
AcDbEntity
  8
_U+30EC_U+30A4_U+30E4_U+30FC 1
100
AcDbBlockReference
  2
block 8
 10
0.0
 20
0.0
 30
0.0
  0
POLYLINE
  5
1DE
330
1F
100
AcDbEntity
  8
_U+30EC_U+30A4_U+30E4_U+30FC 1
  6
AI-Linetype-1
 62
   154
420
    23468
370
    25
100
AcDb2dPolyline
 66
     1
 10
0.0
 20
0.0
 30
0.0
  0
VERTEX
  5
1DF
330
1DE
100
AcDbEntity
  8
_U+30EC_U+30A4_U+30E4_U+30FC 1
  6
AI-Linetype-1
 62
   154
420
    23468
370
    25
100
AcDbVertex
100
AcDb2dVertex
 10
88.19596241759403
 20
-163.6655806238243
 30
0.0
  0
VERTEX
  5
1E0
330
1DE
100
AcDbEntity
  8
_U+30EC_U+30A4_U+30E4_U+30FC 1
  6
AI-Linetype-1
 62
   154
420
    23468
370
    25
100
AcDbVertex
100
AcDb2dVertex
 10
88.76039824915864
 20
-139.3108656640927
 30
0.0
  0
VERTEX
  5
1E1
330
1DE
100
AcDbEntity
  8
_U+30EC_U+30A4_U+30E4_U+30FC 1
  6
AI-Linetype-1
 62
   154
420
    23468
370
    25
100
AcDbVertex
100
AcDb2dVertex
 10
97.52269717003665
 20
-139.3108656640927
 30
0.0
  0
VERTEX
  5
1E2
330
1DE
100
AcDbEntity
  8
_U+30EC_U+30A4_U+30E4_U+30FC 1
  6
AI-Linetype-1
 62
   154
420
    23468
370
    25
100
AcDbVertex
100
AcDb2dVertex
 10
97.52269717003665
 20
-145.5726712180827
 30
0.0
  0
VERTEX
  5
1E3
330
1DE
100
AcDbEntity
  8
_U+30EC_U+30A4_U+30E4_U+30FC 1
  6
AI-Linetype-1
 62
   154
420
    23468
370
    25
100
AcDbVertex
100
AcDb2dVertex
 10
125.2157527186689
 20
-144.9112128849148
 30
0.0
  0
SEQEND
  5
1E5
330
1DE
100
AcDbEntity
  8
_U+30EC_U+30A4_U+30E4_U+30FC 1
  6
AI-Linetype-1
 62
   154
420
    23468
370
    25
  0
ENDSEC
  0
SECTION
  2
OBJECTS
  0
DICTIONARY
  5
C
330
0
100
AcDbDictionary
281
     1
  3
ACAD_GROUP
350
D
  3
ACAD_LAYOUT
350
1A
  3
ACAD_MATERIAL
350
3B
  3
ACAD_MLEADERSTYLE
350
1E7
  3
ACAD_MLINESTYLE
350
17
  3
ACAD_PLOTSETTINGS
350
19
  3
ACAD_PLOTSTYLENAME
350
E
  3
ACAD_TABLESTYLE
350
1E6
  3
ACAD_VISUALSTYLE
350
2A
  0
SUN
  5
3F
330
29
100
AcDbSun
 90
        1
290
     0
 63
     7
421
 16777215
 40
1.0
291
     1
 91
  2455826
 92
 54000000
292
     0
 70
     2
 71
   256
280
     1
  0
DICTIONARY
  5
D
102
{ACAD_REACTORS
330
C
102
}
330
C
100
AcDbDictionary
281
     1
  0
DICTIONARY
  5
1A
102
{ACAD_REACTORS
330
C
102
}
330
C
100
AcDbDictionary
281
     1
  3
Layout1
350
1E
  3
Layout2
350
26
  3
Model
350
22
  0
DICTIONARY
  5
3B
102
{ACAD_REACTORS
330
C
102
}
330
C
100
AcDbDictionary
281
     1
  3
ByBlock
350
3D
  3
ByLayer
350
3C
  3
Global
350
3E
  0
DICTIONARY
  5
1E7
102
{ACAD_REACTORS
330
C
102
}
330
C
100
AcDbDictionary
281
     1
  0
DICTIONARY
  5
17
102
{ACAD_REACTORS
330
C
102
}
330
C
100
AcDbDictionary
281
     1
  3
Standard
350
18
  0
DICTIONARY
  5
19
102
{ACAD_REACTORS
330
C
102
}
330
C
100
AcDbDictionary
281
     1
  0
ACDBDICTIONARYWDFLT
  5
E
102
{ACAD_REACTORS
330
C
102
}
330
C
100
AcDbDictionary
281
     1
  3
Normal
350
F
100
AcDbDictionaryWithDefault
340
F
  0
DICTIONARY
  5
1E6
102
{ACAD_REACTORS
330
C
102
}
330
C
100
AcDbDictionary
281
     1
  0
DICTIONARY
  5
2A
102
{ACAD_REACTORS
330
C
102
}
330
C
100
AcDbDictionary
281
     1
  3
2dWireframe
350
2F
  3
3D Hidden
350
31
  3
3dWireframe
350
30
  3
Basic
350
32
  3
Brighten
350
36
  3
ColorChange
350
3A
  3
Conceptual
350
34
  3
Dim
350
35
  3
Facepattern
350
39
  3
Flat
350
2B
  3
FlatWithEdges
350
2C
  3
Gouraud
350
2D
  3
GouraudWithEdges
350
2E
  3
Linepattern
350
38
  3
Realistic
350
33
  3
Thicken
350
37
  0
LAYOUT
  5
1E
102
{ACAD_REACTORS
330
1A
102
}
330
1A
100
AcDbPlotSettings
  1

  2
none_device
  4

  6

 40
0.0
 41
0.0
 42
0.0
 43
0.0
 44
0.0
 45
0.0
 46
0.0
 47
0.0
 48
0.0
 49
0.0
140
0.0
141
0.0
142
1.0
143
1.0
 70
   688
 72
     0
 73
     0
 74
     5
  7

 75
    16
 76
     0
 77
     2
 78
   300
147
1.0
148
0.0
149
0.0
100
AcDbLayout
  1
Layout1
 70
     1
 71
     1
 10
0.0
 20
0.0
 11
12.0
 21
9.0
 12
0.0
 22
0.0
 32
0.0
 14
1.000000000000000E+20
 24
1.000000000000000E+20
 34
1.000000000000000E+20
 15
-1.000000000000000E+20
 25
-1.000000000000000E+20
 35
-1.000000000000000E+20
146
0.0
 13
0.0
 23
0.0
 33
0.0
 16
1.0
 26
0.0
 36
0.0
 17
0.0
 27
1.0
 37
0.0
 76
     0
330
1B
  0
LAYOUT
  5
26
102
{ACAD_REACTORS
330
1A
102
}
330
1A
100
AcDbPlotSettings
  1

  2
none_device
  4

  6

 40
0.0
 41
0.0
 42
0.0
 43
0.0
 44
0.0
 45
0.0
 46
0.0
 47
0.0
 48
0.0
 49
0.0
140
0.0
141
0.0
142
1.0
143
1.0
 70
   688
 72
     0
 73
     0
 74
     5
  7

 75
    16
 76
     0
 77
     2
 78
   300
147
1.0
148
0.0
149
0.0
100
AcDbLayout
  1
Layout2
 70
     1
 71
     2
 10
0.0
 20
0.0
 11
0.0
 21
0.0
 12
0.0
 22
0.0
 32
0.0
 14
0.0
 24
0.0
 34
0.0
 15
0.0
 25
0.0
 35
0.0
146
0.0
 13
0.0
 23
0.0
 33
0.0
 16
1.0
 26
0.0
 36
0.0
 17
0.0
 27
1.0
 37
0.0
 76
     0
330
23
  0
LAYOUT
  5
22
102
{ACAD_REACTORS
330
1A
102
}
330
1A
100
AcDbPlotSettings
  1

  2
none_device
  4

  6

 40
0.0
 41
0.0
 42
0.0
 43
0.0
 44
0.0
 45
0.0
 46
0.0
 47
0.0
 48
0.0
 49
0.0
140
0.0
141
0.0
142
1.0
143
1.0
 70
  1712
 72
     0
 73
     0
 74
     0
  7

 75
     0
 76
     0
 77
     2
 78
   300
147
1.0
148
0.0
149
0.0
100
AcDbLayout
  1
Model
 70
     1
 71
     0
 10
0.0
 20
0.0
 11
12.0
 21
9.0
 12
0.0
 22
0.0
 32
0.0
 14
1.000000000000000E+20
 24
1.000000000000000E+20
 34
1.000000000000000E+20
 15
-1.000000000000000E+20
 25
-1.000000000000000E+20
 35
-1.000000000000000E+20
146
0.0
 13
0.0
 23
0.0
 33
0.0
 16
1.0
 26
0.0
 36
0.0
 17
0.0
 27
1.0
 37
0.0
 76
     0
330
1F
331
29
  0
MATERIAL
  5
3D
102
{ACAD_REACTORS
330
3B
102
}
330
3B
100
AcDbMaterial
  1
ByBlock
 72
     1
 94
      127
  0
MATERIAL
  5
3C
102
{ACAD_REACTORS
330
3B
102
}
330
3B
100
AcDbMaterial
  1
ByLayer
 72
     1
 94
      127
  0
MATERIAL
  5
3E
102
{ACAD_REACTORS
330
3B
102
}
330
3B
100
AcDbMaterial
  1
Global
 72
     1
 94
      127
  0
MLINESTYLE
  5
18
102
{ACAD_REACTORS
330
17
102
}
330
17
100
AcDbMlineStyle
  2
Standard
 70
     0
  3

 62
   256
 51
90.0
 52
90.0
 71
     2
 49
0.5
 62
   256
  6
BYLAYER
 49
-0.5
 62
   256
  6
BYLAYER
  0
ACDBPLACEHOLDER
  5
F
102
{ACAD_REACTORS
330
E
102
}
330
E
  0
VISUALSTYLE
  5
2F
102
{ACAD_REACTORS
330
2A
102
}
330
2A
100
AcDbVisualStyle
  2
2dWireframe
 70
     4
177
     2
291
     0
 71
     0
176
     1
 72
     2
176
     1
 73
     0
176
     1
 90
        0
176
     1
 40
-0.6
176
     1
 41
-30.0
176
     1
 62
     5
 63
     7
421
 16777215
176
     1
 74
     1
176
     1
 91
        4
176
     1
 64
     7
176
     1
 65
   257
176
     1
 75
     1
176
     1
175
     1
176
     1
 42
1.0
176
     1
 92
        0
176
     1
 66
   257
176
     1
 43
1.0
176
     1
 76
     1
176
     1
 77
     6
176
     1
 78
     2
176
     1
 67
     7
176
     1
 79
     5
176
     1
170
     0
176
     1
171
     0
176
     1
290
     0
176
     1
 93
        1
176
     1
 44
0.0
176
     1
173
     0
176
     1
  0
VISUALSTYLE
  5
31
102
{ACAD_REACTORS
330
2A
102
}
330
2A
100
AcDbVisualStyle
  2
3D Hidden
 70
     6
177
     2
291
     0
 71
     1
176
     1
 72
     2
176
     1
 73
     2
176
     1
 90
        0
176
     1
 40
-0.6
176
     1
 41
-30.0
176
     1
 62
     5
 63
     7
421
 16777215
176
     1
 74
     2
176
     1
 91
        2
176
     1
 64
     7
176
     1
 65
   257
176
     1
 75
     2
176
     1
175
     1
176
     1
 42
40.0
176
     1
 92
        0
176
     1
 66
   257
176
     1
 43
1.0
176
     1
 76
     1
176
     1
 77
     6
176
     1
 78
     2
176
     1
 67
     7
176
     1
 79
     3
176
     1
170
     0
176
     1
171
     0
176
     1
290
     0
176
     1
 93
        1
176
     1
 44
0.0
176
     1
173
     0
176
     1
  0
VISUALSTYLE
  5
30
102
{ACAD_REACTORS
330
2A
102
}
330
2A
100
AcDbVisualStyle
  2
3dWireframe
 70
     5
177
     2
291
     0
 71
     0
176
     1
 72
     2
176
     1
 73
     0
176
     1
 90
        0
176
     1
 40
-0.6
176
     1
 41
-30.0
176
     1
 62
     5
 63
     7
421
 16777215
176
     1
 74
     1
176
     1
 91
        4
176
     1
 64
     7
176
     1
 65
   257
176
     1
 75
     1
176
     1
175
     1
176
     1
 42
1.0
176
     1
 92
        0
176
     1
 66
   257
176
     1
 43
1.0
176
     1
 76
     1
176
     1
 77
     6
176
     1
 78
     2
176
     1
 67
     7
176
     1
 79
     5
176
     1
170
     0
176
     1
171
     0
176
     1
290
     0
176
     1
 93
        1
176
     1
 44
0.0
176
     1
173
     0
176
     1
  0
VISUALSTYLE
  5
32
102
{ACAD_REACTORS
330
2A
102
}
330
2A
100
AcDbVisualStyle
  2
Basic
 70
     7
177
     2
291
     1
 71
     1
176
     1
 72
     0
176
     1
 73
     1
176
     1
 90
        0
176
     1
 40
-0.6
176
     1
 41
-30.0
176
     1
 62
     5
 63
     7
421
 16777215
176
     1
 74
     0
176
     1
 91
        4
176
     1
 64
     7
176
     1
 65
   257
176
     1
 75
     1
176
     1
175
     1
176
     1
 42
1.0
176
     1
 92
        8
176
     1
 66
     7
176
     1
 43
1.0
176
     1
 76
     1
176
     1
 77
     6
176
     1
 78
     2
176
     1
 67
     7
176
     1
 79
     5
176
     1
170
     0
176
     1
171
     0
176
     1
290
     0
176
     1
 93
        1
176
     1
 44
0.0
176
     1
173
     0
176
     1
  0
VISUALSTYLE
  5
36
102
{ACAD_REACTORS
330
2A
102
}
330
2A
100
AcDbVisualStyle
  2
Brighten
 70
    12
177
     2
291
     1
 71
     2
176
     1
 72
     2
176
     1
 73
     0
176
     1
 90
        0
176
     1
 40
-0.6
176
     1
 41
-30.0
176
     1
 62
     5
 63
     7
421
 16777215
176
     1
 74
     1
176
     1
 91
        4
176
     1
 64
     7
176
     1
 65
   257
176
     1
 75
     1
176
     1
175
     1
176
     1
 42
1.0
176
     1
 92
        8
176
     1
 66
     7
176
     1
 43
1.0
176
     1
 76
     1
176
     1
 77
     6
176
     1
 78
     2
176
     1
 67
     7
176
     1
 79
     5
176
     1
170
     0
176
     1
171
     0
176
     1
290
     0
176
     1
 93
        1
176
     1
 44
50.0
176
     1
173
     0
176
     1
  0
VISUALSTYLE
  5
3A
102
{ACAD_REACTORS
330
2A
102
}
330
2A
100
AcDbVisualStyle
  2
ColorChange
 70
    16
177
     2
291
     1
 71
     2
176
     1
 72
     2
176
     1
 73
     3
176
     1
 90
        0
176
     1
 40
-0.6
176
     1
 41
-30.0
176
     1
 62
     5
 63
     8
421
  8421504
176
     1
 74
     1
176
     1
 91
        4
176
     1
 64
     7
176
     1
 65
   257
176
     1
 75
     1
176
     1
175
     1
176
     1
 42
1.0
176
     1
 92
        8
176
     1
 66
     8
424
  8421504
176
     1
 43
1.0
176
     1
 76
     1
176
     1
 77
     6
176
     1
 78
     2
176
     1
 67
     7
176
     1
 79
     5
176
     1
170
     0
176
     1
171
     0
176
     1
290
     0
176
     1
 93
        1
176
     1
 44
0.0
176
     1
173
     0
176
     1
  0
VISUALSTYLE
  5
34
102
{ACAD_REACTORS
330
2A
102
}
330
2A
100
AcDbVisualStyle
  2
Conceptual
 70
     9
177
     2
291
     0
 71
     3
176
     1
 72
     2
176
     1
 73
     0
176
     1
 90
        0
176
     1
 40
-0.6
176
     1
 41
-30.0
176
     1
 62
     5
 63
     7
421
 16777215
176
     1
 74
     2
176
     1
 91
        2
176
     1
 64
     7
176
     1
 65
   257
176
     1
 75
     1
176
     1
175
     1
176
     1
 42
40.0
176
     1
 92
        8
176
     1
 66
     7
176
     1
 43
1.0
176
     1
 76
     1
176
     1
 77
     6
176
     1
 78
     2
176
     1
 67
     7
176
     1
 79
     3
176
     1
170
     0
176
     1
171
     0
176
     1
290
     0
176
     1
 93
        1
176
     1
 44
0.0
176
     1
173
     0
176
     1
  0
VISUALSTYLE
  5
35
102
{ACAD_REACTORS
330
2A
102
}
330
2A
100
AcDbVisualStyle
  2
Dim
 70
    11
177
     2
291
     1
 71
     2
176
     1
 72
     2
176
     1
 73
     0
176
     1
 90
        0
176
     1
 40
-0.6
176
     1
 41
-30.0
176
     1
 62
     5
 63
     7
421
 16777215
176
     1
 74
     1
176
     1
 91
        4
176
     1
 64
     7
176
     1
 65
   257
176
     1
 75
     1
176
     1
175
     1
176
     1
 42
1.0
176
     1
 92
        8
176
     1
 66
     7
176
     1
 43
1.0
176
     1
 76
     1
176
     1
 77
     6
176
     1
 78
     2
176
     1
 67
     7
176
     1
 79
     5
176
     1
170
     0
176
     1
171
     0
176
     1
290
     0
176
     1
 93
        1
176
     1
 44
-50.0
176
     1
173
     0
176
     1
  0
VISUALSTYLE
  5
39
102
{ACAD_REACTORS
330
2A
102
}
330
2A
100
AcDbVisualStyle
  2
Facepattern
 70
    15
177
     2
291
     1
 71
     2
176
     1
 72
     2
176
     1
 73
     0
176
     1
 90
        0
176
     1
 40
-0.6
176
     1
 41
-30.0
176
     1
 62
     5
 63
     7
421
 16777215
176
     1
 74
     1
176
     1
 91
        4
176
     1
 64
     7
176
     1
 65
   257
176
     1
 75
     1
176
     1
175
     1
176
     1
 42
1.0
176
     1
 92
        8
176
     1
 66
     7
176
     1
 43
1.0
176
     1
 76
     1
176
     1
 77
     6
176
     1
 78
     2
176
     1
 67
     7
176
     1
 79
     5
176
     1
170
     0
176
     1
171
     0
176
     1
290
     0
176
     1
 93
        1
176
     1
 44
0.0
176
     1
173
     0
176
     1
  0
VISUALSTYLE
  5
2B
102
{ACAD_REACTORS
330
2A
102
}
330
2A
100
AcDbVisualStyle
  2
Flat
 70
     0
177
     2
291
     1
 71
     2
176
     1
 72
     1
176
     1
 73
     1
176
     1
 90
        2
176
     1
 40
-0.6
176
     1
 41
30.0
176
     1
 62
     5
 63
     7
421
 16777215
176
     1
 74
     0
176
     1
 91
        4
176
     1
 64
     7
176
     1
 65
   257
176
     1
 75
     1
176
     1
175
     1
176
     1
 42
1.0
176
     1
 92
        8
176
     1
 66
     7
176
     1
 43
1.0
176
     1
 76
     1
176
     1
 77
     6
176
     1
 78
     2
176
     1
 67
     7
176
     1
 79
     5
176
     1
170
     0
176
     1
171
     0
176
     1
290
     0
176
     1
 93
       13
176
     1
 44
0.0
176
     1
173
     0
176
     1
  0
VISUALSTYLE
  5
2C
102
{ACAD_REACTORS
330
2A
102
}
330
2A
100
AcDbVisualStyle
  2
FlatWithEdges
 70
     1
177
     2
291
     1
 71
     2
176
     1
 72
     1
176
     1
 73
     1
176
     1
 90
        2
176
     1
 40
-0.6
176
     1
 41
30.0
176
     1
 62
     5
 63
     7
421
 16777215
176
     1
 74
     1
176
     1
 91
        4
176
     1
 64
     7
176
     1
 65
   257
176
     1
 75
     1
176
     1
175
     1
176
     1
 42
1.0
176
     1
 92
        0
176
     1
 66
   257
176
     1
 43
1.0
176
     1
 76
     1
176
     1
 77
     6
176
     1
 78
     2
176
     1
 67
     7
176
     1
 79
     5
176
     1
170
     0
176
     1
171
     0
176
     1
290
     0
176
     1
 93
       13
176
     1
 44
0.0
176
     1
173
     0
176
     1
  0
VISUALSTYLE
  5
2D
102
{ACAD_REACTORS
330
2A
102
}
330
2A
100
AcDbVisualStyle
  2
Gouraud
 70
     2
177
     2
291
     1
 71
     2
176
     1
 72
     2
176
     1
 73
     1
176
     1
 90
        2
176
     1
 40
-0.6
176
     1
 41
30.0
176
     1
 62
     5
 63
     7
421
 16777215
176
     1
 74
     0
176
     1
 91
        4
176
     1
 64
     7
176
     1
 65
   257
176
     1
 75
     1
176
     1
175
     1
176
     1
 42
1.0
176
     1
 92
        0
176
     1
 66
     7
176
     1
 43
1.0
176
     1
 76
     1
176
     1
 77
     6
176
     1
 78
     2
176
     1
 67
     7
176
     1
 79
     5
176
     1
170
     0
176
     1
171
     0
176
     1
290
     0
176
     1
 93
       13
176
     1
 44
0.0
176
     1
173
     0
176
     1
  0
VISUALSTYLE
  5
2E
102
{ACAD_REACTORS
330
2A
102
}
330
2A
100
AcDbVisualStyle
  2
GouraudWithEdges
 70
     3
177
     2
291
     1
 71
     2
176
     1
 72
     2
176
     1
 73
     1
176
     1
 90
        2
176
     1
 40
-0.6
176
     1
 41
30.0
176
     1
 62
     5
 63
     7
421
 16777215
176
     1
 74
     1
176
     1
 91
        4
176
     1
 64
     7
176
     1
 65
   257
176
     1
 75
     1
176
     1
175
     1
176
     1
 42
1.0
176
     1
 92
        0
176
     1
 66
   257
176
     1
 43
1.0
176
     1
 76
     1
176
     1
 77
     6
176
     1
 78
     2
176
     1
 67
     7
176
     1
 79
     5
176
     1
170
     0
176
     1
171
     0
176
     1
290
     0
176
     1
 93
       13
176
     1
 44
0.0
176
     1
173
     0
176
     1
  0
VISUALSTYLE
  5
38
102
{ACAD_REACTORS
330
2A
102
}
330
2A
100
AcDbVisualStyle
  2
Linepattern
 70
    14
177
     2
291
     1
 71
     2
176
     1
 72
     2
176
     1
 73
     0
176
     1
 90
        0
176
     1
 40
-0.6
176
     1
 41
-30.0
176
     1
 62
     5
 63
     7
421
 16777215
176
     1
 74
     1
176
     1
 91
        4
176
     1
 64
     7
176
     1
 65
   257
176
     1
 75
     7
176
     1
175
     7
176
     1
 42
1.0
176
     1
 92
        8
176
     1
 66
     7
176
     1
 43
1.0
176
     1
 76
     1
176
     1
 77
     6
176
     1
 78
     2
176
     1
 67
     7
176
     1
 79
     5
176
     1
170
     0
176
     1
171
     0
176
     1
290
     0
176
     1
 93
        1
176
     1
 44
0.0
176
     1
173
     0
176
     1
  0
VISUALSTYLE
  5
33
102
{ACAD_REACTORS
330
2A
102
}
330
2A
100
AcDbVisualStyle
  2
Realistic
 70
     8
177
     2
291
     0
 71
     2
176
     1
 72
     2
176
     1
 73
     0
176
     1
 90
        0
176
     1
 40
-0.6
176
     1
 41
-30.0
176
     1
 62
     5
 63
     7
421
 16777215
176
     1
 74
     1
176
     1
 91
        0
176
     1
 64
     7
176
     1
 65
   257
176
     1
 75
     1
176
     1
175
     1
176
     1
 42
1.0
176
     1
 92
        8
176
     1
 66
     8
424
  7895160
176
     1
 43
1.0
176
     1
 76
     1
176
     1
 77
     6
176
     1
 78
     2
176
     1
 67
     7
176
     1
 79
     5
176
     1
170
     0
176
     1
171
     0
176
     1
290
     0
176
     1
 93
       13
176
     1
 44
0.0
176
     1
173
     0
176
     1
  0
VISUALSTYLE
  5
37
102
{ACAD_REACTORS
330
2A
102
}
330
2A
100
AcDbVisualStyle
  2
Thicken
 70
    13
177
     2
291
     1
 71
     2
176
     1
 72
     2
176
     1
 73
     0
176
     1
 90
        0
176
     1
 40
-0.6
176
     1
 41
-30.0
176
     1
 62
     5
 63
     7
421
 16777215
176
     1
 74
     1
176
     1
 91
        4
176
     1
 64
     7
176
     1
 65
   257
176
     1
 75
     1
176
     1
175
     1
176
     1
 42
1.0
176
     1
 92
       12
176
     1
 66
     7
176
     1
 43
1.0
176
     1
 76
     1
176
     1
 77
     6
176
     1
 78
     2
176
     1
 67
     7
176
     1
 79
     5
176
     1
170
     0
176
     1
171
     0
176
     1
290
     0
176
     1
 93
        1
176
     1
 44
0.0
176
     1
173
     0
176
     1
  0
ENDSEC
  0
EOF
