  0
SECTION
  2
HEADER
  9
$ACADVER
  1
AC1024
  9
$ACADMAINTVER
 70
     6
  9
$DWGCODEPAGE
  3
UNDEFINED
  9
$INSBASE
 10
0.0
 20
0.0
 30
0.0
  9
$EXTMIN
 10
1.000000000000000E+20
 20
1.000000000000000E+20
 30
1.000000000000000E+20
  9
$EXTMAX
 10
-1.000000000000000E+20
 20
-1.000000000000000E+20
 30
-1.000000000000000E+20
  9
$LIMMIN
 10
0.0
 20
0.0
  9
$LIMMAX
 10
12.0
 20
9.0
  9
$ORTHOMODE
 70
     0
  9
$REGENMODE
 70
     1
  9
$FILLMODE
 70
     1
  9
$QTEXTMODE
 70
     0
  9
$MIRRTEXT
 70
     1
  9
$LTSCALE
 40
1.0
  9
$ATTMODE
 70
     1
  9
$TEXTSIZE
 40
0.2
  9
$TRACEWID
 40
0.05
  9
$TEXTSTYLE
  7
Standard
  9
$CLAYER
  8
0
  9
$CELTYPE
  6
ByLayer
  9
$CECOLOR
 62
   256
  9
$CELTSCALE
 40
1.0
  9
$DISPSILH
 70
     0
  9
$DIMSCALE
 40
1.0
  9
$DIMASZ
 40
0.18
  9
$DIMEXO
 40
0.0625
  9
$DIMDLI
 40
0.38
  9
$DIMRND
 40
0.0
  9
$DIMDLE
 40
0.0
  9
$DIMEXE
 40
0.18
  9
$DIMTP
 40
0.0
  9
$DIMTM
 40
0.0
  9
$DIMTXT
 40
0.18
  9
$DIMCEN
 40
0.09
  9
$DIMTSZ
 40
0.0
  9
$DIMTOL
 70
     0
  9
$DIMLIM
 70
     0
  9
$DIMTIH
 70
     1
  9
$DIMTOH
 70
     1
  9
$DIMSE1
 70
     0
  9
$DIMSE2
 70
     0
  9
$DIMTAD
 70
     0
  9
$DIMZIN
 70
     0
  9
$DIMBLK
  1

  9
$DIMASO
 70
     1
  9
$DIMSHO
 70
     1
  9
$DIMPOST
  1

  9
$DIMAPOST
  1

  9
$DIMALT
 70
     0
  9
$DIMALTD
 70
     2
  9
$DIMALTF
 40
25.4
  9
$DIMLFAC
 40
1.0
  9
$DIMTOFL
 70
     0
  9
$DIMTVP
 40
0.0
  9
$DIMTIX
 70
     0
  9
$DIMSOXD
 70
     0
  9
$DIMSAH
 70
     0
  9
$DIMBLK1
  1

  9
$DIMBLK2
  1

  9
$DIMSTYLE
  2
Standard
  9
$DIMCLRD
 70
     0
  9
$DIMCLRE
 70
     0
  9
$DIMCLRT
 70
     0
  9
$DIMTFAC
 40
1.0
  9
$DIMGAP
 40
0.09
  9
$DIMJUST
 70
     0
  9
$DIMSD1
 70
     0
  9
$DIMSD2
 70
     0
  9
$DIMTOLJ
 70
     1
  9
$DIMTZIN
 70
     0
  9
$DIMALTZ
 70
     0
  9
$DIMALTTZ
 70
     0
  9
$DIMUPT
 70
     0
  9
$DIMDEC
 70
     4
  9
$DIMTDEC
 70
     4
  9
$DIMALTU
 70
     2
  9
$DIMALTTD
 70
     2
  9
$DIMTXSTY
  7
Standard
  9
$DIMAUNIT
 70
     0
  9
$DIMADEC
 70
     0
  9
$DIMALTRND
 40
0.0
  9
$DIMAZIN
 70
     0
  9
$DIMDSEP
 70
    46
  9
$DIMATFIT
 70
     3
  9
$DIMFRAC
 70
     0
  9
$DIMLDRBLK
  1

  9
$DIMLUNIT
 70
     2
  9
$DIMLWD
 70
    -2
  9
$DIMLWE
 70
    -2
  9
$DIMTMOVE
 70
     0
  9
$DIMFXL
 40
1.0
  9
$DIMFXLON
 70
     0
  9
$DIMJOGANG
 40
0.7853981633974483
  9
$DIMTFILL
 70
     0
  9
$DIMTFILLCLR
 70
     0
  9
$DIMARCSYM
 70
     0
  9
$DIMLTYPE
  6

  9
$DIMLTEX1
  6

  9
$DIMLTEX2
  6

  9
$DIMTXTDIRECTION
 70
     0
  9
$LUNITS
 70
     2
  9
$LUPREC
 70
     4
  9
$SKETCHINC
 40
0.1
  9
$FILLETRAD
 40
0.5
  9
$AUNITS
 70
     0
  9
$AUPREC
 70
     0
  9
$MENU
  1
.
  9
$ELEVATION
 40
0.0
  9
$PELEVATION
 40
0.0
  9
$THICKNESS
 40
0.0
  9
$LIMCHECK
 70
     0
  9
$CHAMFERA
 40
0.5
  9
$CHAMFERB
 40
0.5
  9
$CHAMFERC
 40
1.0
  9
$CHAMFERD
 40
0.0
  9
$SKPOLY
 70
     0
  9
$TDCREATE
 40
2458270.588229167
  9
$TDUCREATE
 40
2458270.213229167
  9
$TDUPDATE
 40
2458270.588229167
  9
$TDUUPDATE
 40
2458270.213229167
  9
$TDINDWG
 40
0.0000000116
  9
$TDUSRTIMER
 40
0.0000000116
  9
$USRTIMER
 70
     1
  9
$ANGBASE
 50
0.0
  9
$ANGDIR
 70
     0
  9
$PDMODE
 70
     0
  9
$PDSIZE
 40
0.0
  9
$PLINEWID
 40
0.0
  9
$SPLFRAME
 70
     0
  9
$SPLINETYPE
 70
     6
  9
$SPLINESEGS
 70
     8
  9
$HANDSEED
  5
1EB
  9
$SURFTAB1
 70
     6
  9
$SURFTAB2
 70
     6
  9
$SURFTYPE
 70
     6
  9
$SURFU
 70
     6
  9
$SURFV
 70
     6
  9
$UCSBASE
  2

  9
$UCSNAME
  2

  9
$UCSORG
 10
0.0
 20
0.0
 30
0.0
  9
$UCSXDIR
 10
1.0
 20
0.0
 30
0.0
  9
$UCSYDIR
 10
0.0
 20
1.0
 30
0.0
  9
$UCSORTHOREF
  2

  9
$UCSORTHOVIEW
 70
     0
  9
$UCSORGTOP
 10
0.0
 20
0.0
 30
0.0
  9
$UCSORGBOTTOM
 10
0.0
 20
0.0
 30
0.0
  9
$UCSORGLEFT
 10
0.0
 20
0.0
 30
0.0
  9
$UCSORGRIGHT
 10
0.0
 20
0.0
 30
0.0
  9
$UCSORGFRONT
 10
0.0
 20
0.0
 30
0.0
  9
$UCSORGBACK
 10
0.0
 20
0.0
 30
0.0
  9
$PUCSBASE
  2

  9
$PUCSNAME
  2

  9
$PUCSORG
 10
0.0
 20
0.0
 30
0.0
  9
$PUCSXDIR
 10
1.0
 20
0.0
 30
0.0
  9
$PUCSYDIR
 10
0.0
 20
1.0
 30
0.0
  9
$PUCSORTHOREF
  2

  9
$PUCSORTHOVIEW
 70
     0
  9
$PUCSORGTOP
 10
0.0
 20
0.0
 30
0.0
  9
$PUCSORGBOTTOM
 10
0.0
 20
0.0
 30
0.0
  9
$PUCSORGLEFT
 10
0.0
 20
0.0
 30
0.0
  9
$PUCSORGRIGHT
 10
0.0
 20
0.0
 30
0.0
  9
$PUCSORGFRONT
 10
0.0
 20
0.0
 30
0.0
  9
$PUCSORGBACK
 10
0.0
 20
0.0
 30
0.0
  9
$USERI1
 70
     0
  9
$USERI2
 70
     0
  9
$USERI3
 70
     0
  9
$USERI4
 70
     0
  9
$USERI5
 70
     0
  9
$USERR1
 40
0.0
  9
$USERR2
 40
0.0
  9
$USERR3
 40
0.0
  9
$USERR4
 40
0.0
  9
$USERR5
 40
0.0
  9
$WORLDVIEW
 70
     1
  9
$SHADEDGE
 70
     3
  9
$SHADEDIF
 70
    70
  9
$TILEMODE
 70
     1
  9
$MAXACTVP
 70
    64
  9
$PINSBASE
 10
0.0
 20
0.0
 30
0.0
  9
$PLIMCHECK
 70
     0
  9
$PEXTMIN
 10
1.000000000000000E+20
 20
1.000000000000000E+20
 30
1.000000000000000E+20
  9
$PEXTMAX
 10
-1.000000000000000E+20
 20
-1.000000000000000E+20
 30
-1.000000000000000E+20
  9
$PLIMMIN
 10
0.0
 20
0.0
  9
$PLIMMAX
 10
12.0
 20
9.0
  9
$UNITMODE
 70
     0
  9
$VISRETAIN
 70
     1
  9
$PLINEGEN
 70
     0
  9
$PSLTSCALE
 70
     1
  9
$TREEDEPTH
 70
  3020
  9
$CMLSTYLE
  2
Standard
  9
$CMLJUST
 70
     0
  9
$CMLSCALE
 40
1.0
  9
$PROXYGRAPHICS
 70
     1
  9
$MEASUREMENT
 70
     0
  9
$CELWEIGHT
370
    -1
  9
$ENDCAPS
280
     0
  9
$JOINSTYLE
280
     0
  9
$LWDISPLAY
290
     1
  9
$INSUNITS
 70
     1
  9
$HYPERLINKBASE
  1

  9
$STYLESHEET
  1

  9
$XEDIT
290
     1
  9
$CEPSNTYPE
380
     0
  9
$PSTYLEMODE
290
     1
  9
$FINGERPRINTGUID
  2
{2B5A7365-AD6A-86BB-BDBB-D99F932AEE94}
  9
$VERSIONGUID
  2
{FAEB1C32-E019-11D5-929B-00C0DF256EC4}
  9
$EXTNAMES
290
     1
  9
$PSVPSCALE
 40
0.0
  9
$OLESTARTUP
290
     0
  9
$SORTENTS
280
   127
  9
$INDEXCTL
280
     0
  9
$HIDETEXT
280
     1
  9
$XCLIPFRAME
280
     2
  9
$HALOGAP
280
     0
  9
$OBSCOLOR
 70
   257
  9
$OBSLTYPE
280
     0
  9
$INTERSECTIONDISPLAY
280
     0
  9
$INTERSECTIONCOLOR
 70
   257
  9
$DIMASSOC
280
     2
  9
$PROJECTNAME
  1

  9
$CAMERADISPLAY
290
     0
  9
$LENSLENGTH
 40
50.0
  9
$CAMERAHEIGHT
 40
0.0
  9
$STEPSPERSEC
 40
2.0
  9
$STEPSIZE
 40
6.0
  9
$3DDWFPREC
 40
2.0
  9
$PSOLWIDTH
 40
0.25
  9
$PSOLHEIGHT
 40
4.0
  9
$LOFTANG1
 40
1.570796326794897
  9
$LOFTANG2
 40
1.570796326794897
  9
$LOFTMAG1
 40
0.0
  9
$LOFTMAG2
 40
0.0
  9
$LOFTPARAM
 70
     7
  9
$LOFTNORMALS
280
     1
  9
$LATITUDE
 40
37.795
  9
$LONGITUDE
 40
-122.394
  9
$NORTHDIRECTION
 40
0.0
  9
$TIMEZONE
 70
 -8000
  9
$LIGHTGLYPHDISPLAY
280
     1
  9
$TILEMODELIGHTSYNCH
280
     1
  9
$CMATERIAL
347
3C
  9
$SOLIDHIST
280
     1
  9
$SHOWHIST
280
     1
  9
$DWFFRAME
280
     2
  9
$DGNFRAME
280
     2
  9
$REALWORLDSCALE
290
     1
  9
$INTERFERECOLOR
 62
   256
  9
$CSHADOW
280
     0
  9
$SHADOWPLANELOCATION
 40
0.0
  0
ENDSEC
  0
SECTION
  2
CLASSES
  0
CLASS
  1
ACDBDICTIONARYWDFLT
  2
AcDbDictionaryWithDefault
  3
ObjectDBX Classes
 90
        0
 91
        4
280
     0
281
     0
  0
CLASS
  1
VISUALSTYLE
  2
AcDbVisualStyle
  3
ObjectDBX Classes
 90
     4095
 91
        4
280
     0
281
     0
  0
CLASS
  1
MATERIAL
  2
AcDbMaterial
  3
ObjectDBX Classes
 90
     1153
 91
        4
280
     0
281
     0
  0
CLASS
  1
SUN
  2
AcDbSun
  3
SCENEOE
 90
     1024
 91
        4
280
     0
281
     0
  0
ENDSEC
  0
SECTION
  2
TABLES
  0
TABLE
  2
VPORT
  5
8
330
0
100
AcDbSymbolTable
 70
     1
  0
VPORT
  5
29
330
8
100
AcDbSymbolTableRecord
100
AcDbViewportTableRecord
  2
*Active
 70
     0
 10
0.0
 20
0.0
 11
1.0
 21
1.0
 12
0.0
 22
0.0
 13
0.0
 23
0.0
 14
0.5
 24
0.5
 15
0.5
 25
0.5
 16
0.0
 26
0.0
 36
1.0
 17
105.0007777515277
 27
-148.5000416295416
 37
0.0
 40
297.0000832590831
 41
0.7070757462376333
 42
50.0
 43
0.0
 44
0.0
 50
0.0
 51
0.0
 71
     0
 72
   100
 73
     1
 74
     3
 75
     0
 76
     0
 77
     0
 78
     0
281
     0
 65
     1
110
0.0
120
0.0
130
0.0
111
1.0
121
0.0
131
0.0
112
0.0
122
1.0
132
0.0
 79
     0
146
0.0
 60
     3
 61
     5
292
     1
282
     1
141
0.0
142
0.0
 63
   250
361
3F
  0
ENDTAB
  0
TABLE
  2
LTYPE
  5
5
330
0
100
AcDbSymbolTable
 70
     1
  0
LTYPE
  5
14
330
5
100
AcDbSymbolTableRecord
100
AcDbLinetypeTableRecord
  2
ByBlock
 70
     0
  3

 72
    65
 73
     0
 40
0.0
  0
LTYPE
  5
15
330
5
100
AcDbSymbolTableRecord
100
AcDbLinetypeTableRecord
  2
ByLayer
 70
     0
  3

 72
    65
 73
     0
 40
0.0
  0
LTYPE
  5
16
330
5
100
AcDbSymbolTableRecord
100
AcDbLinetypeTableRecord
  2
Continuous
 70
     0
  3
Solid line
 72
    65
 73
     0
 40
0.0
  0
ENDTAB
  0
TABLE
  2
LAYER
  5
2
330
0
100
AcDbSymbolTable
 70
     2
  0
LAYER
  5
10
330
2
100
AcDbSymbolTableRecord
100
AcDbLayerTableRecord
  2
0
 70
     0
 62
     7
  6
Continuous
370
    -3
390
F
347
3E
  0
LAYER
  5
40
330
2
100
AcDbSymbolTableRecord
100
AcDbLayerTableRecord
  2
_U+30EC_U+30A4_U+30E4_U+30FC 1
 70
     0
 62
     7
  6
Continuous
370
    -3
390
F
347
3E
  0
ENDTAB
  0
TABLE
  2
STYLE
  5
3
330
0
100
AcDbSymbolTable
 70
     1
  0
STYLE
  5
11
330
3
100
AcDbSymbolTableRecord
100
AcDbTextStyleTableRecord
  2
Standard
 70
     0
 40
0.0
 41
1.0
 50
0.0
 71
     0
 42
0.2
  3
txt
  4

  0
ENDTAB
  0
TABLE
  2
VIEW
  5
6
330
0
100
AcDbSymbolTable
 70
     0
  0
ENDTAB
  0
TABLE
  2
UCS
  5
7
330
0
100
AcDbSymbolTable
 70
     0
  0
ENDTAB
  0
TABLE
  2
APPID
  5
9
330
0
100
AcDbSymbolTable
 70
     1
  0
APPID
  5
12
330
9
100
AcDbSymbolTableRecord
100
AcDbRegAppTableRecord
  2
ACAD
 70
     0
  0
ENDTAB
  0
TABLE
  2
DIMSTYLE
  5
A
330
0
100
AcDbSymbolTable
 70
     1
100
AcDbDimStyleTable
  0
DIMSTYLE
105
27
330
A
100
AcDbSymbolTableRecord
100
AcDbDimStyleTableRecord
  2
Standard
 70
     0
178
     0
340
11
  0
ENDTAB
  0
TABLE
  2
BLOCK_RECORD
  5
1
330
0
100
AcDbSymbolTable
 70
     6
  0
BLOCK_RECORD
  5
1F
330
1
100
AcDbSymbolTableRecord
100
AcDbBlockTableRecord
  2
*Model_Space
340
22
 70
     0
280
     1
281
     0
  0
BLOCK_RECORD
  5
1B
330
1
100
AcDbSymbolTableRecord
100
AcDbBlockTableRecord
  2
*Paper_Space
340
1E
 70
     0
280
     1
281
     0
  0
BLOCK_RECORD
  5
23
330
1
100
AcDbSymbolTableRecord
100
AcDbBlockTableRecord
  2
*Paper_Space0
340
26
 70
     0
280
     1
281
     0
  0
BLOCK_RECORD
  5
4F
330
1
100
AcDbSymbolTableRecord
100
AcDbBlockTableRecord
  2
block 2
340
0
102
{BLKREFS
331
50
102
}
 70
     0
280
     1
281
     0
  0
BLOCK_RECORD
  5
E4
330
1
100
AcDbSymbolTableRecord
100
AcDbBlockTableRecord
  2
block 3
340
0
102
{BLKREFS
331
E5
102
}
 70
     0
280
     1
281
     0
  0
BLOCK_RECORD
  5
FB
330
1
100
AcDbSymbolTableRecord
100
AcDbBlockTableRecord
  2
block 4
340
0
102
{BLKREFS
331
FC
102
}
 70
     0
280
     1
281
     0
  0
BLOCK_RECORD
  5
10E
330
1
100
AcDbSymbolTableRecord
100
AcDbBlockTableRecord
  2
block 5
340
0
102
{BLKREFS
331
10F
102
}
 70
     0
280
     1
281
     0
  0
BLOCK_RECORD
  5
133
330
1
100
AcDbSymbolTableRecord
100
AcDbBlockTableRecord
  2
block 6
340
0
102
{BLKREFS
331
134
102
}
 70
     0
280
     1
281
     0
  0
ENDTAB
  0
ENDSEC
  0
SECTION
  2
BLOCKS
  0
BLOCK
  5
20
330
1F
100
AcDbEntity
  8
0
100
AcDbBlockBegin
  2
*Model_Space
 70
     0
 10
0.0
 20
0.0
 30
0.0
  3
*Model_Space
  1

  0
ENDBLK
  5
21
330
1F
100
AcDbEntity
  8
0
100
AcDbBlockEnd
  0
BLOCK
  5
1C
330
1B
100
AcDbEntity
 67
     1
  8
0
100
AcDbBlockBegin
  2
*Paper_Space
 70
     0
 10
0.0
 20
0.0
 30
0.0
  3
*Paper_Space
  1

  0
ENDBLK
  5
1D
330
1B
100
AcDbEntity
 67
     1
  8
0
100
AcDbBlockEnd
  0
BLOCK
  5
24
330
23
100
AcDbEntity
  8
0
100
AcDbBlockBegin
  2
*Paper_Space0
 70
     0
 10
0.0
 20
0.0
 30
0.0
  3
*Paper_Space0
  1

  0
ENDBLK
  5
25
330
23
100
AcDbEntity
  8
0
100
AcDbBlockEnd
  0
BLOCK
  5
51
330
4F
100
AcDbEntity
  8
0
100
AcDbBlockBegin
  2
block 2
 70
     0
 10
0.0
 20
0.0
 30
0.0
  3
block 2
  1

  0
SPLINE
  5
53
330
4F
100
AcDbEntity
  8
_U+30EC_U+30A4_U+30E4_U+30FC 1
370
     0
100
AcDbSpline
210
0.0
220
0.0
230
1.0
 70
    11
 71
     3
 72
    26
 73
    22
 74
     0
 42
0.0000000001
 43
0.0000000001
 12
1.0
 22
0.0
 32
0.0
 13
1.0
 23
0.0
 33
0.0
 40
0.0
 40
0.0
 40
0.0
 40
0.0
 40
1.0
 40
1.0
 40
1.0
 40
2.0
 40
2.0
 40
2.0
 40
3.0
 40
3.0
 40
3.0
 40
4.0
 40
4.0
 40
4.0
 40
5.0
 40
5.0
 40
5.0
 40
6.0
 40
6.0
 40
6.0
 40
7.0
 40
7.0
 40
7.0
 40
7.0
 10
92.12288680422623
 20
-162.8951388481651
 30
0.0
 10
92.12288680422623
 20
-162.8951388481651
 30
0.0
 10
92.12288680422623
 20
-161.7909857451425
 30
0.0
 10
92.12288680422623
 20
-161.7909857451425
 30
0.0
 10
92.12288680422623
 20
-161.7909857451425
 30
0.0
 10
91.79284665673929
 20
-161.7909857451425
 30
0.0
 10
91.79284665673929
 20
-161.7909857451425
 30
0.0
 10
91.79284665673929
 20
-161.7909857451425
 30
0.0
 10
91.79284665673929
 20
-161.6428466392768
 30
0.0
 10
91.79284665673929
 20
-161.6428466392768
 30
0.0
 10
92.12495386151738
 20
-161.6280327286902
 30
0.0
 10
92.17146265056824
 20
-161.4650797122379
 30
0.0
 10
92.2010904717414
 20
-161.3507025421276
 30
0.0
 10
92.2010904717414
 20
-161.3507025421276
 30
0.0
 10
92.34716252031599
 20
-161.3507025421276
 30
0.0
 10
92.34716252031599
 20
-161.3507025421276
 30
0.0
 10
92.34716252031599
 20
-161.3507025421276
 30
0.0
 10
92.34716252031599
 20
-162.8951388481651
 30
0.0
 10
92.34716252031599
 20
-162.8951388481651
 30
0.0
 10
92.34716252031599
 20
-162.8951388481651
 30
0.0
 10
92.12288680422623
 20
-162.8951388481651
 30
0.0
 10
92.12288680422623
 20
-162.8951388481651
 30
0.0
  0
HATCH
  5
54
330
4F
100
AcDbEntity
  8
_U+30EC_U+30A4_U+30E4_U+30FC 1
 62
   179
420
  2234388
100
AcDbHatch
 10
0.0
 20
0.0
 30
0.0
210
0.0
220
0.0
230
1.0
  2
SOLID
 70
     1
 71
     0
 91
        1
 92
        1
 93
        1
 72
     4
 94
        3
 73
     0
 74
     1
 95
       26
 96
       22
 40
0.0
 40
0.0
 40
0.0
 40
0.0
 40
1.0
 40
1.0
 40
1.0
 40
2.0
 40
2.0
 40
2.0
 40
3.0
 40
3.0
 40
3.0
 40
4.0
 40
4.0
 40
4.0
 40
5.0
 40
5.0
 40
5.0
 40
6.0
 40
6.0
 40
6.0
 40
7.0
 40
7.0
 40
7.0
 40
7.0
 10
92.12288680422623
 20
-162.8951388481651
 10
92.12288680422623
 20
-162.8951388481651
 10
92.12288680422623
 20
-161.7909857451425
 10
92.12288680422623
 20
-161.7909857451425
 10
92.12288680422623
 20
-161.7909857451425
 10
91.79284665673929
 20
-161.7909857451425
 10
91.79284665673929
 20
-161.7909857451425
 10
91.79284665673929
 20
-161.7909857451425
 10
91.79284665673929
 20
-161.6428466392768
 10
91.79284665673929
 20
-161.6428466392768
 10
92.12495386151738
 20
-161.6280327286902
 10
92.17146265056824
 20
-161.4650797122379
 10
92.2010904717414
 20
-161.3507025421276
 10
92.2010904717414
 20
-161.3507025421276
 10
92.34716252031599
 20
-161.3507025421276
 10
92.34716252031599
 20
-161.3507025421276
 10
92.34716252031599
 20
-161.3507025421276
 10
92.34716252031599
 20
-162.8951388481651
 10
92.34716252031599
 20
-162.8951388481651
 10
92.34716252031599
 20
-162.8951388481651
 10
92.12288680422623
 20
-162.8951388481651
 10
92.12288680422623
 20
-162.8951388481651
 97
        0
 97
        0
 75
     2
 76
     1
 98
        0
  0
SPLINE
  5
55
330
4F
100
AcDbEntity
  8
_U+30EC_U+30A4_U+30E4_U+30FC 1
370
     0
100
AcDbSpline
210
0.0
220
0.0
230
1.0
 70
    11
 71
     3
 72
    29
 73
    25
 74
     0
 42
0.0000000001
 43
0.0000000001
 12
1.0
 22
0.0
 32
0.0
 13
1.0
 23
0.0
 33
0.0
 40
0.0
 40
0.0
 40
0.0
 40
0.0
 40
1.0
 40
1.0
 40
1.0
 40
2.0
 40
2.0
 40
2.0
 40
3.0
 40
3.0
 40
3.0
 40
4.0
 40
4.0
 40
4.0
 40
5.0
 40
5.0
 40
5.0
 40
6.0
 40
6.0
 40
6.0
 40
7.0
 40
7.0
 40
7.0
 40
8.0
 40
8.0
 40
8.0
 40
8.0
 10
93.74621579687594
 20
-162.7173719211262
 30
0.0
 10
93.6380397986391
 20
-162.9268337266294
 30
0.0
 10
93.46475149573104
 20
-162.9457817517983
 30
0.0
 10
93.34830726832959
 20
-162.9457817517983
 30
0.0
 10
93.18742130916843
 20
-162.9457817517983
 30
0.0
 10
93.04582788472466
 20
-162.8992729627474
 30
0.0
 10
92.95074324933177
 20
-162.7173719211262
 30
0.0
 10
92.84704587522575
 20
-162.5227240262096
 30
0.0
 10
92.82809785005686
 20
-162.2860459663729
 30
0.0
 10
92.82809785005686
 20
-162.1230929499206
 30
0.0
 10
92.82809785005686
 20
-161.9790879586372
 30
0.0
 10
92.84497881793459
 20
-161.7272514786654
 30
0.0
 10
92.95074324933177
 20
-161.5284694691665
 30
0.0
 10
93.05857473802008
 20
-161.3255533450853
 30
0.0
 10
93.21946069718125
 20
-161.3021266957856
 30
0.0
 10
93.34830726832959
 20
-161.3021266957856
 30
0.0
 10
93.50712617019961
 20
-161.3021266957856
 30
0.0
 10
93.65078665193452
 20
-161.3465684275453
 30
0.0
 10
93.74621579687594
 20
-161.5284694691665
 30
0.0
 10
93.84543454685115
 20
-161.721050306792
 30
0.0
 10
93.86886119615085
 20
-161.949460137464
 30
0.0
 10
93.86886119615085
 20
-162.1230929499206
 30
0.0
 10
93.86886119615085
 20
-162.2943141955375
 30
0.0
 10
93.8475016041423
 20
-162.5247910835008
 30
0.0
 10
93.74621579687594
 20
-162.7173719211262
 30
0.0
  0
SPLINE
  5
56
330
4F
100
AcDbEntity
  8
_U+30EC_U+30A4_U+30E4_U+30FC 1
370
     0
100
AcDbSpline
210
0.0
220
0.0
230
1.0
 70
    11
 71
     3
 72
    17
 73
    13
 74
     0
 42
0.0000000001
 43
0.0000000001
 12
1.0
 22
0.0
 32
0.0
 13
1.0
 23
0.0
 33
0.0
 40
0.0
 40
0.0
 40
0.0
 40
0.0
 40
1.0
 40
1.0
 40
1.0
 40
2.0
 40
2.0
 40
2.0
 40
3.0
 40
3.0
 40
3.0
 40
4.0
 40
4.0
 40
4.0
 40
4.0
 10
93.34830726832959
 20
-161.4947075334111
 30
0.0
 10
93.0988823551975
 20
-161.4947075334111
 30
0.0
 10
93.0520290565981
 20
-161.7782388918471
 30
0.0
 10
93.0520290565981
 20
-162.1230929499206
 30
0.0
 10
93.0520290565981
 20
-162.4424533014033
 30
0.0
 10
93.08820255919323
 20
-162.7511338568817
 30
0.0
 10
93.34830726832959
 20
-162.7511338568817
 30
0.0
 10
93.59600963371906
 20
-162.7511338568817
 30
0.0
 10
93.64458548006108
 20
-162.4700140652853
 30
0.0
 10
93.64458548006108
 20
-162.1230929499206
 30
0.0
 10
93.64458548006108
 20
-161.8033880888894
 30
0.0
 10
93.6063449201748
 20
-161.4947075334111
 30
0.0
 10
93.34830726832959
 20
-161.4947075334111
 30
0.0
  0
HATCH
  5
57
330
4F
100
AcDbEntity
  8
_U+30EC_U+30A4_U+30E4_U+30FC 1
 62
   179
420
  2234388
100
AcDbHatch
 10
0.0
 20
0.0
 30
0.0
210
0.0
220
0.0
230
1.0
  2
SOLID
 70
     1
 71
     0
 91
        2
 92
        1
 93
        1
 72
     4
 94
        3
 73
     0
 74
     1
 95
       29
 96
       25
 40
0.0
 40
0.0
 40
0.0
 40
0.0
 40
1.0
 40
1.0
 40
1.0
 40
2.0
 40
2.0
 40
2.0
 40
3.0
 40
3.0
 40
3.0
 40
4.0
 40
4.0
 40
4.0
 40
5.0
 40
5.0
 40
5.0
 40
6.0
 40
6.0
 40
6.0
 40
7.0
 40
7.0
 40
7.0
 40
8.0
 40
8.0
 40
8.0
 40
8.0
 10
93.74621579687594
 20
-162.7173719211262
 10
93.6380397986391
 20
-162.9268337266294
 10
93.46475149573104
 20
-162.9457817517983
 10
93.34830726832959
 20
-162.9457817517983
 10
93.18742130916843
 20
-162.9457817517983
 10
93.04582788472466
 20
-162.8992729627474
 10
92.95074324933177
 20
-162.7173719211262
 10
92.84704587522575
 20
-162.5227240262096
 10
92.82809785005686
 20
-162.2860459663729
 10
92.82809785005686
 20
-162.1230929499206
 10
92.82809785005686
 20
-161.9790879586372
 10
92.84497881793459
 20
-161.7272514786654
 10
92.95074324933177
 20
-161.5284694691665
 10
93.05857473802008
 20
-161.3255533450853
 10
93.21946069718125
 20
-161.3021266957856
 10
93.34830726832959
 20
-161.3021266957856
 10
93.50712617019961
 20
-161.3021266957856
 10
93.65078665193452
 20
-161.3465684275453
 10
93.74621579687594
 20
-161.5284694691665
 10
93.84543454685115
 20
-161.721050306792
 10
93.86886119615085
 20
-161.949460137464
 10
93.86886119615085
 20
-162.1230929499206
 10
93.86886119615085
 20
-162.2943141955375
 10
93.8475016041423
 20
-162.5247910835008
 10
93.74621579687594
 20
-162.7173719211262
 97
        0
 97
        0
 92
        1
 93
        1
 72
     4
 94
        3
 73
     0
 74
     1
 95
       17
 96
       13
 40
0.0
 40
0.0
 40
0.0
 40
0.0
 40
1.0
 40
1.0
 40
1.0
 40
2.0
 40
2.0
 40
2.0
 40
3.0
 40
3.0
 40
3.0
 40
4.0
 40
4.0
 40
4.0
 40
4.0
 10
93.34830726832959
 20
-161.4947075334111
 10
93.0988823551975
 20
-161.4947075334111
 10
93.0520290565981
 20
-161.7782388918471
 10
93.0520290565981
 20
-162.1230929499206
 10
93.0520290565981
 20
-162.4424533014033
 10
93.08820255919323
 20
-162.7511338568817
 10
93.34830726832959
 20
-162.7511338568817
 10
93.59600963371906
 20
-162.7511338568817
 10
93.64458548006108
 20
-162.4700140652853
 10
93.64458548006108
 20
-162.1230929499206
 10
93.64458548006108
 20
-161.8033880888894
 10
93.6063449201748
 20
-161.4947075334111
 10
93.34830726832959
 20
-161.4947075334111
 97
        0
 97
        0
 75
     2
 76
     1
 98
        0
  0
ENDBLK
  5
52
330
4F
100
AcDbEntity
  8
0
100
AcDbBlockEnd
  0
BLOCK
  5
E6
330
E4
100
AcDbEntity
  8
0
100
AcDbBlockBegin
  2
block 3
 70
     0
 10
0.0
 20
0.0
 30
0.0
  3
block 3
  1

  0
SPLINE
  5
E8
330
E4
100
AcDbEntity
  8
_U+30EC_U+30A4_U+30E4_U+30FC 1
370
     0
100
AcDbSpline
210
0.0
220
0.0
230
1.0
 70
    11
 71
     3
 72
    44
 73
    40
 74
     0
 42
0.0000000001
 43
0.0000000001
 12
1.0
 22
0.0
 32
0.0
 13
1.0
 23
0.0
 33
0.0
 40
0.0
 40
0.0
 40
0.0
 40
0.0
 40
1.0
 40
1.0
 40
1.0
 40
2.0
 40
2.0
 40
2.0
 40
3.0
 40
3.0
 40
3.0
 40
4.0
 40
4.0
 40
4.0
 40
5.0
 40
5.0
 40
5.0
 40
6.0
 40
6.0
 40
6.0
 40
7.0
 40
7.0
 40
7.0
 40
8.0
 40
8.0
 40
8.0
 40
9.0
 40
9.0
 40
9.0
 40
10.0
 40
10.0
 40
10.0
 40
11.0
 40
11.0
 40
11.0
 40
12.0
 40
12.0
 40
12.0
 40
13.0
 40
13.0
 40
13.0
 40
13.0
 10
111.4674424634526
 20
-132.1567911453462
 30
0.0
 10
111.2497124287848
 20
-132.3156100472162
 30
0.0
 10
111.1566948506831
 20
-132.3896796001491
 30
0.0
 10
111.1077744947925
 20
-132.533340081884
 30
0.0
 10
111.1077744947925
 20
-132.533340081884
 30
0.0
 10
111.886366074459
 20
-132.533340081884
 30
0.0
 10
111.886366074459
 20
-132.533340081884
 30
0.0
 10
111.886366074459
 20
-132.533340081884
 30
0.0
 10
111.886366074459
 20
-132.7386677728049
 30
0.0
 10
111.886366074459
 20
-132.7386677728049
 30
0.0
 10
111.886366074459
 20
-132.7386677728049
 30
0.0
 10
110.8583495816604
 20
-132.7386677728049
 30
0.0
 10
110.8583495816604
 20
-132.7386677728049
 30
0.0
 10
110.8900444601247
 20
-132.381066861436
 30
0.0
 10
110.9555012743445
 20
-132.3028631939208
 30
0.0
 10
111.3406629495954
 20
-132.0045179248982
 30
0.0
 10
111.5966335441495
 20
-131.8057359153993
 30
0.0
 10
111.6620903583692
 20
-131.7378675343398
 30
0.0
 10
111.6620903583692
 20
-131.6004082244784
 30
0.0
 10
111.6620903583692
 20
-131.4818969397858
 30
0.0
 10
111.5900878627275
 20
-131.3509833113463
 30
0.0
 10
111.3933729105197
 20
-131.3509833113463
 30
0.0
 10
111.1332682013834
 20
-131.3509833113463
 30
0.0
 10
111.1249999722188
 20
-131.5814601993095
 30
0.0
 10
111.1205213480879
 20
-131.6979044267109
 30
0.0
 10
111.1205213480879
 20
-131.6979044267109
 30
0.0
 10
110.8962456319982
 20
-131.6979044267109
 30
0.0
 10
110.8962456319982
 20
-131.6979044267109
 30
0.0
 10
110.9048583707113
 20
-131.5707804033052
 30
0.0
 10
110.9155381667156
 20
-131.4588148000346
 30
0.0
 10
110.9958088915219
 20
-131.340303515342
 30
0.0
 10
111.1057074375014
 20
-131.1794175561809
 30
0.0
 10
111.2920871032534
 20
-131.1456556204254
 30
0.0
 10
111.4081868211063
 20
-131.1456556204254
 30
0.0
 10
111.6855170076689
 20
-131.1456556204254
 30
0.0
 10
111.8929117558809
 20
-131.3296237193377
 30
0.0
 10
111.8929117558809
 20
-131.6024752817695
 30
0.0
 10
111.8929117558809
 20
-131.8312296219901
 30
0.0
 10
111.7764675284795
 20
-131.9304483719653
 30
0.0
 10
111.4674424634526
 20
-132.1567911453462
 30
0.0
  0
HATCH
  5
E9
330
E4
100
AcDbEntity
  8
_U+30EC_U+30A4_U+30E4_U+30FC 1
 62
   179
420
  2234388
100
AcDbHatch
 10
0.0
 20
0.0
 30
0.0
210
0.0
220
0.0
230
1.0
  2
SOLID
 70
     1
 71
     0
 91
        1
 92
        1
 93
        1
 72
     4
 94
        3
 73
     0
 74
     1
 95
       44
 96
       40
 40
0.0
 40
0.0
 40
0.0
 40
0.0
 40
1.0
 40
1.0
 40
1.0
 40
2.0
 40
2.0
 40
2.0
 40
3.0
 40
3.0
 40
3.0
 40
4.0
 40
4.0
 40
4.0
 40
5.0
 40
5.0
 40
5.0
 40
6.0
 40
6.0
 40
6.0
 40
7.0
 40
7.0
 40
7.0
 40
8.0
 40
8.0
 40
8.0
 40
9.0
 40
9.0
 40
9.0
 40
10.0
 40
10.0
 40
10.0
 40
11.0
 40
11.0
 40
11.0
 40
12.0
 40
12.0
 40
12.0
 40
13.0
 40
13.0
 40
13.0
 40
13.0
 10
111.4674424634526
 20
-132.1567911453462
 10
111.2497124287848
 20
-132.3156100472162
 10
111.1566948506831
 20
-132.3896796001491
 10
111.1077744947925
 20
-132.533340081884
 10
111.1077744947925
 20
-132.533340081884
 10
111.886366074459
 20
-132.533340081884
 10
111.886366074459
 20
-132.533340081884
 10
111.886366074459
 20
-132.533340081884
 10
111.886366074459
 20
-132.7386677728049
 10
111.886366074459
 20
-132.7386677728049
 10
111.886366074459
 20
-132.7386677728049
 10
110.8583495816604
 20
-132.7386677728049
 10
110.8583495816604
 20
-132.7386677728049
 10
110.8900444601247
 20
-132.381066861436
 10
110.9555012743445
 20
-132.3028631939208
 10
111.3406629495954
 20
-132.0045179248982
 10
111.5966335441495
 20
-131.8057359153993
 10
111.6620903583692
 20
-131.7378675343398
 10
111.6620903583692
 20
-131.6004082244784
 10
111.6620903583692
 20
-131.4818969397858
 10
111.5900878627275
 20
-131.3509833113463
 10
111.3933729105197
 20
-131.3509833113463
 10
111.1332682013834
 20
-131.3509833113463
 10
111.1249999722188
 20
-131.5814601993095
 10
111.1205213480879
 20
-131.6979044267109
 10
111.1205213480879
 20
-131.6979044267109
 10
110.8962456319982
 20
-131.6979044267109
 10
110.8962456319982
 20
-131.6979044267109
 10
110.9048583707113
 20
-131.5707804033052
 10
110.9155381667156
 20
-131.4588148000346
 10
110.9958088915219
 20
-131.340303515342
 10
111.1057074375014
 20
-131.1794175561809
 10
111.2920871032534
 20
-131.1456556204254
 10
111.4081868211063
 20
-131.1456556204254
 10
111.6855170076689
 20
-131.1456556204254
 10
111.8929117558809
 20
-131.3296237193377
 10
111.8929117558809
 20
-131.6024752817695
 10
111.8929117558809
 20
-131.8312296219901
 10
111.7764675284795
 20
-131.9304483719653
 10
111.4674424634526
 20
-132.1567911453462
 97
        0
 97
        0
 75
     2
 76
     1
 98
        0
  0
SPLINE
  5
EA
330
E4
100
AcDbEntity
  8
_U+30EC_U+30A4_U+30E4_U+30FC 1
370
     0
100
AcDbSpline
210
0.0
220
0.0
230
1.0
 70
    11
 71
     3
 72
    32
 73
    28
 74
     0
 42
0.0000000001
 43
0.0000000001
 12
1.0
 22
0.0
 32
0.0
 13
1.0
 23
0.0
 33
0.0
 40
0.0
 40
0.0
 40
0.0
 40
0.0
 40
1.0
 40
1.0
 40
1.0
 40
2.0
 40
2.0
 40
2.0
 40
3.0
 40
3.0
 40
3.0
 40
4.0
 40
4.0
 40
4.0
 40
5.0
 40
5.0
 40
5.0
 40
6.0
 40
6.0
 40
6.0
 40
7.0
 40
7.0
 40
7.0
 40
8.0
 40
8.0
 40
8.0
 40
9.0
 40
9.0
 40
9.0
 40
9.0
 10
112.5554036176945
 20
-132.7893106764381
 30
0.0
 10
112.0393283140041
 20
-132.7893106764381
 30
0.0
 10
112.0310600848395
 20
-132.2353393224099
 30
0.0
 10
112.0310600848395
 20
-132.0213988927759
 30
0.0
 10
112.0310600848395
 20
-131.7909220048127
 30
0.0
 10
112.0500081100083
 20
-131.1435885631342
 30
0.0
 10
112.5936441775808
 20
-131.1435885631342
 30
0.0
 10
112.7669324804888
 20
-131.1435885631342
 30
0.0
 10
113.0125677885871
 20
-131.2135240014848
 30
0.0
 10
113.0504638389249
 20
-131.5456312062629
 30
0.0
 10
113.0504638389249
 20
-131.5456312062629
 30
0.0
 10
112.8368679188394
 20
-131.5456312062629
 30
0.0
 10
112.8368679188394
 20
-131.5456312062629
 30
0.0
 10
112.8261881228351
 20
-131.4884426212078
 30
0.0
 10
112.7944932443708
 20
-131.340303515342
 30
0.0
 10
112.5915771202896
 20
-131.340303515342
 30
0.0
 10
112.2994330231404
 20
-131.340303515342
 30
0.0
 10
112.2594699155115
 20
-131.6682766055378
 30
0.0
 10
112.2467230622161
 20
-131.8732597869102
 30
0.0
 10
112.3397406403178
 20
-131.795056119395
 30
0.0
 10
112.4076090213773
 20
-131.7358004770487
 30
0.0
 10
112.5895100629985
 20
-131.7358004770487
 30
0.0
 10
112.7693440473285
 20
-131.7358004770487
 30
0.0
 10
113.0718234309334
 20
-131.8439764752855
 30
0.0
 10
113.0718234309334
 20
-132.2501532329965
 30
0.0
 10
113.0718234309334
 20
-132.5695135844792
 30
0.0
 10
112.872696911886
 20
-132.7893106764381
 30
0.0
 10
112.5554036176945
 20
-132.7893106764381
 30
0.0
  0
SPLINE
  5
EB
330
E4
100
AcDbEntity
  8
_U+30EC_U+30A4_U+30E4_U+30FC 1
370
     0
100
AcDbSpline
210
0.0
220
0.0
230
1.0
 70
    11
 71
     3
 72
    17
 73
    13
 74
     0
 42
0.0000000001
 43
0.0000000001
 12
1.0
 22
0.0
 32
0.0
 13
1.0
 23
0.0
 33
0.0
 40
0.0
 40
0.0
 40
0.0
 40
0.0
 40
1.0
 40
1.0
 40
1.0
 40
2.0
 40
2.0
 40
2.0
 40
3.0
 40
3.0
 40
3.0
 40
4.0
 40
4.0
 40
4.0
 40
4.0
 10
112.5726290951207
 20
-131.9304483719653
 30
0.0
 10
112.3101128191447
 20
-131.9304483719653
 30
0.0
 10
112.272216768807
 20
-132.1419772347597
 30
0.0
 10
112.272216768807
 20
-132.2584214621611
 30
0.0
 10
112.272216768807
 20
-132.4341213319088
 30
0.0
 10
112.3673014041998
 20
-132.5970743483612
 30
0.0
 10
112.5512695031122
 20
-132.5970743483612
 30
0.0
 10
112.6718478450959
 20
-132.5970743483612
 30
0.0
 10
112.8475477148437
 20
-132.5378187060149
 30
0.0
 10
112.8475477148437
 20
-132.2522202902877
 30
0.0
 10
112.8475477148437
 20
-132.0279445741979
 30
0.0
 10
112.7076768381425
 20
-131.9304483719653
 30
0.0
 10
112.5726290951207
 20
-131.9304483719653
 30
0.0
  0
HATCH
  5
EC
330
E4
100
AcDbEntity
  8
_U+30EC_U+30A4_U+30E4_U+30FC 1
 62
   179
420
  2234388
100
AcDbHatch
 10
0.0
 20
0.0
 30
0.0
210
0.0
220
0.0
230
1.0
  2
SOLID
 70
     1
 71
     0
 91
        2
 92
        1
 93
        1
 72
     4
 94
        3
 73
     0
 74
     1
 95
       32
 96
       28
 40
0.0
 40
0.0
 40
0.0
 40
0.0
 40
1.0
 40
1.0
 40
1.0
 40
2.0
 40
2.0
 40
2.0
 40
3.0
 40
3.0
 40
3.0
 40
4.0
 40
4.0
 40
4.0
 40
5.0
 40
5.0
 40
5.0
 40
6.0
 40
6.0
 40
6.0
 40
7.0
 40
7.0
 40
7.0
 40
8.0
 40
8.0
 40
8.0
 40
9.0
 40
9.0
 40
9.0
 40
9.0
 10
112.5554036176945
 20
-132.7893106764381
 10
112.0393283140041
 20
-132.7893106764381
 10
112.0310600848395
 20
-132.2353393224099
 10
112.0310600848395
 20
-132.0213988927759
 10
112.0310600848395
 20
-131.7909220048127
 10
112.0500081100083
 20
-131.1435885631342
 10
112.5936441775808
 20
-131.1435885631342
 10
112.7669324804888
 20
-131.1435885631342
 10
113.0125677885871
 20
-131.2135240014848
 10
113.0504638389249
 20
-131.5456312062629
 10
113.0504638389249
 20
-131.5456312062629
 10
112.8368679188394
 20
-131.5456312062629
 10
112.8368679188394
 20
-131.5456312062629
 10
112.8261881228351
 20
-131.4884426212078
 10
112.7944932443708
 20
-131.340303515342
 10
112.5915771202896
 20
-131.340303515342
 10
112.2994330231404
 20
-131.340303515342
 10
112.2594699155115
 20
-131.6682766055378
 10
112.2467230622161
 20
-131.8732597869102
 10
112.3397406403178
 20
-131.795056119395
 10
112.4076090213773
 20
-131.7358004770487
 10
112.5895100629985
 20
-131.7358004770487
 10
112.7693440473285
 20
-131.7358004770487
 10
113.0718234309334
 20
-131.8439764752855
 10
113.0718234309334
 20
-132.2501532329965
 10
113.0718234309334
 20
-132.5695135844792
 10
112.872696911886
 20
-132.7893106764381
 10
112.5554036176945
 20
-132.7893106764381
 97
        0
 97
        0
 92
        1
 93
        1
 72
     4
 94
        3
 73
     0
 74
     1
 95
       17
 96
       13
 40
0.0
 40
0.0
 40
0.0
 40
0.0
 40
1.0
 40
1.0
 40
1.0
 40
2.0
 40
2.0
 40
2.0
 40
3.0
 40
3.0
 40
3.0
 40
4.0
 40
4.0
 40
4.0
 40
4.0
 10
112.5726290951207
 20
-131.9304483719653
 10
112.3101128191447
 20
-131.9304483719653
 10
112.272216768807
 20
-132.1419772347597
 10
112.272216768807
 20
-132.2584214621611
 10
112.272216768807
 20
-132.4341213319088
 10
112.3673014041998
 20
-132.5970743483612
 10
112.5512695031122
 20
-132.5970743483612
 10
112.6718478450959
 20
-132.5970743483612
 10
112.8475477148437
 20
-132.5378187060149
 10
112.8475477148437
 20
-132.2522202902877
 10
112.8475477148437
 20
-132.0279445741979
 10
112.7076768381425
 20
-131.9304483719653
 10
112.5726290951207
 20
-131.9304483719653
 97
        0
 97
        0
 75
     2
 76
     1
 98
        0
  0
ENDBLK
  5
E7
330
E4
100
AcDbEntity
  8
0
100
AcDbBlockEnd
  0
BLOCK
  5
FD
330
FB
100
AcDbEntity
  8
0
100
AcDbBlockBegin
  2
block 4
 70
     0
 10
0.0
 20
0.0
 30
0.0
  3
block 4
  1

  0
SPLINE
  5
FF
330
FB
100
AcDbEntity
  8
_U+30EC_U+30A4_U+30E4_U+30FC 1
370
     0
100
AcDbSpline
210
0.0
220
0.0
230
1.0
 70
    11
 71
     3
 72
    32
 73
    28
 74
     0
 42
0.0000000001
 43
0.0000000001
 12
1.0
 22
0.0
 32
0.0
 13
1.0
 23
0.0
 33
0.0
 40
0.0
 40
0.0
 40
0.0
 40
0.0
 40
1.0
 40
1.0
 40
1.0
 40
2.0
 40
2.0
 40
2.0
 40
3.0
 40
3.0
 40
3.0
 40
4.0
 40
4.0
 40
4.0
 40
5.0
 40
5.0
 40
5.0
 40
6.0
 40
6.0
 40
6.0
 40
7.0
 40
7.0
 40
7.0
 40
8.0
 40
8.0
 40
8.0
 40
9.0
 40
9.0
 40
9.0
 40
9.0
 10
130.199115635853
 20
-140.6019259631134
 30
0.0
 10
130.199115635853
 20
-141.1180012668038
 30
0.0
 10
129.6451442818248
 20
-141.1262694959684
 30
0.0
 10
129.4312038521908
 20
-141.1262694959684
 30
0.0
 10
129.2007269642276
 20
-141.1262694959684
 30
0.0
 10
128.5533935225492
 20
-141.1073214707996
 30
0.0
 10
128.5533935225492
 20
-140.5636854032271
 30
0.0
 10
128.5533935225492
 20
-140.3903971003191
 30
0.0
 10
128.6233289608997
 20
-140.1447617922207
 30
0.0
 10
128.9554361656778
 20
-140.106865741883
 30
0.0
 10
128.9554361656778
 20
-140.106865741883
 30
0.0
 10
128.9554361656778
 20
-140.3204616619685
 30
0.0
 10
128.9554361656778
 20
-140.3204616619685
 30
0.0
 10
128.8982475806227
 20
-140.3311414579728
 30
0.0
 10
128.7501084747569
 20
-140.3628363364371
 30
0.0
 10
128.7501084747569
 20
-140.5657524605183
 30
0.0
 10
128.7501084747569
 20
-140.8578965576675
 30
0.0
 10
129.0780815649527
 20
-140.8978596652964
 30
0.0
 10
129.2830647463251
 20
-140.9106065185918
 30
0.0
 10
129.2048610788099
 20
-140.8175889404901
 30
0.0
 10
129.1456054364636
 20
-140.7497205594306
 30
0.0
 10
129.1456054364636
 20
-140.5678195178095
 30
0.0
 10
129.1456054364636
 20
-140.3879855334794
 30
0.0
 10
129.2537814347004
 20
-140.0855061498745
 30
0.0
 10
129.6599581924114
 20
-140.0855061498745
 30
0.0
 10
129.9793185438941
 20
-140.0855061498745
 30
0.0
 10
130.199115635853
 20
-140.2846326689219
 30
0.0
 10
130.199115635853
 20
-140.6019259631134
 30
0.0
  0
SPLINE
  5
100
330
FB
100
AcDbEntity
  8
_U+30EC_U+30A4_U+30E4_U+30FC 1
370
     0
100
AcDbSpline
210
0.0
220
0.0
230
1.0
 70
    11
 71
     3
 72
    17
 73
    13
 74
     0
 42
0.0000000001
 43
0.0000000001
 12
1.0
 22
0.0
 32
0.0
 13
1.0
 23
0.0
 33
0.0
 40
0.0
 40
0.0
 40
0.0
 40
0.0
 40
1.0
 40
1.0
 40
1.0
 40
2.0
 40
2.0
 40
2.0
 40
3.0
 40
3.0
 40
3.0
 40
4.0
 40
4.0
 40
4.0
 40
4.0
 10
129.3402533313802
 20
-140.5847004856872
 30
0.0
 10
129.3402533313802
 20
-140.8472167616632
 30
0.0
 10
129.5517821941746
 20
-140.885112812001
 30
0.0
 10
129.668226421576
 20
-140.885112812001
 30
0.0
 10
129.8439262913238
 20
-140.885112812001
 30
0.0
 10
130.0068793077761
 20
-140.790028176608
 30
0.0
 10
130.0068793077761
 20
-140.6060600776957
 30
0.0
 10
130.0068793077761
 20
-140.485481735712
 30
0.0
 10
129.9476236654298
 20
-140.3097818659642
 30
0.0
 10
129.6620252497026
 20
-140.3097818659642
 30
0.0
 10
129.4377495336128
 20
-140.3097818659642
 30
0.0
 10
129.3402533313802
 20
-140.4496527426654
 30
0.0
 10
129.3402533313802
 20
-140.5847004856872
 30
0.0
  0
HATCH
  5
101
330
FB
100
AcDbEntity
  8
_U+30EC_U+30A4_U+30E4_U+30FC 1
 62
   179
420
  2234388
100
AcDbHatch
 10
0.0
 20
0.0
 30
0.0
210
0.0
220
0.0
230
1.0
  2
SOLID
 70
     1
 71
     0
 91
        2
 92
        1
 93
        1
 72
     4
 94
        3
 73
     0
 74
     1
 95
       32
 96
       28
 40
0.0
 40
0.0
 40
0.0
 40
0.0
 40
1.0
 40
1.0
 40
1.0
 40
2.0
 40
2.0
 40
2.0
 40
3.0
 40
3.0
 40
3.0
 40
4.0
 40
4.0
 40
4.0
 40
5.0
 40
5.0
 40
5.0
 40
6.0
 40
6.0
 40
6.0
 40
7.0
 40
7.0
 40
7.0
 40
8.0
 40
8.0
 40
8.0
 40
9.0
 40
9.0
 40
9.0
 40
9.0
 10
130.199115635853
 20
-140.6019259631134
 10
130.199115635853
 20
-141.1180012668038
 10
129.6451442818248
 20
-141.1262694959684
 10
129.4312038521908
 20
-141.1262694959684
 10
129.2007269642276
 20
-141.1262694959684
 10
128.5533935225492
 20
-141.1073214707996
 10
128.5533935225492
 20
-140.5636854032271
 10
128.5533935225492
 20
-140.3903971003191
 10
128.6233289608997
 20
-140.1447617922207
 10
128.9554361656778
 20
-140.106865741883
 10
128.9554361656778
 20
-140.106865741883
 10
128.9554361656778
 20
-140.3204616619685
 10
128.9554361656778
 20
-140.3204616619685
 10
128.8982475806227
 20
-140.3311414579728
 10
128.7501084747569
 20
-140.3628363364371
 10
128.7501084747569
 20
-140.5657524605183
 10
128.7501084747569
 20
-140.8578965576675
 10
129.0780815649527
 20
-140.8978596652964
 10
129.2830647463251
 20
-140.9106065185918
 10
129.2048610788099
 20
-140.8175889404901
 10
129.1456054364636
 20
-140.7497205594306
 10
129.1456054364636
 20
-140.5678195178095
 10
129.1456054364636
 20
-140.3879855334794
 10
129.2537814347004
 20
-140.0855061498745
 10
129.6599581924114
 20
-140.0855061498745
 10
129.9793185438941
 20
-140.0855061498745
 10
130.199115635853
 20
-140.2846326689219
 10
130.199115635853
 20
-140.6019259631134
 97
        0
 97
        0
 92
        1
 93
        1
 72
     4
 94
        3
 73
     0
 74
     1
 95
       17
 96
       13
 40
0.0
 40
0.0
 40
0.0
 40
0.0
 40
1.0
 40
1.0
 40
1.0
 40
2.0
 40
2.0
 40
2.0
 40
3.0
 40
3.0
 40
3.0
 40
4.0
 40
4.0
 40
4.0
 40
4.0
 10
129.3402533313802
 20
-140.5847004856872
 10
129.3402533313802
 20
-140.8472167616632
 10
129.5517821941746
 20
-140.885112812001
 10
129.668226421576
 20
-140.885112812001
 10
129.8439262913238
 20
-140.885112812001
 10
130.0068793077761
 20
-140.790028176608
 10
130.0068793077761
 20
-140.6060600776957
 10
130.0068793077761
 20
-140.485481735712
 10
129.9476236654298
 20
-140.3097818659642
 10
129.6620252497026
 20
-140.3097818659642
 10
129.4377495336128
 20
-140.3097818659642
 10
129.3402533313802
 20
-140.4496527426654
 10
129.3402533313802
 20
-140.5847004856872
 97
        0
 97
        0
 75
     2
 76
     1
 98
        0
  0
ENDBLK
  5
FE
330
FB
100
AcDbEntity
  8
0
100
AcDbBlockEnd
  0
BLOCK
  5
110
330
10E
100
AcDbEntity
  8
0
100
AcDbBlockBegin
  2
block 5
 70
     0
 10
0.0
 20
0.0
 30
0.0
  3
block 5
  1

  0
SPLINE
  5
112
330
10E
100
AcDbEntity
  8
_U+30EC_U+30A4_U+30E4_U+30FC 1
370
     0
100
AcDbSpline
210
0.0
220
0.0
230
1.0
 70
    11
 71
     3
 72
    44
 73
    40
 74
     0
 42
0.0000000001
 43
0.0000000001
 12
1.0
 22
0.0
 32
0.0
 13
1.0
 23
0.0
 33
0.0
 40
0.0
 40
0.0
 40
0.0
 40
0.0
 40
1.0
 40
1.0
 40
1.0
 40
2.0
 40
2.0
 40
2.0
 40
3.0
 40
3.0
 40
3.0
 40
4.0
 40
4.0
 40
4.0
 40
5.0
 40
5.0
 40
5.0
 40
6.0
 40
6.0
 40
6.0
 40
7.0
 40
7.0
 40
7.0
 40
8.0
 40
8.0
 40
8.0
 40
9.0
 40
9.0
 40
9.0
 40
10.0
 40
10.0
 40
10.0
 40
11.0
 40
11.0
 40
11.0
 40
12.0
 40
12.0
 40
12.0
 40
13.0
 40
13.0
 40
13.0
 40
13.0
 10
80.51170923551443
 20
-151.0905191679566
 30
0.0
 10
80.67052813738445
 20
-151.3082492026243
 30
0.0
 10
80.74459769031732
 20
-151.4012667807261
 30
0.0
 10
80.88825817205225
 20
-151.4501871366166
 30
0.0
 10
80.88825817205225
 20
-151.4501871366166
 30
0.0
 10
80.88825817205225
 20
-150.6715955569502
 30
0.0
 10
80.88825817205225
 20
-150.6715955569502
 30
0.0
 10
80.88825817205225
 20
-150.6715955569502
 30
0.0
 10
81.09358586297313
 20
-150.6715955569502
 30
0.0
 10
81.09358586297313
 20
-150.6715955569502
 30
0.0
 10
81.09358586297313
 20
-150.6715955569502
 30
0.0
 10
81.09358586297313
 20
-151.6996120497487
 30
0.0
 10
81.09358586297313
 20
-151.6996120497487
 30
0.0
 10
80.73598495160421
 20
-151.6679171712844
 30
0.0
 10
80.65778128408903
 20
-151.6024603570647
 30
0.0
 10
80.3594360150664
 20
-151.2172986818137
 30
0.0
 10
80.16065400556748
 20
-150.9613280872597
 30
0.0
 10
80.09278562450805
 20
-150.8958712730399
 30
0.0
 10
79.95532631464658
 20
-150.8958712730399
 30
0.0
 10
79.836815029954
 20
-150.8958712730399
 30
0.0
 10
79.7059014015145
 20
-150.9678737686816
 30
0.0
 10
79.7059014015145
 20
-151.1645887208894
 30
0.0
 10
79.7059014015145
 20
-151.4246934300258
 30
0.0
 10
79.93637828947772
 20
-151.4333061687389
 30
0.0
 10
80.05282251687916
 20
-151.4374402833212
 30
0.0
 10
80.05282251687916
 20
-151.4374402833212
 30
0.0
 10
80.05282251687916
 20
-151.661715999411
 30
0.0
 10
80.05282251687916
 20
-151.661715999411
 30
0.0
 10
79.92569849347343
 20
-151.6531032606978
 30
0.0
 10
79.81373289020281
 20
-151.6424234646936
 30
0.0
 10
79.69522160551023
 20
-151.5621527398872
 30
0.0
 10
79.53433564634906
 20
-151.4522541939078
 30
0.0
 10
79.50057371059361
 20
-151.2658745281558
 30
0.0
 10
79.50057371059361
 20
-151.1497748103028
 30
0.0
 10
79.50057371059361
 20
-150.8724446237402
 30
0.0
 10
79.68454180950596
 20
-150.6650498755282
 30
0.0
 10
79.95739337193774
 20
-150.6650498755282
 30
0.0
 10
80.18614771215833
 20
-150.6650498755282
 30
0.0
 10
80.28536646213352
 20
-150.7814941029296
 30
0.0
 10
80.51170923551443
 20
-151.0905191679566
 30
0.0
  0
HATCH
  5
113
330
10E
100
AcDbEntity
  8
_U+30EC_U+30A4_U+30E4_U+30FC 1
 62
   179
420
  2234388
100
AcDbHatch
 10
0.0
 20
0.0
 30
0.0
210
0.0
220
0.0
230
1.0
  2
SOLID
 70
     1
 71
     0
 91
        1
 92
        1
 93
        1
 72
     4
 94
        3
 73
     0
 74
     1
 95
       44
 96
       40
 40
0.0
 40
0.0
 40
0.0
 40
0.0
 40
1.0
 40
1.0
 40
1.0
 40
2.0
 40
2.0
 40
2.0
 40
3.0
 40
3.0
 40
3.0
 40
4.0
 40
4.0
 40
4.0
 40
5.0
 40
5.0
 40
5.0
 40
6.0
 40
6.0
 40
6.0
 40
7.0
 40
7.0
 40
7.0
 40
8.0
 40
8.0
 40
8.0
 40
9.0
 40
9.0
 40
9.0
 40
10.0
 40
10.0
 40
10.0
 40
11.0
 40
11.0
 40
11.0
 40
12.0
 40
12.0
 40
12.0
 40
13.0
 40
13.0
 40
13.0
 40
13.0
 10
80.51170923551443
 20
-151.0905191679566
 10
80.67052813738445
 20
-151.3082492026243
 10
80.74459769031732
 20
-151.4012667807261
 10
80.88825817205225
 20
-151.4501871366166
 10
80.88825817205225
 20
-151.4501871366166
 10
80.88825817205225
 20
-150.6715955569502
 10
80.88825817205225
 20
-150.6715955569502
 10
80.88825817205225
 20
-150.6715955569502
 10
81.09358586297313
 20
-150.6715955569502
 10
81.09358586297313
 20
-150.6715955569502
 10
81.09358586297313
 20
-150.6715955569502
 10
81.09358586297313
 20
-151.6996120497487
 10
81.09358586297313
 20
-151.6996120497487
 10
80.73598495160421
 20
-151.6679171712844
 10
80.65778128408903
 20
-151.6024603570647
 10
80.3594360150664
 20
-151.2172986818137
 10
80.16065400556748
 20
-150.9613280872597
 10
80.09278562450805
 20
-150.8958712730399
 10
79.95532631464658
 20
-150.8958712730399
 10
79.836815029954
 20
-150.8958712730399
 10
79.7059014015145
 20
-150.9678737686816
 10
79.7059014015145
 20
-151.1645887208894
 10
79.7059014015145
 20
-151.4246934300258
 10
79.93637828947772
 20
-151.4333061687389
 10
80.05282251687916
 20
-151.4374402833212
 10
80.05282251687916
 20
-151.4374402833212
 10
80.05282251687916
 20
-151.661715999411
 10
80.05282251687916
 20
-151.661715999411
 10
79.92569849347343
 20
-151.6531032606978
 10
79.81373289020281
 20
-151.6424234646936
 10
79.69522160551023
 20
-151.5621527398872
 10
79.53433564634906
 20
-151.4522541939078
 10
79.50057371059361
 20
-151.2658745281558
 10
79.50057371059361
 20
-151.1497748103028
 10
79.50057371059361
 20
-150.8724446237402
 10
79.68454180950596
 20
-150.6650498755282
 10
79.95739337193774
 20
-150.6650498755282
 10
80.18614771215833
 20
-150.6650498755282
 10
80.28536646213352
 20
-150.7814941029296
 10
80.51170923551443
 20
-151.0905191679566
 97
        0
 97
        0
 75
     2
 76
     1
 98
        0
  0
SPLINE
  5
114
330
10E
100
AcDbEntity
  8
_U+30EC_U+30A4_U+30E4_U+30FC 1
370
     0
100
AcDbSpline
210
0.0
220
0.0
230
1.0
 70
    11
 71
     3
 72
    32
 73
    28
 74
     0
 42
0.0000000001
 43
0.0000000001
 12
1.0
 22
0.0
 32
0.0
 13
1.0
 23
0.0
 33
0.0
 40
0.0
 40
0.0
 40
0.0
 40
0.0
 40
1.0
 40
1.0
 40
1.0
 40
2.0
 40
2.0
 40
2.0
 40
3.0
 40
3.0
 40
3.0
 40
4.0
 40
4.0
 40
4.0
 40
5.0
 40
5.0
 40
5.0
 40
6.0
 40
6.0
 40
6.0
 40
7.0
 40
7.0
 40
7.0
 40
8.0
 40
8.0
 40
8.0
 40
9.0
 40
9.0
 40
9.0
 40
9.0
 10
81.1442287666063
 20
-150.0025580137146
 30
0.0
 10
81.1442287666063
 20
-150.5186333174051
 30
0.0
 10
80.59025741257814
 20
-150.5272460561182
 30
0.0
 10
80.37631698294412
 20
-150.5272460561182
 30
0.0
 10
80.14584009498091
 20
-150.5272460561182
 30
0.0
 10
79.49850665330246
 20
-150.5079535214008
 30
0.0
 10
79.49850665330246
 20
-149.9643174538284
 30
0.0
 10
79.49850665330246
 20
-149.7910291509203
 30
0.0
 10
79.56844209165303
 20
-149.545393842822
 30
0.0
 10
79.90054929643112
 20
-149.5074977924842
 30
0.0
 10
79.90054929643112
 20
-149.5074977924842
 30
0.0
 10
79.90054929643112
 20
-149.7210937125697
 30
0.0
 10
79.90054929643112
 20
-149.7210937125697
 30
0.0
 10
79.84336071137596
 20
-149.731773508574
 30
0.0
 10
79.69522160551023
 20
-149.7634683870383
 30
0.0
 10
79.69522160551023
 20
-149.9663845111195
 30
0.0
 10
79.69522160551023
 20
-150.2585286082687
 30
0.0
 10
80.02319469570601
 20
-150.2984917158976
 30
0.0
 10
80.22817787707838
 20
-150.311238569193
 30
0.0
 10
80.14997420956321
 20
-150.2182209910913
 30
0.0
 10
80.09071856721691
 20
-150.1503526100319
 30
0.0
 10
80.09071856721691
 20
-149.9684515684107
 30
0.0
 10
80.09071856721691
 20
-149.7886175840806
 30
0.0
 10
80.19889456545376
 20
-149.4861382004757
 30
0.0
 10
80.60507132316471
 20
-149.4861382004757
 30
0.0
 10
80.92443167464737
 20
-149.4861382004757
 30
0.0
 10
81.1442287666063
 20
-149.6852647195231
 30
0.0
 10
81.1442287666063
 20
-150.0025580137146
 30
0.0
  0
SPLINE
  5
115
330
10E
100
AcDbEntity
  8
_U+30EC_U+30A4_U+30E4_U+30FC 1
370
     0
100
AcDbSpline
210
0.0
220
0.0
230
1.0
 70
    11
 71
     3
 72
    17
 73
    13
 74
     0
 42
0.0000000001
 43
0.0000000001
 12
1.0
 22
0.0
 32
0.0
 13
1.0
 23
0.0
 33
0.0
 40
0.0
 40
0.0
 40
0.0
 40
0.0
 40
1.0
 40
1.0
 40
1.0
 40
2.0
 40
2.0
 40
2.0
 40
3.0
 40
3.0
 40
3.0
 40
4.0
 40
4.0
 40
4.0
 40
4.0
 10
80.28536646213352
 20
-149.9856770458369
 30
0.0
 10
80.28536646213352
 20
-150.2478488122644
 30
0.0
 10
80.49689532492786
 20
-150.2857448626022
 30
0.0
 10
80.61333955232931
 20
-150.2857448626022
 30
0.0
 10
80.78903942207705
 20
-150.2857448626022
 30
0.0
 10
80.95199243852937
 20
-150.1906602272093
 30
0.0
 10
80.95199243852937
 20
-150.0066921282969
 30
0.0
 10
80.95199243852937
 20
-149.8861137863132
 30
0.0
 10
80.89273679618307
 20
-149.7104139165655
 30
0.0
 10
80.60713838045586
 20
-149.7104139165655
 30
0.0
 10
80.38286266436609
 20
-149.7104139165655
 30
0.0
 10
80.28536646213352
 20
-149.8499402837181
 30
0.0
 10
80.28536646213352
 20
-149.9856770458369
 30
0.0
  0
HATCH
  5
116
330
10E
100
AcDbEntity
  8
_U+30EC_U+30A4_U+30E4_U+30FC 1
 62
   179
420
  2234388
100
AcDbHatch
 10
0.0
 20
0.0
 30
0.0
210
0.0
220
0.0
230
1.0
  2
SOLID
 70
     1
 71
     0
 91
        2
 92
        1
 93
        1
 72
     4
 94
        3
 73
     0
 74
     1
 95
       32
 96
       28
 40
0.0
 40
0.0
 40
0.0
 40
0.0
 40
1.0
 40
1.0
 40
1.0
 40
2.0
 40
2.0
 40
2.0
 40
3.0
 40
3.0
 40
3.0
 40
4.0
 40
4.0
 40
4.0
 40
5.0
 40
5.0
 40
5.0
 40
6.0
 40
6.0
 40
6.0
 40
7.0
 40
7.0
 40
7.0
 40
8.0
 40
8.0
 40
8.0
 40
9.0
 40
9.0
 40
9.0
 40
9.0
 10
81.1442287666063
 20
-150.0025580137146
 10
81.1442287666063
 20
-150.5186333174051
 10
80.59025741257814
 20
-150.5272460561182
 10
80.37631698294412
 20
-150.5272460561182
 10
80.14584009498091
 20
-150.5272460561182
 10
79.49850665330246
 20
-150.5079535214008
 10
79.49850665330246
 20
-149.9643174538284
 10
79.49850665330246
 20
-149.7910291509203
 10
79.56844209165303
 20
-149.545393842822
 10
79.90054929643112
 20
-149.5074977924842
 10
79.90054929643112
 20
-149.5074977924842
 10
79.90054929643112
 20
-149.7210937125697
 10
79.90054929643112
 20
-149.7210937125697
 10
79.84336071137596
 20
-149.731773508574
 10
79.69522160551023
 20
-149.7634683870383
 10
79.69522160551023
 20
-149.9663845111195
 10
79.69522160551023
 20
-150.2585286082687
 10
80.02319469570601
 20
-150.2984917158976
 10
80.22817787707838
 20
-150.311238569193
 10
80.14997420956321
 20
-150.2182209910913
 10
80.09071856721691
 20
-150.1503526100319
 10
80.09071856721691
 20
-149.9684515684107
 10
80.09071856721691
 20
-149.7886175840806
 10
80.19889456545376
 20
-149.4861382004757
 10
80.60507132316471
 20
-149.4861382004757
 10
80.92443167464737
 20
-149.4861382004757
 10
81.1442287666063
 20
-149.6852647195231
 10
81.1442287666063
 20
-150.0025580137146
 97
        0
 97
        0
 92
        1
 93
        1
 72
     4
 94
        3
 73
     0
 74
     1
 95
       17
 96
       13
 40
0.0
 40
0.0
 40
0.0
 40
0.0
 40
1.0
 40
1.0
 40
1.0
 40
2.0
 40
2.0
 40
2.0
 40
3.0
 40
3.0
 40
3.0
 40
4.0
 40
4.0
 40
4.0
 40
4.0
 10
80.28536646213352
 20
-149.9856770458369
 10
80.28536646213352
 20
-150.2478488122644
 10
80.49689532492786
 20
-150.2857448626022
 10
80.61333955232931
 20
-150.2857448626022
 10
80.78903942207705
 20
-150.2857448626022
 10
80.95199243852937
 20
-150.1906602272093
 10
80.95199243852937
 20
-150.0066921282969
 10
80.95199243852937
 20
-149.8861137863132
 10
80.89273679618307
 20
-149.7104139165655
 10
80.60713838045586
 20
-149.7104139165655
 10
80.38286266436609
 20
-149.7104139165655
 10
80.28536646213352
 20
-149.8499402837181
 10
80.28536646213352
 20
-149.9856770458369
 97
        0
 97
        0
 75
     2
 76
     1
 98
        0
  0
ENDBLK
  5
111
330
10E
100
AcDbEntity
  8
0
100
AcDbBlockEnd
  0
BLOCK
  5
135
330
133
100
AcDbEntity
  8
0
100
AcDbBlockBegin
  2
block 6
 70
     0
 10
0.0
 20
0.0
 30
0.0
  3
block 6
  1

  0
POLYLINE
  5
137
330
133
100
AcDbEntity
  8
_U+30EC_U+30A4_U+30E4_U+30FC 1
370
     0
100
AcDb2dPolyline
 66
     1
 10
0.0
 20
0.0
 30
0.0
  0
VERTEX
  5
138
330
137
100
AcDbEntity
  8
_U+30EC_U+30A4_U+30E4_U+30FC 1
370
     0
100
AcDbVertex
100
AcDb2dVertex
 10
85.1066053389664
 20
-132.7727742181089
 30
0.0
  0
VERTEX
  5
139
330
137
100
AcDbEntity
  8
_U+30EC_U+30A4_U+30E4_U+30FC 1
370
     0
100
AcDbVertex
100
AcDb2dVertex
 10
85.1066053389664
 20
-132.6118882589477
 30
0.0
  0
VERTEX
  5
13A
330
137
100
AcDbEntity
  8
_U+30EC_U+30A4_U+30E4_U+30FC 1
370
     0
100
AcDbVertex
100
AcDb2dVertex
 10
85.26129012625412
 20
-132.6118882589477
 30
0.0
  0
VERTEX
  5
13B
330
137
100
AcDbEntity
  8
_U+30EC_U+30A4_U+30E4_U+30FC 1
370
     0
100
AcDbVertex
100
AcDb2dVertex
 10
85.26129012625412
 20
-132.7727742181089
 30
0.0
  0
VERTEX
  5
13C
330
137
100
AcDbEntity
  8
_U+30EC_U+30A4_U+30E4_U+30FC 1
370
     0
100
AcDbVertex
100
AcDb2dVertex
 10
85.65472003066965
 20
-132.7727742181089
 30
0.0
  0
VERTEX
  5
13D
330
137
100
AcDbEntity
  8
_U+30EC_U+30A4_U+30E4_U+30FC 1
370
     0
100
AcDbVertex
100
AcDb2dVertex
 10
85.65472003066965
 20
-132.9271144958481
 30
0.0
  0
VERTEX
  5
13E
330
137
100
AcDbEntity
  8
_U+30EC_U+30A4_U+30E4_U+30FC 1
370
     0
100
AcDbVertex
100
AcDb2dVertex
 10
85.26129012625412
 20
-132.9271144958481
 30
0.0
  0
VERTEX
  5
13F
330
137
100
AcDbEntity
  8
_U+30EC_U+30A4_U+30E4_U+30FC 1
370
     0
100
AcDbVertex
100
AcDb2dVertex
 10
85.26129012625412
 20
-133.0817992831358
 30
0.0
  0
VERTEX
  5
140
330
137
100
AcDbEntity
  8
_U+30EC_U+30A4_U+30E4_U+30FC 1
370
     0
100
AcDbVertex
100
AcDb2dVertex
 10
85.61647947078339
 20
-133.0817992831358
 30
0.0
  0
VERTEX
  5
141
330
137
100
AcDbEntity
  8
_U+30EC_U+30A4_U+30E4_U+30FC 1
370
     0
100
AcDbVertex
100
AcDb2dVertex
 10
85.61647947078339
 20
-133.8941527985577
 30
0.0
  0
VERTEX
  5
142
330
137
100
AcDbEntity
  8
_U+30EC_U+30A4_U+30E4_U+30FC 1
370
     0
100
AcDbVertex
100
AcDb2dVertex
 10
85.26129012625412
 20
-133.8941527985577
 30
0.0
  0
VERTEX
  5
143
330
137
100
AcDbEntity
  8
_U+30EC_U+30A4_U+30E4_U+30FC 1
370
     0
100
AcDbVertex
100
AcDb2dVertex
 10
85.26129012625412
 20
-134.0633069868835
 30
0.0
  0
VERTEX
  5
144
330
137
100
AcDbEntity
  8
_U+30EC_U+30A4_U+30E4_U+30FC 1
370
     0
100
AcDbVertex
100
AcDb2dVertex
 10
85.66953394125623
 20
-134.0633069868835
 30
0.0
  0
VERTEX
  5
145
330
137
100
AcDbEntity
  8
_U+30EC_U+30A4_U+30E4_U+30FC 1
370
     0
100
AcDbVertex
100
AcDb2dVertex
 10
85.66953394125623
 20
-134.2176472646227
 30
0.0
  0
VERTEX
  5
146
330
137
100
AcDbEntity
  8
_U+30EC_U+30A4_U+30E4_U+30FC 1
370
     0
100
AcDbVertex
100
AcDb2dVertex
 10
85.26129012625412
 20
-134.2176472646227
 30
0.0
  0
VERTEX
  5
147
330
137
100
AcDbEntity
  8
_U+30EC_U+30A4_U+30E4_U+30FC 1
370
     0
100
AcDbVertex
100
AcDb2dVertex
 10
85.26129012625412
 20
-134.5711140614093
 30
0.0
  0
VERTEX
  5
148
330
137
100
AcDbEntity
  8
_U+30EC_U+30A4_U+30E4_U+30FC 1
370
     0
100
AcDbVertex
100
AcDb2dVertex
 10
85.1066053389664
 20
-134.5711140614093
 30
0.0
  0
VERTEX
  5
149
330
137
100
AcDbEntity
  8
_U+30EC_U+30A4_U+30E4_U+30FC 1
370
     0
100
AcDbVertex
100
AcDb2dVertex
 10
85.1066053389664
 20
-134.2176472646227
 30
0.0
  0
VERTEX
  5
14A
330
137
100
AcDbEntity
  8
_U+30EC_U+30A4_U+30E4_U+30FC 1
370
     0
100
AcDbVertex
100
AcDb2dVertex
 10
84.69629446667315
 20
-134.2176472646227
 30
0.0
  0
VERTEX
  5
14B
330
137
100
AcDbEntity
  8
_U+30EC_U+30A4_U+30E4_U+30FC 1
370
     0
100
AcDbVertex
100
AcDb2dVertex
 10
84.69629446667315
 20
-134.0633069868835
 30
0.0
  0
VERTEX
  5
14C
330
137
100
AcDbEntity
  8
_U+30EC_U+30A4_U+30E4_U+30FC 1
370
     0
100
AcDbVertex
100
AcDb2dVertex
 10
85.1066053389664
 20
-134.0633069868835
 30
0.0
  0
VERTEX
  5
14D
330
137
100
AcDbEntity
  8
_U+30EC_U+30A4_U+30E4_U+30FC 1
370
     0
100
AcDbVertex
100
AcDb2dVertex
 10
85.1066053389664
 20
-133.8941527985577
 30
0.0
  0
VERTEX
  5
14E
330
137
100
AcDbEntity
  8
_U+30EC_U+30A4_U+30E4_U+30FC 1
370
     0
100
AcDbVertex
100
AcDb2dVertex
 10
84.7576171663106
 20
-133.8941527985577
 30
0.0
  0
VERTEX
  5
14F
330
137
100
AcDbEntity
  8
_U+30EC_U+30A4_U+30E4_U+30FC 1
370
     0
100
AcDbVertex
100
AcDb2dVertex
 10
84.7576171663106
 20
-133.0817992831358
 30
0.0
  0
VERTEX
  5
150
330
137
100
AcDbEntity
  8
_U+30EC_U+30A4_U+30E4_U+30FC 1
370
     0
100
AcDbVertex
100
AcDb2dVertex
 10
85.1066053389664
 20
-133.0817992831358
 30
0.0
  0
VERTEX
  5
151
330
137
100
AcDbEntity
  8
_U+30EC_U+30A4_U+30E4_U+30FC 1
370
     0
100
AcDbVertex
100
AcDb2dVertex
 10
85.1066053389664
 20
-132.9271144958481
 30
0.0
  0
VERTEX
  5
152
330
137
100
AcDbEntity
  8
_U+30EC_U+30A4_U+30E4_U+30FC 1
370
     0
100
AcDbVertex
100
AcDb2dVertex
 10
84.71730954913318
 20
-132.9271144958481
 30
0.0
  0
VERTEX
  5
153
330
137
100
AcDbEntity
  8
_U+30EC_U+30A4_U+30E4_U+30FC 1
370
     0
100
AcDbVertex
100
AcDb2dVertex
 10
84.71730954913318
 20
-132.7727742181089
 30
0.0
  0
VERTEX
  5
154
330
137
100
AcDbEntity
  8
_U+30EC_U+30A4_U+30E4_U+30FC 1
370
     0
100
AcDbVertex
100
AcDb2dVertex
 10
85.1066053389664
 20
-132.7727742181089
 30
0.0
  0
SEQEND
  5
155
330
137
100
AcDbEntity
  8
_U+30EC_U+30A4_U+30E4_U+30FC 1
370
     0
  0
POLYLINE
  5
156
330
133
100
AcDbEntity
  8
_U+30EC_U+30A4_U+30E4_U+30FC 1
370
     0
100
AcDb2dPolyline
 66
     1
 10
0.0
 20
0.0
 30
0.0
  0
VERTEX
  5
157
330
156
100
AcDbEntity
  8
_U+30EC_U+30A4_U+30E4_U+30FC 1
370
     0
100
AcDbVertex
100
AcDb2dVertex
 10
85.1066053389664
 20
-133.2213256502884
 30
0.0
  0
VERTEX
  5
158
330
156
100
AcDbEntity
  8
_U+30EC_U+30A4_U+30E4_U+30FC 1
370
     0
100
AcDbVertex
100
AcDb2dVertex
 10
84.89955510030289
 20
-133.2213256502884
 30
0.0
  0
VERTEX
  5
159
330
156
100
AcDbEntity
  8
_U+30EC_U+30A4_U+30E4_U+30FC 1
370
     0
100
AcDbVertex
100
AcDb2dVertex
 10
84.89955510030289
 20
-133.4242417743696
 30
0.0
  0
VERTEX
  5
15A
330
156
100
AcDbEntity
  8
_U+30EC_U+30A4_U+30E4_U+30FC 1
370
     0
100
AcDbVertex
100
AcDb2dVertex
 10
85.1066053389664
 20
-133.4242417743696
 30
0.0
  0
VERTEX
  5
15B
330
156
100
AcDbEntity
  8
_U+30EC_U+30A4_U+30E4_U+30FC 1
370
     0
100
AcDbVertex
100
AcDb2dVertex
 10
85.1066053389664
 20
-133.2213256502884
 30
0.0
  0
SEQEND
  5
15C
330
156
100
AcDbEntity
  8
_U+30EC_U+30A4_U+30E4_U+30FC 1
370
     0
  0
POLYLINE
  5
15D
330
133
100
AcDbEntity
  8
_U+30EC_U+30A4_U+30E4_U+30FC 1
370
     0
100
AcDb2dPolyline
 66
     1
 10
0.0
 20
0.0
 30
0.0
  0
VERTEX
  5
15E
330
15D
100
AcDbEntity
  8
_U+30EC_U+30A4_U+30E4_U+30FC 1
370
     0
100
AcDbVertex
100
AcDb2dVertex
 10
85.1066053389664
 20
-133.547231683193
 30
0.0
  0
VERTEX
  5
15F
330
15D
100
AcDbEntity
  8
_U+30EC_U+30A4_U+30E4_U+30FC 1
370
     0
100
AcDbVertex
100
AcDb2dVertex
 10
84.89955510030289
 20
-133.547231683193
 30
0.0
  0
VERTEX
  5
160
330
15D
100
AcDbEntity
  8
_U+30EC_U+30A4_U+30E4_U+30FC 1
370
     0
100
AcDbVertex
100
AcDb2dVertex
 10
84.89955510030289
 20
-133.7542819218566
 30
0.0
  0
VERTEX
  5
161
330
15D
100
AcDbEntity
  8
_U+30EC_U+30A4_U+30E4_U+30FC 1
370
     0
100
AcDbVertex
100
AcDb2dVertex
 10
85.1066053389664
 20
-133.7542819218566
 30
0.0
  0
VERTEX
  5
162
330
15D
100
AcDbEntity
  8
_U+30EC_U+30A4_U+30E4_U+30FC 1
370
     0
100
AcDbVertex
100
AcDb2dVertex
 10
85.1066053389664
 20
-133.547231683193
 30
0.0
  0
SEQEND
  5
163
330
15D
100
AcDbEntity
  8
_U+30EC_U+30A4_U+30E4_U+30FC 1
370
     0
  0
POLYLINE
  5
164
330
133
100
AcDbEntity
  8
_U+30EC_U+30A4_U+30E4_U+30FC 1
370
     0
100
AcDb2dPolyline
 66
     1
 10
0.0
 20
0.0
 30
0.0
  0
VERTEX
  5
165
330
164
100
AcDbEntity
  8
_U+30EC_U+30A4_U+30E4_U+30FC 1
370
     0
100
AcDbVertex
100
AcDb2dVertex
 10
85.47281898904846
 20
-133.2213256502884
 30
0.0
  0
VERTEX
  5
166
330
164
100
AcDbEntity
  8
_U+30EC_U+30A4_U+30E4_U+30FC 1
370
     0
100
AcDbVertex
100
AcDb2dVertex
 10
85.26129012625412
 20
-133.2213256502884
 30
0.0
  0
VERTEX
  5
167
330
164
100
AcDbEntity
  8
_U+30EC_U+30A4_U+30E4_U+30FC 1
370
     0
100
AcDbVertex
100
AcDb2dVertex
 10
85.26129012625412
 20
-133.4242417743696
 30
0.0
  0
VERTEX
  5
168
330
164
100
AcDbEntity
  8
_U+30EC_U+30A4_U+30E4_U+30FC 1
370
     0
100
AcDbVertex
100
AcDb2dVertex
 10
85.47281898904846
 20
-133.4242417743696
 30
0.0
  0
VERTEX
  5
169
330
164
100
AcDbEntity
  8
_U+30EC_U+30A4_U+30E4_U+30FC 1
370
     0
100
AcDbVertex
100
AcDb2dVertex
 10
85.47281898904846
 20
-133.2213256502884
 30
0.0
  0
SEQEND
  5
16A
330
164
100
AcDbEntity
  8
_U+30EC_U+30A4_U+30E4_U+30FC 1
370
     0
  0
POLYLINE
  5
16B
330
133
100
AcDbEntity
  8
_U+30EC_U+30A4_U+30E4_U+30FC 1
370
     0
100
AcDb2dPolyline
 66
     1
 10
0.0
 20
0.0
 30
0.0
  0
VERTEX
  5
16C
330
16B
100
AcDbEntity
  8
_U+30EC_U+30A4_U+30E4_U+30FC 1
370
     0
100
AcDbVertex
100
AcDb2dVertex
 10
85.47281898904846
 20
-133.547231683193
 30
0.0
  0
VERTEX
  5
16D
330
16B
100
AcDbEntity
  8
_U+30EC_U+30A4_U+30E4_U+30FC 1
370
     0
100
AcDbVertex
100
AcDb2dVertex
 10
85.26129012625412
 20
-133.547231683193
 30
0.0
  0
VERTEX
  5
16E
330
16B
100
AcDbEntity
  8
_U+30EC_U+30A4_U+30E4_U+30FC 1
370
     0
100
AcDbVertex
100
AcDb2dVertex
 10
85.26129012625412
 20
-133.7542819218566
 30
0.0
  0
VERTEX
  5
16F
330
16B
100
AcDbEntity
  8
_U+30EC_U+30A4_U+30E4_U+30FC 1
370
     0
100
AcDbVertex
100
AcDb2dVertex
 10
85.47281898904846
 20
-133.7542819218566
 30
0.0
  0
VERTEX
  5
170
330
16B
100
AcDbEntity
  8
_U+30EC_U+30A4_U+30E4_U+30FC 1
370
     0
100
AcDbVertex
100
AcDb2dVertex
 10
85.47281898904846
 20
-133.547231683193
 30
0.0
  0
SEQEND
  5
171
330
16B
100
AcDbEntity
  8
_U+30EC_U+30A4_U+30E4_U+30FC 1
370
     0
  0
SPLINE
  5
172
330
133
100
AcDbEntity
  8
_U+30EC_U+30A4_U+30E4_U+30FC 1
370
     0
100
AcDbSpline
210
0.0
220
0.0
230
1.0
 70
    11
 71
     3
 72
    38
 73
    34
 74
     0
 42
0.0000000001
 43
0.0000000001
 12
1.0
 22
0.0
 32
0.0
 13
1.0
 23
0.0
 33
0.0
 40
0.0
 40
0.0
 40
0.0
 40
0.0
 40
1.0
 40
1.0
 40
1.0
 40
2.0
 40
2.0
 40
2.0
 40
3.0
 40
3.0
 40
3.0
 40
4.0
 40
4.0
 40
4.0
 40
5.0
 40
5.0
 40
5.0
 40
6.0
 40
6.0
 40
6.0
 40
7.0
 40
7.0
 40
7.0
 40
8.0
 40
8.0
 40
8.0
 40
9.0
 40
9.0
 40
9.0
 40
10.0
 40
10.0
 40
10.0
 40
11.0
 40
11.0
 40
11.0
 40
11.0
 10
85.51484915396851
 20
-134.435721808839
 30
0.0
 10
85.59753144561451
 20
-134.3826673383661
 30
0.0
 10
85.76255151935797
 20
-134.2748358496778
 30
0.0
 10
85.86831595075515
 20
-134.0674411014658
 30
0.0
 10
86.01645505662088
 20
-133.7756415138651
 30
0.0
 10
86.01645505662088
 20
-133.5492987404842
 30
0.0
 10
86.01645505662088
 20
-133.4645493915471
 30
0.0
 10
86.01645505662088
 20
-133.4645493915471
 30
0.0
 10
86.01645505662088
 20
-133.2299383890015
 30
0.0
 10
86.01645505662088
 20
-133.2299383890015
 30
0.0
 10
86.01645505662088
 20
-133.2299383890015
 30
0.0
 10
86.18147513036436
 20
-133.2299383890015
 30
0.0
 10
86.18147513036436
 20
-133.2299383890015
 30
0.0
 10
86.18147513036436
 20
-133.2299383890015
 30
0.0
 10
86.18147513036436
 20
-133.4562811623825
 30
0.0
 10
86.18147513036436
 20
-133.4562811623825
 30
0.0
 10
86.18147513036436
 20
-133.6550631718814
 30
0.0
 10
86.2469319445841
 20
-133.8920857412666
 30
0.0
 10
86.34856226139897
 20
-134.0653740441746
 30
0.0
 10
86.46500648880041
 20
-134.2641560536736
 30
0.0
 10
86.59385305994876
 20
-134.3637193131973
 30
0.0
 10
86.67860240888591
 20
-134.4250420128347
 30
0.0
 10
86.67860240888591
 20
-134.4250420128347
 30
0.0
 10
86.57077092019759
 20
-134.5752481759916
 30
0.0
 10
86.57077092019759
 20
-134.5752481759916
 30
0.0
 10
86.3930039931587
 20
-134.4460570952947
 30
0.0
 10
86.19422198365979
 20
-134.2069674686184
 30
0.0
 10
86.11567380659609
 20
-133.8538451813803
 30
0.0
 10
86.05021699237633
 20
-134.0929348080566
 30
0.0
 10
85.94858667556147
 20
-134.3616522559061
 30
0.0
 10
85.63990612008308
 20
-134.5711140614093
 30
0.0
 10
85.63990612008308
 20
-134.5711140614093
 30
0.0
 10
85.51484915396851
 20
-134.435721808839
 30
0.0
 10
85.51484915396851
 20
-134.435721808839
 30
0.0
  0
SPLINE
  5
173
330
133
100
AcDbEntity
  8
_U+30EC_U+30A4_U+30E4_U+30FC 1
370
     0
100
AcDbSpline
210
0.0
220
0.0
230
1.0
 70
    11
 71
     3
 72
    38
 73
    34
 74
     0
 42
0.0000000001
 43
0.0000000001
 12
1.0
 22
0.0
 32
0.0
 13
1.0
 23
0.0
 33
0.0
 40
0.0
 40
0.0
 40
0.0
 40
0.0
 40
1.0
 40
1.0
 40
1.0
 40
2.0
 40
2.0
 40
2.0
 40
3.0
 40
3.0
 40
3.0
 40
4.0
 40
4.0
 40
4.0
 40
5.0
 40
5.0
 40
5.0
 40
6.0
 40
6.0
 40
6.0
 40
7.0
 40
7.0
 40
7.0
 40
8.0
 40
8.0
 40
8.0
 40
9.0
 40
9.0
 40
9.0
 40
10.0
 40
10.0
 40
10.0
 40
11.0
 40
11.0
 40
11.0
 40
11.0
 10
85.62922632407881
 20
-133.3629190747322
 30
0.0
 10
85.72224390218055
 20
-133.2402736754573
 30
0.0
 10
85.84730086829512
 20
-133.0604396911272
 30
0.0
 10
85.94238550368802
 20
-132.6118882589477
 30
0.0
 10
85.94238550368802
 20
-132.6118882589477
 30
0.0
 10
86.10947263472264
 20
-132.6311807936651
 30
0.0
 10
86.10947263472264
 20
-132.6311807936651
 30
0.0
 10
86.08397892813178
 20
-132.7517591356489
 30
0.0
 10
86.06089678838062
 20
-132.8427096564595
 30
0.0
 10
86.02265622849434
 20
-132.9505411451478
 30
0.0
 10
86.02265622849434
 20
-132.9505411451478
 30
0.0
 10
86.65104164500391
 20
-132.9505411451478
 30
0.0
 10
86.65104164500391
 20
-132.9505411451478
 30
0.0
 10
86.65104164500391
 20
-132.9505411451478
 30
0.0
 10
86.65104164500391
 20
-133.1028143655958
 30
0.0
 10
86.65104164500391
 20
-133.1028143655958
 30
0.0
 10
86.61727970924846
 20
-133.2447522995881
 30
0.0
 10
86.52185056430704
 20
-133.5027899514333
 30
0.0
 10
86.44778101137418
 20
-133.6213012361259
 30
0.0
 10
86.44778101137418
 20
-133.6213012361259
 30
0.0
 10
86.29550779092612
 20
-133.5427530590622
 30
0.0
 10
86.29550779092612
 20
-133.5427530590622
 30
0.0
 10
86.39093693586754
 20
-133.4073608064919
 30
0.0
 10
86.4563937500873
 20
-133.2192585929973
 30
0.0
 10
86.4839545139693
 20
-133.1090155374693
 30
0.0
 10
86.4839545139693
 20
-133.1090155374693
 30
0.0
 10
85.9654676434392
 20
-133.1090155374693
 30
0.0
 10
85.9654676434392
 20
-133.1090155374693
 30
0.0
 10
85.866248893464
 20
-133.3505167309853
 30
0.0
 10
85.79217934053112
 20
-133.4390556849562
 30
0.0
 10
85.75393878064486
 20
-133.4834974167159
 30
0.0
 10
85.75393878064486
 20
-133.4834974167159
 30
0.0
 10
85.62922632407881
 20
-133.3629190747322
 30
0.0
 10
85.62922632407881
 20
-133.3629190747322
 30
0.0
  0
HATCH
  5
174
330
133
100
AcDbEntity
  8
_U+30EC_U+30A4_U+30E4_U+30FC 1
 62
    12
420
 15007761
100
AcDbHatch
 10
0.0
 20
0.0
 30
0.0
210
0.0
220
0.0
230
1.0
  2
SOLID
 70
     1
 71
     0
 91
        7
 92
        1
 93
       28
 72
     1
 10
85.1066053389664
 20
-132.7727742181089
 11
85.1066053389664
 21
-132.6118882589477
 72
     1
 10
85.1066053389664
 20
-132.6118882589477
 11
85.26129012625412
 21
-132.6118882589477
 72
     1
 10
85.26129012625412
 20
-132.6118882589477
 11
85.26129012625412
 21
-132.7727742181089
 72
     1
 10
85.26129012625412
 20
-132.7727742181089
 11
85.65472003066965
 21
-132.7727742181089
 72
     1
 10
85.65472003066965
 20
-132.7727742181089
 11
85.65472003066965
 21
-132.9271144958481
 72
     1
 10
85.65472003066965
 20
-132.9271144958481
 11
85.26129012625412
 21
-132.9271144958481
 72
     1
 10
85.26129012625412
 20
-132.9271144958481
 11
85.26129012625412
 21
-133.0817992831358
 72
     1
 10
85.26129012625412
 20
-133.0817992831358
 11
85.61647947078339
 21
-133.0817992831358
 72
     1
 10
85.61647947078339
 20
-133.0817992831358
 11
85.61647947078339
 21
-133.8941527985577
 72
     1
 10
85.61647947078339
 20
-133.8941527985577
 11
85.26129012625412
 21
-133.8941527985577
 72
     1
 10
85.26129012625412
 20
-133.8941527985577
 11
85.26129012625412
 21
-134.0633069868835
 72
     1
 10
85.26129012625412
 20
-134.0633069868835
 11
85.66953394125623
 21
-134.0633069868835
 72
     1
 10
85.66953394125623
 20
-134.0633069868835
 11
85.66953394125623
 21
-134.2176472646227
 72
     1
 10
85.66953394125623
 20
-134.2176472646227
 11
85.26129012625412
 21
-134.2176472646227
 72
     1
 10
85.26129012625412
 20
-134.2176472646227
 11
85.26129012625412
 21
-134.5711140614093
 72
     1
 10
85.26129012625412
 20
-134.5711140614093
 11
85.1066053389664
 21
-134.5711140614093
 72
     1
 10
85.1066053389664
 20
-134.5711140614093
 11
85.1066053389664
 21
-134.2176472646227
 72
     1
 10
85.1066053389664
 20
-134.2176472646227
 11
84.69629446667315
 21
-134.2176472646227
 72
     1
 10
84.69629446667315
 20
-134.2176472646227
 11
84.69629446667315
 21
-134.0633069868835
 72
     1
 10
84.69629446667315
 20
-134.0633069868835
 11
85.1066053389664
 21
-134.0633069868835
 72
     1
 10
85.1066053389664
 20
-134.0633069868835
 11
85.1066053389664
 21
-133.8941527985577
 72
     1
 10
85.1066053389664
 20
-133.8941527985577
 11
84.7576171663106
 21
-133.8941527985577
 72
     1
 10
84.7576171663106
 20
-133.8941527985577
 11
84.7576171663106
 21
-133.0817992831358
 72
     1
 10
84.7576171663106
 20
-133.0817992831358
 11
85.1066053389664
 21
-133.0817992831358
 72
     1
 10
85.1066053389664
 20
-133.0817992831358
 11
85.1066053389664
 21
-132.9271144958481
 72
     1
 10
85.1066053389664
 20
-132.9271144958481
 11
84.71730954913318
 21
-132.9271144958481
 72
     1
 10
84.71730954913318
 20
-132.9271144958481
 11
84.71730954913318
 21
-132.7727742181089
 72
     1
 10
84.71730954913318
 20
-132.7727742181089
 11
85.1066053389664
 21
-132.7727742181089
 97
        0
 92
        1
 93
        4
 72
     1
 10
85.1066053389664
 20
-133.2213256502884
 11
84.89955510030289
 21
-133.2213256502884
 72
     1
 10
84.89955510030289
 20
-133.2213256502884
 11
84.89955510030289
 21
-133.4242417743696
 72
     1
 10
84.89955510030289
 20
-133.4242417743696
 11
85.1066053389664
 21
-133.4242417743696
 72
     1
 10
85.1066053389664
 20
-133.4242417743696
 11
85.1066053389664
 21
-133.2213256502884
 97
        0
 92
        1
 93
        4
 72
     1
 10
85.1066053389664
 20
-133.547231683193
 11
84.89955510030289
 21
-133.547231683193
 72
     1
 10
84.89955510030289
 20
-133.547231683193
 11
84.89955510030289
 21
-133.7542819218566
 72
     1
 10
84.89955510030289
 20
-133.7542819218566
 11
85.1066053389664
 21
-133.7542819218566
 72
     1
 10
85.1066053389664
 20
-133.7542819218566
 11
85.1066053389664
 21
-133.547231683193
 97
        0
 92
        1
 93
        4
 72
     1
 10
85.47281898904846
 20
-133.2213256502884
 11
85.26129012625412
 21
-133.2213256502884
 72
     1
 10
85.26129012625412
 20
-133.2213256502884
 11
85.26129012625412
 21
-133.4242417743696
 72
     1
 10
85.26129012625412
 20
-133.4242417743696
 11
85.47281898904846
 21
-133.4242417743696
 72
     1
 10
85.47281898904846
 20
-133.4242417743696
 11
85.47281898904846
 21
-133.2213256502884
 97
        0
 92
        1
 93
        4
 72
     1
 10
85.47281898904846
 20
-133.547231683193
 11
85.26129012625412
 21
-133.547231683193
 72
     1
 10
85.26129012625412
 20
-133.547231683193
 11
85.26129012625412
 21
-133.7542819218566
 72
     1
 10
85.26129012625412
 20
-133.7542819218566
 11
85.47281898904846
 21
-133.7542819218566
 72
     1
 10
85.47281898904846
 20
-133.7542819218566
 11
85.47281898904846
 21
-133.547231683193
 97
        0
 92
        1
 93
        1
 72
     4
 94
        3
 73
     0
 74
     1
 95
       38
 96
       34
 40
0.0
 40
0.0
 40
0.0
 40
0.0
 40
1.0
 40
1.0
 40
1.0
 40
2.0
 40
2.0
 40
2.0
 40
3.0
 40
3.0
 40
3.0
 40
4.0
 40
4.0
 40
4.0
 40
5.0
 40
5.0
 40
5.0
 40
6.0
 40
6.0
 40
6.0
 40
7.0
 40
7.0
 40
7.0
 40
8.0
 40
8.0
 40
8.0
 40
9.0
 40
9.0
 40
9.0
 40
10.0
 40
10.0
 40
10.0
 40
11.0
 40
11.0
 40
11.0
 40
11.0
 10
85.51484915396851
 20
-134.435721808839
 10
85.59753144561451
 20
-134.3826673383661
 10
85.76255151935797
 20
-134.2748358496778
 10
85.86831595075515
 20
-134.0674411014658
 10
86.01645505662088
 20
-133.7756415138651
 10
86.01645505662088
 20
-133.5492987404842
 10
86.01645505662088
 20
-133.4645493915471
 10
86.01645505662088
 20
-133.4645493915471
 10
86.01645505662088
 20
-133.2299383890015
 10
86.01645505662088
 20
-133.2299383890015
 10
86.01645505662088
 20
-133.2299383890015
 10
86.18147513036436
 20
-133.2299383890015
 10
86.18147513036436
 20
-133.2299383890015
 10
86.18147513036436
 20
-133.2299383890015
 10
86.18147513036436
 20
-133.4562811623825
 10
86.18147513036436
 20
-133.4562811623825
 10
86.18147513036436
 20
-133.6550631718814
 10
86.2469319445841
 20
-133.8920857412666
 10
86.34856226139897
 20
-134.0653740441746
 10
86.46500648880041
 20
-134.2641560536736
 10
86.59385305994876
 20
-134.3637193131973
 10
86.67860240888591
 20
-134.4250420128347
 10
86.67860240888591
 20
-134.4250420128347
 10
86.57077092019759
 20
-134.5752481759916
 10
86.57077092019759
 20
-134.5752481759916
 10
86.3930039931587
 20
-134.4460570952947
 10
86.19422198365979
 20
-134.2069674686184
 10
86.11567380659609
 20
-133.8538451813803
 10
86.05021699237633
 20
-134.0929348080566
 10
85.94858667556147
 20
-134.3616522559061
 10
85.63990612008308
 20
-134.5711140614093
 10
85.63990612008308
 20
-134.5711140614093
 10
85.51484915396851
 20
-134.435721808839
 10
85.51484915396851
 20
-134.435721808839
 97
        0
 97
        0
 92
        1
 93
        1
 72
     4
 94
        3
 73
     0
 74
     1
 95
       38
 96
       34
 40
0.0
 40
0.0
 40
0.0
 40
0.0
 40
1.0
 40
1.0
 40
1.0
 40
2.0
 40
2.0
 40
2.0
 40
3.0
 40
3.0
 40
3.0
 40
4.0
 40
4.0
 40
4.0
 40
5.0
 40
5.0
 40
5.0
 40
6.0
 40
6.0
 40
6.0
 40
7.0
 40
7.0
 40
7.0
 40
8.0
 40
8.0
 40
8.0
 40
9.0
 40
9.0
 40
9.0
 40
10.0
 40
10.0
 40
10.0
 40
11.0
 40
11.0
 40
11.0
 40
11.0
 10
85.62922632407881
 20
-133.3629190747322
 10
85.72224390218055
 20
-133.2402736754573
 10
85.84730086829512
 20
-133.0604396911272
 10
85.94238550368802
 20
-132.6118882589477
 10
85.94238550368802
 20
-132.6118882589477
 10
86.10947263472264
 20
-132.6311807936651
 10
86.10947263472264
 20
-132.6311807936651
 10
86.08397892813178
 20
-132.7517591356489
 10
86.06089678838062
 20
-132.8427096564595
 10
86.02265622849434
 20
-132.9505411451478
 10
86.02265622849434
 20
-132.9505411451478
 10
86.65104164500391
 20
-132.9505411451478
 10
86.65104164500391
 20
-132.9505411451478
 10
86.65104164500391
 20
-132.9505411451478
 10
86.65104164500391
 20
-133.1028143655958
 10
86.65104164500391
 20
-133.1028143655958
 10
86.61727970924846
 20
-133.2447522995881
 10
86.52185056430704
 20
-133.5027899514333
 10
86.44778101137418
 20
-133.6213012361259
 10
86.44778101137418
 20
-133.6213012361259
 10
86.29550779092612
 20
-133.5427530590622
 10
86.29550779092612
 20
-133.5427530590622
 10
86.39093693586754
 20
-133.4073608064919
 10
86.4563937500873
 20
-133.2192585929973
 10
86.4839545139693
 20
-133.1090155374693
 10
86.4839545139693
 20
-133.1090155374693
 10
85.9654676434392
 20
-133.1090155374693
 10
85.9654676434392
 20
-133.1090155374693
 10
85.866248893464
 20
-133.3505167309853
 10
85.79217934053112
 20
-133.4390556849562
 10
85.75393878064486
 20
-133.4834974167159
 10
85.75393878064486
 20
-133.4834974167159
 10
85.62922632407881
 20
-133.3629190747322
 10
85.62922632407881
 20
-133.3629190747322
 97
        0
 97
        0
 75
     2
 76
     1
 98
        0
  0
SPLINE
  5
175
330
133
100
AcDbEntity
  8
_U+30EC_U+30A4_U+30E4_U+30FC 1
370
     0
100
AcDbSpline
210
0.0
220
0.0
230
1.0
 70
    11
 71
     3
 72
    50
 73
    46
 74
     0
 42
0.0000000001
 43
0.0000000001
 12
1.0
 22
0.0
 32
0.0
 13
1.0
 23
0.0
 33
0.0
 40
0.0
 40
0.0
 40
0.0
 40
0.0
 40
1.0
 40
1.0
 40
1.0
 40
2.0
 40
2.0
 40
2.0
 40
3.0
 40
3.0
 40
3.0
 40
4.0
 40
4.0
 40
4.0
 40
5.0
 40
5.0
 40
5.0
 40
6.0
 40
6.0
 40
6.0
 40
7.0
 40
7.0
 40
7.0
 40
8.0
 40
8.0
 40
8.0
 40
9.0
 40
9.0
 40
9.0
 40
10.0
 40
10.0
 40
10.0
 40
11.0
 40
11.0
 40
11.0
 40
12.0
 40
12.0
 40
12.0
 40
13.0
 40
13.0
 40
13.0
 40
14.0
 40
14.0
 40
14.0
 40
15.0
 40
15.0
 40
15.0
 40
15.0
 10
87.12405325512871
 20
-132.9102335279704
 30
0.0
 10
87.12405325512871
 20
-132.9102335279704
 30
0.0
 10
87.77552081138946
 20
-132.9102335279704
 30
0.0
 10
87.77552081138946
 20
-132.9102335279704
 30
0.0
 10
87.77552081138946
 20
-132.9102335279704
 30
0.0
 10
87.77552081138946
 20
-133.0352904940849
 30
0.0
 10
87.77552081138946
 20
-133.0352904940849
 30
0.0
 10
87.77552081138946
 20
-133.0352904940849
 30
0.0
 10
87.49853513437537
 20
-133.0352904940849
 30
0.0
 10
87.49853513437537
 20
-133.0352904940849
 30
0.0
 10
87.49853513437537
 20
-133.0352904940849
 30
0.0
 10
87.49853513437537
 20
-133.3102091138079
 30
0.0
 10
87.49853513437537
 20
-133.3102091138079
 30
0.0
 10
87.49853513437537
 20
-133.3102091138079
 30
0.0
 10
87.3376491752142
 20
-133.3102091138079
 30
0.0
 10
87.3376491752142
 20
-133.3102091138079
 30
0.0
 10
87.3376491752142
 20
-133.3102091138079
 30
0.0
 10
87.3376491752142
 20
-133.0352904940849
 30
0.0
 10
87.3376491752142
 20
-133.0352904940849
 30
0.0
 10
87.3376491752142
 20
-133.0352904940849
 30
0.0
 10
87.11750757370673
 20
-133.0352904940849
 30
0.0
 10
87.11750757370673
 20
-133.0352904940849
 30
0.0
 10
87.10717228725099
 20
-133.104881422887
 30
0.0
 10
87.08167858066014
 20
-133.2995293178036
 30
0.0
 10
86.92733830292094
 20
-133.4497354809605
 30
0.0
 10
86.92733830292094
 20
-133.4497354809605
 30
0.0
 10
86.80469290364606
 20
-133.339836934981
 30
0.0
 10
86.80469290364606
 20
-133.339836934981
 30
0.0
 10
86.9252712456298
 20
-133.2402736754573
 30
0.0
 10
86.96730141054985
 20
-133.0352904940849
 30
0.0
 10
86.96730141054985
 20
-132.9526082024389
 30
0.0
 10
86.96730141054985
 20
-132.9526082024389
 30
0.0
 10
86.96730141054985
 20
-132.6670097867117
 30
0.0
 10
86.96730141054985
 20
-132.6670097867117
 30
0.0
 10
87.4520263453245
 20
-132.6670097867117
 30
0.0
 10
87.60636662306369
 20
-132.6205009976609
 30
0.0
 10
87.70145125845659
 20
-132.5929402337788
 30
0.0
 10
87.70145125845659
 20
-132.5929402337788
 30
0.0
 10
87.75450572892943
 20
-132.7324666009315
 30
0.0
 10
87.75450572892943
 20
-132.7324666009315
 30
0.0
 10
87.54504392342625
 20
-132.781386956822
 30
0.0
 10
87.38209090697393
 20
-132.7917222432778
 30
0.0
 10
87.12405325512871
 20
-132.7962008674086
 30
0.0
 10
87.12405325512871
 20
-132.7962008674086
 30
0.0
 10
87.12405325512871
 20
-132.9102335279704
 30
0.0
 10
87.12405325512871
 20
-132.9102335279704
 30
0.0
  0
SPLINE
  5
176
330
133
100
AcDbEntity
  8
_U+30EC_U+30A4_U+30E4_U+30FC 1
370
     0
100
AcDbSpline
210
0.0
220
0.0
230
1.0
 70
    11
 71
     3
 72
    32
 73
    28
 74
     0
 42
0.0000000001
 43
0.0000000001
 12
1.0
 22
0.0
 32
0.0
 13
1.0
 23
0.0
 33
0.0
 40
0.0
 40
0.0
 40
0.0
 40
0.0
 40
1.0
 40
1.0
 40
1.0
 40
2.0
 40
2.0
 40
2.0
 40
3.0
 40
3.0
 40
3.0
 40
4.0
 40
4.0
 40
4.0
 40
5.0
 40
5.0
 40
5.0
 40
6.0
 40
6.0
 40
6.0
 40
7.0
 40
7.0
 40
7.0
 40
8.0
 40
8.0
 40
8.0
 40
9.0
 40
9.0
 40
9.0
 40
9.0
 10
87.03930390619156
 20
-134.255887824509
 30
0.0
 10
87.03930390619156
 20
-134.255887824509
 30
0.0
 10
87.03930390619156
 20
-133.3567179028587
 30
0.0
 10
87.03930390619156
 20
-133.3567179028587
 30
0.0
 10
87.03930390619156
 20
-133.3567179028587
 30
0.0
 10
88.5372314231782
 20
-133.3567179028587
 30
0.0
 10
88.5372314231782
 20
-133.3567179028587
 30
0.0
 10
88.5372314231782
 20
-133.3567179028587
 30
0.0
 10
88.5372314231782
 20
-134.255887824509
 30
0.0
 10
88.5372314231782
 20
-134.255887824509
 30
0.0
 10
88.5372314231782
 20
-134.255887824509
 30
0.0
 10
87.3927707029782
 20
-134.255887824509
 30
0.0
 10
87.3927707029782
 20
-134.255887824509
 30
0.0
 10
87.3927707029782
 20
-134.255887824509
 30
0.0
 10
87.49853513437537
 20
-134.3657863704884
 30
0.0
 10
87.49853513437537
 20
-134.3657863704884
 30
0.0
 10
87.3335150606319
 20
-134.4608710058813
 30
0.0
 10
87.16849498688843
 20
-134.5221937055188
 30
0.0
 10
86.87221677515694
 20
-134.5731811187005
 30
0.0
 10
86.87221677515694
 20
-134.5731811187005
 30
0.0
 10
86.8067599609372
 20
-134.4209078982524
 30
0.0
 10
86.8067599609372
 20
-134.4209078982524
 30
0.0
 10
87.18537595476616
 20
-134.3678534277796
 30
0.0
 10
87.30802135404106
 20
-134.3003295562687
 30
0.0
 10
87.38829207884737
 20
-134.255887824509
 30
0.0
 10
87.38829207884737
 20
-134.255887824509
 30
0.0
 10
87.03930390619156
 20
-134.255887824509
 30
0.0
 10
87.03930390619156
 20
-134.255887824509
 30
0.0
  0
POLYLINE
  5
177
330
133
100
AcDbEntity
  8
_U+30EC_U+30A4_U+30E4_U+30FC 1
370
     0
100
AcDb2dPolyline
 66
     1
 10
0.0
 20
0.0
 30
0.0
  0
VERTEX
  5
178
330
177
100
AcDbEntity
  8
_U+30EC_U+30A4_U+30E4_U+30FC 1
370
     0
100
AcDbVertex
100
AcDb2dVertex
 10
88.36773272530391
 20
-133.4900430981379
 30
0.0
  0
VERTEX
  5
179
330
177
100
AcDbEntity
  8
_U+30EC_U+30A4_U+30E4_U+30FC 1
370
     0
100
AcDbVertex
100
AcDb2dVertex
 10
87.20845809451734
 20
-133.4900430981379
 30
0.0
  0
VERTEX
  5
17A
330
177
100
AcDbEntity
  8
_U+30EC_U+30A4_U+30E4_U+30FC 1
370
     0
100
AcDbVertex
100
AcDb2dVertex
 10
87.20845809451734
 20
-133.6188896692863
 30
0.0
  0
VERTEX
  5
17B
330
177
100
AcDbEntity
  8
_U+30EC_U+30A4_U+30E4_U+30FC 1
370
     0
100
AcDbVertex
100
AcDb2dVertex
 10
88.36773272530391
 20
-133.6188896692863
 30
0.0
  0
VERTEX
  5
17C
330
177
100
AcDbEntity
  8
_U+30EC_U+30A4_U+30E4_U+30FC 1
370
     0
100
AcDbVertex
100
AcDb2dVertex
 10
88.36773272530391
 20
-133.4900430981379
 30
0.0
  0
SEQEND
  5
17D
330
177
100
AcDbEntity
  8
_U+30EC_U+30A4_U+30E4_U+30FC 1
370
     0
  0
POLYLINE
  5
17E
330
133
100
AcDbEntity
  8
_U+30EC_U+30A4_U+30E4_U+30FC 1
370
     0
100
AcDb2dPolyline
 66
     1
 10
0.0
 20
0.0
 30
0.0
  0
VERTEX
  5
17F
330
17E
100
AcDbEntity
  8
_U+30EC_U+30A4_U+30E4_U+30FC 1
370
     0
100
AcDbVertex
100
AcDb2dVertex
 10
88.36773272530391
 20
-133.7291327248143
 30
0.0
  0
VERTEX
  5
180
330
17E
100
AcDbEntity
  8
_U+30EC_U+30A4_U+30E4_U+30FC 1
370
     0
100
AcDbVertex
100
AcDb2dVertex
 10
87.20845809451734
 20
-133.7291327248143
 30
0.0
  0
VERTEX
  5
181
330
17E
100
AcDbEntity
  8
_U+30EC_U+30A4_U+30E4_U+30FC 1
370
     0
100
AcDbVertex
100
AcDb2dVertex
 10
87.20845809451734
 20
-133.870726149258
 30
0.0
  0
VERTEX
  5
182
330
17E
100
AcDbEntity
  8
_U+30EC_U+30A4_U+30E4_U+30FC 1
370
     0
100
AcDbVertex
100
AcDb2dVertex
 10
88.36773272530391
 20
-133.870726149258
 30
0.0
  0
VERTEX
  5
183
330
17E
100
AcDbEntity
  8
_U+30EC_U+30A4_U+30E4_U+30FC 1
370
     0
100
AcDbVertex
100
AcDb2dVertex
 10
88.36773272530391
 20
-133.7291327248143
 30
0.0
  0
SEQEND
  5
184
330
17E
100
AcDbEntity
  8
_U+30EC_U+30A4_U+30E4_U+30FC 1
370
     0
  0
POLYLINE
  5
185
330
133
100
AcDbEntity
  8
_U+30EC_U+30A4_U+30E4_U+30FC 1
370
     0
100
AcDb2dPolyline
 66
     1
 10
0.0
 20
0.0
 30
0.0
  0
VERTEX
  5
186
330
185
100
AcDbEntity
  8
_U+30EC_U+30A4_U+30E4_U+30FC 1
370
     0
100
AcDbVertex
100
AcDb2dVertex
 10
88.36773272530391
 20
-133.9806246952375
 30
0.0
  0
VERTEX
  5
187
330
185
100
AcDbEntity
  8
_U+30EC_U+30A4_U+30E4_U+30FC 1
370
     0
100
AcDbVertex
100
AcDb2dVertex
 10
87.20845809451734
 20
-133.9806246952375
 30
0.0
  0
VERTEX
  5
188
330
185
100
AcDbEntity
  8
_U+30EC_U+30A4_U+30E4_U+30FC 1
370
     0
100
AcDbVertex
100
AcDb2dVertex
 10
87.20845809451734
 20
-134.1204955719386
 30
0.0
  0
VERTEX
  5
189
330
185
100
AcDbEntity
  8
_U+30EC_U+30A4_U+30E4_U+30FC 1
370
     0
100
AcDbVertex
100
AcDb2dVertex
 10
88.36773272530391
 20
-134.1204955719386
 30
0.0
  0
VERTEX
  5
18A
330
185
100
AcDbEntity
  8
_U+30EC_U+30A4_U+30E4_U+30FC 1
370
     0
100
AcDbVertex
100
AcDb2dVertex
 10
88.36773272530391
 20
-133.9806246952375
 30
0.0
  0
SEQEND
  5
18B
330
185
100
AcDbEntity
  8
_U+30EC_U+30A4_U+30E4_U+30FC 1
370
     0
  0
SPLINE
  5
18C
330
133
100
AcDbEntity
  8
_U+30EC_U+30A4_U+30E4_U+30FC 1
370
     0
100
AcDbSpline
210
0.0
220
0.0
230
1.0
 70
    11
 71
     3
 72
    50
 73
    46
 74
     0
 42
0.0000000001
 43
0.0000000001
 12
1.0
 22
0.0
 32
0.0
 13
1.0
 23
0.0
 33
0.0
 40
0.0
 40
0.0
 40
0.0
 40
0.0
 40
1.0
 40
1.0
 40
1.0
 40
2.0
 40
2.0
 40
2.0
 40
3.0
 40
3.0
 40
3.0
 40
4.0
 40
4.0
 40
4.0
 40
5.0
 40
5.0
 40
5.0
 40
6.0
 40
6.0
 40
6.0
 40
7.0
 40
7.0
 40
7.0
 40
8.0
 40
8.0
 40
8.0
 40
9.0
 40
9.0
 40
9.0
 40
10.0
 40
10.0
 40
10.0
 40
11.0
 40
11.0
 40
11.0
 40
12.0
 40
12.0
 40
12.0
 40
13.0
 40
13.0
 40
13.0
 40
14.0
 40
14.0
 40
14.0
 40
15.0
 40
15.0
 40
15.0
 40
15.0
 10
88.03149140594353
 20
-132.9102335279704
 30
0.0
 10
88.03149140594353
 20
-132.9102335279704
 30
0.0
 10
88.7677083111414
 20
-132.9102335279704
 30
0.0
 10
88.7677083111414
 20
-132.9102335279704
 30
0.0
 10
88.7677083111414
 20
-132.9102335279704
 30
0.0
 10
88.7677083111414
 20
-133.0352904940849
 30
0.0
 10
88.7677083111414
 20
-133.0352904940849
 30
0.0
 10
88.7677083111414
 20
-133.0352904940849
 30
0.0
 10
88.43766816365448
 20
-133.0352904940849
 30
0.0
 10
88.43766816365448
 20
-133.0352904940849
 30
0.0
 10
88.43766816365448
 20
-133.0352904940849
 30
0.0
 10
88.43766816365448
 20
-133.3102091138079
 30
0.0
 10
88.43766816365448
 20
-133.3102091138079
 30
0.0
 10
88.43766816365448
 20
-133.3102091138079
 30
0.0
 10
88.28126082862413
 20
-133.3102091138079
 30
0.0
 10
88.28126082862413
 20
-133.3102091138079
 30
0.0
 10
88.28126082862413
 20
-133.3102091138079
 30
0.0
 10
88.28126082862413
 20
-133.0352904940849
 30
0.0
 10
88.28126082862413
 20
-133.0352904940849
 30
0.0
 10
88.28126082862413
 20
-133.0352904940849
 30
0.0
 10
88.01667749535694
 20
-133.0352904940849
 30
0.0
 10
88.01667749535694
 20
-133.0352904940849
 30
0.0
 10
87.9911837887661
 20
-133.1641370652333
 30
0.0
 10
87.94054088513292
 20
-133.2550875860439
 30
0.0
 10
87.84338919244888
 20
-133.3377698776899
 30
0.0
 10
87.84338919244888
 20
-133.3377698776899
 30
0.0
 10
87.72039928362545
 20
-133.2299383890015
 30
0.0
 10
87.72039928362545
 20
-133.2299383890015
 30
0.0
 10
87.85579153619578
 20
-133.1196953334735
 30
0.0
 10
87.87921818549547
 20
-132.9822360236121
 30
0.0
 10
87.87921818549547
 20
-132.9081664706792
 30
0.0
 10
87.87921818549547
 20
-132.9081664706792
 30
0.0
 10
87.87921818549547
 20
-132.6649427294206
 30
0.0
 10
87.87921818549547
 20
-132.6649427294206
 30
0.0
 10
88.34878470013503
 20
-132.6649427294206
 30
0.0
 10
88.51587183116965
 20
-132.6246351122431
 30
0.0
 10
88.65987682245309
 20
-132.5822604377746
 30
0.0
 10
88.65987682245309
 20
-132.5822604377746
 30
0.0
 10
88.71913246479939
 20
-132.7200642571846
 30
0.0
 10
88.71913246479939
 20
-132.7200642571846
 30
0.0
 10
88.44834795965875
 20
-132.7896551859866
 30
0.0
 10
88.13312172275839
 20
-132.7941338101174
 30
0.0
 10
88.03149140594353
 20
-132.7941338101174
 30
0.0
 10
88.03149140594353
 20
-132.7941338101174
 30
0.0
 10
88.03149140594353
 20
-132.9102335279704
 30
0.0
 10
88.03149140594353
 20
-132.9102335279704
 30
0.0
  0
SPLINE
  5
18D
330
133
100
AcDbEntity
  8
_U+30EC_U+30A4_U+30E4_U+30FC 1
370
     0
100
AcDbSpline
210
0.0
220
0.0
230
1.0
 70
    11
 71
     3
 72
    17
 73
    13
 74
     0
 42
0.0000000001
 43
0.0000000001
 12
1.0
 22
0.0
 32
0.0
 13
1.0
 23
0.0
 33
0.0
 40
0.0
 40
0.0
 40
0.0
 40
0.0
 40
1.0
 40
1.0
 40
1.0
 40
2.0
 40
2.0
 40
2.0
 40
3.0
 40
3.0
 40
3.0
 40
4.0
 40
4.0
 40
4.0
 40
4.0
 10
88.14380151876267
 20
-134.2620889963824
 30
0.0
 10
88.36359861072161
 20
-134.3743991092015
 30
0.0
 10
88.63024900127994
 20
-134.4122951595393
 30
0.0
 10
88.75909557242828
 20
-134.4229749555436
 30
0.0
 10
88.75909557242828
 20
-134.4229749555436
 30
0.0
 10
88.68950464362624
 20
-134.5773152332827
 30
0.0
 10
88.68950464362624
 20
-134.5773152332827
 30
0.0
 10
88.56892630164249
 20
-134.5625013226962
 30
0.0
 10
88.30641002566645
 20
-134.5221937055188
 30
0.0
 10
88.0421712019478
 20
-134.3764661664927
 30
0.0
 10
88.0421712019478
 20
-134.3764661664927
 30
0.0
 10
88.14380151876267
 20
-134.2620889963824
 30
0.0
 10
88.14380151876267
 20
-134.2620889963824
 30
0.0
  0
HATCH
  5
18E
330
133
100
AcDbEntity
  8
_U+30EC_U+30A4_U+30E4_U+30FC 1
 62
    12
420
 15007761
100
AcDbHatch
 10
0.0
 20
0.0
 30
0.0
210
0.0
220
0.0
230
1.0
  2
SOLID
 70
     1
 71
     0
 91
        7
 92
        1
 93
        1
 72
     4
 94
        3
 73
     0
 74
     1
 95
       50
 96
       46
 40
0.0
 40
0.0
 40
0.0
 40
0.0
 40
1.0
 40
1.0
 40
1.0
 40
2.0
 40
2.0
 40
2.0
 40
3.0
 40
3.0
 40
3.0
 40
4.0
 40
4.0
 40
4.0
 40
5.0
 40
5.0
 40
5.0
 40
6.0
 40
6.0
 40
6.0
 40
7.0
 40
7.0
 40
7.0
 40
8.0
 40
8.0
 40
8.0
 40
9.0
 40
9.0
 40
9.0
 40
10.0
 40
10.0
 40
10.0
 40
11.0
 40
11.0
 40
11.0
 40
12.0
 40
12.0
 40
12.0
 40
13.0
 40
13.0
 40
13.0
 40
14.0
 40
14.0
 40
14.0
 40
15.0
 40
15.0
 40
15.0
 40
15.0
 10
87.12405325512871
 20
-132.9102335279704
 10
87.12405325512871
 20
-132.9102335279704
 10
87.77552081138946
 20
-132.9102335279704
 10
87.77552081138946
 20
-132.9102335279704
 10
87.77552081138946
 20
-132.9102335279704
 10
87.77552081138946
 20
-133.0352904940849
 10
87.77552081138946
 20
-133.0352904940849
 10
87.77552081138946
 20
-133.0352904940849
 10
87.49853513437537
 20
-133.0352904940849
 10
87.49853513437537
 20
-133.0352904940849
 10
87.49853513437537
 20
-133.0352904940849
 10
87.49853513437537
 20
-133.3102091138079
 10
87.49853513437537
 20
-133.3102091138079
 10
87.49853513437537
 20
-133.3102091138079
 10
87.3376491752142
 20
-133.3102091138079
 10
87.3376491752142
 20
-133.3102091138079
 10
87.3376491752142
 20
-133.3102091138079
 10
87.3376491752142
 20
-133.0352904940849
 10
87.3376491752142
 20
-133.0352904940849
 10
87.3376491752142
 20
-133.0352904940849
 10
87.11750757370673
 20
-133.0352904940849
 10
87.11750757370673
 20
-133.0352904940849
 10
87.10717228725099
 20
-133.104881422887
 10
87.08167858066014
 20
-133.2995293178036
 10
86.92733830292094
 20
-133.4497354809605
 10
86.92733830292094
 20
-133.4497354809605
 10
86.80469290364606
 20
-133.339836934981
 10
86.80469290364606
 20
-133.339836934981
 10
86.9252712456298
 20
-133.2402736754573
 10
86.96730141054985
 20
-133.0352904940849
 10
86.96730141054985
 20
-132.9526082024389
 10
86.96730141054985
 20
-132.9526082024389
 10
86.96730141054985
 20
-132.6670097867117
 10
86.96730141054985
 20
-132.6670097867117
 10
87.4520263453245
 20
-132.6670097867117
 10
87.60636662306369
 20
-132.6205009976609
 10
87.70145125845659
 20
-132.5929402337788
 10
87.70145125845659
 20
-132.5929402337788
 10
87.75450572892943
 20
-132.7324666009315
 10
87.75450572892943
 20
-132.7324666009315
 10
87.54504392342625
 20
-132.781386956822
 10
87.38209090697393
 20
-132.7917222432778
 10
87.12405325512871
 20
-132.7962008674086
 10
87.12405325512871
 20
-132.7962008674086
 10
87.12405325512871
 20
-132.9102335279704
 10
87.12405325512871
 20
-132.9102335279704
 97
        0
 97
        0
 92
        1
 93
        1
 72
     4
 94
        3
 73
     0
 74
     1
 95
       32
 96
       28
 40
0.0
 40
0.0
 40
0.0
 40
0.0
 40
1.0
 40
1.0
 40
1.0
 40
2.0
 40
2.0
 40
2.0
 40
3.0
 40
3.0
 40
3.0
 40
4.0
 40
4.0
 40
4.0
 40
5.0
 40
5.0
 40
5.0
 40
6.0
 40
6.0
 40
6.0
 40
7.0
 40
7.0
 40
7.0
 40
8.0
 40
8.0
 40
8.0
 40
9.0
 40
9.0
 40
9.0
 40
9.0
 10
87.03930390619156
 20
-134.255887824509
 10
87.03930390619156
 20
-134.255887824509
 10
87.03930390619156
 20
-133.3567179028587
 10
87.03930390619156
 20
-133.3567179028587
 10
87.03930390619156
 20
-133.3567179028587
 10
88.5372314231782
 20
-133.3567179028587
 10
88.5372314231782
 20
-133.3567179028587
 10
88.5372314231782
 20
-133.3567179028587
 10
88.5372314231782
 20
-134.255887824509
 10
88.5372314231782
 20
-134.255887824509
 10
88.5372314231782
 20
-134.255887824509
 10
87.3927707029782
 20
-134.255887824509
 10
87.3927707029782
 20
-134.255887824509
 10
87.3927707029782
 20
-134.255887824509
 10
87.49853513437537
 20
-134.3657863704884
 10
87.49853513437537
 20
-134.3657863704884
 10
87.3335150606319
 20
-134.4608710058813
 10
87.16849498688843
 20
-134.5221937055188
 10
86.87221677515694
 20
-134.5731811187005
 10
86.87221677515694
 20
-134.5731811187005
 10
86.8067599609372
 20
-134.4209078982524
 10
86.8067599609372
 20
-134.4209078982524
 10
87.18537595476616
 20
-134.3678534277796
 10
87.30802135404106
 20
-134.3003295562687
 10
87.38829207884737
 20
-134.255887824509
 10
87.38829207884737
 20
-134.255887824509
 10
87.03930390619156
 20
-134.255887824509
 10
87.03930390619156
 20
-134.255887824509
 97
        0
 97
        0
 92
        1
 93
        4
 72
     1
 10
88.36773272530391
 20
-133.4900430981379
 11
87.20845809451734
 21
-133.4900430981379
 72
     1
 10
87.20845809451734
 20
-133.4900430981379
 11
87.20845809451734
 21
-133.6188896692863
 72
     1
 10
87.20845809451734
 20
-133.6188896692863
 11
88.36773272530391
 21
-133.6188896692863
 72
     1
 10
88.36773272530391
 20
-133.6188896692863
 11
88.36773272530391
 21
-133.4900430981379
 97
        0
 92
        1
 93
        4
 72
     1
 10
88.36773272530391
 20
-133.7291327248143
 11
87.20845809451734
 21
-133.7291327248143
 72
     1
 10
87.20845809451734
 20
-133.7291327248143
 11
87.20845809451734
 21
-133.870726149258
 72
     1
 10
87.20845809451734
 20
-133.870726149258
 11
88.36773272530391
 21
-133.870726149258
 72
     1
 10
88.36773272530391
 20
-133.870726149258
 11
88.36773272530391
 21
-133.7291327248143
 97
        0
 92
        1
 93
        4
 72
     1
 10
88.36773272530391
 20
-133.9806246952375
 11
87.20845809451734
 21
-133.9806246952375
 72
     1
 10
87.20845809451734
 20
-133.9806246952375
 11
87.20845809451734
 21
-134.1204955719386
 72
     1
 10
87.20845809451734
 20
-134.1204955719386
 11
88.36773272530391
 21
-134.1204955719386
 72
     1
 10
88.36773272530391
 20
-134.1204955719386
 11
88.36773272530391
 21
-133.9806246952375
 97
        0
 92
        1
 93
        1
 72
     4
 94
        3
 73
     0
 74
     1
 95
       50
 96
       46
 40
0.0
 40
0.0
 40
0.0
 40
0.0
 40
1.0
 40
1.0
 40
1.0
 40
2.0
 40
2.0
 40
2.0
 40
3.0
 40
3.0
 40
3.0
 40
4.0
 40
4.0
 40
4.0
 40
5.0
 40
5.0
 40
5.0
 40
6.0
 40
6.0
 40
6.0
 40
7.0
 40
7.0
 40
7.0
 40
8.0
 40
8.0
 40
8.0
 40
9.0
 40
9.0
 40
9.0
 40
10.0
 40
10.0
 40
10.0
 40
11.0
 40
11.0
 40
11.0
 40
12.0
 40
12.0
 40
12.0
 40
13.0
 40
13.0
 40
13.0
 40
14.0
 40
14.0
 40
14.0
 40
15.0
 40
15.0
 40
15.0
 40
15.0
 10
88.03149140594353
 20
-132.9102335279704
 10
88.03149140594353
 20
-132.9102335279704
 10
88.7677083111414
 20
-132.9102335279704
 10
88.7677083111414
 20
-132.9102335279704
 10
88.7677083111414
 20
-132.9102335279704
 10
88.7677083111414
 20
-133.0352904940849
 10
88.7677083111414
 20
-133.0352904940849
 10
88.7677083111414
 20
-133.0352904940849
 10
88.43766816365448
 20
-133.0352904940849
 10
88.43766816365448
 20
-133.0352904940849
 10
88.43766816365448
 20
-133.0352904940849
 10
88.43766816365448
 20
-133.3102091138079
 10
88.43766816365448
 20
-133.3102091138079
 10
88.43766816365448
 20
-133.3102091138079
 10
88.28126082862413
 20
-133.3102091138079
 10
88.28126082862413
 20
-133.3102091138079
 10
88.28126082862413
 20
-133.3102091138079
 10
88.28126082862413
 20
-133.0352904940849
 10
88.28126082862413
 20
-133.0352904940849
 10
88.28126082862413
 20
-133.0352904940849
 10
88.01667749535694
 20
-133.0352904940849
 10
88.01667749535694
 20
-133.0352904940849
 10
87.9911837887661
 20
-133.1641370652333
 10
87.94054088513292
 20
-133.2550875860439
 10
87.84338919244888
 20
-133.3377698776899
 10
87.84338919244888
 20
-133.3377698776899
 10
87.72039928362545
 20
-133.2299383890015
 10
87.72039928362545
 20
-133.2299383890015
 10
87.85579153619578
 20
-133.1196953334735
 10
87.87921818549547
 20
-132.9822360236121
 10
87.87921818549547
 20
-132.9081664706792
 10
87.87921818549547
 20
-132.9081664706792
 10
87.87921818549547
 20
-132.6649427294206
 10
87.87921818549547
 20
-132.6649427294206
 10
88.34878470013503
 20
-132.6649427294206
 10
88.51587183116965
 20
-132.6246351122431
 10
88.65987682245309
 20
-132.5822604377746
 10
88.65987682245309
 20
-132.5822604377746
 10
88.71913246479939
 20
-132.7200642571846
 10
88.71913246479939
 20
-132.7200642571846
 10
88.44834795965875
 20
-132.7896551859866
 10
88.13312172275839
 20
-132.7941338101174
 10
88.03149140594353
 20
-132.7941338101174
 10
88.03149140594353
 20
-132.7941338101174
 10
88.03149140594353
 20
-132.9102335279704
 10
88.03149140594353
 20
-132.9102335279704
 97
        0
 97
        0
 92
        1
 93
        1
 72
     4
 94
        3
 73
     0
 74
     1
 95
       17
 96
       13
 40
0.0
 40
0.0
 40
0.0
 40
0.0
 40
1.0
 40
1.0
 40
1.0
 40
2.0
 40
2.0
 40
2.0
 40
3.0
 40
3.0
 40
3.0
 40
4.0
 40
4.0
 40
4.0
 40
4.0
 10
88.14380151876267
 20
-134.2620889963824
 10
88.36359861072161
 20
-134.3743991092015
 10
88.63024900127994
 20
-134.4122951595393
 10
88.75909557242828
 20
-134.4229749555436
 10
88.75909557242828
 20
-134.4229749555436
 10
88.68950464362624
 20
-134.5773152332827
 10
88.68950464362624
 20
-134.5773152332827
 10
88.56892630164249
 20
-134.5625013226962
 10
88.30641002566645
 20
-134.5221937055188
 10
88.0421712019478
 20
-134.3764661664927
 10
88.0421712019478
 20
-134.3764661664927
 10
88.14380151876267
 20
-134.2620889963824
 10
88.14380151876267
 20
-134.2620889963824
 97
        0
 97
        0
 75
     2
 76
     1
 98
        0
  0
ENDBLK
  5
136
330
133
100
AcDbEntity
  8
0
100
AcDbBlockEnd
  0
ENDSEC
  0
SECTION
  2
ENTITIES
  0
SPLINE
  5
41
330
1F
100
AcDbEntity
  8
_U+30EC_U+30A4_U+30E4_U+30FC 1
 62
   179
420
  2234388
370
     9
100
AcDbSpline
210
0.0
220
0.0
230
1.0
 70
    11
 71
     3
 72
    17
 73
    13
 74
     0
 42
0.0000000001
 43
0.0000000001
 12
1.0
 22
0.0
 32
0.0
 13
1.0
 23
0.0
 33
0.0
 40
0.0
 40
0.0
 40
0.0
 40
0.0
 40
1.0
 40
1.0
 40
1.0
 40
2.0
 40
2.0
 40
2.0
 40
3.0
 40
3.0
 40
3.0
 40
4.0
 40
4.0
 40
4.0
 40
4.0
 10
97.66031796874931
 20
-163.5670078292526
 30
0.0
 10
97.66031796874931
 20
-163.6220432296294
 30
0.0
 10
97.70511497598062
 20
-163.6668510027845
 30
0.0
 10
97.76015037635749
 20
-163.6668510027845
 30
0.0
 10
97.81518577673435
 20
-163.6668510027845
 30
0.0
 10
97.859982783966
 20
-163.6220432296294
 30
0.0
 10
97.859982783966
 20
-163.5670078292526
 30
0.0
 10
97.859982783966
 20
-163.5119831947991
 30
0.0
 10
97.81518577673435
 20
-163.4671754216441
 30
0.0
 10
97.76015037635749
 20
-163.4671754216441
 30
0.0
 10
97.70511497598062
 20
-163.4671754216441
 30
0.0
 10
97.66031796874931
 20
-163.5119831947991
 30
0.0
 10
97.66031796874931
 20
-163.5670078292526
 30
0.0
  0
SPLINE
  5
42
330
1F
100
AcDbEntity
  8
_U+30EC_U+30A4_U+30E4_U+30FC 1
 62
   179
420
  2234388
370
     9
100
AcDbSpline
210
0.0
220
0.0
230
1.0
 70
    11
 71
     3
 72
    17
 73
    13
 74
     0
 42
0.0000000001
 43
0.0000000001
 12
1.0
 22
0.0
 32
0.0
 13
1.0
 23
0.0
 33
0.0
 40
0.0
 40
0.0
 40
0.0
 40
0.0
 40
1.0
 40
1.0
 40
1.0
 40
2.0
 40
2.0
 40
2.0
 40
3.0
 40
3.0
 40
3.0
 40
4.0
 40
4.0
 40
4.0
 40
4.0
 10
87.66058381326313
 20
-163.5670078292526
 30
0.0
 10
87.66058381326313
 20
-163.6220432296294
 30
0.0
 10
87.70538082049445
 20
-163.6668510027845
 30
0.0
 10
87.76041622087132
 20
-163.6668510027845
 30
0.0
 10
87.81615140626862
 20
-163.6668510027845
 30
0.0
 10
87.86095917942366
 20
-163.6220432296294
 30
0.0
 10
87.86095917942366
 20
-163.5670078292526
 30
0.0
 10
87.86095917942366
 20
-163.5119831947991
 30
0.0
 10
87.81615140626862
 20
-163.4671754216441
 30
0.0
 10
87.76041622087132
 20
-163.4671754216441
 30
0.0
 10
87.70538082049445
 20
-163.4671754216441
 30
0.0
 10
87.66058381326313
 20
-163.5119831947991
 30
0.0
 10
87.66058381326313
 20
-163.5670078292526
 30
0.0
  0
POLYLINE
  5
43
330
1F
100
AcDbEntity
  8
_U+30EC_U+30A4_U+30E4_U+30FC 1
 62
   179
420
  2234388
370
     9
100
AcDb2dPolyline
 66
     1
 10
0.0
 20
0.0
 30
0.0
  0
VERTEX
  5
44
330
43
100
AcDbEntity
  8
_U+30EC_U+30A4_U+30E4_U+30FC 1
 62
   179
420
  2234388
370
     9
100
AcDbVertex
100
AcDb2dVertex
 10
87.76049158233538
 20
-145.9112595087425
 30
0.0
  0
VERTEX
  5
45
330
43
100
AcDbEntity
  8
_U+30EC_U+30A4_U+30E4_U+30FC 1
 62
   179
420
  2234388
370
     9
100
AcDbVertex
100
AcDb2dVertex
 10
87.76049158233538
 20
-164.5672159419311
 30
0.0
  0
SEQEND
  5
46
330
43
100
AcDbEntity
  8
_U+30EC_U+30A4_U+30E4_U+30FC 1
 62
   179
420
  2234388
370
     9
  0
POLYLINE
  5
47
330
1F
100
AcDbEntity
  8
_U+30EC_U+30A4_U+30E4_U+30FC 1
 62
   179
420
  2234388
370
     9
100
AcDb2dPolyline
 66
     1
 10
0.0
 20
0.0
 30
0.0
  0
VERTEX
  5
48
330
47
100
AcDbEntity
  8
_U+30EC_U+30A4_U+30E4_U+30FC 1
 62
   179
420
  2234388
370
     9
100
AcDbVertex
100
AcDb2dVertex
 10
87.76049158233538
 20
-163.5670078292526
 30
0.0
  0
VERTEX
  5
49
330
47
100
AcDbEntity
  8
_U+30EC_U+30A4_U+30E4_U+30FC 1
 62
   179
420
  2234388
370
     9
100
AcDbVertex
100
AcDb2dVertex
 10
97.76032263113176
 20
-163.5670078292526
 30
0.0
  0
SEQEND
  5
4A
330
47
100
AcDbEntity
  8
_U+30EC_U+30A4_U+30E4_U+30FC 1
 62
   179
420
  2234388
370
     9
  0
POLYLINE
  5
4B
330
1F
100
AcDbEntity
  8
_U+30EC_U+30A4_U+30E4_U+30FC 1
 62
   179
420
  2234388
370
     9
100
AcDb2dPolyline
 66
     1
 10
0.0
 20
0.0
 30
0.0
  0
VERTEX
  5
4C
330
4B
100
AcDbEntity
  8
_U+30EC_U+30A4_U+30E4_U+30FC 1
 62
   179
420
  2234388
370
     9
100
AcDbVertex
100
AcDb2dVertex
 10
97.76022573782156
 20
-145.9112595087425
 30
0.0
  0
VERTEX
  5
4D
330
4B
100
AcDbEntity
  8
_U+30EC_U+30A4_U+30E4_U+30FC 1
 62
   179
420
  2234388
370
     9
100
AcDbVertex
100
AcDb2dVertex
 10
97.76022573782156
 20
-164.5672159419311
 30
0.0
  0
SEQEND
  5
4E
330
4B
100
AcDbEntity
  8
_U+30EC_U+30A4_U+30E4_U+30FC 1
 62
   179
420
  2234388
370
     9
  0
INSERT
  5
50
330
1F
100
AcDbEntity
  8
_U+30EC_U+30A4_U+30E4_U+30FC 1
100
AcDbBlockReference
  2
block 2
 10
0.0
 20
0.0
 30
0.0
  0
POLYLINE
  5
58
330
1F
100
AcDbEntity
  8
_U+30EC_U+30A4_U+30E4_U+30FC 1
 62
   179
420
  2234388
370
    25
100
AcDb2dPolyline
 66
     1
 10
0.0
 20
0.0
 30
0.0
  0
VERTEX
  5
59
330
58
100
AcDbEntity
  8
_U+30EC_U+30A4_U+30E4_U+30FC 1
 62
   179
420
  2234388
370
    25
100
AcDbVertex
100
AcDb2dVertex
 10
87.95826159503518
 20
-138.5167173251256
 30
0.0
  0
VERTEX
  5
5A
330
58
100
AcDbEntity
  8
_U+30EC_U+30A4_U+30E4_U+30FC 1
 62
   179
420
  2234388
370
    25
100
AcDbVertex
100
AcDb2dVertex
 10
87.745526948821
 20
-139.0010869844283
 30
0.0
  0
VERTEX
  5
5B
330
58
100
AcDbEntity
  8
_U+30EC_U+30A4_U+30E4_U+30FC 1
 62
   179
420
  2234388
370
    25
100
AcDbVertex
100
AcDb2dVertex
 10
87.93285401583147
 20
-139.4949737200094
 30
0.0
  0
VERTEX
  5
5C
330
58
100
AcDbEntity
  8
_U+30EC_U+30A4_U+30E4_U+30FC 1
 62
   179
420
  2234388
370
    25
100
AcDbVertex
100
AcDb2dVertex
 10
87.72048541101259
 20
-139.9796878888603
 30
0.0
  0
VERTEX
  5
5D
330
58
100
AcDbEntity
  8
_U+30EC_U+30A4_U+30E4_U+30FC 1
 62
   179
420
  2234388
370
    25
100
AcDbVertex
100
AcDb2dVertex
 10
87.90710192707922
 20
-140.4749957263287
 30
0.0
  0
VERTEX
  5
5E
330
58
100
AcDbEntity
  8
_U+30EC_U+30A4_U+30E4_U+30FC 1
 62
   179
420
  2234388
370
    25
100
AcDbVertex
100
AcDb2dVertex
 10
87.69508859773227
 20
-140.95970989518
 30
0.0
  0
VERTEX
  5
5F
330
58
100
AcDbEntity
  8
_U+30EC_U+30A4_U+30E4_U+30FC 1
 62
   179
420
  2234388
370
    25
100
AcDbVertex
100
AcDb2dVertex
 10
87.88170511379889
 20
-141.4539519062326
 30
0.0
  0
VERTEX
  5
60
330
58
100
AcDbEntity
  8
_U+30EC_U+30A4_U+30E4_U+30FC 1
 62
   179
420
  2234388
370
    25
100
AcDbVertex
100
AcDb2dVertex
 10
87.66968101852855
 20
-141.938310799612
 30
0.0
  0
VERTEX
  5
61
330
58
100
AcDbEntity
  8
_U+30EC_U+30A4_U+30E4_U+30FC 1
 62
   179
420
  2234388
370
    25
100
AcDbVertex
100
AcDb2dVertex
 10
87.85665281006709
 20
-142.4332633616085
 30
0.0
  0
VERTEX
  5
62
330
58
100
AcDbEntity
  8
_U+30EC_U+30A4_U+30E4_U+30FC 1
 62
   179
420
  2234388
370
    25
100
AcDbVertex
100
AcDb2dVertex
 10
87.64392892977631
 20
-142.9172777454393
 30
0.0
  0
VERTEX
  5
63
330
58
100
AcDbEntity
  8
_U+30EC_U+30A4_U+30E4_U+30FC 1
 62
   179
420
  2234388
370
    25
100
AcDbVertex
100
AcDb2dVertex
 10
87.83125599678677
 20
-143.4118642660405
 30
0.0
  0
VERTEX
  5
64
330
58
100
AcDbEntity
  8
_U+30EC_U+30A4_U+30E4_U+30FC 1
 62
   179
420
  2234388
370
    25
100
AcDbVertex
100
AcDb2dVertex
 10
87.61853211649598
 20
-143.8965784348918
 30
0.0
  0
VERTEX
  5
65
330
58
100
AcDbEntity
  8
_U+30EC_U+30A4_U+30E4_U+30FC 1
 62
   179
420
  2234388
370
    25
100
AcDbVertex
100
AcDb2dVertex
 10
87.80550390803452
 20
-144.3918862723602
 30
0.0
  0
VERTEX
  5
66
330
58
100
AcDbEntity
  8
_U+30EC_U+30A4_U+30E4_U+30FC 1
 62
   179
420
  2234388
370
    25
100
AcDbVertex
100
AcDb2dVertex
 10
87.59313530321565
 20
-144.8762451657395
 30
0.0
  0
VERTEX
  5
67
330
58
100
AcDbEntity
  8
_U+30EC_U+30A4_U+30E4_U+30FC 1
 62
   179
420
  2234388
370
    25
100
AcDbVertex
100
AcDb2dVertex
 10
87.78045160430273
 20
-145.371197727736
 30
0.0
  0
VERTEX
  5
68
330
58
100
AcDbEntity
  8
_U+30EC_U+30A4_U+30E4_U+30FC 1
 62
   179
420
  2234388
370
    25
100
AcDbVertex
100
AcDb2dVertex
 10
87.56772772401193
 20
-145.8555566211153
 30
0.0
  0
VERTEX
  5
69
330
58
100
AcDbEntity
  8
_U+30EC_U+30A4_U+30E4_U+30FC 1
 62
   179
420
  2234388
370
    25
100
AcDbVertex
100
AcDb2dVertex
 10
87.75505479102239
 20
-146.348388296204
 30
0.0
  0
VERTEX
  5
6A
330
58
100
AcDbEntity
  8
_U+30EC_U+30A4_U+30E4_U+30FC 1
 62
   179
420
  2234388
370
    25
100
AcDbVertex
100
AcDb2dVertex
 10
87.54233091073193
 20
-146.8309923440703
 30
0.0
  0
VERTEX
  5
6B
330
58
100
AcDbEntity
  8
_U+30EC_U+30A4_U+30E4_U+30FC 1
 62
   179
420
  2234388
370
    25
100
AcDbVertex
100
AcDb2dVertex
 10
87.72965797774239
 20
-147.3241685287072
 30
0.0
  0
VERTEX
  5
6C
330
58
100
AcDbEntity
  8
_U+30EC_U+30A4_U+30E4_U+30FC 1
 62
   179
420
  2234388
370
    25
100
AcDbVertex
100
AcDb2dVertex
 10
87.5172893729232
 20
-147.8074831275175
 30
0.0
  0
VERTEX
  5
6D
330
58
100
AcDbEntity
  8
_U+30EC_U+30A4_U+30E4_U+30FC 1
 62
   179
420
  2234388
370
    25
100
AcDbVertex
100
AcDb2dVertex
 10
87.70390588899015
 20
-148.3013698630983
 30
0.0
  0
VERTEX
  5
6E
330
58
100
AcDbEntity
  8
_U+30EC_U+30A4_U+30E4_U+30FC 1
 62
   179
420
  2234388
370
    25
100
AcDbVertex
100
AcDb2dVertex
 10
87.49188179371949
 20
-148.7857287564776
 30
0.0
  0
VERTEX
  5
6F
330
58
100
AcDbEntity
  8
_U+30EC_U+30A4_U+30E4_U+30FC 1
 62
   179
420
  2234388
370
    25
100
AcDbVertex
100
AcDb2dVertex
 10
87.67849830978643
 20
-149.2813811034945
 30
0.0
  0
VERTEX
  5
70
330
58
100
AcDbEntity
  8
_U+30EC_U+30A4_U+30E4_U+30FC 1
 62
   179
420
  2234388
370
    25
100
AcDbVertex
100
AcDb2dVertex
 10
87.46612970496724
 20
-149.7657507627973
 30
0.0
  0
VERTEX
  5
71
330
58
100
AcDbEntity
  8
_U+30EC_U+30A4_U+30E4_U+30FC 1
 62
   179
420
  2234388
370
    25
100
AcDbVertex
100
AcDb2dVertex
 10
87.65310149650578
 20
-150.2603372833985
 30
0.0
  0
VERTEX
  5
72
330
58
100
AcDbEntity
  8
_U+30EC_U+30A4_U+30E4_U+30FC 1
 62
   179
420
  2234388
370
    25
100
AcDbVertex
100
AcDb2dVertex
 10
87.4407328916869
 20
-150.7439963917574
 30
0.0
  0
VERTEX
  5
73
330
58
100
AcDbEntity
  8
_U+30EC_U+30A4_U+30E4_U+30FC 1
 62
   179
420
  2234388
370
    25
100
AcDbVertex
100
AcDb2dVertex
 10
87.62770468322546
 20
-151.23823840281
 30
0.0
  0
VERTEX
  5
74
330
58
100
AcDbEntity
  8
_U+30EC_U+30A4_U+30E4_U+30FC 1
 62
   179
420
  2234388
370
    25
100
AcDbVertex
100
AcDb2dVertex
 10
87.41533607840658
 20
-151.7226080621128
 30
0.0
  0
VERTEX
  5
75
330
58
100
AcDbEntity
  8
_U+30EC_U+30A4_U+30E4_U+30FC 1
 62
   179
420
  2234388
370
    25
100
AcDbVertex
100
AcDb2dVertex
 10
87.60230786994514
 20
-152.2175498581859
 30
0.0
  0
VERTEX
  5
76
330
58
100
AcDbEntity
  8
_U+30EC_U+30A4_U+30E4_U+30FC 1
 62
   179
420
  2234388
370
    25
100
AcDbVertex
100
AcDb2dVertex
 10
87.38992849920287
 20
-152.7029745779809
 30
0.0
  0
VERTEX
  5
77
330
58
100
AcDbEntity
  8
_U+30EC_U+30A4_U+30E4_U+30FC 1
 62
   179
420
  2234388
370
    25
100
AcDbVertex
100
AcDb2dVertex
 10
87.57725556621332
 20
-153.1979271399774
 30
0.0
  0
VERTEX
  5
78
330
58
100
AcDbEntity
  8
_U+30EC_U+30A4_U+30E4_U+30FC 1
 62
   179
420
  2234388
370
    25
100
AcDbVertex
100
AcDb2dVertex
 10
87.36417641045063
 20
-153.6822860333568
 30
0.0
  0
VERTEX
  5
79
330
58
100
AcDbEntity
  8
_U+30EC_U+30A4_U+30E4_U+30FC 1
 62
   179
420
  2234388
370
    25
100
AcDbVertex
100
AcDb2dVertex
 10
87.551858752933
 20
-154.1775831049018
 30
0.0
  0
VERTEX
  5
7A
330
58
100
AcDbEntity
  8
_U+30EC_U+30A4_U+30E4_U+30FC 1
 62
   179
420
  2234388
370
    25
100
AcDbVertex
100
AcDb2dVertex
 10
87.3387795971703
 20
-154.6633631001688
 30
0.0
  0
VERTEX
  5
7B
330
58
100
AcDbEntity
  8
_U+30EC_U+30A4_U+30E4_U+30FC 1
 62
   179
420
  2234388
370
    25
100
AcDbVertex
100
AcDb2dVertex
 10
87.52610666418076
 20
-155.1586601717138
 30
0.0
  0
VERTEX
  5
7C
330
58
100
AcDbEntity
  8
_U+30EC_U+30A4_U+30E4_U+30FC 1
 62
   179
420
  2234388
370
    25
100
AcDbVertex
100
AcDb2dVertex
 10
87.31338278388998
 20
-155.643729616037
 30
0.0
  0
VERTEX
  5
7D
330
58
100
AcDbEntity
  8
_U+30EC_U+30A4_U+30E4_U+30FC 1
 62
   179
420
  2234388
370
    25
100
AcDbVertex
100
AcDb2dVertex
 10
87.50069908497704
 20
-156.139026687582
 30
0.0
  0
VERTEX
  5
7E
330
58
100
AcDbEntity
  8
_U+30EC_U+30A4_U+30E4_U+30FC 1
 62
   179
420
  2234388
370
    25
100
AcDbVertex
100
AcDb2dVertex
 10
87.28797520468626
 20
-156.624806682849
 30
0.0
  0
VERTEX
  5
7F
330
58
100
AcDbEntity
  8
_U+30EC_U+30A4_U+30E4_U+30FC 1
 62
   179
420
  2234388
370
    25
100
AcDbVertex
100
AcDb2dVertex
 10
87.47530227169672
 20
-157.1204590298659
 30
0.0
  0
VERTEX
  5
80
330
58
100
AcDbEntity
  8
_U+30EC_U+30A4_U+30E4_U+30FC 1
 62
   179
420
  2234388
370
    25
100
AcDbVertex
100
AcDb2dVertex
 10
87.26222311593402
 20
-157.6065835346815
 30
0.0
  0
VERTEX
  5
81
330
58
100
AcDbEntity
  8
_U+30EC_U+30A4_U+30E4_U+30FC 1
 62
   179
420
  2234388
370
    25
100
AcDbVertex
100
AcDb2dVertex
 10
87.4499054584164
 20
-158.1025911571703
 30
0.0
  0
VERTEX
  5
82
330
58
100
AcDbEntity
  8
_U+30EC_U+30A4_U+30E4_U+30FC 1
 62
   179
420
  2234388
370
    25
100
AcDbVertex
100
AcDb2dVertex
 10
87.23682630265368
 20
-158.5883711524373
 30
0.0
  0
VERTEX
  5
83
330
58
100
AcDbEntity
  8
_U+30EC_U+30A4_U+30E4_U+30FC 1
 62
   179
420
  2234388
370
    25
100
AcDbVertex
100
AcDb2dVertex
 10
87.42415336966415
 20
-159.0833129485104
 30
0.0
  0
VERTEX
  5
84
330
58
100
AcDbEntity
  8
_U+30EC_U+30A4_U+30E4_U+30FC 1
 62
   179
420
  2234388
370
    25
100
AcDbVertex
100
AcDb2dVertex
 10
87.21142948937369
 20
-159.5680271173617
 30
0.0
  0
VERTEX
  5
85
330
58
100
AcDbEntity
  8
_U+30EC_U+30A4_U+30E4_U+30FC 1
 62
   179
420
  2234388
370
    25
100
AcDbVertex
100
AcDb2dVertex
 10
87.39874579046042
 20
-160.0643900153225
 30
0.0
  0
VERTEX
  5
86
330
58
100
AcDbEntity
  8
_U+30EC_U+30A4_U+30E4_U+30FC 1
 62
   179
420
  2234388
370
    25
100
AcDbVertex
100
AcDb2dVertex
 10
87.18602191016997
 20
-160.5501592446661
 30
0.0
  0
VERTEX
  5
87
330
58
100
AcDbEntity
  8
_U+30EC_U+30A4_U+30E4_U+30FC 1
 62
   179
420
  2234388
370
    25
100
AcDbVertex
100
AcDb2dVertex
 10
87.37334897718043
 20
-161.0465221426268
 30
0.0
  0
VERTEX
  5
88
330
58
100
AcDbEntity
  8
_U+30EC_U+30A4_U+30E4_U+30FC 1
 62
   179
420
  2234388
370
    25
100
AcDbVertex
100
AcDb2dVertex
 10
87.16026982141773
 20
-161.5333571983862
 30
0.0
  0
VERTEX
  5
89
330
58
100
AcDbEntity
  8
_U+30EC_U+30A4_U+30E4_U+30FC 1
 62
   179
420
  2234388
370
    25
100
AcDbVertex
100
AcDb2dVertex
 10
87.34795216389978
 20
-162.029364820875
 30
0.0
  0
VERTEX
  5
8A
330
58
100
AcDbEntity
  8
_U+30EC_U+30A4_U+30E4_U+30FC 1
 62
   179
420
  2234388
370
    25
100
AcDbVertex
100
AcDb2dVertex
 10
87.13487300813708
 20
-162.5165443861829
 30
0.0
  0
VERTEX
  5
8B
330
58
100
AcDbEntity
  8
_U+30EC_U+30A4_U+30E4_U+30FC 1
 62
   179
420
  2234388
370
    25
100
AcDbVertex
100
AcDb2dVertex
 10
87.32184479967594
 20
-163.0150174051284
 30
0.0
  0
VERTEX
  5
8C
330
58
100
AcDbEntity
  8
_U+30EC_U+30A4_U+30E4_U+30FC 1
 62
   179
420
  2234388
370
    25
100
AcDbVertex
100
AcDb2dVertex
 10
87.10947619485675
 20
-163.5032627968521
 30
0.0
  0
SEQEND
  5
8D
330
58
100
AcDbEntity
  8
_U+30EC_U+30A4_U+30E4_U+30FC 1
 62
   179
420
  2234388
370
    25
  0
POLYLINE
  5
8E
330
1F
100
AcDbEntity
  8
_U+30EC_U+30A4_U+30E4_U+30FC 1
 62
   179
420
  2234388
370
    25
100
AcDb2dPolyline
 66
     1
 10
0.0
 20
0.0
 30
0.0
  0
VERTEX
  5
8F
330
8E
100
AcDbEntity
  8
_U+30EC_U+30A4_U+30E4_U+30FC 1
 62
   179
420
  2234388
370
    25
100
AcDbVertex
100
AcDb2dVertex
 10
87.20927630469541
 20
-163.5056958955385
 30
0.0
  0
VERTEX
  5
90
330
8E
100
AcDbEntity
  8
_U+30EC_U+30A4_U+30E4_U+30FC 1
 62
   179
420
  2234388
370
    25
100
AcDbVertex
100
AcDb2dVertex
 10
86.80887008192224
 20
-163.4951129928448
 30
0.0
  0
SEQEND
  5
91
330
8E
100
AcDbEntity
  8
_U+30EC_U+30A4_U+30E4_U+30FC 1
 62
   179
420
  2234388
370
    25
  0
POLYLINE
  5
92
330
1F
100
AcDbEntity
  8
_U+30EC_U+30A4_U+30E4_U+30FC 1
 62
   179
420
  2234388
370
    25
100
AcDb2dPolyline
 66
     1
 10
0.0
 20
0.0
 30
0.0
  0
VERTEX
  5
93
330
92
100
AcDbEntity
  8
_U+30EC_U+30A4_U+30E4_U+30FC 1
 62
   179
420
  2234388
370
    25
100
AcDbVertex
100
AcDb2dVertex
 10
86.80897774115583
 20
-163.4950053336108
 30
0.0
  0
VERTEX
  5
94
330
92
100
AcDbEntity
  8
_U+30EC_U+30A4_U+30E4_U+30FC 1
 62
   179
420
  2234388
370
    25
100
AcDbVertex
100
AcDb2dVertex
 10
86.86365786606078
 20
-137.4949343019707
 30
0.0
  0
SEQEND
  5
95
330
92
100
AcDbEntity
  8
_U+30EC_U+30A4_U+30E4_U+30FC 1
 62
   179
420
  2234388
370
    25
  0
POLYLINE
  5
96
330
1F
100
AcDbEntity
  8
_U+30EC_U+30A4_U+30E4_U+30FC 1
 62
   179
420
  2234388
370
    25
100
AcDb2dPolyline
 66
     1
 10
0.0
 20
0.0
 30
0.0
  0
VERTEX
  5
97
330
96
100
AcDbEntity
  8
_U+30EC_U+30A4_U+30E4_U+30FC 1
 62
   179
420
  2234388
370
    25
100
AcDbVertex
100
AcDb2dVertex
 10
97.88044880433306
 20
-144.6541334002514
 30
0.0
  0
VERTEX
  5
98
330
96
100
AcDbEntity
  8
_U+30EC_U+30A4_U+30E4_U+30FC 1
 62
   179
420
  2234388
370
    25
100
AcDbVertex
100
AcDb2dVertex
 10
98.41349120328834
 20
-144.8411159577133
 30
0.0
  0
VERTEX
  5
99
330
96
100
AcDbEntity
  8
_U+30EC_U+30A4_U+30E4_U+30FC 1
 62
   179
420
  2234388
370
    25
100
AcDbVertex
100
AcDb2dVertex
 10
98.93701652596562
 20
-144.6287365869711
 30
0.0
  0
VERTEX
  5
9A
330
96
100
AcDbEntity
  8
_U+30EC_U+30A4_U+30E4_U+30FC 1
 62
   179
420
  2234388
370
    25
100
AcDbVertex
100
AcDb2dVertex
 10
99.47111398541325
 20
-144.8157083785096
 30
0.0
  0
VERTEX
  5
9B
330
96
100
AcDbEntity
  8
_U+30EC_U+30A4_U+30E4_U+30FC 1
 62
   179
420
  2234388
370
    25
100
AcDbVertex
100
AcDb2dVertex
 10
99.99534985903438
 20
-144.6033397736907
 30
0.0
  0
VERTEX
  5
9C
330
96
100
AcDbEntity
  8
_U+30EC_U+30A4_U+30E4_U+30FC 1
 62
   179
420
  2234388
370
    25
100
AcDbVertex
100
AcDb2dVertex
 10
100.5291028089335
 20
-144.7903115652293
 30
0.0
  0
VERTEX
  5
9D
330
96
100
AcDbEntity
  8
_U+30EC_U+30A4_U+30E4_U+30FC 1
 62
   179
420
  2234388
370
    25
100
AcDbVertex
100
AcDb2dVertex
 10
101.0529726411593
 20
-144.5779429604104
 30
0.0
  0
VERTEX
  5
9E
330
96
100
AcDbEntity
  8
_U+30EC_U+30A4_U+30E4_U+30FC 1
 62
   179
420
  2234388
370
    25
100
AcDbVertex
100
AcDb2dVertex
 10
101.5863703155865
 20
-144.764914751949
 30
0.0
  0
VERTEX
  5
9F
330
96
100
AcDbEntity
  8
_U+30EC_U+30A4_U+30E4_U+30FC 1
 62
   179
420
  2234388
370
    25
100
AcDbVertex
100
AcDb2dVertex
 10
102.1098956382638
 20
-144.5525353812067
 30
0.0
  0
VERTEX
  5
A0
330
96
100
AcDbEntity
  8
_U+30EC_U+30A4_U+30E4_U+30FC 1
 62
   179
420
  2234388
370
    25
100
AcDbVertex
100
AcDb2dVertex
 10
102.643293312691
 20
-144.7395071727452
 30
0.0
  0
VERTEX
  5
A1
330
96
100
AcDbEntity
  8
_U+30EC_U+30A4_U+30E4_U+30FC 1
 62
   179
420
  2234388
370
    25
100
AcDbVertex
100
AcDb2dVertex
 10
103.1668186353682
 20
-144.5271385679267
 30
0.0
  0
VERTEX
  5
A2
330
96
100
AcDbEntity
  8
_U+30EC_U+30A4_U+30E4_U+30FC 1
 62
   179
420
  2234388
370
    25
100
AcDbVertex
100
AcDb2dVertex
 10
103.7009268607393
 20
-144.7141103594649
 30
0.0
  0
VERTEX
  5
A3
330
96
100
AcDbEntity
  8
_U+30EC_U+30A4_U+30E4_U+30FC 1
 62
   179
420
  2234388
370
    25
100
AcDbVertex
100
AcDb2dVertex
 10
104.225151968437
 20
-144.5013864791745
 30
0.0
  0
VERTEX
  5
A4
330
96
100
AcDbEntity
  8
_U+30EC_U+30A4_U+30E4_U+30FC 1
 62
   179
420
  2234388
370
    25
100
AcDbVertex
100
AcDb2dVertex
 10
104.759260193808
 20
-144.6887135461849
 30
0.0
  0
VERTEX
  5
A5
330
96
100
AcDbEntity
  8
_U+30EC_U+30A4_U+30E4_U+30FC 1
 62
   179
420
  2234388
370
    25
100
AcDbVertex
100
AcDb2dVertex
 10
105.2827747505619
 20
-144.4759896658938
 30
0.0
  0
VERTEX
  5
A6
330
96
100
AcDbEntity
  8
_U+30EC_U+30A4_U+30E4_U+30FC 1
 62
   179
420
  2234388
370
    25
100
AcDbVertex
100
AcDb2dVertex
 10
105.816527700461
 20
-144.6633059669812
 30
0.0
  0
VERTEX
  5
A7
330
96
100
AcDbEntity
  8
_U+30EC_U+30A4_U+30E4_U+30FC 1
 62
   179
420
  2234388
370
    25
100
AcDbVertex
100
AcDb2dVertex
 10
106.3404082986102
 20
-144.4505820866901
 30
0.0
  0
VERTEX
  5
A8
330
96
100
AcDbEntity
  8
_U+30EC_U+30A4_U+30E4_U+30FC 1
 62
   179
420
  2234388
370
    25
100
AcDbVertex
100
AcDb2dVertex
 10
106.8745165239812
 20
-144.6379091537005
 30
0.0
  0
VERTEX
  5
A9
330
96
100
AcDbEntity
  8
_U+30EC_U+30A4_U+30E4_U+30FC 1
 62
   179
420
  2234388
370
    25
100
AcDbVertex
100
AcDb2dVertex
 10
107.3969760202428
 20
-144.4251852734098
 30
0.0
  0
VERTEX
  5
AA
330
96
100
AcDbEntity
  8
_U+30EC_U+30A4_U+30E4_U+30FC 1
 62
   179
420
  2234388
370
    25
100
AcDbVertex
100
AcDb2dVertex
 10
107.9286080832338
 20
-144.6125123404202
 30
0.0
  0
VERTEX
  5
AB
330
96
100
AcDbEntity
  8
_U+30EC_U+30A4_U+30E4_U+30FC 1
 62
   179
420
  2234388
370
    25
100
AcDbVertex
100
AcDb2dVertex
 10
108.4517781304391
 20
-144.3997884601295
 30
0.0
  0
VERTEX
  5
AC
330
96
100
AcDbEntity
  8
_U+30EC_U+30A4_U+30E4_U+30FC 1
 62
   179
420
  2234388
370
    25
100
AcDbVertex
100
AcDb2dVertex
 10
108.9855310803383
 20
-144.5871155271399
 30
0.0
  0
VERTEX
  5
AD
330
96
100
AcDbEntity
  8
_U+30EC_U+30A4_U+30E4_U+30FC 1
 62
   179
420
  2234388
370
    25
100
AcDbVertex
100
AcDb2dVertex
 10
109.5101114635079
 20
-144.3743808809257
 30
0.0
  0
VERTEX
  5
AE
330
96
100
AcDbEntity
  8
_U+30EC_U+30A4_U+30E4_U+30FC 1
 62
   179
420
  2234388
370
    25
100
AcDbVertex
100
AcDb2dVertex
 10
110.043864413407
 20
-144.5613634383877
 30
0.0
  0
VERTEX
  5
AF
330
96
100
AcDbEntity
  8
_U+30EC_U+30A4_U+30E4_U+30FC 1
 62
   179
420
  2234388
370
    25
100
AcDbVertex
100
AcDb2dVertex
 10
110.567023694689
 20
-144.3493393431173
 30
0.0
  0
VERTEX
  5
B0
330
96
100
AcDbEntity
  8
_U+30EC_U+30A4_U+30E4_U+30FC 1
 62
   179
420
  2234388
370
    25
100
AcDbVertex
100
AcDb2dVertex
 10
111.100087625491
 20
-144.5359558591839
 30
0.0
  0
VERTEX
  5
B1
330
96
100
AcDbEntity
  8
_U+30EC_U+30A4_U+30E4_U+30FC 1
 62
   179
420
  2234388
370
    25
100
AcDbVertex
100
AcDb2dVertex
 10
111.623246906773
 20
-144.3235872543651
 30
0.0
  0
VERTEX
  5
B2
330
96
100
AcDbEntity
  8
_U+30EC_U+30A4_U+30E4_U+30FC 1
 62
   179
420
  2234388
370
    25
100
AcDbVertex
100
AcDb2dVertex
 10
112.1562893057283
 20
-144.5109143213755
 30
0.0
  0
VERTEX
  5
B3
330
96
100
AcDbEntity
  8
_U+30EC_U+30A4_U+30E4_U+30FC 1
 62
   179
420
  2234388
370
    25
100
AcDbVertex
100
AcDb2dVertex
 10
112.6805251793494
 20
-144.2981904410848
 30
0.0
  0
VERTEX
  5
B4
330
96
100
AcDbEntity
  8
_U+30EC_U+30A4_U+30E4_U+30FC 1
 62
   179
420
  2234388
370
    25
100
AcDbVertex
100
AcDb2dVertex
 10
113.2153331897409
 20
-144.4851622326233
 30
0.0
  0
VERTEX
  5
B5
330
96
100
AcDbEntity
  8
_U+30EC_U+30A4_U+30E4_U+30FC 1
 62
   179
420
  2234388
370
    25
100
AcDbVertex
100
AcDb2dVertex
 10
113.7392030219667
 20
-144.272782861881
 30
0.0
  0
VERTEX
  5
B6
330
96
100
AcDbEntity
  8
_U+30EC_U+30A4_U+30E4_U+30FC 1
 62
   179
420
  2234388
370
    25
100
AcDbVertex
100
AcDb2dVertex
 10
114.2726114623173
 20
-144.4597546534196
 30
0.0
  0
VERTEX
  5
B7
330
96
100
AcDbEntity
  8
_U+30EC_U+30A4_U+30E4_U+30FC 1
 62
   179
420
  2234388
370
    25
100
AcDbVertex
100
AcDb2dVertex
 10
114.7968473359384
 20
-144.2473860486007
 30
0.0
  0
VERTEX
  5
B8
330
96
100
AcDbEntity
  8
_U+30EC_U+30A4_U+30E4_U+30FC 1
 62
   179
420
  2234388
370
    25
100
AcDbVertex
100
AcDb2dVertex
 10
115.3316553463299
 20
-144.4347131156112
 30
0.0
  0
VERTEX
  5
B9
330
96
100
AcDbEntity
  8
_U+30EC_U+30A4_U+30E4_U+30FC 1
 62
   179
420
  2234388
370
    25
100
AcDbVertex
100
AcDb2dVertex
 10
115.8562357294995
 20
-144.2216339598485
 30
0.0
  0
VERTEX
  5
BA
330
96
100
AcDbEntity
  8
_U+30EC_U+30A4_U+30E4_U+30FC 1
 62
   179
420
  2234388
370
    25
100
AcDbVertex
100
AcDb2dVertex
 10
116.3903331889471
 20
-144.4093163023311
 30
0.0
  0
VERTEX
  5
BB
330
96
100
AcDbEntity
  8
_U+30EC_U+30A4_U+30E4_U+30FC 1
 62
   179
420
  2234388
370
    25
100
AcDbVertex
100
AcDb2dVertex
 10
116.9149135721168
 20
-144.1962371465684
 30
0.0
  0
VERTEX
  5
BC
330
96
100
AcDbEntity
  8
_U+30EC_U+30A4_U+30E4_U+30FC 1
 62
   179
420
  2234388
370
    25
100
AcDbVertex
100
AcDb2dVertex
 10
117.4500876239035
 20
-144.3835534476552
 30
0.0
  0
VERTEX
  5
BD
330
96
100
AcDbEntity
  8
_U+30EC_U+30A4_U+30E4_U+30FC 1
 62
   179
420
  2234388
370
    25
100
AcDbVertex
100
AcDb2dVertex
 10
117.9746680070732
 20
-144.1708295673647
 30
0.0
  0
VERTEX
  5
BE
330
96
100
AcDbEntity
  8
_U+30EC_U+30A4_U+30E4_U+30FC 1
 62
   179
420
  2234388
370
    25
100
AcDbVertex
100
AcDb2dVertex
 10
118.5101865684085
 20
-144.3581566343752
 30
0.0
  0
VERTEX
  5
BF
330
96
100
AcDbEntity
  8
_U+30EC_U+30A4_U+30E4_U+30FC 1
 62
   179
420
  2234388
370
    25
100
AcDbVertex
100
AcDb2dVertex
 10
119.0351114611266
 20
-144.1454327540841
 30
0.0
  0
VERTEX
  5
C0
330
96
100
AcDbEntity
  8
_U+30EC_U+30A4_U+30E4_U+30FC 1
 62
   179
420
  2234388
370
    25
100
AcDbVertex
100
AcDb2dVertex
 10
119.5699194715181
 20
-144.3327598210946
 30
0.0
  0
VERTEX
  5
C1
330
96
100
AcDbEntity
  8
_U+30EC_U+30A4_U+30E4_U+30FC 1
 62
   179
420
  2234388
370
    25
100
AcDbVertex
100
AcDb2dVertex
 10
120.0941553451392
 20
-144.1196806653319
 30
0.0
  0
VERTEX
  5
C2
330
96
100
AcDbEntity
  8
_U+30EC_U+30A4_U+30E4_U+30FC 1
 62
   179
420
  2234388
370
    25
100
AcDbVertex
100
AcDb2dVertex
 10
120.6279082950383
 20
-144.3073630078142
 30
0.0
  0
VERTEX
  5
C3
330
96
100
AcDbEntity
  8
_U+30EC_U+30A4_U+30E4_U+30FC 1
 62
   179
420
  2234388
370
    25
100
AcDbVertex
100
AcDb2dVertex
 10
121.1538882482489
 20
-144.0942838520515
 30
0.0
  0
VERTEX
  5
C4
330
96
100
AcDbEntity
  8
_U+30EC_U+30A4_U+30E4_U+30FC 1
 62
   179
420
  2234388
370
    25
100
AcDbVertex
100
AcDb2dVertex
 10
121.6883517490918
 20
-144.2816001531386
 30
0.0
  0
VERTEX
  5
C5
330
96
100
AcDbEntity
  8
_U+30EC_U+30A4_U+30E4_U+30FC 1
 62
   179
420
  2234388
370
    25
100
AcDbVertex
100
AcDb2dVertex
 10
122.2143532341491
 20
-144.0688762728478
 30
0.0
  0
VERTEX
  5
C6
330
96
100
AcDbEntity
  8
_U+30EC_U+30A4_U+30E4_U+30FC 1
 62
   179
420
  2234388
370
    25
100
AcDbVertex
100
AcDb2dVertex
 10
122.7498717954844
 20
-144.2562033398583
 30
0.0
  0
VERTEX
  5
C7
330
96
100
AcDbEntity
  8
_U+30EC_U+30A4_U+30E4_U+30FC 1
 62
   179
420
  2234388
370
    25
100
AcDbVertex
100
AcDb2dVertex
 10
123.2751411977511
 20
-144.0434794595675
 30
0.0
  0
VERTEX
  5
C8
330
96
100
AcDbEntity
  8
_U+30EC_U+30A4_U+30E4_U+30FC 1
 62
   179
420
  2234388
370
    25
100
AcDbVertex
100
AcDb2dVertex
 10
123.8120808609741
 20
-144.2308065265779
 30
0.0
  0
VERTEX
  5
C9
330
96
100
AcDbEntity
  8
_U+30EC_U+30A4_U+30E4_U+30FC 1
 62
   179
420
  2234388
370
    25
100
AcDbVertex
100
AcDb2dVertex
 10
124.3394819160723
 20
-144.0177273708152
 30
0.0
  0
VERTEX
  5
CA
330
96
100
AcDbEntity
  8
_U+30EC_U+30A4_U+30E4_U+30FC 1
 62
   179
420
  2234388
370
    25
100
AcDbVertex
100
AcDb2dVertex
 10
124.8764000474484
 20
-144.2050544378257
 30
0.0
  0
SEQEND
  5
CB
330
96
100
AcDbEntity
  8
_U+30EC_U+30A4_U+30E4_U+30FC 1
 62
   179
420
  2234388
370
    25
  0
POLYLINE
  5
CC
330
1F
100
AcDbEntity
  8
_U+30EC_U+30A4_U+30E4_U+30FC 1
 62
   179
420
  2234388
370
    25
100
AcDb2dPolyline
 66
     1
 10
0.0
 20
0.0
 30
0.0
  0
VERTEX
  5
CD
330
CC
100
AcDbEntity
  8
_U+30EC_U+30A4_U+30E4_U+30FC 1
 62
   179
420
  2234388
370
    25
100
AcDbVertex
100
AcDb2dVertex
 10
124.8745052449316
 20
-144.1049636480558
 30
0.0
  0
VERTEX
  5
CE
330
CC
100
AcDbEntity
  8
_U+30EC_U+30A4_U+30E4_U+30FC 1
 62
   179
420
  2234388
370
    25
100
AcDbVertex
100
AcDb2dVertex
 10
124.8642560858629
 20
-143.704568191206
 30
0.0
  0
SEQEND
  5
CF
330
CC
100
AcDbEntity
  8
_U+30EC_U+30A4_U+30E4_U+30FC 1
 62
   179
420
  2234388
370
    25
  0
POLYLINE
  5
D0
330
1F
100
AcDbEntity
  8
_U+30EC_U+30A4_U+30E4_U+30FC 1
 62
   179
420
  2234388
370
    25
100
AcDb2dPolyline
 66
     1
 10
0.0
 20
0.0
 30
0.0
  0
VERTEX
  5
D1
330
D0
100
AcDbEntity
  8
_U+30EC_U+30A4_U+30E4_U+30FC 1
 62
   179
420
  2234388
370
    25
100
AcDbVertex
100
AcDb2dVertex
 10
124.8641699584758
 20
-143.7046758504399
 30
0.0
  0
VERTEX
  5
D2
330
D0
100
AcDbEntity
  8
_U+30EC_U+30A4_U+30E4_U+30FC 1
 62
   179
420
  2234388
370
    25
100
AcDbVertex
100
AcDb2dVertex
 10
97.9077081223601
 20
-143.7593667412683
 30
0.0
  0
SEQEND
  5
D3
330
D0
100
AcDbEntity
  8
_U+30EC_U+30A4_U+30E4_U+30FC 1
 62
   179
420
  2234388
370
    25
  0
SPLINE
  5
D4
330
1F
100
AcDbEntity
  8
_U+30EC_U+30A4_U+30E4_U+30FC 1
 62
   179
420
  2234388
370
     9
100
AcDbSpline
210
0.0
220
0.0
230
1.0
 70
    11
 71
     3
 72
    17
 73
    13
 74
     0
 42
0.0000000001
 43
0.0000000001
 12
1.0
 22
0.0
 32
0.0
 13
1.0
 23
0.0
 33
0.0
 40
0.0
 40
0.0
 40
0.0
 40
0.0
 40
1.0
 40
1.0
 40
1.0
 40
2.0
 40
2.0
 40
2.0
 40
3.0
 40
3.0
 40
3.0
 40
4.0
 40
4.0
 40
4.0
 40
4.0
 10
98.86336684404502
 20
-133.495490655374
 30
0.0
 10
98.86336684404502
 20
-133.5505260557508
 30
0.0
 10
98.90816385127665
 20
-133.5953338289062
 30
0.0
 10
98.96319925165352
 20
-133.5953338289062
 30
0.0
 10
99.01823465203039
 20
-133.5953338289062
 30
0.0
 10
99.06303165926202
 20
-133.5505260557508
 30
0.0
 10
99.06303165926202
 20
-133.495490655374
 30
0.0
 10
99.06303165926202
 20
-133.4404660209205
 30
0.0
 10
99.01823465203039
 20
-133.3956582477655
 30
0.0
 10
98.96319925165352
 20
-133.3956582477655
 30
0.0
 10
98.90816385127665
 20
-133.3956582477655
 30
0.0
 10
98.86336684404502
 20
-133.4404660209205
 30
0.0
 10
98.86336684404502
 20
-133.495490655374
 30
0.0
  0
SPLINE
  5
D5
330
1F
100
AcDbEntity
  8
_U+30EC_U+30A4_U+30E4_U+30FC 1
 62
   179
420
  2234388
370
     9
100
AcDbSpline
210
0.0
220
0.0
230
1.0
 70
    11
 71
     3
 72
    17
 73
    13
 74
     0
 42
0.0000000001
 43
0.0000000001
 12
1.0
 22
0.0
 32
0.0
 13
1.0
 23
0.0
 33
0.0
 40
0.0
 40
0.0
 40
0.0
 40
0.0
 40
1.0
 40
1.0
 40
1.0
 40
2.0
 40
2.0
 40
2.0
 40
3.0
 40
3.0
 40
3.0
 40
4.0
 40
4.0
 40
4.0
 40
4.0
 10
81.73709740184763
 20
-137.5947667095792
 30
0.0
 10
81.73709740184763
 20
-137.6498021099561
 30
0.0
 10
81.78189440907927
 20
-137.6946098831111
 30
0.0
 10
81.83692980945614
 20
-137.6946098831111
 30
0.0
 10
81.891965209833
 20
-137.6946098831111
 30
0.0
 10
81.93676221706464
 20
-137.6498021099561
 30
0.0
 10
81.93676221706464
 20
-137.5947667095792
 30
0.0
 10
81.93676221706464
 20
-137.5390315241819
 30
0.0
 10
81.891965209833
 20
-137.4949343019707
 30
0.0
 10
81.83692980945614
 20
-137.4949343019707
 30
0.0
 10
81.78189440907927
 20
-137.4949343019707
 30
0.0
 10
81.73709740184763
 20
-137.5390315241819
 30
0.0
 10
81.73709740184763
 20
-137.5947667095792
 30
0.0
  0
SPLINE
  5
D6
330
1F
100
AcDbEntity
  8
_U+30EC_U+30A4_U+30E4_U+30FC 1
 62
   179
420
  2234388
370
     9
100
AcDbSpline
210
0.0
220
0.0
230
1.0
 70
    11
 71
     3
 72
    17
 73
    13
 74
     0
 42
0.0000000001
 43
0.0000000001
 12
1.0
 22
0.0
 32
0.0
 13
1.0
 23
0.0
 33
0.0
 40
0.0
 40
0.0
 40
0.0
 40
0.0
 40
1.0
 40
1.0
 40
1.0
 40
2.0
 40
2.0
 40
2.0
 40
3.0
 40
3.0
 40
3.0
 40
4.0
 40
4.0
 40
4.0
 40
4.0
 10
124.8634809393788
 20
-133.495490655374
 30
0.0
 10
124.8634809393788
 20
-133.5505260557508
 30
0.0
 10
124.908267180687
 20
-133.5953338289062
 30
0.0
 10
124.9633025810639
 20
-133.5953338289062
 30
0.0
 10
125.0183379814407
 20
-133.5953338289062
 30
0.0
 10
125.0631457545958
 20
-133.5505260557508
 30
0.0
 10
125.0631457545958
 20
-133.495490655374
 30
0.0
 10
125.0631457545958
 20
-133.4404660209205
 30
0.0
 10
125.0183379814407
 20
-133.3956582477655
 30
0.0
 10
124.9633025810639
 20
-133.3956582477655
 30
0.0
 10
124.908267180687
 20
-133.3956582477655
 30
0.0
 10
124.8634809393788
 20
-133.4404660209205
 30
0.0
 10
124.8634809393788
 20
-133.495490655374
 30
0.0
  0
SPLINE
  5
D7
330
1F
100
AcDbEntity
  8
_U+30EC_U+30A4_U+30E4_U+30FC 1
 62
   179
420
  2234388
370
     9
100
AcDbSpline
210
0.0
220
0.0
230
1.0
 70
    11
 71
     3
 72
    17
 73
    13
 74
     0
 42
0.0000000001
 43
0.0000000001
 12
1.0
 22
0.0
 32
0.0
 13
1.0
 23
0.0
 33
0.0
 40
0.0
 40
0.0
 40
0.0
 40
0.0
 40
1.0
 40
1.0
 40
1.0
 40
2.0
 40
2.0
 40
2.0
 40
3.0
 40
3.0
 40
3.0
 40
4.0
 40
4.0
 40
4.0
 40
4.0
 10
81.73709740184763
 20
-163.5946008909047
 30
0.0
 10
81.73709740184763
 20
-163.6496362912816
 30
0.0
 10
81.78189440907927
 20
-163.6944440644367
 30
0.0
 10
81.83692980945614
 20
-163.6944440644367
 30
0.0
 10
81.891965209833
 20
-163.6944440644367
 30
0.0
 10
81.93676221706464
 20
-163.6496362912816
 30
0.0
 10
81.93676221706464
 20
-163.5946008909047
 30
0.0
 10
81.93676221706464
 20
-163.5395762564513
 30
0.0
 10
81.891965209833
 20
-163.4947684832962
 30
0.0
 10
81.83692980945614
 20
-163.4947684832962
 30
0.0
 10
81.78189440907927
 20
-163.4947684832962
 30
0.0
 10
81.73709740184763
 20
-163.5395762564513
 30
0.0
 10
81.73709740184763
 20
-163.5946008909047
 30
0.0
  0
POLYLINE
  5
D8
330
1F
100
AcDbEntity
  8
_U+30EC_U+30A4_U+30E4_U+30FC 1
 62
   179
420
  2234388
370
     9
100
AcDb2dPolyline
 66
     1
 10
0.0
 20
0.0
 30
0.0
  0
VERTEX
  5
D9
330
D8
100
AcDbEntity
  8
_U+30EC_U+30A4_U+30E4_U+30FC 1
 62
   179
420
  2234388
370
     9
100
AcDbVertex
100
AcDb2dVertex
 10
124.963388708451
 20
-133.495490655374
 30
0.0
  0
VERTEX
  5
DA
330
D8
100
AcDbEntity
  8
_U+30EC_U+30A4_U+30E4_U+30FC 1
 62
   179
420
  2234388
370
     9
100
AcDbVertex
100
AcDb2dVertex
 10
98.96330691088744
 20
-133.495490655374
 30
0.0
  0
SEQEND
  5
DB
330
D8
100
AcDbEntity
  8
_U+30EC_U+30A4_U+30E4_U+30FC 1
 62
   179
420
  2234388
370
     9
  0
POLYLINE
  5
DC
330
1F
100
AcDbEntity
  8
_U+30EC_U+30A4_U+30E4_U+30FC 1
 62
   179
420
  2234388
370
     9
100
AcDb2dPolyline
 66
     1
 10
0.0
 20
0.0
 30
0.0
  0
VERTEX
  5
DD
330
DC
100
AcDbEntity
  8
_U+30EC_U+30A4_U+30E4_U+30FC 1
 62
   179
420
  2234388
370
     9
100
AcDbVertex
100
AcDb2dVertex
 10
124.963388708451
 20
-135.7554625277745
 30
0.0
  0
VERTEX
  5
DE
330
DC
100
AcDbEntity
  8
_U+30EC_U+30A4_U+30E4_U+30FC 1
 62
   179
420
  2234388
370
     9
100
AcDbVertex
100
AcDb2dVertex
 10
124.963388708451
 20
-132.4957993070182
 30
0.0
  0
SEQEND
  5
DF
330
DC
100
AcDbEntity
  8
_U+30EC_U+30A4_U+30E4_U+30FC 1
 62
   179
420
  2234388
370
     9
  0
POLYLINE
  5
E0
330
1F
100
AcDbEntity
  8
_U+30EC_U+30A4_U+30E4_U+30FC 1
 62
   179
420
  2234388
370
     9
100
AcDb2dPolyline
 66
     1
 10
0.0
 20
0.0
 30
0.0
  0
VERTEX
  5
E1
330
E0
100
AcDbEntity
  8
_U+30EC_U+30A4_U+30E4_U+30FC 1
 62
   179
420
  2234388
370
     9
100
AcDbVertex
100
AcDb2dVertex
 10
98.96326384719387
 20
-135.55564698963
 30
0.0
  0
VERTEX
  5
E2
330
E0
100
AcDbEntity
  8
_U+30EC_U+30A4_U+30E4_U+30FC 1
 62
   179
420
  2234388
370
     9
100
AcDbVertex
100
AcDb2dVertex
 10
98.96326384719387
 20
-132.4956593500144
 30
0.0
  0
SEQEND
  5
E3
330
E0
100
AcDbEntity
  8
_U+30EC_U+30A4_U+30E4_U+30FC 1
 62
   179
420
  2234388
370
     9
  0
INSERT
  5
E5
330
1F
100
AcDbEntity
  8
_U+30EC_U+30A4_U+30E4_U+30FC 1
100
AcDbBlockReference
  2
block 3
 10
0.0
 20
0.0
 30
0.0
  0
SPLINE
  5
ED
330
1F
100
AcDbEntity
  8
_U+30EC_U+30A4_U+30E4_U+30FC 1
 62
   179
420
  2234388
370
     9
100
AcDbSpline
210
0.0
220
0.0
230
1.0
 70
    11
 71
     3
 72
    17
 73
    13
 74
     0
 42
0.0000000001
 43
0.0000000001
 12
1.0
 22
0.0
 32
0.0
 13
1.0
 23
0.0
 33
0.0
 40
0.0
 40
0.0
 40
0.0
 40
0.0
 40
1.0
 40
1.0
 40
1.0
 40
2.0
 40
2.0
 40
2.0
 40
3.0
 40
3.0
 40
3.0
 40
4.0
 40
4.0
 40
4.0
 40
4.0
 10
127.8104371493082
 20
-143.7046758504399
 30
0.0
 10
127.8654510178383
 20
-143.7046758504399
 30
0.0
 10
127.9102587909934
 20
-143.6598788432083
 30
0.0
 10
127.9102587909934
 20
-143.6048434428314
 30
0.0
 10
127.9102587909934
 20
-143.5498080424546
 30
0.0
 10
127.8654510178383
 20
-143.5050110352229
 30
0.0
 10
127.8104371493082
 20
-143.5050110352229
 30
0.0
 10
127.7554017489314
 20
-143.5050110352229
 30
0.0
 10
127.7105939757763
 20
-143.5498080424546
 30
0.0
 10
127.7105939757763
 20
-143.6048434428314
 30
0.0
 10
127.7105939757763
 20
-143.6598788432083
 30
0.0
 10
127.7554017489314
 20
-143.7046758504399
 30
0.0
 10
127.8104371493082
 20
-143.7046758504399
 30
0.0
  0
SPLINE
  5
EE
330
1F
100
AcDbEntity
  8
_U+30EC_U+30A4_U+30E4_U+30FC 1
 62
   179
420
  2234388
370
     9
100
AcDbSpline
210
0.0
220
0.0
230
1.0
 70
    11
 71
     3
 72
    17
 73
    13
 74
     0
 42
0.0000000001
 43
0.0000000001
 12
1.0
 22
0.0
 32
0.0
 13
1.0
 23
0.0
 33
0.0
 40
0.0
 40
0.0
 40
0.0
 40
0.0
 40
1.0
 40
1.0
 40
1.0
 40
2.0
 40
2.0
 40
2.0
 40
3.0
 40
3.0
 40
3.0
 40
4.0
 40
4.0
 40
4.0
 40
4.0
 10
127.8104371493082
 20
-137.7050097651072
 30
0.0
 10
127.8654510178383
 20
-137.7050097651072
 30
0.0
 10
127.9102587909934
 20
-137.6602127578755
 30
0.0
 10
127.9102587909934
 20
-137.6048220820271
 30
0.0
 10
127.9102587909934
 20
-137.5497974475733
 30
0.0
 10
127.8654510178383
 20
-137.5049896744183
 30
0.0
 10
127.8104371493082
 20
-137.5049896744183
 30
0.0
 10
127.7554017489314
 20
-137.5049896744183
 30
0.0
 10
127.7105939757763
 20
-137.5497974475733
 30
0.0
 10
127.7105939757763
 20
-137.6048220820271
 30
0.0
 10
127.7105939757763
 20
-137.6602127578755
 30
0.0
 10
127.7554017489314
 20
-137.7050097651072
 30
0.0
 10
127.8104371493082
 20
-137.7050097651072
 30
0.0
  0
POLYLINE
  5
EF
330
1F
100
AcDbEntity
  8
_U+30EC_U+30A4_U+30E4_U+30FC 1
 62
   179
420
  2234388
370
     9
100
AcDb2dPolyline
 66
     1
 10
0.0
 20
0.0
 30
0.0
  0
VERTEX
  5
F0
330
EF
100
AcDbEntity
  8
_U+30EC_U+30A4_U+30E4_U+30FC 1
 62
   179
420
  2234388
370
     9
100
AcDbVertex
100
AcDb2dVertex
 10
127.8104371493082
 20
-137.6047897842566
 30
0.0
  0
VERTEX
  5
F1
330
EF
100
AcDbEntity
  8
_U+30EC_U+30A4_U+30E4_U+30FC 1
 62
   179
420
  2234388
370
     9
100
AcDbVertex
100
AcDb2dVertex
 10
127.8104371493082
 20
-143.6048434428314
 30
0.0
  0
SEQEND
  5
F2
330
EF
100
AcDbEntity
  8
_U+30EC_U+30A4_U+30E4_U+30FC 1
 62
   179
420
  2234388
370
     9
  0
POLYLINE
  5
F3
330
1F
100
AcDbEntity
  8
_U+30EC_U+30A4_U+30E4_U+30FC 1
 62
   179
420
  2234388
370
     9
100
AcDb2dPolyline
 66
     1
 10
0.0
 20
0.0
 30
0.0
  0
VERTEX
  5
F4
330
F3
100
AcDbEntity
  8
_U+30EC_U+30A4_U+30E4_U+30FC 1
 62
   179
420
  2234388
370
     9
100
AcDbVertex
100
AcDb2dVertex
 10
128.803636645859
 20
-137.6047897842566
 30
0.0
  0
VERTEX
  5
F5
330
F3
100
AcDbEntity
  8
_U+30EC_U+30A4_U+30E4_U+30FC 1
 62
   179
420
  2234388
370
     9
100
AcDbVertex
100
AcDb2dVertex
 10
125.543951893256
 20
-137.6047897842566
 30
0.0
  0
SEQEND
  5
F6
330
F3
100
AcDbEntity
  8
_U+30EC_U+30A4_U+30E4_U+30FC 1
 62
   179
420
  2234388
370
     9
  0
POLYLINE
  5
F7
330
1F
100
AcDbEntity
  8
_U+30EC_U+30A4_U+30E4_U+30FC 1
 62
   179
420
  2234388
370
     9
100
AcDb2dPolyline
 66
     1
 10
0.0
 20
0.0
 30
0.0
  0
VERTEX
  5
F8
330
F7
100
AcDbEntity
  8
_U+30EC_U+30A4_U+30E4_U+30FC 1
 62
   179
420
  2234388
370
     9
100
AcDbVertex
100
AcDb2dVertex
 10
128.803636645859
 20
-143.6047680813677
 30
0.0
  0
VERTEX
  5
F9
330
F7
100
AcDbEntity
  8
_U+30EC_U+30A4_U+30E4_U+30FC 1
 62
   179
420
  2234388
370
     9
100
AcDbVertex
100
AcDb2dVertex
 10
125.543951893256
 20
-143.6047680813677
 30
0.0
  0
SEQEND
  5
FA
330
F7
100
AcDbEntity
  8
_U+30EC_U+30A4_U+30E4_U+30FC 1
 62
   179
420
  2234388
370
     9
  0
INSERT
  5
FC
330
1F
100
AcDbEntity
  8
_U+30EC_U+30A4_U+30E4_U+30FC 1
100
AcDbBlockReference
  2
block 4
 10
0.0
 20
0.0
 30
0.0
  0
POLYLINE
  5
102
330
1F
100
AcDbEntity
  8
_U+30EC_U+30A4_U+30E4_U+30FC 1
 62
   179
420
  2234388
370
     9
100
AcDb2dPolyline
 66
     1
 10
0.0
 20
0.0
 30
0.0
  0
VERTEX
  5
103
330
102
100
AcDbEntity
  8
_U+30EC_U+30A4_U+30E4_U+30FC 1
 62
   179
420
  2234388
370
     9
100
AcDbVertex
100
AcDb2dVertex
 10
81.83700517091988
 20
-137.5947667095792
 30
0.0
  0
VERTEX
  5
104
330
102
100
AcDbEntity
  8
_U+30EC_U+30A4_U+30E4_U+30FC 1
 62
   179
420
  2234388
370
     9
100
AcDbVertex
100
AcDb2dVertex
 10
81.83700517091988
 20
-163.5944932316708
 30
0.0
  0
SEQEND
  5
105
330
102
100
AcDbEntity
  8
_U+30EC_U+30A4_U+30E4_U+30FC 1
 62
   179
420
  2234388
370
     9
  0
POLYLINE
  5
106
330
1F
100
AcDbEntity
  8
_U+30EC_U+30A4_U+30E4_U+30FC 1
 62
   179
420
  2234388
370
     9
100
AcDb2dPolyline
 66
     1
 10
0.0
 20
0.0
 30
0.0
  0
VERTEX
  5
107
330
106
100
AcDbEntity
  8
_U+30EC_U+30A4_U+30E4_U+30FC 1
 62
   179
420
  2234388
370
     9
100
AcDbVertex
100
AcDb2dVertex
 10
80.54717218716573
 20
-137.5947667095792
 30
0.0
  0
VERTEX
  5
108
330
106
100
AcDbEntity
  8
_U+30EC_U+30A4_U+30E4_U+30FC 1
 62
   179
420
  2234388
370
     9
100
AcDbVertex
100
AcDb2dVertex
 10
84.90714507629383
 20
-137.5947667095792
 30
0.0
  0
SEQEND
  5
109
330
106
100
AcDbEntity
  8
_U+30EC_U+30A4_U+30E4_U+30FC 1
 62
   179
420
  2234388
370
     9
  0
POLYLINE
  5
10A
330
1F
100
AcDbEntity
  8
_U+30EC_U+30A4_U+30E4_U+30FC 1
 62
   179
420
  2234388
370
     9
100
AcDb2dPolyline
 66
     1
 10
0.0
 20
0.0
 30
0.0
  0
VERTEX
  5
10B
330
10A
100
AcDbEntity
  8
_U+30EC_U+30A4_U+30E4_U+30FC 1
 62
   179
420
  2234388
370
     9
100
AcDbVertex
100
AcDb2dVertex
 10
80.54717218716573
 20
-163.5946008909047
 30
0.0
  0
VERTEX
  5
10C
330
10A
100
AcDbEntity
  8
_U+30EC_U+30A4_U+30E4_U+30FC 1
 62
   179
420
  2234388
370
     9
100
AcDbVertex
100
AcDb2dVertex
 10
84.90714507629383
 20
-163.5946008909047
 30
0.0
  0
SEQEND
  5
10D
330
10A
100
AcDbEntity
  8
_U+30EC_U+30A4_U+30E4_U+30FC 1
 62
   179
420
  2234388
370
     9
  0
INSERT
  5
10F
330
1F
100
AcDbEntity
  8
_U+30EC_U+30A4_U+30E4_U+30FC 1
100
AcDbBlockReference
  2
block 5
 10
0.0
 20
0.0
 30
0.0
  0
POLYLINE
  5
117
330
1F
100
AcDbEntity
  8
_U+30EC_U+30A4_U+30E4_U+30FC 1
 62
   179
420
  2234388
370
    25
100
AcDb2dPolyline
 66
     1
 10
0.0
 20
0.0
 30
0.0
  0
VERTEX
  5
118
330
117
100
AcDbEntity
  8
_U+30EC_U+30A4_U+30E4_U+30FC 1
 62
   179
420
  2234388
370
    25
100
AcDbVertex
100
AcDb2dVertex
 10
87.85835382596294
 20
-138.5142842264391
 30
0.0
  0
VERTEX
  5
119
330
117
100
AcDbEntity
  8
_U+30EC_U+30A4_U+30E4_U+30FC 1
 62
   179
420
  2234388
370
    25
100
AcDbVertex
100
AcDb2dVertex
 10
97.85818487475963
 20
-138.5142842264391
 30
0.0
  0
SEQEND
  5
11A
330
117
100
AcDbEntity
  8
_U+30EC_U+30A4_U+30E4_U+30FC 1
 62
   179
420
  2234388
370
    25
  0
POLYLINE
  5
11B
330
1F
100
AcDbEntity
  8
_U+30EC_U+30A4_U+30E4_U+30FC 1
 62
   179
420
  2234388
370
    25
100
AcDb2dPolyline
 66
     1
 10
0.0
 20
0.0
 30
0.0
  0
VERTEX
  5
11C
330
11B
100
AcDbEntity
  8
_U+30EC_U+30A4_U+30E4_U+30FC 1
 62
   179
420
  2234388
370
    25
100
AcDbVertex
100
AcDb2dVertex
 10
86.86373322752485
 20
-137.4949020042005
 30
0.0
  0
VERTEX
  5
11D
330
11B
100
AcDbEntity
  8
_U+30EC_U+30A4_U+30E4_U+30FC 1
 62
   179
420
  2234388
370
    25
100
AcDbVertex
100
AcDb2dVertex
 10
98.86346373735553
 20
-137.4949020042005
 30
0.0
  0
SEQEND
  5
11E
330
11B
100
AcDbEntity
  8
_U+30EC_U+30A4_U+30E4_U+30FC 1
 62
   179
420
  2234388
370
    25
  0
POLYLINE
  5
11F
330
1F
100
AcDbEntity
  8
_U+30EC_U+30A4_U+30E4_U+30FC 1
 62
   179
420
  2234388
370
    25
100
AcDb2dPolyline
 66
     1
 10
0.0
 20
0.0
 30
0.0
  0
VERTEX
  5
120
330
11F
100
AcDbEntity
  8
_U+30EC_U+30A4_U+30E4_U+30FC 1
 62
   179
420
  2234388
370
    25
100
AcDbVertex
100
AcDb2dVertex
 10
98.86336684404502
 20
-143.631650592076
 30
0.0
  0
VERTEX
  5
121
330
11F
100
AcDbEntity
  8
_U+30EC_U+30A4_U+30E4_U+30FC 1
 62
   179
420
  2234388
370
    25
100
AcDbVertex
100
AcDb2dVertex
 10
98.86336684404502
 20
-137.6316076994249
 30
0.0
  0
SEQEND
  5
122
330
11F
100
AcDbEntity
  8
_U+30EC_U+30A4_U+30E4_U+30FC 1
 62
   179
420
  2234388
370
    25
  0
POLYLINE
  5
123
330
1F
100
AcDbEntity
  8
_U+30EC_U+30A4_U+30E4_U+30FC 1
 62
   179
420
  2234388
370
    25
100
AcDb2dPolyline
 66
     1
 10
0.0
 20
0.0
 30
0.0
  0
VERTEX
  5
124
330
123
100
AcDbEntity
  8
_U+30EC_U+30A4_U+30E4_U+30FC 1
 62
   179
420
  2234388
370
    25
100
AcDbVertex
100
AcDb2dVertex
 10
97.85808798144912
 20
-144.6920294505892
 30
0.0
  0
VERTEX
  5
125
330
123
100
AcDbEntity
  8
_U+30EC_U+30A4_U+30E4_U+30FC 1
 62
   179
420
  2234388
370
    25
100
AcDbVertex
100
AcDb2dVertex
 10
97.85808798144912
 20
-138.5141873331286
 30
0.0
  0
SEQEND
  5
126
330
123
100
AcDbEntity
  8
_U+30EC_U+30A4_U+30E4_U+30FC 1
 62
   179
420
  2234388
370
    25
  0
POLYLINE
  5
127
330
1F
100
AcDbEntity
  8
_U+30EC_U+30A4_U+30E4_U+30FC 1
 62
   179
420
  2234388
370
     9
100
AcDb2dPolyline
 66
     1
 10
0.0
 20
0.0
 30
0.0
  0
VERTEX
  5
128
330
127
100
AcDbEntity
  8
_U+30EC_U+30A4_U+30E4_U+30FC 1
 62
   179
420
  2234388
370
     9
100
AcDbVertex
100
AcDb2dVertex
 10
87.43664184079817
 20
-136.5244078400822
 30
0.0
  0
VERTEX
  5
129
330
127
100
AcDbEntity
  8
_U+30EC_U+30A4_U+30E4_U+30FC 1
 62
   179
420
  2234388
370
     9
100
AcDbVertex
100
AcDb2dVertex
 10
87.9936707170695
 20
-137.3548481068017
 30
0.0
  0
SEQEND
  5
12A
330
127
100
AcDbEntity
  8
_U+30EC_U+30A4_U+30E4_U+30FC 1
 62
   179
420
  2234388
370
     9
  0
POLYLINE
  5
12B
330
1F
100
AcDbEntity
  8
_U+30EC_U+30A4_U+30E4_U+30FC 1
 62
   179
420
  2234388
370
     9
100
AcDb2dPolyline
 66
     1
 10
0.0
 20
0.0
 30
0.0
  0
VERTEX
  5
12C
330
12B
100
AcDbEntity
  8
_U+30EC_U+30A4_U+30E4_U+30FC 1
 62
   179
420
  2234388
370
     9
100
AcDbVertex
100
AcDb2dVertex
 10
87.92690046019601
 20
-136.3576544526727
 30
0.0
  0
VERTEX
  5
12D
330
12B
100
AcDbEntity
  8
_U+30EC_U+30A4_U+30E4_U+30FC 1
 62
   179
420
  2234388
370
     9
100
AcDbVertex
100
AcDb2dVertex
 10
87.993573823759
 20
-137.3549665319593
 30
0.0
  0
SEQEND
  5
12E
330
12B
100
AcDbEntity
  8
_U+30EC_U+30A4_U+30E4_U+30FC 1
 62
   179
420
  2234388
370
     9
  0
POLYLINE
  5
12F
330
1F
100
AcDbEntity
  8
_U+30EC_U+30A4_U+30E4_U+30FC 1
 62
   179
420
  2234388
370
     9
100
AcDb2dPolyline
 66
     1
 10
0.0
 20
0.0
 30
0.0
  0
VERTEX
  5
130
330
12F
100
AcDbEntity
  8
_U+30EC_U+30A4_U+30E4_U+30FC 1
 62
   179
420
  2234388
370
     9
100
AcDbVertex
100
AcDb2dVertex
 10
87.21788904340853
 20
-134.9951191882564
 30
0.0
  0
VERTEX
  5
131
330
12F
100
AcDbEntity
  8
_U+30EC_U+30A4_U+30E4_U+30FC 1
 62
   179
420
  2234388
370
     9
100
AcDbVertex
100
AcDb2dVertex
 10
87.99363841929966
 20
-137.3548588727251
 30
0.0
  0
SEQEND
  5
132
330
12F
100
AcDbEntity
  8
_U+30EC_U+30A4_U+30E4_U+30FC 1
 62
   179
420
  2234388
370
     9
  0
INSERT
  5
134
330
1F
100
AcDbEntity
  8
_U+30EC_U+30A4_U+30E4_U+30FC 1
100
AcDbBlockReference
  2
block 6
 10
0.0
 20
0.0
 30
0.0
  0
POLYLINE
  5
18F
330
1F
100
AcDbEntity
  8
_U+30EC_U+30A4_U+30E4_U+30FC 1
 62
   179
420
  2234388
370
    25
100
AcDb2dPolyline
 66
     1
 10
0.0
 20
0.0
 30
0.0
  0
VERTEX
  5
190
330
18F
100
AcDbEntity
  8
_U+30EC_U+30A4_U+30E4_U+30FC 1
 62
   179
420
  2234388
370
    25
100
AcDbVertex
100
AcDb2dVertex
 10
86.86373322752485
 20
-138.5142842264391
 30
0.0
  0
VERTEX
  5
191
330
18F
100
AcDbEntity
  8
_U+30EC_U+30A4_U+30E4_U+30FC 1
 62
   179
420
  2234388
370
    25
100
AcDbVertex
100
AcDb2dVertex
 10
87.85820310303545
 20
-138.5142842264391
 30
0.0
  0
SEQEND
  5
192
330
18F
100
AcDbEntity
  8
_U+30EC_U+30A4_U+30E4_U+30FC 1
 62
   179
420
  2234388
370
    25
  0
POLYLINE
  5
193
330
1F
100
AcDbEntity
  8
_U+30EC_U+30A4_U+30E4_U+30FC 1
 62
   179
420
  2234388
370
     9
100
AcDb2dPolyline
 66
     1
 10
0.0
 20
0.0
 30
0.0
  0
VERTEX
  5
194
330
193
100
AcDbEntity
  8
_U+30EC_U+30A4_U+30E4_U+30FC 1
 62
   179
420
  2234388
370
     9
100
AcDbVertex
100
AcDb2dVertex
 10
109.5665679657724
 20
-151.4730108942064
 30
0.0
  0
VERTEX
  5
195
330
193
100
AcDbEntity
  8
_U+30EC_U+30A4_U+30E4_U+30FC 1
 62
   179
420
  2234388
370
     9
100
AcDbVertex
100
AcDb2dVertex
 10
109.2275382722537
 20
-159.172034923179
 30
0.0
  0
VERTEX
  5
196
330
193
100
AcDbEntity
  8
_U+30EC_U+30A4_U+30E4_U+30FC 1
 62
   179
420
  2234388
370
     9
100
AcDbVertex
100
AcDb2dVertex
 10
109.0388116352023
 20
-159.2789297765323
 30
0.0
  0
VERTEX
  5
197
330
193
100
AcDbEntity
  8
_U+30EC_U+30A4_U+30E4_U+30FC 1
 62
   179
420
  2234388
370
     9
100
AcDbVertex
100
AcDb2dVertex
 10
109.2391870013632
 20
-151.3622403084322
 30
0.0
  0
VERTEX
  5
198
330
193
100
AcDbEntity
  8
_U+30EC_U+30A4_U+30E4_U+30FC 1
 62
   179
420
  2234388
370
     9
100
AcDbVertex
100
AcDb2dVertex
 10
110.867608275777
 20
-150.5035825565039
 30
0.0
  0
VERTEX
  5
199
330
193
100
AcDbEntity
  8
_U+30EC_U+30A4_U+30E4_U+30FC 1
 62
   179
420
  2234388
370
     9
100
AcDbVertex
100
AcDb2dVertex
 10
110.8192692797496
 20
-152.4071700668787
 30
0.0
  0
SEQEND
  5
19A
330
193
100
AcDbEntity
  8
_U+30EC_U+30A4_U+30E4_U+30FC 1
 62
   179
420
  2234388
370
     9
  0
POLYLINE
  5
19B
330
1F
100
AcDbEntity
  8
_U+30EC_U+30A4_U+30E4_U+30FC 1
 62
   179
420
  2234388
370
     9
100
AcDb2dPolyline
 66
     1
 10
0.0
 20
0.0
 30
0.0
  0
VERTEX
  5
19C
330
19B
100
AcDbEntity
  8
_U+30EC_U+30A4_U+30E4_U+30FC 1
 62
   179
420
  2234388
370
     9
100
AcDbVertex
100
AcDb2dVertex
 10
118.1007585018333
 20
-148.3186814679117
 30
0.0
  0
VERTEX
  5
19D
330
19B
100
AcDbEntity
  8
_U+30EC_U+30A4_U+30E4_U+30FC 1
 62
   179
420
  2234388
370
     9
100
AcDbVertex
100
AcDb2dVertex
 10
118.0965167280171
 20
-148.4538045723972
 30
0.0
  0
VERTEX
  5
19E
330
19B
100
AcDbEntity
  8
_U+30EC_U+30A4_U+30E4_U+30FC 1
 62
   179
420
  2234388
370
     9
100
AcDbVertex
100
AcDb2dVertex
 10
110.475814791717
 20
-152.9220826508428
 30
0.0
  0
VERTEX
  5
19F
330
19B
100
AcDbEntity
  8
_U+30EC_U+30A4_U+30E4_U+30FC 1
 62
   179
420
  2234388
370
     9
100
AcDbVertex
100
AcDb2dVertex
 10
110.52518731639
 20
-150.9796947525654
 30
0.0
  0
SEQEND
  5
1A0
330
19B
100
AcDbEntity
  8
_U+30EC_U+30A4_U+30E4_U+30FC 1
 62
   179
420
  2234388
370
     9
  0
POLYLINE
  5
1A1
330
1F
100
AcDbEntity
  8
_U+30EC_U+30A4_U+30E4_U+30FC 1
 62
   179
420
  2234388
370
     9
100
AcDb2dPolyline
 66
     1
 10
0.0
 20
0.0
 30
0.0
  0
VERTEX
  5
1A2
330
1A1
100
AcDbEntity
  8
_U+30EC_U+30A4_U+30E4_U+30FC 1
 62
   179
420
  2234388
370
     9
100
AcDbVertex
100
AcDb2dVertex
 10
110.5253380393175
 20
-150.979683986642
 30
0.0
  0
VERTEX
  5
1A3
330
1A1
100
AcDbEntity
  8
_U+30EC_U+30A4_U+30E4_U+30FC 1
 62
   179
420
  2234388
370
     9
100
AcDbVertex
100
AcDb2dVertex
 10
109.2525152145217
 20
-151.619276729402
 30
0.0
  0
SEQEND
  5
1A4
330
1A1
100
AcDbEntity
  8
_U+30EC_U+30A4_U+30E4_U+30FC 1
 62
   179
420
  2234388
370
     9
  0
POLYLINE
  5
1A5
330
1F
100
AcDbEntity
  8
_U+30EC_U+30A4_U+30E4_U+30FC 1
 62
   179
420
  2234388
370
     9
100
AcDb2dPolyline
 66
     1
 10
0.0
 20
0.0
 30
0.0
  0
VERTEX
  5
1A6
330
1A5
100
AcDbEntity
  8
_U+30EC_U+30A4_U+30E4_U+30FC 1
 62
   179
420
  2234388
370
     9
100
AcDbVertex
100
AcDb2dVertex
 10
110.4939876704017
 20
-152.6037019983888
 30
0.0
  0
VERTEX
  5
1A7
330
1A5
100
AcDbEntity
  8
_U+30EC_U+30A4_U+30E4_U+30FC 1
 62
   179
420
  2234388
370
     9
100
AcDbVertex
100
AcDb2dVertex
 10
118.1009307566076
 20
-148.3188644886093
 30
0.0
  0
SEQEND
  5
1A8
330
1A5
100
AcDbEntity
  8
_U+30EC_U+30A4_U+30E4_U+30FC 1
 62
   179
420
  2234388
370
     9
  0
POLYLINE
  5
1A9
330
1F
100
AcDbEntity
  8
_U+30EC_U+30A4_U+30E4_U+30FC 1
 62
   179
420
  2234388
370
     9
100
AcDb2dPolyline
 66
     1
 10
0.0
 20
0.0
 30
0.0
  0
VERTEX
  5
1AA
330
1A9
100
AcDbEntity
  8
_U+30EC_U+30A4_U+30E4_U+30FC 1
 62
   179
420
  2234388
370
     9
100
AcDbVertex
100
AcDb2dVertex
 10
131.0247112370463
 20
-156.1170103742466
 30
0.0
  0
VERTEX
  5
1AB
330
1A9
100
AcDbEntity
  8
_U+30EC_U+30A4_U+30E4_U+30FC 1
 62
   179
420
  2234388
370
     9
100
AcDbVertex
100
AcDb2dVertex
 10
118.0967966420253
 20
-148.4536215516995
 30
0.0
  0
VERTEX
  5
1AC
330
1A9
100
AcDbEntity
  8
_U+30EC_U+30A4_U+30E4_U+30FC 1
 62
   179
420
  2234388
370
     9
100
AcDbVertex
100
AcDb2dVertex
 10
118.100693906293
 20
-148.3188644886093
 30
0.0
  0
VERTEX
  5
1AD
330
1A9
100
AcDbEntity
  8
_U+30EC_U+30A4_U+30E4_U+30FC 1
 62
   179
420
  2234388
370
     9
100
AcDbVertex
100
AcDb2dVertex
 10
131.0388145966891
 20
-155.9730807444269
 30
0.0
  0
SEQEND
  5
1AE
330
1A9
100
AcDbEntity
  8
_U+30EC_U+30A4_U+30E4_U+30FC 1
 62
   179
420
  2234388
370
     9
  0
POLYLINE
  5
1AF
330
1F
100
AcDbEntity
  8
_U+30EC_U+30A4_U+30E4_U+30FC 1
 62
   179
420
  2234388
370
     9
100
AcDb2dPolyline
 66
     1
 10
0.0
 20
0.0
 30
0.0
  0
VERTEX
  5
1B0
330
1AF
100
AcDbEntity
  8
_U+30EC_U+30A4_U+30E4_U+30FC 1
 62
   179
420
  2234388
370
     9
100
AcDbVertex
100
AcDb2dVertex
 10
121.9668446553807
 20
-166.9428784270957
 30
0.0
  0
VERTEX
  5
1B1
330
1AF
100
AcDbEntity
  8
_U+30EC_U+30A4_U+30E4_U+30FC 1
 62
   179
420
  2234388
370
     9
100
AcDbVertex
100
AcDb2dVertex
 10
109.038940826283
 20
-159.2787898195282
 30
0.0
  0
VERTEX
  5
1B2
330
1AF
100
AcDbEntity
  8
_U+30EC_U+30A4_U+30E4_U+30FC 1
 62
   179
420
  2234388
370
     9
100
AcDbVertex
100
AcDb2dVertex
 10
109.2276782292578
 20
-159.1722502416468
 30
0.0
  0
VERTEX
  5
1B3
330
1AF
100
AcDbEntity
  8
_U+30EC_U+30A4_U+30E4_U+30FC 1
 62
   179
420
  2234388
370
     9
100
AcDbVertex
100
AcDb2dVertex
 10
122.2123723042451
 20
-166.8003591332402
 30
0.0
  0
SEQEND
  5
1B4
330
1AF
100
AcDbEntity
  8
_U+30EC_U+30A4_U+30E4_U+30FC 1
 62
   179
420
  2234388
370
     9
  0
POLYLINE
  5
1B5
330
1F
100
AcDbEntity
  8
_U+30EC_U+30A4_U+30E4_U+30FC 1
 62
   179
420
  2234388
370
     9
100
AcDb2dPolyline
 66
     1
 10
0.0
 20
0.0
 30
0.0
  0
VERTEX
  5
1B6
330
1B5
100
AcDbEntity
  8
_U+30EC_U+30A4_U+30E4_U+30FC 1
 62
   179
420
  2234388
370
     9
100
AcDbVertex
100
AcDb2dVertex
 10
110.4757071324831
 20
-152.9220503530726
 30
0.0
  0
VERTEX
  5
1B7
330
1B5
100
AcDbEntity
  8
_U+30EC_U+30A4_U+30E4_U+30FC 1
 62
   179
420
  2234388
370
     9
100
AcDbVertex
100
AcDb2dVertex
 10
123.4787248090826
 20
-160.6150777627163
 30
0.0
  0
SEQEND
  5
1B8
330
1B5
100
AcDbEntity
  8
_U+30EC_U+30A4_U+30E4_U+30FC 1
 62
   179
420
  2234388
370
     9
  0
POLYLINE
  5
1B9
330
1F
100
AcDbEntity
  8
_U+30EC_U+30A4_U+30E4_U+30FC 1
 62
   179
420
  2234388
370
     9
100
AcDb2dPolyline
 66
     1
 10
0.0
 20
0.0
 30
0.0
  0
VERTEX
  5
1BA
330
1B9
100
AcDbEntity
  8
_U+30EC_U+30A4_U+30E4_U+30FC 1
 62
   179
420
  2234388
370
     9
100
AcDbVertex
100
AcDb2dVertex
 10
110.8677805305513
 20
-150.5035825565039
 30
0.0
  0
VERTEX
  5
1BB
330
1B9
100
AcDbEntity
  8
_U+30EC_U+30A4_U+30E4_U+30FC 1
 62
   179
420
  2234388
370
     9
100
AcDbVertex
100
AcDb2dVertex
 10
112.4894946346923
 20
-151.4694904372574
 30
0.0
  0
SEQEND
  5
1BC
330
1B9
100
AcDbEntity
  8
_U+30EC_U+30A4_U+30E4_U+30FC 1
 62
   179
420
  2234388
370
     9
  0
POLYLINE
  5
1BD
330
1F
100
AcDbEntity
  8
_U+30EC_U+30A4_U+30E4_U+30FC 1
 62
   179
420
  2234388
370
     9
100
AcDb2dPolyline
 66
     1
 10
0.0
 20
0.0
 30
0.0
  0
VERTEX
  5
1BE
330
1BD
100
AcDbEntity
  8
_U+30EC_U+30A4_U+30E4_U+30FC 1
 62
   179
420
  2234388
370
     9
100
AcDbVertex
100
AcDb2dVertex
 10
109.5665679657724
 20
-151.4730108942064
 30
0.0
  0
VERTEX
  5
1BF
330
1BD
100
AcDbEntity
  8
_U+30EC_U+30A4_U+30E4_U+30FC 1
 62
   179
420
  2234388
370
     9
100
AcDbVertex
100
AcDb2dVertex
 10
110.4985954856132
 20
-152.0360471557301
 30
0.0
  0
SEQEND
  5
1C0
330
1BD
100
AcDbEntity
  8
_U+30EC_U+30A4_U+30E4_U+30FC 1
 62
   179
420
  2234388
370
     9
  0
SPLINE
  5
1C1
330
1F
100
AcDbEntity
  8
_U+30EC_U+30A4_U+30E4_U+30FC 1
 62
   179
420
  2234388
370
     9
100
AcDbSpline
210
0.0
220
0.0
230
1.0
 70
     8
 71
     3
 72
    11
 73
     7
 74
     0
 42
0.0000000001
 43
0.0000000001
 12
1.0
 22
0.0
 32
0.0
 13
1.0
 23
0.0
 33
0.0
 40
0.0
 40
0.0
 40
0.0
 40
0.0
 40
1.0
 40
1.0
 40
1.0
 40
2.0
 40
2.0
 40
2.0
 40
2.0
 10
111.2987835076028
 20
-156.1121872405672
 30
0.0
 10
111.3978945983441
 20
-155.8998186357483
 30
0.0
 10
111.3643910447501
 20
-155.5657412669896
 30
0.0
 10
111.1908228278338
 20
-155.2503535412384
 30
0.0
 10
110.9654059238646
 20
-154.8397196912434
 30
0.0
 10
110.5857994650836
 20
-154.6114713494222
 30
0.0
 10
110.3236922941964
 20
-154.721186874704
 30
0.0
  0
SPLINE
  5
1C2
330
1F
100
AcDbEntity
  8
_U+30EC_U+30A4_U+30E4_U+30FC 1
 62
   179
420
  2234388
370
     9
100
AcDbSpline
210
0.0
220
0.0
230
1.0
 70
    11
 71
     3
 72
    17
 73
    13
 74
     0
 42
0.0000000001
 43
0.0000000001
 12
1.0
 22
0.0
 32
0.0
 13
1.0
 23
0.0
 33
0.0
 40
0.0
 40
0.0
 40
0.0
 40
0.0
 40
1.0
 40
1.0
 40
1.0
 40
2.0
 40
2.0
 40
2.0
 40
3.0
 40
3.0
 40
3.0
 40
4.0
 40
4.0
 40
4.0
 40
4.0
 10
111.3314903828659
 20
-156.0977178395292
 30
0.0
 10
111.0697277215273
 20
-156.2409476843284
 30
0.0
 10
110.6668453363741
 20
-156.0109444969945
 30
0.0
 10
110.43188982428
 20
-155.5830205740328
 30
0.0
 10
110.1965898026375
 20
-155.1543968660508
 30
0.0
 10
110.2184661589688
 20
-154.6908485025871
 30
0.0
 10
110.4795182693636
 20
-154.5472633823159
 30
0.0
 10
110.7412809307023
 20
-154.4033337524962
 30
0.0
 10
111.1441633158555
 20
-154.6344027662459
 30
0.0
 10
111.379463337498
 20
-155.0619714137356
 30
0.0
 10
111.6143973177453
 20
-155.4898845707738
 30
0.0
 10
111.5928870028092
 20
-155.9537882097095
 30
0.0
 10
111.3314903828659
 20
-156.0977178395292
 30
0.0
  0
SPLINE
  5
1C3
330
1F
100
AcDbEntity
  8
_U+30EC_U+30A4_U+30E4_U+30FC 1
 62
   179
420
  2234388
370
     9
100
AcDbSpline
210
0.0
220
0.0
230
1.0
 70
     8
 71
     3
 72
    11
 73
     7
 74
     0
 42
0.0000000001
 43
0.0000000001
 12
1.0
 22
0.0
 32
0.0
 13
1.0
 23
0.0
 33
0.0
 40
0.0
 40
0.0
 40
0.0
 40
0.0
 40
1.0
 40
1.0
 40
1.0
 40
2.0
 40
2.0
 40
2.0
 40
2.0
 10
111.2987835076028
 20
-159.2734283896793
 30
0.0
 10
111.3978945983441
 20
-159.0610597848604
 30
0.0
 10
111.3643910447501
 20
-158.7269824161017
 30
0.0
 10
111.1908228278338
 20
-158.4115946903505
 30
0.0
 10
110.9654059238646
 20
-158.0009608403554
 30
0.0
 10
110.5857994650836
 20
-157.7727124985342
 30
0.0
 10
110.3236922941964
 20
-157.8824280238161
 30
0.0
  0
SPLINE
  5
1C4
330
1F
100
AcDbEntity
  8
_U+30EC_U+30A4_U+30E4_U+30FC 1
 62
   179
420
  2234388
370
     9
100
AcDbSpline
210
0.0
220
0.0
230
1.0
 70
    11
 71
     3
 72
    17
 73
    13
 74
     0
 42
0.0000000001
 43
0.0000000001
 12
1.0
 22
0.0
 32
0.0
 13
1.0
 23
0.0
 33
0.0
 40
0.0
 40
0.0
 40
0.0
 40
0.0
 40
1.0
 40
1.0
 40
1.0
 40
2.0
 40
2.0
 40
2.0
 40
3.0
 40
3.0
 40
3.0
 40
4.0
 40
4.0
 40
4.0
 40
4.0
 10
111.3314903828659
 20
-159.258926690871
 30
0.0
 10
111.0697277215273
 20
-159.4021565356703
 30
0.0
 10
110.6668453363741
 20
-159.1714427973925
 30
0.0
 10
110.43188982428
 20
-158.7435188744309
 30
0.0
 10
110.1965898026375
 20
-158.3156057173927
 30
0.0
 10
110.2184661589688
 20
-157.8520573539289
 30
0.0
 10
110.4795182693636
 20
-157.7084722336577
 30
0.0
 10
110.7412809307023
 20
-157.564542603838
 30
0.0
 10
111.1441633158555
 20
-157.7956116175878
 30
0.0
 10
111.379463337498
 20
-158.2231802650774
 30
0.0
 10
111.6143973177453
 20
-158.6510934221157
 30
0.0
 10
111.5928870028092
 20
-159.1149970610513
 30
0.0
 10
111.3314903828659
 20
-159.258926690871
 30
0.0
  0
SPLINE
  5
1C5
330
1F
100
AcDbEntity
  8
_U+30EC_U+30A4_U+30E4_U+30FC 1
 62
   179
420
  2234388
370
     9
100
AcDbSpline
210
0.0
220
0.0
230
1.0
 70
     8
 71
     3
 72
    11
 73
     7
 74
     0
 42
0.0000000001
 43
0.0000000001
 12
1.0
 22
0.0
 32
0.0
 13
1.0
 23
0.0
 33
0.0
 40
0.0
 40
0.0
 40
0.0
 40
0.0
 40
1.0
 40
1.0
 40
1.0
 40
2.0
 40
2.0
 40
2.0
 40
2.0
 10
115.131775212645
 20
-158.3886955712969
 30
0.0
 10
115.2301972842892
 20
-158.1770375174219
 30
0.0
 10
115.1973827497922
 20
-157.8429493827398
 30
0.0
 10
115.0234700233275
 20
-157.527572422912
 30
0.0
 10
114.7980315875114
 20
-157.1162280219731
 30
0.0
 10
114.4181021510287
 20
-156.8879796801519
 30
0.0
 10
114.1566839992386
 20
-156.9976952054337
 30
0.0
  0
SPLINE
  5
1C6
330
1F
100
AcDbEntity
  8
_U+30EC_U+30A4_U+30E4_U+30FC 1
 62
   179
420
  2234388
370
     9
100
AcDbSpline
210
0.0
220
0.0
230
1.0
 70
    11
 71
     3
 72
    17
 73
    13
 74
     0
 42
0.0000000001
 43
0.0000000001
 12
1.0
 22
0.0
 32
0.0
 13
1.0
 23
0.0
 33
0.0
 40
0.0
 40
0.0
 40
0.0
 40
0.0
 40
1.0
 40
1.0
 40
1.0
 40
2.0
 40
2.0
 40
2.0
 40
3.0
 40
3.0
 40
3.0
 40
4.0
 40
4.0
 40
4.0
 40
4.0
 10
115.1641591102064
 20
-158.3742261702589
 30
0.0
 10
114.9023964488677
 20
-158.518166566002
 30
0.0
 10
114.4998585732631
 20
-158.2874528277241
 30
0.0
 10
114.2645585516205
 20
-157.8595289047626
 30
0.0
 10
114.0292585299779
 20
-157.4309051967805
 30
0.0
 10
114.0507903767607
 20
-156.9673568333168
 30
0.0
 10
114.3125530380994
 20
-156.8237717130456
 30
0.0
 10
114.5742941675912
 20
-156.6798420832259
 30
0.0
 10
114.9768320431959
 20
-156.9109110969756
 30
0.0
 10
115.2121320648385
 20
-157.3384797444653
 30
0.0
 10
115.447432086481
 20
-157.7671034524473
 30
0.0
 10
115.4259002396982
 20
-158.2302965404392
 30
0.0
 10
115.1641591102064
 20
-158.3742261702589
 30
0.0
  0
SPLINE
  5
1C7
330
1F
100
AcDbEntity
  8
_U+30EC_U+30A4_U+30E4_U+30FC 1
 62
   179
420
  2234388
370
     9
100
AcDbSpline
210
0.0
220
0.0
230
1.0
 70
     8
 71
     3
 72
    11
 73
     7
 74
     0
 42
0.0000000001
 43
0.0000000001
 12
1.0
 22
0.0
 32
0.0
 13
1.0
 23
0.0
 33
0.0
 40
0.0
 40
0.0
 40
0.0
 40
0.0
 40
1.0
 40
1.0
 40
1.0
 40
2.0
 40
2.0
 40
2.0
 40
2.0
 10
115.131775212645
 20
-161.549936720409
 30
0.0
 10
115.2301972842892
 20
-161.3382786665339
 30
0.0
 10
115.1973827497922
 20
-161.0041905318518
 30
0.0
 10
115.0234700233275
 20
-160.6881030210801
 30
0.0
 10
114.7980315875114
 20
-160.2774691710852
 30
0.0
 10
114.4181021510287
 20
-160.049220829264
 30
0.0
 10
114.1566839992386
 20
-160.1589363545458
 30
0.0
  0
SPLINE
  5
1C8
330
1F
100
AcDbEntity
  8
_U+30EC_U+30A4_U+30E4_U+30FC 1
 62
   179
420
  2234388
370
     9
100
AcDbSpline
210
0.0
220
0.0
230
1.0
 70
    11
 71
     3
 72
    17
 73
    13
 74
     0
 42
0.0000000001
 43
0.0000000001
 12
1.0
 22
0.0
 32
0.0
 13
1.0
 23
0.0
 33
0.0
 40
0.0
 40
0.0
 40
0.0
 40
0.0
 40
1.0
 40
1.0
 40
1.0
 40
2.0
 40
2.0
 40
2.0
 40
3.0
 40
3.0
 40
3.0
 40
4.0
 40
4.0
 40
4.0
 40
4.0
 10
115.1641591102064
 20
-161.5354673193709
 30
0.0
 10
114.9023964488677
 20
-161.679407715114
 30
0.0
 10
114.4998585732631
 20
-161.4486939768362
 30
0.0
 10
114.2645585516205
 20
-161.0207700538746
 30
0.0
 10
114.0292585299779
 20
-160.5921463458926
 30
0.0
 10
114.0507903767607
 20
-160.1285979824288
 30
0.0
 10
114.3125530380994
 20
-159.9850128621576
 30
0.0
 10
114.5742941675912
 20
-159.8410832323379
 30
0.0
 10
114.9768320431959
 20
-160.0721522460877
 30
0.0
 10
115.2121320648385
 20
-160.4997208935773
 30
0.0
 10
115.447432086481
 20
-160.9283446015594
 30
0.0
 10
115.4259002396982
 20
-161.3915376895512
 30
0.0
 10
115.1641591102064
 20
-161.5354673193709
 30
0.0
  0
SPLINE
  5
1C9
330
1F
100
AcDbEntity
  8
_U+30EC_U+30A4_U+30E4_U+30FC 1
 62
   179
420
  2234388
370
     9
100
AcDbSpline
210
0.0
220
0.0
230
1.0
 70
     8
 71
     3
 72
    11
 73
     7
 74
     0
 42
0.0000000001
 43
0.0000000001
 12
1.0
 22
0.0
 32
0.0
 13
1.0
 23
0.0
 33
0.0
 40
0.0
 40
0.0
 40
0.0
 40
0.0
 40
1.0
 40
1.0
 40
1.0
 40
2.0
 40
2.0
 40
2.0
 40
2.0
 10
113.2479754694636
 20
-158.8641295141848
 30
0.0
 10
113.3467420506564
 20
-158.6517609093659
 30
0.0
 10
113.3135830066108
 20
-158.3176835406072
 30
0.0
 10
113.1396702801461
 20
-158.002295814856
 30
0.0
 10
112.9145978857253
 20
-157.591661964861
 30
0.0
 10
112.5346469173959
 20
-157.3634136230398
 30
0.0
 10
112.2728842560572
 20
-157.4731291483216
 30
0.0
  0
SPLINE
  5
1CA
330
1F
100
AcDbEntity
  8
_U+30EC_U+30A4_U+30E4_U+30FC 1
 62
   179
420
  2234388
370
     9
100
AcDbSpline
210
0.0
220
0.0
230
1.0
 70
    11
 71
     3
 72
    17
 73
    13
 74
     0
 42
0.0000000001
 43
0.0000000001
 12
1.0
 22
0.0
 32
0.0
 13
1.0
 23
0.0
 33
0.0
 40
0.0
 40
0.0
 40
0.0
 40
0.0
 40
1.0
 40
1.0
 40
1.0
 40
2.0
 40
2.0
 40
2.0
 40
3.0
 40
3.0
 40
3.0
 40
4.0
 40
4.0
 40
4.0
 40
4.0
 10
113.280359367025
 20
-158.8496278153766
 30
0.0
 10
113.0189412152348
 20
-158.9928576601758
 30
0.0
 10
112.6160588300817
 20
-158.762143921898
 30
0.0
 10
112.3811248498344
 20
-158.3342199989364
 30
0.0
 10
112.1458248281918
 20
-157.9063068418982
 30
0.0
 10
112.1673351431279
 20
-157.4427584784345
 30
0.0
 10
112.428753294918
 20
-157.2988180826914
 30
0.0
 10
112.6904944244098
 20
-157.1552437283436
 30
0.0
 10
113.0930323000145
 20
-157.3856021911495
 30
0.0
 10
113.3286768312056
 20
-157.813881389583
 30
0.0
 10
113.5636323432996
 20
-158.2417945466212
 30
0.0
 10
113.5421004965168
 20
-158.7056981855569
 30
0.0
 10
113.280359367025
 20
-158.8496278153766
 30
0.0
  0
SPLINE
  5
1CB
330
1F
100
AcDbEntity
  8
_U+30EC_U+30A4_U+30E4_U+30FC 1
 62
   179
420
  2234388
370
     9
100
AcDbSpline
210
0.0
220
0.0
230
1.0
 70
     8
 71
     3
 72
    11
 73
     7
 74
     0
 42
0.0000000001
 43
0.0000000001
 12
1.0
 22
0.0
 32
0.0
 13
1.0
 23
0.0
 33
0.0
 40
0.0
 40
0.0
 40
0.0
 40
0.0
 40
1.0
 40
1.0
 40
1.0
 40
2.0
 40
2.0
 40
2.0
 40
2.0
 10
118.8008019044361
 20
-160.5749639321599
 30
0.0
 10
118.8992239760803
 20
-160.3633058782848
 30
0.0
 10
118.8660649320348
 20
-160.0292177436027
 30
0.0
 10
118.6924967151186
 20
-159.7138407837749
 30
0.0
 10
118.466713769754
 20
-159.3032069337799
 30
0.0
 10
118.0871288428198
 20
-159.0749585919587
 30
0.0
 10
117.8253661814812
 20
-159.1846741172405
 30
0.0
  0
SPLINE
  5
1CC
330
1F
100
AcDbEntity
  8
_U+30EC_U+30A4_U+30E4_U+30FC 1
 62
   179
420
  2234388
370
     9
100
AcDbSpline
210
0.0
220
0.0
230
1.0
 70
    11
 71
     3
 72
    17
 73
    13
 74
     0
 42
0.0000000001
 43
0.0000000001
 12
1.0
 22
0.0
 32
0.0
 13
1.0
 23
0.0
 33
0.0
 40
0.0
 40
0.0
 40
0.0
 40
0.0
 40
1.0
 40
1.0
 40
1.0
 40
2.0
 40
2.0
 40
2.0
 40
3.0
 40
3.0
 40
3.0
 40
4.0
 40
4.0
 40
4.0
 40
4.0
 10
118.8331858019974
 20
-160.5611297206019
 30
0.0
 10
118.5714231406588
 20
-160.7043595654012
 30
0.0
 10
118.1685407555056
 20
-160.4736458271234
 30
0.0
 10
117.933240733863
 20
-160.0457219041618
 30
0.0
 10
117.698285221769
 20
-159.6178087471235
 30
0.0
 10
117.7198170685518
 20
-159.1542603836598
 30
0.0
 10
117.9815797298905
 20
-159.0103199879167
 30
0.0
 10
118.2429763498338
 20
-158.8667456335689
 30
0.0
 10
118.645858734987
 20
-159.0971040963748
 30
0.0
 10
118.8811587566295
 20
-159.5253832948083
 30
0.0
 10
119.1164587782721
 20
-159.9532964518465
 30
0.0
 10
119.0949269314893
 20
-160.4172000907822
 30
0.0
 10
118.8331858019974
 20
-160.5611297206019
 30
0.0
  0
SPLINE
  5
1CD
330
1F
100
AcDbEntity
  8
_U+30EC_U+30A4_U+30E4_U+30FC 1
 62
   179
420
  2234388
370
     9
100
AcDbSpline
210
0.0
220
0.0
230
1.0
 70
     8
 71
     3
 72
    11
 73
     7
 74
     0
 42
0.0000000001
 43
0.0000000001
 12
1.0
 22
0.0
 32
0.0
 13
1.0
 23
0.0
 33
0.0
 40
0.0
 40
0.0
 40
0.0
 40
0.0
 40
1.0
 40
1.0
 40
1.0
 40
2.0
 40
2.0
 40
2.0
 40
2.0
 10
118.8008019044361
 20
-163.7361297198082
 30
0.0
 10
118.8992239760803
 20
-163.5244716659331
 30
0.0
 10
118.8660649320348
 20
-163.190383531251
 30
0.0
 10
118.6924967151186
 20
-162.8750065714232
 30
0.0
 10
118.466713769754
 20
-162.4636621704844
 30
0.0
 10
118.0871288428198
 20
-162.236124379607
 30
0.0
 10
117.8253661814812
 20
-162.3458399048888
 30
0.0
  0
SPLINE
  5
1CE
330
1F
100
AcDbEntity
  8
_U+30EC_U+30A4_U+30E4_U+30FC 1
 62
   179
420
  2234388
370
     9
100
AcDbSpline
210
0.0
220
0.0
230
1.0
 70
    11
 71
     3
 72
    17
 73
    13
 74
     0
 42
0.0000000001
 43
0.0000000001
 12
1.0
 22
0.0
 32
0.0
 13
1.0
 23
0.0
 33
0.0
 40
0.0
 40
0.0
 40
0.0
 40
0.0
 40
1.0
 40
1.0
 40
1.0
 40
2.0
 40
2.0
 40
2.0
 40
3.0
 40
3.0
 40
3.0
 40
4.0
 40
4.0
 40
4.0
 40
4.0
 10
118.8331858019974
 20
-163.722370869714
 30
0.0
 10
118.5714231406588
 20
-163.8656007145132
 30
0.0
 10
118.1685407555056
 20
-163.6348869762354
 30
0.0
 10
117.933240733863
 20
-163.2069630532738
 30
0.0
 10
117.698285221769
 20
-162.7790498962356
 30
0.0
 10
117.7198170685518
 20
-162.3155015327718
 30
0.0
 10
117.9815797298905
 20
-162.1715611370287
 30
0.0
 10
118.2429763498338
 20
-162.027986782681
 30
0.0
 10
118.645858734987
 20
-162.2583452454869
 30
0.0
 10
118.8811587566295
 20
-162.6866244439204
 30
0.0
 10
119.1164587782721
 20
-163.1145376009586
 30
0.0
 10
119.0949269314893
 20
-163.5784412398942
 30
0.0
 10
118.8331858019974
 20
-163.722370869714
 30
0.0
  0
SPLINE
  5
1CF
330
1F
100
AcDbEntity
  8
_U+30EC_U+30A4_U+30E4_U+30FC 1
 62
   179
420
  2234388
370
     9
100
AcDbSpline
210
0.0
220
0.0
230
1.0
 70
     8
 71
     3
 72
    11
 73
     7
 74
     0
 42
0.0000000001
 43
0.0000000001
 12
1.0
 22
0.0
 32
0.0
 13
1.0
 23
0.0
 33
0.0
 40
0.0
 40
0.0
 40
0.0
 40
0.0
 40
1.0
 40
1.0
 40
1.0
 40
2.0
 40
2.0
 40
2.0
 40
2.0
 10
116.9170452249483
 20
-161.0503978750477
 30
0.0
 10
117.015811806141
 20
-160.8387398211727
 30
0.0
 10
116.9826527620955
 20
-160.5046516864906
 30
0.0
 10
116.8087400356307
 20
-160.1885641757189
 30
0.0
 10
116.5833015998147
 20
-159.7779303257239
 30
0.0
 10
116.2037166728805
 20
-159.5496819839027
 30
0.0
 10
115.9419540115419
 20
-159.6593975091845
 30
0.0
  0
SPLINE
  5
1D0
330
1F
100
AcDbEntity
  8
_U+30EC_U+30A4_U+30E4_U+30FC 1
 62
   179
420
  2234388
370
     9
100
AcDbSpline
210
0.0
220
0.0
230
1.0
 70
    11
 71
     3
 72
    17
 73
    13
 74
     0
 42
0.0000000001
 43
0.0000000001
 12
1.0
 22
0.0
 32
0.0
 13
1.0
 23
0.0
 33
0.0
 40
0.0
 40
0.0
 40
0.0
 40
0.0
 40
1.0
 40
1.0
 40
1.0
 40
2.0
 40
2.0
 40
2.0
 40
3.0
 40
3.0
 40
3.0
 40
4.0
 40
4.0
 40
4.0
 40
4.0
 10
116.9494291225096
 20
-161.0359392399331
 30
0.0
 10
116.687666461171
 20
-161.1798796356762
 30
0.0
 10
116.2851285855663
 20
-160.9491658973984
 30
0.0
 10
116.0498285639237
 20
-160.5212419744367
 30
0.0
 10
115.8145285422812
 20
-160.0926182664547
 30
0.0
 10
115.836060389064
 20
-159.6290699029909
 30
0.0
 10
116.0978230504026
 20
-159.4854847827198
 30
0.0
 10
116.3595641798945
 20
-159.3415551529001
 30
0.0
 10
116.7624465650477
 20
-159.5726241666498
 30
0.0
 10
116.9977465866902
 20
-160.0001928141395
 30
0.0
 10
117.2327020987843
 20
-160.4288165221215
 30
0.0
 10
117.2111702520015
 20
-160.8920096101134
 30
0.0
 10
116.9494291225096
 20
-161.0359392399331
 30
0.0
  0
SPLINE
  5
1D1
330
1F
100
AcDbEntity
  8
_U+30EC_U+30A4_U+30E4_U+30FC 1
 62
   179
420
  2234388
370
     9
100
AcDbSpline
210
0.0
220
0.0
230
1.0
 70
     8
 71
     3
 72
    11
 73
     7
 74
     0
 42
0.0000000001
 43
0.0000000001
 12
1.0
 22
0.0
 32
0.0
 13
1.0
 23
0.0
 33
0.0
 40
0.0
 40
0.0
 40
0.0
 40
0.0
 40
1.0
 40
1.0
 40
1.0
 40
2.0
 40
2.0
 40
2.0
 40
2.0
 10
122.5025354714903
 20
-162.6881747368887
 30
0.0
 10
122.6009575431345
 20
-162.4765166830137
 30
0.0
 10
122.567798499089
 20
-162.1417287633111
 30
0.0
 10
122.3942302821727
 20
-161.8270515885037
 30
0.0
 10
122.1684473368082
 20
-161.4157071875649
 30
0.0
 10
121.788862409874
 20
-161.1874588457437
 30
0.0
 10
121.5270997485353
 20
-161.2971743710255
 30
0.0
  0
SPLINE
  5
1D2
330
1F
100
AcDbEntity
  8
_U+30EC_U+30A4_U+30E4_U+30FC 1
 62
   179
420
  2234388
370
     9
100
AcDbSpline
210
0.0
220
0.0
230
1.0
 70
    11
 71
     3
 72
    17
 73
    13
 74
     0
 42
0.0000000001
 43
0.0000000001
 12
1.0
 22
0.0
 32
0.0
 13
1.0
 23
0.0
 33
0.0
 40
0.0
 40
0.0
 40
0.0
 40
0.0
 40
1.0
 40
1.0
 40
1.0
 40
2.0
 40
2.0
 40
2.0
 40
3.0
 40
3.0
 40
3.0
 40
4.0
 40
4.0
 40
4.0
 40
4.0
 10
122.5349193690516
 20
-162.6737053358507
 30
0.0
 10
122.273156707713
 20
-162.8176457315938
 30
0.0
 10
121.8702743225598
 20
-162.5869319933159
 30
0.0
 10
121.6353188104657
 20
-162.1590080703544
 30
0.0
 10
121.4000187888232
 20
-161.7310841473927
 30
0.0
 10
121.4211845942107
 20
-161.267535783929
 30
0.0
 10
121.6829472555493
 20
-161.1232508786374
 30
0.0
 10
121.944709916888
 20
-160.9800210338381
 30
0.0
 10
122.3475923020411
 20
-161.2103902625674
 30
0.0
 10
122.5825262822884
 20
-161.6379589100571
 30
0.0
 10
122.817826303931
 20
-162.0665826180391
 30
0.0
 10
122.7963159889949
 20
-162.5304862569748
 30
0.0
 10
122.5349193690516
 20
-162.6737053358507
 30
0.0
  0
SPLINE
  5
1D3
330
1F
100
AcDbEntity
  8
_U+30EC_U+30A4_U+30E4_U+30FC 1
 62
   179
420
  2234388
370
     9
100
AcDbSpline
210
0.0
220
0.0
230
1.0
 70
     8
 71
     3
 72
    11
 73
     7
 74
     0
 42
0.0000000001
 43
0.0000000001
 12
1.0
 22
0.0
 32
0.0
 13
1.0
 23
0.0
 33
0.0
 40
0.0
 40
0.0
 40
0.0
 40
0.0
 40
1.0
 40
1.0
 40
1.0
 40
2.0
 40
2.0
 40
2.0
 40
2.0
 10
122.5025354714903
 20
-165.8494158860008
 30
0.0
 10
122.6009575431345
 20
-165.6377578321257
 30
0.0
 10
122.567798499089
 20
-165.3029699124232
 30
0.0
 10
122.3942302821727
 20
-164.9882927376158
 30
0.0
 10
122.1684473368082
 20
-164.576948336677
 30
0.0
 10
121.788862409874
 20
-164.3486999948558
 30
0.0
 10
121.5270997485353
 20
-164.4584155201376
 30
0.0
  0
SPLINE
  5
1D4
330
1F
100
AcDbEntity
  8
_U+30EC_U+30A4_U+30E4_U+30FC 1
 62
   179
420
  2234388
370
     9
100
AcDbSpline
210
0.0
220
0.0
230
1.0
 70
    11
 71
     3
 72
    17
 73
    13
 74
     0
 42
0.0000000001
 43
0.0000000001
 12
1.0
 22
0.0
 32
0.0
 13
1.0
 23
0.0
 33
0.0
 40
0.0
 40
0.0
 40
0.0
 40
0.0
 40
1.0
 40
1.0
 40
1.0
 40
2.0
 40
2.0
 40
2.0
 40
3.0
 40
3.0
 40
3.0
 40
4.0
 40
4.0
 40
4.0
 40
4.0
 10
122.5349193690516
 20
-165.8349464849627
 30
0.0
 10
122.273156707713
 20
-165.9788868807058
 30
0.0
 10
121.8702743225598
 20
-165.748173142428
 30
0.0
 10
121.6353188104657
 20
-165.3202492194664
 30
0.0
 10
121.4000187888232
 20
-164.8923252965048
 30
0.0
 10
121.4211845942107
 20
-164.4280771480206
 30
0.0
 10
121.6829472555493
 20
-164.2844920277494
 30
0.0
 10
121.944709916888
 20
-164.1405623979297
 30
0.0
 10
122.3475923020411
 20
-164.3716314116795
 30
0.0
 10
122.5825262822884
 20
-164.7992000591691
 30
0.0
 10
122.817826303931
 20
-165.2278237671512
 30
0.0
 10
122.7963159889949
 20
-165.691016855143
 30
0.0
 10
122.5349193690516
 20
-165.8349464849627
 30
0.0
  0
SPLINE
  5
1D5
330
1F
100
AcDbEntity
  8
_U+30EC_U+30A4_U+30E4_U+30FC 1
 62
   179
420
  2234388
370
     9
100
AcDbSpline
210
0.0
220
0.0
230
1.0
 70
     8
 71
     3
 72
    11
 73
     7
 74
     0
 42
0.0000000001
 43
0.0000000001
 12
1.0
 22
0.0
 32
0.0
 13
1.0
 23
0.0
 33
0.0
 40
0.0
 40
0.0
 40
0.0
 40
0.0
 40
1.0
 40
1.0
 40
1.0
 40
2.0
 40
2.0
 40
2.0
 40
2.0
 10
120.6187787920024
 20
-163.1628658310626
 30
0.0
 10
120.7172008636467
 20
-162.9512077771876
 30
0.0
 10
120.6843863291497
 20
-162.6171196425055
 30
0.0
 10
120.5108181122334
 20
-162.3017426826776
 30
0.0
 10
120.2850351668689
 20
-161.8903982817388
 30
0.0
 10
119.9054502399347
 20
-161.6628604908614
 30
0.0
 10
119.6433430690475
 20
-161.7725760161432
 30
0.0
  0
SPLINE
  5
1D6
330
1F
100
AcDbEntity
  8
_U+30EC_U+30A4_U+30E4_U+30FC 1
 62
   179
420
  2234388
370
     9
100
AcDbSpline
210
0.0
220
0.0
230
1.0
 70
    11
 71
     3
 72
    17
 73
    13
 74
     0
 42
0.0000000001
 43
0.0000000001
 12
1.0
 22
0.0
 32
0.0
 13
1.0
 23
0.0
 33
0.0
 40
0.0
 40
0.0
 40
0.0
 40
0.0
 40
1.0
 40
1.0
 40
1.0
 40
2.0
 40
2.0
 40
2.0
 40
3.0
 40
3.0
 40
3.0
 40
4.0
 40
4.0
 40
4.0
 40
4.0
 10
120.6511626895638
 20
-163.1484394937181
 30
0.0
 10
120.3897445377737
 20
-163.2923798894612
 30
0.0
 10
119.9865176430719
 20
-163.0616661511834
 30
0.0
 10
119.7515621309779
 20
-162.6337422282218
 30
0.0
 10
119.5162621093353
 20
-162.2058183052602
 30
0.0
 10
119.5381384656667
 20
-161.7422699417964
 30
0.0
 10
119.7995566174568
 20
-161.5979850365048
 30
0.0
 10
120.0609532374001
 20
-161.4547551917055
 30
0.0
 10
120.4641801321018
 20
-161.6851244204348
 30
0.0
 10
120.6991356441959
 20
-162.113392852945
 30
0.0
 10
120.9344356658384
 20
-162.5413167759066
 30
0.0
 10
120.9129038190556
 20
-163.0052204148422
 30
0.0
 10
120.6511626895638
 20
-163.1484394937181
 30
0.0
  0
SPLINE
  5
1D7
330
1F
100
AcDbEntity
  8
_U+30EC_U+30A4_U+30E4_U+30FC 1
 62
   179
420
  2234388
370
     9
100
AcDbSpline
210
0.0
220
0.0
230
1.0
 70
     8
 71
     3
 72
    11
 73
     7
 74
     0
 42
0.0000000001
 43
0.0000000001
 12
1.0
 22
0.0
 32
0.0
 13
1.0
 23
0.0
 33
0.0
 40
0.0
 40
0.0
 40
0.0
 40
0.0
 40
1.0
 40
1.0
 40
1.0
 40
2.0
 40
2.0
 40
2.0
 40
2.0
 10
114.3741987154386
 20
-152.0421514342931
 30
0.0
 10
114.4722547456875
 20
-152.2756966104228
 30
0.0
 10
114.8176255680838
 20
-152.4478544913748
 30
0.0
 10
115.2296805199665
 20
-152.4478544913748
 30
0.0
 10
115.6417139400023
 20
-152.4478544913748
 30
0.0
 10
115.9867402528501
 20
-152.2756966104228
 30
0.0
 10
116.0855068340429
 20
-152.0421514342931
 30
0.0
  0
SPLINE
  5
1D8
330
1F
100
AcDbEntity
  8
_U+30EC_U+30A4_U+30E4_U+30FC 1
 62
   179
420
  2234388
370
     9
100
AcDbSpline
210
0.0
220
0.0
230
1.0
 70
    11
 71
     3
 72
    17
 73
    13
 74
     0
 42
0.0000000001
 43
0.0000000001
 12
1.0
 22
0.0
 32
0.0
 13
1.0
 23
0.0
 33
0.0
 40
0.0
 40
0.0
 40
0.0
 40
0.0
 40
1.0
 40
1.0
 40
1.0
 40
2.0
 40
2.0
 40
2.0
 40
3.0
 40
3.0
 40
3.0
 40
4.0
 40
4.0
 40
4.0
 40
4.0
 10
116.1142949131915
 20
-152.1778989623353
 30
0.0
 10
116.1142949131915
 20
-152.4763518905918
 30
0.0
 10
115.7181089323878
 20
-152.7180038070354
 30
0.0
 10
115.2295082651922
 20
-152.7180038070354
 30
0.0
 10
114.7409291298434
 20
-152.7180038070354
 30
0.0
 10
114.3447431490397
 20
-152.4763518905918
 30
0.0
 10
114.3447431490397
 20
-152.1778989623353
 30
0.0
 10
114.3447431490397
 20
-151.8787462490583
 30
0.0
 10
114.7409291298434
 20
-151.6370943326148
 30
0.0
 10
115.2295082651922
 20
-151.6370943326148
 30
0.0
 10
115.7181089323878
 20
-151.6370943326148
 30
0.0
 10
116.1142949131915
 20
-151.8787462490583
 30
0.0
 10
116.1142949131915
 20
-152.1778989623353
 30
0.0
  0
SPLINE
  5
1D9
330
1F
100
AcDbEntity
  8
_U+30EC_U+30A4_U+30E4_U+30FC 1
 62
   179
420
  2234388
370
     9
100
AcDbSpline
210
0.0
220
0.0
230
1.0
 70
     8
 71
     3
 72
    11
 73
     7
 74
     0
 42
0.0000000001
 43
0.0000000001
 12
1.0
 22
0.0
 32
0.0
 13
1.0
 23
0.0
 33
0.0
 40
0.0
 40
0.0
 40
0.0
 40
0.0
 40
1.0
 40
1.0
 40
1.0
 40
2.0
 40
2.0
 40
2.0
 40
2.0
 10
118.1903309844498
 20
-152.5341003036634
 30
0.0
 10
118.2887530560941
 20
-152.7669349288493
 30
0.0
 10
118.6341238784903
 20
-152.9390928098013
 30
0.0
 10
119.0461572985262
 20
-152.9390928098013
 30
0.0
 10
119.4582122504089
 20
-152.9390928098013
 30
0.0
 10
119.8032170314099
 20
-152.7669349288493
 30
0.0
 10
119.9016391030541
 20
-152.5341003036634
 30
0.0
  0
SPLINE
  5
1DA
330
1F
100
AcDbEntity
  8
_U+30EC_U+30A4_U+30E4_U+30FC 1
 62
   179
420
  2234388
370
     9
100
AcDbSpline
210
0.0
220
0.0
230
1.0
 70
    11
 71
     3
 72
    17
 73
    13
 74
     0
 42
0.0000000001
 43
0.0000000001
 12
1.0
 22
0.0
 32
0.0
 13
1.0
 23
0.0
 33
0.0
 40
0.0
 40
0.0
 40
0.0
 40
0.0
 40
1.0
 40
1.0
 40
1.0
 40
2.0
 40
2.0
 40
2.0
 40
3.0
 40
3.0
 40
3.0
 40
4.0
 40
4.0
 40
4.0
 40
4.0
 10
119.9304487140495
 20
-152.6691372807618
 30
0.0
 10
119.9304487140495
 20
-152.9675902090183
 30
0.0
 10
119.5346287746411
 20
-153.2092421254618
 30
0.0
 10
119.0460281074455
 20
-153.2092421254618
 30
0.0
 10
118.55742744025
 20
-153.2092421254618
 30
0.0
 10
118.161262991293
 20
-152.9675902090183
 30
0.0
 10
118.161262991293
 20
-152.6691372807618
 30
0.0
 10
118.161262991293
 20
-152.3699845674848
 30
0.0
 10
118.55742744025
 20
-152.1283326510413
 30
0.0
 10
119.0460281074455
 20
-152.1283326510413
 30
0.0
 10
119.5346287746411
 20
-152.1283326510413
 30
0.0
 10
119.9304487140495
 20
-152.3699845674848
 30
0.0
 10
119.9304487140495
 20
-152.6691372807618
 30
0.0
  0
SPLINE
  5
1DB
330
1F
100
AcDbEntity
  8
_U+30EC_U+30A4_U+30E4_U+30FC 1
 62
   179
420
  2234388
370
     9
100
AcDbSpline
210
0.0
220
0.0
230
1.0
 70
     8
 71
     3
 72
    11
 73
     7
 74
     0
 42
0.0000000001
 43
0.0000000001
 12
1.0
 22
0.0
 32
0.0
 13
1.0
 23
0.0
 33
0.0
 40
0.0
 40
0.0
 40
0.0
 40
0.0
 40
1.0
 40
1.0
 40
1.0
 40
2.0
 40
2.0
 40
2.0
 40
2.0
 10
126.8713041200291
 20
-157.6114927957479
 30
0.0
 10
126.9697261916734
 20
-157.8443274209339
 30
0.0
 10
127.3150970140697
 20
-158.0164853018859
 30
0.0
 10
127.7271304341055
 20
-158.0164853018859
 30
0.0
 10
128.1391853859882
 20
-158.0164853018859
 30
0.0
 10
128.4841901669892
 20
-157.8443274209339
 30
0.0
 10
128.5829782800288
 20
-157.6114927957479
 30
0.0
  0
SPLINE
  5
1DC
330
1F
100
AcDbEntity
  8
_U+30EC_U+30A4_U+30E4_U+30FC 1
 62
   179
420
  2234388
370
     9
100
AcDbSpline
210
0.0
220
0.0
230
1.0
 70
    11
 71
     3
 72
    17
 73
    13
 74
     0
 42
0.0000000001
 43
0.0000000001
 12
1.0
 22
0.0
 32
0.0
 13
1.0
 23
0.0
 33
0.0
 40
0.0
 40
0.0
 40
0.0
 40
0.0
 40
1.0
 40
1.0
 40
1.0
 40
2.0
 40
2.0
 40
2.0
 40
3.0
 40
3.0
 40
3.0
 40
4.0
 40
4.0
 40
4.0
 40
4.0
 10
128.6114218496288
 20
-157.7465297728464
 30
0.0
 10
128.6114218496288
 20
-158.0449827011029
 30
0.0
 10
128.2156019102204
 20
-158.2866346175464
 30
0.0
 10
127.7270012430249
 20
-158.2866346175464
 30
0.0
 10
127.2384005758293
 20
-158.2866346175464
 30
0.0
 10
126.8425806364209
 20
-158.0449827011029
 30
0.0
 10
126.8425806364209
 20
-157.7465297728464
 30
0.0
 10
126.8425806364209
 20
-157.4480876105132
 30
0.0
 10
127.2384005758293
 20
-157.2064356940697
 30
0.0
 10
127.7270012430249
 20
-157.2064356940697
 30
0.0
 10
128.2156019102204
 20
-157.2064356940697
 30
0.0
 10
128.6114218496288
 20
-157.4480876105132
 30
0.0
 10
128.6114218496288
 20
-157.7465297728464
 30
0.0
  0
SPLINE
  5
1DD
330
1F
100
AcDbEntity
  8
_U+30EC_U+30A4_U+30E4_U+30FC 1
 62
   179
420
  2234388
370
     9
100
AcDbSpline
210
0.0
220
0.0
230
1.0
 70
     8
 71
     3
 72
    11
 73
     7
 74
     0
 42
0.0000000001
 43
0.0000000001
 12
1.0
 22
0.0
 32
0.0
 13
1.0
 23
0.0
 33
0.0
 40
0.0
 40
0.0
 40
0.0
 40
0.0
 40
1.0
 40
1.0
 40
1.0
 40
2.0
 40
2.0
 40
2.0
 40
2.0
 10
117.3717762971545
 20
-150.2982656315064
 30
0.0
 10
117.4698323274034
 20
-150.5311002566923
 30
0.0
 10
117.8152031497997
 20
-150.7032581376443
 30
0.0
 10
118.226892060287
 20
-150.7032581376443
 30
0.0
 10
118.6389470121697
 20
-150.7032581376443
 30
0.0
 10
118.9839517931707
 20
-150.5311002566923
 30
0.0
 10
119.0827399062102
 20
-150.2982656315064
 30
0.0
  0
SPLINE
  5
1DE
330
1F
100
AcDbEntity
  8
_U+30EC_U+30A4_U+30E4_U+30FC 1
 62
   179
420
  2234388
370
     9
100
AcDbSpline
210
0.0
220
0.0
230
1.0
 70
    11
 71
     3
 72
    17
 73
    13
 74
     0
 42
0.0000000001
 43
0.0000000001
 12
1.0
 22
0.0
 32
0.0
 13
1.0
 23
0.0
 33
0.0
 40
0.0
 40
0.0
 40
0.0
 40
0.0
 40
1.0
 40
1.0
 40
1.0
 40
2.0
 40
2.0
 40
2.0
 40
3.0
 40
3.0
 40
3.0
 40
4.0
 40
4.0
 40
4.0
 40
4.0
 10
119.1115279853588
 20
-150.4333026086048
 30
0.0
 10
119.1115279853588
 20
-150.7317555368613
 30
0.0
 10
118.7157080459504
 20
-150.9734074533048
 30
0.0
 10
118.2267413373596
 20
-150.9734074533048
 30
0.0
 10
117.7385067115593
 20
-150.9734074533048
 30
0.0
 10
117.3426867721509
 20
-150.7317555368613
 30
0.0
 10
117.3426867721509
 20
-150.4333026086048
 30
0.0
 10
117.3426867721509
 20
-150.1348604462716
 30
0.0
 10
117.7385067115593
 20
-149.8924979788843
 30
0.0
 10
118.2267413373596
 20
-149.8924979788843
 30
0.0
 10
118.7157080459504
 20
-149.8924979788843
 30
0.0
 10
119.1115279853588
 20
-150.1348604462716
 30
0.0
 10
119.1115279853588
 20
-150.4333026086048
 30
0.0
  0
SPLINE
  5
1DF
330
1F
100
AcDbEntity
  8
_U+30EC_U+30A4_U+30E4_U+30FC 1
 62
   179
420
  2234388
370
     9
100
AcDbSpline
210
0.0
220
0.0
230
1.0
 70
     8
 71
     3
 72
    11
 73
     7
 74
     0
 42
0.0000000001
 43
0.0000000001
 12
1.0
 22
0.0
 32
0.0
 13
1.0
 23
0.0
 33
0.0
 40
0.0
 40
0.0
 40
0.0
 40
0.0
 40
1.0
 40
1.0
 40
1.0
 40
2.0
 40
2.0
 40
2.0
 40
2.0
 10
118.8948530111834
 20
-154.7121112012851
 30
0.0
 10
118.9929090414323
 20
-154.944945826471
 30
0.0
 10
119.3382798638286
 20
-155.1178142583668
 30
0.0
 10
119.7503348157113
 20
-155.1178142583668
 30
0.0
 10
120.1623682357472
 20
-155.1178142583668
 30
0.0
 10
120.5073945485949
 20
-154.944945826471
 30
0.0
 10
120.6058166202392
 20
-154.7121112012851
 30
0.0
  0
SPLINE
  5
1E0
330
1F
100
AcDbEntity
  8
_U+30EC_U+30A4_U+30E4_U+30FC 1
 62
   179
420
  2234388
370
     9
100
AcDbSpline
210
0.0
220
0.0
230
1.0
 70
    11
 71
     3
 72
    17
 73
    13
 74
     0
 42
0.0000000001
 43
0.0000000001
 12
1.0
 22
0.0
 32
0.0
 13
1.0
 23
0.0
 33
0.0
 40
0.0
 40
0.0
 40
0.0
 40
0.0
 40
1.0
 40
1.0
 40
1.0
 40
2.0
 40
2.0
 40
2.0
 40
3.0
 40
3.0
 40
3.0
 40
4.0
 40
4.0
 40
4.0
 40
4.0
 10
120.6346262312346
 20
-154.8471589443069
 30
0.0
 10
120.6346262312346
 20
-155.1463224235073
 30
0.0
 10
120.2388062918262
 20
-155.3879743399507
 30
0.0
 10
119.7502056246306
 20
-155.3879743399507
 30
0.0
 10
119.261604957435
 20
-155.3879743399507
 30
0.0
 10
118.8654405084781
 20
-155.1463224235073
 30
0.0
 10
118.8654405084781
 20
-154.8471589443069
 30
0.0
 10
118.8654405084781
 20
-154.5487167819737
 30
0.0
 10
119.261604957435
 20
-154.3070648655302
 30
0.0
 10
119.7502056246306
 20
-154.3070648655302
 30
0.0
 10
120.2388062918262
 20
-154.3070648655302
 30
0.0
 10
120.6346262312346
 20
-154.5487167819737
 30
0.0
 10
120.6346262312346
 20
-154.8471589443069
 30
0.0
  0
SPLINE
  5
1E1
330
1F
100
AcDbEntity
  8
_U+30EC_U+30A4_U+30E4_U+30FC 1
 62
   179
420
  2234388
370
     9
100
AcDbSpline
210
0.0
220
0.0
230
1.0
 70
     8
 71
     3
 72
    11
 73
     7
 74
     0
 42
0.0000000001
 43
0.0000000001
 12
1.0
 22
0.0
 32
0.0
 13
1.0
 23
0.0
 33
0.0
 40
0.0
 40
0.0
 40
0.0
 40
0.0
 40
1.0
 40
1.0
 40
1.0
 40
2.0
 40
2.0
 40
2.0
 40
2.0
 10
121.8920860833508
 20
-152.9681931007282
 30
0.0
 10
121.9901421135997
 20
-153.2010277259142
 30
0.0
 10
122.335512935996
 20
-153.3731856068661
 30
0.0
 10
122.7479123974272
 20
-153.3731856068661
 30
0.0
 10
123.1599673493098
 20
-153.3731856068661
 30
0.0
 10
123.5049721303108
 20
-153.2010277259142
 30
0.0
 10
123.6033942019551
 20
-152.9681931007282
 30
0.0
  0
SPLINE
  5
1E2
330
1F
100
AcDbEntity
  8
_U+30EC_U+30A4_U+30E4_U+30FC 1
 62
   179
420
  2234388
370
     9
100
AcDbSpline
210
0.0
220
0.0
230
1.0
 70
    11
 71
     3
 72
    17
 73
    13
 74
     0
 42
0.0000000001
 43
0.0000000001
 12
1.0
 22
0.0
 32
0.0
 13
1.0
 23
0.0
 33
0.0
 40
0.0
 40
0.0
 40
0.0
 40
0.0
 40
1.0
 40
1.0
 40
1.0
 40
2.0
 40
2.0
 40
2.0
 40
3.0
 40
3.0
 40
3.0
 40
4.0
 40
4.0
 40
4.0
 40
4.0
 10
123.6322038129505
 20
-153.1032300778266
 30
0.0
 10
123.6322038129505
 20
-153.4016830060832
 30
0.0
 10
123.2360178321467
 20
-153.6433349225267
 30
0.0
 10
122.7477832063465
 20
-153.6433349225267
 30
0.0
 10
122.2591825391509
 20
-153.6433349225267
 30
0.0
 10
121.8633625997425
 20
-153.4016830060832
 30
0.0
 10
121.8633625997425
 20
-153.1032300778266
 30
0.0
 10
121.8633625997425
 20
-152.8040773645496
 30
0.0
 10
122.2591825391509
 20
-152.5624254481062
 30
0.0
 10
122.7477832063465
 20
-152.5624254481062
 30
0.0
 10
123.2360178321467
 20
-152.5624254481062
 30
0.0
 10
123.6322038129505
 20
-152.8040773645496
 30
0.0
 10
123.6322038129505
 20
-153.1032300778266
 30
0.0
  0
SPLINE
  5
1E3
330
1F
100
AcDbEntity
  8
_U+30EC_U+30A4_U+30E4_U+30FC 1
 62
   179
420
  2234388
370
     9
100
AcDbSpline
210
0.0
220
0.0
230
1.0
 70
     8
 71
     3
 72
    11
 73
     7
 74
     0
 42
0.0000000001
 43
0.0000000001
 12
1.0
 22
0.0
 32
0.0
 13
1.0
 23
0.0
 33
0.0
 40
0.0
 40
0.0
 40
0.0
 40
0.0
 40
1.0
 40
1.0
 40
1.0
 40
2.0
 40
2.0
 40
2.0
 40
2.0
 10
122.563535193426
 20
-155.1302919635775
 30
0.0
 10
122.6619572650702
 20
-155.3631265887634
 30
0.0
 10
123.0073280874665
 20
-155.5352844697154
 30
0.0
 10
123.4193615075024
 20
-155.5352844697154
 30
0.0
 10
123.831416459385
 20
-155.5352844697154
 30
0.0
 10
124.176421240386
 20
-155.3631265887634
 30
0.0
 10
124.2748433120303
 20
-155.1302919635775
 30
0.0
  0
SPLINE
  5
1E4
330
1F
100
AcDbEntity
  8
_U+30EC_U+30A4_U+30E4_U+30FC 1
 62
   179
420
  2234388
370
     9
100
AcDbSpline
210
0.0
220
0.0
230
1.0
 70
    11
 71
     3
 72
    17
 73
    13
 74
     0
 42
0.0000000001
 43
0.0000000001
 12
1.0
 22
0.0
 32
0.0
 13
1.0
 23
0.0
 33
0.0
 40
0.0
 40
0.0
 40
0.0
 40
0.0
 40
1.0
 40
1.0
 40
1.0
 40
2.0
 40
2.0
 40
2.0
 40
3.0
 40
3.0
 40
3.0
 40
4.0
 40
4.0
 40
4.0
 40
4.0
 10
124.3036529230257
 20
-155.2653720043694
 30
0.0
 10
124.3036529230257
 20
-155.563824932626
 30
0.0
 10
123.9078329836172
 20
-155.8054768490695
 30
0.0
 10
123.4192323164217
 20
-155.8054768490695
 30
0.0
 10
122.9306316492261
 20
-155.8054768490695
 30
0.0
 10
122.5348117098177
 20
-155.563824932626
 30
0.0
 10
122.5348117098177
 20
-155.2653720043694
 30
0.0
 10
122.5348117098177
 20
-154.9662192910924
 30
0.0
 10
122.9306316492261
 20
-154.724567374649
 30
0.0
 10
123.4192323164217
 20
-154.724567374649
 30
0.0
 10
123.9078329836172
 20
-154.724567374649
 30
0.0
 10
124.3036529230257
 20
-154.9662192910924
 30
0.0
 10
124.3036529230257
 20
-155.2653720043694
 30
0.0
  0
SPLINE
  5
1E5
330
1F
100
AcDbEntity
  8
_U+30EC_U+30A4_U+30E4_U+30FC 1
 62
   179
420
  2234388
370
     9
100
AcDbSpline
210
0.0
220
0.0
230
1.0
 70
     8
 71
     3
 72
    11
 73
     7
 74
     0
 42
0.0000000001
 43
0.0000000001
 12
1.0
 22
0.0
 32
0.0
 13
1.0
 23
0.0
 33
0.0
 40
0.0
 40
0.0
 40
0.0
 40
0.0
 40
1.0
 40
1.0
 40
1.0
 40
2.0
 40
2.0
 40
2.0
 40
2.0
 10
123.2680787520063
 20
-157.3083136271226
 30
0.0
 10
123.3661347822553
 20
-157.5411482523085
 30
0.0
 10
123.7115056046516
 20
-157.7133061332605
 30
0.0
 10
124.1235605565342
 20
-157.7133061332605
 30
0.0
 10
124.5355939765701
 20
-157.7133061332605
 30
0.0
 10
124.8806202894179
 20
-157.5411482523085
 30
0.0
 10
124.9790423610621
 20
-157.3083136271226
 30
0.0
  0
SPLINE
  5
1E6
330
1F
100
AcDbEntity
  8
_U+30EC_U+30A4_U+30E4_U+30FC 1
 62
   179
420
  2234388
370
     9
100
AcDbSpline
210
0.0
220
0.0
230
1.0
 70
    11
 71
     3
 72
    17
 73
    13
 74
     0
 42
0.0000000001
 43
0.0000000001
 12
1.0
 22
0.0
 32
0.0
 13
1.0
 23
0.0
 33
0.0
 40
0.0
 40
0.0
 40
0.0
 40
0.0
 40
1.0
 40
1.0
 40
1.0
 40
2.0
 40
2.0
 40
2.0
 40
3.0
 40
3.0
 40
3.0
 40
4.0
 40
4.0
 40
4.0
 40
4.0
 10
125.0078304402107
 20
-157.4433936679146
 30
0.0
 10
125.0078304402107
 20
-157.7418465961711
 30
0.0
 10
124.6120105008023
 20
-157.9842090635584
 30
0.0
 10
124.1234098336067
 20
-157.9842090635584
 30
0.0
 10
123.6351536759597
 20
-157.9842090635584
 30
0.0
 10
123.2389892270028
 20
-157.7418465961711
 30
0.0
 10
123.2389892270028
 20
-157.4433936679146
 30
0.0
 10
123.2389892270028
 20
-157.1449515055814
 30
0.0
 10
123.6351536759597
 20
-156.9032995891379
 30
0.0
 10
124.1234098336067
 20
-156.9032995891379
 30
0.0
 10
124.6120105008023
 20
-156.9032995891379
 30
0.0
 10
125.0078304402107
 20
-157.1449515055814
 30
0.0
 10
125.0078304402107
 20
-157.4433936679146
 30
0.0
  0
SPLINE
  5
1E7
330
1F
100
AcDbEntity
  8
_U+30EC_U+30A4_U+30E4_U+30FC 1
 62
   179
420
  2234388
370
     9
100
AcDbSpline
210
0.0
220
0.0
230
1.0
 70
     8
 71
     3
 72
    11
 73
     7
 74
     0
 42
0.0000000001
 43
0.0000000001
 12
1.0
 22
0.0
 32
0.0
 13
1.0
 23
0.0
 33
0.0
 40
0.0
 40
0.0
 40
0.0
 40
0.0
 40
1.0
 40
1.0
 40
1.0
 40
2.0
 40
2.0
 40
2.0
 40
2.0
 10
126.2653118241737
 20
-155.5643847606423
 30
0.0
 10
126.3637338958179
 20
-155.7972193858283
 30
0.0
 10
126.7087386768189
 20
-155.9693772667802
 30
0.0
 10
127.1211381382501
 20
-155.9693772667802
 30
0.0
 10
127.5331930901328
 20
-155.9693772667802
 30
0.0
 10
127.8781978711338
 20
-155.7972193858283
 30
0.0
 10
127.976619942778
 20
-155.5643847606423
 30
0.0
  0
SPLINE
  5
1E8
330
1F
100
AcDbEntity
  8
_U+30EC_U+30A4_U+30E4_U+30FC 1
 62
   179
420
  2234388
370
     9
100
AcDbSpline
210
0.0
220
0.0
230
1.0
 70
    11
 71
     3
 72
    17
 73
    13
 74
     0
 42
0.0000000001
 43
0.0000000001
 12
1.0
 22
0.0
 32
0.0
 13
1.0
 23
0.0
 33
0.0
 40
0.0
 40
0.0
 40
0.0
 40
0.0
 40
1.0
 40
1.0
 40
1.0
 40
2.0
 40
2.0
 40
2.0
 40
3.0
 40
3.0
 40
3.0
 40
4.0
 40
4.0
 40
4.0
 40
4.0
 10
128.0054080219266
 20
-155.6994648014343
 30
0.0
 10
128.0054080219266
 20
-155.9979177296908
 30
0.0
 10
127.6092220411229
 20
-156.2395696461344
 30
0.0
 10
127.1209874153226
 20
-156.2395696461344
 30
0.0
 10
126.6323867481271
 20
-156.2395696461344
 30
0.0
 10
126.2365668087186
 20
-155.9979177296908
 30
0.0
 10
126.2365668087186
 20
-155.6994648014343
 30
0.0
 10
126.2365668087186
 20
-155.4003120881573
 30
0.0
 10
126.6323867481271
 20
-155.1586601717138
 30
0.0
 10
127.1209874153226
 20
-155.1586601717138
 30
0.0
 10
127.6092220411229
 20
-155.1586601717138
 30
0.0
 10
128.0054080219266
 20
-155.4003120881573
 30
0.0
 10
128.0054080219266
 20
-155.6994648014343
 30
0.0
  0
ENDSEC
  0
SECTION
  2
OBJECTS
  0
DICTIONARY
  5
C
330
0
100
AcDbDictionary
281
     1
  3
ACAD_GROUP
350
D
  3
ACAD_LAYOUT
350
1A
  3
ACAD_MATERIAL
350
3B
  3
ACAD_MLEADERSTYLE
350
1EA
  3
ACAD_MLINESTYLE
350
17
  3
ACAD_PLOTSETTINGS
350
19
  3
ACAD_PLOTSTYLENAME
350
E
  3
ACAD_TABLESTYLE
350
1E9
  3
ACAD_VISUALSTYLE
350
2A
  0
SUN
  5
3F
330
29
100
AcDbSun
 90
        1
290
     0
 63
     7
421
 16777215
 40
1.0
291
     1
 91
  2455826
 92
 54000000
292
     0
 70
     2
 71
   256
280
     1
  0
DICTIONARY
  5
D
102
{ACAD_REACTORS
330
C
102
}
330
C
100
AcDbDictionary
281
     1
  0
DICTIONARY
  5
1A
102
{ACAD_REACTORS
330
C
102
}
330
C
100
AcDbDictionary
281
     1
  3
Layout1
350
1E
  3
Layout2
350
26
  3
Model
350
22
  0
DICTIONARY
  5
3B
102
{ACAD_REACTORS
330
C
102
}
330
C
100
AcDbDictionary
281
     1
  3
ByBlock
350
3D
  3
ByLayer
350
3C
  3
Global
350
3E
  0
DICTIONARY
  5
1EA
102
{ACAD_REACTORS
330
C
102
}
330
C
100
AcDbDictionary
281
     1
  0
DICTIONARY
  5
17
102
{ACAD_REACTORS
330
C
102
}
330
C
100
AcDbDictionary
281
     1
  3
Standard
350
18
  0
DICTIONARY
  5
19
102
{ACAD_REACTORS
330
C
102
}
330
C
100
AcDbDictionary
281
     1
  0
ACDBDICTIONARYWDFLT
  5
E
102
{ACAD_REACTORS
330
C
102
}
330
C
100
AcDbDictionary
281
     1
  3
Normal
350
F
100
AcDbDictionaryWithDefault
340
F
  0
DICTIONARY
  5
1E9
102
{ACAD_REACTORS
330
C
102
}
330
C
100
AcDbDictionary
281
     1
  0
DICTIONARY
  5
2A
102
{ACAD_REACTORS
330
C
102
}
330
C
100
AcDbDictionary
281
     1
  3
2dWireframe
350
2F
  3
3D Hidden
350
31
  3
3dWireframe
350
30
  3
Basic
350
32
  3
Brighten
350
36
  3
ColorChange
350
3A
  3
Conceptual
350
34
  3
Dim
350
35
  3
Facepattern
350
39
  3
Flat
350
2B
  3
FlatWithEdges
350
2C
  3
Gouraud
350
2D
  3
GouraudWithEdges
350
2E
  3
Linepattern
350
38
  3
Realistic
350
33
  3
Thicken
350
37
  0
LAYOUT
  5
1E
102
{ACAD_REACTORS
330
1A
102
}
330
1A
100
AcDbPlotSettings
  1

  2
none_device
  4

  6

 40
0.0
 41
0.0
 42
0.0
 43
0.0
 44
0.0
 45
0.0
 46
0.0
 47
0.0
 48
0.0
 49
0.0
140
0.0
141
0.0
142
1.0
143
1.0
 70
   688
 72
     0
 73
     0
 74
     5
  7

 75
    16
 76
     0
 77
     2
 78
   300
147
1.0
148
0.0
149
0.0
100
AcDbLayout
  1
Layout1
 70
     1
 71
     1
 10
0.0
 20
0.0
 11
12.0
 21
9.0
 12
0.0
 22
0.0
 32
0.0
 14
1.000000000000000E+20
 24
1.000000000000000E+20
 34
1.000000000000000E+20
 15
-1.000000000000000E+20
 25
-1.000000000000000E+20
 35
-1.000000000000000E+20
146
0.0
 13
0.0
 23
0.0
 33
0.0
 16
1.0
 26
0.0
 36
0.0
 17
0.0
 27
1.0
 37
0.0
 76
     0
330
1B
  0
LAYOUT
  5
26
102
{ACAD_REACTORS
330
1A
102
}
330
1A
100
AcDbPlotSettings
  1

  2
none_device
  4

  6

 40
0.0
 41
0.0
 42
0.0
 43
0.0
 44
0.0
 45
0.0
 46
0.0
 47
0.0
 48
0.0
 49
0.0
140
0.0
141
0.0
142
1.0
143
1.0
 70
   688
 72
     0
 73
     0
 74
     5
  7

 75
    16
 76
     0
 77
     2
 78
   300
147
1.0
148
0.0
149
0.0
100
AcDbLayout
  1
Layout2
 70
     1
 71
     2
 10
0.0
 20
0.0
 11
0.0
 21
0.0
 12
0.0
 22
0.0
 32
0.0
 14
0.0
 24
0.0
 34
0.0
 15
0.0
 25
0.0
 35
0.0
146
0.0
 13
0.0
 23
0.0
 33
0.0
 16
1.0
 26
0.0
 36
0.0
 17
0.0
 27
1.0
 37
0.0
 76
     0
330
23
  0
LAYOUT
  5
22
102
{ACAD_REACTORS
330
1A
102
}
330
1A
100
AcDbPlotSettings
  1

  2
none_device
  4

  6

 40
0.0
 41
0.0
 42
0.0
 43
0.0
 44
0.0
 45
0.0
 46
0.0
 47
0.0
 48
0.0
 49
0.0
140
0.0
141
0.0
142
1.0
143
1.0
 70
  1712
 72
     0
 73
     0
 74
     0
  7

 75
     0
 76
     0
 77
     2
 78
   300
147
1.0
148
0.0
149
0.0
100
AcDbLayout
  1
Model
 70
     1
 71
     0
 10
0.0
 20
0.0
 11
12.0
 21
9.0
 12
0.0
 22
0.0
 32
0.0
 14
1.000000000000000E+20
 24
1.000000000000000E+20
 34
1.000000000000000E+20
 15
-1.000000000000000E+20
 25
-1.000000000000000E+20
 35
-1.000000000000000E+20
146
0.0
 13
0.0
 23
0.0
 33
0.0
 16
1.0
 26
0.0
 36
0.0
 17
0.0
 27
1.0
 37
0.0
 76
     0
330
1F
331
29
  0
MATERIAL
  5
3D
102
{ACAD_REACTORS
330
3B
102
}
330
3B
100
AcDbMaterial
  1
ByBlock
 72
     1
 94
      127
  0
MATERIAL
  5
3C
102
{ACAD_REACTORS
330
3B
102
}
330
3B
100
AcDbMaterial
  1
ByLayer
 72
     1
 94
      127
  0
MATERIAL
  5
3E
102
{ACAD_REACTORS
330
3B
102
}
330
3B
100
AcDbMaterial
  1
Global
 72
     1
 94
      127
  0
MLINESTYLE
  5
18
102
{ACAD_REACTORS
330
17
102
}
330
17
100
AcDbMlineStyle
  2
Standard
 70
     0
  3

 62
   256
 51
90.0
 52
90.0
 71
     2
 49
0.5
 62
   256
  6
BYLAYER
 49
-0.5
 62
   256
  6
BYLAYER
  0
ACDBPLACEHOLDER
  5
F
102
{ACAD_REACTORS
330
E
102
}
330
E
  0
VISUALSTYLE
  5
2F
102
{ACAD_REACTORS
330
2A
102
}
330
2A
100
AcDbVisualStyle
  2
2dWireframe
 70
     4
177
     2
291
     0
 71
     0
176
     1
 72
     2
176
     1
 73
     0
176
     1
 90
        0
176
     1
 40
-0.6
176
     1
 41
-30.0
176
     1
 62
     5
 63
     7
421
 16777215
176
     1
 74
     1
176
     1
 91
        4
176
     1
 64
     7
176
     1
 65
   257
176
     1
 75
     1
176
     1
175
     1
176
     1
 42
1.0
176
     1
 92
        0
176
     1
 66
   257
176
     1
 43
1.0
176
     1
 76
     1
176
     1
 77
     6
176
     1
 78
     2
176
     1
 67
     7
176
     1
 79
     5
176
     1
170
     0
176
     1
171
     0
176
     1
290
     0
176
     1
 93
        1
176
     1
 44
0.0
176
     1
173
     0
176
     1
  0
VISUALSTYLE
  5
31
102
{ACAD_REACTORS
330
2A
102
}
330
2A
100
AcDbVisualStyle
  2
3D Hidden
 70
     6
177
     2
291
     0
 71
     1
176
     1
 72
     2
176
     1
 73
     2
176
     1
 90
        0
176
     1
 40
-0.6
176
     1
 41
-30.0
176
     1
 62
     5
 63
     7
421
 16777215
176
     1
 74
     2
176
     1
 91
        2
176
     1
 64
     7
176
     1
 65
   257
176
     1
 75
     2
176
     1
175
     1
176
     1
 42
40.0
176
     1
 92
        0
176
     1
 66
   257
176
     1
 43
1.0
176
     1
 76
     1
176
     1
 77
     6
176
     1
 78
     2
176
     1
 67
     7
176
     1
 79
     3
176
     1
170
     0
176
     1
171
     0
176
     1
290
     0
176
     1
 93
        1
176
     1
 44
0.0
176
     1
173
     0
176
     1
  0
VISUALSTYLE
  5
30
102
{ACAD_REACTORS
330
2A
102
}
330
2A
100
AcDbVisualStyle
  2
3dWireframe
 70
     5
177
     2
291
     0
 71
     0
176
     1
 72
     2
176
     1
 73
     0
176
     1
 90
        0
176
     1
 40
-0.6
176
     1
 41
-30.0
176
     1
 62
     5
 63
     7
421
 16777215
176
     1
 74
     1
176
     1
 91
        4
176
     1
 64
     7
176
     1
 65
   257
176
     1
 75
     1
176
     1
175
     1
176
     1
 42
1.0
176
     1
 92
        0
176
     1
 66
   257
176
     1
 43
1.0
176
     1
 76
     1
176
     1
 77
     6
176
     1
 78
     2
176
     1
 67
     7
176
     1
 79
     5
176
     1
170
     0
176
     1
171
     0
176
     1
290
     0
176
     1
 93
        1
176
     1
 44
0.0
176
     1
173
     0
176
     1
  0
VISUALSTYLE
  5
32
102
{ACAD_REACTORS
330
2A
102
}
330
2A
100
AcDbVisualStyle
  2
Basic
 70
     7
177
     2
291
     1
 71
     1
176
     1
 72
     0
176
     1
 73
     1
176
     1
 90
        0
176
     1
 40
-0.6
176
     1
 41
-30.0
176
     1
 62
     5
 63
     7
421
 16777215
176
     1
 74
     0
176
     1
 91
        4
176
     1
 64
     7
176
     1
 65
   257
176
     1
 75
     1
176
     1
175
     1
176
     1
 42
1.0
176
     1
 92
        8
176
     1
 66
     7
176
     1
 43
1.0
176
     1
 76
     1
176
     1
 77
     6
176
     1
 78
     2
176
     1
 67
     7
176
     1
 79
     5
176
     1
170
     0
176
     1
171
     0
176
     1
290
     0
176
     1
 93
        1
176
     1
 44
0.0
176
     1
173
     0
176
     1
  0
VISUALSTYLE
  5
36
102
{ACAD_REACTORS
330
2A
102
}
330
2A
100
AcDbVisualStyle
  2
Brighten
 70
    12
177
     2
291
     1
 71
     2
176
     1
 72
     2
176
     1
 73
     0
176
     1
 90
        0
176
     1
 40
-0.6
176
     1
 41
-30.0
176
     1
 62
     5
 63
     7
421
 16777215
176
     1
 74
     1
176
     1
 91
        4
176
     1
 64
     7
176
     1
 65
   257
176
     1
 75
     1
176
     1
175
     1
176
     1
 42
1.0
176
     1
 92
        8
176
     1
 66
     7
176
     1
 43
1.0
176
     1
 76
     1
176
     1
 77
     6
176
     1
 78
     2
176
     1
 67
     7
176
     1
 79
     5
176
     1
170
     0
176
     1
171
     0
176
     1
290
     0
176
     1
 93
        1
176
     1
 44
50.0
176
     1
173
     0
176
     1
  0
VISUALSTYLE
  5
3A
102
{ACAD_REACTORS
330
2A
102
}
330
2A
100
AcDbVisualStyle
  2
ColorChange
 70
    16
177
     2
291
     1
 71
     2
176
     1
 72
     2
176
     1
 73
     3
176
     1
 90
        0
176
     1
 40
-0.6
176
     1
 41
-30.0
176
     1
 62
     5
 63
     8
421
  8421504
176
     1
 74
     1
176
     1
 91
        4
176
     1
 64
     7
176
     1
 65
   257
176
     1
 75
     1
176
     1
175
     1
176
     1
 42
1.0
176
     1
 92
        8
176
     1
 66
     8
424
  8421504
176
     1
 43
1.0
176
     1
 76
     1
176
     1
 77
     6
176
     1
 78
     2
176
     1
 67
     7
176
     1
 79
     5
176
     1
170
     0
176
     1
171
     0
176
     1
290
     0
176
     1
 93
        1
176
     1
 44
0.0
176
     1
173
     0
176
     1
  0
VISUALSTYLE
  5
34
102
{ACAD_REACTORS
330
2A
102
}
330
2A
100
AcDbVisualStyle
  2
Conceptual
 70
     9
177
     2
291
     0
 71
     3
176
     1
 72
     2
176
     1
 73
     0
176
     1
 90
        0
176
     1
 40
-0.6
176
     1
 41
-30.0
176
     1
 62
     5
 63
     7
421
 16777215
176
     1
 74
     2
176
     1
 91
        2
176
     1
 64
     7
176
     1
 65
   257
176
     1
 75
     1
176
     1
175
     1
176
     1
 42
40.0
176
     1
 92
        8
176
     1
 66
     7
176
     1
 43
1.0
176
     1
 76
     1
176
     1
 77
     6
176
     1
 78
     2
176
     1
 67
     7
176
     1
 79
     3
176
     1
170
     0
176
     1
171
     0
176
     1
290
     0
176
     1
 93
        1
176
     1
 44
0.0
176
     1
173
     0
176
     1
  0
VISUALSTYLE
  5
35
102
{ACAD_REACTORS
330
2A
102
}
330
2A
100
AcDbVisualStyle
  2
Dim
 70
    11
177
     2
291
     1
 71
     2
176
     1
 72
     2
176
     1
 73
     0
176
     1
 90
        0
176
     1
 40
-0.6
176
     1
 41
-30.0
176
     1
 62
     5
 63
     7
421
 16777215
176
     1
 74
     1
176
     1
 91
        4
176
     1
 64
     7
176
     1
 65
   257
176
     1
 75
     1
176
     1
175
     1
176
     1
 42
1.0
176
     1
 92
        8
176
     1
 66
     7
176
     1
 43
1.0
176
     1
 76
     1
176
     1
 77
     6
176
     1
 78
     2
176
     1
 67
     7
176
     1
 79
     5
176
     1
170
     0
176
     1
171
     0
176
     1
290
     0
176
     1
 93
        1
176
     1
 44
-50.0
176
     1
173
     0
176
     1
  0
VISUALSTYLE
  5
39
102
{ACAD_REACTORS
330
2A
102
}
330
2A
100
AcDbVisualStyle
  2
Facepattern
 70
    15
177
     2
291
     1
 71
     2
176
     1
 72
     2
176
     1
 73
     0
176
     1
 90
        0
176
     1
 40
-0.6
176
     1
 41
-30.0
176
     1
 62
     5
 63
     7
421
 16777215
176
     1
 74
     1
176
     1
 91
        4
176
     1
 64
     7
176
     1
 65
   257
176
     1
 75
     1
176
     1
175
     1
176
     1
 42
1.0
176
     1
 92
        8
176
     1
 66
     7
176
     1
 43
1.0
176
     1
 76
     1
176
     1
 77
     6
176
     1
 78
     2
176
     1
 67
     7
176
     1
 79
     5
176
     1
170
     0
176
     1
171
     0
176
     1
290
     0
176
     1
 93
        1
176
     1
 44
0.0
176
     1
173
     0
176
     1
  0
VISUALSTYLE
  5
2B
102
{ACAD_REACTORS
330
2A
102
}
330
2A
100
AcDbVisualStyle
  2
Flat
 70
     0
177
     2
291
     1
 71
     2
176
     1
 72
     1
176
     1
 73
     1
176
     1
 90
        2
176
     1
 40
-0.6
176
     1
 41
30.0
176
     1
 62
     5
 63
     7
421
 16777215
176
     1
 74
     0
176
     1
 91
        4
176
     1
 64
     7
176
     1
 65
   257
176
     1
 75
     1
176
     1
175
     1
176
     1
 42
1.0
176
     1
 92
        8
176
     1
 66
     7
176
     1
 43
1.0
176
     1
 76
     1
176
     1
 77
     6
176
     1
 78
     2
176
     1
 67
     7
176
     1
 79
     5
176
     1
170
     0
176
     1
171
     0
176
     1
290
     0
176
     1
 93
       13
176
     1
 44
0.0
176
     1
173
     0
176
     1
  0
VISUALSTYLE
  5
2C
102
{ACAD_REACTORS
330
2A
102
}
330
2A
100
AcDbVisualStyle
  2
FlatWithEdges
 70
     1
177
     2
291
     1
 71
     2
176
     1
 72
     1
176
     1
 73
     1
176
     1
 90
        2
176
     1
 40
-0.6
176
     1
 41
30.0
176
     1
 62
     5
 63
     7
421
 16777215
176
     1
 74
     1
176
     1
 91
        4
176
     1
 64
     7
176
     1
 65
   257
176
     1
 75
     1
176
     1
175
     1
176
     1
 42
1.0
176
     1
 92
        0
176
     1
 66
   257
176
     1
 43
1.0
176
     1
 76
     1
176
     1
 77
     6
176
     1
 78
     2
176
     1
 67
     7
176
     1
 79
     5
176
     1
170
     0
176
     1
171
     0
176
     1
290
     0
176
     1
 93
       13
176
     1
 44
0.0
176
     1
173
     0
176
     1
  0
VISUALSTYLE
  5
2D
102
{ACAD_REACTORS
330
2A
102
}
330
2A
100
AcDbVisualStyle
  2
Gouraud
 70
     2
177
     2
291
     1
 71
     2
176
     1
 72
     2
176
     1
 73
     1
176
     1
 90
        2
176
     1
 40
-0.6
176
     1
 41
30.0
176
     1
 62
     5
 63
     7
421
 16777215
176
     1
 74
     0
176
     1
 91
        4
176
     1
 64
     7
176
     1
 65
   257
176
     1
 75
     1
176
     1
175
     1
176
     1
 42
1.0
176
     1
 92
        0
176
     1
 66
     7
176
     1
 43
1.0
176
     1
 76
     1
176
     1
 77
     6
176
     1
 78
     2
176
     1
 67
     7
176
     1
 79
     5
176
     1
170
     0
176
     1
171
     0
176
     1
290
     0
176
     1
 93
       13
176
     1
 44
0.0
176
     1
173
     0
176
     1
  0
VISUALSTYLE
  5
2E
102
{ACAD_REACTORS
330
2A
102
}
330
2A
100
AcDbVisualStyle
  2
GouraudWithEdges
 70
     3
177
     2
291
     1
 71
     2
176
     1
 72
     2
176
     1
 73
     1
176
     1
 90
        2
176
     1
 40
-0.6
176
     1
 41
30.0
176
     1
 62
     5
 63
     7
421
 16777215
176
     1
 74
     1
176
     1
 91
        4
176
     1
 64
     7
176
     1
 65
   257
176
     1
 75
     1
176
     1
175
     1
176
     1
 42
1.0
176
     1
 92
        0
176
     1
 66
   257
176
     1
 43
1.0
176
     1
 76
     1
176
     1
 77
     6
176
     1
 78
     2
176
     1
 67
     7
176
     1
 79
     5
176
     1
170
     0
176
     1
171
     0
176
     1
290
     0
176
     1
 93
       13
176
     1
 44
0.0
176
     1
173
     0
176
     1
  0
VISUALSTYLE
  5
38
102
{ACAD_REACTORS
330
2A
102
}
330
2A
100
AcDbVisualStyle
  2
Linepattern
 70
    14
177
     2
291
     1
 71
     2
176
     1
 72
     2
176
     1
 73
     0
176
     1
 90
        0
176
     1
 40
-0.6
176
     1
 41
-30.0
176
     1
 62
     5
 63
     7
421
 16777215
176
     1
 74
     1
176
     1
 91
        4
176
     1
 64
     7
176
     1
 65
   257
176
     1
 75
     7
176
     1
175
     7
176
     1
 42
1.0
176
     1
 92
        8
176
     1
 66
     7
176
     1
 43
1.0
176
     1
 76
     1
176
     1
 77
     6
176
     1
 78
     2
176
     1
 67
     7
176
     1
 79
     5
176
     1
170
     0
176
     1
171
     0
176
     1
290
     0
176
     1
 93
        1
176
     1
 44
0.0
176
     1
173
     0
176
     1
  0
VISUALSTYLE
  5
33
102
{ACAD_REACTORS
330
2A
102
}
330
2A
100
AcDbVisualStyle
  2
Realistic
 70
     8
177
     2
291
     0
 71
     2
176
     1
 72
     2
176
     1
 73
     0
176
     1
 90
        0
176
     1
 40
-0.6
176
     1
 41
-30.0
176
     1
 62
     5
 63
     7
421
 16777215
176
     1
 74
     1
176
     1
 91
        0
176
     1
 64
     7
176
     1
 65
   257
176
     1
 75
     1
176
     1
175
     1
176
     1
 42
1.0
176
     1
 92
        8
176
     1
 66
     8
424
  7895160
176
     1
 43
1.0
176
     1
 76
     1
176
     1
 77
     6
176
     1
 78
     2
176
     1
 67
     7
176
     1
 79
     5
176
     1
170
     0
176
     1
171
     0
176
     1
290
     0
176
     1
 93
       13
176
     1
 44
0.0
176
     1
173
     0
176
     1
  0
VISUALSTYLE
  5
37
102
{ACAD_REACTORS
330
2A
102
}
330
2A
100
AcDbVisualStyle
  2
Thicken
 70
    13
177
     2
291
     1
 71
     2
176
     1
 72
     2
176
     1
 73
     0
176
     1
 90
        0
176
     1
 40
-0.6
176
     1
 41
-30.0
176
     1
 62
     5
 63
     7
421
 16777215
176
     1
 74
     1
176
     1
 91
        4
176
     1
 64
     7
176
     1
 65
   257
176
     1
 75
     1
176
     1
175
     1
176
     1
 42
1.0
176
     1
 92
       12
176
     1
 66
     7
176
     1
 43
1.0
176
     1
 76
     1
176
     1
 77
     6
176
     1
 78
     2
176
     1
 67
     7
176
     1
 79
     5
176
     1
170
     0
176
     1
171
     0
176
     1
290
     0
176
     1
 93
        1
176
     1
 44
0.0
176
     1
173
     0
176
     1
  0
ENDSEC
  0
EOF
