  0
SECTION
  2
HEADER
  9
$ACADVER
  1
AC1024
  9
$ACADMAINTVER
 70
     6
  9
$DWGCODEPAGE
  3
UNDEFINED
  9
$INSBASE
 10
0.0
 20
0.0
 30
0.0
  9
$EXTMIN
 10
1.000000000000000E+20
 20
1.000000000000000E+20
 30
1.000000000000000E+20
  9
$EXTMAX
 10
-1.000000000000000E+20
 20
-1.000000000000000E+20
 30
-1.000000000000000E+20
  9
$LIMMIN
 10
0.0
 20
0.0
  9
$LIMMAX
 10
12.0
 20
9.0
  9
$ORTHOMODE
 70
     0
  9
$REGENMODE
 70
     1
  9
$FILLMODE
 70
     1
  9
$QTEXTMODE
 70
     0
  9
$MIRRTEXT
 70
     1
  9
$LTSCALE
 40
1.0
  9
$ATTMODE
 70
     1
  9
$TEXTSIZE
 40
0.2
  9
$TRACEWID
 40
0.05
  9
$TEXTSTYLE
  7
Standard
  9
$CLAYER
  8
0
  9
$CELTYPE
  6
ByLayer
  9
$CECOLOR
 62
   256
  9
$CELTSCALE
 40
1.0
  9
$DISPSILH
 70
     0
  9
$DIMSCALE
 40
1.0
  9
$DIMASZ
 40
0.18
  9
$DIMEXO
 40
0.0625
  9
$DIMDLI
 40
0.38
  9
$DIMRND
 40
0.0
  9
$DIMDLE
 40
0.0
  9
$DIMEXE
 40
0.18
  9
$DIMTP
 40
0.0
  9
$DIMTM
 40
0.0
  9
$DIMTXT
 40
0.18
  9
$DIMCEN
 40
0.09
  9
$DIMTSZ
 40
0.0
  9
$DIMTOL
 70
     0
  9
$DIMLIM
 70
     0
  9
$DIMTIH
 70
     1
  9
$DIMTOH
 70
     1
  9
$DIMSE1
 70
     0
  9
$DIMSE2
 70
     0
  9
$DIMTAD
 70
     0
  9
$DIMZIN
 70
     0
  9
$DIMBLK
  1

  9
$DIMASO
 70
     1
  9
$DIMSHO
 70
     1
  9
$DIMPOST
  1

  9
$DIMAPOST
  1

  9
$DIMALT
 70
     0
  9
$DIMALTD
 70
     2
  9
$DIMALTF
 40
25.4
  9
$DIMLFAC
 40
1.0
  9
$DIMTOFL
 70
     0
  9
$DIMTVP
 40
0.0
  9
$DIMTIX
 70
     0
  9
$DIMSOXD
 70
     0
  9
$DIMSAH
 70
     0
  9
$DIMBLK1
  1

  9
$DIMBLK2
  1

  9
$DIMSTYLE
  2
Standard
  9
$DIMCLRD
 70
     0
  9
$DIMCLRE
 70
     0
  9
$DIMCLRT
 70
     0
  9
$DIMTFAC
 40
1.0
  9
$DIMGAP
 40
0.09
  9
$DIMJUST
 70
     0
  9
$DIMSD1
 70
     0
  9
$DIMSD2
 70
     0
  9
$DIMTOLJ
 70
     1
  9
$DIMTZIN
 70
     0
  9
$DIMALTZ
 70
     0
  9
$DIMALTTZ
 70
     0
  9
$DIMUPT
 70
     0
  9
$DIMDEC
 70
     4
  9
$DIMTDEC
 70
     4
  9
$DIMALTU
 70
     2
  9
$DIMALTTD
 70
     2
  9
$DIMTXSTY
  7
Standard
  9
$DIMAUNIT
 70
     0
  9
$DIMADEC
 70
     0
  9
$DIMALTRND
 40
0.0
  9
$DIMAZIN
 70
     0
  9
$DIMDSEP
 70
    46
  9
$DIMATFIT
 70
     3
  9
$DIMFRAC
 70
     0
  9
$DIMLDRBLK
  1

  9
$DIMLUNIT
 70
     2
  9
$DIMLWD
 70
    -2
  9
$DIMLWE
 70
    -2
  9
$DIMTMOVE
 70
     0
  9
$DIMFXL
 40
1.0
  9
$DIMFXLON
 70
     0
  9
$DIMJOGANG
 40
0.7853981633974483
  9
$DIMTFILL
 70
     0
  9
$DIMTFILLCLR
 70
     0
  9
$DIMARCSYM
 70
     0
  9
$DIMLTYPE
  6

  9
$DIMLTEX1
  6

  9
$DIMLTEX2
  6

  9
$DIMTXTDIRECTION
 70
     0
  9
$LUNITS
 70
     2
  9
$LUPREC
 70
     4
  9
$SKETCHINC
 40
0.1
  9
$FILLETRAD
 40
0.5
  9
$AUNITS
 70
     0
  9
$AUPREC
 70
     0
  9
$MENU
  1
.
  9
$ELEVATION
 40
0.0
  9
$PELEVATION
 40
0.0
  9
$THICKNESS
 40
0.0
  9
$LIMCHECK
 70
     0
  9
$CHAMFERA
 40
0.5
  9
$CHAMFERB
 40
0.5
  9
$CHAMFERC
 40
1.0
  9
$CHAMFERD
 40
0.0
  9
$SKPOLY
 70
     0
  9
$TDCREATE
 40
2458270.588182859
  9
$TDUCREATE
 40
2458270.21318287
  9
$TDUPDATE
 40
2458270.588182859
  9
$TDUUPDATE
 40
2458270.21318287
  9
$TDINDWG
 40
0.0000000116
  9
$TDUSRTIMER
 40
0.0000000116
  9
$USRTIMER
 70
     1
  9
$ANGBASE
 50
0.0
  9
$ANGDIR
 70
     0
  9
$PDMODE
 70
     0
  9
$PDSIZE
 40
0.0
  9
$PLINEWID
 40
0.0
  9
$SPLFRAME
 70
     0
  9
$SPLINETYPE
 70
     6
  9
$SPLINESEGS
 70
     8
  9
$HANDSEED
  5
1CF
  9
$SURFTAB1
 70
     6
  9
$SURFTAB2
 70
     6
  9
$SURFTYPE
 70
     6
  9
$SURFU
 70
     6
  9
$SURFV
 70
     6
  9
$UCSBASE
  2

  9
$UCSNAME
  2

  9
$UCSORG
 10
0.0
 20
0.0
 30
0.0
  9
$UCSXDIR
 10
1.0
 20
0.0
 30
0.0
  9
$UCSYDIR
 10
0.0
 20
1.0
 30
0.0
  9
$UCSORTHOREF
  2

  9
$UCSORTHOVIEW
 70
     0
  9
$UCSORGTOP
 10
0.0
 20
0.0
 30
0.0
  9
$UCSORGBOTTOM
 10
0.0
 20
0.0
 30
0.0
  9
$UCSORGLEFT
 10
0.0
 20
0.0
 30
0.0
  9
$UCSORGRIGHT
 10
0.0
 20
0.0
 30
0.0
  9
$UCSORGFRONT
 10
0.0
 20
0.0
 30
0.0
  9
$UCSORGBACK
 10
0.0
 20
0.0
 30
0.0
  9
$PUCSBASE
  2

  9
$PUCSNAME
  2

  9
$PUCSORG
 10
0.0
 20
0.0
 30
0.0
  9
$PUCSXDIR
 10
1.0
 20
0.0
 30
0.0
  9
$PUCSYDIR
 10
0.0
 20
1.0
 30
0.0
  9
$PUCSORTHOREF
  2

  9
$PUCSORTHOVIEW
 70
     0
  9
$PUCSORGTOP
 10
0.0
 20
0.0
 30
0.0
  9
$PUCSORGBOTTOM
 10
0.0
 20
0.0
 30
0.0
  9
$PUCSORGLEFT
 10
0.0
 20
0.0
 30
0.0
  9
$PUCSORGRIGHT
 10
0.0
 20
0.0
 30
0.0
  9
$PUCSORGFRONT
 10
0.0
 20
0.0
 30
0.0
  9
$PUCSORGBACK
 10
0.0
 20
0.0
 30
0.0
  9
$USERI1
 70
     0
  9
$USERI2
 70
     0
  9
$USERI3
 70
     0
  9
$USERI4
 70
     0
  9
$USERI5
 70
     0
  9
$USERR1
 40
0.0
  9
$USERR2
 40
0.0
  9
$USERR3
 40
0.0
  9
$USERR4
 40
0.0
  9
$USERR5
 40
0.0
  9
$WORLDVIEW
 70
     1
  9
$SHADEDGE
 70
     3
  9
$SHADEDIF
 70
    70
  9
$TILEMODE
 70
     1
  9
$MAXACTVP
 70
    64
  9
$PINSBASE
 10
0.0
 20
0.0
 30
0.0
  9
$PLIMCHECK
 70
     0
  9
$PEXTMIN
 10
1.000000000000000E+20
 20
1.000000000000000E+20
 30
1.000000000000000E+20
  9
$PEXTMAX
 10
-1.000000000000000E+20
 20
-1.000000000000000E+20
 30
-1.000000000000000E+20
  9
$PLIMMIN
 10
0.0
 20
0.0
  9
$PLIMMAX
 10
12.0
 20
9.0
  9
$UNITMODE
 70
     0
  9
$VISRETAIN
 70
     1
  9
$PLINEGEN
 70
     0
  9
$PSLTSCALE
 70
     1
  9
$TREEDEPTH
 70
  3020
  9
$CMLSTYLE
  2
Standard
  9
$CMLJUST
 70
     0
  9
$CMLSCALE
 40
1.0
  9
$PROXYGRAPHICS
 70
     1
  9
$MEASUREMENT
 70
     0
  9
$CELWEIGHT
370
    -1
  9
$ENDCAPS
280
     0
  9
$JOINSTYLE
280
     0
  9
$LWDISPLAY
290
     1
  9
$INSUNITS
 70
     1
  9
$HYPERLINKBASE
  1

  9
$STYLESHEET
  1

  9
$XEDIT
290
     1
  9
$CEPSNTYPE
380
     0
  9
$PSTYLEMODE
290
     1
  9
$FINGERPRINTGUID
  2
{0C1B610E-E5F0-A01C-4661-78B694AE666C}
  9
$VERSIONGUID
  2
{FAEB1C32-E019-11D5-929B-00C0DF256EC4}
  9
$EXTNAMES
290
     1
  9
$PSVPSCALE
 40
0.0
  9
$OLESTARTUP
290
     0
  9
$SORTENTS
280
   127
  9
$INDEXCTL
280
     0
  9
$HIDETEXT
280
     1
  9
$XCLIPFRAME
280
     2
  9
$HALOGAP
280
     0
  9
$OBSCOLOR
 70
   257
  9
$OBSLTYPE
280
     0
  9
$INTERSECTIONDISPLAY
280
     0
  9
$INTERSECTIONCOLOR
 70
   257
  9
$DIMASSOC
280
     2
  9
$PROJECTNAME
  1

  9
$CAMERADISPLAY
290
     0
  9
$LENSLENGTH
 40
50.0
  9
$CAMERAHEIGHT
 40
0.0
  9
$STEPSPERSEC
 40
2.0
  9
$STEPSIZE
 40
6.0
  9
$3DDWFPREC
 40
2.0
  9
$PSOLWIDTH
 40
0.25
  9
$PSOLHEIGHT
 40
4.0
  9
$LOFTANG1
 40
1.570796326794897
  9
$LOFTANG2
 40
1.570796326794897
  9
$LOFTMAG1
 40
0.0
  9
$LOFTMAG2
 40
0.0
  9
$LOFTPARAM
 70
     7
  9
$LOFTNORMALS
280
     1
  9
$LATITUDE
 40
37.795
  9
$LONGITUDE
 40
-122.394
  9
$NORTHDIRECTION
 40
0.0
  9
$TIMEZONE
 70
 -8000
  9
$LIGHTGLYPHDISPLAY
280
     1
  9
$TILEMODELIGHTSYNCH
280
     1
  9
$CMATERIAL
347
3C
  9
$SOLIDHIST
280
     1
  9
$SHOWHIST
280
     1
  9
$DWFFRAME
280
     2
  9
$DGNFRAME
280
     2
  9
$REALWORLDSCALE
290
     1
  9
$INTERFERECOLOR
 62
   256
  9
$CSHADOW
280
     0
  9
$SHADOWPLANELOCATION
 40
0.0
  0
ENDSEC
  0
SECTION
  2
CLASSES
  0
CLASS
  1
ACDBDICTIONARYWDFLT
  2
AcDbDictionaryWithDefault
  3
ObjectDBX Classes
 90
        0
 91
        4
280
     0
281
     0
  0
CLASS
  1
VISUALSTYLE
  2
AcDbVisualStyle
  3
ObjectDBX Classes
 90
     4095
 91
        4
280
     0
281
     0
  0
CLASS
  1
MATERIAL
  2
AcDbMaterial
  3
ObjectDBX Classes
 90
     1153
 91
        4
280
     0
281
     0
  0
CLASS
  1
SUN
  2
AcDbSun
  3
SCENEOE
 90
     1024
 91
        4
280
     0
281
     0
  0
ENDSEC
  0
SECTION
  2
TABLES
  0
TABLE
  2
VPORT
  5
8
330
0
100
AcDbSymbolTable
 70
     1
  0
VPORT
  5
29
330
8
100
AcDbSymbolTableRecord
100
AcDbViewportTableRecord
  2
*Active
 70
     0
 10
0.0
 20
0.0
 11
1.0
 21
1.0
 12
0.0
 22
0.0
 13
0.0
 23
0.0
 14
0.5
 24
0.5
 15
0.5
 25
0.5
 16
0.0
 26
0.0
 36
1.0
 17
105.0007777515277
 27
-148.5000416295416
 37
0.0
 40
297.0000832590831
 41
0.7070757462376333
 42
50.0
 43
0.0
 44
0.0
 50
0.0
 51
0.0
 71
     0
 72
   100
 73
     1
 74
     3
 75
     0
 76
     0
 77
     0
 78
     0
281
     0
 65
     1
110
0.0
120
0.0
130
0.0
111
1.0
121
0.0
131
0.0
112
0.0
122
1.0
132
0.0
 79
     0
146
0.0
 60
     3
 61
     5
292
     1
282
     1
141
0.0
142
0.0
 63
   250
361
3F
  0
ENDTAB
  0
TABLE
  2
LTYPE
  5
5
330
0
100
AcDbSymbolTable
 70
     3
  0
LTYPE
  5
14
330
5
100
AcDbSymbolTableRecord
100
AcDbLinetypeTableRecord
  2
ByBlock
 70
     0
  3

 72
    65
 73
     0
 40
0.0
  0
LTYPE
  5
15
330
5
100
AcDbSymbolTableRecord
100
AcDbLinetypeTableRecord
  2
ByLayer
 70
     0
  3

 72
    65
 73
     0
 40
0.0
  0
LTYPE
  5
16
330
5
100
AcDbSymbolTableRecord
100
AcDbLinetypeTableRecord
  2
Continuous
 70
     0
  3
Solid line
 72
    65
 73
     0
 40
0.0
  0
LTYPE
  5
196
330
5
100
AcDbSymbolTableRecord
100
AcDbLinetypeTableRecord
  2
AI-Linetype-1
 70
     0
  3
Adobe Illustrator Linetype No. 1
 72
    65
 73
     2
 40
1.411111110758333
 49
0.7055555553791667
 74
     0
 49
-0.7055555553791667
 74
     0
  0
LTYPE
  5
1C7
330
5
100
AcDbSymbolTableRecord
100
AcDbLinetypeTableRecord
  2
AI-Linetype-2
 70
     0
  3
Adobe Illustrator Linetype No. 2
 72
    65
 73
     2
 40
1.411111110758333
 49
0.7055555553791667
 74
     0
 49
-0.7055555553791667
 74
     0
  0
ENDTAB
  0
TABLE
  2
LAYER
  5
2
330
0
100
AcDbSymbolTable
 70
     2
  0
LAYER
  5
10
330
2
100
AcDbSymbolTableRecord
100
AcDbLayerTableRecord
  2
0
 70
     0
 62
     7
  6
Continuous
370
    -3
390
F
347
3E
  0
LAYER
  5
40
330
2
100
AcDbSymbolTableRecord
100
AcDbLayerTableRecord
  2
_U+30EC_U+30A4_U+30E4_U+30FC 1
 70
     0
 62
     7
  6
Continuous
370
    -3
390
F
347
3E
  0
ENDTAB
  0
TABLE
  2
STYLE
  5
3
330
0
100
AcDbSymbolTable
 70
     1
  0
STYLE
  5
11
330
3
100
AcDbSymbolTableRecord
100
AcDbTextStyleTableRecord
  2
Standard
 70
     0
 40
0.0
 41
1.0
 50
0.0
 71
     0
 42
0.2
  3
txt
  4

  0
ENDTAB
  0
TABLE
  2
VIEW
  5
6
330
0
100
AcDbSymbolTable
 70
     0
  0
ENDTAB
  0
TABLE
  2
UCS
  5
7
330
0
100
AcDbSymbolTable
 70
     0
  0
ENDTAB
  0
TABLE
  2
APPID
  5
9
330
0
100
AcDbSymbolTable
 70
     1
  0
APPID
  5
12
330
9
100
AcDbSymbolTableRecord
100
AcDbRegAppTableRecord
  2
ACAD
 70
     0
  0
ENDTAB
  0
TABLE
  2
DIMSTYLE
  5
A
330
0
100
AcDbSymbolTable
 70
     1
100
AcDbDimStyleTable
  0
DIMSTYLE
105
27
330
A
100
AcDbSymbolTableRecord
100
AcDbDimStyleTableRecord
  2
Standard
 70
     0
178
     0
340
11
  0
ENDTAB
  0
TABLE
  2
BLOCK_RECORD
  5
1
330
0
100
AcDbSymbolTable
 70
     7
  0
BLOCK_RECORD
  5
1F
330
1
100
AcDbSymbolTableRecord
100
AcDbBlockTableRecord
  2
*Model_Space
340
22
 70
     0
280
     1
281
     0
  0
BLOCK_RECORD
  5
1B
330
1
100
AcDbSymbolTableRecord
100
AcDbBlockTableRecord
  2
*Paper_Space
340
1E
 70
     0
280
     1
281
     0
  0
BLOCK_RECORD
  5
23
330
1
100
AcDbSymbolTableRecord
100
AcDbBlockTableRecord
  2
*Paper_Space0
340
26
 70
     0
280
     1
281
     0
  0
BLOCK_RECORD
  5
4F
330
1
100
AcDbSymbolTableRecord
100
AcDbBlockTableRecord
  2
block 2
340
0
102
{BLKREFS
331
50
102
}
 70
     0
280
     1
281
     0
  0
BLOCK_RECORD
  5
E4
330
1
100
AcDbSymbolTableRecord
100
AcDbBlockTableRecord
  2
block 3
340
0
102
{BLKREFS
331
E5
102
}
 70
     0
280
     1
281
     0
  0
BLOCK_RECORD
  5
FB
330
1
100
AcDbSymbolTableRecord
100
AcDbBlockTableRecord
  2
block 4
340
0
102
{BLKREFS
331
FC
102
}
 70
     0
280
     1
281
     0
  0
BLOCK_RECORD
  5
10E
330
1
100
AcDbSymbolTableRecord
100
AcDbBlockTableRecord
  2
block 5
340
0
102
{BLKREFS
331
10F
102
}
 70
     0
280
     1
281
     0
  0
BLOCK_RECORD
  5
133
330
1
100
AcDbSymbolTableRecord
100
AcDbBlockTableRecord
  2
block 6
340
0
102
{BLKREFS
331
134
102
}
 70
     0
280
     1
281
     0
  0
BLOCK_RECORD
  5
19C
330
1
100
AcDbSymbolTableRecord
100
AcDbBlockTableRecord
  2
block 7
340
0
102
{BLKREFS
331
19D
102
}
 70
     0
280
     1
281
     0
  0
ENDTAB
  0
ENDSEC
  0
SECTION
  2
BLOCKS
  0
BLOCK
  5
20
330
1F
100
AcDbEntity
  8
0
100
AcDbBlockBegin
  2
*Model_Space
 70
     0
 10
0.0
 20
0.0
 30
0.0
  3
*Model_Space
  1

  0
ENDBLK
  5
21
330
1F
100
AcDbEntity
  8
0
100
AcDbBlockEnd
  0
BLOCK
  5
1C
330
1B
100
AcDbEntity
 67
     1
  8
0
100
AcDbBlockBegin
  2
*Paper_Space
 70
     0
 10
0.0
 20
0.0
 30
0.0
  3
*Paper_Space
  1

  0
ENDBLK
  5
1D
330
1B
100
AcDbEntity
 67
     1
  8
0
100
AcDbBlockEnd
  0
BLOCK
  5
24
330
23
100
AcDbEntity
  8
0
100
AcDbBlockBegin
  2
*Paper_Space0
 70
     0
 10
0.0
 20
0.0
 30
0.0
  3
*Paper_Space0
  1

  0
ENDBLK
  5
25
330
23
100
AcDbEntity
  8
0
100
AcDbBlockEnd
  0
BLOCK
  5
51
330
4F
100
AcDbEntity
  8
0
100
AcDbBlockBegin
  2
block 2
 70
     0
 10
0.0
 20
0.0
 30
0.0
  3
block 2
  1

  0
SPLINE
  5
53
330
4F
100
AcDbEntity
  8
_U+30EC_U+30A4_U+30E4_U+30FC 1
370
     0
100
AcDbSpline
210
0.0
220
0.0
230
1.0
 70
    11
 71
     3
 72
    26
 73
    22
 74
     0
 42
0.0000000001
 43
0.0000000001
 12
1.0
 22
0.0
 32
0.0
 13
1.0
 23
0.0
 33
0.0
 40
0.0
 40
0.0
 40
0.0
 40
0.0
 40
1.0
 40
1.0
 40
1.0
 40
2.0
 40
2.0
 40
2.0
 40
3.0
 40
3.0
 40
3.0
 40
4.0
 40
4.0
 40
4.0
 40
5.0
 40
5.0
 40
5.0
 40
6.0
 40
6.0
 40
6.0
 40
7.0
 40
7.0
 40
7.0
 40
7.0
 10
92.28894040661527
 20
-164.3062499589234
 30
0.0
 10
92.28894040661527
 20
-164.3062499589234
 30
0.0
 10
92.28894040661527
 20
-163.2020968559009
 30
0.0
 10
92.28894040661527
 20
-163.2020968559009
 30
0.0
 10
92.28894040661527
 20
-163.2020968559009
 30
0.0
 10
91.95890025912834
 20
-163.2020968559009
 30
0.0
 10
91.95890025912834
 20
-163.2020968559009
 30
0.0
 10
91.95890025912834
 20
-163.2020968559009
 30
0.0
 10
91.95890025912834
 20
-163.0539577500351
 30
0.0
 10
91.95890025912834
 20
-163.0539577500351
 30
0.0
 10
92.29100746390642
 20
-163.0391438394485
 30
0.0
 10
92.33751625295729
 20
-162.8761908229963
 30
0.0
 10
92.36714407413044
 20
-162.7618136528859
 30
0.0
 10
92.36714407413044
 20
-162.7618136528859
 30
0.0
 10
92.51321612270503
 20
-162.7618136528859
 30
0.0
 10
92.51321612270503
 20
-162.7618136528859
 30
0.0
 10
92.51321612270503
 20
-162.7618136528859
 30
0.0
 10
92.51321612270503
 20
-164.3062499589234
 30
0.0
 10
92.51321612270503
 20
-164.3062499589234
 30
0.0
 10
92.51321612270503
 20
-164.3062499589234
 30
0.0
 10
92.28894040661527
 20
-164.3062499589234
 30
0.0
 10
92.28894040661527
 20
-164.3062499589234
 30
0.0
  0
HATCH
  5
54
330
4F
100
AcDbEntity
  8
_U+30EC_U+30A4_U+30E4_U+30FC 1
 62
   179
420
  2234388
100
AcDbHatch
 10
0.0
 20
0.0
 30
0.0
210
0.0
220
0.0
230
1.0
  2
SOLID
 70
     1
 71
     0
 91
        1
 92
        1
 93
        1
 72
     4
 94
        3
 73
     0
 74
     1
 95
       26
 96
       22
 40
0.0
 40
0.0
 40
0.0
 40
0.0
 40
1.0
 40
1.0
 40
1.0
 40
2.0
 40
2.0
 40
2.0
 40
3.0
 40
3.0
 40
3.0
 40
4.0
 40
4.0
 40
4.0
 40
5.0
 40
5.0
 40
5.0
 40
6.0
 40
6.0
 40
6.0
 40
7.0
 40
7.0
 40
7.0
 40
7.0
 10
92.28894040661527
 20
-164.3062499589234
 10
92.28894040661527
 20
-164.3062499589234
 10
92.28894040661527
 20
-163.2020968559009
 10
92.28894040661527
 20
-163.2020968559009
 10
92.28894040661527
 20
-163.2020968559009
 10
91.95890025912834
 20
-163.2020968559009
 10
91.95890025912834
 20
-163.2020968559009
 10
91.95890025912834
 20
-163.2020968559009
 10
91.95890025912834
 20
-163.0539577500351
 10
91.95890025912834
 20
-163.0539577500351
 10
92.29100746390642
 20
-163.0391438394485
 10
92.33751625295729
 20
-162.8761908229963
 10
92.36714407413044
 20
-162.7618136528859
 10
92.36714407413044
 20
-162.7618136528859
 10
92.51321612270503
 20
-162.7618136528859
 10
92.51321612270503
 20
-162.7618136528859
 10
92.51321612270503
 20
-162.7618136528859
 10
92.51321612270503
 20
-164.3062499589234
 10
92.51321612270503
 20
-164.3062499589234
 10
92.51321612270503
 20
-164.3062499589234
 10
92.28894040661527
 20
-164.3062499589234
 10
92.28894040661527
 20
-164.3062499589234
 97
        0
 97
        0
 75
     2
 76
     1
 98
        0
  0
SPLINE
  5
55
330
4F
100
AcDbEntity
  8
_U+30EC_U+30A4_U+30E4_U+30FC 1
370
     0
100
AcDbSpline
210
0.0
220
0.0
230
1.0
 70
    11
 71
     3
 72
    29
 73
    25
 74
     0
 42
0.0000000001
 43
0.0000000001
 12
1.0
 22
0.0
 32
0.0
 13
1.0
 23
0.0
 33
0.0
 40
0.0
 40
0.0
 40
0.0
 40
0.0
 40
1.0
 40
1.0
 40
1.0
 40
2.0
 40
2.0
 40
2.0
 40
3.0
 40
3.0
 40
3.0
 40
4.0
 40
4.0
 40
4.0
 40
5.0
 40
5.0
 40
5.0
 40
6.0
 40
6.0
 40
6.0
 40
7.0
 40
7.0
 40
7.0
 40
8.0
 40
8.0
 40
8.0
 40
8.0
 10
93.91209714449073
 20
-164.1284830318845
 30
0.0
 10
93.80426565580241
 20
-164.3379448373877
 30
0.0
 10
93.63080509812008
 20
-164.3568928625566
 30
0.0
 10
93.51436087071863
 20
-164.3568928625566
 30
0.0
 10
93.35364716633173
 20
-164.3568928625566
 30
0.0
 10
93.2118814871137
 20
-164.3103840735058
 30
0.0
 10
93.11662459694654
 20
-164.1284830318845
 30
0.0
 10
93.01309947761479
 20
-163.9338351369679
 30
0.0
 10
92.99397919767165
 20
-163.6971570771313
 30
0.0
 10
92.99397919767165
 20
-163.5342040606789
 30
0.0
 10
92.99397919767165
 20
-163.3901990693955
 30
0.0
 10
93.01086016554937
 20
-163.1383625894238
 30
0.0
 10
93.11662459694654
 20
-162.9395805799248
 30
0.0
 10
93.22462834040913
 20
-162.7366644558436
 30
0.0
 10
93.38534204479603
 20
-162.7132378065439
 30
0.0
 10
93.51436087071863
 20
-162.7132378065439
 30
0.0
 10
93.6730075178144
 20
-162.7132378065439
 30
0.0
 10
93.81684025432357
 20
-162.7576795383036
 30
0.0
 10
93.91209714449073
 20
-162.9395805799248
 30
0.0
 10
94.0114881492402
 20
-163.1321614175503
 30
0.0
 10
94.03474254376563
 20
-163.3605712482224
 30
0.0
 10
94.03474254376563
 20
-163.5342040606789
 30
0.0
 10
94.03474254376563
 20
-163.7054253062959
 30
0.0
 10
94.0137274613056
 20
-163.9359021942591
 30
0.0
 10
93.91209714449073
 20
-164.1284830318845
 30
0.0
  0
SPLINE
  5
56
330
4F
100
AcDbEntity
  8
_U+30EC_U+30A4_U+30E4_U+30FC 1
370
     0
100
AcDbSpline
210
0.0
220
0.0
230
1.0
 70
    11
 71
     3
 72
    17
 73
    13
 74
     0
 42
0.0000000001
 43
0.0000000001
 12
1.0
 22
0.0
 32
0.0
 13
1.0
 23
0.0
 33
0.0
 40
0.0
 40
0.0
 40
0.0
 40
0.0
 40
1.0
 40
1.0
 40
1.0
 40
2.0
 40
2.0
 40
2.0
 40
3.0
 40
3.0
 40
3.0
 40
4.0
 40
4.0
 40
4.0
 40
4.0
 10
93.51436087071863
 20
-162.9058186441694
 30
0.0
 10
93.26476370281229
 20
-162.9058186441694
 30
0.0
 10
93.21825491376141
 20
-163.1893500026054
 30
0.0
 10
93.21825491376141
 20
-163.5342040606789
 30
0.0
 10
93.21825491376141
 20
-163.8535644121616
 30
0.0
 10
93.25425616158228
 20
-164.16224496764
 30
0.0
 10
93.51436087071863
 20
-164.16224496764
 30
0.0
 10
93.76189098133383
 20
-164.16224496764
 30
0.0
 10
93.81063908245012
 20
-163.8811251760436
 30
0.0
 10
93.81063908245012
 20
-163.5342040606789
 30
0.0
 10
93.81063908245012
 20
-163.2144991996478
 30
0.0
 10
93.77239852256385
 20
-162.9058186441694
 30
0.0
 10
93.51436087071863
 20
-162.9058186441694
 30
0.0
  0
HATCH
  5
57
330
4F
100
AcDbEntity
  8
_U+30EC_U+30A4_U+30E4_U+30FC 1
 62
   179
420
  2234388
100
AcDbHatch
 10
0.0
 20
0.0
 30
0.0
210
0.0
220
0.0
230
1.0
  2
SOLID
 70
     1
 71
     0
 91
        2
 92
        1
 93
        1
 72
     4
 94
        3
 73
     0
 74
     1
 95
       29
 96
       25
 40
0.0
 40
0.0
 40
0.0
 40
0.0
 40
1.0
 40
1.0
 40
1.0
 40
2.0
 40
2.0
 40
2.0
 40
3.0
 40
3.0
 40
3.0
 40
4.0
 40
4.0
 40
4.0
 40
5.0
 40
5.0
 40
5.0
 40
6.0
 40
6.0
 40
6.0
 40
7.0
 40
7.0
 40
7.0
 40
8.0
 40
8.0
 40
8.0
 40
8.0
 10
93.91209714449073
 20
-164.1284830318845
 10
93.80426565580241
 20
-164.3379448373877
 10
93.63080509812008
 20
-164.3568928625566
 10
93.51436087071863
 20
-164.3568928625566
 10
93.35364716633173
 20
-164.3568928625566
 10
93.2118814871137
 20
-164.3103840735058
 10
93.11662459694654
 20
-164.1284830318845
 10
93.01309947761479
 20
-163.9338351369679
 10
92.99397919767165
 20
-163.6971570771313
 10
92.99397919767165
 20
-163.5342040606789
 10
92.99397919767165
 20
-163.3901990693955
 10
93.01086016554937
 20
-163.1383625894238
 10
93.11662459694654
 20
-162.9395805799248
 10
93.22462834040913
 20
-162.7366644558436
 10
93.38534204479603
 20
-162.7132378065439
 10
93.51436087071863
 20
-162.7132378065439
 10
93.6730075178144
 20
-162.7132378065439
 10
93.81684025432357
 20
-162.7576795383036
 10
93.91209714449073
 20
-162.9395805799248
 10
94.0114881492402
 20
-163.1321614175503
 10
94.03474254376563
 20
-163.3605712482224
 10
94.03474254376563
 20
-163.5342040606789
 10
94.03474254376563
 20
-163.7054253062959
 10
94.0137274613056
 20
-163.9359021942591
 10
93.91209714449073
 20
-164.1284830318845
 97
        0
 97
        0
 92
        1
 93
        1
 72
     4
 94
        3
 73
     0
 74
     1
 95
       17
 96
       13
 40
0.0
 40
0.0
 40
0.0
 40
0.0
 40
1.0
 40
1.0
 40
1.0
 40
2.0
 40
2.0
 40
2.0
 40
3.0
 40
3.0
 40
3.0
 40
4.0
 40
4.0
 40
4.0
 40
4.0
 10
93.51436087071863
 20
-162.9058186441694
 10
93.26476370281229
 20
-162.9058186441694
 10
93.21825491376141
 20
-163.1893500026054
 10
93.21825491376141
 20
-163.5342040606789
 10
93.21825491376141
 20
-163.8535644121616
 10
93.25425616158228
 20
-164.16224496764
 10
93.51436087071863
 20
-164.16224496764
 10
93.76189098133383
 20
-164.16224496764
 10
93.81063908245012
 20
-163.8811251760436
 10
93.81063908245012
 20
-163.5342040606789
 10
93.81063908245012
 20
-163.2144991996478
 10
93.77239852256385
 20
-162.9058186441694
 10
93.51436087071863
 20
-162.9058186441694
 97
        0
 97
        0
 75
     2
 76
     1
 98
        0
  0
ENDBLK
  5
52
330
4F
100
AcDbEntity
  8
0
100
AcDbBlockEnd
  0
BLOCK
  5
E6
330
E4
100
AcDbEntity
  8
0
100
AcDbBlockBegin
  2
block 3
 70
     0
 10
0.0
 20
0.0
 30
0.0
  3
block 3
  1

  0
SPLINE
  5
E8
330
E4
100
AcDbEntity
  8
_U+30EC_U+30A4_U+30E4_U+30FC 1
370
     0
100
AcDbSpline
210
0.0
220
0.0
230
1.0
 70
    11
 71
     3
 72
    44
 73
    40
 74
     0
 42
0.0000000001
 43
0.0000000001
 12
1.0
 22
0.0
 32
0.0
 13
1.0
 23
0.0
 33
0.0
 40
0.0
 40
0.0
 40
0.0
 40
0.0
 40
1.0
 40
1.0
 40
1.0
 40
2.0
 40
2.0
 40
2.0
 40
3.0
 40
3.0
 40
3.0
 40
4.0
 40
4.0
 40
4.0
 40
5.0
 40
5.0
 40
5.0
 40
6.0
 40
6.0
 40
6.0
 40
7.0
 40
7.0
 40
7.0
 40
8.0
 40
8.0
 40
8.0
 40
9.0
 40
9.0
 40
9.0
 40
10.0
 40
10.0
 40
10.0
 40
11.0
 40
11.0
 40
11.0
 40
12.0
 40
12.0
 40
12.0
 40
13.0
 40
13.0
 40
13.0
 40
13.0
 10
111.6331515562931
 20
-133.5679022561046
 30
0.0
 10
111.4154215216253
 20
-133.7267211579746
 30
0.0
 10
111.3224039435236
 20
-133.8007907109074
 30
0.0
 10
111.273483587633
 20
-133.9444511926424
 30
0.0
 10
111.273483587633
 20
-133.9444511926424
 30
0.0
 10
112.0520751672995
 20
-133.9444511926424
 30
0.0
 10
112.0520751672995
 20
-133.9444511926424
 30
0.0
 10
112.0520751672995
 20
-133.9444511926424
 30
0.0
 10
112.0520751672995
 20
-134.1497788835632
 30
0.0
 10
112.0520751672995
 20
-134.1497788835632
 30
0.0
 10
112.0520751672995
 20
-134.1497788835632
 30
0.0
 10
111.0240586745009
 20
-134.1497788835632
 30
0.0
 10
111.0240586745009
 20
-134.1497788835632
 30
0.0
 10
111.0557535529652
 20
-133.7921779721943
 30
0.0
 10
111.121210367185
 20
-133.7139743046791
 30
0.0
 10
111.5063720424359
 20
-133.4156290356565
 30
0.0
 10
111.76234263699
 20
-133.2168470261576
 30
0.0
 10
111.8277994512097
 20
-133.1489786450982
 30
0.0
 10
111.8277994512097
 20
-133.0115193352367
 30
0.0
 10
111.8277994512097
 20
-132.8930080505441
 30
0.0
 10
111.755796955568
 20
-132.7620944221046
 30
0.0
 10
111.5590820033602
 20
-132.7620944221046
 30
0.0
 10
111.2989772942239
 20
-132.7620944221046
 30
0.0
 10
111.2903645555107
 20
-132.9925713100678
 30
0.0
 10
111.2862304409284
 20
-133.1090155374693
 30
0.0
 10
111.2862304409284
 20
-133.1090155374693
 30
0.0
 10
111.0619547248387
 20
-133.1090155374693
 30
0.0
 10
111.0619547248387
 20
-133.1090155374693
 30
0.0
 10
111.0705674635518
 20
-132.9818915140636
 30
0.0
 10
111.0812472595561
 20
-132.8699259107929
 30
0.0
 10
111.1615179843624
 20
-132.7514146261003
 30
0.0
 10
111.2714165303419
 20
-132.5905286669392
 30
0.0
 10
111.4577961960939
 20
-132.5567667311837
 30
0.0
 10
111.5738959139468
 20
-132.5567667311837
 30
0.0
 10
111.8512261005094
 20
-132.5567667311837
 30
0.0
 10
112.0586208487215
 20
-132.7407348300961
 30
0.0
 10
112.0586208487215
 20
-133.0135863925279
 30
0.0
 10
112.0586208487215
 20
-133.2423407327485
 30
0.0
 10
111.94217662132
 20
-133.3415594827237
 30
0.0
 10
111.6331515562931
 20
-133.5679022561046
 30
0.0
  0
HATCH
  5
E9
330
E4
100
AcDbEntity
  8
_U+30EC_U+30A4_U+30E4_U+30FC 1
 62
   179
420
  2234388
100
AcDbHatch
 10
0.0
 20
0.0
 30
0.0
210
0.0
220
0.0
230
1.0
  2
SOLID
 70
     1
 71
     0
 91
        1
 92
        1
 93
        1
 72
     4
 94
        3
 73
     0
 74
     1
 95
       44
 96
       40
 40
0.0
 40
0.0
 40
0.0
 40
0.0
 40
1.0
 40
1.0
 40
1.0
 40
2.0
 40
2.0
 40
2.0
 40
3.0
 40
3.0
 40
3.0
 40
4.0
 40
4.0
 40
4.0
 40
5.0
 40
5.0
 40
5.0
 40
6.0
 40
6.0
 40
6.0
 40
7.0
 40
7.0
 40
7.0
 40
8.0
 40
8.0
 40
8.0
 40
9.0
 40
9.0
 40
9.0
 40
10.0
 40
10.0
 40
10.0
 40
11.0
 40
11.0
 40
11.0
 40
12.0
 40
12.0
 40
12.0
 40
13.0
 40
13.0
 40
13.0
 40
13.0
 10
111.6331515562931
 20
-133.5679022561046
 10
111.4154215216253
 20
-133.7267211579746
 10
111.3224039435236
 20
-133.8007907109074
 10
111.273483587633
 20
-133.9444511926424
 10
111.273483587633
 20
-133.9444511926424
 10
112.0520751672995
 20
-133.9444511926424
 10
112.0520751672995
 20
-133.9444511926424
 10
112.0520751672995
 20
-133.9444511926424
 10
112.0520751672995
 20
-134.1497788835632
 10
112.0520751672995
 20
-134.1497788835632
 10
112.0520751672995
 20
-134.1497788835632
 10
111.0240586745009
 20
-134.1497788835632
 10
111.0240586745009
 20
-134.1497788835632
 10
111.0557535529652
 20
-133.7921779721943
 10
111.121210367185
 20
-133.7139743046791
 10
111.5063720424359
 20
-133.4156290356565
 10
111.76234263699
 20
-133.2168470261576
 10
111.8277994512097
 20
-133.1489786450982
 10
111.8277994512097
 20
-133.0115193352367
 10
111.8277994512097
 20
-132.8930080505441
 10
111.755796955568
 20
-132.7620944221046
 10
111.5590820033602
 20
-132.7620944221046
 10
111.2989772942239
 20
-132.7620944221046
 10
111.2903645555107
 20
-132.9925713100678
 10
111.2862304409284
 20
-133.1090155374693
 10
111.2862304409284
 20
-133.1090155374693
 10
111.0619547248387
 20
-133.1090155374693
 10
111.0619547248387
 20
-133.1090155374693
 10
111.0705674635518
 20
-132.9818915140636
 10
111.0812472595561
 20
-132.8699259107929
 10
111.1615179843624
 20
-132.7514146261003
 10
111.2714165303419
 20
-132.5905286669392
 10
111.4577961960939
 20
-132.5567667311837
 10
111.5738959139468
 20
-132.5567667311837
 10
111.8512261005094
 20
-132.5567667311837
 10
112.0586208487215
 20
-132.7407348300961
 10
112.0586208487215
 20
-133.0135863925279
 10
112.0586208487215
 20
-133.2423407327485
 10
111.94217662132
 20
-133.3415594827237
 10
111.6331515562931
 20
-133.5679022561046
 97
        0
 97
        0
 75
     2
 76
     1
 98
        0
  0
SPLINE
  5
EA
330
E4
100
AcDbEntity
  8
_U+30EC_U+30A4_U+30E4_U+30FC 1
370
     0
100
AcDbSpline
210
0.0
220
0.0
230
1.0
 70
    11
 71
     3
 72
    32
 73
    28
 74
     0
 42
0.0000000001
 43
0.0000000001
 12
1.0
 22
0.0
 32
0.0
 13
1.0
 23
0.0
 33
0.0
 40
0.0
 40
0.0
 40
0.0
 40
0.0
 40
1.0
 40
1.0
 40
1.0
 40
2.0
 40
2.0
 40
2.0
 40
3.0
 40
3.0
 40
3.0
 40
4.0
 40
4.0
 40
4.0
 40
5.0
 40
5.0
 40
5.0
 40
6.0
 40
6.0
 40
6.0
 40
7.0
 40
7.0
 40
7.0
 40
8.0
 40
8.0
 40
8.0
 40
9.0
 40
9.0
 40
9.0
 40
9.0
 10
112.721112710535
 20
-134.2004217871964
 30
0.0
 10
112.2050374068446
 20
-134.2004217871964
 30
0.0
 10
112.1964246681315
 20
-133.6464504331682
 30
0.0
 10
112.1964246681315
 20
-133.4325100035342
 30
0.0
 10
112.1964246681315
 20
-133.202033115571
 30
0.0
 10
112.2157172028489
 20
-132.5546996738926
 30
0.0
 10
112.7593532704213
 20
-132.5546996738926
 30
0.0
 10
112.9326415733293
 20
-132.5546996738926
 30
0.0
 10
113.1782768814277
 20
-132.6246351122431
 30
0.0
 10
113.2161729317654
 20
-132.9567423170212
 30
0.0
 10
113.2161729317654
 20
-132.9567423170212
 30
0.0
 10
113.0025770116799
 20
-132.9567423170212
 30
0.0
 10
113.0025770116799
 20
-132.9567423170212
 30
0.0
 10
112.9918972156756
 20
-132.8995537319661
 30
0.0
 10
112.9602023372113
 20
-132.7514146261003
 30
0.0
 10
112.7572862131301
 20
-132.7514146261003
 30
0.0
 10
112.4651421159809
 20
-132.7514146261003
 30
0.0
 10
112.425179008352
 20
-133.0793877162961
 30
0.0
 10
112.4124321550566
 20
-133.2843708976685
 30
0.0
 10
112.5054497331584
 20
-133.2061672301533
 30
0.0
 10
112.5733181142178
 20
-133.146911587807
 30
0.0
 10
112.755219155839
 20
-133.146911587807
 30
0.0
 10
112.935053140169
 20
-133.146911587807
 30
0.0
 10
113.237532523774
 20
-133.2550875860439
 30
0.0
 10
113.237532523774
 20
-133.6612643437548
 30
0.0
 10
113.237532523774
 20
-133.9806246952375
 30
0.0
 10
113.0384060047265
 20
-134.2004217871964
 30
0.0
 10
112.721112710535
 20
-134.2004217871964
 30
0.0
  0
SPLINE
  5
EB
330
E4
100
AcDbEntity
  8
_U+30EC_U+30A4_U+30E4_U+30FC 1
370
     0
100
AcDbSpline
210
0.0
220
0.0
230
1.0
 70
    11
 71
     3
 72
    17
 73
    13
 74
     0
 42
0.0000000001
 43
0.0000000001
 12
1.0
 22
0.0
 32
0.0
 13
1.0
 23
0.0
 33
0.0
 40
0.0
 40
0.0
 40
0.0
 40
0.0
 40
1.0
 40
1.0
 40
1.0
 40
2.0
 40
2.0
 40
2.0
 40
3.0
 40
3.0
 40
3.0
 40
4.0
 40
4.0
 40
4.0
 40
4.0
 10
112.7379936784127
 20
-133.3415594827237
 30
0.0
 10
112.4758219119852
 20
-133.3415594827237
 30
0.0
 10
112.4379258616475
 20
-133.553088345518
 30
0.0
 10
112.4379258616475
 20
-133.6695325729194
 30
0.0
 10
112.4379258616475
 20
-133.8452324426672
 30
0.0
 10
112.5330104970404
 20
-134.0081854591195
 30
0.0
 10
112.7169785959527
 20
-134.0081854591195
 30
0.0
 10
112.8375569379365
 20
-134.0081854591195
 30
0.0
 10
113.0132568076842
 20
-133.9489298167732
 30
0.0
 10
113.0132568076842
 20
-133.663331401046
 30
0.0
 10
113.0132568076842
 20
-133.4390556849562
 30
0.0
 10
112.8737304405316
 20
-133.3415594827237
 30
0.0
 10
112.7379936784127
 20
-133.3415594827237
 30
0.0
  0
HATCH
  5
EC
330
E4
100
AcDbEntity
  8
_U+30EC_U+30A4_U+30E4_U+30FC 1
 62
   179
420
  2234388
100
AcDbHatch
 10
0.0
 20
0.0
 30
0.0
210
0.0
220
0.0
230
1.0
  2
SOLID
 70
     1
 71
     0
 91
        2
 92
        1
 93
        1
 72
     4
 94
        3
 73
     0
 74
     1
 95
       32
 96
       28
 40
0.0
 40
0.0
 40
0.0
 40
0.0
 40
1.0
 40
1.0
 40
1.0
 40
2.0
 40
2.0
 40
2.0
 40
3.0
 40
3.0
 40
3.0
 40
4.0
 40
4.0
 40
4.0
 40
5.0
 40
5.0
 40
5.0
 40
6.0
 40
6.0
 40
6.0
 40
7.0
 40
7.0
 40
7.0
 40
8.0
 40
8.0
 40
8.0
 40
9.0
 40
9.0
 40
9.0
 40
9.0
 10
112.721112710535
 20
-134.2004217871964
 10
112.2050374068446
 20
-134.2004217871964
 10
112.1964246681315
 20
-133.6464504331682
 10
112.1964246681315
 20
-133.4325100035342
 10
112.1964246681315
 20
-133.202033115571
 10
112.2157172028489
 20
-132.5546996738926
 10
112.7593532704213
 20
-132.5546996738926
 10
112.9326415733293
 20
-132.5546996738926
 10
113.1782768814277
 20
-132.6246351122431
 10
113.2161729317654
 20
-132.9567423170212
 10
113.2161729317654
 20
-132.9567423170212
 10
113.0025770116799
 20
-132.9567423170212
 10
113.0025770116799
 20
-132.9567423170212
 10
112.9918972156756
 20
-132.8995537319661
 10
112.9602023372113
 20
-132.7514146261003
 10
112.7572862131301
 20
-132.7514146261003
 10
112.4651421159809
 20
-132.7514146261003
 10
112.425179008352
 20
-133.0793877162961
 10
112.4124321550566
 20
-133.2843708976685
 10
112.5054497331584
 20
-133.2061672301533
 10
112.5733181142178
 20
-133.146911587807
 10
112.755219155839
 20
-133.146911587807
 10
112.935053140169
 20
-133.146911587807
 10
113.237532523774
 20
-133.2550875860439
 10
113.237532523774
 20
-133.6612643437548
 10
113.237532523774
 20
-133.9806246952375
 10
113.0384060047265
 20
-134.2004217871964
 10
112.721112710535
 20
-134.2004217871964
 97
        0
 97
        0
 92
        1
 93
        1
 72
     4
 94
        3
 73
     0
 74
     1
 95
       17
 96
       13
 40
0.0
 40
0.0
 40
0.0
 40
0.0
 40
1.0
 40
1.0
 40
1.0
 40
2.0
 40
2.0
 40
2.0
 40
3.0
 40
3.0
 40
3.0
 40
4.0
 40
4.0
 40
4.0
 40
4.0
 10
112.7379936784127
 20
-133.3415594827237
 10
112.4758219119852
 20
-133.3415594827237
 10
112.4379258616475
 20
-133.553088345518
 10
112.4379258616475
 20
-133.6695325729194
 10
112.4379258616475
 20
-133.8452324426672
 10
112.5330104970404
 20
-134.0081854591195
 10
112.7169785959527
 20
-134.0081854591195
 10
112.8375569379365
 20
-134.0081854591195
 10
113.0132568076842
 20
-133.9489298167732
 10
113.0132568076842
 20
-133.663331401046
 10
113.0132568076842
 20
-133.4390556849562
 10
112.8737304405316
 20
-133.3415594827237
 10
112.7379936784127
 20
-133.3415594827237
 97
        0
 97
        0
 75
     2
 76
     1
 98
        0
  0
ENDBLK
  5
E7
330
E4
100
AcDbEntity
  8
0
100
AcDbBlockEnd
  0
BLOCK
  5
FD
330
FB
100
AcDbEntity
  8
0
100
AcDbBlockBegin
  2
block 4
 70
     0
 10
0.0
 20
0.0
 30
0.0
  3
block 4
  1

  0
SPLINE
  5
FF
330
FB
100
AcDbEntity
  8
_U+30EC_U+30A4_U+30E4_U+30FC 1
370
     0
100
AcDbSpline
210
0.0
220
0.0
230
1.0
 70
    11
 71
     3
 72
    32
 73
    28
 74
     0
 42
0.0000000001
 43
0.0000000001
 12
1.0
 22
0.0
 32
0.0
 13
1.0
 23
0.0
 33
0.0
 40
0.0
 40
0.0
 40
0.0
 40
0.0
 40
1.0
 40
1.0
 40
1.0
 40
2.0
 40
2.0
 40
2.0
 40
3.0
 40
3.0
 40
3.0
 40
4.0
 40
4.0
 40
4.0
 40
5.0
 40
5.0
 40
5.0
 40
6.0
 40
6.0
 40
6.0
 40
7.0
 40
7.0
 40
7.0
 40
8.0
 40
8.0
 40
8.0
 40
9.0
 40
9.0
 40
9.0
 40
9.0
 10
130.3648247286935
 20
-142.0133815834203
 30
0.0
 10
130.3648247286935
 20
-142.5294568871107
 30
0.0
 10
129.8108533746654
 20
-142.5380696258238
 30
0.0
 10
129.5969129450313
 20
-142.5380696258238
 30
0.0
 10
129.3664360570681
 20
-142.5380696258238
 30
0.0
 10
128.7191026153897
 20
-142.5187770911064
 30
0.0
 10
128.7191026153897
 20
-141.975141023534
 30
0.0
 10
128.7191026153897
 20
-141.8018527206259
 30
0.0
 10
128.7890380537403
 20
-141.5562174125276
 30
0.0
 10
129.1211452585183
 20
-141.5183213621899
 30
0.0
 10
129.1211452585183
 20
-141.5183213621899
 30
0.0
 10
129.1211452585183
 20
-141.7319172822754
 30
0.0
 10
129.1211452585183
 20
-141.7319172822754
 30
0.0
 10
129.0639566734632
 20
-141.7425970782796
 30
0.0
 10
128.9158175675974
 20
-141.7742919567439
 30
0.0
 10
128.9158175675974
 20
-141.9772080808251
 30
0.0
 10
128.9158175675974
 20
-142.2693521779743
 30
0.0
 10
129.2437906577932
 20
-142.3093152856032
 30
0.0
 10
129.4487738391656
 20
-142.3220621388986
 30
0.0
 10
129.3705701716504
 20
-142.2290445607969
 30
0.0
 10
129.3113145293041
 20
-142.1611761797375
 30
0.0
 10
129.3113145293041
 20
-141.9792751381163
 30
0.0
 10
129.3113145293041
 20
-141.7994411537863
 30
0.0
 10
129.419490527541
 20
-141.4969617701813
 30
0.0
 10
129.8256672852519
 20
-141.4969617701813
 30
0.0
 10
130.1450276367346
 20
-141.4969617701813
 30
0.0
 10
130.3648247286935
 20
-141.6960882892288
 30
0.0
 10
130.3648247286935
 20
-142.0133815834203
 30
0.0
  0
SPLINE
  5
100
330
FB
100
AcDbEntity
  8
_U+30EC_U+30A4_U+30E4_U+30FC 1
370
     0
100
AcDbSpline
210
0.0
220
0.0
230
1.0
 70
    11
 71
     3
 72
    17
 73
    13
 74
     0
 42
0.0000000001
 43
0.0000000001
 12
1.0
 22
0.0
 32
0.0
 13
1.0
 23
0.0
 33
0.0
 40
0.0
 40
0.0
 40
0.0
 40
0.0
 40
1.0
 40
1.0
 40
1.0
 40
2.0
 40
2.0
 40
2.0
 40
3.0
 40
3.0
 40
3.0
 40
4.0
 40
4.0
 40
4.0
 40
4.0
 10
129.5059624242207
 20
-141.9965006155425
 30
0.0
 10
129.5059624242207
 20
-142.2586723819701
 30
0.0
 10
129.7174912870151
 20
-142.2965684323078
 30
0.0
 10
129.8339355144165
 20
-142.2965684323078
 30
0.0
 10
130.0096353841643
 20
-142.2965684323078
 30
0.0
 10
130.1725884006166
 20
-142.2014837969149
 30
0.0
 10
130.1725884006166
 20
-142.0175156980026
 30
0.0
 10
130.1725884006166
 20
-141.8969373560188
 30
0.0
 10
130.1133327582703
 20
-141.7212374862711
 30
0.0
 10
129.8277343425431
 20
-141.7212374862711
 30
0.0
 10
129.6034586264533
 20
-141.7212374862711
 30
0.0
 10
129.5059624242207
 20
-141.8607638534237
 30
0.0
 10
129.5059624242207
 20
-141.9965006155425
 30
0.0
  0
HATCH
  5
101
330
FB
100
AcDbEntity
  8
_U+30EC_U+30A4_U+30E4_U+30FC 1
 62
   179
420
  2234388
100
AcDbHatch
 10
0.0
 20
0.0
 30
0.0
210
0.0
220
0.0
230
1.0
  2
SOLID
 70
     1
 71
     0
 91
        2
 92
        1
 93
        1
 72
     4
 94
        3
 73
     0
 74
     1
 95
       32
 96
       28
 40
0.0
 40
0.0
 40
0.0
 40
0.0
 40
1.0
 40
1.0
 40
1.0
 40
2.0
 40
2.0
 40
2.0
 40
3.0
 40
3.0
 40
3.0
 40
4.0
 40
4.0
 40
4.0
 40
5.0
 40
5.0
 40
5.0
 40
6.0
 40
6.0
 40
6.0
 40
7.0
 40
7.0
 40
7.0
 40
8.0
 40
8.0
 40
8.0
 40
9.0
 40
9.0
 40
9.0
 40
9.0
 10
130.3648247286935
 20
-142.0133815834203
 10
130.3648247286935
 20
-142.5294568871107
 10
129.8108533746654
 20
-142.5380696258238
 10
129.5969129450313
 20
-142.5380696258238
 10
129.3664360570681
 20
-142.5380696258238
 10
128.7191026153897
 20
-142.5187770911064
 10
128.7191026153897
 20
-141.975141023534
 10
128.7191026153897
 20
-141.8018527206259
 10
128.7890380537403
 20
-141.5562174125276
 10
129.1211452585183
 20
-141.5183213621899
 10
129.1211452585183
 20
-141.5183213621899
 10
129.1211452585183
 20
-141.7319172822754
 10
129.1211452585183
 20
-141.7319172822754
 10
129.0639566734632
 20
-141.7425970782796
 10
128.9158175675974
 20
-141.7742919567439
 10
128.9158175675974
 20
-141.9772080808251
 10
128.9158175675974
 20
-142.2693521779743
 10
129.2437906577932
 20
-142.3093152856032
 10
129.4487738391656
 20
-142.3220621388986
 10
129.3705701716504
 20
-142.2290445607969
 10
129.3113145293041
 20
-142.1611761797375
 10
129.3113145293041
 20
-141.9792751381163
 10
129.3113145293041
 20
-141.7994411537863
 10
129.419490527541
 20
-141.4969617701813
 10
129.8256672852519
 20
-141.4969617701813
 10
130.1450276367346
 20
-141.4969617701813
 10
130.3648247286935
 20
-141.6960882892288
 10
130.3648247286935
 20
-142.0133815834203
 97
        0
 97
        0
 92
        1
 93
        1
 72
     4
 94
        3
 73
     0
 74
     1
 95
       17
 96
       13
 40
0.0
 40
0.0
 40
0.0
 40
0.0
 40
1.0
 40
1.0
 40
1.0
 40
2.0
 40
2.0
 40
2.0
 40
3.0
 40
3.0
 40
3.0
 40
4.0
 40
4.0
 40
4.0
 40
4.0
 10
129.5059624242207
 20
-141.9965006155425
 10
129.5059624242207
 20
-142.2586723819701
 10
129.7174912870151
 20
-142.2965684323078
 10
129.8339355144165
 20
-142.2965684323078
 10
130.0096353841643
 20
-142.2965684323078
 10
130.1725884006166
 20
-142.2014837969149
 10
130.1725884006166
 20
-142.0175156980026
 10
130.1725884006166
 20
-141.8969373560188
 10
130.1133327582703
 20
-141.7212374862711
 10
129.8277343425431
 20
-141.7212374862711
 10
129.6034586264533
 20
-141.7212374862711
 10
129.5059624242207
 20
-141.8607638534237
 10
129.5059624242207
 20
-141.9965006155425
 97
        0
 97
        0
 75
     2
 76
     1
 98
        0
  0
ENDBLK
  5
FE
330
FB
100
AcDbEntity
  8
0
100
AcDbBlockEnd
  0
BLOCK
  5
110
330
10E
100
AcDbEntity
  8
0
100
AcDbBlockBegin
  2
block 5
 70
     0
 10
0.0
 20
0.0
 30
0.0
  3
block 5
  1

  0
SPLINE
  5
112
330
10E
100
AcDbEntity
  8
_U+30EC_U+30A4_U+30E4_U+30FC 1
370
     0
100
AcDbSpline
210
0.0
220
0.0
230
1.0
 70
    11
 71
     3
 72
    44
 73
    40
 74
     0
 42
0.0000000001
 43
0.0000000001
 12
1.0
 22
0.0
 32
0.0
 13
1.0
 23
0.0
 33
0.0
 40
0.0
 40
0.0
 40
0.0
 40
0.0
 40
1.0
 40
1.0
 40
1.0
 40
2.0
 40
2.0
 40
2.0
 40
3.0
 40
3.0
 40
3.0
 40
4.0
 40
4.0
 40
4.0
 40
5.0
 40
5.0
 40
5.0
 40
6.0
 40
6.0
 40
6.0
 40
7.0
 40
7.0
 40
7.0
 40
8.0
 40
8.0
 40
8.0
 40
9.0
 40
9.0
 40
9.0
 40
10.0
 40
10.0
 40
10.0
 40
11.0
 40
11.0
 40
11.0
 40
12.0
 40
12.0
 40
12.0
 40
13.0
 40
13.0
 40
13.0
 40
13.0
 10
80.67759058312922
 20
-152.5012857691663
 30
0.0
 10
80.83640948499924
 20
-152.7193603133827
 30
0.0
 10
80.9104790379321
 20
-152.8127224010329
 30
0.0
 10
81.05413951966702
 20
-152.8609537378264
 30
0.0
 10
81.05413951966702
 20
-152.8609537378264
 30
0.0
 10
81.05413951966702
 20
-152.0827066677085
 30
0.0
 10
81.05413951966702
 20
-152.0827066677085
 30
0.0
 10
81.05413951966702
 20
-152.0827066677085
 30
0.0
 10
81.25946721058791
 20
-152.0827066677085
 30
0.0
 10
81.25946721058791
 20
-152.0827066677085
 30
0.0
 10
81.25946721058791
 20
-152.0827066677085
 30
0.0
 10
81.25946721058791
 20
-153.110723160507
 30
0.0
 10
81.25946721058791
 20
-153.110723160507
 30
0.0
 10
80.90186629921898
 20
-153.0790282820427
 30
0.0
 10
80.82366263170381
 20
-153.013571467823
 30
0.0
 10
80.52531736268118
 20
-152.6284097925721
 30
0.0
 10
80.32653535318227
 20
-152.372439198018
 30
0.0
 10
80.25866697212284
 20
-152.3069823837983
 30
0.0
 10
80.12120766226137
 20
-152.3069823837983
 30
0.0
 10
80.00269637756877
 20
-152.3069823837983
 30
0.0
 10
79.87178274912928
 20
-152.3786403698915
 30
0.0
 10
79.87178274912928
 20
-152.5756998316477
 30
0.0
 10
79.87178274912928
 20
-152.8358045407841
 30
0.0
 10
80.10225963709249
 20
-152.8444172794972
 30
0.0
 10
80.21870386449393
 20
-152.8485513940795
 30
0.0
 10
80.21870386449393
 20
-152.8485513940795
 30
0.0
 10
80.21870386449393
 20
-153.0724826006208
 30
0.0
 10
80.21870386449393
 20
-153.0724826006208
 30
0.0
 10
80.09157984108822
 20
-153.0642143714562
 30
0.0
 10
79.9796142378176
 20
-153.0538790850004
 30
0.0
 10
79.86110295312501
 20
-152.9732638506456
 30
0.0
 10
79.70021699396383
 20
-152.8633653046661
 30
0.0
 10
79.66645505820838
 20
-152.6769856389141
 30
0.0
 10
79.66645505820838
 20
-152.5605414115126
 30
0.0
 10
79.66645505820838
 20
-152.2835557344985
 30
0.0
 10
79.85042315712073
 20
-152.0761609862865
 30
0.0
 10
80.12327471955251
 20
-152.0761609862865
 30
0.0
 10
80.3520290597731
 20
-152.0761609862865
 30
0.0
 10
80.45124780974831
 20
-152.192605213688
 30
0.0
 10
80.67759058312922
 20
-152.5012857691663
 30
0.0
  0
HATCH
  5
113
330
10E
100
AcDbEntity
  8
_U+30EC_U+30A4_U+30E4_U+30FC 1
 62
   179
420
  2234388
100
AcDbHatch
 10
0.0
 20
0.0
 30
0.0
210
0.0
220
0.0
230
1.0
  2
SOLID
 70
     1
 71
     0
 91
        1
 92
        1
 93
        1
 72
     4
 94
        3
 73
     0
 74
     1
 95
       44
 96
       40
 40
0.0
 40
0.0
 40
0.0
 40
0.0
 40
1.0
 40
1.0
 40
1.0
 40
2.0
 40
2.0
 40
2.0
 40
3.0
 40
3.0
 40
3.0
 40
4.0
 40
4.0
 40
4.0
 40
5.0
 40
5.0
 40
5.0
 40
6.0
 40
6.0
 40
6.0
 40
7.0
 40
7.0
 40
7.0
 40
8.0
 40
8.0
 40
8.0
 40
9.0
 40
9.0
 40
9.0
 40
10.0
 40
10.0
 40
10.0
 40
11.0
 40
11.0
 40
11.0
 40
12.0
 40
12.0
 40
12.0
 40
13.0
 40
13.0
 40
13.0
 40
13.0
 10
80.67759058312922
 20
-152.5012857691663
 10
80.83640948499924
 20
-152.7193603133827
 10
80.9104790379321
 20
-152.8127224010329
 10
81.05413951966702
 20
-152.8609537378264
 10
81.05413951966702
 20
-152.8609537378264
 10
81.05413951966702
 20
-152.0827066677085
 10
81.05413951966702
 20
-152.0827066677085
 10
81.05413951966702
 20
-152.0827066677085
 10
81.25946721058791
 20
-152.0827066677085
 10
81.25946721058791
 20
-152.0827066677085
 10
81.25946721058791
 20
-152.0827066677085
 10
81.25946721058791
 20
-153.110723160507
 10
81.25946721058791
 20
-153.110723160507
 10
80.90186629921898
 20
-153.0790282820427
 10
80.82366263170381
 20
-153.013571467823
 10
80.52531736268118
 20
-152.6284097925721
 10
80.32653535318227
 20
-152.372439198018
 10
80.25866697212284
 20
-152.3069823837983
 10
80.12120766226137
 20
-152.3069823837983
 10
80.00269637756877
 20
-152.3069823837983
 10
79.87178274912928
 20
-152.3786403698915
 10
79.87178274912928
 20
-152.5756998316477
 10
79.87178274912928
 20
-152.8358045407841
 10
80.10225963709249
 20
-152.8444172794972
 10
80.21870386449393
 20
-152.8485513940795
 10
80.21870386449393
 20
-152.8485513940795
 10
80.21870386449393
 20
-153.0724826006208
 10
80.21870386449393
 20
-153.0724826006208
 10
80.09157984108822
 20
-153.0642143714562
 10
79.9796142378176
 20
-153.0538790850004
 10
79.86110295312501
 20
-152.9732638506456
 10
79.70021699396383
 20
-152.8633653046661
 10
79.66645505820838
 20
-152.6769856389141
 10
79.66645505820838
 20
-152.5605414115126
 10
79.66645505820838
 20
-152.2835557344985
 10
79.85042315712073
 20
-152.0761609862865
 10
80.12327471955251
 20
-152.0761609862865
 10
80.3520290597731
 20
-152.0761609862865
 10
80.45124780974831
 20
-152.192605213688
 10
80.67759058312922
 20
-152.5012857691663
 97
        0
 97
        0
 75
     2
 76
     1
 98
        0
  0
SPLINE
  5
114
330
10E
100
AcDbEntity
  8
_U+30EC_U+30A4_U+30E4_U+30FC 1
370
     0
100
AcDbSpline
210
0.0
220
0.0
230
1.0
 70
    11
 71
     3
 72
    32
 73
    28
 74
     0
 42
0.0000000001
 43
0.0000000001
 12
1.0
 22
0.0
 32
0.0
 13
1.0
 23
0.0
 33
0.0
 40
0.0
 40
0.0
 40
0.0
 40
0.0
 40
1.0
 40
1.0
 40
1.0
 40
2.0
 40
2.0
 40
2.0
 40
3.0
 40
3.0
 40
3.0
 40
4.0
 40
4.0
 40
4.0
 40
5.0
 40
5.0
 40
5.0
 40
6.0
 40
6.0
 40
6.0
 40
7.0
 40
7.0
 40
7.0
 40
8.0
 40
8.0
 40
8.0
 40
9.0
 40
9.0
 40
9.0
 40
9.0
 10
81.31011011422109
 20
-151.4133246149244
 30
0.0
 10
81.31011011422109
 20
-151.9297444281634
 30
0.0
 10
80.75613876019291
 20
-151.9383571668765
 30
0.0
 10
80.5421983305589
 20
-151.9383571668765
 30
0.0
 10
80.31172144259568
 20
-151.9383571668765
 30
0.0
 10
79.66438800091724
 20
-151.9190646321591
 30
0.0
 10
79.66438800091724
 20
-151.3754285645867
 30
0.0
 10
79.66438800091724
 20
-151.2017957521301
 30
0.0
 10
79.73432343926781
 20
-150.9565049535803
 30
0.0
 10
80.0664306440459
 20
-150.9186089032426
 30
0.0
 10
80.0664306440459
 20
-150.9186089032426
 30
0.0
 10
80.0664306440459
 20
-151.1322048233281
 30
0.0
 10
80.0664306440459
 20
-151.1322048233281
 30
0.0
 10
80.00924205899075
 20
-151.1425401097838
 30
0.0
 10
79.86110295312501
 20
-151.1742349882481
 30
0.0
 10
79.86110295312501
 20
-151.3774956218778
 30
0.0
 10
79.86110295312501
 20
-151.669639719027
 30
0.0
 10
80.1890760433208
 20
-151.709602826656
 30
0.0
 10
80.39405922469315
 20
-151.7223496799513
 30
0.0
 10
80.31585555717798
 20
-151.6293321018496
 30
0.0
 10
80.25659991483168
 20
-151.5614637207902
 30
0.0
 10
80.25659991483168
 20
-151.379562679169
 30
0.0
 10
80.25659991483168
 20
-151.199728694839
 30
0.0
 10
80.36477591306853
 20
-150.897249311234
 30
0.0
 10
80.7709526707795
 20
-150.897249311234
 30
0.0
 10
81.09031302226215
 20
-150.897249311234
 30
0.0
 10
81.31011011422109
 20
-151.0963758302815
 30
0.0
 10
81.31011011422109
 20
-151.4133246149244
 30
0.0
  0
SPLINE
  5
115
330
10E
100
AcDbEntity
  8
_U+30EC_U+30A4_U+30E4_U+30FC 1
370
     0
100
AcDbSpline
210
0.0
220
0.0
230
1.0
 70
    11
 71
     3
 72
    17
 73
    13
 74
     0
 42
0.0000000001
 43
0.0000000001
 12
1.0
 22
0.0
 32
0.0
 13
1.0
 23
0.0
 33
0.0
 40
0.0
 40
0.0
 40
0.0
 40
0.0
 40
1.0
 40
1.0
 40
1.0
 40
2.0
 40
2.0
 40
2.0
 40
3.0
 40
3.0
 40
3.0
 40
4.0
 40
4.0
 40
4.0
 40
4.0
 10
80.45124780974831
 20
-151.3967881565952
 30
0.0
 10
80.45124780974831
 20
-151.6589599230228
 30
0.0
 10
80.66277667254265
 20
-151.697200482909
 30
0.0
 10
80.7792208999441
 20
-151.697200482909
 30
0.0
 10
80.95492076969182
 20
-151.697200482909
 30
0.0
 10
81.11787378614414
 20
-151.6017713379676
 30
0.0
 10
81.11787378614414
 20
-151.4178032390553
 30
0.0
 10
81.11787378614414
 20
-151.2972248970715
 30
0.0
 10
81.05861814379784
 20
-151.1215250273238
 30
0.0
 10
80.77301972807064
 20
-151.1215250273238
 30
0.0
 10
80.54874401198087
 20
-151.1215250273238
 30
0.0
 10
80.45124780974831
 20
-151.2610513944764
 30
0.0
 10
80.45124780974831
 20
-151.3967881565952
 30
0.0
  0
HATCH
  5
116
330
10E
100
AcDbEntity
  8
_U+30EC_U+30A4_U+30E4_U+30FC 1
 62
   179
420
  2234388
100
AcDbHatch
 10
0.0
 20
0.0
 30
0.0
210
0.0
220
0.0
230
1.0
  2
SOLID
 70
     1
 71
     0
 91
        2
 92
        1
 93
        1
 72
     4
 94
        3
 73
     0
 74
     1
 95
       32
 96
       28
 40
0.0
 40
0.0
 40
0.0
 40
0.0
 40
1.0
 40
1.0
 40
1.0
 40
2.0
 40
2.0
 40
2.0
 40
3.0
 40
3.0
 40
3.0
 40
4.0
 40
4.0
 40
4.0
 40
5.0
 40
5.0
 40
5.0
 40
6.0
 40
6.0
 40
6.0
 40
7.0
 40
7.0
 40
7.0
 40
8.0
 40
8.0
 40
8.0
 40
9.0
 40
9.0
 40
9.0
 40
9.0
 10
81.31011011422109
 20
-151.4133246149244
 10
81.31011011422109
 20
-151.9297444281634
 10
80.75613876019291
 20
-151.9383571668765
 10
80.5421983305589
 20
-151.9383571668765
 10
80.31172144259568
 20
-151.9383571668765
 10
79.66438800091724
 20
-151.9190646321591
 10
79.66438800091724
 20
-151.3754285645867
 10
79.66438800091724
 20
-151.2017957521301
 10
79.73432343926781
 20
-150.9565049535803
 10
80.0664306440459
 20
-150.9186089032426
 10
80.0664306440459
 20
-150.9186089032426
 10
80.0664306440459
 20
-151.1322048233281
 10
80.0664306440459
 20
-151.1322048233281
 10
80.00924205899075
 20
-151.1425401097838
 10
79.86110295312501
 20
-151.1742349882481
 10
79.86110295312501
 20
-151.3774956218778
 10
79.86110295312501
 20
-151.669639719027
 10
80.1890760433208
 20
-151.709602826656
 10
80.39405922469315
 20
-151.7223496799513
 10
80.31585555717798
 20
-151.6293321018496
 10
80.25659991483168
 20
-151.5614637207902
 10
80.25659991483168
 20
-151.379562679169
 10
80.25659991483168
 20
-151.199728694839
 10
80.36477591306853
 20
-150.897249311234
 10
80.7709526707795
 20
-150.897249311234
 10
81.09031302226215
 20
-150.897249311234
 10
81.31011011422109
 20
-151.0963758302815
 10
81.31011011422109
 20
-151.4133246149244
 97
        0
 97
        0
 92
        1
 93
        1
 72
     4
 94
        3
 73
     0
 74
     1
 95
       17
 96
       13
 40
0.0
 40
0.0
 40
0.0
 40
0.0
 40
1.0
 40
1.0
 40
1.0
 40
2.0
 40
2.0
 40
2.0
 40
3.0
 40
3.0
 40
3.0
 40
4.0
 40
4.0
 40
4.0
 40
4.0
 10
80.45124780974831
 20
-151.3967881565952
 10
80.45124780974831
 20
-151.6589599230228
 10
80.66277667254265
 20
-151.697200482909
 10
80.7792208999441
 20
-151.697200482909
 10
80.95492076969182
 20
-151.697200482909
 10
81.11787378614414
 20
-151.6017713379676
 10
81.11787378614414
 20
-151.4178032390553
 10
81.11787378614414
 20
-151.2972248970715
 10
81.05861814379784
 20
-151.1215250273238
 10
80.77301972807064
 20
-151.1215250273238
 10
80.54874401198087
 20
-151.1215250273238
 10
80.45124780974831
 20
-151.2610513944764
 10
80.45124780974831
 20
-151.3967881565952
 97
        0
 97
        0
 75
     2
 76
     1
 98
        0
  0
ENDBLK
  5
111
330
10E
100
AcDbEntity
  8
0
100
AcDbBlockEnd
  0
BLOCK
  5
135
330
133
100
AcDbEntity
  8
0
100
AcDbBlockBegin
  2
block 6
 70
     0
 10
0.0
 20
0.0
 30
0.0
  3
block 6
  1

  0
POLYLINE
  5
137
330
133
100
AcDbEntity
  8
_U+30EC_U+30A4_U+30E4_U+30FC 1
370
     0
100
AcDb2dPolyline
 66
     1
 10
0.0
 20
0.0
 30
0.0
  0
VERTEX
  5
138
330
137
100
AcDbEntity
  8
_U+30EC_U+30A4_U+30E4_U+30FC 1
370
     0
100
AcDbVertex
100
AcDb2dVertex
 10
85.27283119612972
 20
-134.1838853288672
 30
0.0
  0
VERTEX
  5
139
330
137
100
AcDbEntity
  8
_U+30EC_U+30A4_U+30E4_U+30FC 1
370
     0
100
AcDbVertex
100
AcDb2dVertex
 10
85.27283119612972
 20
-134.0229993697061
 30
0.0
  0
VERTEX
  5
13A
330
137
100
AcDbEntity
  8
_U+30EC_U+30A4_U+30E4_U+30FC 1
370
     0
100
AcDbVertex
100
AcDb2dVertex
 10
85.42717147386891
 20
-134.0229993697061
 30
0.0
  0
VERTEX
  5
13B
330
137
100
AcDbEntity
  8
_U+30EC_U+30A4_U+30E4_U+30FC 1
370
     0
100
AcDbVertex
100
AcDb2dVertex
 10
85.42717147386891
 20
-134.1838853288672
 30
0.0
  0
VERTEX
  5
13C
330
137
100
AcDbEntity
  8
_U+30EC_U+30A4_U+30E4_U+30FC 1
370
     0
100
AcDbVertex
100
AcDb2dVertex
 10
85.82077363305869
 20
-134.1838853288672
 30
0.0
  0
VERTEX
  5
13D
330
137
100
AcDbEntity
  8
_U+30EC_U+30A4_U+30E4_U+30FC 1
370
     0
100
AcDbVertex
100
AcDb2dVertex
 10
85.82077363305869
 20
-134.3382256066064
 30
0.0
  0
VERTEX
  5
13E
330
137
100
AcDbEntity
  8
_U+30EC_U+30A4_U+30E4_U+30FC 1
370
     0
100
AcDbVertex
100
AcDb2dVertex
 10
85.42717147386891
 20
-134.3382256066064
 30
0.0
  0
VERTEX
  5
13F
330
137
100
AcDbEntity
  8
_U+30EC_U+30A4_U+30E4_U+30FC 1
370
     0
100
AcDbVertex
100
AcDb2dVertex
 10
85.42717147386891
 20
-134.4929103938941
 30
0.0
  0
VERTEX
  5
140
330
137
100
AcDbEntity
  8
_U+30EC_U+30A4_U+30E4_U+30FC 1
370
     0
100
AcDbVertex
100
AcDb2dVertex
 10
85.78253307317243
 20
-134.4929103938941
 30
0.0
  0
VERTEX
  5
141
330
137
100
AcDbEntity
  8
_U+30EC_U+30A4_U+30E4_U+30FC 1
370
     0
100
AcDbVertex
100
AcDb2dVertex
 10
85.78253307317243
 20
-135.305263909316
 30
0.0
  0
VERTEX
  5
142
330
137
100
AcDbEntity
  8
_U+30EC_U+30A4_U+30E4_U+30FC 1
370
     0
100
AcDbVertex
100
AcDb2dVertex
 10
85.42717147386891
 20
-135.305263909316
 30
0.0
  0
VERTEX
  5
143
330
137
100
AcDbEntity
  8
_U+30EC_U+30A4_U+30E4_U+30FC 1
370
     0
100
AcDbVertex
100
AcDb2dVertex
 10
85.42717147386891
 20
-135.4744180976418
 30
0.0
  0
VERTEX
  5
144
330
137
100
AcDbEntity
  8
_U+30EC_U+30A4_U+30E4_U+30FC 1
370
     0
100
AcDbVertex
100
AcDb2dVertex
 10
85.83558754364527
 20
-135.4744180976418
 30
0.0
  0
VERTEX
  5
145
330
137
100
AcDbEntity
  8
_U+30EC_U+30A4_U+30E4_U+30FC 1
370
     0
100
AcDbVertex
100
AcDb2dVertex
 10
85.83558754364527
 20
-135.628758375381
 30
0.0
  0
VERTEX
  5
146
330
137
100
AcDbEntity
  8
_U+30EC_U+30A4_U+30E4_U+30FC 1
370
     0
100
AcDbVertex
100
AcDb2dVertex
 10
85.42717147386891
 20
-135.628758375381
 30
0.0
  0
VERTEX
  5
147
330
137
100
AcDbEntity
  8
_U+30EC_U+30A4_U+30E4_U+30FC 1
370
     0
100
AcDbVertex
100
AcDb2dVertex
 10
85.42717147386891
 20
-135.9822251721676
 30
0.0
  0
VERTEX
  5
148
330
137
100
AcDbEntity
  8
_U+30EC_U+30A4_U+30E4_U+30FC 1
370
     0
100
AcDbVertex
100
AcDb2dVertex
 10
85.27283119612972
 20
-135.9822251721676
 30
0.0
  0
VERTEX
  5
149
330
137
100
AcDbEntity
  8
_U+30EC_U+30A4_U+30E4_U+30FC 1
370
     0
100
AcDbVertex
100
AcDb2dVertex
 10
85.27283119612972
 20
-135.628758375381
 30
0.0
  0
VERTEX
  5
14A
330
137
100
AcDbEntity
  8
_U+30EC_U+30A4_U+30E4_U+30FC 1
370
     0
100
AcDbVertex
100
AcDb2dVertex
 10
84.8623480690622
 20
-135.628758375381
 30
0.0
  0
VERTEX
  5
14B
330
137
100
AcDbEntity
  8
_U+30EC_U+30A4_U+30E4_U+30FC 1
370
     0
100
AcDbVertex
100
AcDb2dVertex
 10
84.8623480690622
 20
-135.4744180976418
 30
0.0
  0
VERTEX
  5
14C
330
137
100
AcDbEntity
  8
_U+30EC_U+30A4_U+30E4_U+30FC 1
370
     0
100
AcDbVertex
100
AcDb2dVertex
 10
85.27283119612972
 20
-135.4744180976418
 30
0.0
  0
VERTEX
  5
14D
330
137
100
AcDbEntity
  8
_U+30EC_U+30A4_U+30E4_U+30FC 1
370
     0
100
AcDbVertex
100
AcDb2dVertex
 10
85.27283119612972
 20
-135.305263909316
 30
0.0
  0
VERTEX
  5
14E
330
137
100
AcDbEntity
  8
_U+30EC_U+30A4_U+30E4_U+30FC 1
370
     0
100
AcDbVertex
100
AcDb2dVertex
 10
84.92367076869964
 20
-135.305263909316
 30
0.0
  0
VERTEX
  5
14F
330
137
100
AcDbEntity
  8
_U+30EC_U+30A4_U+30E4_U+30FC 1
370
     0
100
AcDbVertex
100
AcDb2dVertex
 10
84.92367076869964
 20
-134.4929103938941
 30
0.0
  0
VERTEX
  5
150
330
137
100
AcDbEntity
  8
_U+30EC_U+30A4_U+30E4_U+30FC 1
370
     0
100
AcDbVertex
100
AcDb2dVertex
 10
85.27283119612972
 20
-134.4929103938941
 30
0.0
  0
VERTEX
  5
151
330
137
100
AcDbEntity
  8
_U+30EC_U+30A4_U+30E4_U+30FC 1
370
     0
100
AcDbVertex
100
AcDb2dVertex
 10
85.27283119612972
 20
-134.3382256066064
 30
0.0
  0
VERTEX
  5
152
330
137
100
AcDbEntity
  8
_U+30EC_U+30A4_U+30E4_U+30FC 1
370
     0
100
AcDbVertex
100
AcDb2dVertex
 10
84.88353540629649
 20
-134.3382256066064
 30
0.0
  0
VERTEX
  5
153
330
137
100
AcDbEntity
  8
_U+30EC_U+30A4_U+30E4_U+30FC 1
370
     0
100
AcDbVertex
100
AcDb2dVertex
 10
84.88353540629649
 20
-134.1838853288672
 30
0.0
  0
VERTEX
  5
154
330
137
100
AcDbEntity
  8
_U+30EC_U+30A4_U+30E4_U+30FC 1
370
     0
100
AcDbVertex
100
AcDb2dVertex
 10
85.27283119612972
 20
-134.1838853288672
 30
0.0
  0
SEQEND
  5
155
330
137
100
AcDbEntity
  8
_U+30EC_U+30A4_U+30E4_U+30FC 1
370
     0
  0
POLYLINE
  5
156
330
133
100
AcDbEntity
  8
_U+30EC_U+30A4_U+30E4_U+30FC 1
370
     0
100
AcDb2dPolyline
 66
     1
 10
0.0
 20
0.0
 30
0.0
  0
VERTEX
  5
157
330
156
100
AcDbEntity
  8
_U+30EC_U+30A4_U+30E4_U+30FC 1
370
     0
100
AcDbVertex
100
AcDb2dVertex
 10
85.27283119612972
 20
-134.6324367610468
 30
0.0
  0
VERTEX
  5
158
330
156
100
AcDbEntity
  8
_U+30EC_U+30A4_U+30E4_U+30FC 1
370
     0
100
AcDbVertex
100
AcDb2dVertex
 10
85.06543644791768
 20
-134.6324367610468
 30
0.0
  0
VERTEX
  5
159
330
156
100
AcDbEntity
  8
_U+30EC_U+30A4_U+30E4_U+30FC 1
370
     0
100
AcDbVertex
100
AcDb2dVertex
 10
85.06543644791768
 20
-134.835352885128
 30
0.0
  0
VERTEX
  5
15A
330
156
100
AcDbEntity
  8
_U+30EC_U+30A4_U+30E4_U+30FC 1
370
     0
100
AcDbVertex
100
AcDb2dVertex
 10
85.27283119612972
 20
-134.835352885128
 30
0.0
  0
VERTEX
  5
15B
330
156
100
AcDbEntity
  8
_U+30EC_U+30A4_U+30E4_U+30FC 1
370
     0
100
AcDbVertex
100
AcDb2dVertex
 10
85.27283119612972
 20
-134.6324367610468
 30
0.0
  0
SEQEND
  5
15C
330
156
100
AcDbEntity
  8
_U+30EC_U+30A4_U+30E4_U+30FC 1
370
     0
  0
POLYLINE
  5
15D
330
133
100
AcDbEntity
  8
_U+30EC_U+30A4_U+30E4_U+30FC 1
370
     0
100
AcDb2dPolyline
 66
     1
 10
0.0
 20
0.0
 30
0.0
  0
VERTEX
  5
15E
330
15D
100
AcDbEntity
  8
_U+30EC_U+30A4_U+30E4_U+30FC 1
370
     0
100
AcDbVertex
100
AcDb2dVertex
 10
85.27283119612972
 20
-134.9583427939514
 30
0.0
  0
VERTEX
  5
15F
330
15D
100
AcDbEntity
  8
_U+30EC_U+30A4_U+30E4_U+30FC 1
370
     0
100
AcDbVertex
100
AcDb2dVertex
 10
85.06543644791768
 20
-134.9583427939514
 30
0.0
  0
VERTEX
  5
160
330
15D
100
AcDbEntity
  8
_U+30EC_U+30A4_U+30E4_U+30FC 1
370
     0
100
AcDbVertex
100
AcDb2dVertex
 10
85.06543644791768
 20
-135.1653930326149
 30
0.0
  0
VERTEX
  5
161
330
15D
100
AcDbEntity
  8
_U+30EC_U+30A4_U+30E4_U+30FC 1
370
     0
100
AcDbVertex
100
AcDb2dVertex
 10
85.27283119612972
 20
-135.1653930326149
 30
0.0
  0
VERTEX
  5
162
330
15D
100
AcDbEntity
  8
_U+30EC_U+30A4_U+30E4_U+30FC 1
370
     0
100
AcDbVertex
100
AcDb2dVertex
 10
85.27283119612972
 20
-134.9583427939514
 30
0.0
  0
SEQEND
  5
163
330
15D
100
AcDbEntity
  8
_U+30EC_U+30A4_U+30E4_U+30FC 1
370
     0
  0
POLYLINE
  5
164
330
133
100
AcDbEntity
  8
_U+30EC_U+30A4_U+30E4_U+30FC 1
370
     0
100
AcDb2dPolyline
 66
     1
 10
0.0
 20
0.0
 30
0.0
  0
VERTEX
  5
165
330
164
100
AcDbEntity
  8
_U+30EC_U+30A4_U+30E4_U+30FC 1
370
     0
100
AcDbVertex
100
AcDb2dVertex
 10
85.63870033666325
 20
-134.6324367610468
 30
0.0
  0
VERTEX
  5
166
330
164
100
AcDbEntity
  8
_U+30EC_U+30A4_U+30E4_U+30FC 1
370
     0
100
AcDbVertex
100
AcDb2dVertex
 10
85.42717147386891
 20
-134.6324367610468
 30
0.0
  0
VERTEX
  5
167
330
164
100
AcDbEntity
  8
_U+30EC_U+30A4_U+30E4_U+30FC 1
370
     0
100
AcDbVertex
100
AcDb2dVertex
 10
85.42717147386891
 20
-134.835352885128
 30
0.0
  0
VERTEX
  5
168
330
164
100
AcDbEntity
  8
_U+30EC_U+30A4_U+30E4_U+30FC 1
370
     0
100
AcDbVertex
100
AcDb2dVertex
 10
85.63870033666325
 20
-134.835352885128
 30
0.0
  0
VERTEX
  5
169
330
164
100
AcDbEntity
  8
_U+30EC_U+30A4_U+30E4_U+30FC 1
370
     0
100
AcDbVertex
100
AcDb2dVertex
 10
85.63870033666325
 20
-134.6324367610468
 30
0.0
  0
SEQEND
  5
16A
330
164
100
AcDbEntity
  8
_U+30EC_U+30A4_U+30E4_U+30FC 1
370
     0
  0
POLYLINE
  5
16B
330
133
100
AcDbEntity
  8
_U+30EC_U+30A4_U+30E4_U+30FC 1
370
     0
100
AcDb2dPolyline
 66
     1
 10
0.0
 20
0.0
 30
0.0
  0
VERTEX
  5
16C
330
16B
100
AcDbEntity
  8
_U+30EC_U+30A4_U+30E4_U+30FC 1
370
     0
100
AcDbVertex
100
AcDb2dVertex
 10
85.63870033666325
 20
-134.9583427939514
 30
0.0
  0
VERTEX
  5
16D
330
16B
100
AcDbEntity
  8
_U+30EC_U+30A4_U+30E4_U+30FC 1
370
     0
100
AcDbVertex
100
AcDb2dVertex
 10
85.42717147386891
 20
-134.9583427939514
 30
0.0
  0
VERTEX
  5
16E
330
16B
100
AcDbEntity
  8
_U+30EC_U+30A4_U+30E4_U+30FC 1
370
     0
100
AcDbVertex
100
AcDb2dVertex
 10
85.42717147386891
 20
-135.1653930326149
 30
0.0
  0
VERTEX
  5
16F
330
16B
100
AcDbEntity
  8
_U+30EC_U+30A4_U+30E4_U+30FC 1
370
     0
100
AcDbVertex
100
AcDb2dVertex
 10
85.63870033666325
 20
-135.1653930326149
 30
0.0
  0
VERTEX
  5
170
330
16B
100
AcDbEntity
  8
_U+30EC_U+30A4_U+30E4_U+30FC 1
370
     0
100
AcDbVertex
100
AcDb2dVertex
 10
85.63870033666325
 20
-134.9583427939514
 30
0.0
  0
SEQEND
  5
171
330
16B
100
AcDbEntity
  8
_U+30EC_U+30A4_U+30E4_U+30FC 1
370
     0
  0
SPLINE
  5
172
330
133
100
AcDbEntity
  8
_U+30EC_U+30A4_U+30E4_U+30FC 1
370
     0
100
AcDbSpline
210
0.0
220
0.0
230
1.0
 70
    11
 71
     3
 72
    38
 73
    34
 74
     0
 42
0.0000000001
 43
0.0000000001
 12
1.0
 22
0.0
 32
0.0
 13
1.0
 23
0.0
 33
0.0
 40
0.0
 40
0.0
 40
0.0
 40
0.0
 40
1.0
 40
1.0
 40
1.0
 40
2.0
 40
2.0
 40
2.0
 40
3.0
 40
3.0
 40
3.0
 40
4.0
 40
4.0
 40
4.0
 40
5.0
 40
5.0
 40
5.0
 40
6.0
 40
6.0
 40
6.0
 40
7.0
 40
7.0
 40
7.0
 40
8.0
 40
8.0
 40
8.0
 40
9.0
 40
9.0
 40
9.0
 40
10.0
 40
10.0
 40
10.0
 40
11.0
 40
11.0
 40
11.0
 40
11.0
 10
85.68107501113182
 20
-135.8468329195973
 30
0.0
 10
85.76358504800355
 20
-135.7937784491245
 30
0.0
 10
85.92860512174703
 20
-135.6859469604362
 30
0.0
 10
86.03436955314419
 20
-135.4785522122241
 30
0.0
 10
86.18250865900993
 20
-135.1867526246235
 30
0.0
 10
86.18250865900993
 20
-134.9604098512425
 30
0.0
 10
86.18250865900993
 20
-134.8756605023054
 30
0.0
 10
86.18250865900993
 20
-134.8756605023054
 30
0.0
 10
86.18250865900993
 20
-134.6410494997599
 30
0.0
 10
86.18250865900993
 20
-134.6410494997599
 30
0.0
 10
86.18250865900993
 20
-134.6410494997599
 30
0.0
 10
86.3475287327534
 20
-134.6410494997599
 30
0.0
 10
86.3475287327534
 20
-134.6410494997599
 30
0.0
 10
86.3475287327534
 20
-134.6410494997599
 30
0.0
 10
86.3475287327534
 20
-134.8673922731408
 30
0.0
 10
86.3475287327534
 20
-134.8673922731408
 30
0.0
 10
86.3475287327534
 20
-135.0661742826397
 30
0.0
 10
86.41298554697315
 20
-135.3031968520249
 30
0.0
 10
86.51461586378802
 20
-135.476485154933
 30
0.0
 10
86.6308878364152
 20
-135.6752671644319
 30
0.0
 10
86.75990666233781
 20
-135.7748304239556
 30
0.0
 10
86.84465601127495
 20
-135.836153123593
 30
0.0
 10
86.84465601127495
 20
-135.836153123593
 30
0.0
 10
86.73665226781237
 20
-135.9863592867499
 30
0.0
 10
86.73665226781237
 20
-135.9863592867499
 30
0.0
 10
86.55905759554774
 20
-135.8571682060531
 30
0.0
 10
86.36010333127456
 20
-135.6180785793767
 30
0.0
 10
86.28189966375939
 20
-135.2649562921386
 30
0.0
 10
86.21627059476538
 20
-135.504045918815
 30
0.0
 10
86.11481253272477
 20
-135.7727633666645
 30
0.0
 10
85.80595972247212
 20
-135.9822251721676
 30
0.0
 10
85.80595972247212
 20
-135.9822251721676
 30
0.0
 10
85.68107501113182
 20
-135.8468329195973
 30
0.0
 10
85.68107501113182
 20
-135.8468329195973
 30
0.0
  0
SPLINE
  5
173
330
133
100
AcDbEntity
  8
_U+30EC_U+30A4_U+30E4_U+30FC 1
370
     0
100
AcDbSpline
210
0.0
220
0.0
230
1.0
 70
    11
 71
     3
 72
    38
 73
    34
 74
     0
 42
0.0000000001
 43
0.0000000001
 12
1.0
 22
0.0
 32
0.0
 13
1.0
 23
0.0
 33
0.0
 40
0.0
 40
0.0
 40
0.0
 40
0.0
 40
1.0
 40
1.0
 40
1.0
 40
2.0
 40
2.0
 40
2.0
 40
3.0
 40
3.0
 40
3.0
 40
4.0
 40
4.0
 40
4.0
 40
5.0
 40
5.0
 40
5.0
 40
6.0
 40
6.0
 40
6.0
 40
7.0
 40
7.0
 40
7.0
 40
8.0
 40
8.0
 40
8.0
 40
9.0
 40
9.0
 40
9.0
 40
10.0
 40
10.0
 40
10.0
 40
11.0
 40
11.0
 40
11.0
 40
11.0
 10
85.79527992646786
 20
-134.7740301854905
 30
0.0
 10
85.88846975934386
 20
-134.6513847862156
 30
0.0
 10
86.01318221590991
 20
-134.4715508018856
 30
0.0
 10
86.10843910607706
 20
-134.0229993697061
 30
0.0
 10
86.10843910607706
 20
-134.0229993697061
 30
0.0
 10
86.27552623711168
 20
-134.0422919044235
 30
0.0
 10
86.27552623711168
 20
-134.0422919044235
 30
0.0
 10
86.2502047852951
 20
-134.1628702464072
 30
0.0
 10
86.22695039076966
 20
-134.2538207672178
 30
0.0
 10
86.18870983088338
 20
-134.3616522559061
 30
0.0
 10
86.18870983088338
 20
-134.3616522559061
 30
0.0
 10
86.81709524739296
 20
-134.3616522559061
 30
0.0
 10
86.81709524739296
 20
-134.3616522559061
 30
0.0
 10
86.81709524739296
 20
-134.3616522559061
 30
0.0
 10
86.81709524739296
 20
-134.5139254763542
 30
0.0
 10
86.81709524739296
 20
-134.5139254763542
 30
0.0
 10
86.7833333116375
 20
-134.6558634103465
 30
0.0
 10
86.68807642147034
 20
-134.9139010621917
 30
0.0
 10
86.61400686853747
 20
-135.0324123468843
 30
0.0
 10
86.61400686853747
 20
-135.0324123468843
 30
0.0
 10
86.46173364808944
 20
-134.9538641698206
 30
0.0
 10
86.46173364808944
 20
-134.9538641698206
 30
0.0
 10
86.55681828348233
 20
-134.8184719172502
 30
0.0
 10
86.62244735247634
 20
-134.6303697037556
 30
0.0
 10
86.65000811635834
 20
-134.5201266482276
 30
0.0
 10
86.65000811635834
 20
-134.5201266482276
 30
0.0
 10
86.1316935006025
 20
-134.5201266482276
 30
0.0
 10
86.1316935006025
 20
-134.5201266482276
 30
0.0
 10
86.03230249585305
 20
-134.7616278417436
 30
0.0
 10
85.95823294292016
 20
-134.8501667957146
 30
0.0
 10
85.92016463780816
 20
-134.8946085274743
 30
0.0
 10
85.92016463780816
 20
-134.8946085274743
 30
0.0
 10
85.79527992646786
 20
-134.7740301854905
 30
0.0
 10
85.79527992646786
 20
-134.7740301854905
 30
0.0
  0
HATCH
  5
174
330
133
100
AcDbEntity
  8
_U+30EC_U+30A4_U+30E4_U+30FC 1
 62
    12
420
 15007761
100
AcDbHatch
 10
0.0
 20
0.0
 30
0.0
210
0.0
220
0.0
230
1.0
  2
SOLID
 70
     1
 71
     0
 91
        7
 92
        1
 93
       28
 72
     1
 10
85.27283119612972
 20
-134.1838853288672
 11
85.27283119612972
 21
-134.0229993697061
 72
     1
 10
85.27283119612972
 20
-134.0229993697061
 11
85.42717147386891
 21
-134.0229993697061
 72
     1
 10
85.42717147386891
 20
-134.0229993697061
 11
85.42717147386891
 21
-134.1838853288672
 72
     1
 10
85.42717147386891
 20
-134.1838853288672
 11
85.82077363305869
 21
-134.1838853288672
 72
     1
 10
85.82077363305869
 20
-134.1838853288672
 11
85.82077363305869
 21
-134.3382256066064
 72
     1
 10
85.82077363305869
 20
-134.3382256066064
 11
85.42717147386891
 21
-134.3382256066064
 72
     1
 10
85.42717147386891
 20
-134.3382256066064
 11
85.42717147386891
 21
-134.4929103938941
 72
     1
 10
85.42717147386891
 20
-134.4929103938941
 11
85.78253307317243
 21
-134.4929103938941
 72
     1
 10
85.78253307317243
 20
-134.4929103938941
 11
85.78253307317243
 21
-135.305263909316
 72
     1
 10
85.78253307317243
 20
-135.305263909316
 11
85.42717147386891
 21
-135.305263909316
 72
     1
 10
85.42717147386891
 20
-135.305263909316
 11
85.42717147386891
 21
-135.4744180976418
 72
     1
 10
85.42717147386891
 20
-135.4744180976418
 11
85.83558754364527
 21
-135.4744180976418
 72
     1
 10
85.83558754364527
 20
-135.4744180976418
 11
85.83558754364527
 21
-135.628758375381
 72
     1
 10
85.83558754364527
 20
-135.628758375381
 11
85.42717147386891
 21
-135.628758375381
 72
     1
 10
85.42717147386891
 20
-135.628758375381
 11
85.42717147386891
 21
-135.9822251721676
 72
     1
 10
85.42717147386891
 20
-135.9822251721676
 11
85.27283119612972
 21
-135.9822251721676
 72
     1
 10
85.27283119612972
 20
-135.9822251721676
 11
85.27283119612972
 21
-135.628758375381
 72
     1
 10
85.27283119612972
 20
-135.628758375381
 11
84.8623480690622
 21
-135.628758375381
 72
     1
 10
84.8623480690622
 20
-135.628758375381
 11
84.8623480690622
 21
-135.4744180976418
 72
     1
 10
84.8623480690622
 20
-135.4744180976418
 11
85.27283119612972
 21
-135.4744180976418
 72
     1
 10
85.27283119612972
 20
-135.4744180976418
 11
85.27283119612972
 21
-135.305263909316
 72
     1
 10
85.27283119612972
 20
-135.305263909316
 11
84.92367076869964
 21
-135.305263909316
 72
     1
 10
84.92367076869964
 20
-135.305263909316
 11
84.92367076869964
 21
-134.4929103938941
 72
     1
 10
84.92367076869964
 20
-134.4929103938941
 11
85.27283119612972
 21
-134.4929103938941
 72
     1
 10
85.27283119612972
 20
-134.4929103938941
 11
85.27283119612972
 21
-134.3382256066064
 72
     1
 10
85.27283119612972
 20
-134.3382256066064
 11
84.88353540629649
 21
-134.3382256066064
 72
     1
 10
84.88353540629649
 20
-134.3382256066064
 11
84.88353540629649
 21
-134.1838853288672
 72
     1
 10
84.88353540629649
 20
-134.1838853288672
 11
85.27283119612972
 21
-134.1838853288672
 97
        0
 92
        1
 93
        4
 72
     1
 10
85.27283119612972
 20
-134.6324367610468
 11
85.06543644791768
 21
-134.6324367610468
 72
     1
 10
85.06543644791768
 20
-134.6324367610468
 11
85.06543644791768
 21
-134.835352885128
 72
     1
 10
85.06543644791768
 20
-134.835352885128
 11
85.27283119612972
 21
-134.835352885128
 72
     1
 10
85.27283119612972
 20
-134.835352885128
 11
85.27283119612972
 21
-134.6324367610468
 97
        0
 92
        1
 93
        4
 72
     1
 10
85.27283119612972
 20
-134.9583427939514
 11
85.06543644791768
 21
-134.9583427939514
 72
     1
 10
85.06543644791768
 20
-134.9583427939514
 11
85.06543644791768
 21
-135.1653930326149
 72
     1
 10
85.06543644791768
 20
-135.1653930326149
 11
85.27283119612972
 21
-135.1653930326149
 72
     1
 10
85.27283119612972
 20
-135.1653930326149
 11
85.27283119612972
 21
-134.9583427939514
 97
        0
 92
        1
 93
        4
 72
     1
 10
85.63870033666325
 20
-134.6324367610468
 11
85.42717147386891
 21
-134.6324367610468
 72
     1
 10
85.42717147386891
 20
-134.6324367610468
 11
85.42717147386891
 21
-134.835352885128
 72
     1
 10
85.42717147386891
 20
-134.835352885128
 11
85.63870033666325
 21
-134.835352885128
 72
     1
 10
85.63870033666325
 20
-134.835352885128
 11
85.63870033666325
 21
-134.6324367610468
 97
        0
 92
        1
 93
        4
 72
     1
 10
85.63870033666325
 20
-134.9583427939514
 11
85.42717147386891
 21
-134.9583427939514
 72
     1
 10
85.42717147386891
 20
-134.9583427939514
 11
85.42717147386891
 21
-135.1653930326149
 72
     1
 10
85.42717147386891
 20
-135.1653930326149
 11
85.63870033666325
 21
-135.1653930326149
 72
     1
 10
85.63870033666325
 20
-135.1653930326149
 11
85.63870033666325
 21
-134.9583427939514
 97
        0
 92
        1
 93
        1
 72
     4
 94
        3
 73
     0
 74
     1
 95
       38
 96
       34
 40
0.0
 40
0.0
 40
0.0
 40
0.0
 40
1.0
 40
1.0
 40
1.0
 40
2.0
 40
2.0
 40
2.0
 40
3.0
 40
3.0
 40
3.0
 40
4.0
 40
4.0
 40
4.0
 40
5.0
 40
5.0
 40
5.0
 40
6.0
 40
6.0
 40
6.0
 40
7.0
 40
7.0
 40
7.0
 40
8.0
 40
8.0
 40
8.0
 40
9.0
 40
9.0
 40
9.0
 40
10.0
 40
10.0
 40
10.0
 40
11.0
 40
11.0
 40
11.0
 40
11.0
 10
85.68107501113182
 20
-135.8468329195973
 10
85.76358504800355
 20
-135.7937784491245
 10
85.92860512174703
 20
-135.6859469604362
 10
86.03436955314419
 20
-135.4785522122241
 10
86.18250865900993
 20
-135.1867526246235
 10
86.18250865900993
 20
-134.9604098512425
 10
86.18250865900993
 20
-134.8756605023054
 10
86.18250865900993
 20
-134.8756605023054
 10
86.18250865900993
 20
-134.6410494997599
 10
86.18250865900993
 20
-134.6410494997599
 10
86.18250865900993
 20
-134.6410494997599
 10
86.3475287327534
 20
-134.6410494997599
 10
86.3475287327534
 20
-134.6410494997599
 10
86.3475287327534
 20
-134.6410494997599
 10
86.3475287327534
 20
-134.8673922731408
 10
86.3475287327534
 20
-134.8673922731408
 10
86.3475287327534
 20
-135.0661742826397
 10
86.41298554697315
 20
-135.3031968520249
 10
86.51461586378802
 20
-135.476485154933
 10
86.6308878364152
 20
-135.6752671644319
 10
86.75990666233781
 20
-135.7748304239556
 10
86.84465601127495
 20
-135.836153123593
 10
86.84465601127495
 20
-135.836153123593
 10
86.73665226781237
 20
-135.9863592867499
 10
86.73665226781237
 20
-135.9863592867499
 10
86.55905759554774
 20
-135.8571682060531
 10
86.36010333127456
 20
-135.6180785793767
 10
86.28189966375939
 20
-135.2649562921386
 10
86.21627059476538
 20
-135.504045918815
 10
86.11481253272477
 20
-135.7727633666645
 10
85.80595972247212
 20
-135.9822251721676
 10
85.80595972247212
 20
-135.9822251721676
 10
85.68107501113182
 20
-135.8468329195973
 10
85.68107501113182
 20
-135.8468329195973
 97
        0
 97
        0
 92
        1
 93
        1
 72
     4
 94
        3
 73
     0
 74
     1
 95
       38
 96
       34
 40
0.0
 40
0.0
 40
0.0
 40
0.0
 40
1.0
 40
1.0
 40
1.0
 40
2.0
 40
2.0
 40
2.0
 40
3.0
 40
3.0
 40
3.0
 40
4.0
 40
4.0
 40
4.0
 40
5.0
 40
5.0
 40
5.0
 40
6.0
 40
6.0
 40
6.0
 40
7.0
 40
7.0
 40
7.0
 40
8.0
 40
8.0
 40
8.0
 40
9.0
 40
9.0
 40
9.0
 40
10.0
 40
10.0
 40
10.0
 40
11.0
 40
11.0
 40
11.0
 40
11.0
 10
85.79527992646786
 20
-134.7740301854905
 10
85.88846975934386
 20
-134.6513847862156
 10
86.01318221590991
 20
-134.4715508018856
 10
86.10843910607706
 20
-134.0229993697061
 10
86.10843910607706
 20
-134.0229993697061
 10
86.27552623711168
 20
-134.0422919044235
 10
86.27552623711168
 20
-134.0422919044235
 10
86.2502047852951
 20
-134.1628702464072
 10
86.22695039076966
 20
-134.2538207672178
 10
86.18870983088338
 20
-134.3616522559061
 10
86.18870983088338
 20
-134.3616522559061
 10
86.81709524739296
 20
-134.3616522559061
 10
86.81709524739296
 20
-134.3616522559061
 10
86.81709524739296
 20
-134.3616522559061
 10
86.81709524739296
 20
-134.5139254763542
 10
86.81709524739296
 20
-134.5139254763542
 10
86.7833333116375
 20
-134.6558634103465
 10
86.68807642147034
 20
-134.9139010621917
 10
86.61400686853747
 20
-135.0324123468843
 10
86.61400686853747
 20
-135.0324123468843
 10
86.46173364808944
 20
-134.9538641698206
 10
86.46173364808944
 20
-134.9538641698206
 10
86.55681828348233
 20
-134.8184719172502
 10
86.62244735247634
 20
-134.6303697037556
 10
86.65000811635834
 20
-134.5201266482276
 10
86.65000811635834
 20
-134.5201266482276
 10
86.1316935006025
 20
-134.5201266482276
 10
86.1316935006025
 20
-134.5201266482276
 10
86.03230249585305
 20
-134.7616278417436
 10
85.95823294292016
 20
-134.8501667957146
 10
85.92016463780816
 20
-134.8946085274743
 10
85.92016463780816
 20
-134.8946085274743
 10
85.79527992646786
 20
-134.7740301854905
 10
85.79527992646786
 20
-134.7740301854905
 97
        0
 97
        0
 75
     2
 76
     1
 98
        0
  0
SPLINE
  5
175
330
133
100
AcDbEntity
  8
_U+30EC_U+30A4_U+30E4_U+30FC 1
370
     0
100
AcDbSpline
210
0.0
220
0.0
230
1.0
 70
    11
 71
     3
 72
    50
 73
    46
 74
     0
 42
0.0000000001
 43
0.0000000001
 12
1.0
 22
0.0
 32
0.0
 13
1.0
 23
0.0
 33
0.0
 40
0.0
 40
0.0
 40
0.0
 40
0.0
 40
1.0
 40
1.0
 40
1.0
 40
2.0
 40
2.0
 40
2.0
 40
3.0
 40
3.0
 40
3.0
 40
4.0
 40
4.0
 40
4.0
 40
5.0
 40
5.0
 40
5.0
 40
6.0
 40
6.0
 40
6.0
 40
7.0
 40
7.0
 40
7.0
 40
8.0
 40
8.0
 40
8.0
 40
9.0
 40
9.0
 40
9.0
 40
10.0
 40
10.0
 40
10.0
 40
11.0
 40
11.0
 40
11.0
 40
12.0
 40
12.0
 40
12.0
 40
13.0
 40
13.0
 40
13.0
 40
14.0
 40
14.0
 40
14.0
 40
15.0
 40
15.0
 40
15.0
 40
15.0
 10
87.28993460274349
 20
-134.3213446387287
 30
0.0
 10
87.28993460274349
 20
-134.3213446387287
 30
0.0
 10
87.9415744137785
 20
-134.3213446387287
 30
0.0
 10
87.9415744137785
 20
-134.3213446387287
 30
0.0
 10
87.9415744137785
 20
-134.3213446387287
 30
0.0
 10
87.9415744137785
 20
-134.4464016048433
 30
0.0
 10
87.9415744137785
 20
-134.4464016048433
 30
0.0
 10
87.9415744137785
 20
-134.4464016048433
 30
0.0
 10
87.66441648199014
 20
-134.4464016048433
 30
0.0
 10
87.66441648199014
 20
-134.4464016048433
 30
0.0
 10
87.66441648199014
 20
-134.4464016048433
 30
0.0
 10
87.66441648199014
 20
-134.7213202245662
 30
0.0
 10
87.66441648199014
 20
-134.7213202245662
 30
0.0
 10
87.66441648199014
 20
-134.7213202245662
 30
0.0
 10
87.50370277760325
 20
-134.7213202245662
 30
0.0
 10
87.50370277760325
 20
-134.7213202245662
 30
0.0
 10
87.50370277760325
 20
-134.7213202245662
 30
0.0
 10
87.50370277760325
 20
-134.4464016048433
 30
0.0
 10
87.50370277760325
 20
-134.4464016048433
 30
0.0
 10
87.50370277760325
 20
-134.4464016048433
 30
0.0
 10
87.28373343087004
 20
-134.4464016048433
 30
0.0
 10
87.28373343087004
 20
-134.4464016048433
 30
0.0
 10
87.27305363486578
 20
-134.5159925336453
 30
0.0
 10
87.24773218304918
 20
-134.7106404285619
 30
0.0
 10
87.09321965053573
 20
-134.8608465917188
 30
0.0
 10
87.09321965053573
 20
-134.8608465917188
 30
0.0
 10
86.97057425126083
 20
-134.7509480457394
 30
0.0
 10
86.97057425126083
 20
-134.7509480457394
 30
0.0
 10
87.09115259324457
 20
-134.6513847862156
 30
0.0
 10
87.13352726771315
 20
-134.4464016048433
 30
0.0
 10
87.13352726771315
 20
-134.3637193131973
 30
0.0
 10
87.13352726771315
 20
-134.3637193131973
 30
0.0
 10
87.13352726771315
 20
-134.0781208974701
 30
0.0
 10
87.13352726771315
 20
-134.0781208974701
 30
0.0
 10
87.61790769293928
 20
-134.0781208974701
 30
0.0
 10
87.77242022545273
 20
-134.0316121084192
 30
0.0
 10
87.86750486084563
 20
-134.0040513445372
 30
0.0
 10
87.86750486084563
 20
-134.0040513445372
 30
0.0
 10
87.92038707654422
 20
-134.1435777116898
 30
0.0
 10
87.92038707654422
 20
-134.1435777116898
 30
0.0
 10
87.71092527104102
 20
-134.1924980675803
 30
0.0
 10
87.54814450936297
 20
-134.2028333540361
 30
0.0
 10
87.28993460274349
 20
-134.2073119781669
 30
0.0
 10
87.28993460274349
 20
-134.2073119781669
 30
0.0
 10
87.28993460274349
 20
-134.3213446387287
 30
0.0
 10
87.28993460274349
 20
-134.3213446387287
 30
0.0
  0
SPLINE
  5
176
330
133
100
AcDbEntity
  8
_U+30EC_U+30A4_U+30E4_U+30FC 1
370
     0
100
AcDbSpline
210
0.0
220
0.0
230
1.0
 70
    11
 71
     3
 72
    32
 73
    28
 74
     0
 42
0.0000000001
 43
0.0000000001
 12
1.0
 22
0.0
 32
0.0
 13
1.0
 23
0.0
 33
0.0
 40
0.0
 40
0.0
 40
0.0
 40
0.0
 40
1.0
 40
1.0
 40
1.0
 40
2.0
 40
2.0
 40
2.0
 40
3.0
 40
3.0
 40
3.0
 40
4.0
 40
4.0
 40
4.0
 40
5.0
 40
5.0
 40
5.0
 40
6.0
 40
6.0
 40
6.0
 40
7.0
 40
7.0
 40
7.0
 40
8.0
 40
8.0
 40
8.0
 40
9.0
 40
9.0
 40
9.0
 40
9.0
 10
87.2053575085806
 20
-135.6669989352673
 30
0.0
 10
87.2053575085806
 20
-135.6669989352673
 30
0.0
 10
87.2053575085806
 20
-134.7678290136171
 30
0.0
 10
87.2053575085806
 20
-134.7678290136171
 30
0.0
 10
87.2053575085806
 20
-134.7678290136171
 30
0.0
 10
88.70311277079297
 20
-134.7678290136171
 30
0.0
 10
88.70311277079297
 20
-134.7678290136171
 30
0.0
 10
88.70311277079297
 20
-134.7678290136171
 30
0.0
 10
88.70311277079297
 20
-135.6669989352673
 30
0.0
 10
88.70311277079297
 20
-135.6669989352673
 30
0.0
 10
88.70311277079297
 20
-135.6669989352673
 30
0.0
 10
87.55865205059298
 20
-135.6669989352673
 30
0.0
 10
87.55865205059298
 20
-135.6669989352673
 30
0.0
 10
87.55865205059298
 20
-135.6669989352673
 30
0.0
 10
87.66441648199014
 20
-135.7768974812467
 30
0.0
 10
87.66441648199014
 20
-135.7768974812467
 30
0.0
 10
87.49939640824668
 20
-135.8719821166397
 30
0.0
 10
87.33437633450322
 20
-135.9333048162771
 30
0.0
 10
87.038270377546
 20
-135.9842922294588
 30
0.0
 10
87.038270377546
 20
-135.9842922294588
 30
0.0
 10
86.97264130855199
 20
-135.8320190090108
 30
0.0
 10
86.97264130855199
 20
-135.8320190090108
 30
0.0
 10
87.3514295571552
 20
-135.7789645385379
 30
0.0
 10
87.4740749564301
 20
-135.711440667027
 30
0.0
 10
87.55451793601068
 20
-135.6669989352673
 30
0.0
 10
87.55451793601068
 20
-135.6669989352673
 30
0.0
 10
87.2053575085806
 20
-135.6669989352673
 30
0.0
 10
87.2053575085806
 20
-135.6669989352673
 30
0.0
  0
POLYLINE
  5
177
330
133
100
AcDbEntity
  8
_U+30EC_U+30A4_U+30E4_U+30FC 1
370
     0
100
AcDb2dPolyline
 66
     1
 10
0.0
 20
0.0
 30
0.0
  0
VERTEX
  5
178
330
177
100
AcDbEntity
  8
_U+30EC_U+30A4_U+30E4_U+30FC 1
370
     0
100
AcDbVertex
100
AcDb2dVertex
 10
88.5339585824672
 20
-134.9011542088963
 30
0.0
  0
VERTEX
  5
179
330
177
100
AcDbEntity
  8
_U+30EC_U+30A4_U+30E4_U+30FC 1
370
     0
100
AcDbVertex
100
AcDb2dVertex
 10
87.37468395168064
 20
-134.9011542088963
 30
0.0
  0
VERTEX
  5
17A
330
177
100
AcDbEntity
  8
_U+30EC_U+30A4_U+30E4_U+30FC 1
370
     0
100
AcDbVertex
100
AcDb2dVertex
 10
87.37468395168064
 20
-135.0300007800446
 30
0.0
  0
VERTEX
  5
17B
330
177
100
AcDbEntity
  8
_U+30EC_U+30A4_U+30E4_U+30FC 1
370
     0
100
AcDbVertex
100
AcDb2dVertex
 10
88.5339585824672
 20
-135.0300007800446
 30
0.0
  0
VERTEX
  5
17C
330
177
100
AcDbEntity
  8
_U+30EC_U+30A4_U+30E4_U+30FC 1
370
     0
100
AcDbVertex
100
AcDb2dVertex
 10
88.5339585824672
 20
-134.9011542088963
 30
0.0
  0
SEQEND
  5
17D
330
177
100
AcDbEntity
  8
_U+30EC_U+30A4_U+30E4_U+30FC 1
370
     0
  0
POLYLINE
  5
17E
330
133
100
AcDbEntity
  8
_U+30EC_U+30A4_U+30E4_U+30FC 1
370
     0
100
AcDb2dPolyline
 66
     1
 10
0.0
 20
0.0
 30
0.0
  0
VERTEX
  5
17F
330
17E
100
AcDbEntity
  8
_U+30EC_U+30A4_U+30E4_U+30FC 1
370
     0
100
AcDbVertex
100
AcDb2dVertex
 10
88.5339585824672
 20
-135.1402438355726
 30
0.0
  0
VERTEX
  5
180
330
17E
100
AcDbEntity
  8
_U+30EC_U+30A4_U+30E4_U+30FC 1
370
     0
100
AcDbVertex
100
AcDb2dVertex
 10
87.37468395168064
 20
-135.1402438355726
 30
0.0
  0
VERTEX
  5
181
330
17E
100
AcDbEntity
  8
_U+30EC_U+30A4_U+30E4_U+30FC 1
370
     0
100
AcDbVertex
100
AcDb2dVertex
 10
87.37468395168064
 20
-135.2818372600163
 30
0.0
  0
VERTEX
  5
182
330
17E
100
AcDbEntity
  8
_U+30EC_U+30A4_U+30E4_U+30FC 1
370
     0
100
AcDbVertex
100
AcDb2dVertex
 10
88.5339585824672
 20
-135.2818372600163
 30
0.0
  0
VERTEX
  5
183
330
17E
100
AcDbEntity
  8
_U+30EC_U+30A4_U+30E4_U+30FC 1
370
     0
100
AcDbVertex
100
AcDb2dVertex
 10
88.5339585824672
 20
-135.1402438355726
 30
0.0
  0
SEQEND
  5
184
330
17E
100
AcDbEntity
  8
_U+30EC_U+30A4_U+30E4_U+30FC 1
370
     0
  0
POLYLINE
  5
185
330
133
100
AcDbEntity
  8
_U+30EC_U+30A4_U+30E4_U+30FC 1
370
     0
100
AcDb2dPolyline
 66
     1
 10
0.0
 20
0.0
 30
0.0
  0
VERTEX
  5
186
330
185
100
AcDbEntity
  8
_U+30EC_U+30A4_U+30E4_U+30FC 1
370
     0
100
AcDbVertex
100
AcDb2dVertex
 10
88.5339585824672
 20
-135.3917358059958
 30
0.0
  0
VERTEX
  5
187
330
185
100
AcDbEntity
  8
_U+30EC_U+30A4_U+30E4_U+30FC 1
370
     0
100
AcDbVertex
100
AcDb2dVertex
 10
87.37468395168064
 20
-135.3917358059958
 30
0.0
  0
VERTEX
  5
188
330
185
100
AcDbEntity
  8
_U+30EC_U+30A4_U+30E4_U+30FC 1
370
     0
100
AcDbVertex
100
AcDb2dVertex
 10
87.37468395168064
 20
-135.531606682697
 30
0.0
  0
VERTEX
  5
189
330
185
100
AcDbEntity
  8
_U+30EC_U+30A4_U+30E4_U+30FC 1
370
     0
100
AcDbVertex
100
AcDb2dVertex
 10
88.5339585824672
 20
-135.531606682697
 30
0.0
  0
VERTEX
  5
18A
330
185
100
AcDbEntity
  8
_U+30EC_U+30A4_U+30E4_U+30FC 1
370
     0
100
AcDbVertex
100
AcDb2dVertex
 10
88.5339585824672
 20
-135.3917358059958
 30
0.0
  0
SEQEND
  5
18B
330
185
100
AcDbEntity
  8
_U+30EC_U+30A4_U+30E4_U+30FC 1
370
     0
  0
SPLINE
  5
18C
330
133
100
AcDbEntity
  8
_U+30EC_U+30A4_U+30E4_U+30FC 1
370
     0
100
AcDbSpline
210
0.0
220
0.0
230
1.0
 70
    11
 71
     3
 72
    50
 73
    46
 74
     0
 42
0.0000000001
 43
0.0000000001
 12
1.0
 22
0.0
 32
0.0
 13
1.0
 23
0.0
 33
0.0
 40
0.0
 40
0.0
 40
0.0
 40
0.0
 40
1.0
 40
1.0
 40
1.0
 40
2.0
 40
2.0
 40
2.0
 40
3.0
 40
3.0
 40
3.0
 40
4.0
 40
4.0
 40
4.0
 40
5.0
 40
5.0
 40
5.0
 40
6.0
 40
6.0
 40
6.0
 40
7.0
 40
7.0
 40
7.0
 40
8.0
 40
8.0
 40
8.0
 40
9.0
 40
9.0
 40
9.0
 40
10.0
 40
10.0
 40
10.0
 40
11.0
 40
11.0
 40
11.0
 40
12.0
 40
12.0
 40
12.0
 40
13.0
 40
13.0
 40
13.0
 40
14.0
 40
14.0
 40
14.0
 40
15.0
 40
15.0
 40
15.0
 40
15.0
 10
88.19754500833257
 20
-134.3213446387287
 30
0.0
 10
88.19754500833257
 20
-134.3213446387287
 30
0.0
 10
88.93376191353045
 20
-134.3213446387287
 30
0.0
 10
88.93376191353045
 20
-134.3213446387287
 30
0.0
 10
88.93376191353045
 20
-134.3213446387287
 30
0.0
 10
88.93376191353045
 20
-134.4464016048433
 30
0.0
 10
88.93376191353045
 20
-134.4464016048433
 30
0.0
 10
88.93376191353045
 20
-134.4464016048433
 30
0.0
 10
88.60372176604352
 20
-134.4464016048433
 30
0.0
 10
88.60372176604352
 20
-134.4464016048433
 30
0.0
 10
88.60372176604352
 20
-134.4464016048433
 30
0.0
 10
88.60372176604352
 20
-134.7213202245662
 30
0.0
 10
88.60372176604352
 20
-134.7213202245662
 30
0.0
 10
88.60372176604352
 20
-134.7213202245662
 30
0.0
 10
88.44714217623891
 20
-134.7213202245662
 30
0.0
 10
88.44714217623891
 20
-134.7213202245662
 30
0.0
 10
88.44714217623891
 20
-134.7213202245662
 30
0.0
 10
88.44714217623891
 20
-134.4464016048433
 30
0.0
 10
88.44714217623891
 20
-134.4464016048433
 30
0.0
 10
88.44714217623891
 20
-134.4464016048433
 30
0.0
 10
88.18273109774599
 20
-134.4464016048433
 30
0.0
 10
88.18273109774599
 20
-134.4464016048433
 30
0.0
 10
88.1574096459294
 20
-134.5752481759916
 30
0.0
 10
88.10659448752196
 20
-134.6661986968022
 30
0.0
 10
88.00927054006365
 20
-134.7488809884482
 30
0.0
 10
88.00927054006365
 20
-134.7488809884482
 30
0.0
 10
87.88662514078877
 20
-134.6410494997599
 30
0.0
 10
87.88662514078877
 20
-134.6410494997599
 30
0.0
 10
88.02201739335908
 20
-134.5308064442319
 30
0.0
 10
88.04527178788452
 20
-134.3933471343704
 30
0.0
 10
88.04527178788452
 20
-134.3192775814375
 30
0.0
 10
88.04527178788452
 20
-134.3192775814375
 30
0.0
 10
88.04527178788452
 20
-134.0760538401789
 30
0.0
 10
88.04527178788452
 20
-134.0760538401789
 30
0.0
 10
88.51483830252407
 20
-134.0760538401789
 30
0.0
 10
88.68209768833295
 20
-134.0357462230015
 30
0.0
 10
88.82593042484213
 20
-133.9933715485329
 30
0.0
 10
88.82593042484213
 20
-133.9933715485329
 30
0.0
 10
88.88518606718843
 20
-134.1311753679429
 30
0.0
 10
88.88518606718843
 20
-134.1311753679429
 30
0.0
 10
88.61440156204779
 20
-134.2007662967449
 30
0.0
 10
88.29917532514743
 20
-134.2052449208758
 30
0.0
 10
88.19754500833257
 20
-134.2052449208758
 30
0.0
 10
88.19754500833257
 20
-134.2052449208758
 30
0.0
 10
88.19754500833257
 20
-134.3213446387287
 30
0.0
 10
88.19754500833257
 20
-134.3213446387287
 30
0.0
  0
SPLINE
  5
18D
330
133
100
AcDbEntity
  8
_U+30EC_U+30A4_U+30E4_U+30FC 1
370
     0
100
AcDbSpline
210
0.0
220
0.0
230
1.0
 70
    11
 71
     3
 72
    17
 73
    13
 74
     0
 42
0.0000000001
 43
0.0000000001
 12
1.0
 22
0.0
 32
0.0
 13
1.0
 23
0.0
 33
0.0
 40
0.0
 40
0.0
 40
0.0
 40
0.0
 40
1.0
 40
1.0
 40
1.0
 40
2.0
 40
2.0
 40
2.0
 40
3.0
 40
3.0
 40
3.0
 40
4.0
 40
4.0
 40
4.0
 40
4.0
 10
88.30968286637744
 20
-135.6732001071407
 30
0.0
 10
88.52965221311065
 20
-135.7855102199599
 30
0.0
 10
88.79630260366898
 20
-135.8234062702976
 30
0.0
 10
88.92532142959159
 20
-135.8340860663019
 30
0.0
 10
88.92532142959159
 20
-135.8340860663019
 30
0.0
 10
88.85555824601528
 20
-135.9884263440411
 30
0.0
 10
88.85555824601528
 20
-135.9884263440411
 30
0.0
 10
88.73497990403153
 20
-135.9736124334545
 30
0.0
 10
88.47263588282976
 20
-135.9333048162771
 30
0.0
 10
88.20822480433684
 20
-135.787577277251
 30
0.0
 10
88.20822480433684
 20
-135.787577277251
 30
0.0
 10
88.30968286637744
 20
-135.6732001071407
 30
0.0
 10
88.30968286637744
 20
-135.6732001071407
 30
0.0
  0
HATCH
  5
18E
330
133
100
AcDbEntity
  8
_U+30EC_U+30A4_U+30E4_U+30FC 1
 62
    12
420
 15007761
100
AcDbHatch
 10
0.0
 20
0.0
 30
0.0
210
0.0
220
0.0
230
1.0
  2
SOLID
 70
     1
 71
     0
 91
        7
 92
        1
 93
        1
 72
     4
 94
        3
 73
     0
 74
     1
 95
       50
 96
       46
 40
0.0
 40
0.0
 40
0.0
 40
0.0
 40
1.0
 40
1.0
 40
1.0
 40
2.0
 40
2.0
 40
2.0
 40
3.0
 40
3.0
 40
3.0
 40
4.0
 40
4.0
 40
4.0
 40
5.0
 40
5.0
 40
5.0
 40
6.0
 40
6.0
 40
6.0
 40
7.0
 40
7.0
 40
7.0
 40
8.0
 40
8.0
 40
8.0
 40
9.0
 40
9.0
 40
9.0
 40
10.0
 40
10.0
 40
10.0
 40
11.0
 40
11.0
 40
11.0
 40
12.0
 40
12.0
 40
12.0
 40
13.0
 40
13.0
 40
13.0
 40
14.0
 40
14.0
 40
14.0
 40
15.0
 40
15.0
 40
15.0
 40
15.0
 10
87.28993460274349
 20
-134.3213446387287
 10
87.28993460274349
 20
-134.3213446387287
 10
87.9415744137785
 20
-134.3213446387287
 10
87.9415744137785
 20
-134.3213446387287
 10
87.9415744137785
 20
-134.3213446387287
 10
87.9415744137785
 20
-134.4464016048433
 10
87.9415744137785
 20
-134.4464016048433
 10
87.9415744137785
 20
-134.4464016048433
 10
87.66441648199014
 20
-134.4464016048433
 10
87.66441648199014
 20
-134.4464016048433
 10
87.66441648199014
 20
-134.4464016048433
 10
87.66441648199014
 20
-134.7213202245662
 10
87.66441648199014
 20
-134.7213202245662
 10
87.66441648199014
 20
-134.7213202245662
 10
87.50370277760325
 20
-134.7213202245662
 10
87.50370277760325
 20
-134.7213202245662
 10
87.50370277760325
 20
-134.7213202245662
 10
87.50370277760325
 20
-134.4464016048433
 10
87.50370277760325
 20
-134.4464016048433
 10
87.50370277760325
 20
-134.4464016048433
 10
87.28373343087004
 20
-134.4464016048433
 10
87.28373343087004
 20
-134.4464016048433
 10
87.27305363486578
 20
-134.5159925336453
 10
87.24773218304918
 20
-134.7106404285619
 10
87.09321965053573
 20
-134.8608465917188
 10
87.09321965053573
 20
-134.8608465917188
 10
86.97057425126083
 20
-134.7509480457394
 10
86.97057425126083
 20
-134.7509480457394
 10
87.09115259324457
 20
-134.6513847862156
 10
87.13352726771315
 20
-134.4464016048433
 10
87.13352726771315
 20
-134.3637193131973
 10
87.13352726771315
 20
-134.3637193131973
 10
87.13352726771315
 20
-134.0781208974701
 10
87.13352726771315
 20
-134.0781208974701
 10
87.61790769293928
 20
-134.0781208974701
 10
87.77242022545273
 20
-134.0316121084192
 10
87.86750486084563
 20
-134.0040513445372
 10
87.86750486084563
 20
-134.0040513445372
 10
87.92038707654422
 20
-134.1435777116898
 10
87.92038707654422
 20
-134.1435777116898
 10
87.71092527104102
 20
-134.1924980675803
 10
87.54814450936297
 20
-134.2028333540361
 10
87.28993460274349
 20
-134.2073119781669
 10
87.28993460274349
 20
-134.2073119781669
 10
87.28993460274349
 20
-134.3213446387287
 10
87.28993460274349
 20
-134.3213446387287
 97
        0
 97
        0
 92
        1
 93
        1
 72
     4
 94
        3
 73
     0
 74
     1
 95
       32
 96
       28
 40
0.0
 40
0.0
 40
0.0
 40
0.0
 40
1.0
 40
1.0
 40
1.0
 40
2.0
 40
2.0
 40
2.0
 40
3.0
 40
3.0
 40
3.0
 40
4.0
 40
4.0
 40
4.0
 40
5.0
 40
5.0
 40
5.0
 40
6.0
 40
6.0
 40
6.0
 40
7.0
 40
7.0
 40
7.0
 40
8.0
 40
8.0
 40
8.0
 40
9.0
 40
9.0
 40
9.0
 40
9.0
 10
87.2053575085806
 20
-135.6669989352673
 10
87.2053575085806
 20
-135.6669989352673
 10
87.2053575085806
 20
-134.7678290136171
 10
87.2053575085806
 20
-134.7678290136171
 10
87.2053575085806
 20
-134.7678290136171
 10
88.70311277079297
 20
-134.7678290136171
 10
88.70311277079297
 20
-134.7678290136171
 10
88.70311277079297
 20
-134.7678290136171
 10
88.70311277079297
 20
-135.6669989352673
 10
88.70311277079297
 20
-135.6669989352673
 10
88.70311277079297
 20
-135.6669989352673
 10
87.55865205059298
 20
-135.6669989352673
 10
87.55865205059298
 20
-135.6669989352673
 10
87.55865205059298
 20
-135.6669989352673
 10
87.66441648199014
 20
-135.7768974812467
 10
87.66441648199014
 20
-135.7768974812467
 10
87.49939640824668
 20
-135.8719821166397
 10
87.33437633450322
 20
-135.9333048162771
 10
87.038270377546
 20
-135.9842922294588
 10
87.038270377546
 20
-135.9842922294588
 10
86.97264130855199
 20
-135.8320190090108
 10
86.97264130855199
 20
-135.8320190090108
 10
87.3514295571552
 20
-135.7789645385379
 10
87.4740749564301
 20
-135.711440667027
 10
87.55451793601068
 20
-135.6669989352673
 10
87.55451793601068
 20
-135.6669989352673
 10
87.2053575085806
 20
-135.6669989352673
 10
87.2053575085806
 20
-135.6669989352673
 97
        0
 97
        0
 92
        1
 93
        4
 72
     1
 10
88.5339585824672
 20
-134.9011542088963
 11
87.37468395168064
 21
-134.9011542088963
 72
     1
 10
87.37468395168064
 20
-134.9011542088963
 11
87.37468395168064
 21
-135.0300007800446
 72
     1
 10
87.37468395168064
 20
-135.0300007800446
 11
88.5339585824672
 21
-135.0300007800446
 72
     1
 10
88.5339585824672
 20
-135.0300007800446
 11
88.5339585824672
 21
-134.9011542088963
 97
        0
 92
        1
 93
        4
 72
     1
 10
88.5339585824672
 20
-135.1402438355726
 11
87.37468395168064
 21
-135.1402438355726
 72
     1
 10
87.37468395168064
 20
-135.1402438355726
 11
87.37468395168064
 21
-135.2818372600163
 72
     1
 10
87.37468395168064
 20
-135.2818372600163
 11
88.5339585824672
 21
-135.2818372600163
 72
     1
 10
88.5339585824672
 20
-135.2818372600163
 11
88.5339585824672
 21
-135.1402438355726
 97
        0
 92
        1
 93
        4
 72
     1
 10
88.5339585824672
 20
-135.3917358059958
 11
87.37468395168064
 21
-135.3917358059958
 72
     1
 10
87.37468395168064
 20
-135.3917358059958
 11
87.37468395168064
 21
-135.531606682697
 72
     1
 10
87.37468395168064
 20
-135.531606682697
 11
88.5339585824672
 21
-135.531606682697
 72
     1
 10
88.5339585824672
 20
-135.531606682697
 11
88.5339585824672
 21
-135.3917358059958
 97
        0
 92
        1
 93
        1
 72
     4
 94
        3
 73
     0
 74
     1
 95
       50
 96
       46
 40
0.0
 40
0.0
 40
0.0
 40
0.0
 40
1.0
 40
1.0
 40
1.0
 40
2.0
 40
2.0
 40
2.0
 40
3.0
 40
3.0
 40
3.0
 40
4.0
 40
4.0
 40
4.0
 40
5.0
 40
5.0
 40
5.0
 40
6.0
 40
6.0
 40
6.0
 40
7.0
 40
7.0
 40
7.0
 40
8.0
 40
8.0
 40
8.0
 40
9.0
 40
9.0
 40
9.0
 40
10.0
 40
10.0
 40
10.0
 40
11.0
 40
11.0
 40
11.0
 40
12.0
 40
12.0
 40
12.0
 40
13.0
 40
13.0
 40
13.0
 40
14.0
 40
14.0
 40
14.0
 40
15.0
 40
15.0
 40
15.0
 40
15.0
 10
88.19754500833257
 20
-134.3213446387287
 10
88.19754500833257
 20
-134.3213446387287
 10
88.93376191353045
 20
-134.3213446387287
 10
88.93376191353045
 20
-134.3213446387287
 10
88.93376191353045
 20
-134.3213446387287
 10
88.93376191353045
 20
-134.4464016048433
 10
88.93376191353045
 20
-134.4464016048433
 10
88.93376191353045
 20
-134.4464016048433
 10
88.60372176604352
 20
-134.4464016048433
 10
88.60372176604352
 20
-134.4464016048433
 10
88.60372176604352
 20
-134.4464016048433
 10
88.60372176604352
 20
-134.7213202245662
 10
88.60372176604352
 20
-134.7213202245662
 10
88.60372176604352
 20
-134.7213202245662
 10
88.44714217623891
 20
-134.7213202245662
 10
88.44714217623891
 20
-134.7213202245662
 10
88.44714217623891
 20
-134.7213202245662
 10
88.44714217623891
 20
-134.4464016048433
 10
88.44714217623891
 20
-134.4464016048433
 10
88.44714217623891
 20
-134.4464016048433
 10
88.18273109774599
 20
-134.4464016048433
 10
88.18273109774599
 20
-134.4464016048433
 10
88.1574096459294
 20
-134.5752481759916
 10
88.10659448752196
 20
-134.6661986968022
 10
88.00927054006365
 20
-134.7488809884482
 10
88.00927054006365
 20
-134.7488809884482
 10
87.88662514078877
 20
-134.6410494997599
 10
87.88662514078877
 20
-134.6410494997599
 10
88.02201739335908
 20
-134.5308064442319
 10
88.04527178788452
 20
-134.3933471343704
 10
88.04527178788452
 20
-134.3192775814375
 10
88.04527178788452
 20
-134.3192775814375
 10
88.04527178788452
 20
-134.0760538401789
 10
88.04527178788452
 20
-134.0760538401789
 10
88.51483830252407
 20
-134.0760538401789
 10
88.68209768833295
 20
-134.0357462230015
 10
88.82593042484213
 20
-133.9933715485329
 10
88.82593042484213
 20
-133.9933715485329
 10
88.88518606718843
 20
-134.1311753679429
 10
88.88518606718843
 20
-134.1311753679429
 10
88.61440156204779
 20
-134.2007662967449
 10
88.29917532514743
 20
-134.2052449208758
 10
88.19754500833257
 20
-134.2052449208758
 10
88.19754500833257
 20
-134.2052449208758
 10
88.19754500833257
 20
-134.3213446387287
 10
88.19754500833257
 20
-134.3213446387287
 97
        0
 97
        0
 92
        1
 93
        1
 72
     4
 94
        3
 73
     0
 74
     1
 95
       17
 96
       13
 40
0.0
 40
0.0
 40
0.0
 40
0.0
 40
1.0
 40
1.0
 40
1.0
 40
2.0
 40
2.0
 40
2.0
 40
3.0
 40
3.0
 40
3.0
 40
4.0
 40
4.0
 40
4.0
 40
4.0
 10
88.30968286637744
 20
-135.6732001071407
 10
88.52965221311065
 20
-135.7855102199599
 10
88.79630260366898
 20
-135.8234062702976
 10
88.92532142959159
 20
-135.8340860663019
 10
88.92532142959159
 20
-135.8340860663019
 10
88.85555824601528
 20
-135.9884263440411
 10
88.85555824601528
 20
-135.9884263440411
 10
88.73497990403153
 20
-135.9736124334545
 10
88.47263588282976
 20
-135.9333048162771
 10
88.20822480433684
 20
-135.787577277251
 10
88.20822480433684
 20
-135.787577277251
 10
88.30968286637744
 20
-135.6732001071407
 10
88.30968286637744
 20
-135.6732001071407
 97
        0
 97
        0
 75
     2
 76
     1
 98
        0
  0
ENDBLK
  5
136
330
133
100
AcDbEntity
  8
0
100
AcDbBlockEnd
  0
BLOCK
  5
19E
330
19C
100
AcDbEntity
  8
0
100
AcDbBlockBegin
  2
block 7
 70
     0
 10
0.0
 20
0.0
 30
0.0
  3
block 7
  1

  0
SPLINE
  5
1A0
330
19C
100
AcDbEntity
  8
_U+30EC_U+30A4_U+30E4_U+30FC 1
370
     0
100
AcDbSpline
210
0.0
220
0.0
230
1.0
 70
    11
 71
     3
 72
   242
 73
   238
 74
     0
 42
0.0000000001
 43
0.0000000001
 12
1.0
 22
0.0
 32
0.0
 13
1.0
 23
0.0
 33
0.0
 40
0.0
 40
0.0
 40
0.0
 40
0.0
 40
1.0
 40
1.0
 40
1.0
 40
2.0
 40
2.0
 40
2.0
 40
3.0
 40
3.0
 40
3.0
 40
4.0
 40
4.0
 40
4.0
 40
5.0
 40
5.0
 40
5.0
 40
6.0
 40
6.0
 40
6.0
 40
7.0
 40
7.0
 40
7.0
 40
8.0
 40
8.0
 40
8.0
 40
9.0
 40
9.0
 40
9.0
 40
10.0
 40
10.0
 40
10.0
 40
11.0
 40
11.0
 40
11.0
 40
12.0
 40
12.0
 40
12.0
 40
13.0
 40
13.0
 40
13.0
 40
14.0
 40
14.0
 40
14.0
 40
15.0
 40
15.0
 40
15.0
 40
16.0
 40
16.0
 40
16.0
 40
17.0
 40
17.0
 40
17.0
 40
18.0
 40
18.0
 40
18.0
 40
19.0
 40
19.0
 40
19.0
 40
20.0
 40
20.0
 40
20.0
 40
21.0
 40
21.0
 40
21.0
 40
22.0
 40
22.0
 40
22.0
 40
23.0
 40
23.0
 40
23.0
 40
24.0
 40
24.0
 40
24.0
 40
25.0
 40
25.0
 40
25.0
 40
26.0
 40
26.0
 40
26.0
 40
27.0
 40
27.0
 40
27.0
 40
28.0
 40
28.0
 40
28.0
 40
29.0
 40
29.0
 40
29.0
 40
30.0
 40
30.0
 40
30.0
 40
31.0
 40
31.0
 40
31.0
 40
32.0
 40
32.0
 40
32.0
 40
33.0
 40
33.0
 40
33.0
 40
34.0
 40
34.0
 40
34.0
 40
35.0
 40
35.0
 40
35.0
 40
36.0
 40
36.0
 40
36.0
 40
37.0
 40
37.0
 40
37.0
 40
38.0
 40
38.0
 40
38.0
 40
39.0
 40
39.0
 40
39.0
 40
40.0
 40
40.0
 40
40.0
 40
41.0
 40
41.0
 40
41.0
 40
42.0
 40
42.0
 40
42.0
 40
43.0
 40
43.0
 40
43.0
 40
44.0
 40
44.0
 40
44.0
 40
45.0
 40
45.0
 40
45.0
 40
46.0
 40
46.0
 40
46.0
 40
47.0
 40
47.0
 40
47.0
 40
48.0
 40
48.0
 40
48.0
 40
49.0
 40
49.0
 40
49.0
 40
50.0
 40
50.0
 40
50.0
 40
51.0
 40
51.0
 40
51.0
 40
52.0
 40
52.0
 40
52.0
 40
53.0
 40
53.0
 40
53.0
 40
54.0
 40
54.0
 40
54.0
 40
55.0
 40
55.0
 40
55.0
 40
56.0
 40
56.0
 40
56.0
 40
57.0
 40
57.0
 40
57.0
 40
58.0
 40
58.0
 40
58.0
 40
59.0
 40
59.0
 40
59.0
 40
60.0
 40
60.0
 40
60.0
 40
61.0
 40
61.0
 40
61.0
 40
62.0
 40
62.0
 40
62.0
 40
63.0
 40
63.0
 40
63.0
 40
64.0
 40
64.0
 40
64.0
 40
65.0
 40
65.0
 40
65.0
 40
66.0
 40
66.0
 40
66.0
 40
67.0
 40
67.0
 40
67.0
 40
68.0
 40
68.0
 40
68.0
 40
69.0
 40
69.0
 40
69.0
 40
70.0
 40
70.0
 40
70.0
 40
71.0
 40
71.0
 40
71.0
 40
72.0
 40
72.0
 40
72.0
 40
73.0
 40
73.0
 40
73.0
 40
74.0
 40
74.0
 40
74.0
 40
75.0
 40
75.0
 40
75.0
 40
76.0
 40
76.0
 40
76.0
 40
77.0
 40
77.0
 40
77.0
 40
78.0
 40
78.0
 40
78.0
 40
79.0
 40
79.0
 40
79.0
 40
79.0
 10
112.5430012739476
 20
-155.8178791928164
 30
0.0
 10
112.5430012739476
 20
-155.8178791928164
 30
0.0
 10
112.2890977366847
 20
-155.8178791928164
 30
0.0
 10
112.2890977366847
 20
-155.8178791928164
 30
0.0
 10
112.2890977366847
 20
-155.8178791928164
 30
0.0
 10
112.0121120596706
 20
-155.8178791928164
 30
0.0
 10
112.0121120596706
 20
-155.8178791928164
 30
0.0
 10
112.0121120596706
 20
-155.8178791928164
 30
0.0
 10
112.1388915735278
 20
-155.8602538672849
 30
0.0
 10
112.1388915735278
 20
-155.8602538672849
 30
0.0
 10
112.1495713695321
 20
-155.8643879818673
 30
0.0
 10
112.161973713279
 20
-155.8705891537407
 30
0.0
 10
112.161973713279
 20
-155.8833360070361
 30
0.0
 10
112.161973713279
 20
-155.9043510894961
 30
0.0
 10
112.1302788348147
 20
-155.9108967709181
 30
0.0
 10
112.1092637523546
 20
-155.9150308855004
 30
0.0
 10
112.0985839563504
 20
-155.9384575348001
 30
0.0
 10
112.0689561351772
 20
-156.0039143490199
 30
0.0
 10
112.0500081100083
 20
-156.0483560807796
 30
0.0
 10
112.0500081100083
 20
-156.0483560807796
 30
0.0
 10
112.320792615149
 20
-156.0483560807796
 30
0.0
 10
112.320792615149
 20
-156.0483560807796
 30
0.0
 10
112.4117431359596
 20
-156.0483560807796
 30
0.0
 10
112.6084580881673
 20
-156.0442219661973
 30
0.0
 10
112.7503960221596
 20
-156.0356092274842
 30
0.0
 10
112.7503960221596
 20
-156.0356092274842
 30
0.0
 10
112.7503960221596
 20
-156.213376154523
 30
0.0
 10
112.7503960221596
 20
-156.213376154523
 30
0.0
 10
112.6677137305136
 20
-156.2092420399408
 30
0.0
 10
112.6466986480536
 20
-156.2092420399408
 30
0.0
 10
112.4668646637236
 20
-156.2047634158099
 30
0.0
 10
112.4351697852593
 20
-156.3594482030977
 30
0.0
 10
112.3907280534995
 20
-156.439718927904
 30
0.0
 10
112.3462863217398
 20
-156.5096543662546
 30
0.0
 10
112.4668646637236
 20
-156.5689100086008
 30
0.0
 10
112.5726290951207
 20
-156.6364338801117
 30
0.0
 10
112.6763264692268
 20
-156.7191161717577
 30
0.0
 10
112.6763264692268
 20
-156.7191161717577
 30
0.0
 10
112.5578151845342
 20
-156.8862033027924
 30
0.0
 10
112.5578151845342
 20
-156.8862033027924
 30
0.0
 10
112.5343885352345
 20
-156.8669107680749
 30
0.0
 10
112.521641681939
 20
-156.8586425389103
 30
0.0
 10
112.4096760786684
 20
-156.7738931899732
 30
0.0
 10
112.3611002323264
 20
-156.7359971396355
 30
0.0
 10
112.3018445899801
 20
-156.6998236370403
 30
0.0
 10
112.2212293556253
 20
-156.6553819052806
 30
0.0
 10
112.0097004928309
 20
-156.8417615710326
 30
0.0
 10
111.8047173114585
 20
-156.8648437107838
 30
0.0
 10
111.5146402716005
 20
-156.894471531957
 30
0.0
 10
111.5146402716005
 20
-156.894471531957
 30
0.0
 10
111.411287407043
 20
-156.7146375476269
 30
0.0
 10
111.411287407043
 20
-156.7146375476269
 30
0.0
 10
111.7285807012345
 20
-156.7105034330446
 30
0.0
 10
111.9039360614337
 20
-156.6850097264538
 30
0.0
 10
112.0562092818818
 20
-156.5751111804743
 30
0.0
 10
111.9380425067377
 20
-156.5244682768411
 30
0.0
 10
111.8491590432183
 20
-156.4969075129591
 30
0.0
 10
111.8129855406231
 20
-156.4841606596637
 30
0.0
 10
111.7940375154543
 20
-156.5117214235457
 30
0.0
 10
111.7792236048677
 20
-156.5306694487146
 30
0.0
 10
111.7516628409857
 20
-156.56443138447
 30
0.0
 10
111.7516628409857
 20
-156.56443138447
 30
0.0
 10
111.5549478887779
 20
-156.4820936023725
 30
0.0
 10
111.5549478887779
 20
-156.4820936023725
 30
0.0
 10
111.6376301804239
 20
-156.4018228775662
 30
0.0
 10
111.6989528800614
 20
-156.3063937326248
 30
0.0
 10
111.7561414651165
 20
-156.2047634158099
 30
0.0
 10
111.5656276847822
 20
-156.2092420399408
 30
0.0
 10
111.5442680927737
 20
-156.2092420399408
 30
0.0
 10
111.4619303106762
 20
-156.213376154523
 30
0.0
 10
111.4619303106762
 20
-156.213376154523
 30
0.0
 10
111.4619303106762
 20
-156.0356092274842
 30
0.0
 10
111.4619303106762
 20
-156.0356092274842
 30
0.0
 10
111.6014566778288
 20
-156.0421549089061
 30
0.0
 10
111.810918483332
 20
-156.0462890234884
 30
0.0
 10
111.8364121899229
 20
-156.0462890234884
 30
0.0
 10
111.8532931578006
 20
-156.012527087733
 30
0.0
 10
111.9084146855646
 20
-155.8919487457492
 30
0.0
 10
111.9273627107334
 20
-155.8178791928164
 30
0.0
 10
111.9084146855646
 20
-155.8178791928164
 30
0.0
 10
111.7306477585257
 20
-155.8240803646898
 30
0.0
 10
111.5359998636091
 20
-155.8368272179852
 30
0.0
 10
111.5359998636091
 20
-155.8368272179852
 30
0.0
 10
111.5359998636091
 20
-155.9701524132644
 30
0.0
 10
111.5359998636091
 20
-155.9701524132644
 30
0.0
 10
111.487424017267
 20
-155.9953016103067
 30
0.0
 10
111.4281683749207
 20
-156.0273409983196
 30
0.0
 10
111.2948431796416
 20
-156.0927978125393
 30
0.0
 10
111.2948431796416
 20
-156.0927978125393
 30
0.0
 10
111.2948431796416
 20
-156.2388698611139
 30
0.0
 10
111.2948431796416
 20
-156.2388698611139
 30
0.0
 10
111.2948431796416
 20
-156.2388698611139
 30
0.0
 10
111.2948431796416
 20
-156.7063693184623
 30
0.0
 10
111.2948431796416
 20
-156.7063693184623
 30
0.0
 10
111.2948431796416
 20
-156.8331488323195
 30
0.0
 10
111.2586696770465
 20
-156.8924044746658
 30
0.0
 10
110.9754828281589
 20
-156.8841362455012
 30
0.0
 10
110.9754828281589
 20
-156.8841362455012
 30
0.0
 10
110.8717854540529
 20
-156.6767414972892
 30
0.0
 10
110.8717854540529
 20
-156.6767414972892
 30
0.0
 10
110.9351752109815
 20
-156.6894883505846
 30
0.0
 10
110.9837510573235
 20
-156.6936224651669
 30
0.0
 10
111.0240586745009
 20
-156.6936224651669
 30
0.0
 10
111.100195284725
 20
-156.6936224651669
 30
0.0
 10
111.1108750807292
 20
-156.6701958158672
 30
0.0
 10
111.1108750807292
 20
-156.6047390016474
 30
0.0
 10
111.1108750807292
 20
-156.6047390016474
 30
0.0
 10
111.1108750807292
 20
-156.1751355946368
 30
0.0
 10
111.1108750807292
 20
-156.1751355946368
 30
0.0
 10
111.0133788784967
 20
-156.2154432118142
 30
0.0
 10
110.9964979106189
 20
-156.2219888932362
 30
0.0
 10
110.9499891215681
 20
-156.2409369184051
 30
0.0
 10
110.9458550069858
 20
-156.2619520008651
 30
0.0
 10
110.9413763828549
 20
-156.2915798220382
 30
0.0
 10
110.9224283576861
 20
-156.2915798220382
 30
0.0
 10
110.9141601285215
 20
-156.2915798220382
 30
0.0
 10
110.9034803325172
 20
-156.2874457074559
 30
0.0
 10
110.8969346510952
 20
-156.2640190581562
 30
0.0
 10
110.8969346510952
 20
-156.2640190581562
 30
0.0
 10
110.8442246901709
 20
-156.0717827300793
 30
0.0
 10
110.8442246901709
 20
-156.0717827300793
 30
0.0
 10
110.9902967387455
 20
-156.0249294314799
 30
0.0
 10
111.0557535529652
 20
-156.0018472917287
 30
0.0
 10
111.1108750807292
 20
-155.9808322092687
 30
0.0
 10
111.1108750807292
 20
-155.9808322092687
 30
0.0
 10
111.1108750807292
 20
-155.5681097701357
 30
0.0
 10
111.1108750807292
 20
-155.5681097701357
 30
0.0
 10
111.1108750807292
 20
-155.5681097701357
 30
0.0
 10
111.0578206102564
 20
-155.5681097701357
 30
0.0
 10
111.0578206102564
 20
-155.5681097701357
 30
0.0
 10
111.0578206102564
 20
-155.5681097701357
 30
0.0
 10
110.9796169427412
 20
-155.5681097701357
 30
0.0
 10
110.9796169427412
 20
-155.5681097701357
 30
0.0
 10
110.9117485616818
 20
-155.5681097701357
 30
0.0
 10
110.9034803325172
 20
-155.5681097701357
 30
0.0
 10
110.8673068299221
 20
-155.5746554515577
 30
0.0
 10
110.8673068299221
 20
-155.5746554515577
 30
0.0
 10
110.8673068299221
 20
-155.3800075566411
 30
0.0
 10
110.8673068299221
 20
-155.3800075566411
 30
0.0
 10
110.8948675938041
 20
-155.3862087285146
 30
0.0
 10
110.9034803325172
 20
-155.3862087285146
 30
0.0
 10
110.9730712613192
 20
-155.3862087285146
 30
0.0
 10
110.9730712613192
 20
-155.3862087285146
 30
0.0
 10
111.1063964565984
 20
-155.3862087285146
 30
0.0
 10
111.1063964565984
 20
-155.3862087285146
 30
0.0
 10
111.1063964565984
 20
-155.316273290164
 30
0.0
 10
111.1063964565984
 20
-155.2339355080665
 30
0.0
 10
111.1043293993073
 20
-155.2298013934842
 30
0.0
 10
111.0960611701427
 20
-155.0499674091542
 30
0.0
 10
111.0960611701427
 20
-155.0306748744368
 30
0.0
 10
111.093649603303
 20
-154.9841660853859
 30
0.0
 10
111.093649603303
 20
-154.9841660853859
 30
0.0
 10
111.3096570902281
 20
-154.992778824099
 30
0.0
 10
111.3096570902281
 20
-154.992778824099
 30
0.0
 10
111.3203368862324
 20
-154.992778824099
 30
0.0
 10
111.3413519686925
 20
-154.9948458813902
 30
0.0
 10
111.3413519686925
 20
-155.0117268492679
 30
0.0
 10
111.3413519686925
 20
-155.0306748744368
 30
0.0
 10
111.3265380581059
 20
-155.0413546704411
 30
0.0
 10
111.301044351515
 20
-155.0603026956099
 30
0.0
 10
111.301044351515
 20
-155.1112901087916
 30
0.0
 10
111.2948431796416
 20
-155.3396999394637
 30
0.0
 10
111.2969102369327
 20
-155.3862087285146
 30
0.0
 10
111.4261013176296
 20
-155.3862087285146
 30
0.0
 10
111.4385036613765
 20
-155.3862087285146
 30
0.0
 10
111.5359998636091
 20
-155.3775959898014
 30
0.0
 10
111.5359998636091
 20
-155.3775959898014
 30
0.0
 10
111.5359998636091
 20
-155.5722438847181
 30
0.0
 10
111.5359998636091
 20
-155.5722438847181
 30
0.0
 10
111.4977593037228
 20
-155.5701768274269
 30
0.0
 10
111.4302354322119
 20
-155.5660427128446
 30
0.0
 10
111.2948431796416
 20
-155.5681097701357
 30
0.0
 10
111.2948431796416
 20
-155.5681097701357
 30
0.0
 10
111.2948431796416
 20
-155.9067626563358
 30
0.0
 10
111.2948431796416
 20
-155.9067626563358
 30
0.0
 10
111.349620197857
 20
-155.8833360070361
 30
0.0
 10
111.4154215216253
 20
-155.8557752431541
 30
0.0
 10
111.4639973679673
 20
-155.8326931034029
 30
0.0
 10
111.4639973679673
 20
-155.8326931034029
 30
0.0
 10
111.4639973679673
 20
-155.6549261763641
 30
0.0
 10
111.4639973679673
 20
-155.6549261763641
 30
0.0
 10
111.5783745380776
 20
-155.6676730296595
 30
0.0
 10
111.6968858227702
 20
-155.6676730296595
 30
0.0
 10
111.8129855406231
 20
-155.6676730296595
 30
0.0
 10
111.789903400872
 20
-155.5722438847181
 30
0.0
 10
111.76234263699
 20
-155.4899061026206
 30
0.0
 10
111.6989528800614
 20
-155.3565809073414
 30
0.0
 10
111.6545111483017
 20
-155.3586479646326
 30
0.0
 10
111.5718288566557
 20
-155.3627820792149
 30
0.0
 10
111.5339328063179
 20
-155.3651936460545
 30
0.0
 10
111.5339328063179
 20
-155.3651936460545
 30
0.0
 10
111.5339328063179
 20
-155.1853596617245
 30
0.0
 10
111.5339328063179
 20
-155.1853596617245
 30
0.0
 10
111.658645262884
 20
-155.1936278908891
 30
0.0
 10
111.8322780753405
 20
-155.1977620054714
 30
0.0
 10
111.914615857438
 20
-155.1977620054714
 30
0.0
 10
111.914615857438
 20
-155.1977620054714
 30
0.0
 10
111.997298149084
 20
-155.1977620054714
 30
0.0
 10
111.997298149084
 20
-155.1977620054714
 30
0.0
 10
111.997298149084
 20
-155.0351534985676
 30
0.0
 10
111.997298149084
 20
-155.0244737025633
 30
0.0
 10
111.9948865822443
 20
-154.9693521747993
 30
0.0
 10
111.9948865822443
 20
-154.9693521747993
 30
0.0
 10
112.2191622983341
 20
-154.9948458813902
 30
0.0
 10
112.2191622983341
 20
-154.9948458813902
 30
0.0
 10
112.2236409224649
 20
-154.9948458813902
 30
0.0
 10
112.2446560049249
 20
-154.9969129386813
 30
0.0
 10
112.2446560049249
 20
-155.013793906559
 30
0.0
 10
112.2446560049249
 20
-155.0286078171456
 30
0.0
 10
112.2339762089207
 20
-155.0372205558588
 30
0.0
 10
112.2064154450387
 20
-155.0520344664453
 30
0.0
 10
112.2002142731652
 20
-155.1174912806651
 30
0.0
 10
112.1981472158741
 20
-155.1388508726736
 30
0.0
 10
112.1981472158741
 20
-155.1977620054714
 30
0.0
 10
112.1981472158741
 20
-155.1977620054714
 30
0.0
 10
112.293231851267
 20
-155.1977620054714
 30
0.0
 10
112.293231851267
 20
-155.1977620054714
 30
0.0
 10
112.375914142913
 20
-155.1977620054714
 30
0.0
 10
112.549202445821
 20
-155.1936278908891
 30
0.0
 10
112.6742594119356
 20
-155.1853596617245
 30
0.0
 10
112.6742594119356
 20
-155.1853596617245
 30
0.0
 10
112.6742594119356
 20
-155.3651936460545
 30
0.0
 10
112.6742594119356
 20
-155.3651936460545
 30
0.0
 10
112.6446315907625
 20
-155.3627820792149
 30
0.0
 10
112.5261203060699
 20
-155.3586479646326
 30
0.0
 10
112.4858126888924
 20
-155.3565809073414
 30
0.0
 10
112.4709987783059
 20
-155.4072238109746
 30
0.0
 10
112.4372368425504
 20
-155.5195339237937
 30
0.0
 10
112.3714355187821
 20
-155.6590602909463
 30
0.0
 10
112.4138101932507
 20
-155.6590602909463
 30
0.0
 10
112.6911403798133
 20
-155.6401122657775
 30
0.0
 10
112.7524630794508
 20
-155.6380452084863
 30
0.0
 10
112.7524630794508
 20
-155.6380452084863
 30
0.0
 10
112.7524630794508
 20
-155.8220133073987
 30
0.0
 10
112.7524630794508
 20
-155.8220133073987
 30
0.0
 10
112.7228352582776
 20
-155.8220133073987
 30
0.0
 10
112.7059542903999
 20
-155.8178791928164
 30
0.0
 10
112.5430012739476
 20
-155.8178791928164
 30
0.0
  0
SPLINE
  5
1A1
330
19C
100
AcDbEntity
  8
_U+30EC_U+30A4_U+30E4_U+30FC 1
370
     0
100
AcDbSpline
210
0.0
220
0.0
230
1.0
 70
    11
 71
     3
 72
    20
 73
    16
 74
     0
 42
0.0000000001
 43
0.0000000001
 12
1.0
 22
0.0
 32
0.0
 13
1.0
 23
0.0
 33
0.0
 40
0.0
 40
0.0
 40
0.0
 40
0.0
 40
1.0
 40
1.0
 40
1.0
 40
2.0
 40
2.0
 40
2.0
 40
3.0
 40
3.0
 40
3.0
 40
4.0
 40
4.0
 40
4.0
 40
5.0
 40
5.0
 40
5.0
 40
5.0
 10
111.914615857438
 20
-155.3524467927591
 30
0.0
 10
111.914615857438
 20
-155.3524467927591
 30
0.0
 10
111.8829209789737
 20
-155.3524467927591
 30
0.0
 10
111.8829209789737
 20
-155.3524467927591
 30
0.0
 10
111.9294297680246
 20
-155.4516655427343
 30
0.0
 10
111.9611246464889
 20
-155.5322807770892
 30
0.0
 10
111.9948865822443
 20
-155.6590602909463
 30
0.0
 10
111.9948865822443
 20
-155.6590602909463
 30
0.0
 10
112.2022813304564
 20
-155.6590602909463
 30
0.0
 10
112.2022813304564
 20
-155.6590602909463
 30
0.0
 10
112.2339762089207
 20
-155.5660427128446
 30
0.0
 10
112.2574028582204
 20
-155.4812933639075
 30
0.0
 10
112.2804849979716
 20
-155.3524467927591
 30
0.0
 10
112.2804849979716
 20
-155.3524467927591
 30
0.0
 10
111.914615857438
 20
-155.3524467927591
 30
0.0
 10
111.914615857438
 20
-155.3524467927591
 30
0.0
  0
SPLINE
  5
1A2
330
19C
100
AcDbEntity
  8
_U+30EC_U+30A4_U+30E4_U+30FC 1
370
     0
100
AcDbSpline
210
0.0
220
0.0
230
1.0
 70
    11
 71
     3
 72
    17
 73
    13
 74
     0
 42
0.0000000001
 43
0.0000000001
 12
1.0
 22
0.0
 32
0.0
 13
1.0
 23
0.0
 33
0.0
 40
0.0
 40
0.0
 40
0.0
 40
0.0
 40
1.0
 40
1.0
 40
1.0
 40
2.0
 40
2.0
 40
2.0
 40
3.0
 40
3.0
 40
3.0
 40
4.0
 40
4.0
 40
4.0
 40
4.0
 10
111.9780056143666
 20
-156.2026963585188
 30
0.0
 10
111.9611246464889
 20
-156.2323241796919
 30
0.0
 10
111.9104817428557
 20
-156.3253417577937
 30
0.0
 10
111.8998019468514
 20
-156.3446342925111
 30
0.0
 10
112.0903157271858
 20
-156.4038899348574
 30
0.0
 10
112.1113308096458
 20
-156.4100911067308
 30
0.0
 10
112.1833333052875
 20
-156.4376518706128
 30
0.0
 10
112.2384548330515
 20
-156.3508354643845
 30
0.0
 10
112.2615369728027
 20
-156.2767659114517
 30
0.0
 10
112.2763508833893
 20
-156.2026963585188
 30
0.0
 10
112.2763508833893
 20
-156.2026963585188
 30
0.0
 10
111.9780056143666
 20
-156.2026963585188
 30
0.0
 10
111.9780056143666
 20
-156.2026963585188
 30
0.0
  0
HATCH
  5
1A3
330
19C
100
AcDbEntity
  8
_U+30EC_U+30A4_U+30E4_U+30FC 1
 62
   179
420
  2234388
100
AcDbHatch
 10
0.0
 20
0.0
 30
0.0
210
0.0
220
0.0
230
1.0
  2
SOLID
 70
     1
 71
     0
 91
        3
 92
        1
 93
        1
 72
     4
 94
        3
 73
     0
 74
     1
 95
      242
 96
      238
 40
0.0
 40
0.0
 40
0.0
 40
0.0
 40
1.0
 40
1.0
 40
1.0
 40
2.0
 40
2.0
 40
2.0
 40
3.0
 40
3.0
 40
3.0
 40
4.0
 40
4.0
 40
4.0
 40
5.0
 40
5.0
 40
5.0
 40
6.0
 40
6.0
 40
6.0
 40
7.0
 40
7.0
 40
7.0
 40
8.0
 40
8.0
 40
8.0
 40
9.0
 40
9.0
 40
9.0
 40
10.0
 40
10.0
 40
10.0
 40
11.0
 40
11.0
 40
11.0
 40
12.0
 40
12.0
 40
12.0
 40
13.0
 40
13.0
 40
13.0
 40
14.0
 40
14.0
 40
14.0
 40
15.0
 40
15.0
 40
15.0
 40
16.0
 40
16.0
 40
16.0
 40
17.0
 40
17.0
 40
17.0
 40
18.0
 40
18.0
 40
18.0
 40
19.0
 40
19.0
 40
19.0
 40
20.0
 40
20.0
 40
20.0
 40
21.0
 40
21.0
 40
21.0
 40
22.0
 40
22.0
 40
22.0
 40
23.0
 40
23.0
 40
23.0
 40
24.0
 40
24.0
 40
24.0
 40
25.0
 40
25.0
 40
25.0
 40
26.0
 40
26.0
 40
26.0
 40
27.0
 40
27.0
 40
27.0
 40
28.0
 40
28.0
 40
28.0
 40
29.0
 40
29.0
 40
29.0
 40
30.0
 40
30.0
 40
30.0
 40
31.0
 40
31.0
 40
31.0
 40
32.0
 40
32.0
 40
32.0
 40
33.0
 40
33.0
 40
33.0
 40
34.0
 40
34.0
 40
34.0
 40
35.0
 40
35.0
 40
35.0
 40
36.0
 40
36.0
 40
36.0
 40
37.0
 40
37.0
 40
37.0
 40
38.0
 40
38.0
 40
38.0
 40
39.0
 40
39.0
 40
39.0
 40
40.0
 40
40.0
 40
40.0
 40
41.0
 40
41.0
 40
41.0
 40
42.0
 40
42.0
 40
42.0
 40
43.0
 40
43.0
 40
43.0
 40
44.0
 40
44.0
 40
44.0
 40
45.0
 40
45.0
 40
45.0
 40
46.0
 40
46.0
 40
46.0
 40
47.0
 40
47.0
 40
47.0
 40
48.0
 40
48.0
 40
48.0
 40
49.0
 40
49.0
 40
49.0
 40
50.0
 40
50.0
 40
50.0
 40
51.0
 40
51.0
 40
51.0
 40
52.0
 40
52.0
 40
52.0
 40
53.0
 40
53.0
 40
53.0
 40
54.0
 40
54.0
 40
54.0
 40
55.0
 40
55.0
 40
55.0
 40
56.0
 40
56.0
 40
56.0
 40
57.0
 40
57.0
 40
57.0
 40
58.0
 40
58.0
 40
58.0
 40
59.0
 40
59.0
 40
59.0
 40
60.0
 40
60.0
 40
60.0
 40
61.0
 40
61.0
 40
61.0
 40
62.0
 40
62.0
 40
62.0
 40
63.0
 40
63.0
 40
63.0
 40
64.0
 40
64.0
 40
64.0
 40
65.0
 40
65.0
 40
65.0
 40
66.0
 40
66.0
 40
66.0
 40
67.0
 40
67.0
 40
67.0
 40
68.0
 40
68.0
 40
68.0
 40
69.0
 40
69.0
 40
69.0
 40
70.0
 40
70.0
 40
70.0
 40
71.0
 40
71.0
 40
71.0
 40
72.0
 40
72.0
 40
72.0
 40
73.0
 40
73.0
 40
73.0
 40
74.0
 40
74.0
 40
74.0
 40
75.0
 40
75.0
 40
75.0
 40
76.0
 40
76.0
 40
76.0
 40
77.0
 40
77.0
 40
77.0
 40
78.0
 40
78.0
 40
78.0
 40
79.0
 40
79.0
 40
79.0
 40
79.0
 10
112.5430012739476
 20
-155.8178791928164
 10
112.5430012739476
 20
-155.8178791928164
 10
112.2890977366847
 20
-155.8178791928164
 10
112.2890977366847
 20
-155.8178791928164
 10
112.2890977366847
 20
-155.8178791928164
 10
112.0121120596706
 20
-155.8178791928164
 10
112.0121120596706
 20
-155.8178791928164
 10
112.0121120596706
 20
-155.8178791928164
 10
112.1388915735278
 20
-155.8602538672849
 10
112.1388915735278
 20
-155.8602538672849
 10
112.1495713695321
 20
-155.8643879818673
 10
112.161973713279
 20
-155.8705891537407
 10
112.161973713279
 20
-155.8833360070361
 10
112.161973713279
 20
-155.9043510894961
 10
112.1302788348147
 20
-155.9108967709181
 10
112.1092637523546
 20
-155.9150308855004
 10
112.0985839563504
 20
-155.9384575348001
 10
112.0689561351772
 20
-156.0039143490199
 10
112.0500081100083
 20
-156.0483560807796
 10
112.0500081100083
 20
-156.0483560807796
 10
112.320792615149
 20
-156.0483560807796
 10
112.320792615149
 20
-156.0483560807796
 10
112.4117431359596
 20
-156.0483560807796
 10
112.6084580881673
 20
-156.0442219661973
 10
112.7503960221596
 20
-156.0356092274842
 10
112.7503960221596
 20
-156.0356092274842
 10
112.7503960221596
 20
-156.213376154523
 10
112.7503960221596
 20
-156.213376154523
 10
112.6677137305136
 20
-156.2092420399408
 10
112.6466986480536
 20
-156.2092420399408
 10
112.4668646637236
 20
-156.2047634158099
 10
112.4351697852593
 20
-156.3594482030977
 10
112.3907280534995
 20
-156.439718927904
 10
112.3462863217398
 20
-156.5096543662546
 10
112.4668646637236
 20
-156.5689100086008
 10
112.5726290951207
 20
-156.6364338801117
 10
112.6763264692268
 20
-156.7191161717577
 10
112.6763264692268
 20
-156.7191161717577
 10
112.5578151845342
 20
-156.8862033027924
 10
112.5578151845342
 20
-156.8862033027924
 10
112.5343885352345
 20
-156.8669107680749
 10
112.521641681939
 20
-156.8586425389103
 10
112.4096760786684
 20
-156.7738931899732
 10
112.3611002323264
 20
-156.7359971396355
 10
112.3018445899801
 20
-156.6998236370403
 10
112.2212293556253
 20
-156.6553819052806
 10
112.0097004928309
 20
-156.8417615710326
 10
111.8047173114585
 20
-156.8648437107838
 10
111.5146402716005
 20
-156.894471531957
 10
111.5146402716005
 20
-156.894471531957
 10
111.411287407043
 20
-156.7146375476269
 10
111.411287407043
 20
-156.7146375476269
 10
111.7285807012345
 20
-156.7105034330446
 10
111.9039360614337
 20
-156.6850097264538
 10
112.0562092818818
 20
-156.5751111804743
 10
111.9380425067377
 20
-156.5244682768411
 10
111.8491590432183
 20
-156.4969075129591
 10
111.8129855406231
 20
-156.4841606596637
 10
111.7940375154543
 20
-156.5117214235457
 10
111.7792236048677
 20
-156.5306694487146
 10
111.7516628409857
 20
-156.56443138447
 10
111.7516628409857
 20
-156.56443138447
 10
111.5549478887779
 20
-156.4820936023725
 10
111.5549478887779
 20
-156.4820936023725
 10
111.6376301804239
 20
-156.4018228775662
 10
111.6989528800614
 20
-156.3063937326248
 10
111.7561414651165
 20
-156.2047634158099
 10
111.5656276847822
 20
-156.2092420399408
 10
111.5442680927737
 20
-156.2092420399408
 10
111.4619303106762
 20
-156.213376154523
 10
111.4619303106762
 20
-156.213376154523
 10
111.4619303106762
 20
-156.0356092274842
 10
111.4619303106762
 20
-156.0356092274842
 10
111.6014566778288
 20
-156.0421549089061
 10
111.810918483332
 20
-156.0462890234884
 10
111.8364121899229
 20
-156.0462890234884
 10
111.8532931578006
 20
-156.012527087733
 10
111.9084146855646
 20
-155.8919487457492
 10
111.9273627107334
 20
-155.8178791928164
 10
111.9084146855646
 20
-155.8178791928164
 10
111.7306477585257
 20
-155.8240803646898
 10
111.5359998636091
 20
-155.8368272179852
 10
111.5359998636091
 20
-155.8368272179852
 10
111.5359998636091
 20
-155.9701524132644
 10
111.5359998636091
 20
-155.9701524132644
 10
111.487424017267
 20
-155.9953016103067
 10
111.4281683749207
 20
-156.0273409983196
 10
111.2948431796416
 20
-156.0927978125393
 10
111.2948431796416
 20
-156.0927978125393
 10
111.2948431796416
 20
-156.2388698611139
 10
111.2948431796416
 20
-156.2388698611139
 10
111.2948431796416
 20
-156.2388698611139
 10
111.2948431796416
 20
-156.7063693184623
 10
111.2948431796416
 20
-156.7063693184623
 10
111.2948431796416
 20
-156.8331488323195
 10
111.2586696770465
 20
-156.8924044746658
 10
110.9754828281589
 20
-156.8841362455012
 10
110.9754828281589
 20
-156.8841362455012
 10
110.8717854540529
 20
-156.6767414972892
 10
110.8717854540529
 20
-156.6767414972892
 10
110.9351752109815
 20
-156.6894883505846
 10
110.9837510573235
 20
-156.6936224651669
 10
111.0240586745009
 20
-156.6936224651669
 10
111.100195284725
 20
-156.6936224651669
 10
111.1108750807292
 20
-156.6701958158672
 10
111.1108750807292
 20
-156.6047390016474
 10
111.1108750807292
 20
-156.6047390016474
 10
111.1108750807292
 20
-156.1751355946368
 10
111.1108750807292
 20
-156.1751355946368
 10
111.0133788784967
 20
-156.2154432118142
 10
110.9964979106189
 20
-156.2219888932362
 10
110.9499891215681
 20
-156.2409369184051
 10
110.9458550069858
 20
-156.2619520008651
 10
110.9413763828549
 20
-156.2915798220382
 10
110.9224283576861
 20
-156.2915798220382
 10
110.9141601285215
 20
-156.2915798220382
 10
110.9034803325172
 20
-156.2874457074559
 10
110.8969346510952
 20
-156.2640190581562
 10
110.8969346510952
 20
-156.2640190581562
 10
110.8442246901709
 20
-156.0717827300793
 10
110.8442246901709
 20
-156.0717827300793
 10
110.9902967387455
 20
-156.0249294314799
 10
111.0557535529652
 20
-156.0018472917287
 10
111.1108750807292
 20
-155.9808322092687
 10
111.1108750807292
 20
-155.9808322092687
 10
111.1108750807292
 20
-155.5681097701357
 10
111.1108750807292
 20
-155.5681097701357
 10
111.1108750807292
 20
-155.5681097701357
 10
111.0578206102564
 20
-155.5681097701357
 10
111.0578206102564
 20
-155.5681097701357
 10
111.0578206102564
 20
-155.5681097701357
 10
110.9796169427412
 20
-155.5681097701357
 10
110.9796169427412
 20
-155.5681097701357
 10
110.9117485616818
 20
-155.5681097701357
 10
110.9034803325172
 20
-155.5681097701357
 10
110.8673068299221
 20
-155.5746554515577
 10
110.8673068299221
 20
-155.5746554515577
 10
110.8673068299221
 20
-155.3800075566411
 10
110.8673068299221
 20
-155.3800075566411
 10
110.8948675938041
 20
-155.3862087285146
 10
110.9034803325172
 20
-155.3862087285146
 10
110.9730712613192
 20
-155.3862087285146
 10
110.9730712613192
 20
-155.3862087285146
 10
111.1063964565984
 20
-155.3862087285146
 10
111.1063964565984
 20
-155.3862087285146
 10
111.1063964565984
 20
-155.316273290164
 10
111.1063964565984
 20
-155.2339355080665
 10
111.1043293993073
 20
-155.2298013934842
 10
111.0960611701427
 20
-155.0499674091542
 10
111.0960611701427
 20
-155.0306748744368
 10
111.093649603303
 20
-154.9841660853859
 10
111.093649603303
 20
-154.9841660853859
 10
111.3096570902281
 20
-154.992778824099
 10
111.3096570902281
 20
-154.992778824099
 10
111.3203368862324
 20
-154.992778824099
 10
111.3413519686925
 20
-154.9948458813902
 10
111.3413519686925
 20
-155.0117268492679
 10
111.3413519686925
 20
-155.0306748744368
 10
111.3265380581059
 20
-155.0413546704411
 10
111.301044351515
 20
-155.0603026956099
 10
111.301044351515
 20
-155.1112901087916
 10
111.2948431796416
 20
-155.3396999394637
 10
111.2969102369327
 20
-155.3862087285146
 10
111.4261013176296
 20
-155.3862087285146
 10
111.4385036613765
 20
-155.3862087285146
 10
111.5359998636091
 20
-155.3775959898014
 10
111.5359998636091
 20
-155.3775959898014
 10
111.5359998636091
 20
-155.5722438847181
 10
111.5359998636091
 20
-155.5722438847181
 10
111.4977593037228
 20
-155.5701768274269
 10
111.4302354322119
 20
-155.5660427128446
 10
111.2948431796416
 20
-155.5681097701357
 10
111.2948431796416
 20
-155.5681097701357
 10
111.2948431796416
 20
-155.9067626563358
 10
111.2948431796416
 20
-155.9067626563358
 10
111.349620197857
 20
-155.8833360070361
 10
111.4154215216253
 20
-155.8557752431541
 10
111.4639973679673
 20
-155.8326931034029
 10
111.4639973679673
 20
-155.8326931034029
 10
111.4639973679673
 20
-155.6549261763641
 10
111.4639973679673
 20
-155.6549261763641
 10
111.5783745380776
 20
-155.6676730296595
 10
111.6968858227702
 20
-155.6676730296595
 10
111.8129855406231
 20
-155.6676730296595
 10
111.789903400872
 20
-155.5722438847181
 10
111.76234263699
 20
-155.4899061026206
 10
111.6989528800614
 20
-155.3565809073414
 10
111.6545111483017
 20
-155.3586479646326
 10
111.5718288566557
 20
-155.3627820792149
 10
111.5339328063179
 20
-155.3651936460545
 10
111.5339328063179
 20
-155.3651936460545
 10
111.5339328063179
 20
-155.1853596617245
 10
111.5339328063179
 20
-155.1853596617245
 10
111.658645262884
 20
-155.1936278908891
 10
111.8322780753405
 20
-155.1977620054714
 10
111.914615857438
 20
-155.1977620054714
 10
111.914615857438
 20
-155.1977620054714
 10
111.997298149084
 20
-155.1977620054714
 10
111.997298149084
 20
-155.1977620054714
 10
111.997298149084
 20
-155.0351534985676
 10
111.997298149084
 20
-155.0244737025633
 10
111.9948865822443
 20
-154.9693521747993
 10
111.9948865822443
 20
-154.9693521747993
 10
112.2191622983341
 20
-154.9948458813902
 10
112.2191622983341
 20
-154.9948458813902
 10
112.2236409224649
 20
-154.9948458813902
 10
112.2446560049249
 20
-154.9969129386813
 10
112.2446560049249
 20
-155.013793906559
 10
112.2446560049249
 20
-155.0286078171456
 10
112.2339762089207
 20
-155.0372205558588
 10
112.2064154450387
 20
-155.0520344664453
 10
112.2002142731652
 20
-155.1174912806651
 10
112.1981472158741
 20
-155.1388508726736
 10
112.1981472158741
 20
-155.1977620054714
 10
112.1981472158741
 20
-155.1977620054714
 10
112.293231851267
 20
-155.1977620054714
 10
112.293231851267
 20
-155.1977620054714
 10
112.375914142913
 20
-155.1977620054714
 10
112.549202445821
 20
-155.1936278908891
 10
112.6742594119356
 20
-155.1853596617245
 10
112.6742594119356
 20
-155.1853596617245
 10
112.6742594119356
 20
-155.3651936460545
 10
112.6742594119356
 20
-155.3651936460545
 10
112.6446315907625
 20
-155.3627820792149
 10
112.5261203060699
 20
-155.3586479646326
 10
112.4858126888924
 20
-155.3565809073414
 10
112.4709987783059
 20
-155.4072238109746
 10
112.4372368425504
 20
-155.5195339237937
 10
112.3714355187821
 20
-155.6590602909463
 10
112.4138101932507
 20
-155.6590602909463
 10
112.6911403798133
 20
-155.6401122657775
 10
112.7524630794508
 20
-155.6380452084863
 10
112.7524630794508
 20
-155.6380452084863
 10
112.7524630794508
 20
-155.8220133073987
 10
112.7524630794508
 20
-155.8220133073987
 10
112.7228352582776
 20
-155.8220133073987
 10
112.7059542903999
 20
-155.8178791928164
 10
112.5430012739476
 20
-155.8178791928164
 97
        0
 97
        0
 92
        1
 93
        1
 72
     4
 94
        3
 73
     0
 74
     1
 95
       20
 96
       16
 40
0.0
 40
0.0
 40
0.0
 40
0.0
 40
1.0
 40
1.0
 40
1.0
 40
2.0
 40
2.0
 40
2.0
 40
3.0
 40
3.0
 40
3.0
 40
4.0
 40
4.0
 40
4.0
 40
5.0
 40
5.0
 40
5.0
 40
5.0
 10
111.914615857438
 20
-155.3524467927591
 10
111.914615857438
 20
-155.3524467927591
 10
111.8829209789737
 20
-155.3524467927591
 10
111.8829209789737
 20
-155.3524467927591
 10
111.9294297680246
 20
-155.4516655427343
 10
111.9611246464889
 20
-155.5322807770892
 10
111.9948865822443
 20
-155.6590602909463
 10
111.9948865822443
 20
-155.6590602909463
 10
112.2022813304564
 20
-155.6590602909463
 10
112.2022813304564
 20
-155.6590602909463
 10
112.2339762089207
 20
-155.5660427128446
 10
112.2574028582204
 20
-155.4812933639075
 10
112.2804849979716
 20
-155.3524467927591
 10
112.2804849979716
 20
-155.3524467927591
 10
111.914615857438
 20
-155.3524467927591
 10
111.914615857438
 20
-155.3524467927591
 97
        0
 97
        0
 92
        1
 93
        1
 72
     4
 94
        3
 73
     0
 74
     1
 95
       17
 96
       13
 40
0.0
 40
0.0
 40
0.0
 40
0.0
 40
1.0
 40
1.0
 40
1.0
 40
2.0
 40
2.0
 40
2.0
 40
3.0
 40
3.0
 40
3.0
 40
4.0
 40
4.0
 40
4.0
 40
4.0
 10
111.9780056143666
 20
-156.2026963585188
 10
111.9611246464889
 20
-156.2323241796919
 10
111.9104817428557
 20
-156.3253417577937
 10
111.8998019468514
 20
-156.3446342925111
 10
112.0903157271858
 20
-156.4038899348574
 10
112.1113308096458
 20
-156.4100911067308
 10
112.1833333052875
 20
-156.4376518706128
 10
112.2384548330515
 20
-156.3508354643845
 10
112.2615369728027
 20
-156.2767659114517
 10
112.2763508833893
 20
-156.2026963585188
 10
112.2763508833893
 20
-156.2026963585188
 10
111.9780056143666
 20
-156.2026963585188
 10
111.9780056143666
 20
-156.2026963585188
 97
        0
 97
        0
 75
     2
 76
     1
 98
        0
  0
SPLINE
  5
1A4
330
19C
100
AcDbEntity
  8
_U+30EC_U+30A4_U+30E4_U+30FC 1
370
     0
100
AcDbSpline
210
0.0
220
0.0
230
1.0
 70
    11
 71
     3
 72
   203
 73
   199
 74
     0
 42
0.0000000001
 43
0.0000000001
 12
1.0
 22
0.0
 32
0.0
 13
1.0
 23
0.0
 33
0.0
 40
0.0
 40
0.0
 40
0.0
 40
0.0
 40
1.0
 40
1.0
 40
1.0
 40
2.0
 40
2.0
 40
2.0
 40
3.0
 40
3.0
 40
3.0
 40
4.0
 40
4.0
 40
4.0
 40
5.0
 40
5.0
 40
5.0
 40
6.0
 40
6.0
 40
6.0
 40
7.0
 40
7.0
 40
7.0
 40
8.0
 40
8.0
 40
8.0
 40
9.0
 40
9.0
 40
9.0
 40
10.0
 40
10.0
 40
10.0
 40
11.0
 40
11.0
 40
11.0
 40
12.0
 40
12.0
 40
12.0
 40
13.0
 40
13.0
 40
13.0
 40
14.0
 40
14.0
 40
14.0
 40
15.0
 40
15.0
 40
15.0
 40
16.0
 40
16.0
 40
16.0
 40
17.0
 40
17.0
 40
17.0
 40
18.0
 40
18.0
 40
18.0
 40
19.0
 40
19.0
 40
19.0
 40
20.0
 40
20.0
 40
20.0
 40
21.0
 40
21.0
 40
21.0
 40
22.0
 40
22.0
 40
22.0
 40
23.0
 40
23.0
 40
23.0
 40
24.0
 40
24.0
 40
24.0
 40
25.0
 40
25.0
 40
25.0
 40
26.0
 40
26.0
 40
26.0
 40
27.0
 40
27.0
 40
27.0
 40
28.0
 40
28.0
 40
28.0
 40
29.0
 40
29.0
 40
29.0
 40
30.0
 40
30.0
 40
30.0
 40
31.0
 40
31.0
 40
31.0
 40
32.0
 40
32.0
 40
32.0
 40
33.0
 40
33.0
 40
33.0
 40
34.0
 40
34.0
 40
34.0
 40
35.0
 40
35.0
 40
35.0
 40
36.0
 40
36.0
 40
36.0
 40
37.0
 40
37.0
 40
37.0
 40
38.0
 40
38.0
 40
38.0
 40
39.0
 40
39.0
 40
39.0
 40
40.0
 40
40.0
 40
40.0
 40
41.0
 40
41.0
 40
41.0
 40
42.0
 40
42.0
 40
42.0
 40
43.0
 40
43.0
 40
43.0
 40
44.0
 40
44.0
 40
44.0
 40
45.0
 40
45.0
 40
45.0
 40
46.0
 40
46.0
 40
46.0
 40
47.0
 40
47.0
 40
47.0
 40
48.0
 40
48.0
 40
48.0
 40
49.0
 40
49.0
 40
49.0
 40
50.0
 40
50.0
 40
50.0
 40
51.0
 40
51.0
 40
51.0
 40
52.0
 40
52.0
 40
52.0
 40
53.0
 40
53.0
 40
53.0
 40
54.0
 40
54.0
 40
54.0
 40
55.0
 40
55.0
 40
55.0
 40
56.0
 40
56.0
 40
56.0
 40
57.0
 40
57.0
 40
57.0
 40
58.0
 40
58.0
 40
58.0
 40
59.0
 40
59.0
 40
59.0
 40
60.0
 40
60.0
 40
60.0
 40
61.0
 40
61.0
 40
61.0
 40
62.0
 40
62.0
 40
62.0
 40
63.0
 40
63.0
 40
63.0
 40
64.0
 40
64.0
 40
64.0
 40
65.0
 40
65.0
 40
65.0
 40
66.0
 40
66.0
 40
66.0
 40
66.0
 10
114.2345431572053
 20
-155.8854030643273
 30
0.0
 10
114.2345431572053
 20
-155.8854030643273
 30
0.0
 10
113.6757486694977
 20
-155.8854030643273
 30
0.0
 10
113.6757486694977
 20
-155.8854030643273
 30
0.0
 10
113.665413383042
 20
-155.929844796087
 30
0.0
 10
113.6568006443289
 20
-155.9615396745513
 30
0.0
 10
113.6440537910334
 20
-155.9997802344376
 30
0.0
 10
113.6695474976243
 20
-155.9997802344376
 30
0.0
 10
113.6843614082109
 20
-156.0018472917287
 30
0.0
 10
113.6905625800843
 20
-156.0018472917287
 30
0.0
 10
113.6905625800843
 20
-156.0018472917287
 30
0.0
 10
113.8790093031275
 20
-156.0018472917287
 30
0.0
 10
113.8790093031275
 20
-156.0018472917287
 30
0.0
 10
113.8790093031275
 20
-156.0018472917287
 30
0.0
 10
114.2534911823741
 20
-156.0018472917287
 30
0.0
 10
114.2534911823741
 20
-156.0018472917287
 30
0.0
 10
114.3041340860073
 20
-156.0018472917287
 30
0.0
 10
114.5876654444434
 20
-155.9891004384333
 30
0.0
 10
114.6193603229077
 20
-155.9891004384333
 30
0.0
 10
114.6172932656165
 20
-156.0166612023153
 30
0.0
 10
114.6152262083254
 20
-156.0356092274842
 30
0.0
 10
114.6152262083254
 20
-156.0652370486573
 30
0.0
 10
114.6131591510342
 20
-156.0969319271216
 30
0.0
 10
114.6131591510342
 20
-156.2323241796919
 30
0.0
 10
114.6131591510342
 20
-156.2598849435739
 30
0.0
 10
114.6131591510342
 20
-156.2598849435739
 30
0.0
 10
114.6131591510342
 20
-156.5051757421237
 30
0.0
 10
114.6131591510342
 20
-156.5051757421237
 30
0.0
 10
114.6131591510342
 20
-156.5496174738834
 30
0.0
 10
114.6172932656165
 20
-156.7463324260912
 30
0.0
 10
114.6214273801988
 20
-156.8989501560878
 30
0.0
 10
114.6214273801988
 20
-156.8989501560878
 30
0.0
 10
114.3950846068179
 20
-156.8989501560878
 30
0.0
 10
114.3950846068179
 20
-156.8989501560878
 30
0.0
 10
114.3950846068179
 20
-156.8989501560878
 30
0.0
 10
114.397151664109
 20
-156.8648437107838
 30
0.0
 10
114.397151664109
 20
-156.8648437107838
 30
0.0
 10
114.397151664109
 20
-156.8648437107838
 30
0.0
 10
113.6950412042151
 20
-156.8648437107838
 30
0.0
 10
113.6950412042151
 20
-156.8648437107838
 30
0.0
 10
113.6950412042151
 20
-156.8648437107838
 30
0.0
 10
113.6971082615063
 20
-156.8989501560878
 30
0.0
 10
113.6971082615063
 20
-156.8989501560878
 30
0.0
 10
113.6971082615063
 20
-156.8989501560878
 30
0.0
 10
113.47903371729
 20
-156.8989501560878
 30
0.0
 10
113.47903371729
 20
-156.8989501560878
 30
0.0
 10
113.4835123414208
 20
-156.8438286283238
 30
0.0
 10
113.4835123414208
 20
-156.8310817750283
 30
0.0
 10
113.4897135132942
 20
-156.716704604918
 30
0.0
 10
113.4917805705854
 20
-156.6894883505846
 30
0.0
 10
113.4938476278765
 20
-156.5561631553054
 30
0.0
 10
113.4938476278765
 20
-156.536870620588
 30
0.0
 10
113.4938476278765
 20
-156.536870620588
 30
0.0
 10
113.4938476278765
 20
-156.3339544965068
 30
0.0
 10
113.4938476278765
 20
-156.3339544965068
 30
0.0
 10
113.3543212607239
 20
-156.5837239191874
 30
0.0
 10
113.1851670723982
 20
-156.7146375476269
 30
0.0
 10
113.079402641001
 20
-156.7804388713952
 30
0.0
 10
113.079402641001
 20
-156.7804388713952
 30
0.0
 10
112.9057698285444
 20
-156.640567994694
 30
0.0
 10
112.9057698285444
 20
-156.640567994694
 30
0.0
 10
112.9946532920638
 20
-156.5899250910608
 30
0.0
 10
113.1386582833473
 20
-156.5031086848326
 30
0.0
 10
113.2761175932088
 20
-156.308460789916
 30
0.0
 10
113.3670681140193
 20
-156.1816812760588
 30
0.0
 10
113.4325249282391
 20
-156.0376762847753
 30
0.0
 10
113.4662868639945
 20
-155.8854030643273
 30
0.0
 10
113.2378770333225
 20
-155.8874701216184
 30
0.0
 10
113.0580430489924
 20
-155.8940158030404
 30
0.0
 10
112.9629584135995
 20
-155.8960828603315
 30
0.0
 10
112.9629584135995
 20
-155.8960828603315
 30
0.0
 10
112.9629584135995
 20
-155.7183159332926
 30
0.0
 10
112.9629584135995
 20
-155.7183159332926
 30
0.0
 10
113.1596733658073
 20
-155.7245171051661
 30
0.0
 10
113.4432047242434
 20
-155.7289957292969
 30
0.0
 10
113.5934108874003
 20
-155.7289957292969
 30
0.0
 10
113.5934108874003
 20
-155.7289957292969
 30
0.0
 10
113.8070068074857
 20
-155.7289957292969
 30
0.0
 10
113.8070068074857
 20
-155.7289957292969
 30
0.0
 10
113.8070068074857
 20
-155.7289957292969
 30
0.0
 10
113.8070068074857
 20
-155.6211642406086
 30
0.0
 10
113.8070068074857
 20
-155.6211642406086
 30
0.0
 10
113.8070068074857
 20
-155.6211642406086
 30
0.0
 10
113.6609347589112
 20
-155.6211642406086
 30
0.0
 10
113.6609347589112
 20
-155.6211642406086
 30
0.0
 10
113.4917805705854
 20
-155.6211642406086
 30
0.0
 10
113.3226263822596
 20
-155.6252983551909
 30
0.0
 10
113.155539251225
 20
-155.6314995270644
 30
0.0
 10
113.155539251225
 20
-155.6314995270644
 30
0.0
 10
113.155539251225
 20
-155.4602782814474
 30
0.0
 10
113.155539251225
 20
-155.4602782814474
 30
0.0
 10
113.3098795289642
 20
-155.4709580774517
 30
0.0
 10
113.4959146851677
 20
-155.4709580774517
 30
0.0
 10
113.6609347589112
 20
-155.4709580774517
 30
0.0
 10
113.6609347589112
 20
-155.4709580774517
 30
0.0
 10
113.8070068074857
 20
-155.4709580774517
 30
0.0
 10
113.8070068074857
 20
-155.4709580774517
 30
0.0
 10
113.8070068074857
 20
-155.4709580774517
 30
0.0
 10
113.8070068074857
 20
-155.3524467927591
 30
0.0
 10
113.8070068074857
 20
-155.3524467927591
 30
0.0
 10
113.8070068074857
 20
-155.3524467927591
 30
0.0
 10
113.6757486694977
 20
-155.3524467927591
 30
0.0
 10
113.6757486694977
 20
-155.3524467927591
 30
0.0
 10
113.6292398804469
 20
-155.3524467927591
 30
0.0
 10
113.4263237563656
 20
-155.3607150219237
 30
0.0
 10
113.3839490818971
 20
-155.3607150219237
 30
0.0
 10
113.1810329578159
 20
-155.3651936460545
 30
0.0
 10
113.1045518380433
 20
-155.3672607033457
 30
0.0
 10
113.0263481705281
 20
-155.3693277606368
 30
0.0
 10
113.0263481705281
 20
-155.3693277606368
 30
0.0
 10
113.0263481705281
 20
-155.1853596617245
 30
0.0
 10
113.0263481705281
 20
-155.1853596617245
 30
0.0
 10
113.1407253406384
 20
-155.1936278908891
 30
0.0
 10
113.1851670723982
 20
-155.1936278908891
 30
0.0
 10
113.5679171808094
 20
-155.2022406296022
 30
0.0
 10
113.5045274238808
 20
-155.1068114846608
 30
0.0
 10
113.4769666599988
 20
-155.0795952303273
 30
0.0
 10
113.4411376669522
 20
-155.0434217277322
 30
0.0
 10
113.4411376669522
 20
-155.0434217277322
 30
0.0
 10
113.6164930271514
 20
-154.9610839456347
 30
0.0
 10
113.6164930271514
 20
-154.9610839456347
 30
0.0
 10
113.6568006443289
 20
-154.9969129386813
 30
0.0
 10
113.7012423760886
 20
-155.0392876131499
 30
0.0
 10
113.7753119290215
 20
-155.1491861591294
 30
0.0
 10
113.7753119290215
 20
-155.1491861591294
 30
0.0
 10
113.6609347589112
 20
-155.2043076868934
 30
0.0
 10
113.6609347589112
 20
-155.2043076868934
 30
0.0
 10
113.6609347589112
 20
-155.2043076868934
 30
0.0
 10
113.6716145549154
 20
-155.2043076868934
 30
0.0
 10
113.6716145549154
 20
-155.2043076868934
 30
0.0
 10
113.6716145549154
 20
-155.2043076868934
 30
0.0
 10
114.1942355400278
 20
-155.2043076868934
 30
0.0
 10
114.1942355400278
 20
-155.2043076868934
 30
0.0
 10
114.1942355400278
 20
-155.2043076868934
 30
0.0
 10
114.0991509046349
 20
-155.1598659551337
 30
0.0
 10
114.0991509046349
 20
-155.1598659551337
 30
0.0
 10
114.1263671589684
 20
-155.1216253952474
 30
0.0
 10
114.1835557440236
 20
-155.0413546704411
 30
0.0
 10
114.1983696546101
 20
-154.9672851175082
 30
0.0
 10
114.1983696546101
 20
-154.9672851175082
 30
0.0
 10
114.4119655746956
 20
-155.0306748744368
 30
0.0
 10
114.4119655746956
 20
-155.0306748744368
 30
0.0
 10
114.4205783134088
 20
-155.0330864412765
 30
0.0
 10
114.4415933958688
 20
-155.0434217277322
 30
0.0
 10
114.4415933958688
 20
-155.0647813197407
 30
0.0
 10
114.4415933958688
 20
-155.1026773700785
 30
0.0
 10
114.376136581649
 20
-155.1026773700785
 30
0.0
 10
114.3571885564802
 20
-155.1026773700785
 30
0.0
 10
114.3465087604759
 20
-155.1216253952474
 30
0.0
 10
114.3230821111762
 20
-155.1619330124248
 30
0.0
 10
114.293454290003
 20
-155.2022406296022
 30
0.0
 10
114.6934298758405
 20
-155.1956949481803
 30
0.0
 10
114.7230576970137
 20
-155.1936278908891
 30
0.0
 10
114.7991943072377
 20
-155.1874267190157
 30
0.0
 10
114.7991943072377
 20
-155.1874267190157
 30
0.0
 10
114.7991943072377
 20
-155.3693277606368
 30
0.0
 10
114.7991943072377
 20
-155.3693277606368
 30
0.0
 10
114.7802462820688
 20
-155.3693277606368
 30
0.0
 10
114.754752575478
 20
-155.3672607033457
 30
0.0
 10
114.534955483519
 20
-155.3586479646326
 30
0.0
 10
114.4839680703373
 20
-155.3565809073414
 30
0.0
 10
114.2641709783784
 20
-155.3524467927591
 30
0.0
 10
114.2197292466187
 20
-155.3524467927591
 30
0.0
 10
114.2197292466187
 20
-155.3524467927591
 30
0.0
 10
114.0037217596935
 20
-155.3524467927591
 30
0.0
 10
114.0037217596935
 20
-155.3524467927591
 30
0.0
 10
114.0037217596935
 20
-155.3524467927591
 30
0.0
 10
114.0037217596935
 20
-155.4709580774517
 30
0.0
 10
114.0037217596935
 20
-155.4709580774517
 30
0.0
 10
114.0037217596935
 20
-155.4709580774517
 30
0.0
 10
114.1773545721501
 20
-155.4709580774517
 30
0.0
 10
114.1773545721501
 20
-155.4709580774517
 30
0.0
 10
114.3403075886024
 20
-155.4709580774517
 30
0.0
 10
114.5304768593882
 20
-155.4709580774517
 30
0.0
 10
114.6872287039671
 20
-155.4602782814474
 30
0.0
 10
114.6872287039671
 20
-155.4602782814474
 30
0.0
 10
114.6872287039671
 20
-155.6314995270644
 30
0.0
 10
114.6872287039671
 20
-155.6314995270644
 30
0.0
 10
114.4777668984639
 20
-155.6232312978998
 30
0.0
 10
114.2810519462561
 20
-155.6211642406086
 30
0.0
 10
114.1773545721501
 20
-155.6211642406086
 30
0.0
 10
114.1773545721501
 20
-155.6211642406086
 30
0.0
 10
114.0037217596935
 20
-155.6211642406086
 30
0.0
 10
114.0037217596935
 20
-155.6211642406086
 30
0.0
 10
114.0037217596935
 20
-155.6211642406086
 30
0.0
 10
114.0037217596935
 20
-155.7289957292969
 30
0.0
 10
114.0037217596935
 20
-155.7289957292969
 30
0.0
 10
114.0037217596935
 20
-155.7289957292969
 30
0.0
 10
114.2345431572053
 20
-155.7289957292969
 30
0.0
 10
114.2345431572053
 20
-155.7289957292969
 30
0.0
 10
114.3675238429359
 20
-155.7289957292969
 30
0.0
 10
114.6555338255028
 20
-155.7245171051661
 30
0.0
 10
114.8646511214575
 20
-155.7183159332926
 30
0.0
 10
114.8646511214575
 20
-155.7183159332926
 30
0.0
 10
114.8646511214575
 20
-155.8960828603315
 30
0.0
 10
114.8646511214575
 20
-155.8960828603315
 30
0.0
 10
114.6724147933805
 20
-155.8895371789096
 30
0.0
 10
114.3592556137713
 20
-155.8854030643273
 30
0.0
 10
114.2345431572053
 20
-155.8854030643273
 30
0.0
  0
POLYLINE
  5
1A5
330
19C
100
AcDbEntity
  8
_U+30EC_U+30A4_U+30E4_U+30FC 1
370
     0
100
AcDb2dPolyline
 66
     1
 10
0.0
 20
0.0
 30
0.0
  0
VERTEX
  5
1A6
330
1A5
100
AcDbEntity
  8
_U+30EC_U+30A4_U+30E4_U+30FC 1
370
     0
100
AcDbVertex
100
AcDb2dVertex
 10
114.3995632309487
 20
-156.1413736588813
 30
0.0
  0
VERTEX
  5
1A7
330
1A5
100
AcDbEntity
  8
_U+30EC_U+30A4_U+30E4_U+30FC 1
370
     0
100
AcDbVertex
100
AcDb2dVertex
 10
113.692974146924
 20
-156.1413736588813
 30
0.0
  0
VERTEX
  5
1A8
330
1A5
100
AcDbEntity
  8
_U+30EC_U+30A4_U+30E4_U+30FC 1
370
     0
100
AcDbVertex
100
AcDb2dVertex
 10
113.692974146924
 20
-156.2492051475697
 30
0.0
  0
VERTEX
  5
1A9
330
1A5
100
AcDbEntity
  8
_U+30EC_U+30A4_U+30E4_U+30FC 1
370
     0
100
AcDbVertex
100
AcDb2dVertex
 10
114.3995632309487
 20
-156.2492051475697
 30
0.0
  0
VERTEX
  5
1AA
330
1A5
100
AcDbEntity
  8
_U+30EC_U+30A4_U+30E4_U+30FC 1
370
     0
100
AcDbVertex
100
AcDb2dVertex
 10
114.3995632309487
 20
-156.1413736588813
 30
0.0
  0
SEQEND
  5
1AB
330
1A5
100
AcDbEntity
  8
_U+30EC_U+30A4_U+30E4_U+30FC 1
370
     0
  0
POLYLINE
  5
1AC
330
19C
100
AcDbEntity
  8
_U+30EC_U+30A4_U+30E4_U+30FC 1
370
     0
100
AcDb2dPolyline
 66
     1
 10
0.0
 20
0.0
 30
0.0
  0
VERTEX
  5
1AD
330
1AC
100
AcDbEntity
  8
_U+30EC_U+30A4_U+30E4_U+30FC 1
370
     0
100
AcDbVertex
100
AcDb2dVertex
 10
114.3995632309487
 20
-156.3742621136842
 30
0.0
  0
VERTEX
  5
1AE
330
1AC
100
AcDbEntity
  8
_U+30EC_U+30A4_U+30E4_U+30FC 1
370
     0
100
AcDbVertex
100
AcDb2dVertex
 10
113.692974146924
 20
-156.3742621136842
 30
0.0
  0
VERTEX
  5
1AF
330
1AC
100
AcDbEntity
  8
_U+30EC_U+30A4_U+30E4_U+30FC 1
370
     0
100
AcDbVertex
100
AcDb2dVertex
 10
113.692974146924
 20
-156.488294774246
 30
0.0
  0
VERTEX
  5
1B0
330
1AC
100
AcDbEntity
  8
_U+30EC_U+30A4_U+30E4_U+30FC 1
370
     0
100
AcDbVertex
100
AcDb2dVertex
 10
114.3995632309487
 20
-156.488294774246
 30
0.0
  0
VERTEX
  5
1B1
330
1AC
100
AcDbEntity
  8
_U+30EC_U+30A4_U+30E4_U+30FC 1
370
     0
100
AcDbVertex
100
AcDb2dVertex
 10
114.3995632309487
 20
-156.3742621136842
 30
0.0
  0
SEQEND
  5
1B2
330
1AC
100
AcDbEntity
  8
_U+30EC_U+30A4_U+30E4_U+30FC 1
370
     0
  0
POLYLINE
  5
1B3
330
19C
100
AcDbEntity
  8
_U+30EC_U+30A4_U+30E4_U+30FC 1
370
     0
100
AcDb2dPolyline
 66
     1
 10
0.0
 20
0.0
 30
0.0
  0
VERTEX
  5
1B4
330
1B3
100
AcDbEntity
  8
_U+30EC_U+30A4_U+30E4_U+30FC 1
370
     0
100
AcDbVertex
100
AcDb2dVertex
 10
114.3995632309487
 20
-156.6174858549429
 30
0.0
  0
VERTEX
  5
1B5
330
1B3
100
AcDbEntity
  8
_U+30EC_U+30A4_U+30E4_U+30FC 1
370
     0
100
AcDbVertex
100
AcDb2dVertex
 10
113.692974146924
 20
-156.6174858549429
 30
0.0
  0
VERTEX
  5
1B6
330
1B3
100
AcDbEntity
  8
_U+30EC_U+30A4_U+30E4_U+30FC 1
370
     0
100
AcDbVertex
100
AcDb2dVertex
 10
113.692974146924
 20
-156.7315185155046
 30
0.0
  0
VERTEX
  5
1B7
330
1B3
100
AcDbEntity
  8
_U+30EC_U+30A4_U+30E4_U+30FC 1
370
     0
100
AcDbVertex
100
AcDb2dVertex
 10
114.3995632309487
 20
-156.7315185155046
 30
0.0
  0
VERTEX
  5
1B8
330
1B3
100
AcDbEntity
  8
_U+30EC_U+30A4_U+30E4_U+30FC 1
370
     0
100
AcDbVertex
100
AcDb2dVertex
 10
114.3995632309487
 20
-156.6174858549429
 30
0.0
  0
SEQEND
  5
1B9
330
1B3
100
AcDbEntity
  8
_U+30EC_U+30A4_U+30E4_U+30FC 1
370
     0
  0
HATCH
  5
1BA
330
19C
100
AcDbEntity
  8
_U+30EC_U+30A4_U+30E4_U+30FC 1
 62
   179
420
  2234388
100
AcDbHatch
 10
0.0
 20
0.0
 30
0.0
210
0.0
220
0.0
230
1.0
  2
SOLID
 70
     1
 71
     0
 91
        4
 92
        1
 93
        1
 72
     4
 94
        3
 73
     0
 74
     1
 95
      203
 96
      199
 40
0.0
 40
0.0
 40
0.0
 40
0.0
 40
1.0
 40
1.0
 40
1.0
 40
2.0
 40
2.0
 40
2.0
 40
3.0
 40
3.0
 40
3.0
 40
4.0
 40
4.0
 40
4.0
 40
5.0
 40
5.0
 40
5.0
 40
6.0
 40
6.0
 40
6.0
 40
7.0
 40
7.0
 40
7.0
 40
8.0
 40
8.0
 40
8.0
 40
9.0
 40
9.0
 40
9.0
 40
10.0
 40
10.0
 40
10.0
 40
11.0
 40
11.0
 40
11.0
 40
12.0
 40
12.0
 40
12.0
 40
13.0
 40
13.0
 40
13.0
 40
14.0
 40
14.0
 40
14.0
 40
15.0
 40
15.0
 40
15.0
 40
16.0
 40
16.0
 40
16.0
 40
17.0
 40
17.0
 40
17.0
 40
18.0
 40
18.0
 40
18.0
 40
19.0
 40
19.0
 40
19.0
 40
20.0
 40
20.0
 40
20.0
 40
21.0
 40
21.0
 40
21.0
 40
22.0
 40
22.0
 40
22.0
 40
23.0
 40
23.0
 40
23.0
 40
24.0
 40
24.0
 40
24.0
 40
25.0
 40
25.0
 40
25.0
 40
26.0
 40
26.0
 40
26.0
 40
27.0
 40
27.0
 40
27.0
 40
28.0
 40
28.0
 40
28.0
 40
29.0
 40
29.0
 40
29.0
 40
30.0
 40
30.0
 40
30.0
 40
31.0
 40
31.0
 40
31.0
 40
32.0
 40
32.0
 40
32.0
 40
33.0
 40
33.0
 40
33.0
 40
34.0
 40
34.0
 40
34.0
 40
35.0
 40
35.0
 40
35.0
 40
36.0
 40
36.0
 40
36.0
 40
37.0
 40
37.0
 40
37.0
 40
38.0
 40
38.0
 40
38.0
 40
39.0
 40
39.0
 40
39.0
 40
40.0
 40
40.0
 40
40.0
 40
41.0
 40
41.0
 40
41.0
 40
42.0
 40
42.0
 40
42.0
 40
43.0
 40
43.0
 40
43.0
 40
44.0
 40
44.0
 40
44.0
 40
45.0
 40
45.0
 40
45.0
 40
46.0
 40
46.0
 40
46.0
 40
47.0
 40
47.0
 40
47.0
 40
48.0
 40
48.0
 40
48.0
 40
49.0
 40
49.0
 40
49.0
 40
50.0
 40
50.0
 40
50.0
 40
51.0
 40
51.0
 40
51.0
 40
52.0
 40
52.0
 40
52.0
 40
53.0
 40
53.0
 40
53.0
 40
54.0
 40
54.0
 40
54.0
 40
55.0
 40
55.0
 40
55.0
 40
56.0
 40
56.0
 40
56.0
 40
57.0
 40
57.0
 40
57.0
 40
58.0
 40
58.0
 40
58.0
 40
59.0
 40
59.0
 40
59.0
 40
60.0
 40
60.0
 40
60.0
 40
61.0
 40
61.0
 40
61.0
 40
62.0
 40
62.0
 40
62.0
 40
63.0
 40
63.0
 40
63.0
 40
64.0
 40
64.0
 40
64.0
 40
65.0
 40
65.0
 40
65.0
 40
66.0
 40
66.0
 40
66.0
 40
66.0
 10
114.2345431572053
 20
-155.8854030643273
 10
114.2345431572053
 20
-155.8854030643273
 10
113.6757486694977
 20
-155.8854030643273
 10
113.6757486694977
 20
-155.8854030643273
 10
113.665413383042
 20
-155.929844796087
 10
113.6568006443289
 20
-155.9615396745513
 10
113.6440537910334
 20
-155.9997802344376
 10
113.6695474976243
 20
-155.9997802344376
 10
113.6843614082109
 20
-156.0018472917287
 10
113.6905625800843
 20
-156.0018472917287
 10
113.6905625800843
 20
-156.0018472917287
 10
113.8790093031275
 20
-156.0018472917287
 10
113.8790093031275
 20
-156.0018472917287
 10
113.8790093031275
 20
-156.0018472917287
 10
114.2534911823741
 20
-156.0018472917287
 10
114.2534911823741
 20
-156.0018472917287
 10
114.3041340860073
 20
-156.0018472917287
 10
114.5876654444434
 20
-155.9891004384333
 10
114.6193603229077
 20
-155.9891004384333
 10
114.6172932656165
 20
-156.0166612023153
 10
114.6152262083254
 20
-156.0356092274842
 10
114.6152262083254
 20
-156.0652370486573
 10
114.6131591510342
 20
-156.0969319271216
 10
114.6131591510342
 20
-156.2323241796919
 10
114.6131591510342
 20
-156.2598849435739
 10
114.6131591510342
 20
-156.2598849435739
 10
114.6131591510342
 20
-156.5051757421237
 10
114.6131591510342
 20
-156.5051757421237
 10
114.6131591510342
 20
-156.5496174738834
 10
114.6172932656165
 20
-156.7463324260912
 10
114.6214273801988
 20
-156.8989501560878
 10
114.6214273801988
 20
-156.8989501560878
 10
114.3950846068179
 20
-156.8989501560878
 10
114.3950846068179
 20
-156.8989501560878
 10
114.3950846068179
 20
-156.8989501560878
 10
114.397151664109
 20
-156.8648437107838
 10
114.397151664109
 20
-156.8648437107838
 10
114.397151664109
 20
-156.8648437107838
 10
113.6950412042151
 20
-156.8648437107838
 10
113.6950412042151
 20
-156.8648437107838
 10
113.6950412042151
 20
-156.8648437107838
 10
113.6971082615063
 20
-156.8989501560878
 10
113.6971082615063
 20
-156.8989501560878
 10
113.6971082615063
 20
-156.8989501560878
 10
113.47903371729
 20
-156.8989501560878
 10
113.47903371729
 20
-156.8989501560878
 10
113.4835123414208
 20
-156.8438286283238
 10
113.4835123414208
 20
-156.8310817750283
 10
113.4897135132942
 20
-156.716704604918
 10
113.4917805705854
 20
-156.6894883505846
 10
113.4938476278765
 20
-156.5561631553054
 10
113.4938476278765
 20
-156.536870620588
 10
113.4938476278765
 20
-156.536870620588
 10
113.4938476278765
 20
-156.3339544965068
 10
113.4938476278765
 20
-156.3339544965068
 10
113.3543212607239
 20
-156.5837239191874
 10
113.1851670723982
 20
-156.7146375476269
 10
113.079402641001
 20
-156.7804388713952
 10
113.079402641001
 20
-156.7804388713952
 10
112.9057698285444
 20
-156.640567994694
 10
112.9057698285444
 20
-156.640567994694
 10
112.9946532920638
 20
-156.5899250910608
 10
113.1386582833473
 20
-156.5031086848326
 10
113.2761175932088
 20
-156.308460789916
 10
113.3670681140193
 20
-156.1816812760588
 10
113.4325249282391
 20
-156.0376762847753
 10
113.4662868639945
 20
-155.8854030643273
 10
113.2378770333225
 20
-155.8874701216184
 10
113.0580430489924
 20
-155.8940158030404
 10
112.9629584135995
 20
-155.8960828603315
 10
112.9629584135995
 20
-155.8960828603315
 10
112.9629584135995
 20
-155.7183159332926
 10
112.9629584135995
 20
-155.7183159332926
 10
113.1596733658073
 20
-155.7245171051661
 10
113.4432047242434
 20
-155.7289957292969
 10
113.5934108874003
 20
-155.7289957292969
 10
113.5934108874003
 20
-155.7289957292969
 10
113.8070068074857
 20
-155.7289957292969
 10
113.8070068074857
 20
-155.7289957292969
 10
113.8070068074857
 20
-155.7289957292969
 10
113.8070068074857
 20
-155.6211642406086
 10
113.8070068074857
 20
-155.6211642406086
 10
113.8070068074857
 20
-155.6211642406086
 10
113.6609347589112
 20
-155.6211642406086
 10
113.6609347589112
 20
-155.6211642406086
 10
113.4917805705854
 20
-155.6211642406086
 10
113.3226263822596
 20
-155.6252983551909
 10
113.155539251225
 20
-155.6314995270644
 10
113.155539251225
 20
-155.6314995270644
 10
113.155539251225
 20
-155.4602782814474
 10
113.155539251225
 20
-155.4602782814474
 10
113.3098795289642
 20
-155.4709580774517
 10
113.4959146851677
 20
-155.4709580774517
 10
113.6609347589112
 20
-155.4709580774517
 10
113.6609347589112
 20
-155.4709580774517
 10
113.8070068074857
 20
-155.4709580774517
 10
113.8070068074857
 20
-155.4709580774517
 10
113.8070068074857
 20
-155.4709580774517
 10
113.8070068074857
 20
-155.3524467927591
 10
113.8070068074857
 20
-155.3524467927591
 10
113.8070068074857
 20
-155.3524467927591
 10
113.6757486694977
 20
-155.3524467927591
 10
113.6757486694977
 20
-155.3524467927591
 10
113.6292398804469
 20
-155.3524467927591
 10
113.4263237563656
 20
-155.3607150219237
 10
113.3839490818971
 20
-155.3607150219237
 10
113.1810329578159
 20
-155.3651936460545
 10
113.1045518380433
 20
-155.3672607033457
 10
113.0263481705281
 20
-155.3693277606368
 10
113.0263481705281
 20
-155.3693277606368
 10
113.0263481705281
 20
-155.1853596617245
 10
113.0263481705281
 20
-155.1853596617245
 10
113.1407253406384
 20
-155.1936278908891
 10
113.1851670723982
 20
-155.1936278908891
 10
113.5679171808094
 20
-155.2022406296022
 10
113.5045274238808
 20
-155.1068114846608
 10
113.4769666599988
 20
-155.0795952303273
 10
113.4411376669522
 20
-155.0434217277322
 10
113.4411376669522
 20
-155.0434217277322
 10
113.6164930271514
 20
-154.9610839456347
 10
113.6164930271514
 20
-154.9610839456347
 10
113.6568006443289
 20
-154.9969129386813
 10
113.7012423760886
 20
-155.0392876131499
 10
113.7753119290215
 20
-155.1491861591294
 10
113.7753119290215
 20
-155.1491861591294
 10
113.6609347589112
 20
-155.2043076868934
 10
113.6609347589112
 20
-155.2043076868934
 10
113.6609347589112
 20
-155.2043076868934
 10
113.6716145549154
 20
-155.2043076868934
 10
113.6716145549154
 20
-155.2043076868934
 10
113.6716145549154
 20
-155.2043076868934
 10
114.1942355400278
 20
-155.2043076868934
 10
114.1942355400278
 20
-155.2043076868934
 10
114.1942355400278
 20
-155.2043076868934
 10
114.0991509046349
 20
-155.1598659551337
 10
114.0991509046349
 20
-155.1598659551337
 10
114.1263671589684
 20
-155.1216253952474
 10
114.1835557440236
 20
-155.0413546704411
 10
114.1983696546101
 20
-154.9672851175082
 10
114.1983696546101
 20
-154.9672851175082
 10
114.4119655746956
 20
-155.0306748744368
 10
114.4119655746956
 20
-155.0306748744368
 10
114.4205783134088
 20
-155.0330864412765
 10
114.4415933958688
 20
-155.0434217277322
 10
114.4415933958688
 20
-155.0647813197407
 10
114.4415933958688
 20
-155.1026773700785
 10
114.376136581649
 20
-155.1026773700785
 10
114.3571885564802
 20
-155.1026773700785
 10
114.3465087604759
 20
-155.1216253952474
 10
114.3230821111762
 20
-155.1619330124248
 10
114.293454290003
 20
-155.2022406296022
 10
114.6934298758405
 20
-155.1956949481803
 10
114.7230576970137
 20
-155.1936278908891
 10
114.7991943072377
 20
-155.1874267190157
 10
114.7991943072377
 20
-155.1874267190157
 10
114.7991943072377
 20
-155.3693277606368
 10
114.7991943072377
 20
-155.3693277606368
 10
114.7802462820688
 20
-155.3693277606368
 10
114.754752575478
 20
-155.3672607033457
 10
114.534955483519
 20
-155.3586479646326
 10
114.4839680703373
 20
-155.3565809073414
 10
114.2641709783784
 20
-155.3524467927591
 10
114.2197292466187
 20
-155.3524467927591
 10
114.2197292466187
 20
-155.3524467927591
 10
114.0037217596935
 20
-155.3524467927591
 10
114.0037217596935
 20
-155.3524467927591
 10
114.0037217596935
 20
-155.3524467927591
 10
114.0037217596935
 20
-155.4709580774517
 10
114.0037217596935
 20
-155.4709580774517
 10
114.0037217596935
 20
-155.4709580774517
 10
114.1773545721501
 20
-155.4709580774517
 10
114.1773545721501
 20
-155.4709580774517
 10
114.3403075886024
 20
-155.4709580774517
 10
114.5304768593882
 20
-155.4709580774517
 10
114.6872287039671
 20
-155.4602782814474
 10
114.6872287039671
 20
-155.4602782814474
 10
114.6872287039671
 20
-155.6314995270644
 10
114.6872287039671
 20
-155.6314995270644
 10
114.4777668984639
 20
-155.6232312978998
 10
114.2810519462561
 20
-155.6211642406086
 10
114.1773545721501
 20
-155.6211642406086
 10
114.1773545721501
 20
-155.6211642406086
 10
114.0037217596935
 20
-155.6211642406086
 10
114.0037217596935
 20
-155.6211642406086
 10
114.0037217596935
 20
-155.6211642406086
 10
114.0037217596935
 20
-155.7289957292969
 10
114.0037217596935
 20
-155.7289957292969
 10
114.0037217596935
 20
-155.7289957292969
 10
114.2345431572053
 20
-155.7289957292969
 10
114.2345431572053
 20
-155.7289957292969
 10
114.3675238429359
 20
-155.7289957292969
 10
114.6555338255028
 20
-155.7245171051661
 10
114.8646511214575
 20
-155.7183159332926
 10
114.8646511214575
 20
-155.7183159332926
 10
114.8646511214575
 20
-155.8960828603315
 10
114.8646511214575
 20
-155.8960828603315
 10
114.6724147933805
 20
-155.8895371789096
 10
114.3592556137713
 20
-155.8854030643273
 10
114.2345431572053
 20
-155.8854030643273
 97
        0
 97
        0
 92
        1
 93
        4
 72
     1
 10
114.3995632309487
 20
-156.1413736588813
 11
113.692974146924
 21
-156.1413736588813
 72
     1
 10
113.692974146924
 20
-156.1413736588813
 11
113.692974146924
 21
-156.2492051475697
 72
     1
 10
113.692974146924
 20
-156.2492051475697
 11
114.3995632309487
 21
-156.2492051475697
 72
     1
 10
114.3995632309487
 20
-156.2492051475697
 11
114.3995632309487
 21
-156.1413736588813
 97
        0
 92
        1
 93
        4
 72
     1
 10
114.3995632309487
 20
-156.3742621136842
 11
113.692974146924
 21
-156.3742621136842
 72
     1
 10
113.692974146924
 20
-156.3742621136842
 11
113.692974146924
 21
-156.488294774246
 72
     1
 10
113.692974146924
 20
-156.488294774246
 11
114.3995632309487
 21
-156.488294774246
 72
     1
 10
114.3995632309487
 20
-156.488294774246
 11
114.3995632309487
 21
-156.3742621136842
 97
        0
 92
        1
 93
        4
 72
     1
 10
114.3995632309487
 20
-156.6174858549429
 11
113.692974146924
 21
-156.6174858549429
 72
     1
 10
113.692974146924
 20
-156.6174858549429
 11
113.692974146924
 21
-156.7315185155046
 72
     1
 10
113.692974146924
 20
-156.7315185155046
 11
114.3995632309487
 21
-156.7315185155046
 72
     1
 10
114.3995632309487
 20
-156.7315185155046
 11
114.3995632309487
 21
-156.6174858549429
 97
        0
 75
     2
 76
     1
 98
        0
  0
SPLINE
  5
1BB
330
19C
100
AcDbEntity
  8
_U+30EC_U+30A4_U+30E4_U+30FC 1
370
     0
100
AcDbSpline
210
0.0
220
0.0
230
1.0
 70
    11
 71
     3
 72
    47
 73
    43
 74
     0
 42
0.0000000001
 43
0.0000000001
 12
1.0
 22
0.0
 32
0.0
 13
1.0
 23
0.0
 33
0.0
 40
0.0
 40
0.0
 40
0.0
 40
0.0
 40
1.0
 40
1.0
 40
1.0
 40
2.0
 40
2.0
 40
2.0
 40
3.0
 40
3.0
 40
3.0
 40
4.0
 40
4.0
 40
4.0
 40
5.0
 40
5.0
 40
5.0
 40
6.0
 40
6.0
 40
6.0
 40
7.0
 40
7.0
 40
7.0
 40
8.0
 40
8.0
 40
8.0
 40
9.0
 40
9.0
 40
9.0
 40
10.0
 40
10.0
 40
10.0
 40
11.0
 40
11.0
 40
11.0
 40
12.0
 40
12.0
 40
12.0
 40
13.0
 40
13.0
 40
13.0
 40
14.0
 40
14.0
 40
14.0
 40
14.0
 10
116.2113389466416
 20
-155.8623209245761
 30
0.0
 10
116.2113389466416
 20
-155.8623209245761
 30
0.0
 10
116.1097086298267
 20
-155.8623209245761
 30
0.0
 10
116.1097086298267
 20
-155.8623209245761
 30
0.0
 10
116.1097086298267
 20
-155.9487928212559
 30
0.0
 10
116.0886935473667
 20
-156.3380886110891
 30
0.0
 10
115.8916340856104
 20
-156.5582302125966
 30
0.0
 10
115.7393608651624
 20
-156.7273844009223
 30
0.0
 10
115.5323106264989
 20
-156.7973198392729
 30
0.0
 10
115.4475612775617
 20
-156.8248806031549
 30
0.0
 10
115.4475612775617
 20
-156.8248806031549
 30
0.0
 10
115.2529133826451
 20
-156.6577934721203
 30
0.0
 10
115.2529133826451
 20
-156.6577934721203
 30
0.0
 10
115.3500650753292
 20
-156.6450466188249
 30
0.0
 10
115.5257649450769
 20
-156.6216199695252
 30
0.0
 10
115.7142116681201
 20
-156.4335177560305
 30
0.0
 10
115.7882812210529
 20
-156.3615152603888
 30
0.0
 10
115.8916340856104
 20
-156.2219888932362
 30
0.0
 10
115.8916340856104
 20
-155.8623209245761
 30
0.0
 10
115.8916340856104
 20
-155.8623209245761
 30
0.0
 10
115.6611571976472
 20
-155.8623209245761
 30
0.0
 10
115.6611571976472
 20
-155.8623209245761
 30
0.0
 10
115.4751220414437
 20
-155.8623209245761
 30
0.0
 10
115.2887423756917
 20
-155.8664550391584
 30
0.0
 10
115.1027072194882
 20
-155.881268949745
 30
0.0
 10
115.1027072194882
 20
-155.881268949745
 30
0.0
 10
115.1027072194882
 20
-155.6611273482375
 30
0.0
 10
115.1027072194882
 20
-155.6611273482375
 30
0.0
 10
115.2911539425314
 20
-155.6759412588241
 30
0.0
 10
115.5767523582586
 20
-155.6804198829549
 30
0.0
 10
115.6611571976472
 20
-155.6804198829549
 30
0.0
 10
115.6611571976472
 20
-155.6804198829549
 30
0.0
 10
116.2113389466416
 20
-155.6804198829549
 30
0.0
 10
116.2113389466416
 20
-155.6804198829549
 30
0.0
 10
116.2302869718105
 20
-155.6804198829549
 30
0.0
 10
116.547580266002
 20
-155.6804198829549
 30
0.0
 10
116.7759900966741
 20
-155.6611273482375
 30
0.0
 10
116.7759900966741
 20
-155.6611273482375
 30
0.0
 10
116.7759900966741
 20
-155.881268949745
 30
0.0
 10
116.7759900966741
 20
-155.881268949745
 30
0.0
 10
116.5878878831794
 20
-155.8664550391584
 30
0.0
 10
116.3994411601363
 20
-155.8623209245761
 30
0.0
 10
116.2113389466416
 20
-155.8623209245761
 30
0.0
  0
SPLINE
  5
1BC
330
19C
100
AcDbEntity
  8
_U+30EC_U+30A4_U+30E4_U+30FC 1
370
     0
100
AcDbSpline
210
0.0
220
0.0
230
1.0
 70
    11
 71
     3
 72
    29
 73
    25
 74
     0
 42
0.0000000001
 43
0.0000000001
 12
1.0
 22
0.0
 32
0.0
 13
1.0
 23
0.0
 33
0.0
 40
0.0
 40
0.0
 40
0.0
 40
0.0
 40
1.0
 40
1.0
 40
1.0
 40
2.0
 40
2.0
 40
2.0
 40
3.0
 40
3.0
 40
3.0
 40
4.0
 40
4.0
 40
4.0
 40
5.0
 40
5.0
 40
5.0
 40
6.0
 40
6.0
 40
6.0
 40
7.0
 40
7.0
 40
7.0
 40
8.0
 40
8.0
 40
8.0
 40
8.0
 10
116.1097086298267
 20
-155.3331542580417
 30
0.0
 10
116.1097086298267
 20
-155.3331542580417
 30
0.0
 10
115.7565863425886
 20
-155.3331542580417
 30
0.0
 10
115.7565863425886
 20
-155.3331542580417
 30
0.0
 10
115.6442762297695
 20
-155.3331542580417
 30
0.0
 10
115.5047498626169
 20
-155.3396999394637
 30
0.0
 10
115.3969183739286
 20
-155.3524467927591
 30
0.0
 10
115.3969183739286
 20
-155.3524467927591
 30
0.0
 10
115.3969183739286
 20
-155.1174912806651
 30
0.0
 10
115.3969183739286
 20
-155.1174912806651
 30
0.0
 10
115.5150851490726
 20
-155.1323051912516
 30
0.0
 10
115.6993977575335
 20
-155.136439305834
 30
0.0
 10
115.7565863425886
 20
-155.136439305834
 30
0.0
 10
115.7565863425886
 20
-155.136439305834
 30
0.0
 10
116.1097086298267
 20
-155.136439305834
 30
0.0
 10
116.1097086298267
 20
-155.136439305834
 30
0.0
 10
116.1286566549956
 20
-155.136439305834
 30
0.0
 10
116.3319172886254
 20
-155.136439305834
 30
0.0
 10
116.4735107130691
 20
-155.1174912806651
 30
0.0
 10
116.4735107130691
 20
-155.1174912806651
 30
0.0
 10
116.4735107130691
 20
-155.3524467927591
 30
0.0
 10
116.4735107130691
 20
-155.3524467927591
 30
0.0
 10
116.3171033780388
 20
-155.3331542580417
 30
0.0
 10
116.1265895977045
 20
-155.3331542580417
 30
0.0
 10
116.1097086298267
 20
-155.3331542580417
 30
0.0
  0
HATCH
  5
1BD
330
19C
100
AcDbEntity
  8
_U+30EC_U+30A4_U+30E4_U+30FC 1
 62
   179
420
  2234388
100
AcDbHatch
 10
0.0
 20
0.0
 30
0.0
210
0.0
220
0.0
230
1.0
  2
SOLID
 70
     1
 71
     0
 91
        2
 92
        1
 93
        1
 72
     4
 94
        3
 73
     0
 74
     1
 95
       47
 96
       43
 40
0.0
 40
0.0
 40
0.0
 40
0.0
 40
1.0
 40
1.0
 40
1.0
 40
2.0
 40
2.0
 40
2.0
 40
3.0
 40
3.0
 40
3.0
 40
4.0
 40
4.0
 40
4.0
 40
5.0
 40
5.0
 40
5.0
 40
6.0
 40
6.0
 40
6.0
 40
7.0
 40
7.0
 40
7.0
 40
8.0
 40
8.0
 40
8.0
 40
9.0
 40
9.0
 40
9.0
 40
10.0
 40
10.0
 40
10.0
 40
11.0
 40
11.0
 40
11.0
 40
12.0
 40
12.0
 40
12.0
 40
13.0
 40
13.0
 40
13.0
 40
14.0
 40
14.0
 40
14.0
 40
14.0
 10
116.2113389466416
 20
-155.8623209245761
 10
116.2113389466416
 20
-155.8623209245761
 10
116.1097086298267
 20
-155.8623209245761
 10
116.1097086298267
 20
-155.8623209245761
 10
116.1097086298267
 20
-155.9487928212559
 10
116.0886935473667
 20
-156.3380886110891
 10
115.8916340856104
 20
-156.5582302125966
 10
115.7393608651624
 20
-156.7273844009223
 10
115.5323106264989
 20
-156.7973198392729
 10
115.4475612775617
 20
-156.8248806031549
 10
115.4475612775617
 20
-156.8248806031549
 10
115.2529133826451
 20
-156.6577934721203
 10
115.2529133826451
 20
-156.6577934721203
 10
115.3500650753292
 20
-156.6450466188249
 10
115.5257649450769
 20
-156.6216199695252
 10
115.7142116681201
 20
-156.4335177560305
 10
115.7882812210529
 20
-156.3615152603888
 10
115.8916340856104
 20
-156.2219888932362
 10
115.8916340856104
 20
-155.8623209245761
 10
115.8916340856104
 20
-155.8623209245761
 10
115.6611571976472
 20
-155.8623209245761
 10
115.6611571976472
 20
-155.8623209245761
 10
115.4751220414437
 20
-155.8623209245761
 10
115.2887423756917
 20
-155.8664550391584
 10
115.1027072194882
 20
-155.881268949745
 10
115.1027072194882
 20
-155.881268949745
 10
115.1027072194882
 20
-155.6611273482375
 10
115.1027072194882
 20
-155.6611273482375
 10
115.2911539425314
 20
-155.6759412588241
 10
115.5767523582586
 20
-155.6804198829549
 10
115.6611571976472
 20
-155.6804198829549
 10
115.6611571976472
 20
-155.6804198829549
 10
116.2113389466416
 20
-155.6804198829549
 10
116.2113389466416
 20
-155.6804198829549
 10
116.2302869718105
 20
-155.6804198829549
 10
116.547580266002
 20
-155.6804198829549
 10
116.7759900966741
 20
-155.6611273482375
 10
116.7759900966741
 20
-155.6611273482375
 10
116.7759900966741
 20
-155.881268949745
 10
116.7759900966741
 20
-155.881268949745
 10
116.5878878831794
 20
-155.8664550391584
 10
116.3994411601363
 20
-155.8623209245761
 10
116.2113389466416
 20
-155.8623209245761
 97
        0
 97
        0
 92
        1
 93
        1
 72
     4
 94
        3
 73
     0
 74
     1
 95
       29
 96
       25
 40
0.0
 40
0.0
 40
0.0
 40
0.0
 40
1.0
 40
1.0
 40
1.0
 40
2.0
 40
2.0
 40
2.0
 40
3.0
 40
3.0
 40
3.0
 40
4.0
 40
4.0
 40
4.0
 40
5.0
 40
5.0
 40
5.0
 40
6.0
 40
6.0
 40
6.0
 40
7.0
 40
7.0
 40
7.0
 40
8.0
 40
8.0
 40
8.0
 40
8.0
 10
116.1097086298267
 20
-155.3331542580417
 10
116.1097086298267
 20
-155.3331542580417
 10
115.7565863425886
 20
-155.3331542580417
 10
115.7565863425886
 20
-155.3331542580417
 10
115.6442762297695
 20
-155.3331542580417
 10
115.5047498626169
 20
-155.3396999394637
 10
115.3969183739286
 20
-155.3524467927591
 10
115.3969183739286
 20
-155.3524467927591
 10
115.3969183739286
 20
-155.1174912806651
 10
115.3969183739286
 20
-155.1174912806651
 10
115.5150851490726
 20
-155.1323051912516
 10
115.6993977575335
 20
-155.136439305834
 10
115.7565863425886
 20
-155.136439305834
 10
115.7565863425886
 20
-155.136439305834
 10
116.1097086298267
 20
-155.136439305834
 10
116.1097086298267
 20
-155.136439305834
 10
116.1286566549956
 20
-155.136439305834
 10
116.3319172886254
 20
-155.136439305834
 10
116.4735107130691
 20
-155.1174912806651
 10
116.4735107130691
 20
-155.1174912806651
 10
116.4735107130691
 20
-155.3524467927591
 10
116.4735107130691
 20
-155.3524467927591
 10
116.3171033780388
 20
-155.3331542580417
 10
116.1265895977045
 20
-155.3331542580417
 10
116.1097086298267
 20
-155.3331542580417
 97
        0
 97
        0
 75
     2
 76
     1
 98
        0
  0
SPLINE
  5
1BE
330
19C
100
AcDbEntity
  8
_U+30EC_U+30A4_U+30E4_U+30FC 1
370
     0
100
AcDbSpline
210
0.0
220
0.0
230
1.0
 70
    11
 71
     3
 72
    29
 73
    25
 74
     0
 42
0.0000000001
 43
0.0000000001
 12
1.0
 22
0.0
 32
0.0
 13
1.0
 23
0.0
 33
0.0
 40
0.0
 40
0.0
 40
0.0
 40
0.0
 40
1.0
 40
1.0
 40
1.0
 40
2.0
 40
2.0
 40
2.0
 40
3.0
 40
3.0
 40
3.0
 40
4.0
 40
4.0
 40
4.0
 40
5.0
 40
5.0
 40
5.0
 40
6.0
 40
6.0
 40
6.0
 40
7.0
 40
7.0
 40
7.0
 40
8.0
 40
8.0
 40
8.0
 40
8.0
 10
118.0592881649296
 20
-156.0249294314799
 30
0.0
 10
118.0592881649296
 20
-156.0249294314799
 30
0.0
 10
117.5749077397035
 20
-156.0249294314799
 30
0.0
 10
117.5749077397035
 20
-156.0249294314799
 30
0.0
 10
117.5473469758215
 20
-156.0249294314799
 30
0.0
 10
117.23005368163
 20
-156.0249294314799
 30
0.0
 10
117.0185248188357
 20
-156.0504231380707
 30
0.0
 10
117.0185248188357
 20
-156.0504231380707
 30
0.0
 10
117.0185248188357
 20
-155.8199462501075
 30
0.0
 10
117.0185248188357
 20
-155.8199462501075
 30
0.0
 10
117.1769992111571
 20
-155.8430283898587
 30
0.0
 10
117.3675129914915
 20
-155.8454399566984
 30
0.0
 10
117.5749077397035
 20
-155.8454399566984
 30
0.0
 10
117.5749077397035
 20
-155.8454399566984
 30
0.0
 10
118.0592881649296
 20
-155.8454399566984
 30
0.0
 10
118.0592881649296
 20
-155.8454399566984
 30
0.0
 10
118.2453233211331
 20
-155.8454399566984
 30
0.0
 10
118.4317029868851
 20
-155.8430283898587
 30
0.0
 10
118.6156710857975
 20
-155.8199462501075
 30
0.0
 10
118.6156710857975
 20
-155.8199462501075
 30
0.0
 10
118.6156710857975
 20
-156.0504231380707
 30
0.0
 10
118.6156710857975
 20
-156.0504231380707
 30
0.0
 10
118.4317029868851
 20
-156.0273409983196
 30
0.0
 10
118.1840006214957
 20
-156.0249294314799
 30
0.0
 10
118.0592881649296
 20
-156.0249294314799
 30
0.0
  0
HATCH
  5
1BF
330
19C
100
AcDbEntity
  8
_U+30EC_U+30A4_U+30E4_U+30FC 1
 62
   179
420
  2234388
100
AcDbHatch
 10
0.0
 20
0.0
 30
0.0
210
0.0
220
0.0
230
1.0
  2
SOLID
 70
     1
 71
     0
 91
        1
 92
        1
 93
        1
 72
     4
 94
        3
 73
     0
 74
     1
 95
       29
 96
       25
 40
0.0
 40
0.0
 40
0.0
 40
0.0
 40
1.0
 40
1.0
 40
1.0
 40
2.0
 40
2.0
 40
2.0
 40
3.0
 40
3.0
 40
3.0
 40
4.0
 40
4.0
 40
4.0
 40
5.0
 40
5.0
 40
5.0
 40
6.0
 40
6.0
 40
6.0
 40
7.0
 40
7.0
 40
7.0
 40
8.0
 40
8.0
 40
8.0
 40
8.0
 10
118.0592881649296
 20
-156.0249294314799
 10
118.0592881649296
 20
-156.0249294314799
 10
117.5749077397035
 20
-156.0249294314799
 10
117.5749077397035
 20
-156.0249294314799
 10
117.5473469758215
 20
-156.0249294314799
 10
117.23005368163
 20
-156.0249294314799
 10
117.0185248188357
 20
-156.0504231380707
 10
117.0185248188357
 20
-156.0504231380707
 10
117.0185248188357
 20
-155.8199462501075
 10
117.0185248188357
 20
-155.8199462501075
 10
117.1769992111571
 20
-155.8430283898587
 10
117.3675129914915
 20
-155.8454399566984
 10
117.5749077397035
 20
-155.8454399566984
 10
117.5749077397035
 20
-155.8454399566984
 10
118.0592881649296
 20
-155.8454399566984
 10
118.0592881649296
 20
-155.8454399566984
 10
118.2453233211331
 20
-155.8454399566984
 10
118.4317029868851
 20
-155.8430283898587
 10
118.6156710857975
 20
-155.8199462501075
 10
118.6156710857975
 20
-155.8199462501075
 10
118.6156710857975
 20
-156.0504231380707
 10
118.6156710857975
 20
-156.0504231380707
 10
118.4317029868851
 20
-156.0273409983196
 10
118.1840006214957
 20
-156.0249294314799
 10
118.0592881649296
 20
-156.0249294314799
 97
        0
 97
        0
 75
     2
 76
     1
 98
        0
  0
SPLINE
  5
1C0
330
19C
100
AcDbEntity
  8
_U+30EC_U+30A4_U+30E4_U+30FC 1
370
     0
100
AcDbSpline
210
0.0
220
0.0
230
1.0
 70
    11
 71
     3
 72
    44
 73
    40
 74
     0
 42
0.0000000001
 43
0.0000000001
 12
1.0
 22
0.0
 32
0.0
 13
1.0
 23
0.0
 33
0.0
 40
0.0
 40
0.0
 40
0.0
 40
0.0
 40
1.0
 40
1.0
 40
1.0
 40
2.0
 40
2.0
 40
2.0
 40
3.0
 40
3.0
 40
3.0
 40
4.0
 40
4.0
 40
4.0
 40
5.0
 40
5.0
 40
5.0
 40
6.0
 40
6.0
 40
6.0
 40
7.0
 40
7.0
 40
7.0
 40
8.0
 40
8.0
 40
8.0
 40
9.0
 40
9.0
 40
9.0
 40
10.0
 40
10.0
 40
10.0
 40
11.0
 40
11.0
 40
11.0
 40
12.0
 40
12.0
 40
12.0
 40
13.0
 40
13.0
 40
13.0
 40
13.0
 10
120.2731065237512
 20
-155.5870577953046
 30
0.0
 10
120.1611409204805
 20
-155.9553385026778
 30
0.0
 10
120.1104980168474
 20
-156.1138128949993
 30
0.0
 10
119.9137830646396
 20
-156.3635823176799
 30
0.0
 10
119.7294704561787
 20
-156.5940592056432
 30
0.0
 10
119.4927923963421
 20
-156.7804388713952
 30
0.0
 10
119.2133951524883
 20
-156.8734564494969
 30
0.0
 10
119.2133951524883
 20
-156.8734564494969
 30
0.0
 10
119.0208143148629
 20
-156.6936224651669
 30
0.0
 10
119.0208143148629
 20
-156.6936224651669
 30
0.0
 10
119.6619465846678
 20
-156.5413492447188
 30
0.0
 10
119.9919867321548
 20
-155.984966323851
 30
0.0
 10
120.0553764890834
 20
-155.5450276303846
 30
0.0
 10
120.0553764890834
 20
-155.5450276303846
 30
0.0
 10
119.2895317627123
 20
-155.5450276303846
 30
0.0
 10
119.2895317627123
 20
-155.5450276303846
 30
0.0
 10
119.1965141846106
 20
-155.5450276303846
 30
0.0
 10
119.0125460856983
 20
-155.5491617449669
 30
0.0
 10
118.8557942411194
 20
-155.5681097701357
 30
0.0
 10
118.8557942411194
 20
-155.5681097701357
 30
0.0
 10
118.8557942411194
 20
-155.3479681686283
 30
0.0
 10
118.8557942411194
 20
-155.3479681686283
 30
0.0
 10
118.9426106473477
 20
-155.3693277606368
 30
0.0
 10
119.1944471273194
 20
-155.3693277606368
 30
0.0
 10
119.2936658772946
 20
-155.3693277606368
 30
0.0
 10
119.2936658772946
 20
-155.3693277606368
 30
0.0
 10
119.7253363415964
 20
-155.3693277606368
 30
0.0
 10
119.7253363415964
 20
-155.3693277606368
 30
0.0
 10
119.767711016065
 20
-155.3693277606368
 30
0.0
 10
120.0023220186105
 20
-155.3672607033457
 30
0.0
 10
120.0405625784968
 20
-155.3607150219237
 30
0.0
 10
120.0829372529654
 20
-155.3545138500503
 30
0.0
 10
120.0850043102565
 20
-155.3524467927591
 30
0.0
 10
120.146327009894
 20
-155.3121391755817
 30
0.0
 10
120.146327009894
 20
-155.3121391755817
 30
0.0
 10
120.3344292233886
 20
-155.4664794533209
 30
0.0
 10
120.3344292233886
 20
-155.4664794533209
 30
0.0
 10
120.305145911764
 20
-155.496107274494
 30
0.0
 10
120.2903320011774
 20
-155.5278021529583
 30
0.0
 10
120.2731065237512
 20
-155.5870577953046
 30
0.0
  0
SPLINE
  5
1C1
330
19C
100
AcDbEntity
  8
_U+30EC_U+30A4_U+30E4_U+30FC 1
370
     0
100
AcDbSpline
210
0.0
220
0.0
230
1.0
 70
    11
 71
     3
 72
    17
 73
    13
 74
     0
 42
0.0000000001
 43
0.0000000001
 12
1.0
 22
0.0
 32
0.0
 13
1.0
 23
0.0
 33
0.0
 40
0.0
 40
0.0
 40
0.0
 40
0.0
 40
1.0
 40
1.0
 40
1.0
 40
2.0
 40
2.0
 40
2.0
 40
3.0
 40
3.0
 40
3.0
 40
4.0
 40
4.0
 40
4.0
 40
4.0
 10
120.4825683292544
 20
-155.3882757858057
 30
0.0
 10
120.3557888153972
 20
-155.3882757858057
 30
0.0
 10
120.2541584985823
 20
-155.2866454689909
 30
0.0
 10
120.2541584985823
 20
-155.1598659551337
 30
0.0
 10
120.2541584985823
 20
-155.0330864412765
 30
0.0
 10
120.3557888153972
 20
-154.9293890671704
 30
0.0
 10
120.4825683292544
 20
-154.9293890671704
 30
0.0
 10
120.6096923526601
 20
-154.9293890671704
 30
0.0
 10
120.7133897267661
 20
-155.0330864412765
 30
0.0
 10
120.7133897267661
 20
-155.1598659551337
 30
0.0
 10
120.7133897267661
 20
-155.2866454689909
 30
0.0
 10
120.6096923526601
 20
-155.3882757858057
 30
0.0
 10
120.4825683292544
 20
-155.3882757858057
 30
0.0
  0
SPLINE
  5
1C2
330
19C
100
AcDbEntity
  8
_U+30EC_U+30A4_U+30E4_U+30FC 1
370
     0
100
AcDbSpline
210
0.0
220
0.0
230
1.0
 70
    11
 71
     3
 72
    17
 73
    13
 74
     0
 42
0.0000000001
 43
0.0000000001
 12
1.0
 22
0.0
 32
0.0
 13
1.0
 23
0.0
 33
0.0
 40
0.0
 40
0.0
 40
0.0
 40
0.0
 40
1.0
 40
1.0
 40
1.0
 40
2.0
 40
2.0
 40
2.0
 40
3.0
 40
3.0
 40
3.0
 40
4.0
 40
4.0
 40
4.0
 40
4.0
 10
120.4805012719632
 20
-155.0582356383188
 30
0.0
 10
120.4257242537477
 20
-155.0582356383188
 30
0.0
 10
120.381282521988
 20
-155.1026773700785
 30
0.0
 10
120.381282521988
 20
-155.1577988978425
 30
0.0
 10
120.381282521988
 20
-155.2149874828976
 30
0.0
 10
120.4257242537477
 20
-155.2635633292397
 30
0.0
 10
120.4846353865455
 20
-155.2635633292397
 30
0.0
 10
120.5438910288918
 20
-155.2635633292397
 30
0.0
 10
120.5841986460692
 20
-155.212575916058
 30
0.0
 10
120.5841986460692
 20
-155.1598659551337
 30
0.0
 10
120.5841986460692
 20
-155.1026773700785
 30
0.0
 10
120.5376898570184
 20
-155.0582356383188
 30
0.0
 10
120.4805012719632
 20
-155.0582356383188
 30
0.0
  0
HATCH
  5
1C3
330
19C
100
AcDbEntity
  8
_U+30EC_U+30A4_U+30E4_U+30FC 1
 62
   179
420
  2234388
100
AcDbHatch
 10
0.0
 20
0.0
 30
0.0
210
0.0
220
0.0
230
1.0
  2
SOLID
 70
     1
 71
     0
 91
        3
 92
        1
 93
        1
 72
     4
 94
        3
 73
     0
 74
     1
 95
       44
 96
       40
 40
0.0
 40
0.0
 40
0.0
 40
0.0
 40
1.0
 40
1.0
 40
1.0
 40
2.0
 40
2.0
 40
2.0
 40
3.0
 40
3.0
 40
3.0
 40
4.0
 40
4.0
 40
4.0
 40
5.0
 40
5.0
 40
5.0
 40
6.0
 40
6.0
 40
6.0
 40
7.0
 40
7.0
 40
7.0
 40
8.0
 40
8.0
 40
8.0
 40
9.0
 40
9.0
 40
9.0
 40
10.0
 40
10.0
 40
10.0
 40
11.0
 40
11.0
 40
11.0
 40
12.0
 40
12.0
 40
12.0
 40
13.0
 40
13.0
 40
13.0
 40
13.0
 10
120.2731065237512
 20
-155.5870577953046
 10
120.1611409204805
 20
-155.9553385026778
 10
120.1104980168474
 20
-156.1138128949993
 10
119.9137830646396
 20
-156.3635823176799
 10
119.7294704561787
 20
-156.5940592056432
 10
119.4927923963421
 20
-156.7804388713952
 10
119.2133951524883
 20
-156.8734564494969
 10
119.2133951524883
 20
-156.8734564494969
 10
119.0208143148629
 20
-156.6936224651669
 10
119.0208143148629
 20
-156.6936224651669
 10
119.6619465846678
 20
-156.5413492447188
 10
119.9919867321548
 20
-155.984966323851
 10
120.0553764890834
 20
-155.5450276303846
 10
120.0553764890834
 20
-155.5450276303846
 10
119.2895317627123
 20
-155.5450276303846
 10
119.2895317627123
 20
-155.5450276303846
 10
119.1965141846106
 20
-155.5450276303846
 10
119.0125460856983
 20
-155.5491617449669
 10
118.8557942411194
 20
-155.5681097701357
 10
118.8557942411194
 20
-155.5681097701357
 10
118.8557942411194
 20
-155.3479681686283
 10
118.8557942411194
 20
-155.3479681686283
 10
118.9426106473477
 20
-155.3693277606368
 10
119.1944471273194
 20
-155.3693277606368
 10
119.2936658772946
 20
-155.3693277606368
 10
119.2936658772946
 20
-155.3693277606368
 10
119.7253363415964
 20
-155.3693277606368
 10
119.7253363415964
 20
-155.3693277606368
 10
119.767711016065
 20
-155.3693277606368
 10
120.0023220186105
 20
-155.3672607033457
 10
120.0405625784968
 20
-155.3607150219237
 10
120.0829372529654
 20
-155.3545138500503
 10
120.0850043102565
 20
-155.3524467927591
 10
120.146327009894
 20
-155.3121391755817
 10
120.146327009894
 20
-155.3121391755817
 10
120.3344292233886
 20
-155.4664794533209
 10
120.3344292233886
 20
-155.4664794533209
 10
120.305145911764
 20
-155.496107274494
 10
120.2903320011774
 20
-155.5278021529583
 10
120.2731065237512
 20
-155.5870577953046
 97
        0
 97
        0
 92
        1
 93
        1
 72
     4
 94
        3
 73
     0
 74
     1
 95
       17
 96
       13
 40
0.0
 40
0.0
 40
0.0
 40
0.0
 40
1.0
 40
1.0
 40
1.0
 40
2.0
 40
2.0
 40
2.0
 40
3.0
 40
3.0
 40
3.0
 40
4.0
 40
4.0
 40
4.0
 40
4.0
 10
120.4825683292544
 20
-155.3882757858057
 10
120.3557888153972
 20
-155.3882757858057
 10
120.2541584985823
 20
-155.2866454689909
 10
120.2541584985823
 20
-155.1598659551337
 10
120.2541584985823
 20
-155.0330864412765
 10
120.3557888153972
 20
-154.9293890671704
 10
120.4825683292544
 20
-154.9293890671704
 10
120.6096923526601
 20
-154.9293890671704
 10
120.7133897267661
 20
-155.0330864412765
 10
120.7133897267661
 20
-155.1598659551337
 10
120.7133897267661
 20
-155.2866454689909
 10
120.6096923526601
 20
-155.3882757858057
 10
120.4825683292544
 20
-155.3882757858057
 97
        0
 97
        0
 92
        1
 93
        1
 72
     4
 94
        3
 73
     0
 74
     1
 95
       17
 96
       13
 40
0.0
 40
0.0
 40
0.0
 40
0.0
 40
1.0
 40
1.0
 40
1.0
 40
2.0
 40
2.0
 40
2.0
 40
3.0
 40
3.0
 40
3.0
 40
4.0
 40
4.0
 40
4.0
 40
4.0
 10
120.4805012719632
 20
-155.0582356383188
 10
120.4257242537477
 20
-155.0582356383188
 10
120.381282521988
 20
-155.1026773700785
 10
120.381282521988
 20
-155.1577988978425
 10
120.381282521988
 20
-155.2149874828976
 10
120.4257242537477
 20
-155.2635633292397
 10
120.4846353865455
 20
-155.2635633292397
 10
120.5438910288918
 20
-155.2635633292397
 10
120.5841986460692
 20
-155.212575916058
 10
120.5841986460692
 20
-155.1598659551337
 10
120.5841986460692
 20
-155.1026773700785
 10
120.5376898570184
 20
-155.0582356383188
 10
120.4805012719632
 20
-155.0582356383188
 97
        0
 97
        0
 75
     2
 76
     1
 98
        0
  0
ENDBLK
  5
19F
330
19C
100
AcDbEntity
  8
0
100
AcDbBlockEnd
  0
ENDSEC
  0
SECTION
  2
ENTITIES
  0
SPLINE
  5
41
330
1F
100
AcDbEntity
  8
_U+30EC_U+30A4_U+30E4_U+30FC 1
 62
   179
420
  2234388
370
     9
100
AcDbSpline
210
0.0
220
0.0
230
1.0
 70
    11
 71
     3
 72
    17
 73
    13
 74
     0
 42
0.0000000001
 43
0.0000000001
 12
1.0
 22
0.0
 32
0.0
 13
1.0
 23
0.0
 33
0.0
 40
0.0
 40
0.0
 40
0.0
 40
0.0
 40
1.0
 40
1.0
 40
1.0
 40
2.0
 40
2.0
 40
2.0
 40
3.0
 40
3.0
 40
3.0
 40
4.0
 40
4.0
 40
4.0
 40
4.0
 10
97.82654382591261
 20
-164.9781189400109
 30
0.0
 10
97.82654382591261
 20
-165.0331543403878
 30
0.0
 10
97.87134083314393
 20
-165.0779621135428
 30
0.0
 10
97.9263762335208
 20
-165.0779621135428
 30
0.0
 10
97.98141163389766
 20
-165.0779621135428
 30
0.0
 10
98.0262086411293
 20
-165.0331543403878
 30
0.0
 10
98.0262086411293
 20
-164.9781189400109
 30
0.0
 10
98.0262086411293
 20
-164.9230943055574
 30
0.0
 10
97.98141163389766
 20
-164.8782865324024
 30
0.0
 10
97.9263762335208
 20
-164.8782865324024
 30
0.0
 10
97.87134083314393
 20
-164.8782865324024
 30
0.0
 10
97.82654382591261
 20
-164.9230943055574
 30
0.0
 10
97.82654382591261
 20
-164.9781189400109
 30
0.0
  0
SPLINE
  5
42
330
1F
100
AcDbEntity
  8
_U+30EC_U+30A4_U+30E4_U+30FC 1
 62
   179
420
  2234388
370
     9
100
AcDbSpline
210
0.0
220
0.0
230
1.0
 70
    11
 71
     3
 72
    17
 73
    13
 74
     0
 42
0.0000000001
 43
0.0000000001
 12
1.0
 22
0.0
 32
0.0
 13
1.0
 23
0.0
 33
0.0
 40
0.0
 40
0.0
 40
0.0
 40
0.0
 40
1.0
 40
1.0
 40
1.0
 40
2.0
 40
2.0
 40
2.0
 40
3.0
 40
3.0
 40
3.0
 40
4.0
 40
4.0
 40
4.0
 40
4.0
 10
87.82646516087792
 20
-164.9781189400109
 30
0.0
 10
87.82646516087792
 20
-165.0331543403878
 30
0.0
 10
87.87126216810923
 20
-165.0779621135428
 30
0.0
 10
87.92629756848609
 20
-165.0779621135428
 30
0.0
 10
87.9820327538834
 20
-165.0779621135428
 30
0.0
 10
88.02684052703843
 20
-165.0331543403878
 30
0.0
 10
88.02684052703843
 20
-164.9781189400109
 30
0.0
 10
88.02684052703843
 20
-164.9230943055574
 30
0.0
 10
87.9820327538834
 20
-164.8782865324024
 30
0.0
 10
87.92629756848609
 20
-164.8782865324024
 30
0.0
 10
87.87126216810923
 20
-164.8782865324024
 30
0.0
 10
87.82646516087792
 20
-164.9230943055574
 30
0.0
 10
87.82646516087792
 20
-164.9781189400109
 30
0.0
  0
POLYLINE
  5
43
330
1F
100
AcDbEntity
  8
_U+30EC_U+30A4_U+30E4_U+30FC 1
 62
   179
420
  2234388
370
     9
100
AcDb2dPolyline
 66
     1
 10
0.0
 20
0.0
 30
0.0
  0
VERTEX
  5
44
330
43
100
AcDbEntity
  8
_U+30EC_U+30A4_U+30E4_U+30FC 1
 62
   179
420
  2234388
370
     9
100
AcDbVertex
100
AcDb2dVertex
 10
87.92637292995016
 20
-147.3223706195008
 30
0.0
  0
VERTEX
  5
45
330
43
100
AcDbEntity
  8
_U+30EC_U+30A4_U+30E4_U+30FC 1
 62
   179
420
  2234388
370
     9
100
AcDbVertex
100
AcDb2dVertex
 10
87.92637292995016
 20
-165.9783270526895
 30
0.0
  0
SEQEND
  5
46
330
43
100
AcDbEntity
  8
_U+30EC_U+30A4_U+30E4_U+30FC 1
 62
   179
420
  2234388
370
     9
  0
POLYLINE
  5
47
330
1F
100
AcDbEntity
  8
_U+30EC_U+30A4_U+30E4_U+30FC 1
 62
   179
420
  2234388
370
     9
100
AcDb2dPolyline
 66
     1
 10
0.0
 20
0.0
 30
0.0
  0
VERTEX
  5
48
330
47
100
AcDbEntity
  8
_U+30EC_U+30A4_U+30E4_U+30FC 1
 62
   179
420
  2234388
370
     9
100
AcDbVertex
100
AcDb2dVertex
 10
87.92637292995016
 20
-164.9781189400109
 30
0.0
  0
VERTEX
  5
49
330
47
100
AcDbEntity
  8
_U+30EC_U+30A4_U+30E4_U+30FC 1
 62
   179
420
  2234388
370
     9
100
AcDbVertex
100
AcDb2dVertex
 10
97.92655925421845
 20
-164.9781189400109
 30
0.0
  0
SEQEND
  5
4A
330
47
100
AcDbEntity
  8
_U+30EC_U+30A4_U+30E4_U+30FC 1
 62
   179
420
  2234388
370
     9
  0
POLYLINE
  5
4B
330
1F
100
AcDbEntity
  8
_U+30EC_U+30A4_U+30E4_U+30FC 1
 62
   179
420
  2234388
370
     9
100
AcDb2dPolyline
 66
     1
 10
0.0
 20
0.0
 30
0.0
  0
VERTEX
  5
4C
330
4B
100
AcDbEntity
  8
_U+30EC_U+30A4_U+30E4_U+30FC 1
 62
   179
420
  2234388
370
     9
100
AcDbVertex
100
AcDb2dVertex
 10
97.92645159498485
 20
-147.3223706195008
 30
0.0
  0
VERTEX
  5
4D
330
4B
100
AcDbEntity
  8
_U+30EC_U+30A4_U+30E4_U+30FC 1
 62
   179
420
  2234388
370
     9
100
AcDbVertex
100
AcDb2dVertex
 10
97.92645159498485
 20
-165.9783270526895
 30
0.0
  0
SEQEND
  5
4E
330
4B
100
AcDbEntity
  8
_U+30EC_U+30A4_U+30E4_U+30FC 1
 62
   179
420
  2234388
370
     9
  0
INSERT
  5
50
330
1F
100
AcDbEntity
  8
_U+30EC_U+30A4_U+30E4_U+30FC 1
100
AcDbBlockReference
  2
block 2
 10
0.0
 20
0.0
 30
0.0
  0
POLYLINE
  5
58
330
1F
100
AcDbEntity
  8
_U+30EC_U+30A4_U+30E4_U+30FC 1
 62
   179
420
  2234388
370
    25
100
AcDb2dPolyline
 66
     1
 10
0.0
 20
0.0
 30
0.0
  0
VERTEX
  5
59
330
58
100
AcDbEntity
  8
_U+30EC_U+30A4_U+30E4_U+30FC 1
 62
   179
420
  2234388
370
    25
100
AcDbVertex
100
AcDb2dVertex
 10
88.12413217672656
 20
-139.9278284358839
 30
0.0
  0
VERTEX
  5
5A
330
58
100
AcDbEntity
  8
_U+30EC_U+30A4_U+30E4_U+30FC 1
 62
   179
420
  2234388
370
    25
100
AcDbVertex
100
AcDb2dVertex
 10
87.91139753051239
 20
-140.4121980951867
 30
0.0
  0
VERTEX
  5
5B
330
58
100
AcDbEntity
  8
_U+30EC_U+30A4_U+30E4_U+30FC 1
 62
   179
420
  2234388
370
    25
100
AcDbVertex
100
AcDb2dVertex
 10
88.09872459752285
 20
-140.9064401062393
 30
0.0
  0
VERTEX
  5
5C
330
58
100
AcDbEntity
  8
_U+30EC_U+30A4_U+30E4_U+30FC 1
 62
   179
420
  2234388
370
    25
100
AcDbVertex
100
AcDb2dVertex
 10
87.88635599270398
 20
-141.3907989996187
 30
0.0
  0
VERTEX
  5
5D
330
58
100
AcDbEntity
  8
_U+30EC_U+30A4_U+30E4_U+30FC 1
 62
   179
420
  2234388
370
    25
100
AcDbVertex
100
AcDb2dVertex
 10
88.07332778424252
 20
-141.8861068370871
 30
0.0
  0
VERTEX
  5
5E
330
58
100
AcDbEntity
  8
_U+30EC_U+30A4_U+30E4_U+30FC 1
 62
   179
420
  2234388
370
    25
100
AcDbVertex
100
AcDb2dVertex
 10
87.86060390395174
 20
-142.3708210059383
 30
0.0
  0
VERTEX
  5
5F
330
58
100
AcDbEntity
  8
_U+30EC_U+30A4_U+30E4_U+30FC 1
 62
   179
420
  2234388
370
    25
100
AcDbVertex
100
AcDb2dVertex
 10
88.0479309709622
 20
-142.8654182924629
 30
0.0
  0
VERTEX
  5
60
330
58
100
AcDbEntity
  8
_U+30EC_U+30A4_U+30E4_U+30FC 1
 62
   179
420
  2234388
370
    25
100
AcDbVertex
100
AcDb2dVertex
 10
87.83520709067142
 20
-143.3494219103703
 30
0.0
  0
VERTEX
  5
61
330
58
100
AcDbEntity
  8
_U+30EC_U+30A4_U+30E4_U+30FC 1
 62
   179
420
  2234388
370
    25
100
AcDbVertex
100
AcDb2dVertex
 10
88.02252339175848
 20
-143.8443744723668
 30
0.0
  0
VERTEX
  5
62
330
58
100
AcDbEntity
  8
_U+30EC_U+30A4_U+30E4_U+30FC 1
 62
   179
420
  2234388
370
    25
100
AcDbVertex
100
AcDb2dVertex
 10
87.80979951146769
 20
-144.3283888561976
 30
0.0
  0
VERTEX
  5
63
330
58
100
AcDbEntity
  8
_U+30EC_U+30A4_U+30E4_U+30FC 1
 62
   179
420
  2234388
370
    25
100
AcDbVertex
100
AcDb2dVertex
 10
87.99712657847816
 20
-144.8229753767988
 30
0.0
  0
VERTEX
  5
64
330
58
100
AcDbEntity
  8
_U+30EC_U+30A4_U+30E4_U+30FC 1
 62
   179
420
  2234388
370
    25
100
AcDbVertex
100
AcDb2dVertex
 10
87.78440269818736
 20
-145.3062792096858
 30
0.0
  0
VERTEX
  5
65
330
58
100
AcDbEntity
  8
_U+30EC_U+30A4_U+30E4_U+30FC 1
 62
   179
420
  2234388
370
    25
100
AcDbVertex
100
AcDb2dVertex
 10
87.97172976519782
 20
-145.8001767111899
 30
0.0
  0
VERTEX
  5
66
330
58
100
AcDbEntity
  8
_U+30EC_U+30A4_U+30E4_U+30FC 1
 62
   179
420
  2234388
370
    25
100
AcDbVertex
100
AcDb2dVertex
 10
87.75900588490704
 20
-146.2848908800412
 30
0.0
  0
VERTEX
  5
67
330
58
100
AcDbEntity
  8
_U+30EC_U+30A4_U+30E4_U+30FC 1
 62
   179
420
  2234388
370
    25
100
AcDbVertex
100
AcDb2dVertex
 10
87.9463221859941
 20
-146.7801879515862
 30
0.0
  0
VERTEX
  5
68
330
58
100
AcDbEntity
  8
_U+30EC_U+30A4_U+30E4_U+30FC 1
 62
   179
420
  2234388
370
    25
100
AcDbVertex
100
AcDb2dVertex
 10
87.73359830570332
 20
-147.2645576108889
 30
0.0
  0
VERTEX
  5
69
330
58
100
AcDbEntity
  8
_U+30EC_U+30A4_U+30E4_U+30FC 1
 62
   179
420
  2234388
370
    25
100
AcDbVertex
100
AcDb2dVertex
 10
87.92057009724186
 20
-147.7591441314901
 30
0.0
  0
VERTEX
  5
6A
330
58
100
AcDbEntity
  8
_U+30EC_U+30A4_U+30E4_U+30FC 1
 62
   179
420
  2234388
370
    25
100
AcDbVertex
100
AcDb2dVertex
 10
87.708201492423
 20
-148.2435137907929
 30
0.0
  0
VERTEX
  5
6B
330
58
100
AcDbEntity
  8
_U+30EC_U+30A4_U+30E4_U+30FC 1
 62
   179
420
  2234388
370
    25
100
AcDbVertex
100
AcDb2dVertex
 10
87.89552855943346
 20
-148.738455586866
 30
0.0
  0
VERTEX
  5
6C
330
58
100
AcDbEntity
  8
_U+30EC_U+30A4_U+30E4_U+30FC 1
 62
   179
420
  2234388
370
    25
100
AcDbVertex
100
AcDb2dVertex
 10
87.68280467914299
 20
-149.2228252461687
 30
0.0
  0
VERTEX
  5
6D
330
58
100
AcDbEntity
  8
_U+30EC_U+30A4_U+30E4_U+30FC 1
 62
   179
420
  2234388
370
    25
100
AcDbVertex
100
AcDb2dVertex
 10
87.86977647068122
 20
-149.7174117667699
 30
0.0
  0
VERTEX
  5
6E
330
58
100
AcDbEntity
  8
_U+30EC_U+30A4_U+30E4_U+30FC 1
 62
   179
420
  2234388
370
    25
100
AcDbVertex
100
AcDb2dVertex
 10
87.65739709993927
 20
-150.2010708751288
 30
0.0
  0
VERTEX
  5
6F
330
58
100
AcDbEntity
  8
_U+30EC_U+30A4_U+30E4_U+30FC 1
 62
   179
420
  2234388
370
    25
100
AcDbVertex
100
AcDb2dVertex
 10
87.84472416694973
 20
-150.6956681616533
 30
0.0
  0
VERTEX
  5
70
330
58
100
AcDbEntity
  8
_U+30EC_U+30A4_U+30E4_U+30FC 1
 62
   179
420
  2234388
370
    25
100
AcDbVertex
100
AcDb2dVertex
 10
87.63200028665862
 20
-151.1807376059765
 30
0.0
  0
VERTEX
  5
71
330
58
100
AcDbEntity
  8
_U+30EC_U+30A4_U+30E4_U+30FC 1
 62
   179
420
  2234388
370
    25
100
AcDbVertex
100
AcDb2dVertex
 10
87.81897207819749
 20
-151.675690167973
 30
0.0
  0
VERTEX
  5
72
330
58
100
AcDbEntity
  8
_U+30EC_U+30A4_U+30E4_U+30FC 1
 62
   179
420
  2234388
370
    25
100
AcDbVertex
100
AcDb2dVertex
 10
87.6066034733783
 20
-152.1607596122962
 30
0.0
  0
VERTEX
  5
73
330
58
100
AcDbEntity
  8
_U+30EC_U+30A4_U+30E4_U+30FC 1
 62
   179
420
  2234388
370
    25
100
AcDbVertex
100
AcDb2dVertex
 10
87.79357526491684
 20
-152.6560566838412
 30
0.0
  0
VERTEX
  5
74
330
58
100
AcDbEntity
  8
_U+30EC_U+30A4_U+30E4_U+30FC 1
 62
   179
420
  2234388
370
    25
100
AcDbVertex
100
AcDb2dVertex
 10
87.58085138462606
 20
-153.1397157922001
 30
0.0
  0
VERTEX
  5
75
330
58
100
AcDbEntity
  8
_U+30EC_U+30A4_U+30E4_U+30FC 1
 62
   179
420
  2234388
370
    25
100
AcDbVertex
100
AcDb2dVertex
 10
87.76817845163652
 20
-153.6346575882732
 30
0.0
  0
VERTEX
  5
76
330
58
100
AcDbEntity
  8
_U+30EC_U+30A4_U+30E4_U+30FC 1
 62
   179
420
  2234388
370
    25
100
AcDbVertex
100
AcDb2dVertex
 10
87.55579908089426
 20
-154.1197270325964
 30
0.0
  0
VERTEX
  5
77
330
58
100
AcDbEntity
  8
_U+30EC_U+30A4_U+30E4_U+30FC 1
 62
   179
420
  2234388
370
    25
100
AcDbVertex
100
AcDb2dVertex
 10
87.7427708724328
 20
-154.6153793796133
 30
0.0
  0
VERTEX
  5
78
330
58
100
AcDbEntity
  8
_U+30EC_U+30A4_U+30E4_U+30FC 1
 62
   179
420
  2234388
370
    25
100
AcDbVertex
100
AcDb2dVertex
 10
87.53004699214202
 20
-155.1015146503522
 30
0.0
  0
VERTEX
  5
79
330
58
100
AcDbEntity
  8
_U+30EC_U+30A4_U+30E4_U+30FC 1
 62
   179
420
  2234388
370
    25
100
AcDbVertex
100
AcDb2dVertex
 10
87.71701878368056
 20
-155.5978667823896
 30
0.0
  0
VERTEX
  5
7A
330
58
100
AcDbEntity
  8
_U+30EC_U+30A4_U+30E4_U+30FC 1
 62
   179
420
  2234388
370
    25
100
AcDbVertex
100
AcDb2dVertex
 10
87.5046501788617
 20
-156.084701838149
 30
0.0
  0
VERTEX
  5
7B
330
58
100
AcDbEntity
  8
_U+30EC_U+30A4_U+30E4_U+30FC 1
 62
   179
420
  2234388
370
    25
100
AcDbVertex
100
AcDb2dVertex
 10
87.69162197040023
 20
-156.5817645211302
 30
0.0
  0
VERTEX
  5
7C
330
58
100
AcDbEntity
  8
_U+30EC_U+30A4_U+30E4_U+30FC 1
 62
   179
420
  2234388
370
    25
100
AcDbVertex
100
AcDb2dVertex
 10
87.47889809010944
 20
-157.0685995768895
 30
0.0
  0
VERTEX
  5
7D
330
58
100
AcDbEntity
  8
_U+30EC_U+30A4_U+30E4_U+30FC 1
 62
   179
420
  2234388
370
    25
100
AcDbVertex
100
AcDb2dVertex
 10
87.66622515711991
 20
-157.5660175353427
 30
0.0
  0
VERTEX
  5
7E
330
58
100
AcDbEntity
  8
_U+30EC_U+30A4_U+30E4_U+30FC 1
 62
   179
420
  2234388
370
    25
100
AcDbVertex
100
AcDb2dVertex
 10
87.45350127682912
 20
-158.053207866574
 30
0.0
  0
VERTEX
  5
7F
330
58
100
AcDbEntity
  8
_U+30EC_U+30A4_U+30E4_U+30FC 1
 62
   179
420
  2234388
370
    25
100
AcDbVertex
100
AcDb2dVertex
 10
87.64047306836767
 20
-158.5506150591037
 30
0.0
  0
VERTEX
  5
80
330
58
100
AcDbEntity
  8
_U+30EC_U+30A4_U+30E4_U+30FC 1
 62
   179
420
  2234388
370
    25
100
AcDbVertex
100
AcDb2dVertex
 10
87.42773842215348
 20
-159.0370948393911
 30
0.0
  0
VERTEX
  5
81
330
58
100
AcDbEntity
  8
_U+30EC_U+30A4_U+30E4_U+30FC 1
 62
   179
420
  2234388
370
    25
100
AcDbVertex
100
AcDb2dVertex
 10
87.61506548916394
 20
-159.53310246188
 30
0.0
  0
VERTEX
  5
82
330
58
100
AcDbEntity
  8
_U+30EC_U+30A4_U+30E4_U+30FC 1
 62
   179
420
  2234388
370
    25
100
AcDbVertex
100
AcDb2dVertex
 10
87.40234160887316
 20
-160.018882457147
 30
0.0
  0
VERTEX
  5
83
330
58
100
AcDbEntity
  8
_U+30EC_U+30A4_U+30E4_U+30FC 1
 62
   179
420
  2234388
370
    25
100
AcDbVertex
100
AcDb2dVertex
 10
87.5893134004117
 20
-160.514179528692
 30
0.0
  0
VERTEX
  5
84
330
58
100
AcDbEntity
  8
_U+30EC_U+30A4_U+30E4_U+30FC 1
 62
   179
420
  2234388
370
    25
100
AcDbVertex
100
AcDb2dVertex
 10
87.37694479559283
 20
-160.9988936975433
 30
0.0
  0
VERTEX
  5
85
330
58
100
AcDbEntity
  8
_U+30EC_U+30A4_U+30E4_U+30FC 1
 62
   179
420
  2234388
370
    25
100
AcDbVertex
100
AcDb2dVertex
 10
87.56391658713137
 20
-161.4949013200321
 30
0.0
  0
VERTEX
  5
86
330
58
100
AcDbEntity
  8
_U+30EC_U+30A4_U+30E4_U+30FC 1
 62
   179
420
  2234388
370
    25
100
AcDbVertex
100
AcDb2dVertex
 10
87.35154798231251
 20
-161.9806813152991
 30
0.0
  0
VERTEX
  5
87
330
58
100
AcDbEntity
  8
_U+30EC_U+30A4_U+30E4_U+30FC 1
 62
   179
420
  2234388
370
    25
100
AcDbVertex
100
AcDb2dVertex
 10
87.53851977385105
 20
-162.4766781718646
 30
0.0
  0
VERTEX
  5
88
330
58
100
AcDbEntity
  8
_U+30EC_U+30A4_U+30E4_U+30FC 1
 62
   179
420
  2234388
370
    25
100
AcDbVertex
100
AcDb2dVertex
 10
87.3261404031088
 20
-162.9610478311673
 30
0.0
  0
VERTEX
  5
89
330
58
100
AcDbEntity
  8
_U+30EC_U+30A4_U+30E4_U+30FC 1
 62
   179
420
  2234388
370
    25
100
AcDbVertex
100
AcDb2dVertex
 10
87.51311219464733
 20
-163.4556451176919
 30
0.0
  0
VERTEX
  5
8A
330
58
100
AcDbEntity
  8
_U+30EC_U+30A4_U+30E4_U+30FC 1
 62
   179
420
  2234388
370
    25
100
AcDbVertex
100
AcDb2dVertex
 10
87.30074358982878
 20
-163.9389489505789
 30
0.0
  0
VERTEX
  5
8B
330
58
100
AcDbEntity
  8
_U+30EC_U+30A4_U+30E4_U+30FC 1
 62
   179
420
  2234388
370
    25
100
AcDbVertex
100
AcDb2dVertex
 10
87.48771538136701
 20
-164.4321251352158
 30
0.0
  0
VERTEX
  5
8C
330
58
100
AcDbEntity
  8
_U+30EC_U+30A4_U+30E4_U+30FC 1
 62
   179
420
  2234388
370
    25
100
AcDbVertex
100
AcDb2dVertex
 10
87.27534677654813
 20
-164.9143739076104
 30
0.0
  0
SEQEND
  5
8D
330
58
100
AcDbEntity
  8
_U+30EC_U+30A4_U+30E4_U+30FC 1
 62
   179
420
  2234388
370
    25
  0
POLYLINE
  5
8E
330
1F
100
AcDbEntity
  8
_U+30EC_U+30A4_U+30E4_U+30FC 1
 62
   179
420
  2234388
370
    25
100
AcDb2dPolyline
 66
     1
 10
0.0
 20
0.0
 30
0.0
  0
VERTEX
  5
8F
330
8E
100
AcDbEntity
  8
_U+30EC_U+30A4_U+30E4_U+30FC 1
 62
   179
420
  2234388
370
    25
100
AcDbVertex
100
AcDb2dVertex
 10
87.37515765231018
 20
-164.9168070062968
 30
0.0
  0
VERTEX
  5
90
330
8E
100
AcDbEntity
  8
_U+30EC_U+30A4_U+30E4_U+30FC 1
 62
   179
420
  2234388
370
    25
100
AcDbVertex
100
AcDb2dVertex
 10
86.97475142953702
 20
-164.9062241036031
 30
0.0
  0
SEQEND
  5
91
330
8E
100
AcDbEntity
  8
_U+30EC_U+30A4_U+30E4_U+30FC 1
 62
   179
420
  2234388
370
    25
  0
POLYLINE
  5
92
330
1F
100
AcDbEntity
  8
_U+30EC_U+30A4_U+30E4_U+30FC 1
 62
   179
420
  2234388
370
    25
100
AcDb2dPolyline
 66
     1
 10
0.0
 20
0.0
 30
0.0
  0
VERTEX
  5
93
330
92
100
AcDbEntity
  8
_U+30EC_U+30A4_U+30E4_U+30FC 1
 62
   179
420
  2234388
370
    25
100
AcDbVertex
100
AcDb2dVertex
 10
86.97485908877061
 20
-164.9061164443692
 30
0.0
  0
VERTEX
  5
94
330
92
100
AcDbEntity
  8
_U+30EC_U+30A4_U+30E4_U+30FC 1
 62
   179
420
  2234388
370
    25
100
AcDbVertex
100
AcDb2dVertex
 10
87.02953921367556
 20
-138.906045412729
 30
0.0
  0
SEQEND
  5
95
330
92
100
AcDbEntity
  8
_U+30EC_U+30A4_U+30E4_U+30FC 1
 62
   179
420
  2234388
370
    25
  0
POLYLINE
  5
96
330
1F
100
AcDbEntity
  8
_U+30EC_U+30A4_U+30E4_U+30FC 1
 62
   179
420
  2234388
370
    25
100
AcDb2dPolyline
 66
     1
 10
0.0
 20
0.0
 30
0.0
  0
VERTEX
  5
97
330
96
100
AcDbEntity
  8
_U+30EC_U+30A4_U+30E4_U+30FC 1
 62
   179
420
  2234388
370
    25
100
AcDbVertex
100
AcDb2dVertex
 10
98.04668542742007
 20
-146.0652445110097
 30
0.0
  0
VERTEX
  5
98
330
96
100
AcDbEntity
  8
_U+30EC_U+30A4_U+30E4_U+30FC 1
 62
   179
420
  2234388
370
    25
100
AcDbVertex
100
AcDb2dVertex
 10
98.57972782637536
 20
-146.2522270684717
 30
0.0
  0
VERTEX
  5
99
330
96
100
AcDbEntity
  8
_U+30EC_U+30A4_U+30E4_U+30FC 1
 62
   179
420
  2234388
370
    25
100
AcDbVertex
100
AcDb2dVertex
 10
99.10359765860085
 20
-146.0398476977294
 30
0.0
  0
VERTEX
  5
9A
330
96
100
AcDbEntity
  8
_U+30EC_U+30A4_U+30E4_U+30FC 1
 62
   179
420
  2234388
370
    25
100
AcDbVertex
100
AcDb2dVertex
 10
99.63700609895143
 20
-146.226819489268
 30
0.0
  0
VERTEX
  5
9B
330
96
100
AcDbEntity
  8
_U+30EC_U+30A4_U+30E4_U+30FC 1
 62
   179
420
  2234388
370
    25
100
AcDbVertex
100
AcDb2dVertex
 10
100.1615864821211
 20
-146.0144508844491
 30
0.0
  0
VERTEX
  5
9C
330
96
100
AcDbEntity
  8
_U+30EC_U+30A4_U+30E4_U+30FC 1
 62
   179
420
  2234388
370
    25
100
AcDbVertex
100
AcDb2dVertex
 10
100.6953394320202
 20
-146.2014226759876
 30
0.0
  0
VERTEX
  5
9D
330
96
100
AcDbEntity
  8
_U+30EC_U+30A4_U+30E4_U+30FC 1
 62
   179
420
  2234388
370
    25
100
AcDbVertex
100
AcDb2dVertex
 10
101.219209264246
 20
-145.9890540711688
 30
0.0
  0
VERTEX
  5
9E
330
96
100
AcDbEntity
  8
_U+30EC_U+30A4_U+30E4_U+30FC 1
 62
   179
420
  2234388
370
    25
100
AcDbVertex
100
AcDb2dVertex
 10
101.7522624291247
 20
-146.1760258627073
 30
0.0
  0
VERTEX
  5
9F
330
96
100
AcDbEntity
  8
_U+30EC_U+30A4_U+30E4_U+30FC 1
 62
   179
420
  2234388
370
    25
100
AcDbVertex
100
AcDb2dVertex
 10
102.2761322613505
 20
-145.9636464919651
 30
0.0
  0
VERTEX
  5
A0
330
96
100
AcDbEntity
  8
_U+30EC_U+30A4_U+30E4_U+30FC 1
 62
   179
420
  2234388
370
    25
100
AcDbVertex
100
AcDb2dVertex
 10
102.8091854262294
 20
-146.1506182835036
 30
0.0
  0
VERTEX
  5
A1
330
96
100
AcDbEntity
  8
_U+30EC_U+30A4_U+30E4_U+30FC 1
 62
   179
420
  2234388
370
    25
100
AcDbVertex
100
AcDb2dVertex
 10
103.3334105339269
 20
-145.938249678685
 30
0.0
  0
VERTEX
  5
A2
330
96
100
AcDbEntity
  8
_U+30EC_U+30A4_U+30E4_U+30FC 1
 62
   179
420
  2234388
370
    25
100
AcDbVertex
100
AcDb2dVertex
 10
103.8675187592982
 20
-146.1252214702233
 30
0.0
  0
VERTEX
  5
A3
330
96
100
AcDbEntity
  8
_U+30EC_U+30A4_U+30E4_U+30FC 1
 62
   179
420
  2234388
370
    25
100
AcDbVertex
100
AcDb2dVertex
 10
104.3917438669956
 20
-145.9124975899328
 30
0.0
  0
VERTEX
  5
A4
330
96
100
AcDbEntity
  8
_U+30EC_U+30A4_U+30E4_U+30FC 1
 62
   179
420
  2234388
370
    25
100
AcDbVertex
100
AcDb2dVertex
 10
104.9254968168947
 20
-146.0998246569432
 30
0.0
  0
VERTEX
  5
A5
330
96
100
AcDbEntity
  8
_U+30EC_U+30A4_U+30E4_U+30FC 1
 62
   179
420
  2234388
370
    25
100
AcDbVertex
100
AcDb2dVertex
 10
105.4493666491205
 20
-145.8871007766521
 30
0.0
  0
VERTEX
  5
A6
330
96
100
AcDbEntity
  8
_U+30EC_U+30A4_U+30E4_U+30FC 1
 62
   179
420
  2234388
370
    25
100
AcDbVertex
100
AcDb2dVertex
 10
105.9827643235477
 20
-146.0744170777395
 30
0.0
  0
VERTEX
  5
A7
330
96
100
AcDbEntity
  8
_U+30EC_U+30A4_U+30E4_U+30FC 1
 62
   179
420
  2234388
370
    25
100
AcDbVertex
100
AcDb2dVertex
 10
106.5070001971688
 20
-145.8616931974484
 30
0.0
  0
VERTEX
  5
A8
330
96
100
AcDbEntity
  8
_U+30EC_U+30A4_U+30E4_U+30FC 1
 62
   179
420
  2234388
370
    25
100
AcDbVertex
100
AcDb2dVertex
 10
107.0407531470679
 20
-146.0490202644589
 30
0.0
  0
VERTEX
  5
A9
330
96
100
AcDbEntity
  8
_U+30EC_U+30A4_U+30E4_U+30FC 1
 62
   179
420
  2234388
370
    25
100
AcDbVertex
100
AcDb2dVertex
 10
107.5635679188014
 20
-145.8362963841681
 30
0.0
  0
VERTEX
  5
AA
330
96
100
AcDbEntity
  8
_U+30EC_U+30A4_U+30E4_U+30FC 1
 62
   179
420
  2234388
370
    25
100
AcDbVertex
100
AcDb2dVertex
 10
108.0969655932286
 20
-146.0236234511786
 30
0.0
  0
VERTEX
  5
AB
330
96
100
AcDbEntity
  8
_U+30EC_U+30A4_U+30E4_U+30FC 1
 62
   179
420
  2234388
370
    25
100
AcDbVertex
100
AcDb2dVertex
 10
108.6208461913778
 20
-145.8108995708878
 30
0.0
  0
VERTEX
  5
AC
330
96
100
AcDbEntity
  8
_U+30EC_U+30A4_U+30E4_U+30FC 1
 62
   179
420
  2234388
370
    25
100
AcDbVertex
100
AcDb2dVertex
 10
109.1549436508254
 20
-145.9982266378982
 30
0.0
  0
VERTEX
  5
AD
330
96
100
AcDbEntity
  8
_U+30EC_U+30A4_U+30E4_U+30FC 1
 62
   179
420
  2234388
370
    25
100
AcDbVertex
100
AcDb2dVertex
 10
109.6795240339951
 20
-145.7854919916841
 30
0.0
  0
VERTEX
  5
AE
330
96
100
AcDbEntity
  8
_U+30EC_U+30A4_U+30E4_U+30FC 1
 62
   179
420
  2234388
370
    25
100
AcDbVertex
100
AcDb2dVertex
 10
110.213987534838
 20
-145.972474549146
 30
0.0
  0
VERTEX
  5
AF
330
96
100
AcDbEntity
  8
_U+30EC_U+30A4_U+30E4_U+30FC 1
 62
   179
420
  2234388
370
    25
100
AcDbVertex
100
AcDb2dVertex
 10
110.7385679180076
 20
-145.7600951784037
 30
0.0
  0
VERTEX
  5
B0
330
96
100
AcDbEntity
  8
_U+30EC_U+30A4_U+30E4_U+30FC 1
 62
   179
420
  2234388
370
    25
100
AcDbVertex
100
AcDb2dVertex
 10
111.2730206529272
 20
-145.9470669699423
 30
0.0
  0
VERTEX
  5
B1
330
96
100
AcDbEntity
  8
_U+30EC_U+30A4_U+30E4_U+30FC 1
 62
   179
420
  2234388
370
    25
100
AcDbVertex
100
AcDb2dVertex
 10
111.7976010360968
 20
-145.7343430896515
 30
0.0
  0
VERTEX
  5
B2
330
96
100
AcDbEntity
  8
_U+30EC_U+30A4_U+30E4_U+30FC 1
 62
   179
420
  2234388
370
    25
100
AcDbVertex
100
AcDb2dVertex
 10
112.3320645369398
 20
-145.9216701566619
 30
0.0
  0
VERTEX
  5
B3
330
96
100
AcDbEntity
  8
_U+30EC_U+30A4_U+30E4_U+30FC 1
 62
   179
420
  2234388
370
    25
100
AcDbVertex
100
AcDb2dVertex
 10
112.8566449201094
 20
-145.7093015518431
 30
0.0
  0
VERTEX
  5
B4
330
96
100
AcDbEntity
  8
_U+30EC_U+30A4_U+30E4_U+30FC 1
 62
   179
420
  2234388
370
    25
100
AcDbVertex
100
AcDb2dVertex
 10
113.391097655029
 20
-145.8962733433816
 30
0.0
  0
VERTEX
  5
B5
330
96
100
AcDbEntity
  8
_U+30EC_U+30A4_U+30E4_U+30FC 1
 62
   179
420
  2234388
370
    25
100
AcDbVertex
100
AcDb2dVertex
 10
113.9135679172139
 20
-145.6838939726394
 30
0.0
  0
VERTEX
  5
B6
330
96
100
AcDbEntity
  8
_U+30EC_U+30A4_U+30E4_U+30FC 1
 62
   179
420
  2234388
370
    25
100
AcDbVertex
100
AcDb2dVertex
 10
114.4469655916411
 20
-145.8705212546294
 30
0.0
  0
VERTEX
  5
B7
330
96
100
AcDbEntity
  8
_U+30EC_U+30A4_U+30E4_U+30FC 1
 62
   179
420
  2234388
370
    25
100
AcDbVertex
100
AcDb2dVertex
 10
114.9708461897903
 20
-145.658497159359
 30
0.0
  0
VERTEX
  5
B8
330
96
100
AcDbEntity
  8
_U+30EC_U+30A4_U+30E4_U+30FC 1
 62
   179
420
  2234388
370
    25
100
AcDbVertex
100
AcDb2dVertex
 10
115.5052989247098
 20
-145.8451136754257
 30
0.0
  0
VERTEX
  5
B9
330
96
100
AcDbEntity
  8
_U+30EC_U+30A4_U+30E4_U+30FC 1
 62
   179
420
  2234388
370
    25
100
AcDbVertex
100
AcDb2dVertex
 10
116.0305898588233
 20
-145.6327450706068
 30
0.0
  0
VERTEX
  5
BA
330
96
100
AcDbEntity
  8
_U+30EC_U+30A4_U+30E4_U+30FC 1
 62
   179
420
  2234388
370
    25
100
AcDbVertex
100
AcDb2dVertex
 10
116.5664529297071
 20
-145.8197168621453
 30
0.0
  0
VERTEX
  5
BB
330
96
100
AcDbEntity
  8
_U+30EC_U+30A4_U+30E4_U+30FC 1
 62
   179
420
  2234388
370
    25
100
AcDbVertex
100
AcDb2dVertex
 10
117.092443648841
 20
-145.6073482573268
 30
0.0
  0
VERTEX
  5
BC
330
96
100
AcDbEntity
  8
_U+30EC_U+30A4_U+30E4_U+30FC 1
 62
   179
420
  2234388
370
    25
100
AcDbVertex
100
AcDb2dVertex
 10
117.6279622101763
 20
-145.7939647733931
 30
0.0
  0
VERTEX
  5
BD
330
96
100
AcDbEntity
  8
_U+30EC_U+30A4_U+30E4_U+30FC 1
 62
   179
420
  2234388
370
    25
100
AcDbVertex
100
AcDb2dVertex
 10
118.1546634802541
 20
-145.5819406781231
 30
0.0
  0
VERTEX
  5
BE
330
96
100
AcDbEntity
  8
_U+30EC_U+30A4_U+30E4_U+30FC 1
 62
   179
420
  2234388
370
    25
100
AcDbVertex
100
AcDb2dVertex
 10
118.6901820415894
 20
-145.7685679601128
 30
0.0
  0
VERTEX
  5
BF
330
96
100
AcDbEntity
  8
_U+30EC_U+30A4_U+30E4_U+30FC 1
 62
   179
420
  2234388
370
    25
100
AcDbVertex
100
AcDb2dVertex
 10
119.2158174852514
 20
-145.5561885893708
 30
0.0
  0
VERTEX
  5
C0
330
96
100
AcDbEntity
  8
_U+30EC_U+30A4_U+30E4_U+30FC 1
 62
   179
420
  2234388
370
    25
100
AcDbVertex
100
AcDb2dVertex
 10
119.7509807711148
 20
-145.743160380909
 30
0.0
  0
VERTEX
  5
C1
330
96
100
AcDbEntity
  8
_U+30EC_U+30A4_U+30E4_U+30FC 1
 62
   179
420
  2234388
370
    25
100
AcDbVertex
100
AcDb2dVertex
 10
120.2755611542844
 20
-145.5307917760902
 30
0.0
  0
VERTEX
  5
C2
330
96
100
AcDbEntity
  8
_U+30EC_U+30A4_U+30E4_U+30FC 1
 62
   179
420
  2234388
370
    25
100
AcDbVertex
100
AcDb2dVertex
 10
120.8100246551274
 20
-145.717763567629
 30
0.0
  0
VERTEX
  5
C3
330
96
100
AcDbEntity
  8
_U+30EC_U+30A4_U+30E4_U+30FC 1
 62
   179
420
  2234388
370
    25
100
AcDbVertex
100
AcDb2dVertex
 10
121.3353048233174
 20
-145.5053949628098
 30
0.0
  0
VERTEX
  5
C4
330
96
100
AcDbEntity
  8
_U+30EC_U+30A4_U+30E4_U+30FC 1
 62
   179
420
  2234388
370
    25
100
AcDbVertex
100
AcDb2dVertex
 10
121.8711786601247
 20
-145.6920114788768
 30
0.0
  0
VERTEX
  5
C5
330
96
100
AcDbEntity
  8
_U+30EC_U+30A4_U+30E4_U+30FC 1
 62
   179
420
  2234388
370
    25
100
AcDbVertex
100
AcDb2dVertex
 10
122.3968141037867
 20
-145.4796428740576
 30
0.0
  0
VERTEX
  5
C6
330
96
100
AcDbEntity
  8
_U+30EC_U+30A4_U+30E4_U+30FC 1
 62
   179
420
  2234388
370
    25
100
AcDbVertex
100
AcDb2dVertex
 10
122.9309223291577
 20
-145.6666146655961
 30
0.0
  0
VERTEX
  5
C7
330
96
100
AcDbEntity
  8
_U+30EC_U+30A4_U+30E4_U+30FC 1
 62
   179
420
  2234388
370
    25
100
AcDbVertex
100
AcDb2dVertex
 10
123.4551474368554
 20
-145.4545905703258
 30
0.0
  0
VERTEX
  5
C8
330
96
100
AcDbEntity
  8
_U+30EC_U+30A4_U+30E4_U+30FC 1
 62
   179
420
  2234388
370
    25
100
AcDbVertex
100
AcDb2dVertex
 10
123.9878453262622
 20
-145.6412070863924
 30
0.0
  0
VERTEX
  5
C9
330
96
100
AcDbEntity
  8
_U+30EC_U+30A4_U+30E4_U+30FC 1
 62
   179
420
  2234388
370
    25
100
AcDbVertex
100
AcDb2dVertex
 10
124.5106600979956
 20
-145.4288384815736
 30
0.0
  0
VERTEX
  5
CA
330
96
100
AcDbEntity
  8
_U+30EC_U+30A4_U+30E4_U+30FC 1
 62
   179
420
  2234388
370
    25
100
AcDbVertex
100
AcDb2dVertex
 10
125.0422921609866
 20
-145.616165548584
 30
0.0
  0
SEQEND
  5
CB
330
96
100
AcDbEntity
  8
_U+30EC_U+30A4_U+30E4_U+30FC 1
 62
   179
420
  2234388
370
    25
  0
POLYLINE
  5
CC
330
1F
100
AcDbEntity
  8
_U+30EC_U+30A4_U+30E4_U+30FC 1
 62
   179
420
  2234388
370
    25
100
AcDb2dPolyline
 66
     1
 10
0.0
 20
0.0
 30
0.0
  0
VERTEX
  5
CD
330
CC
100
AcDbEntity
  8
_U+30EC_U+30A4_U+30E4_U+30FC 1
 62
   179
420
  2234388
370
    25
100
AcDbVertex
100
AcDb2dVertex
 10
125.0398590623002
 20
-145.5160747588141
 30
0.0
  0
VERTEX
  5
CE
330
CC
100
AcDbEntity
  8
_U+30EC_U+30A4_U+30E4_U+30FC 1
 62
   179
420
  2234388
370
    25
100
AcDbVertex
100
AcDb2dVertex
 10
125.0296206691549
 20
-145.1156793019643
 30
0.0
  0
SEQEND
  5
CF
330
CC
100
AcDbEntity
  8
_U+30EC_U+30A4_U+30E4_U+30FC 1
 62
   179
420
  2234388
370
    25
  0
POLYLINE
  5
D0
330
1F
100
AcDbEntity
  8
_U+30EC_U+30A4_U+30E4_U+30FC 1
 62
   179
420
  2234388
370
    25
100
AcDb2dPolyline
 66
     1
 10
0.0
 20
0.0
 30
0.0
  0
VERTEX
  5
D1
330
D0
100
AcDbEntity
  8
_U+30EC_U+30A4_U+30E4_U+30FC 1
 62
   179
420
  2234388
370
    25
100
AcDbVertex
100
AcDb2dVertex
 10
125.0295237758444
 20
-145.1157869611983
 30
0.0
  0
VERTEX
  5
D2
330
D0
100
AcDbEntity
  8
_U+30EC_U+30A4_U+30E4_U+30FC 1
 62
   179
420
  2234388
370
    25
100
AcDbVertex
100
AcDb2dVertex
 10
98.07377249067254
 20
-145.1704778520266
 30
0.0
  0
SEQEND
  5
D3
330
D0
100
AcDbEntity
  8
_U+30EC_U+30A4_U+30E4_U+30FC 1
 62
   179
420
  2234388
370
    25
  0
SPLINE
  5
D4
330
1F
100
AcDbEntity
  8
_U+30EC_U+30A4_U+30E4_U+30FC 1
 62
   179
420
  2234388
370
     9
100
AcDbSpline
210
0.0
220
0.0
230
1.0
 70
    11
 71
     3
 72
    17
 73
    13
 74
     0
 42
0.0000000001
 43
0.0000000001
 12
1.0
 22
0.0
 32
0.0
 13
1.0
 23
0.0
 33
0.0
 40
0.0
 40
0.0
 40
0.0
 40
0.0
 40
1.0
 40
1.0
 40
1.0
 40
2.0
 40
2.0
 40
2.0
 40
3.0
 40
3.0
 40
3.0
 40
4.0
 40
4.0
 40
4.0
 40
4.0
 10
99.02959270120832
 20
-134.9066017661323
 30
0.0
 10
99.02959270120832
 20
-134.9616371665091
 30
0.0
 10
99.07438970843995
 20
-135.0064449396645
 30
0.0
 10
99.12942510881682
 20
-135.0064449396645
 30
0.0
 10
99.18446050919368
 20
-135.0064449396645
 30
0.0
 10
99.22925751642533
 20
-134.9616371665091
 30
0.0
 10
99.22925751642533
 20
-134.9066017661323
 30
0.0
 10
99.22925751642533
 20
-134.8515771316788
 30
0.0
 10
99.18446050919368
 20
-134.8067693585238
 30
0.0
 10
99.12942510881682
 20
-134.8067693585238
 30
0.0
 10
99.07438970843995
 20
-134.8067693585238
 30
0.0
 10
99.02959270120832
 20
-134.8515771316788
 30
0.0
 10
99.02959270120832
 20
-134.9066017661323
 30
0.0
  0
SPLINE
  5
D5
330
1F
100
AcDbEntity
  8
_U+30EC_U+30A4_U+30E4_U+30FC 1
 62
   179
420
  2234388
370
     9
100
AcDbSpline
210
0.0
220
0.0
230
1.0
 70
    11
 71
     3
 72
    17
 73
    13
 74
     0
 42
0.0000000001
 43
0.0000000001
 12
1.0
 22
0.0
 32
0.0
 13
1.0
 23
0.0
 33
0.0
 40
0.0
 40
0.0
 40
0.0
 40
0.0
 40
1.0
 40
1.0
 40
1.0
 40
2.0
 40
2.0
 40
2.0
 40
3.0
 40
3.0
 40
3.0
 40
4.0
 40
4.0
 40
4.0
 40
4.0
 10
81.90296798353934
 20
-139.0058778203375
 30
0.0
 10
81.90296798353934
 20
-139.0609132207144
 30
0.0
 10
81.94776499077066
 20
-139.1057209938694
 30
0.0
 10
82.00280039114753
 20
-139.1057209938694
 30
0.0
 10
82.0578357915244
 20
-139.1057209938694
 30
0.0
 10
82.10263279875603
 20
-139.0609132207144
 30
0.0
 10
82.10263279875603
 20
-139.0058778203375
 30
0.0
 10
82.10263279875603
 20
-138.9501426349402
 30
0.0
 10
82.0578357915244
 20
-138.906045412729
 30
0.0
 10
82.00280039114753
 20
-138.906045412729
 30
0.0
 10
81.94776499077066
 20
-138.906045412729
 30
0.0
 10
81.90296798353934
 20
-138.9501426349402
 30
0.0
 10
81.90296798353934
 20
-139.0058778203375
 30
0.0
  0
SPLINE
  5
D6
330
1F
100
AcDbEntity
  8
_U+30EC_U+30A4_U+30E4_U+30FC 1
 62
   179
420
  2234388
370
     9
100
AcDbSpline
210
0.0
220
0.0
230
1.0
 70
    11
 71
     3
 72
    17
 73
    13
 74
     0
 42
0.0000000001
 43
0.0000000001
 12
1.0
 22
0.0
 32
0.0
 13
1.0
 23
0.0
 33
0.0
 40
0.0
 40
0.0
 40
0.0
 40
0.0
 40
1.0
 40
1.0
 40
1.0
 40
2.0
 40
2.0
 40
2.0
 40
3.0
 40
3.0
 40
3.0
 40
4.0
 40
4.0
 40
4.0
 40
4.0
 10
125.0288562885941
 20
-134.9066017661323
 30
0.0
 10
125.0288562885941
 20
-134.9616371665091
 30
0.0
 10
125.0736532958258
 20
-135.0064449396645
 30
0.0
 10
125.1286886962026
 20
-135.0064449396645
 30
0.0
 10
125.1837240965795
 20
-135.0064449396645
 30
0.0
 10
125.2285211038111
 20
-134.9616371665091
 30
0.0
 10
125.2285211038111
 20
-134.9066017661323
 30
0.0
 10
125.2285211038111
 20
-134.8515771316788
 30
0.0
 10
125.1837240965795
 20
-134.8067693585238
 30
0.0
 10
125.1286886962026
 20
-134.8067693585238
 30
0.0
 10
125.0736532958258
 20
-134.8067693585238
 30
0.0
 10
125.0288562885941
 20
-134.8515771316788
 30
0.0
 10
125.0288562885941
 20
-134.9066017661323
 30
0.0
  0
SPLINE
  5
D7
330
1F
100
AcDbEntity
  8
_U+30EC_U+30A4_U+30E4_U+30FC 1
 62
   179
420
  2234388
370
     9
100
AcDbSpline
210
0.0
220
0.0
230
1.0
 70
    11
 71
     3
 72
    17
 73
    13
 74
     0
 42
0.0000000001
 43
0.0000000001
 12
1.0
 22
0.0
 32
0.0
 13
1.0
 23
0.0
 33
0.0
 40
0.0
 40
0.0
 40
0.0
 40
0.0
 40
1.0
 40
1.0
 40
1.0
 40
2.0
 40
2.0
 40
2.0
 40
3.0
 40
3.0
 40
3.0
 40
4.0
 40
4.0
 40
4.0
 40
4.0
 10
81.90296798353934
 20
-165.0057120016631
 30
0.0
 10
81.90296798353934
 20
-165.0607474020399
 30
0.0
 10
81.94776499077066
 20
-165.105555175195
 30
0.0
 10
82.00280039114753
 20
-165.105555175195
 30
0.0
 10
82.0578357915244
 20
-165.105555175195
 30
0.0
 10
82.10263279875603
 20
-165.0607474020399
 30
0.0
 10
82.10263279875603
 20
-165.0057120016631
 30
0.0
 10
82.10263279875603
 20
-164.9506873672096
 30
0.0
 10
82.0578357915244
 20
-164.9058795940546
 30
0.0
 10
82.00280039114753
 20
-164.9058795940546
 30
0.0
 10
81.94776499077066
 20
-164.9058795940546
 30
0.0
 10
81.90296798353934
 20
-164.9506873672096
 30
0.0
 10
81.90296798353934
 20
-165.0057120016631
 30
0.0
  0
POLYLINE
  5
D8
330
1F
100
AcDbEntity
  8
_U+30EC_U+30A4_U+30E4_U+30FC 1
 62
   179
420
  2234388
370
     9
100
AcDb2dPolyline
 66
     1
 10
0.0
 20
0.0
 30
0.0
  0
VERTEX
  5
D9
330
D8
100
AcDbEntity
  8
_U+30EC_U+30A4_U+30E4_U+30FC 1
 62
   179
420
  2234388
370
     9
100
AcDbVertex
100
AcDb2dVertex
 10
125.1287640576664
 20
-134.9066017661323
 30
0.0
  0
VERTEX
  5
DA
330
D8
100
AcDbEntity
  8
_U+30EC_U+30A4_U+30E4_U+30FC 1
 62
   179
420
  2234388
370
     9
100
AcDbVertex
100
AcDb2dVertex
 10
99.12939281104697
 20
-134.9066017661323
 30
0.0
  0
SEQEND
  5
DB
330
D8
100
AcDbEntity
  8
_U+30EC_U+30A4_U+30E4_U+30FC 1
 62
   179
420
  2234388
370
     9
  0
POLYLINE
  5
DC
330
1F
100
AcDbEntity
  8
_U+30EC_U+30A4_U+30E4_U+30FC 1
 62
   179
420
  2234388
370
     9
100
AcDb2dPolyline
 66
     1
 10
0.0
 20
0.0
 30
0.0
  0
VERTEX
  5
DD
330
DC
100
AcDbEntity
  8
_U+30EC_U+30A4_U+30E4_U+30FC 1
 62
   179
420
  2234388
370
     9
100
AcDbVertex
100
AcDb2dVertex
 10
125.1287640576664
 20
-137.1665736385328
 30
0.0
  0
VERTEX
  5
DE
330
DC
100
AcDbEntity
  8
_U+30EC_U+30A4_U+30E4_U+30FC 1
 62
   179
420
  2234388
370
     9
100
AcDbVertex
100
AcDb2dVertex
 10
125.1287640576664
 20
-133.9069104177765
 30
0.0
  0
SEQEND
  5
DF
330
DC
100
AcDbEntity
  8
_U+30EC_U+30A4_U+30E4_U+30FC 1
 62
   179
420
  2234388
370
     9
  0
POLYLINE
  5
E0
330
1F
100
AcDbEntity
  8
_U+30EC_U+30A4_U+30E4_U+30FC 1
 62
   179
420
  2234388
370
     9
100
AcDb2dPolyline
 66
     1
 10
0.0
 20
0.0
 30
0.0
  0
VERTEX
  5
E1
330
E0
100
AcDbEntity
  8
_U+30EC_U+30A4_U+30E4_U+30FC 1
 62
   179
420
  2234388
370
     9
100
AcDbVertex
100
AcDb2dVertex
 10
99.12950047028056
 20
-136.9667581003883
 30
0.0
  0
VERTEX
  5
E2
330
E0
100
AcDbEntity
  8
_U+30EC_U+30A4_U+30E4_U+30FC 1
 62
   179
420
  2234388
370
     9
100
AcDbVertex
100
AcDb2dVertex
 10
99.12950047028056
 20
-133.9067704607728
 30
0.0
  0
SEQEND
  5
E3
330
E0
100
AcDbEntity
  8
_U+30EC_U+30A4_U+30E4_U+30FC 1
 62
   179
420
  2234388
370
     9
  0
INSERT
  5
E5
330
1F
100
AcDbEntity
  8
_U+30EC_U+30A4_U+30E4_U+30FC 1
100
AcDbBlockReference
  2
block 3
 10
0.0
 20
0.0
 30
0.0
  0
SPLINE
  5
ED
330
1F
100
AcDbEntity
  8
_U+30EC_U+30A4_U+30E4_U+30FC 1
 62
   179
420
  2234388
370
     9
100
AcDbSpline
210
0.0
220
0.0
230
1.0
 70
    11
 71
     3
 72
    17
 73
    13
 74
     0
 42
0.0000000001
 43
0.0000000001
 12
1.0
 22
0.0
 32
0.0
 13
1.0
 23
0.0
 33
0.0
 40
0.0
 40
0.0
 40
0.0
 40
0.0
 40
1.0
 40
1.0
 40
1.0
 40
2.0
 40
2.0
 40
2.0
 40
3.0
 40
3.0
 40
3.0
 40
4.0
 40
4.0
 40
4.0
 40
4.0
 10
127.9757802007535
 20
-145.1157869611983
 30
0.0
 10
128.0308048352069
 20
-145.1157869611983
 30
0.0
 10
128.075612608362
 20
-145.0709899539666
 30
0.0
 10
128.075612608362
 20
-145.0159545535898
 30
0.0
 10
128.075612608362
 20
-144.9609191532129
 30
0.0
 10
128.0308048352069
 20
-144.9161221459813
 30
0.0
 10
127.9757802007535
 20
-144.9161221459813
 30
0.0
 10
127.9207448003766
 20
-144.9161221459813
 30
0.0
 10
127.8759370272216
 20
-144.9609191532129
 30
0.0
 10
127.8759370272216
 20
-145.0159545535898
 30
0.0
 10
127.8759370272216
 20
-145.0709899539666
 30
0.0
 10
127.9207448003766
 20
-145.1157869611983
 30
0.0
 10
127.9757802007535
 20
-145.1157869611983
 30
0.0
  0
SPLINE
  5
EE
330
1F
100
AcDbEntity
  8
_U+30EC_U+30A4_U+30E4_U+30FC 1
 62
   179
420
  2234388
370
     9
100
AcDbSpline
210
0.0
220
0.0
230
1.0
 70
    11
 71
     3
 72
    17
 73
    13
 74
     0
 42
0.0000000001
 43
0.0000000001
 12
1.0
 22
0.0
 32
0.0
 13
1.0
 23
0.0
 33
0.0
 40
0.0
 40
0.0
 40
0.0
 40
0.0
 40
1.0
 40
1.0
 40
1.0
 40
2.0
 40
2.0
 40
2.0
 40
3.0
 40
3.0
 40
3.0
 40
4.0
 40
4.0
 40
4.0
 40
4.0
 10
127.9757802007535
 20
-139.1161208758655
 30
0.0
 10
128.0308048352069
 20
-139.1161208758655
 30
0.0
 10
128.075612608362
 20
-139.0713238686339
 30
0.0
 10
128.075612608362
 20
-139.0159331927854
 30
0.0
 10
128.075612608362
 20
-138.9609085583316
 30
0.0
 10
128.0308048352069
 20
-138.9161007851766
 30
0.0
 10
127.9757802007535
 20
-138.9161007851766
 30
0.0
 10
127.9207448003766
 20
-138.9161007851766
 30
0.0
 10
127.8759370272216
 20
-138.9609085583316
 30
0.0
 10
127.8759370272216
 20
-139.0159331927854
 30
0.0
 10
127.8759370272216
 20
-139.0713238686339
 30
0.0
 10
127.9207448003766
 20
-139.1161208758655
 30
0.0
 10
127.9757802007535
 20
-139.1161208758655
 30
0.0
  0
POLYLINE
  5
EF
330
1F
100
AcDbEntity
  8
_U+30EC_U+30A4_U+30E4_U+30FC 1
 62
   179
420
  2234388
370
     9
100
AcDb2dPolyline
 66
     1
 10
0.0
 20
0.0
 30
0.0
  0
VERTEX
  5
F0
330
EF
100
AcDbEntity
  8
_U+30EC_U+30A4_U+30E4_U+30FC 1
 62
   179
420
  2234388
370
     9
100
AcDbVertex
100
AcDb2dVertex
 10
127.9757802007535
 20
-139.0159008950149
 30
0.0
  0
VERTEX
  5
F1
330
EF
100
AcDbEntity
  8
_U+30EC_U+30A4_U+30E4_U+30FC 1
 62
   179
420
  2234388
370
     9
100
AcDbVertex
100
AcDb2dVertex
 10
127.9757802007535
 20
-145.0159545535898
 30
0.0
  0
SEQEND
  5
F2
330
EF
100
AcDbEntity
  8
_U+30EC_U+30A4_U+30E4_U+30FC 1
 62
   179
420
  2234388
370
     9
  0
POLYLINE
  5
F3
330
1F
100
AcDbEntity
  8
_U+30EC_U+30A4_U+30E4_U+30FC 1
 62
   179
420
  2234388
370
     9
100
AcDb2dPolyline
 66
     1
 10
0.0
 20
0.0
 30
0.0
  0
VERTEX
  5
F4
330
F3
100
AcDbEntity
  8
_U+30EC_U+30A4_U+30E4_U+30FC 1
 62
   179
420
  2234388
370
     9
100
AcDbVertex
100
AcDb2dVertex
 10
128.9693457386995
 20
-139.0159008950149
 30
0.0
  0
VERTEX
  5
F5
330
F3
100
AcDbEntity
  8
_U+30EC_U+30A4_U+30E4_U+30FC 1
 62
   179
420
  2234388
370
     9
100
AcDbVertex
100
AcDb2dVertex
 10
125.7096717520199
 20
-139.0159008950149
 30
0.0
  0
SEQEND
  5
F6
330
F3
100
AcDbEntity
  8
_U+30EC_U+30A4_U+30E4_U+30FC 1
 62
   179
420
  2234388
370
     9
  0
POLYLINE
  5
F7
330
1F
100
AcDbEntity
  8
_U+30EC_U+30A4_U+30E4_U+30FC 1
 62
   179
420
  2234388
370
     9
100
AcDb2dPolyline
 66
     1
 10
0.0
 20
0.0
 30
0.0
  0
VERTEX
  5
F8
330
F7
100
AcDbEntity
  8
_U+30EC_U+30A4_U+30E4_U+30FC 1
 62
   179
420
  2234388
370
     9
100
AcDbVertex
100
AcDb2dVertex
 10
128.9693457386995
 20
-145.015879192126
 30
0.0
  0
VERTEX
  5
F9
330
F7
100
AcDbEntity
  8
_U+30EC_U+30A4_U+30E4_U+30FC 1
 62
   179
420
  2234388
370
     9
100
AcDbVertex
100
AcDb2dVertex
 10
125.7096717520199
 20
-145.015879192126
 30
0.0
  0
SEQEND
  5
FA
330
F7
100
AcDbEntity
  8
_U+30EC_U+30A4_U+30E4_U+30FC 1
 62
   179
420
  2234388
370
     9
  0
INSERT
  5
FC
330
1F
100
AcDbEntity
  8
_U+30EC_U+30A4_U+30E4_U+30FC 1
100
AcDbBlockReference
  2
block 4
 10
0.0
 20
0.0
 30
0.0
  0
POLYLINE
  5
102
330
1F
100
AcDbEntity
  8
_U+30EC_U+30A4_U+30E4_U+30FC 1
 62
   179
420
  2234388
370
     9
100
AcDb2dPolyline
 66
     1
 10
0.0
 20
0.0
 30
0.0
  0
VERTEX
  5
103
330
102
100
AcDbEntity
  8
_U+30EC_U+30A4_U+30E4_U+30FC 1
 62
   179
420
  2234388
370
     9
100
AcDbVertex
100
AcDb2dVertex
 10
82.00287575261159
 20
-139.0058778203375
 30
0.0
  0
VERTEX
  5
104
330
102
100
AcDbEntity
  8
_U+30EC_U+30A4_U+30E4_U+30FC 1
 62
   179
420
  2234388
370
     9
100
AcDbVertex
100
AcDb2dVertex
 10
82.00287575261159
 20
-165.0056043424292
 30
0.0
  0
SEQEND
  5
105
330
102
100
AcDbEntity
  8
_U+30EC_U+30A4_U+30E4_U+30FC 1
 62
   179
420
  2234388
370
     9
  0
POLYLINE
  5
106
330
1F
100
AcDbEntity
  8
_U+30EC_U+30A4_U+30E4_U+30FC 1
 62
   179
420
  2234388
370
     9
100
AcDb2dPolyline
 66
     1
 10
0.0
 20
0.0
 30
0.0
  0
VERTEX
  5
107
330
106
100
AcDbEntity
  8
_U+30EC_U+30A4_U+30E4_U+30FC 1
 62
   179
420
  2234388
370
     9
100
AcDbVertex
100
AcDb2dVertex
 10
80.71305353478051
 20
-139.0058778203375
 30
0.0
  0
VERTEX
  5
108
330
106
100
AcDbEntity
  8
_U+30EC_U+30A4_U+30E4_U+30FC 1
 62
   179
420
  2234388
370
     9
100
AcDbVertex
100
AcDb2dVertex
 10
85.07302642390862
 20
-139.0058778203375
 30
0.0
  0
SEQEND
  5
109
330
106
100
AcDbEntity
  8
_U+30EC_U+30A4_U+30E4_U+30FC 1
 62
   179
420
  2234388
370
     9
  0
POLYLINE
  5
10A
330
1F
100
AcDbEntity
  8
_U+30EC_U+30A4_U+30E4_U+30FC 1
 62
   179
420
  2234388
370
     9
100
AcDb2dPolyline
 66
     1
 10
0.0
 20
0.0
 30
0.0
  0
VERTEX
  5
10B
330
10A
100
AcDbEntity
  8
_U+30EC_U+30A4_U+30E4_U+30FC 1
 62
   179
420
  2234388
370
     9
100
AcDbVertex
100
AcDb2dVertex
 10
80.71305353478051
 20
-165.0057120016631
 30
0.0
  0
VERTEX
  5
10C
330
10A
100
AcDbEntity
  8
_U+30EC_U+30A4_U+30E4_U+30FC 1
 62
   179
420
  2234388
370
     9
100
AcDbVertex
100
AcDb2dVertex
 10
85.07302642390862
 20
-165.0057120016631
 30
0.0
  0
SEQEND
  5
10D
330
10A
100
AcDbEntity
  8
_U+30EC_U+30A4_U+30E4_U+30FC 1
 62
   179
420
  2234388
370
     9
  0
INSERT
  5
10F
330
1F
100
AcDbEntity
  8
_U+30EC_U+30A4_U+30E4_U+30FC 1
100
AcDbBlockReference
  2
block 5
 10
0.0
 20
0.0
 30
0.0
  0
POLYLINE
  5
117
330
1F
100
AcDbEntity
  8
_U+30EC_U+30A4_U+30E4_U+30FC 1
 62
   179
420
  2234388
370
    25
100
AcDb2dPolyline
 66
     1
 10
0.0
 20
0.0
 30
0.0
  0
VERTEX
  5
118
330
117
100
AcDbEntity
  8
_U+30EC_U+30A4_U+30E4_U+30FC 1
 62
   179
420
  2234388
370
    25
100
AcDbVertex
100
AcDb2dVertex
 10
88.02422440765432
 20
-139.9253953371975
 30
0.0
  0
VERTEX
  5
119
330
117
100
AcDbEntity
  8
_U+30EC_U+30A4_U+30E4_U+30FC 1
 62
   179
420
  2234388
370
    25
100
AcDbVertex
100
AcDb2dVertex
 10
98.02441073192294
 20
-139.9253953371975
 30
0.0
  0
SEQEND
  5
11A
330
117
100
AcDbEntity
  8
_U+30EC_U+30A4_U+30E4_U+30FC 1
 62
   179
420
  2234388
370
    25
  0
POLYLINE
  5
11B
330
1F
100
AcDbEntity
  8
_U+30EC_U+30A4_U+30E4_U+30FC 1
 62
   179
420
  2234388
370
    25
100
AcDb2dPolyline
 66
     1
 10
0.0
 20
0.0
 30
0.0
  0
VERTEX
  5
11C
330
11B
100
AcDbEntity
  8
_U+30EC_U+30A4_U+30E4_U+30FC 1
 62
   179
420
  2234388
370
    25
100
AcDbVertex
100
AcDb2dVertex
 10
87.02960380921591
 20
-138.9060131149588
 30
0.0
  0
VERTEX
  5
11D
330
11B
100
AcDbEntity
  8
_U+30EC_U+30A4_U+30E4_U+30FC 1
 62
   179
420
  2234388
370
    25
100
AcDbVertex
100
AcDb2dVertex
 10
99.02968959451884
 20
-138.9060131149588
 30
0.0
  0
SEQEND
  5
11E
330
11B
100
AcDbEntity
  8
_U+30EC_U+30A4_U+30E4_U+30FC 1
 62
   179
420
  2234388
370
    25
  0
POLYLINE
  5
11F
330
1F
100
AcDbEntity
  8
_U+30EC_U+30A4_U+30E4_U+30FC 1
 62
   179
420
  2234388
370
    25
100
AcDb2dPolyline
 66
     1
 10
0.0
 20
0.0
 30
0.0
  0
VERTEX
  5
120
330
11F
100
AcDbEntity
  8
_U+30EC_U+30A4_U+30E4_U+30FC 1
 62
   179
420
  2234388
370
    25
100
AcDbVertex
100
AcDb2dVertex
 10
99.02959270120832
 20
-145.0427617028344
 30
0.0
  0
VERTEX
  5
121
330
11F
100
AcDbEntity
  8
_U+30EC_U+30A4_U+30E4_U+30FC 1
 62
   179
420
  2234388
370
    25
100
AcDbVertex
100
AcDb2dVertex
 10
99.02959270120832
 20
-139.0427188101832
 30
0.0
  0
SEQEND
  5
122
330
11F
100
AcDbEntity
  8
_U+30EC_U+30A4_U+30E4_U+30FC 1
 62
   179
420
  2234388
370
    25
  0
POLYLINE
  5
123
330
1F
100
AcDbEntity
  8
_U+30EC_U+30A4_U+30E4_U+30FC 1
 62
   179
420
  2234388
370
    25
100
AcDb2dPolyline
 66
     1
 10
0.0
 20
0.0
 30
0.0
  0
VERTEX
  5
124
330
123
100
AcDbEntity
  8
_U+30EC_U+30A4_U+30E4_U+30FC 1
 62
   179
420
  2234388
370
    25
100
AcDbVertex
100
AcDb2dVertex
 10
98.02431383861241
 20
-146.1031405613475
 30
0.0
  0
VERTEX
  5
125
330
123
100
AcDbEntity
  8
_U+30EC_U+30A4_U+30E4_U+30FC 1
 62
   179
420
  2234388
370
    25
100
AcDbVertex
100
AcDb2dVertex
 10
98.02431383861241
 20
-139.925298443887
 30
0.0
  0
SEQEND
  5
126
330
123
100
AcDbEntity
  8
_U+30EC_U+30A4_U+30E4_U+30FC 1
 62
   179
420
  2234388
370
    25
  0
POLYLINE
  5
127
330
1F
100
AcDbEntity
  8
_U+30EC_U+30A4_U+30E4_U+30FC 1
 62
   179
420
  2234388
370
     9
100
AcDb2dPolyline
 66
     1
 10
0.0
 20
0.0
 30
0.0
  0
VERTEX
  5
128
330
127
100
AcDbEntity
  8
_U+30EC_U+30A4_U+30E4_U+30FC 1
 62
   179
420
  2234388
370
     9
100
AcDbVertex
100
AcDb2dVertex
 10
87.60255548618314
 20
-137.9355189508406
 30
0.0
  0
VERTEX
  5
129
330
127
100
AcDbEntity
  8
_U+30EC_U+30A4_U+30E4_U+30FC 1
 62
   179
420
  2234388
370
     9
100
AcDbVertex
100
AcDb2dVertex
 10
88.15958436245447
 20
-138.76595921756
 30
0.0
  0
SEQEND
  5
12A
330
127
100
AcDbEntity
  8
_U+30EC_U+30A4_U+30E4_U+30FC 1
 62
   179
420
  2234388
370
     9
  0
POLYLINE
  5
12B
330
1F
100
AcDbEntity
  8
_U+30EC_U+30A4_U+30E4_U+30FC 1
 62
   179
420
  2234388
370
     9
100
AcDb2dPolyline
 66
     1
 10
0.0
 20
0.0
 30
0.0
  0
VERTEX
  5
12C
330
12B
100
AcDbEntity
  8
_U+30EC_U+30A4_U+30E4_U+30FC 1
 62
   179
420
  2234388
370
     9
100
AcDbVertex
100
AcDb2dVertex
 10
88.09277104188772
 20
-137.7687655634311
 30
0.0
  0
VERTEX
  5
12D
330
12B
100
AcDbEntity
  8
_U+30EC_U+30A4_U+30E4_U+30FC 1
 62
   179
420
  2234388
370
     9
100
AcDbVertex
100
AcDb2dVertex
 10
88.15944440545037
 20
-138.7660776427177
 30
0.0
  0
SEQEND
  5
12E
330
12B
100
AcDbEntity
  8
_U+30EC_U+30A4_U+30E4_U+30FC 1
 62
   179
420
  2234388
370
     9
  0
POLYLINE
  5
12F
330
1F
100
AcDbEntity
  8
_U+30EC_U+30A4_U+30E4_U+30FC 1
 62
   179
420
  2234388
370
     9
100
AcDb2dPolyline
 66
     1
 10
0.0
 20
0.0
 30
0.0
  0
VERTEX
  5
130
330
12F
100
AcDbEntity
  8
_U+30EC_U+30A4_U+30E4_U+30FC 1
 62
   179
420
  2234388
370
     9
100
AcDbVertex
100
AcDb2dVertex
 10
87.3837596250996
 20
-136.4062302990148
 30
0.0
  0
VERTEX
  5
131
330
12F
100
AcDbEntity
  8
_U+30EC_U+30A4_U+30E4_U+30FC 1
 62
   179
420
  2234388
370
     9
100
AcDbVertex
100
AcDb2dVertex
 10
88.15950900099072
 20
-138.7659699834834
 30
0.0
  0
SEQEND
  5
132
330
12F
100
AcDbEntity
  8
_U+30EC_U+30A4_U+30E4_U+30FC 1
 62
   179
420
  2234388
370
     9
  0
INSERT
  5
134
330
1F
100
AcDbEntity
  8
_U+30EC_U+30A4_U+30E4_U+30FC 1
100
AcDbBlockReference
  2
block 6
 10
0.0
 20
0.0
 30
0.0
  0
POLYLINE
  5
18F
330
1F
100
AcDbEntity
  8
_U+30EC_U+30A4_U+30E4_U+30FC 1
 62
   179
420
  2234388
370
    25
100
AcDb2dPolyline
 66
     1
 10
0.0
 20
0.0
 30
0.0
  0
VERTEX
  5
190
330
18F
100
AcDbEntity
  8
_U+30EC_U+30A4_U+30E4_U+30FC 1
 62
   179
420
  2234388
370
    25
100
AcDbVertex
100
AcDb2dVertex
 10
87.02960380921591
 20
-139.9253953371975
 30
0.0
  0
VERTEX
  5
191
330
18F
100
AcDbEntity
  8
_U+30EC_U+30A4_U+30E4_U+30FC 1
 62
   179
420
  2234388
370
    25
100
AcDbVertex
100
AcDb2dVertex
 10
88.02407368472684
 20
-139.9253953371975
 30
0.0
  0
SEQEND
  5
192
330
18F
100
AcDbEntity
  8
_U+30EC_U+30A4_U+30E4_U+30FC 1
 62
   179
420
  2234388
370
    25
  0
POLYLINE
  5
193
330
1F
100
AcDbEntity
  8
_U+30EC_U+30A4_U+30E4_U+30FC 1
  6
AI-Linetype-1
 62
   154
420
    23468
370
    25
100
AcDb2dPolyline
 66
     1
 10
0.0
 20
0.0
 30
0.0
  0
VERTEX
  5
194
330
193
100
AcDbEntity
  8
_U+30EC_U+30A4_U+30E4_U+30FC 1
  6
AI-Linetype-1
 62
   154
420
    23468
370
    25
100
AcDbVertex
100
AcDb2dVertex
 10
125.0295237758444
 20
-144.6158928403651
 30
0.0
  0
VERTEX
  5
195
330
193
100
AcDbEntity
  8
_U+30EC_U+30A4_U+30E4_U+30FC 1
  6
AI-Linetype-1
 62
   154
420
    23468
370
    25
100
AcDbVertex
100
AcDb2dVertex
 10
110.0297610537643
 20
-144.6158928403651
 30
0.0
  0
SEQEND
  5
197
330
193
100
AcDbEntity
  8
_U+30EC_U+30A4_U+30E4_U+30FC 1
  6
AI-Linetype-1
 62
   154
420
    23468
370
    25
  0
POLYLINE
  5
198
330
1F
100
AcDbEntity
  8
_U+30EC_U+30A4_U+30E4_U+30FC 1
 62
   179
420
  2234388
370
     9
100
AcDb2dPolyline
 66
     1
 10
0.0
 20
0.0
 30
0.0
  0
VERTEX
  5
199
330
198
100
AcDbEntity
  8
_U+30EC_U+30A4_U+30E4_U+30FC 1
 62
   179
420
  2234388
370
     9
100
AcDbVertex
100
AcDb2dVertex
 10
115.9028091140907
 20
-144.69650807472
 30
0.0
  0
VERTEX
  5
19A
330
198
100
AcDbEntity
  8
_U+30EC_U+30A4_U+30E4_U+30FC 1
 62
   179
420
  2234388
370
     9
100
AcDbVertex
100
AcDb2dVertex
 10
115.9028091140907
 20
-154.5742858500283
 30
0.0
  0
SEQEND
  5
19B
330
198
100
AcDbEntity
  8
_U+30EC_U+30A4_U+30E4_U+30FC 1
 62
   179
420
  2234388
370
     9
  0
INSERT
  5
19D
330
1F
100
AcDbEntity
  8
_U+30EC_U+30A4_U+30E4_U+30FC 1
100
AcDbBlockReference
  2
block 7
 10
0.0
 20
0.0
 30
0.0
  0
POLYLINE
  5
1C4
330
1F
100
AcDbEntity
  8
_U+30EC_U+30A4_U+30E4_U+30FC 1
  6
AI-Linetype-2
 62
   154
420
    23468
370
    25
100
AcDb2dPolyline
 66
     1
 10
0.0
 20
0.0
 30
0.0
  0
VERTEX
  5
1C5
330
1C4
100
AcDbEntity
  8
_U+30EC_U+30A4_U+30E4_U+30FC 1
  6
AI-Linetype-2
 62
   154
420
    23468
370
    25
100
AcDbVertex
100
AcDb2dVertex
 10
86.47462045838894
 20
-164.9061164443692
 30
0.0
  0
VERTEX
  5
1C6
330
1C4
100
AcDbEntity
  8
_U+30EC_U+30A4_U+30E4_U+30FC 1
  6
AI-Linetype-2
 62
   154
420
    23468
370
    25
100
AcDbVertex
100
AcDb2dVertex
 10
86.47462045838894
 20
-149.9060092127405
 30
0.0
  0
SEQEND
  5
1C8
330
1C4
100
AcDbEntity
  8
_U+30EC_U+30A4_U+30E4_U+30FC 1
  6
AI-Linetype-2
 62
   154
420
    23468
370
    25
  0
POLYLINE
  5
1C9
330
1F
100
AcDbEntity
  8
_U+30EC_U+30A4_U+30E4_U+30FC 1
 62
   179
420
  2234388
370
     9
100
AcDb2dPolyline
 66
     1
 10
0.0
 20
0.0
 30
0.0
  0
VERTEX
  5
1CA
330
1C9
100
AcDbEntity
  8
_U+30EC_U+30A4_U+30E4_U+30FC 1
 62
   179
420
  2234388
370
     9
100
AcDbVertex
100
AcDb2dVertex
 10
110.1419096777325
 20
-156.1032192263822
 30
0.0
  0
VERTEX
  5
1CB
330
1C9
100
AcDbEntity
  8
_U+30EC_U+30A4_U+30E4_U+30FC 1
 62
   179
420
  2234388
370
     9
100
AcDbVertex
100
AcDb2dVertex
 10
86.50226734965807
 20
-156.1032192263822
 30
0.0
  0
SEQEND
  5
1CC
330
1C9
100
AcDbEntity
  8
_U+30EC_U+30A4_U+30E4_U+30FC 1
 62
   179
420
  2234388
370
     9
  0
ENDSEC
  0
SECTION
  2
OBJECTS
  0
DICTIONARY
  5
C
330
0
100
AcDbDictionary
281
     1
  3
ACAD_GROUP
350
D
  3
ACAD_LAYOUT
350
1A
  3
ACAD_MATERIAL
350
3B
  3
ACAD_MLEADERSTYLE
350
1CE
  3
ACAD_MLINESTYLE
350
17
  3
ACAD_PLOTSETTINGS
350
19
  3
ACAD_PLOTSTYLENAME
350
E
  3
ACAD_TABLESTYLE
350
1CD
  3
ACAD_VISUALSTYLE
350
2A
  0
SUN
  5
3F
330
29
100
AcDbSun
 90
        1
290
     0
 63
     7
421
 16777215
 40
1.0
291
     1
 91
  2455826
 92
 54000000
292
     0
 70
     2
 71
   256
280
     1
  0
DICTIONARY
  5
D
102
{ACAD_REACTORS
330
C
102
}
330
C
100
AcDbDictionary
281
     1
  0
DICTIONARY
  5
1A
102
{ACAD_REACTORS
330
C
102
}
330
C
100
AcDbDictionary
281
     1
  3
Layout1
350
1E
  3
Layout2
350
26
  3
Model
350
22
  0
DICTIONARY
  5
3B
102
{ACAD_REACTORS
330
C
102
}
330
C
100
AcDbDictionary
281
     1
  3
ByBlock
350
3D
  3
ByLayer
350
3C
  3
Global
350
3E
  0
DICTIONARY
  5
1CE
102
{ACAD_REACTORS
330
C
102
}
330
C
100
AcDbDictionary
281
     1
  0
DICTIONARY
  5
17
102
{ACAD_REACTORS
330
C
102
}
330
C
100
AcDbDictionary
281
     1
  3
Standard
350
18
  0
DICTIONARY
  5
19
102
{ACAD_REACTORS
330
C
102
}
330
C
100
AcDbDictionary
281
     1
  0
ACDBDICTIONARYWDFLT
  5
E
102
{ACAD_REACTORS
330
C
102
}
330
C
100
AcDbDictionary
281
     1
  3
Normal
350
F
100
AcDbDictionaryWithDefault
340
F
  0
DICTIONARY
  5
1CD
102
{ACAD_REACTORS
330
C
102
}
330
C
100
AcDbDictionary
281
     1
  0
DICTIONARY
  5
2A
102
{ACAD_REACTORS
330
C
102
}
330
C
100
AcDbDictionary
281
     1
  3
2dWireframe
350
2F
  3
3D Hidden
350
31
  3
3dWireframe
350
30
  3
Basic
350
32
  3
Brighten
350
36
  3
ColorChange
350
3A
  3
Conceptual
350
34
  3
Dim
350
35
  3
Facepattern
350
39
  3
Flat
350
2B
  3
FlatWithEdges
350
2C
  3
Gouraud
350
2D
  3
GouraudWithEdges
350
2E
  3
Linepattern
350
38
  3
Realistic
350
33
  3
Thicken
350
37
  0
LAYOUT
  5
1E
102
{ACAD_REACTORS
330
1A
102
}
330
1A
100
AcDbPlotSettings
  1

  2
none_device
  4

  6

 40
0.0
 41
0.0
 42
0.0
 43
0.0
 44
0.0
 45
0.0
 46
0.0
 47
0.0
 48
0.0
 49
0.0
140
0.0
141
0.0
142
1.0
143
1.0
 70
   688
 72
     0
 73
     0
 74
     5
  7

 75
    16
 76
     0
 77
     2
 78
   300
147
1.0
148
0.0
149
0.0
100
AcDbLayout
  1
Layout1
 70
     1
 71
     1
 10
0.0
 20
0.0
 11
12.0
 21
9.0
 12
0.0
 22
0.0
 32
0.0
 14
1.000000000000000E+20
 24
1.000000000000000E+20
 34
1.000000000000000E+20
 15
-1.000000000000000E+20
 25
-1.000000000000000E+20
 35
-1.000000000000000E+20
146
0.0
 13
0.0
 23
0.0
 33
0.0
 16
1.0
 26
0.0
 36
0.0
 17
0.0
 27
1.0
 37
0.0
 76
     0
330
1B
  0
LAYOUT
  5
26
102
{ACAD_REACTORS
330
1A
102
}
330
1A
100
AcDbPlotSettings
  1

  2
none_device
  4

  6

 40
0.0
 41
0.0
 42
0.0
 43
0.0
 44
0.0
 45
0.0
 46
0.0
 47
0.0
 48
0.0
 49
0.0
140
0.0
141
0.0
142
1.0
143
1.0
 70
   688
 72
     0
 73
     0
 74
     5
  7

 75
    16
 76
     0
 77
     2
 78
   300
147
1.0
148
0.0
149
0.0
100
AcDbLayout
  1
Layout2
 70
     1
 71
     2
 10
0.0
 20
0.0
 11
0.0
 21
0.0
 12
0.0
 22
0.0
 32
0.0
 14
0.0
 24
0.0
 34
0.0
 15
0.0
 25
0.0
 35
0.0
146
0.0
 13
0.0
 23
0.0
 33
0.0
 16
1.0
 26
0.0
 36
0.0
 17
0.0
 27
1.0
 37
0.0
 76
     0
330
23
  0
LAYOUT
  5
22
102
{ACAD_REACTORS
330
1A
102
}
330
1A
100
AcDbPlotSettings
  1

  2
none_device
  4

  6

 40
0.0
 41
0.0
 42
0.0
 43
0.0
 44
0.0
 45
0.0
 46
0.0
 47
0.0
 48
0.0
 49
0.0
140
0.0
141
0.0
142
1.0
143
1.0
 70
  1712
 72
     0
 73
     0
 74
     0
  7

 75
     0
 76
     0
 77
     2
 78
   300
147
1.0
148
0.0
149
0.0
100
AcDbLayout
  1
Model
 70
     1
 71
     0
 10
0.0
 20
0.0
 11
12.0
 21
9.0
 12
0.0
 22
0.0
 32
0.0
 14
1.000000000000000E+20
 24
1.000000000000000E+20
 34
1.000000000000000E+20
 15
-1.000000000000000E+20
 25
-1.000000000000000E+20
 35
-1.000000000000000E+20
146
0.0
 13
0.0
 23
0.0
 33
0.0
 16
1.0
 26
0.0
 36
0.0
 17
0.0
 27
1.0
 37
0.0
 76
     0
330
1F
331
29
  0
MATERIAL
  5
3D
102
{ACAD_REACTORS
330
3B
102
}
330
3B
100
AcDbMaterial
  1
ByBlock
 72
     1
 94
      127
  0
MATERIAL
  5
3C
102
{ACAD_REACTORS
330
3B
102
}
330
3B
100
AcDbMaterial
  1
ByLayer
 72
     1
 94
      127
  0
MATERIAL
  5
3E
102
{ACAD_REACTORS
330
3B
102
}
330
3B
100
AcDbMaterial
  1
Global
 72
     1
 94
      127
  0
MLINESTYLE
  5
18
102
{ACAD_REACTORS
330
17
102
}
330
17
100
AcDbMlineStyle
  2
Standard
 70
     0
  3

 62
   256
 51
90.0
 52
90.0
 71
     2
 49
0.5
 62
   256
  6
BYLAYER
 49
-0.5
 62
   256
  6
BYLAYER
  0
ACDBPLACEHOLDER
  5
F
102
{ACAD_REACTORS
330
E
102
}
330
E
  0
VISUALSTYLE
  5
2F
102
{ACAD_REACTORS
330
2A
102
}
330
2A
100
AcDbVisualStyle
  2
2dWireframe
 70
     4
177
     2
291
     0
 71
     0
176
     1
 72
     2
176
     1
 73
     0
176
     1
 90
        0
176
     1
 40
-0.6
176
     1
 41
-30.0
176
     1
 62
     5
 63
     7
421
 16777215
176
     1
 74
     1
176
     1
 91
        4
176
     1
 64
     7
176
     1
 65
   257
176
     1
 75
     1
176
     1
175
     1
176
     1
 42
1.0
176
     1
 92
        0
176
     1
 66
   257
176
     1
 43
1.0
176
     1
 76
     1
176
     1
 77
     6
176
     1
 78
     2
176
     1
 67
     7
176
     1
 79
     5
176
     1
170
     0
176
     1
171
     0
176
     1
290
     0
176
     1
 93
        1
176
     1
 44
0.0
176
     1
173
     0
176
     1
  0
VISUALSTYLE
  5
31
102
{ACAD_REACTORS
330
2A
102
}
330
2A
100
AcDbVisualStyle
  2
3D Hidden
 70
     6
177
     2
291
     0
 71
     1
176
     1
 72
     2
176
     1
 73
     2
176
     1
 90
        0
176
     1
 40
-0.6
176
     1
 41
-30.0
176
     1
 62
     5
 63
     7
421
 16777215
176
     1
 74
     2
176
     1
 91
        2
176
     1
 64
     7
176
     1
 65
   257
176
     1
 75
     2
176
     1
175
     1
176
     1
 42
40.0
176
     1
 92
        0
176
     1
 66
   257
176
     1
 43
1.0
176
     1
 76
     1
176
     1
 77
     6
176
     1
 78
     2
176
     1
 67
     7
176
     1
 79
     3
176
     1
170
     0
176
     1
171
     0
176
     1
290
     0
176
     1
 93
        1
176
     1
 44
0.0
176
     1
173
     0
176
     1
  0
VISUALSTYLE
  5
30
102
{ACAD_REACTORS
330
2A
102
}
330
2A
100
AcDbVisualStyle
  2
3dWireframe
 70
     5
177
     2
291
     0
 71
     0
176
     1
 72
     2
176
     1
 73
     0
176
     1
 90
        0
176
     1
 40
-0.6
176
     1
 41
-30.0
176
     1
 62
     5
 63
     7
421
 16777215
176
     1
 74
     1
176
     1
 91
        4
176
     1
 64
     7
176
     1
 65
   257
176
     1
 75
     1
176
     1
175
     1
176
     1
 42
1.0
176
     1
 92
        0
176
     1
 66
   257
176
     1
 43
1.0
176
     1
 76
     1
176
     1
 77
     6
176
     1
 78
     2
176
     1
 67
     7
176
     1
 79
     5
176
     1
170
     0
176
     1
171
     0
176
     1
290
     0
176
     1
 93
        1
176
     1
 44
0.0
176
     1
173
     0
176
     1
  0
VISUALSTYLE
  5
32
102
{ACAD_REACTORS
330
2A
102
}
330
2A
100
AcDbVisualStyle
  2
Basic
 70
     7
177
     2
291
     1
 71
     1
176
     1
 72
     0
176
     1
 73
     1
176
     1
 90
        0
176
     1
 40
-0.6
176
     1
 41
-30.0
176
     1
 62
     5
 63
     7
421
 16777215
176
     1
 74
     0
176
     1
 91
        4
176
     1
 64
     7
176
     1
 65
   257
176
     1
 75
     1
176
     1
175
     1
176
     1
 42
1.0
176
     1
 92
        8
176
     1
 66
     7
176
     1
 43
1.0
176
     1
 76
     1
176
     1
 77
     6
176
     1
 78
     2
176
     1
 67
     7
176
     1
 79
     5
176
     1
170
     0
176
     1
171
     0
176
     1
290
     0
176
     1
 93
        1
176
     1
 44
0.0
176
     1
173
     0
176
     1
  0
VISUALSTYLE
  5
36
102
{ACAD_REACTORS
330
2A
102
}
330
2A
100
AcDbVisualStyle
  2
Brighten
 70
    12
177
     2
291
     1
 71
     2
176
     1
 72
     2
176
     1
 73
     0
176
     1
 90
        0
176
     1
 40
-0.6
176
     1
 41
-30.0
176
     1
 62
     5
 63
     7
421
 16777215
176
     1
 74
     1
176
     1
 91
        4
176
     1
 64
     7
176
     1
 65
   257
176
     1
 75
     1
176
     1
175
     1
176
     1
 42
1.0
176
     1
 92
        8
176
     1
 66
     7
176
     1
 43
1.0
176
     1
 76
     1
176
     1
 77
     6
176
     1
 78
     2
176
     1
 67
     7
176
     1
 79
     5
176
     1
170
     0
176
     1
171
     0
176
     1
290
     0
176
     1
 93
        1
176
     1
 44
50.0
176
     1
173
     0
176
     1
  0
VISUALSTYLE
  5
3A
102
{ACAD_REACTORS
330
2A
102
}
330
2A
100
AcDbVisualStyle
  2
ColorChange
 70
    16
177
     2
291
     1
 71
     2
176
     1
 72
     2
176
     1
 73
     3
176
     1
 90
        0
176
     1
 40
-0.6
176
     1
 41
-30.0
176
     1
 62
     5
 63
     8
421
  8421504
176
     1
 74
     1
176
     1
 91
        4
176
     1
 64
     7
176
     1
 65
   257
176
     1
 75
     1
176
     1
175
     1
176
     1
 42
1.0
176
     1
 92
        8
176
     1
 66
     8
424
  8421504
176
     1
 43
1.0
176
     1
 76
     1
176
     1
 77
     6
176
     1
 78
     2
176
     1
 67
     7
176
     1
 79
     5
176
     1
170
     0
176
     1
171
     0
176
     1
290
     0
176
     1
 93
        1
176
     1
 44
0.0
176
     1
173
     0
176
     1
  0
VISUALSTYLE
  5
34
102
{ACAD_REACTORS
330
2A
102
}
330
2A
100
AcDbVisualStyle
  2
Conceptual
 70
     9
177
     2
291
     0
 71
     3
176
     1
 72
     2
176
     1
 73
     0
176
     1
 90
        0
176
     1
 40
-0.6
176
     1
 41
-30.0
176
     1
 62
     5
 63
     7
421
 16777215
176
     1
 74
     2
176
     1
 91
        2
176
     1
 64
     7
176
     1
 65
   257
176
     1
 75
     1
176
     1
175
     1
176
     1
 42
40.0
176
     1
 92
        8
176
     1
 66
     7
176
     1
 43
1.0
176
     1
 76
     1
176
     1
 77
     6
176
     1
 78
     2
176
     1
 67
     7
176
     1
 79
     3
176
     1
170
     0
176
     1
171
     0
176
     1
290
     0
176
     1
 93
        1
176
     1
 44
0.0
176
     1
173
     0
176
     1
  0
VISUALSTYLE
  5
35
102
{ACAD_REACTORS
330
2A
102
}
330
2A
100
AcDbVisualStyle
  2
Dim
 70
    11
177
     2
291
     1
 71
     2
176
     1
 72
     2
176
     1
 73
     0
176
     1
 90
        0
176
     1
 40
-0.6
176
     1
 41
-30.0
176
     1
 62
     5
 63
     7
421
 16777215
176
     1
 74
     1
176
     1
 91
        4
176
     1
 64
     7
176
     1
 65
   257
176
     1
 75
     1
176
     1
175
     1
176
     1
 42
1.0
176
     1
 92
        8
176
     1
 66
     7
176
     1
 43
1.0
176
     1
 76
     1
176
     1
 77
     6
176
     1
 78
     2
176
     1
 67
     7
176
     1
 79
     5
176
     1
170
     0
176
     1
171
     0
176
     1
290
     0
176
     1
 93
        1
176
     1
 44
-50.0
176
     1
173
     0
176
     1
  0
VISUALSTYLE
  5
39
102
{ACAD_REACTORS
330
2A
102
}
330
2A
100
AcDbVisualStyle
  2
Facepattern
 70
    15
177
     2
291
     1
 71
     2
176
     1
 72
     2
176
     1
 73
     0
176
     1
 90
        0
176
     1
 40
-0.6
176
     1
 41
-30.0
176
     1
 62
     5
 63
     7
421
 16777215
176
     1
 74
     1
176
     1
 91
        4
176
     1
 64
     7
176
     1
 65
   257
176
     1
 75
     1
176
     1
175
     1
176
     1
 42
1.0
176
     1
 92
        8
176
     1
 66
     7
176
     1
 43
1.0
176
     1
 76
     1
176
     1
 77
     6
176
     1
 78
     2
176
     1
 67
     7
176
     1
 79
     5
176
     1
170
     0
176
     1
171
     0
176
     1
290
     0
176
     1
 93
        1
176
     1
 44
0.0
176
     1
173
     0
176
     1
  0
VISUALSTYLE
  5
2B
102
{ACAD_REACTORS
330
2A
102
}
330
2A
100
AcDbVisualStyle
  2
Flat
 70
     0
177
     2
291
     1
 71
     2
176
     1
 72
     1
176
     1
 73
     1
176
     1
 90
        2
176
     1
 40
-0.6
176
     1
 41
30.0
176
     1
 62
     5
 63
     7
421
 16777215
176
     1
 74
     0
176
     1
 91
        4
176
     1
 64
     7
176
     1
 65
   257
176
     1
 75
     1
176
     1
175
     1
176
     1
 42
1.0
176
     1
 92
        8
176
     1
 66
     7
176
     1
 43
1.0
176
     1
 76
     1
176
     1
 77
     6
176
     1
 78
     2
176
     1
 67
     7
176
     1
 79
     5
176
     1
170
     0
176
     1
171
     0
176
     1
290
     0
176
     1
 93
       13
176
     1
 44
0.0
176
     1
173
     0
176
     1
  0
VISUALSTYLE
  5
2C
102
{ACAD_REACTORS
330
2A
102
}
330
2A
100
AcDbVisualStyle
  2
FlatWithEdges
 70
     1
177
     2
291
     1
 71
     2
176
     1
 72
     1
176
     1
 73
     1
176
     1
 90
        2
176
     1
 40
-0.6
176
     1
 41
30.0
176
     1
 62
     5
 63
     7
421
 16777215
176
     1
 74
     1
176
     1
 91
        4
176
     1
 64
     7
176
     1
 65
   257
176
     1
 75
     1
176
     1
175
     1
176
     1
 42
1.0
176
     1
 92
        0
176
     1
 66
   257
176
     1
 43
1.0
176
     1
 76
     1
176
     1
 77
     6
176
     1
 78
     2
176
     1
 67
     7
176
     1
 79
     5
176
     1
170
     0
176
     1
171
     0
176
     1
290
     0
176
     1
 93
       13
176
     1
 44
0.0
176
     1
173
     0
176
     1
  0
VISUALSTYLE
  5
2D
102
{ACAD_REACTORS
330
2A
102
}
330
2A
100
AcDbVisualStyle
  2
Gouraud
 70
     2
177
     2
291
     1
 71
     2
176
     1
 72
     2
176
     1
 73
     1
176
     1
 90
        2
176
     1
 40
-0.6
176
     1
 41
30.0
176
     1
 62
     5
 63
     7
421
 16777215
176
     1
 74
     0
176
     1
 91
        4
176
     1
 64
     7
176
     1
 65
   257
176
     1
 75
     1
176
     1
175
     1
176
     1
 42
1.0
176
     1
 92
        0
176
     1
 66
     7
176
     1
 43
1.0
176
     1
 76
     1
176
     1
 77
     6
176
     1
 78
     2
176
     1
 67
     7
176
     1
 79
     5
176
     1
170
     0
176
     1
171
     0
176
     1
290
     0
176
     1
 93
       13
176
     1
 44
0.0
176
     1
173
     0
176
     1
  0
VISUALSTYLE
  5
2E
102
{ACAD_REACTORS
330
2A
102
}
330
2A
100
AcDbVisualStyle
  2
GouraudWithEdges
 70
     3
177
     2
291
     1
 71
     2
176
     1
 72
     2
176
     1
 73
     1
176
     1
 90
        2
176
     1
 40
-0.6
176
     1
 41
30.0
176
     1
 62
     5
 63
     7
421
 16777215
176
     1
 74
     1
176
     1
 91
        4
176
     1
 64
     7
176
     1
 65
   257
176
     1
 75
     1
176
     1
175
     1
176
     1
 42
1.0
176
     1
 92
        0
176
     1
 66
   257
176
     1
 43
1.0
176
     1
 76
     1
176
     1
 77
     6
176
     1
 78
     2
176
     1
 67
     7
176
     1
 79
     5
176
     1
170
     0
176
     1
171
     0
176
     1
290
     0
176
     1
 93
       13
176
     1
 44
0.0
176
     1
173
     0
176
     1
  0
VISUALSTYLE
  5
38
102
{ACAD_REACTORS
330
2A
102
}
330
2A
100
AcDbVisualStyle
  2
Linepattern
 70
    14
177
     2
291
     1
 71
     2
176
     1
 72
     2
176
     1
 73
     0
176
     1
 90
        0
176
     1
 40
-0.6
176
     1
 41
-30.0
176
     1
 62
     5
 63
     7
421
 16777215
176
     1
 74
     1
176
     1
 91
        4
176
     1
 64
     7
176
     1
 65
   257
176
     1
 75
     7
176
     1
175
     7
176
     1
 42
1.0
176
     1
 92
        8
176
     1
 66
     7
176
     1
 43
1.0
176
     1
 76
     1
176
     1
 77
     6
176
     1
 78
     2
176
     1
 67
     7
176
     1
 79
     5
176
     1
170
     0
176
     1
171
     0
176
     1
290
     0
176
     1
 93
        1
176
     1
 44
0.0
176
     1
173
     0
176
     1
  0
VISUALSTYLE
  5
33
102
{ACAD_REACTORS
330
2A
102
}
330
2A
100
AcDbVisualStyle
  2
Realistic
 70
     8
177
     2
291
     0
 71
     2
176
     1
 72
     2
176
     1
 73
     0
176
     1
 90
        0
176
     1
 40
-0.6
176
     1
 41
-30.0
176
     1
 62
     5
 63
     7
421
 16777215
176
     1
 74
     1
176
     1
 91
        0
176
     1
 64
     7
176
     1
 65
   257
176
     1
 75
     1
176
     1
175
     1
176
     1
 42
1.0
176
     1
 92
        8
176
     1
 66
     8
424
  7895160
176
     1
 43
1.0
176
     1
 76
     1
176
     1
 77
     6
176
     1
 78
     2
176
     1
 67
     7
176
     1
 79
     5
176
     1
170
     0
176
     1
171
     0
176
     1
290
     0
176
     1
 93
       13
176
     1
 44
0.0
176
     1
173
     0
176
     1
  0
VISUALSTYLE
  5
37
102
{ACAD_REACTORS
330
2A
102
}
330
2A
100
AcDbVisualStyle
  2
Thicken
 70
    13
177
     2
291
     1
 71
     2
176
     1
 72
     2
176
     1
 73
     0
176
     1
 90
        0
176
     1
 40
-0.6
176
     1
 41
-30.0
176
     1
 62
     5
 63
     7
421
 16777215
176
     1
 74
     1
176
     1
 91
        4
176
     1
 64
     7
176
     1
 65
   257
176
     1
 75
     1
176
     1
175
     1
176
     1
 42
1.0
176
     1
 92
       12
176
     1
 66
     7
176
     1
 43
1.0
176
     1
 76
     1
176
     1
 77
     6
176
     1
 78
     2
176
     1
 67
     7
176
     1
 79
     5
176
     1
170
     0
176
     1
171
     0
176
     1
290
     0
176
     1
 93
        1
176
     1
 44
0.0
176
     1
173
     0
176
     1
  0
ENDSEC
  0
EOF
