  0
SECTION
  2
HEADER
  9
$ACADVER
  1
AC1024
  9
$ACADMAINTVER
 70
     6
  9
$DWGCODEPAGE
  3
UNDEFINED
  9
$INSBASE
 10
0.0
 20
0.0
 30
0.0
  9
$EXTMIN
 10
1.000000000000000E+20
 20
1.000000000000000E+20
 30
1.000000000000000E+20
  9
$EXTMAX
 10
-1.000000000000000E+20
 20
-1.000000000000000E+20
 30
-1.000000000000000E+20
  9
$LIMMIN
 10
0.0
 20
0.0
  9
$LIMMAX
 10
12.0
 20
9.0
  9
$ORTHOMODE
 70
     0
  9
$REGENMODE
 70
     1
  9
$FILLMODE
 70
     1
  9
$QTEXTMODE
 70
     0
  9
$MIRRTEXT
 70
     1
  9
$LTSCALE
 40
1.0
  9
$ATTMODE
 70
     1
  9
$TEXTSIZE
 40
0.2
  9
$TRACEWID
 40
0.05
  9
$TEXTSTYLE
  7
Standard
  9
$CLAYER
  8
0
  9
$CELTYPE
  6
ByLayer
  9
$CECOLOR
 62
   256
  9
$CELTSCALE
 40
1.0
  9
$DISPSILH
 70
     0
  9
$DIMSCALE
 40
1.0
  9
$DIMASZ
 40
0.18
  9
$DIMEXO
 40
0.0625
  9
$DIMDLI
 40
0.38
  9
$DIMRND
 40
0.0
  9
$DIMDLE
 40
0.0
  9
$DIMEXE
 40
0.18
  9
$DIMTP
 40
0.0
  9
$DIMTM
 40
0.0
  9
$DIMTXT
 40
0.18
  9
$DIMCEN
 40
0.09
  9
$DIMTSZ
 40
0.0
  9
$DIMTOL
 70
     0
  9
$DIMLIM
 70
     0
  9
$DIMTIH
 70
     1
  9
$DIMTOH
 70
     1
  9
$DIMSE1
 70
     0
  9
$DIMSE2
 70
     0
  9
$DIMTAD
 70
     0
  9
$DIMZIN
 70
     0
  9
$DIMBLK
  1

  9
$DIMASO
 70
     1
  9
$DIMSHO
 70
     1
  9
$DIMPOST
  1

  9
$DIMAPOST
  1

  9
$DIMALT
 70
     0
  9
$DIMALTD
 70
     2
  9
$DIMALTF
 40
25.4
  9
$DIMLFAC
 40
1.0
  9
$DIMTOFL
 70
     0
  9
$DIMTVP
 40
0.0
  9
$DIMTIX
 70
     0
  9
$DIMSOXD
 70
     0
  9
$DIMSAH
 70
     0
  9
$DIMBLK1
  1

  9
$DIMBLK2
  1

  9
$DIMSTYLE
  2
Standard
  9
$DIMCLRD
 70
     0
  9
$DIMCLRE
 70
     0
  9
$DIMCLRT
 70
     0
  9
$DIMTFAC
 40
1.0
  9
$DIMGAP
 40
0.09
  9
$DIMJUST
 70
     0
  9
$DIMSD1
 70
     0
  9
$DIMSD2
 70
     0
  9
$DIMTOLJ
 70
     1
  9
$DIMTZIN
 70
     0
  9
$DIMALTZ
 70
     0
  9
$DIMALTTZ
 70
     0
  9
$DIMUPT
 70
     0
  9
$DIMDEC
 70
     4
  9
$DIMTDEC
 70
     4
  9
$DIMALTU
 70
     2
  9
$DIMALTTD
 70
     2
  9
$DIMTXSTY
  7
Standard
  9
$DIMAUNIT
 70
     0
  9
$DIMADEC
 70
     0
  9
$DIMALTRND
 40
0.0
  9
$DIMAZIN
 70
     0
  9
$DIMDSEP
 70
    46
  9
$DIMATFIT
 70
     3
  9
$DIMFRAC
 70
     0
  9
$DIMLDRBLK
  1

  9
$DIMLUNIT
 70
     2
  9
$DIMLWD
 70
    -2
  9
$DIMLWE
 70
    -2
  9
$DIMTMOVE
 70
     0
  9
$DIMFXL
 40
1.0
  9
$DIMFXLON
 70
     0
  9
$DIMJOGANG
 40
0.7853981633974483
  9
$DIMTFILL
 70
     0
  9
$DIMTFILLCLR
 70
     0
  9
$DIMARCSYM
 70
     0
  9
$DIMLTYPE
  6

  9
$DIMLTEX1
  6

  9
$DIMLTEX2
  6

  9
$DIMTXTDIRECTION
 70
     0
  9
$LUNITS
 70
     2
  9
$LUPREC
 70
     4
  9
$SKETCHINC
 40
0.1
  9
$FILLETRAD
 40
0.5
  9
$AUNITS
 70
     0
  9
$AUPREC
 70
     0
  9
$MENU
  1
.
  9
$ELEVATION
 40
0.0
  9
$PELEVATION
 40
0.0
  9
$THICKNESS
 40
0.0
  9
$LIMCHECK
 70
     0
  9
$CHAMFERA
 40
0.5
  9
$CHAMFERB
 40
0.5
  9
$CHAMFERC
 40
1.0
  9
$CHAMFERD
 40
0.0
  9
$SKPOLY
 70
     0
  9
$TDCREATE
 40
2458270.588148148
  9
$TDUCREATE
 40
2458270.213148148
  9
$TDUPDATE
 40
2458270.588148148
  9
$TDUUPDATE
 40
2458270.213148148
  9
$TDINDWG
 40
0.0000000116
  9
$TDUSRTIMER
 40
0.0000000116
  9
$USRTIMER
 70
     1
  9
$ANGBASE
 50
0.0
  9
$ANGDIR
 70
     0
  9
$PDMODE
 70
     0
  9
$PDSIZE
 40
0.0
  9
$PLINEWID
 40
0.0
  9
$SPLFRAME
 70
     0
  9
$SPLINETYPE
 70
     6
  9
$SPLINESEGS
 70
     8
  9
$HANDSEED
  5
1E4
  9
$SURFTAB1
 70
     6
  9
$SURFTAB2
 70
     6
  9
$SURFTYPE
 70
     6
  9
$SURFU
 70
     6
  9
$SURFV
 70
     6
  9
$UCSBASE
  2

  9
$UCSNAME
  2

  9
$UCSORG
 10
0.0
 20
0.0
 30
0.0
  9
$UCSXDIR
 10
1.0
 20
0.0
 30
0.0
  9
$UCSYDIR
 10
0.0
 20
1.0
 30
0.0
  9
$UCSORTHOREF
  2

  9
$UCSORTHOVIEW
 70
     0
  9
$UCSORGTOP
 10
0.0
 20
0.0
 30
0.0
  9
$UCSORGBOTTOM
 10
0.0
 20
0.0
 30
0.0
  9
$UCSORGLEFT
 10
0.0
 20
0.0
 30
0.0
  9
$UCSORGRIGHT
 10
0.0
 20
0.0
 30
0.0
  9
$UCSORGFRONT
 10
0.0
 20
0.0
 30
0.0
  9
$UCSORGBACK
 10
0.0
 20
0.0
 30
0.0
  9
$PUCSBASE
  2

  9
$PUCSNAME
  2

  9
$PUCSORG
 10
0.0
 20
0.0
 30
0.0
  9
$PUCSXDIR
 10
1.0
 20
0.0
 30
0.0
  9
$PUCSYDIR
 10
0.0
 20
1.0
 30
0.0
  9
$PUCSORTHOREF
  2

  9
$PUCSORTHOVIEW
 70
     0
  9
$PUCSORGTOP
 10
0.0
 20
0.0
 30
0.0
  9
$PUCSORGBOTTOM
 10
0.0
 20
0.0
 30
0.0
  9
$PUCSORGLEFT
 10
0.0
 20
0.0
 30
0.0
  9
$PUCSORGRIGHT
 10
0.0
 20
0.0
 30
0.0
  9
$PUCSORGFRONT
 10
0.0
 20
0.0
 30
0.0
  9
$PUCSORGBACK
 10
0.0
 20
0.0
 30
0.0
  9
$USERI1
 70
     0
  9
$USERI2
 70
     0
  9
$USERI3
 70
     0
  9
$USERI4
 70
     0
  9
$USERI5
 70
     0
  9
$USERR1
 40
0.0
  9
$USERR2
 40
0.0
  9
$USERR3
 40
0.0
  9
$USERR4
 40
0.0
  9
$USERR5
 40
0.0
  9
$WORLDVIEW
 70
     1
  9
$SHADEDGE
 70
     3
  9
$SHADEDIF
 70
    70
  9
$TILEMODE
 70
     1
  9
$MAXACTVP
 70
    64
  9
$PINSBASE
 10
0.0
 20
0.0
 30
0.0
  9
$PLIMCHECK
 70
     0
  9
$PEXTMIN
 10
1.000000000000000E+20
 20
1.000000000000000E+20
 30
1.000000000000000E+20
  9
$PEXTMAX
 10
-1.000000000000000E+20
 20
-1.000000000000000E+20
 30
-1.000000000000000E+20
  9
$PLIMMIN
 10
0.0
 20
0.0
  9
$PLIMMAX
 10
12.0
 20
9.0
  9
$UNITMODE
 70
     0
  9
$VISRETAIN
 70
     1
  9
$PLINEGEN
 70
     0
  9
$PSLTSCALE
 70
     1
  9
$TREEDEPTH
 70
  3020
  9
$CMLSTYLE
  2
Standard
  9
$CMLJUST
 70
     0
  9
$CMLSCALE
 40
1.0
  9
$PROXYGRAPHICS
 70
     1
  9
$MEASUREMENT
 70
     0
  9
$CELWEIGHT
370
    -1
  9
$ENDCAPS
280
     0
  9
$JOINSTYLE
280
     0
  9
$LWDISPLAY
290
     1
  9
$INSUNITS
 70
     1
  9
$HYPERLINKBASE
  1

  9
$STYLESHEET
  1

  9
$XEDIT
290
     1
  9
$CEPSNTYPE
380
     0
  9
$PSTYLEMODE
290
     1
  9
$FINGERPRINTGUID
  2
{79DB84D3-8CB3-D1DE-B99F-45FCD3DFBB7B}
  9
$VERSIONGUID
  2
{FAEB1C32-E019-11D5-929B-00C0DF256EC4}
  9
$EXTNAMES
290
     1
  9
$PSVPSCALE
 40
0.0
  9
$OLESTARTUP
290
     0
  9
$SORTENTS
280
   127
  9
$INDEXCTL
280
     0
  9
$HIDETEXT
280
     1
  9
$XCLIPFRAME
280
     2
  9
$HALOGAP
280
     0
  9
$OBSCOLOR
 70
   257
  9
$OBSLTYPE
280
     0
  9
$INTERSECTIONDISPLAY
280
     0
  9
$INTERSECTIONCOLOR
 70
   257
  9
$DIMASSOC
280
     2
  9
$PROJECTNAME
  1

  9
$CAMERADISPLAY
290
     0
  9
$LENSLENGTH
 40
50.0
  9
$CAMERAHEIGHT
 40
0.0
  9
$STEPSPERSEC
 40
2.0
  9
$STEPSIZE
 40
6.0
  9
$3DDWFPREC
 40
2.0
  9
$PSOLWIDTH
 40
0.25
  9
$PSOLHEIGHT
 40
4.0
  9
$LOFTANG1
 40
1.570796326794897
  9
$LOFTANG2
 40
1.570796326794897
  9
$LOFTMAG1
 40
0.0
  9
$LOFTMAG2
 40
0.0
  9
$LOFTPARAM
 70
     7
  9
$LOFTNORMALS
280
     1
  9
$LATITUDE
 40
37.795
  9
$LONGITUDE
 40
-122.394
  9
$NORTHDIRECTION
 40
0.0
  9
$TIMEZONE
 70
 -8000
  9
$LIGHTGLYPHDISPLAY
280
     1
  9
$TILEMODELIGHTSYNCH
280
     1
  9
$CMATERIAL
347
3C
  9
$SOLIDHIST
280
     1
  9
$SHOWHIST
280
     1
  9
$DWFFRAME
280
     2
  9
$DGNFRAME
280
     2
  9
$REALWORLDSCALE
290
     1
  9
$INTERFERECOLOR
 62
   256
  9
$CSHADOW
280
     0
  9
$SHADOWPLANELOCATION
 40
0.0
  0
ENDSEC
  0
SECTION
  2
CLASSES
  0
CLASS
  1
ACDBDICTIONARYWDFLT
  2
AcDbDictionaryWithDefault
  3
ObjectDBX Classes
 90
        0
 91
        4
280
     0
281
     0
  0
CLASS
  1
VISUALSTYLE
  2
AcDbVisualStyle
  3
ObjectDBX Classes
 90
     4095
 91
        4
280
     0
281
     0
  0
CLASS
  1
MATERIAL
  2
AcDbMaterial
  3
ObjectDBX Classes
 90
     1153
 91
        4
280
     0
281
     0
  0
CLASS
  1
SUN
  2
AcDbSun
  3
SCENEOE
 90
     1024
 91
        4
280
     0
281
     0
  0
ENDSEC
  0
SECTION
  2
TABLES
  0
TABLE
  2
VPORT
  5
8
330
0
100
AcDbSymbolTable
 70
     1
  0
VPORT
  5
29
330
8
100
AcDbSymbolTableRecord
100
AcDbViewportTableRecord
  2
*Active
 70
     0
 10
0.0
 20
0.0
 11
1.0
 21
1.0
 12
0.0
 22
0.0
 13
0.0
 23
0.0
 14
0.5
 24
0.5
 15
0.5
 25
0.5
 16
0.0
 26
0.0
 36
1.0
 17
105.0007777515277
 27
-148.5000416295416
 37
0.0
 40
297.0000832590831
 41
0.7070757462376333
 42
50.0
 43
0.0
 44
0.0
 50
0.0
 51
0.0
 71
     0
 72
   100
 73
     1
 74
     3
 75
     0
 76
     0
 77
     0
 78
     0
281
     0
 65
     1
110
0.0
120
0.0
130
0.0
111
1.0
121
0.0
131
0.0
112
0.0
122
1.0
132
0.0
 79
     0
146
0.0
 60
     3
 61
     5
292
     1
282
     1
141
0.0
142
0.0
 63
   250
361
3F
  0
ENDTAB
  0
TABLE
  2
LTYPE
  5
5
330
0
100
AcDbSymbolTable
 70
     2
  0
LTYPE
  5
14
330
5
100
AcDbSymbolTableRecord
100
AcDbLinetypeTableRecord
  2
ByBlock
 70
     0
  3

 72
    65
 73
     0
 40
0.0
  0
LTYPE
  5
15
330
5
100
AcDbSymbolTableRecord
100
AcDbLinetypeTableRecord
  2
ByLayer
 70
     0
  3

 72
    65
 73
     0
 40
0.0
  0
LTYPE
  5
16
330
5
100
AcDbSymbolTableRecord
100
AcDbLinetypeTableRecord
  2
Continuous
 70
     0
  3
Solid line
 72
    65
 73
     0
 40
0.0
  0
LTYPE
  5
1E0
330
5
100
AcDbSymbolTableRecord
100
AcDbLinetypeTableRecord
  2
AI-Linetype-1
 70
     0
  3
Adobe Illustrator Linetype No. 1
 72
    65
 73
     2
 40
1.411111110758333
 49
0.7055555553791667
 74
     0
 49
-0.7055555553791667
 74
     0
  0
ENDTAB
  0
TABLE
  2
LAYER
  5
2
330
0
100
AcDbSymbolTable
 70
     2
  0
LAYER
  5
10
330
2
100
AcDbSymbolTableRecord
100
AcDbLayerTableRecord
  2
0
 70
     0
 62
     7
  6
Continuous
370
    -3
390
F
347
3E
  0
LAYER
  5
40
330
2
100
AcDbSymbolTableRecord
100
AcDbLayerTableRecord
  2
_U+30EC_U+30A4_U+30E4_U+30FC 1
 70
     0
 62
     7
  6
Continuous
370
    -3
390
F
347
3E
  0
ENDTAB
  0
TABLE
  2
STYLE
  5
3
330
0
100
AcDbSymbolTable
 70
     1
  0
STYLE
  5
11
330
3
100
AcDbSymbolTableRecord
100
AcDbTextStyleTableRecord
  2
Standard
 70
     0
 40
0.0
 41
1.0
 50
0.0
 71
     0
 42
0.2
  3
txt
  4

  0
ENDTAB
  0
TABLE
  2
VIEW
  5
6
330
0
100
AcDbSymbolTable
 70
     0
  0
ENDTAB
  0
TABLE
  2
UCS
  5
7
330
0
100
AcDbSymbolTable
 70
     0
  0
ENDTAB
  0
TABLE
  2
APPID
  5
9
330
0
100
AcDbSymbolTable
 70
     1
  0
APPID
  5
12
330
9
100
AcDbSymbolTableRecord
100
AcDbRegAppTableRecord
  2
ACAD
 70
     0
  0
ENDTAB
  0
TABLE
  2
DIMSTYLE
  5
A
330
0
100
AcDbSymbolTable
 70
     1
100
AcDbDimStyleTable
  0
DIMSTYLE
105
27
330
A
100
AcDbSymbolTableRecord
100
AcDbDimStyleTableRecord
  2
Standard
 70
     0
178
     0
340
11
  0
ENDTAB
  0
TABLE
  2
BLOCK_RECORD
  5
1
330
0
100
AcDbSymbolTable
 70
     8
  0
BLOCK_RECORD
  5
1F
330
1
100
AcDbSymbolTableRecord
100
AcDbBlockTableRecord
  2
*Model_Space
340
22
 70
     0
280
     1
281
     0
  0
BLOCK_RECORD
  5
1B
330
1
100
AcDbSymbolTableRecord
100
AcDbBlockTableRecord
  2
*Paper_Space
340
1E
 70
     0
280
     1
281
     0
  0
BLOCK_RECORD
  5
23
330
1
100
AcDbSymbolTableRecord
100
AcDbBlockTableRecord
  2
*Paper_Space0
340
26
 70
     0
280
     1
281
     0
  0
BLOCK_RECORD
  5
4F
330
1
100
AcDbSymbolTableRecord
100
AcDbBlockTableRecord
  2
block 2
340
0
102
{BLKREFS
331
50
102
}
 70
     0
280
     1
281
     0
  0
BLOCK_RECORD
  5
E2
330
1
100
AcDbSymbolTableRecord
100
AcDbBlockTableRecord
  2
block 3
340
0
102
{BLKREFS
331
E3
102
}
 70
     0
280
     1
281
     0
  0
BLOCK_RECORD
  5
F9
330
1
100
AcDbSymbolTableRecord
100
AcDbBlockTableRecord
  2
block 4
340
0
102
{BLKREFS
331
FA
102
}
 70
     0
280
     1
281
     0
  0
BLOCK_RECORD
  5
10C
330
1
100
AcDbSymbolTableRecord
100
AcDbBlockTableRecord
  2
block 5
340
0
102
{BLKREFS
331
10D
102
}
 70
     0
280
     1
281
     0
  0
BLOCK_RECORD
  5
131
330
1
100
AcDbSymbolTableRecord
100
AcDbBlockTableRecord
  2
block 6
340
0
102
{BLKREFS
331
132
102
}
 70
     0
280
     1
281
     0
  0
BLOCK_RECORD
  5
196
330
1
100
AcDbSymbolTableRecord
100
AcDbBlockTableRecord
  2
block 7
340
0
102
{BLKREFS
331
197
102
}
 70
     0
280
     1
281
     0
  0
BLOCK_RECORD
  5
1C5
330
1
100
AcDbSymbolTableRecord
100
AcDbBlockTableRecord
  2
block 8
340
0
102
{BLKREFS
331
1C6
102
}
 70
     0
280
     1
281
     0
  0
ENDTAB
  0
ENDSEC
  0
SECTION
  2
BLOCKS
  0
BLOCK
  5
20
330
1F
100
AcDbEntity
  8
0
100
AcDbBlockBegin
  2
*Model_Space
 70
     0
 10
0.0
 20
0.0
 30
0.0
  3
*Model_Space
  1

  0
ENDBLK
  5
21
330
1F
100
AcDbEntity
  8
0
100
AcDbBlockEnd
  0
BLOCK
  5
1C
330
1B
100
AcDbEntity
 67
     1
  8
0
100
AcDbBlockBegin
  2
*Paper_Space
 70
     0
 10
0.0
 20
0.0
 30
0.0
  3
*Paper_Space
  1

  0
ENDBLK
  5
1D
330
1B
100
AcDbEntity
 67
     1
  8
0
100
AcDbBlockEnd
  0
BLOCK
  5
24
330
23
100
AcDbEntity
  8
0
100
AcDbBlockBegin
  2
*Paper_Space0
 70
     0
 10
0.0
 20
0.0
 30
0.0
  3
*Paper_Space0
  1

  0
ENDBLK
  5
25
330
23
100
AcDbEntity
  8
0
100
AcDbBlockEnd
  0
BLOCK
  5
51
330
4F
100
AcDbEntity
  8
0
100
AcDbBlockBegin
  2
block 2
 70
     0
 10
0.0
 20
0.0
 30
0.0
  3
block 2
  1

  0
SPLINE
  5
53
330
4F
100
AcDbEntity
  8
_U+30EC_U+30A4_U+30E4_U+30FC 1
370
     0
100
AcDbSpline
210
0.0
220
0.0
230
1.0
 70
    11
 71
     3
 72
    32
 73
    28
 74
     0
 42
0.0000000001
 43
0.0000000001
 12
1.0
 22
0.0
 32
0.0
 13
1.0
 23
0.0
 33
0.0
 40
0.0
 40
0.0
 40
0.0
 40
0.0
 40
1.0
 40
1.0
 40
1.0
 40
2.0
 40
2.0
 40
2.0
 40
3.0
 40
3.0
 40
3.0
 40
4.0
 40
4.0
 40
4.0
 40
5.0
 40
5.0
 40
5.0
 40
6.0
 40
6.0
 40
6.0
 40
7.0
 40
7.0
 40
7.0
 40
8.0
 40
8.0
 40
8.0
 40
9.0
 40
9.0
 40
9.0
 40
9.0
 10
92.8808078109812
 20
-165.1792371548858
 30
0.0
 10
92.36473250729077
 20
-165.1792371548858
 30
0.0
 10
92.35611976857764
 20
-164.6249212913091
 30
0.0
 10
92.35611976857764
 20
-164.4113253712236
 30
0.0
 10
92.35611976857764
 20
-164.1808484832603
 30
0.0
 10
92.37541230329504
 20
-163.5335150415819
 30
0.0
 10
92.91904837086746
 20
-163.5335150415819
 30
0.0
 10
93.09233667377553
 20
-163.5335150415819
 30
0.0
 10
93.33797198187385
 20
-163.603105970384
 30
0.0
 10
93.3758680322116
 20
-163.935213175162
 30
0.0
 10
93.3758680322116
 20
-163.935213175162
 30
0.0
 10
93.1622721121261
 20
-163.935213175162
 30
0.0
 10
93.1622721121261
 20
-163.935213175162
 30
0.0
 10
93.15159231612184
 20
-163.8783690996554
 30
0.0
 10
93.11989743765753
 20
-163.7302299937897
 30
0.0
 10
92.91698131357631
 20
-163.7302299937897
 30
0.0
 10
92.62483721642712
 20
-163.7302299937897
 30
0.0
 10
92.58487410879823
 20
-164.0582030839855
 30
0.0
 10
92.5721272555028
 20
-164.2631862653578
 30
0.0
 10
92.66514483360456
 20
-164.1849825978427
 30
0.0
 10
92.73301321466397
 20
-164.1257269554964
 30
0.0
 10
92.91491425628516
 20
-164.1257269554964
 30
0.0
 10
93.0947482406152
 20
-164.1257269554964
 30
0.0
 10
93.39722762422014
 20
-164.2335584441847
 30
0.0
 10
93.39722762422014
 20
-164.6397352018956
 30
0.0
 10
93.39722762422014
 20
-164.9590955533783
 30
0.0
 10
93.1981011051727
 20
-165.1792371548858
 30
0.0
 10
92.8808078109812
 20
-165.1792371548858
 30
0.0
  0
SPLINE
  5
54
330
4F
100
AcDbEntity
  8
_U+30EC_U+30A4_U+30E4_U+30FC 1
370
     0
100
AcDbSpline
210
0.0
220
0.0
230
1.0
 70
    11
 71
     3
 72
    17
 73
    13
 74
     0
 42
0.0000000001
 43
0.0000000001
 12
1.0
 22
0.0
 32
0.0
 13
1.0
 23
0.0
 33
0.0
 40
0.0
 40
0.0
 40
0.0
 40
0.0
 40
1.0
 40
1.0
 40
1.0
 40
2.0
 40
2.0
 40
2.0
 40
3.0
 40
3.0
 40
3.0
 40
4.0
 40
4.0
 40
4.0
 40
4.0
 10
92.89768877885892
 20
-164.320374850413
 30
0.0
 10
92.63551701243141
 20
-164.320374850413
 30
0.0
 10
92.59762096209366
 20
-164.5319037132073
 30
0.0
 10
92.59762096209366
 20
-164.6483479406087
 30
0.0
 10
92.59762096209366
 20
-164.823703300808
 30
0.0
 10
92.69270559748655
 20
-164.9866563172603
 30
0.0
 10
92.8766736963989
 20
-164.9866563172603
 30
0.0
 10
92.99725203838264
 20
-164.9866563172603
 30
0.0
 10
93.17295190813037
 20
-164.927400674914
 30
0.0
 10
93.17295190813037
 20
-164.6418022591868
 30
0.0
 10
93.17295190813037
 20
-164.417526543097
 30
0.0
 10
93.03342554097776
 20
-164.320374850413
 30
0.0
 10
92.89768877885892
 20
-164.320374850413
 30
0.0
  0
HATCH
  5
55
330
4F
100
AcDbEntity
  8
_U+30EC_U+30A4_U+30E4_U+30FC 1
 62
   179
420
  2234388
100
AcDbHatch
 10
0.0
 20
0.0
 30
0.0
210
0.0
220
0.0
230
1.0
  2
SOLID
 70
     1
 71
     0
 91
        2
 92
        1
 93
        1
 72
     4
 94
        3
 73
     0
 74
     1
 95
       32
 96
       28
 40
0.0
 40
0.0
 40
0.0
 40
0.0
 40
1.0
 40
1.0
 40
1.0
 40
2.0
 40
2.0
 40
2.0
 40
3.0
 40
3.0
 40
3.0
 40
4.0
 40
4.0
 40
4.0
 40
5.0
 40
5.0
 40
5.0
 40
6.0
 40
6.0
 40
6.0
 40
7.0
 40
7.0
 40
7.0
 40
8.0
 40
8.0
 40
8.0
 40
9.0
 40
9.0
 40
9.0
 40
9.0
 10
92.8808078109812
 20
-165.1792371548858
 10
92.36473250729077
 20
-165.1792371548858
 10
92.35611976857764
 20
-164.6249212913091
 10
92.35611976857764
 20
-164.4113253712236
 10
92.35611976857764
 20
-164.1808484832603
 10
92.37541230329504
 20
-163.5335150415819
 10
92.91904837086746
 20
-163.5335150415819
 10
93.09233667377553
 20
-163.5335150415819
 10
93.33797198187385
 20
-163.603105970384
 10
93.3758680322116
 20
-163.935213175162
 10
93.3758680322116
 20
-163.935213175162
 10
93.1622721121261
 20
-163.935213175162
 10
93.1622721121261
 20
-163.935213175162
 10
93.15159231612184
 20
-163.8783690996554
 10
93.11989743765753
 20
-163.7302299937897
 10
92.91698131357631
 20
-163.7302299937897
 10
92.62483721642712
 20
-163.7302299937897
 10
92.58487410879823
 20
-164.0582030839855
 10
92.5721272555028
 20
-164.2631862653578
 10
92.66514483360456
 20
-164.1849825978427
 10
92.73301321466397
 20
-164.1257269554964
 10
92.91491425628516
 20
-164.1257269554964
 10
93.0947482406152
 20
-164.1257269554964
 10
93.39722762422014
 20
-164.2335584441847
 10
93.39722762422014
 20
-164.6397352018956
 10
93.39722762422014
 20
-164.9590955533783
 10
93.1981011051727
 20
-165.1792371548858
 10
92.8808078109812
 20
-165.1792371548858
 97
        0
 97
        0
 92
        1
 93
        1
 72
     4
 94
        3
 73
     0
 74
     1
 95
       17
 96
       13
 40
0.0
 40
0.0
 40
0.0
 40
0.0
 40
1.0
 40
1.0
 40
1.0
 40
2.0
 40
2.0
 40
2.0
 40
3.0
 40
3.0
 40
3.0
 40
4.0
 40
4.0
 40
4.0
 40
4.0
 10
92.89768877885892
 20
-164.320374850413
 10
92.63551701243141
 20
-164.320374850413
 10
92.59762096209366
 20
-164.5319037132073
 10
92.59762096209366
 20
-164.6483479406087
 10
92.59762096209366
 20
-164.823703300808
 10
92.69270559748655
 20
-164.9866563172603
 10
92.8766736963989
 20
-164.9866563172603
 10
92.99725203838264
 20
-164.9866563172603
 10
93.17295190813037
 20
-164.927400674914
 10
93.17295190813037
 20
-164.6418022591868
 10
93.17295190813037
 20
-164.417526543097
 10
93.03342554097776
 20
-164.320374850413
 10
92.89768877885892
 20
-164.320374850413
 97
        0
 97
        0
 75
     2
 76
     1
 98
        0
  0
ENDBLK
  5
52
330
4F
100
AcDbEntity
  8
0
100
AcDbBlockEnd
  0
BLOCK
  5
E4
330
E2
100
AcDbEntity
  8
0
100
AcDbBlockBegin
  2
block 3
 70
     0
 10
0.0
 20
0.0
 30
0.0
  3
block 3
  1

  0
SPLINE
  5
E6
330
E2
100
AcDbEntity
  8
_U+30EC_U+30A4_U+30E4_U+30FC 1
370
     0
100
AcDbSpline
210
0.0
220
0.0
230
1.0
 70
    11
 71
     3
 72
    44
 73
    40
 74
     0
 42
0.0000000001
 43
0.0000000001
 12
1.0
 22
0.0
 32
0.0
 13
1.0
 23
0.0
 33
0.0
 40
0.0
 40
0.0
 40
0.0
 40
0.0
 40
1.0
 40
1.0
 40
1.0
 40
2.0
 40
2.0
 40
2.0
 40
3.0
 40
3.0
 40
3.0
 40
4.0
 40
4.0
 40
4.0
 40
5.0
 40
5.0
 40
5.0
 40
6.0
 40
6.0
 40
6.0
 40
7.0
 40
7.0
 40
7.0
 40
8.0
 40
8.0
 40
8.0
 40
9.0
 40
9.0
 40
9.0
 40
10.0
 40
10.0
 40
10.0
 40
11.0
 40
11.0
 40
11.0
 40
12.0
 40
12.0
 40
12.0
 40
13.0
 40
13.0
 40
13.0
 40
13.0
 10
109.5840087616665
 20
-132.3901963644719
 30
0.0
 10
109.3662787269987
 20
-132.5488430115677
 30
0.0
 10
109.273261148897
 20
-132.6229125645005
 30
0.0
 10
109.2243407930064
 20
-132.7667453010097
 30
0.0
 10
109.2243407930064
 20
-132.7667453010097
 30
0.0
 10
110.0029323726729
 20
-132.7667453010097
 30
0.0
 10
110.0029323726729
 20
-132.7667453010097
 30
0.0
 10
110.0029323726729
 20
-132.7667453010097
 30
0.0
 10
110.0029323726729
 20
-132.9719007371563
 30
0.0
 10
110.0029323726729
 20
-132.9719007371563
 30
0.0
 10
110.0029323726729
 20
-132.9719007371563
 30
0.0
 10
108.9749158798743
 20
-132.9719007371563
 30
0.0
 10
108.9749158798743
 20
-132.9719007371563
 30
0.0
 10
109.0066107583386
 20
-132.6142998257874
 30
0.0
 10
109.0720675725584
 20
-132.5360961582722
 30
0.0
 10
109.4572292478093
 20
-132.2377508892496
 30
0.0
 10
109.7131998423634
 20
-132.0389688797507
 30
0.0
 10
109.7786566565831
 20
-131.9712727534655
 30
0.0
 10
109.7786566565831
 20
-131.833813443604
 30
0.0
 10
109.7786566565831
 20
-131.7153021589115
 30
0.0
 10
109.7066541609414
 20
-131.5842162756977
 30
0.0
 10
109.5099392087336
 20
-131.5842162756977
 30
0.0
 10
109.2498344995973
 20
-131.5842162756977
 30
0.0
 10
109.2412217608841
 20
-131.8146931636609
 30
0.0
 10
109.2370876463018
 20
-131.9311373910624
 30
0.0
 10
109.2370876463018
 20
-131.9311373910624
 30
0.0
 10
109.0128119302121
 20
-131.9311373910624
 30
0.0
 10
109.0128119302121
 20
-131.9311373910624
 30
0.0
 10
109.0214246689252
 20
-131.8041856224309
 30
0.0
 10
109.0321044649295
 20
-131.692047764386
 30
0.0
 10
109.1123751897358
 20
-131.5735364796934
 30
0.0
 10
109.2222737357153
 20
-131.4128227753065
 30
0.0
 10
109.4086534014673
 20
-131.3788885847768
 30
0.0
 10
109.5247531193202
 20
-131.3788885847768
 30
0.0
 10
109.8020833058828
 20
-131.3788885847768
 30
0.0
 10
110.0094780540949
 20
-131.5630289384634
 30
0.0
 10
110.0094780540949
 20
-131.8358805008952
 30
0.0
 10
110.0094780540949
 20
-132.0642903315673
 30
0.0
 10
109.8930338266934
 20
-132.163853591091
 30
0.0
 10
109.5840087616665
 20
-132.3901963644719
 30
0.0
  0
HATCH
  5
E7
330
E2
100
AcDbEntity
  8
_U+30EC_U+30A4_U+30E4_U+30FC 1
 62
   179
420
  2234388
100
AcDbHatch
 10
0.0
 20
0.0
 30
0.0
210
0.0
220
0.0
230
1.0
  2
SOLID
 70
     1
 71
     0
 91
        1
 92
        1
 93
        1
 72
     4
 94
        3
 73
     0
 74
     1
 95
       44
 96
       40
 40
0.0
 40
0.0
 40
0.0
 40
0.0
 40
1.0
 40
1.0
 40
1.0
 40
2.0
 40
2.0
 40
2.0
 40
3.0
 40
3.0
 40
3.0
 40
4.0
 40
4.0
 40
4.0
 40
5.0
 40
5.0
 40
5.0
 40
6.0
 40
6.0
 40
6.0
 40
7.0
 40
7.0
 40
7.0
 40
8.0
 40
8.0
 40
8.0
 40
9.0
 40
9.0
 40
9.0
 40
10.0
 40
10.0
 40
10.0
 40
11.0
 40
11.0
 40
11.0
 40
12.0
 40
12.0
 40
12.0
 40
13.0
 40
13.0
 40
13.0
 40
13.0
 10
109.5840087616665
 20
-132.3901963644719
 10
109.3662787269987
 20
-132.5488430115677
 10
109.273261148897
 20
-132.6229125645005
 10
109.2243407930064
 20
-132.7667453010097
 10
109.2243407930064
 20
-132.7667453010097
 10
110.0029323726729
 20
-132.7667453010097
 10
110.0029323726729
 20
-132.7667453010097
 10
110.0029323726729
 20
-132.7667453010097
 10
110.0029323726729
 20
-132.9719007371563
 10
110.0029323726729
 20
-132.9719007371563
 10
110.0029323726729
 20
-132.9719007371563
 10
108.9749158798743
 20
-132.9719007371563
 10
108.9749158798743
 20
-132.9719007371563
 10
109.0066107583386
 20
-132.6142998257874
 10
109.0720675725584
 20
-132.5360961582722
 10
109.4572292478093
 20
-132.2377508892496
 10
109.7131998423634
 20
-132.0389688797507
 10
109.7786566565831
 20
-131.9712727534655
 10
109.7786566565831
 20
-131.833813443604
 10
109.7786566565831
 20
-131.7153021589115
 10
109.7066541609414
 20
-131.5842162756977
 10
109.5099392087336
 20
-131.5842162756977
 10
109.2498344995973
 20
-131.5842162756977
 10
109.2412217608841
 20
-131.8146931636609
 10
109.2370876463018
 20
-131.9311373910624
 10
109.2370876463018
 20
-131.9311373910624
 10
109.0128119302121
 20
-131.9311373910624
 10
109.0128119302121
 20
-131.9311373910624
 10
109.0214246689252
 20
-131.8041856224309
 10
109.0321044649295
 20
-131.692047764386
 10
109.1123751897358
 20
-131.5735364796934
 10
109.2222737357153
 20
-131.4128227753065
 10
109.4086534014673
 20
-131.3788885847768
 10
109.5247531193202
 20
-131.3788885847768
 10
109.8020833058828
 20
-131.3788885847768
 10
110.0094780540949
 20
-131.5630289384634
 10
110.0094780540949
 20
-131.8358805008952
 10
110.0094780540949
 20
-132.0642903315673
 10
109.8930338266934
 20
-132.163853591091
 10
109.5840087616665
 20
-132.3901963644719
 97
        0
 97
        0
 75
     2
 76
     1
 98
        0
  0
SPLINE
  5
E8
330
E2
100
AcDbEntity
  8
_U+30EC_U+30A4_U+30E4_U+30FC 1
370
     0
100
AcDbSpline
210
0.0
220
0.0
230
1.0
 70
    11
 71
     3
 72
    32
 73
    28
 74
     0
 42
0.0000000001
 43
0.0000000001
 12
1.0
 22
0.0
 32
0.0
 13
1.0
 23
0.0
 33
0.0
 40
0.0
 40
0.0
 40
0.0
 40
0.0
 40
1.0
 40
1.0
 40
1.0
 40
2.0
 40
2.0
 40
2.0
 40
3.0
 40
3.0
 40
3.0
 40
4.0
 40
4.0
 40
4.0
 40
5.0
 40
5.0
 40
5.0
 40
6.0
 40
6.0
 40
6.0
 40
7.0
 40
7.0
 40
7.0
 40
8.0
 40
8.0
 40
8.0
 40
9.0
 40
9.0
 40
9.0
 40
9.0
 10
110.6719699159084
 20
-133.0227158955638
 30
0.0
 10
110.155894612218
 20
-133.0227158955638
 30
0.0
 10
110.1472818735049
 20
-132.4684000319871
 30
0.0
 10
110.1472818735049
 20
-132.2548041119016
 30
0.0
 10
110.1472818735049
 20
-132.0241549691641
 30
0.0
 10
110.1665744082222
 20
-131.3768215274857
 30
0.0
 10
110.7102104757947
 20
-131.3768215274857
 30
0.0
 10
110.8834987787027
 20
-131.3768215274857
 30
0.0
 10
111.1291340868011
 20
-131.446584711062
 30
0.0
 10
111.1670301371388
 20
-131.7786919158401
 30
0.0
 10
111.1670301371388
 20
-131.7786919158401
 30
0.0
 10
110.9534342170533
 20
-131.7786919158401
 30
0.0
 10
110.9534342170533
 20
-131.7786919158401
 30
0.0
 10
110.942754421049
 20
-131.7216755855592
 30
0.0
 10
110.9110595425847
 20
-131.5735364796934
 30
0.0
 10
110.7081434185035
 20
-131.5735364796934
 30
0.0
 10
110.4159993213543
 20
-131.5735364796934
 30
0.0
 10
110.3760362137254
 20
-131.9015095698892
 30
0.0
 10
110.36328936043
 20
-132.1066650060358
 30
0.0
 10
110.4563069385318
 20
-132.0284613385207
 30
0.0
 10
110.5241753195912
 20
-131.9692056961744
 30
0.0
 10
110.7060763612124
 20
-131.9692056961744
 30
0.0
 10
110.8859103455424
 20
-131.9692056961744
 30
0.0
 10
111.1883897291473
 20
-132.0770371848627
 30
0.0
 10
111.1883897291473
 20
-132.4832139425737
 30
0.0
 10
111.1883897291473
 20
-132.8027465488306
 30
0.0
 10
110.9892632100999
 20
-133.0227158955638
 30
0.0
 10
110.6719699159084
 20
-133.0227158955638
 30
0.0
  0
SPLINE
  5
E9
330
E2
100
AcDbEntity
  8
_U+30EC_U+30A4_U+30E4_U+30FC 1
370
     0
100
AcDbSpline
210
0.0
220
0.0
230
1.0
 70
    11
 71
     3
 72
    17
 73
    13
 74
     0
 42
0.0000000001
 43
0.0000000001
 12
1.0
 22
0.0
 32
0.0
 13
1.0
 23
0.0
 33
0.0
 40
0.0
 40
0.0
 40
0.0
 40
0.0
 40
1.0
 40
1.0
 40
1.0
 40
2.0
 40
2.0
 40
2.0
 40
3.0
 40
3.0
 40
3.0
 40
4.0
 40
4.0
 40
4.0
 40
4.0
 10
110.6888508837861
 20
-132.163853591091
 30
0.0
 10
110.4266791173586
 20
-132.163853591091
 30
0.0
 10
110.3887830670209
 20
-132.3753824538853
 30
0.0
 10
110.3887830670209
 20
-132.4916544265125
 30
0.0
 10
110.3887830670209
 20
-132.6673542962602
 30
0.0
 10
110.4838677024138
 20
-132.8301350579383
 30
0.0
 10
110.6678358013261
 20
-132.8301350579383
 30
0.0
 10
110.7884141433099
 20
-132.8301350579383
 30
0.0
 10
110.9641140130576
 20
-132.770879415592
 30
0.0
 10
110.9641140130576
 20
-132.4852809998648
 30
0.0
 10
110.9641140130576
 20
-132.2611775385493
 30
0.0
 10
110.824587645905
 20
-132.163853591091
 30
0.0
 10
110.6888508837861
 20
-132.163853591091
 30
0.0
  0
HATCH
  5
EA
330
E2
100
AcDbEntity
  8
_U+30EC_U+30A4_U+30E4_U+30FC 1
 62
   179
420
  2234388
100
AcDbHatch
 10
0.0
 20
0.0
 30
0.0
210
0.0
220
0.0
230
1.0
  2
SOLID
 70
     1
 71
     0
 91
        2
 92
        1
 93
        1
 72
     4
 94
        3
 73
     0
 74
     1
 95
       32
 96
       28
 40
0.0
 40
0.0
 40
0.0
 40
0.0
 40
1.0
 40
1.0
 40
1.0
 40
2.0
 40
2.0
 40
2.0
 40
3.0
 40
3.0
 40
3.0
 40
4.0
 40
4.0
 40
4.0
 40
5.0
 40
5.0
 40
5.0
 40
6.0
 40
6.0
 40
6.0
 40
7.0
 40
7.0
 40
7.0
 40
8.0
 40
8.0
 40
8.0
 40
9.0
 40
9.0
 40
9.0
 40
9.0
 10
110.6719699159084
 20
-133.0227158955638
 10
110.155894612218
 20
-133.0227158955638
 10
110.1472818735049
 20
-132.4684000319871
 10
110.1472818735049
 20
-132.2548041119016
 10
110.1472818735049
 20
-132.0241549691641
 10
110.1665744082222
 20
-131.3768215274857
 10
110.7102104757947
 20
-131.3768215274857
 10
110.8834987787027
 20
-131.3768215274857
 10
111.1291340868011
 20
-131.446584711062
 10
111.1670301371388
 20
-131.7786919158401
 10
111.1670301371388
 20
-131.7786919158401
 10
110.9534342170533
 20
-131.7786919158401
 10
110.9534342170533
 20
-131.7786919158401
 10
110.942754421049
 20
-131.7216755855592
 10
110.9110595425847
 20
-131.5735364796934
 10
110.7081434185035
 20
-131.5735364796934
 10
110.4159993213543
 20
-131.5735364796934
 10
110.3760362137254
 20
-131.9015095698892
 10
110.36328936043
 20
-132.1066650060358
 10
110.4563069385318
 20
-132.0284613385207
 10
110.5241753195912
 20
-131.9692056961744
 10
110.7060763612124
 20
-131.9692056961744
 10
110.8859103455424
 20
-131.9692056961744
 10
111.1883897291473
 20
-132.0770371848627
 10
111.1883897291473
 20
-132.4832139425737
 10
111.1883897291473
 20
-132.8027465488306
 10
110.9892632100999
 20
-133.0227158955638
 10
110.6719699159084
 20
-133.0227158955638
 97
        0
 97
        0
 92
        1
 93
        1
 72
     4
 94
        3
 73
     0
 74
     1
 95
       17
 96
       13
 40
0.0
 40
0.0
 40
0.0
 40
0.0
 40
1.0
 40
1.0
 40
1.0
 40
2.0
 40
2.0
 40
2.0
 40
3.0
 40
3.0
 40
3.0
 40
4.0
 40
4.0
 40
4.0
 40
4.0
 10
110.6888508837861
 20
-132.163853591091
 10
110.4266791173586
 20
-132.163853591091
 10
110.3887830670209
 20
-132.3753824538853
 10
110.3887830670209
 20
-132.4916544265125
 10
110.3887830670209
 20
-132.6673542962602
 10
110.4838677024138
 20
-132.8301350579383
 10
110.6678358013261
 20
-132.8301350579383
 10
110.7884141433099
 20
-132.8301350579383
 10
110.9641140130576
 20
-132.770879415592
 10
110.9641140130576
 20
-132.4852809998648
 10
110.9641140130576
 20
-132.2611775385493
 10
110.824587645905
 20
-132.163853591091
 10
110.6888508837861
 20
-132.163853591091
 97
        0
 97
        0
 75
     2
 76
     1
 98
        0
  0
ENDBLK
  5
E5
330
E2
100
AcDbEntity
  8
0
100
AcDbBlockEnd
  0
BLOCK
  5
FB
330
F9
100
AcDbEntity
  8
0
100
AcDbBlockBegin
  2
block 4
 70
     0
 10
0.0
 20
0.0
 30
0.0
  3
block 4
  1

  0
SPLINE
  5
FD
330
F9
100
AcDbEntity
  8
_U+30EC_U+30A4_U+30E4_U+30FC 1
370
     0
100
AcDbSpline
210
0.0
220
0.0
230
1.0
 70
    11
 71
     3
 72
    32
 73
    28
 74
     0
 42
0.0000000001
 43
0.0000000001
 12
1.0
 22
0.0
 32
0.0
 13
1.0
 23
0.0
 33
0.0
 40
0.0
 40
0.0
 40
0.0
 40
0.0
 40
1.0
 40
1.0
 40
1.0
 40
2.0
 40
2.0
 40
2.0
 40
3.0
 40
3.0
 40
3.0
 40
4.0
 40
4.0
 40
4.0
 40
5.0
 40
5.0
 40
5.0
 40
6.0
 40
6.0
 40
6.0
 40
7.0
 40
7.0
 40
7.0
 40
8.0
 40
8.0
 40
8.0
 40
9.0
 40
9.0
 40
9.0
 40
9.0
 10
128.3160264436154
 20
-140.8351589274648
 30
0.0
 10
128.3160264436154
 20
-141.3512342311552
 30
0.0
 10
127.7617105800387
 20
-141.3598469698684
 30
0.0
 10
127.5481146599533
 20
-141.3598469698684
 30
0.0
 10
127.31763777199
 20
-141.3598469698684
 30
0.0
 10
126.6703043303116
 20
-141.340554435151
 30
0.0
 10
126.6703043303116
 20
-140.7969183675785
 30
0.0
 10
126.6703043303116
 20
-140.6236300646705
 30
0.0
 10
126.7398952591136
 20
-140.3779947565722
 30
0.0
 10
127.0720024638917
 20
-140.3400987062344
 30
0.0
 10
127.0720024638917
 20
-140.3400987062344
 30
0.0
 10
127.0720024638917
 20
-140.5536946263199
 30
0.0
 10
127.0720024638917
 20
-140.5536946263199
 30
0.0
 10
127.0151583883851
 20
-140.5643744223242
 30
0.0
 10
126.8670192825194
 20
-140.5960693007885
 30
0.0
 10
126.8670192825194
 20
-140.7989854248697
 30
0.0
 10
126.8670192825194
 20
-141.0911295220189
 30
0.0
 10
127.1949923727151
 20
-141.1310926296478
 30
0.0
 10
127.3999755540875
 20
-141.1438394829432
 30
0.0
 10
127.3217718865723
 20
-141.0508219048415
 30
0.0
 10
127.262516244226
 20
-140.982953523782
 30
0.0
 10
127.262516244226
 20
-140.8010524821609
 30
0.0
 10
127.262516244226
 20
-140.6212184978308
 30
0.0
 10
127.3703477329144
 20
-140.3187391142259
 30
0.0
 10
127.7765244906253
 20
-140.3187391142259
 30
0.0
 10
128.0962293516565
 20
-140.3187391142259
 30
0.0
 10
128.3160264436154
 20
-140.5178656332733
 30
0.0
 10
128.3160264436154
 20
-140.8351589274648
 30
0.0
  0
SPLINE
  5
FE
330
F9
100
AcDbEntity
  8
_U+30EC_U+30A4_U+30E4_U+30FC 1
370
     0
100
AcDbSpline
210
0.0
220
0.0
230
1.0
 70
    11
 71
     3
 72
    17
 73
    13
 74
     0
 42
0.0000000001
 43
0.0000000001
 12
1.0
 22
0.0
 32
0.0
 13
1.0
 23
0.0
 33
0.0
 40
0.0
 40
0.0
 40
0.0
 40
0.0
 40
1.0
 40
1.0
 40
1.0
 40
2.0
 40
2.0
 40
2.0
 40
3.0
 40
3.0
 40
3.0
 40
4.0
 40
4.0
 40
4.0
 40
4.0
 10
127.4571641391427
 20
-140.8182779595871
 30
0.0
 10
127.4571641391427
 20
-141.0804497260146
 30
0.0
 10
127.668693001937
 20
-141.1183457763524
 30
0.0
 10
127.7851372293384
 20
-141.1183457763524
 30
0.0
 10
127.9608370990862
 20
-141.1183457763524
 30
0.0
 10
128.12344560599
 20
-141.0232611409595
 30
0.0
 10
128.12344560599
 20
-140.8392930420471
 30
0.0
 10
128.12344560599
 20
-140.7187147000634
 30
0.0
 10
128.0641899636437
 20
-140.5430148303157
 30
0.0
 10
127.7785915479165
 20
-140.5430148303157
 30
0.0
 10
127.5546603413752
 20
-140.5430148303157
 30
0.0
 10
127.4571641391427
 20
-140.6825411974683
 30
0.0
 10
127.4571641391427
 20
-140.8182779595871
 30
0.0
  0
HATCH
  5
FF
330
F9
100
AcDbEntity
  8
_U+30EC_U+30A4_U+30E4_U+30FC 1
 62
   179
420
  2234388
100
AcDbHatch
 10
0.0
 20
0.0
 30
0.0
210
0.0
220
0.0
230
1.0
  2
SOLID
 70
     1
 71
     0
 91
        2
 92
        1
 93
        1
 72
     4
 94
        3
 73
     0
 74
     1
 95
       32
 96
       28
 40
0.0
 40
0.0
 40
0.0
 40
0.0
 40
1.0
 40
1.0
 40
1.0
 40
2.0
 40
2.0
 40
2.0
 40
3.0
 40
3.0
 40
3.0
 40
4.0
 40
4.0
 40
4.0
 40
5.0
 40
5.0
 40
5.0
 40
6.0
 40
6.0
 40
6.0
 40
7.0
 40
7.0
 40
7.0
 40
8.0
 40
8.0
 40
8.0
 40
9.0
 40
9.0
 40
9.0
 40
9.0
 10
128.3160264436154
 20
-140.8351589274648
 10
128.3160264436154
 20
-141.3512342311552
 10
127.7617105800387
 20
-141.3598469698684
 10
127.5481146599533
 20
-141.3598469698684
 10
127.31763777199
 20
-141.3598469698684
 10
126.6703043303116
 20
-141.340554435151
 10
126.6703043303116
 20
-140.7969183675785
 10
126.6703043303116
 20
-140.6236300646705
 10
126.7398952591136
 20
-140.3779947565722
 10
127.0720024638917
 20
-140.3400987062344
 10
127.0720024638917
 20
-140.3400987062344
 10
127.0720024638917
 20
-140.5536946263199
 10
127.0720024638917
 20
-140.5536946263199
 10
127.0151583883851
 20
-140.5643744223242
 10
126.8670192825194
 20
-140.5960693007885
 10
126.8670192825194
 20
-140.7989854248697
 10
126.8670192825194
 20
-141.0911295220189
 10
127.1949923727151
 20
-141.1310926296478
 10
127.3999755540875
 20
-141.1438394829432
 10
127.3217718865723
 20
-141.0508219048415
 10
127.262516244226
 20
-140.982953523782
 10
127.262516244226
 20
-140.8010524821609
 10
127.262516244226
 20
-140.6212184978308
 10
127.3703477329144
 20
-140.3187391142259
 10
127.7765244906253
 20
-140.3187391142259
 10
128.0962293516565
 20
-140.3187391142259
 10
128.3160264436154
 20
-140.5178656332733
 10
128.3160264436154
 20
-140.8351589274648
 97
        0
 97
        0
 92
        1
 93
        1
 72
     4
 94
        3
 73
     0
 74
     1
 95
       17
 96
       13
 40
0.0
 40
0.0
 40
0.0
 40
0.0
 40
1.0
 40
1.0
 40
1.0
 40
2.0
 40
2.0
 40
2.0
 40
3.0
 40
3.0
 40
3.0
 40
4.0
 40
4.0
 40
4.0
 40
4.0
 10
127.4571641391427
 20
-140.8182779595871
 10
127.4571641391427
 20
-141.0804497260146
 10
127.668693001937
 20
-141.1183457763524
 10
127.7851372293384
 20
-141.1183457763524
 10
127.9608370990862
 20
-141.1183457763524
 10
128.12344560599
 20
-141.0232611409595
 10
128.12344560599
 20
-140.8392930420471
 10
128.12344560599
 20
-140.7187147000634
 10
128.0641899636437
 20
-140.5430148303157
 10
127.7785915479165
 20
-140.5430148303157
 10
127.5546603413752
 20
-140.5430148303157
 10
127.4571641391427
 20
-140.6825411974683
 10
127.4571641391427
 20
-140.8182779595871
 97
        0
 97
        0
 75
     2
 76
     1
 98
        0
  0
ENDBLK
  5
FC
330
F9
100
AcDbEntity
  8
0
100
AcDbBlockEnd
  0
BLOCK
  5
10E
330
10C
100
AcDbEntity
  8
0
100
AcDbBlockBegin
  2
block 5
 70
     0
 10
0.0
 20
0.0
 30
0.0
  3
block 5
  1

  0
SPLINE
  5
110
330
10C
100
AcDbEntity
  8
_U+30EC_U+30A4_U+30E4_U+30FC 1
370
     0
100
AcDbSpline
210
0.0
220
0.0
230
1.0
 70
    11
 71
     3
 72
    44
 73
    40
 74
     0
 42
0.0000000001
 43
0.0000000001
 12
1.0
 22
0.0
 32
0.0
 13
1.0
 23
0.0
 33
0.0
 40
0.0
 40
0.0
 40
0.0
 40
0.0
 40
1.0
 40
1.0
 40
1.0
 40
2.0
 40
2.0
 40
2.0
 40
3.0
 40
3.0
 40
3.0
 40
4.0
 40
4.0
 40
4.0
 40
5.0
 40
5.0
 40
5.0
 40
6.0
 40
6.0
 40
6.0
 40
7.0
 40
7.0
 40
7.0
 40
8.0
 40
8.0
 40
8.0
 40
9.0
 40
9.0
 40
9.0
 40
10.0
 40
10.0
 40
10.0
 40
11.0
 40
11.0
 40
11.0
 40
12.0
 40
12.0
 40
12.0
 40
13.0
 40
13.0
 40
13.0
 40
13.0
 10
82.6285481564262
 20
-151.3240966418565
 30
0.0
 10
82.78719480352196
 20
-151.5418266765243
 30
0.0
 10
82.86126435645483
 20
-151.634844254626
 30
0.0
 10
83.00509709296401
 20
-151.6837646105166
 30
0.0
 10
83.00509709296401
 20
-151.6837646105166
 30
0.0
 10
83.00509709296401
 20
-150.9051730308501
 30
0.0
 10
83.00509709296401
 20
-150.9051730308501
 30
0.0
 10
83.00509709296401
 20
-150.9051730308501
 30
0.0
 10
83.21025252911063
 20
-150.9051730308501
 30
0.0
 10
83.21025252911063
 20
-150.9051730308501
 30
0.0
 10
83.21025252911063
 20
-150.9051730308501
 30
0.0
 10
83.21025252911063
 20
-151.9331895236487
 30
0.0
 10
83.21025252911063
 20
-151.9331895236487
 30
0.0
 10
82.8526516177417
 20
-151.9014946451844
 30
0.0
 10
82.77444795022653
 20
-151.8360378309646
 30
0.0
 10
82.4761026812039
 20
-151.4508761557137
 30
0.0
 10
82.27732067170498
 20
-151.1949055611596
 30
0.0
 10
82.20962454541981
 20
-151.1294487469399
 30
0.0
 10
82.07216523555834
 20
-151.1294487469399
 30
0.0
 10
81.95365395086576
 20
-151.1294487469399
 30
0.0
 10
81.822568067652
 20
-151.2014512425816
 30
0.0
 10
81.822568067652
 20
-151.3981661947894
 30
0.0
 10
81.822568067652
 20
-151.6582709039257
 30
0.0
 10
82.05304495561522
 20
-151.6668836426389
 30
0.0
 10
82.16948918301667
 20
-151.6710177572211
 30
0.0
 10
82.16948918301667
 20
-151.6710177572211
 30
0.0
 10
82.16948918301667
 20
-151.8952934733109
 30
0.0
 10
82.16948918301667
 20
-151.8952934733109
 30
0.0
 10
82.04253741438521
 20
-151.8866807345978
 30
0.0
 10
81.93039955634032
 20
-151.8760009385935
 30
0.0
 10
81.81188827164773
 20
-151.7957302137872
 30
0.0
 10
81.65117456726082
 20
-151.6858316678077
 30
0.0
 10
81.6172403767311
 20
-151.4994520020557
 30
0.0
 10
81.6172403767311
 20
-151.3833522842028
 30
0.0
 10
81.6172403767311
 20
-151.1060220976402
 30
0.0
 10
81.80138073041772
 20
-150.8986273494281
 30
0.0
 10
82.0742322928495
 20
-150.8986273494281
 30
0.0
 10
82.30264212352157
 20
-150.8986273494281
 30
0.0
 10
82.40220538304528
 20
-151.0150715768296
 30
0.0
 10
82.6285481564262
 20
-151.3240966418565
 30
0.0
  0
HATCH
  5
111
330
10C
100
AcDbEntity
  8
_U+30EC_U+30A4_U+30E4_U+30FC 1
 62
   179
420
  2234388
100
AcDbHatch
 10
0.0
 20
0.0
 30
0.0
210
0.0
220
0.0
230
1.0
  2
SOLID
 70
     1
 71
     0
 91
        1
 92
        1
 93
        1
 72
     4
 94
        3
 73
     0
 74
     1
 95
       44
 96
       40
 40
0.0
 40
0.0
 40
0.0
 40
0.0
 40
1.0
 40
1.0
 40
1.0
 40
2.0
 40
2.0
 40
2.0
 40
3.0
 40
3.0
 40
3.0
 40
4.0
 40
4.0
 40
4.0
 40
5.0
 40
5.0
 40
5.0
 40
6.0
 40
6.0
 40
6.0
 40
7.0
 40
7.0
 40
7.0
 40
8.0
 40
8.0
 40
8.0
 40
9.0
 40
9.0
 40
9.0
 40
10.0
 40
10.0
 40
10.0
 40
11.0
 40
11.0
 40
11.0
 40
12.0
 40
12.0
 40
12.0
 40
13.0
 40
13.0
 40
13.0
 40
13.0
 10
82.6285481564262
 20
-151.3240966418565
 10
82.78719480352196
 20
-151.5418266765243
 10
82.86126435645483
 20
-151.634844254626
 10
83.00509709296401
 20
-151.6837646105166
 10
83.00509709296401
 20
-151.6837646105166
 10
83.00509709296401
 20
-150.9051730308501
 10
83.00509709296401
 20
-150.9051730308501
 10
83.00509709296401
 20
-150.9051730308501
 10
83.21025252911063
 20
-150.9051730308501
 10
83.21025252911063
 20
-150.9051730308501
 10
83.21025252911063
 20
-150.9051730308501
 10
83.21025252911063
 20
-151.9331895236487
 10
83.21025252911063
 20
-151.9331895236487
 10
82.8526516177417
 20
-151.9014946451844
 10
82.77444795022653
 20
-151.8360378309646
 10
82.4761026812039
 20
-151.4508761557137
 10
82.27732067170498
 20
-151.1949055611596
 10
82.20962454541981
 20
-151.1294487469399
 10
82.07216523555834
 20
-151.1294487469399
 10
81.95365395086576
 20
-151.1294487469399
 10
81.822568067652
 20
-151.2014512425816
 10
81.822568067652
 20
-151.3981661947894
 10
81.822568067652
 20
-151.6582709039257
 10
82.05304495561522
 20
-151.6668836426389
 10
82.16948918301667
 20
-151.6710177572211
 10
82.16948918301667
 20
-151.6710177572211
 10
82.16948918301667
 20
-151.8952934733109
 10
82.16948918301667
 20
-151.8952934733109
 10
82.04253741438521
 20
-151.8866807345978
 10
81.93039955634032
 20
-151.8760009385935
 10
81.81188827164773
 20
-151.7957302137872
 10
81.65117456726082
 20
-151.6858316678077
 10
81.6172403767311
 20
-151.4994520020557
 10
81.6172403767311
 20
-151.3833522842028
 10
81.6172403767311
 20
-151.1060220976402
 10
81.80138073041772
 20
-150.8986273494281
 10
82.0742322928495
 20
-150.8986273494281
 10
82.30264212352157
 20
-150.8986273494281
 10
82.40220538304528
 20
-151.0150715768296
 10
82.6285481564262
 20
-151.3240966418565
 97
        0
 97
        0
 75
     2
 76
     1
 98
        0
  0
SPLINE
  5
112
330
10C
100
AcDbEntity
  8
_U+30EC_U+30A4_U+30E4_U+30FC 1
370
     0
100
AcDbSpline
210
0.0
220
0.0
230
1.0
 70
    11
 71
     3
 72
    32
 73
    28
 74
     0
 42
0.0000000001
 43
0.0000000001
 12
1.0
 22
0.0
 32
0.0
 13
1.0
 23
0.0
 33
0.0
 40
0.0
 40
0.0
 40
0.0
 40
0.0
 40
1.0
 40
1.0
 40
1.0
 40
2.0
 40
2.0
 40
2.0
 40
3.0
 40
3.0
 40
3.0
 40
4.0
 40
4.0
 40
4.0
 40
5.0
 40
5.0
 40
5.0
 40
6.0
 40
6.0
 40
6.0
 40
7.0
 40
7.0
 40
7.0
 40
8.0
 40
8.0
 40
8.0
 40
9.0
 40
9.0
 40
9.0
 40
9.0
 10
83.26106768751806
 20
-150.2361354876146
 30
0.0
 10
83.26106768751806
 20
-150.752210791305
 30
0.0
 10
82.70675182394137
 20
-150.7608235300181
 30
0.0
 10
82.49315590385588
 20
-150.7608235300181
 30
0.0
 10
82.2625067611184
 20
-150.7608235300181
 30
0.0
 10
81.61517331943996
 20
-150.7415309953007
 30
0.0
 10
81.61517331943996
 20
-150.1978949277283
 30
0.0
 10
81.61517331943996
 20
-150.0246066248203
 30
0.0
 10
81.68493650301627
 20
-149.7789713167219
 30
0.0
 10
82.01704370779436
 20
-149.7410752663842
 30
0.0
 10
82.01704370779436
 20
-149.7410752663842
 30
0.0
 10
82.01704370779436
 20
-149.9546711864697
 30
0.0
 10
82.01704370779436
 20
-149.9546711864697
 30
0.0
 10
81.96002737751347
 20
-149.965350982474
 30
0.0
 10
81.81188827164773
 20
-149.9970458609382
 30
0.0
 10
81.81188827164773
 20
-150.1999619850195
 30
0.0
 10
81.81188827164773
 20
-150.4921060821686
 30
0.0
 10
82.13986136184351
 20
-150.5320691897975
 30
0.0
 10
82.34501679799014
 20
-150.544816043093
 30
0.0
 10
82.26681313047497
 20
-150.4517984649912
 30
0.0
 10
82.20755748812867
 20
-150.3839300839318
 30
0.0
 10
82.20755748812867
 20
-150.2020290423106
 30
0.0
 10
82.20755748812867
 20
-150.0221950579806
 30
0.0
 10
82.31538897681699
 20
-149.7197156743756
 30
0.0
 10
82.72156573452794
 20
-149.7197156743756
 30
0.0
 10
83.04109834078487
 20
-149.7197156743756
 30
0.0
 10
83.26106768751806
 20
-149.9188421934231
 30
0.0
 10
83.26106768751806
 20
-150.2361354876146
 30
0.0
  0
SPLINE
  5
113
330
10C
100
AcDbEntity
  8
_U+30EC_U+30A4_U+30E4_U+30FC 1
370
     0
100
AcDbSpline
210
0.0
220
0.0
230
1.0
 70
    11
 71
     3
 72
    17
 73
    13
 74
     0
 42
0.0000000001
 43
0.0000000001
 12
1.0
 22
0.0
 32
0.0
 13
1.0
 23
0.0
 33
0.0
 40
0.0
 40
0.0
 40
0.0
 40
0.0
 40
1.0
 40
1.0
 40
1.0
 40
2.0
 40
2.0
 40
2.0
 40
3.0
 40
3.0
 40
3.0
 40
4.0
 40
4.0
 40
4.0
 40
4.0
 10
82.40220538304528
 20
-150.2192545197369
 30
0.0
 10
82.40220538304528
 20
-150.4814262861644
 30
0.0
 10
82.61373424583962
 20
-150.5193223365021
 30
0.0
 10
82.73000621846681
 20
-150.5193223365021
 30
0.0
 10
82.90570608821454
 20
-150.5193223365021
 30
0.0
 10
83.06848684989261
 20
-150.4242377011092
 30
0.0
 10
83.06848684989261
 20
-150.2402696021969
 30
0.0
 10
83.06848684989261
 20
-150.1196912602131
 30
0.0
 10
83.0092312075463
 20
-149.9439913904654
 30
0.0
 10
82.7236327918191
 20
-149.9439913904654
 30
0.0
 10
82.49952933050359
 20
-149.9439913904654
 30
0.0
 10
82.40220538304528
 20
-150.083517757618
 30
0.0
 10
82.40220538304528
 20
-150.2192545197369
 30
0.0
  0
HATCH
  5
114
330
10C
100
AcDbEntity
  8
_U+30EC_U+30A4_U+30E4_U+30FC 1
 62
   179
420
  2234388
100
AcDbHatch
 10
0.0
 20
0.0
 30
0.0
210
0.0
220
0.0
230
1.0
  2
SOLID
 70
     1
 71
     0
 91
        2
 92
        1
 93
        1
 72
     4
 94
        3
 73
     0
 74
     1
 95
       32
 96
       28
 40
0.0
 40
0.0
 40
0.0
 40
0.0
 40
1.0
 40
1.0
 40
1.0
 40
2.0
 40
2.0
 40
2.0
 40
3.0
 40
3.0
 40
3.0
 40
4.0
 40
4.0
 40
4.0
 40
5.0
 40
5.0
 40
5.0
 40
6.0
 40
6.0
 40
6.0
 40
7.0
 40
7.0
 40
7.0
 40
8.0
 40
8.0
 40
8.0
 40
9.0
 40
9.0
 40
9.0
 40
9.0
 10
83.26106768751806
 20
-150.2361354876146
 10
83.26106768751806
 20
-150.752210791305
 10
82.70675182394137
 20
-150.7608235300181
 10
82.49315590385588
 20
-150.7608235300181
 10
82.2625067611184
 20
-150.7608235300181
 10
81.61517331943996
 20
-150.7415309953007
 10
81.61517331943996
 20
-150.1978949277283
 10
81.61517331943996
 20
-150.0246066248203
 10
81.68493650301627
 20
-149.7789713167219
 10
82.01704370779436
 20
-149.7410752663842
 10
82.01704370779436
 20
-149.7410752663842
 10
82.01704370779436
 20
-149.9546711864697
 10
82.01704370779436
 20
-149.9546711864697
 10
81.96002737751347
 20
-149.965350982474
 10
81.81188827164773
 20
-149.9970458609382
 10
81.81188827164773
 20
-150.1999619850195
 10
81.81188827164773
 20
-150.4921060821686
 10
82.13986136184351
 20
-150.5320691897975
 10
82.34501679799014
 20
-150.544816043093
 10
82.26681313047497
 20
-150.4517984649912
 10
82.20755748812867
 20
-150.3839300839318
 10
82.20755748812867
 20
-150.2020290423106
 10
82.20755748812867
 20
-150.0221950579806
 10
82.31538897681699
 20
-149.7197156743756
 10
82.72156573452794
 20
-149.7197156743756
 10
83.04109834078487
 20
-149.7197156743756
 10
83.26106768751806
 20
-149.9188421934231
 10
83.26106768751806
 20
-150.2361354876146
 97
        0
 97
        0
 92
        1
 93
        1
 72
     4
 94
        3
 73
     0
 74
     1
 95
       17
 96
       13
 40
0.0
 40
0.0
 40
0.0
 40
0.0
 40
1.0
 40
1.0
 40
1.0
 40
2.0
 40
2.0
 40
2.0
 40
3.0
 40
3.0
 40
3.0
 40
4.0
 40
4.0
 40
4.0
 40
4.0
 10
82.40220538304528
 20
-150.2192545197369
 10
82.40220538304528
 20
-150.4814262861644
 10
82.61373424583962
 20
-150.5193223365021
 10
82.73000621846681
 20
-150.5193223365021
 10
82.90570608821454
 20
-150.5193223365021
 10
83.06848684989261
 20
-150.4242377011092
 10
83.06848684989261
 20
-150.2402696021969
 10
83.06848684989261
 20
-150.1196912602131
 10
83.0092312075463
 20
-149.9439913904654
 10
82.7236327918191
 20
-149.9439913904654
 10
82.49952933050359
 20
-149.9439913904654
 10
82.40220538304528
 20
-150.083517757618
 10
82.40220538304528
 20
-150.2192545197369
 97
        0
 97
        0
 75
     2
 76
     1
 98
        0
  0
ENDBLK
  5
10F
330
10C
100
AcDbEntity
  8
0
100
AcDbBlockEnd
  0
BLOCK
  5
133
330
131
100
AcDbEntity
  8
0
100
AcDbBlockBegin
  2
block 6
 70
     0
 10
0.0
 20
0.0
 30
0.0
  3
block 6
  1

  0
POLYLINE
  5
135
330
131
100
AcDbEntity
  8
_U+30EC_U+30A4_U+30E4_U+30FC 1
370
     0
100
AcDb2dPolyline
 66
     1
 10
0.0
 20
0.0
 30
0.0
  0
VERTEX
  5
136
330
135
100
AcDbEntity
  8
_U+30EC_U+30A4_U+30E4_U+30FC 1
370
     0
100
AcDbVertex
100
AcDb2dVertex
 10
87.22327200510391
 20
-133.0060071824603
 30
0.0
  0
VERTEX
  5
137
330
135
100
AcDbEntity
  8
_U+30EC_U+30A4_U+30E4_U+30FC 1
370
     0
100
AcDbVertex
100
AcDb2dVertex
 10
87.22327200510391
 20
-132.8452934780734
 30
0.0
  0
VERTEX
  5
138
330
135
100
AcDbEntity
  8
_U+30EC_U+30A4_U+30E4_U+30FC 1
370
     0
100
AcDbVertex
100
AcDb2dVertex
 10
87.37795679239163
 20
-132.8452934780734
 30
0.0
  0
VERTEX
  5
139
330
135
100
AcDbEntity
  8
_U+30EC_U+30A4_U+30E4_U+30FC 1
370
     0
100
AcDbVertex
100
AcDb2dVertex
 10
87.37795679239163
 20
-133.0060071824603
 30
0.0
  0
VERTEX
  5
13A
330
135
100
AcDbEntity
  8
_U+30EC_U+30A4_U+30E4_U+30FC 1
370
     0
100
AcDbVertex
100
AcDb2dVertex
 10
87.77138669680716
 20
-133.0060071824603
 30
0.0
  0
VERTEX
  5
13B
330
135
100
AcDbEntity
  8
_U+30EC_U+30A4_U+30E4_U+30FC 1
370
     0
100
AcDbVertex
100
AcDb2dVertex
 10
87.77138669680716
 20
-133.1605197149738
 30
0.0
  0
VERTEX
  5
13C
330
135
100
AcDbEntity
  8
_U+30EC_U+30A4_U+30E4_U+30FC 1
370
     0
100
AcDbVertex
100
AcDb2dVertex
 10
87.37795679239163
 20
-133.1605197149738
 30
0.0
  0
VERTEX
  5
13D
330
135
100
AcDbEntity
  8
_U+30EC_U+30A4_U+30E4_U+30FC 1
370
     0
100
AcDbVertex
100
AcDb2dVertex
 10
87.37795679239163
 20
-133.314859992713
 30
0.0
  0
VERTEX
  5
13E
330
135
100
AcDbEntity
  8
_U+30EC_U+30A4_U+30E4_U+30FC 1
370
     0
100
AcDbVertex
100
AcDb2dVertex
 10
87.73314613692088
 20
-133.314859992713
 30
0.0
  0
VERTEX
  5
13F
330
135
100
AcDbEntity
  8
_U+30EC_U+30A4_U+30E4_U+30FC 1
370
     0
100
AcDbVertex
100
AcDb2dVertex
 10
87.73314613692088
 20
-134.1272135081349
 30
0.0
  0
VERTEX
  5
140
330
135
100
AcDbEntity
  8
_U+30EC_U+30A4_U+30E4_U+30FC 1
370
     0
100
AcDbVertex
100
AcDb2dVertex
 10
87.37795679239163
 20
-134.1272135081349
 30
0.0
  0
VERTEX
  5
141
330
135
100
AcDbEntity
  8
_U+30EC_U+30A4_U+30E4_U+30FC 1
370
     0
100
AcDbVertex
100
AcDb2dVertex
 10
87.37795679239163
 20
-134.2965399512349
 30
0.0
  0
VERTEX
  5
142
330
135
100
AcDbEntity
  8
_U+30EC_U+30A4_U+30E4_U+30FC 1
370
     0
100
AcDbVertex
100
AcDb2dVertex
 10
87.78620060739374
 20
-134.2965399512349
 30
0.0
  0
VERTEX
  5
143
330
135
100
AcDbEntity
  8
_U+30EC_U+30A4_U+30E4_U+30FC 1
370
     0
100
AcDbVertex
100
AcDb2dVertex
 10
87.78620060739374
 20
-134.4508802289741
 30
0.0
  0
VERTEX
  5
144
330
135
100
AcDbEntity
  8
_U+30EC_U+30A4_U+30E4_U+30FC 1
370
     0
100
AcDbVertex
100
AcDb2dVertex
 10
87.37795679239163
 20
-134.4508802289741
 30
0.0
  0
VERTEX
  5
145
330
135
100
AcDbEntity
  8
_U+30EC_U+30A4_U+30E4_U+30FC 1
370
     0
100
AcDbVertex
100
AcDb2dVertex
 10
87.37795679239163
 20
-134.8041747709865
 30
0.0
  0
VERTEX
  5
146
330
135
100
AcDbEntity
  8
_U+30EC_U+30A4_U+30E4_U+30FC 1
370
     0
100
AcDbVertex
100
AcDb2dVertex
 10
87.22327200510391
 20
-134.8041747709865
 30
0.0
  0
VERTEX
  5
147
330
135
100
AcDbEntity
  8
_U+30EC_U+30A4_U+30E4_U+30FC 1
370
     0
100
AcDbVertex
100
AcDb2dVertex
 10
87.22327200510391
 20
-134.4508802289741
 30
0.0
  0
VERTEX
  5
148
330
135
100
AcDbEntity
  8
_U+30EC_U+30A4_U+30E4_U+30FC 1
370
     0
100
AcDbVertex
100
AcDb2dVertex
 10
86.81296113281066
 20
-134.4508802289741
 30
0.0
  0
VERTEX
  5
149
330
135
100
AcDbEntity
  8
_U+30EC_U+30A4_U+30E4_U+30FC 1
370
     0
100
AcDbVertex
100
AcDb2dVertex
 10
86.81296113281066
 20
-134.2965399512349
 30
0.0
  0
VERTEX
  5
14A
330
135
100
AcDbEntity
  8
_U+30EC_U+30A4_U+30E4_U+30FC 1
370
     0
100
AcDbVertex
100
AcDb2dVertex
 10
87.22327200510391
 20
-134.2965399512349
 30
0.0
  0
VERTEX
  5
14B
330
135
100
AcDbEntity
  8
_U+30EC_U+30A4_U+30E4_U+30FC 1
370
     0
100
AcDbVertex
100
AcDb2dVertex
 10
87.22327200510391
 20
-134.1272135081349
 30
0.0
  0
VERTEX
  5
14C
330
135
100
AcDbEntity
  8
_U+30EC_U+30A4_U+30E4_U+30FC 1
370
     0
100
AcDbVertex
100
AcDb2dVertex
 10
86.8742838324481
 20
-134.1272135081349
 30
0.0
  0
VERTEX
  5
14D
330
135
100
AcDbEntity
  8
_U+30EC_U+30A4_U+30E4_U+30FC 1
370
     0
100
AcDbVertex
100
AcDb2dVertex
 10
86.8742838324481
 20
-133.314859992713
 30
0.0
  0
VERTEX
  5
14E
330
135
100
AcDbEntity
  8
_U+30EC_U+30A4_U+30E4_U+30FC 1
370
     0
100
AcDbVertex
100
AcDb2dVertex
 10
87.22327200510391
 20
-133.314859992713
 30
0.0
  0
VERTEX
  5
14F
330
135
100
AcDbEntity
  8
_U+30EC_U+30A4_U+30E4_U+30FC 1
370
     0
100
AcDbVertex
100
AcDb2dVertex
 10
87.22327200510391
 20
-133.1605197149738
 30
0.0
  0
VERTEX
  5
150
330
135
100
AcDbEntity
  8
_U+30EC_U+30A4_U+30E4_U+30FC 1
370
     0
100
AcDbVertex
100
AcDb2dVertex
 10
86.83397621527068
 20
-133.1605197149738
 30
0.0
  0
VERTEX
  5
151
330
135
100
AcDbEntity
  8
_U+30EC_U+30A4_U+30E4_U+30FC 1
370
     0
100
AcDbVertex
100
AcDb2dVertex
 10
86.83397621527068
 20
-133.0060071824603
 30
0.0
  0
VERTEX
  5
152
330
135
100
AcDbEntity
  8
_U+30EC_U+30A4_U+30E4_U+30FC 1
370
     0
100
AcDbVertex
100
AcDb2dVertex
 10
87.22327200510391
 20
-133.0060071824603
 30
0.0
  0
SEQEND
  5
153
330
135
100
AcDbEntity
  8
_U+30EC_U+30A4_U+30E4_U+30FC 1
370
     0
  0
POLYLINE
  5
154
330
131
100
AcDbEntity
  8
_U+30EC_U+30A4_U+30E4_U+30FC 1
370
     0
100
AcDb2dPolyline
 66
     1
 10
0.0
 20
0.0
 30
0.0
  0
VERTEX
  5
155
330
154
100
AcDbEntity
  8
_U+30EC_U+30A4_U+30E4_U+30FC 1
370
     0
100
AcDbVertex
100
AcDb2dVertex
 10
87.22327200510391
 20
-133.4545586146398
 30
0.0
  0
VERTEX
  5
156
330
154
100
AcDbEntity
  8
_U+30EC_U+30A4_U+30E4_U+30FC 1
370
     0
100
AcDbVertex
100
AcDb2dVertex
 10
87.0162217664404
 20
-133.4545586146398
 30
0.0
  0
VERTEX
  5
157
330
154
100
AcDbEntity
  8
_U+30EC_U+30A4_U+30E4_U+30FC 1
370
     0
100
AcDbVertex
100
AcDb2dVertex
 10
87.0162217664404
 20
-133.6576469934953
 30
0.0
  0
VERTEX
  5
158
330
154
100
AcDbEntity
  8
_U+30EC_U+30A4_U+30E4_U+30FC 1
370
     0
100
AcDbVertex
100
AcDb2dVertex
 10
87.22327200510391
 20
-133.6576469934953
 30
0.0
  0
VERTEX
  5
159
330
154
100
AcDbEntity
  8
_U+30EC_U+30A4_U+30E4_U+30FC 1
370
     0
100
AcDbVertex
100
AcDb2dVertex
 10
87.22327200510391
 20
-133.4545586146398
 30
0.0
  0
SEQEND
  5
15A
330
154
100
AcDbEntity
  8
_U+30EC_U+30A4_U+30E4_U+30FC 1
370
     0
  0
POLYLINE
  5
15B
330
131
100
AcDbEntity
  8
_U+30EC_U+30A4_U+30E4_U+30FC 1
370
     0
100
AcDb2dPolyline
 66
     1
 10
0.0
 20
0.0
 30
0.0
  0
VERTEX
  5
15C
330
15B
100
AcDbEntity
  8
_U+30EC_U+30A4_U+30E4_U+30FC 1
370
     0
100
AcDbVertex
100
AcDb2dVertex
 10
87.22327200510391
 20
-133.7802923927702
 30
0.0
  0
VERTEX
  5
15D
330
15B
100
AcDbEntity
  8
_U+30EC_U+30A4_U+30E4_U+30FC 1
370
     0
100
AcDbVertex
100
AcDb2dVertex
 10
87.0162217664404
 20
-133.7802923927702
 30
0.0
  0
VERTEX
  5
15E
330
15B
100
AcDbEntity
  8
_U+30EC_U+30A4_U+30E4_U+30FC 1
370
     0
100
AcDbVertex
100
AcDb2dVertex
 10
87.0162217664404
 20
-133.9876871409822
 30
0.0
  0
VERTEX
  5
15F
330
15B
100
AcDbEntity
  8
_U+30EC_U+30A4_U+30E4_U+30FC 1
370
     0
100
AcDbVertex
100
AcDb2dVertex
 10
87.22327200510391
 20
-133.9876871409822
 30
0.0
  0
VERTEX
  5
160
330
15B
100
AcDbEntity
  8
_U+30EC_U+30A4_U+30E4_U+30FC 1
370
     0
100
AcDbVertex
100
AcDb2dVertex
 10
87.22327200510391
 20
-133.7802923927702
 30
0.0
  0
SEQEND
  5
161
330
15B
100
AcDbEntity
  8
_U+30EC_U+30A4_U+30E4_U+30FC 1
370
     0
  0
POLYLINE
  5
162
330
131
100
AcDbEntity
  8
_U+30EC_U+30A4_U+30E4_U+30FC 1
370
     0
100
AcDb2dPolyline
 66
     1
 10
0.0
 20
0.0
 30
0.0
  0
VERTEX
  5
163
330
162
100
AcDbEntity
  8
_U+30EC_U+30A4_U+30E4_U+30FC 1
370
     0
100
AcDbVertex
100
AcDb2dVertex
 10
87.58948565518597
 20
-133.4545586146398
 30
0.0
  0
VERTEX
  5
164
330
162
100
AcDbEntity
  8
_U+30EC_U+30A4_U+30E4_U+30FC 1
370
     0
100
AcDbVertex
100
AcDb2dVertex
 10
87.37795679239163
 20
-133.4545586146398
 30
0.0
  0
VERTEX
  5
165
330
162
100
AcDbEntity
  8
_U+30EC_U+30A4_U+30E4_U+30FC 1
370
     0
100
AcDbVertex
100
AcDb2dVertex
 10
87.37795679239163
 20
-133.6576469934953
 30
0.0
  0
VERTEX
  5
166
330
162
100
AcDbEntity
  8
_U+30EC_U+30A4_U+30E4_U+30FC 1
370
     0
100
AcDbVertex
100
AcDb2dVertex
 10
87.58948565518597
 20
-133.6576469934953
 30
0.0
  0
VERTEX
  5
167
330
162
100
AcDbEntity
  8
_U+30EC_U+30A4_U+30E4_U+30FC 1
370
     0
100
AcDbVertex
100
AcDb2dVertex
 10
87.58948565518597
 20
-133.4545586146398
 30
0.0
  0
SEQEND
  5
168
330
162
100
AcDbEntity
  8
_U+30EC_U+30A4_U+30E4_U+30FC 1
370
     0
  0
POLYLINE
  5
169
330
131
100
AcDbEntity
  8
_U+30EC_U+30A4_U+30E4_U+30FC 1
370
     0
100
AcDb2dPolyline
 66
     1
 10
0.0
 20
0.0
 30
0.0
  0
VERTEX
  5
16A
330
169
100
AcDbEntity
  8
_U+30EC_U+30A4_U+30E4_U+30FC 1
370
     0
100
AcDbVertex
100
AcDb2dVertex
 10
87.58948565518597
 20
-133.7802923927702
 30
0.0
  0
VERTEX
  5
16B
330
169
100
AcDbEntity
  8
_U+30EC_U+30A4_U+30E4_U+30FC 1
370
     0
100
AcDbVertex
100
AcDb2dVertex
 10
87.37795679239163
 20
-133.7802923927702
 30
0.0
  0
VERTEX
  5
16C
330
169
100
AcDbEntity
  8
_U+30EC_U+30A4_U+30E4_U+30FC 1
370
     0
100
AcDbVertex
100
AcDb2dVertex
 10
87.37795679239163
 20
-133.9876871409822
 30
0.0
  0
VERTEX
  5
16D
330
169
100
AcDbEntity
  8
_U+30EC_U+30A4_U+30E4_U+30FC 1
370
     0
100
AcDbVertex
100
AcDb2dVertex
 10
87.58948565518597
 20
-133.9876871409822
 30
0.0
  0
VERTEX
  5
16E
330
169
100
AcDbEntity
  8
_U+30EC_U+30A4_U+30E4_U+30FC 1
370
     0
100
AcDbVertex
100
AcDb2dVertex
 10
87.58948565518597
 20
-133.7802923927702
 30
0.0
  0
SEQEND
  5
16F
330
169
100
AcDbEntity
  8
_U+30EC_U+30A4_U+30E4_U+30FC 1
370
     0
  0
SPLINE
  5
170
330
131
100
AcDbEntity
  8
_U+30EC_U+30A4_U+30E4_U+30FC 1
370
     0
100
AcDbSpline
210
0.0
220
0.0
230
1.0
 70
    11
 71
     3
 72
    38
 73
    34
 74
     0
 42
0.0000000001
 43
0.0000000001
 12
1.0
 22
0.0
 32
0.0
 13
1.0
 23
0.0
 33
0.0
 40
0.0
 40
0.0
 40
0.0
 40
0.0
 40
1.0
 40
1.0
 40
1.0
 40
2.0
 40
2.0
 40
2.0
 40
3.0
 40
3.0
 40
3.0
 40
4.0
 40
4.0
 40
4.0
 40
5.0
 40
5.0
 40
5.0
 40
6.0
 40
6.0
 40
6.0
 40
7.0
 40
7.0
 40
7.0
 40
8.0
 40
8.0
 40
8.0
 40
9.0
 40
9.0
 40
9.0
 40
10.0
 40
10.0
 40
10.0
 40
11.0
 40
11.0
 40
11.0
 40
11.0
 10
87.63151582010602
 20
-134.6687825184162
 30
0.0
 10
87.71419811175201
 20
-134.6159003027176
 30
0.0
 10
87.87921818549547
 20
-134.5080688140292
 30
0.0
 10
87.98498261689265
 20
-134.3006740658172
 30
0.0
 10
88.13312172275839
 20
-134.0088744782165
 30
0.0
 10
88.13312172275839
 20
-133.7825317048356
 30
0.0
 10
88.13312172275839
 20
-133.6977823558985
 30
0.0
 10
88.13312172275839
 20
-133.6977823558985
 30
0.0
 10
88.13312172275839
 20
-133.4629990985787
 30
0.0
 10
88.13312172275839
 20
-133.4629990985787
 30
0.0
 10
88.13312172275839
 20
-133.4629990985787
 30
0.0
 10
88.29814179650185
 20
-133.4629990985787
 30
0.0
 10
88.29814179650185
 20
-133.4629990985787
 30
0.0
 10
88.29814179650185
 20
-133.4629990985787
 30
0.0
 10
88.29814179650185
 20
-133.6893418719596
 30
0.0
 10
88.29814179650185
 20
-133.6893418719596
 30
0.0
 10
88.29814179650185
 20
-133.8882961362328
 30
0.0
 10
88.36359861072161
 20
-134.1251464508437
 30
0.0
 10
88.46522892753647
 20
-134.2986070085261
 30
0.0
 10
88.58167315493792
 20
-134.4975612727992
 30
0.0
 10
88.71051972608626
 20
-134.5969522775487
 30
0.0
 10
88.79526907502341
 20
-134.6582749771861
 30
0.0
 10
88.79526907502341
 20
-134.6582749771861
 30
0.0
 10
88.6874375863351
 20
-134.808481140343
 30
0.0
 10
88.6874375863351
 20
-134.808481140343
 30
0.0
 10
88.50967065929619
 20
-134.6794623144204
 30
0.0
 10
88.31088864979728
 20
-134.4403726877441
 30
0.0
 10
88.23234047273358
 20
-134.0870781457317
 30
0.0
 10
88.16688365851384
 20
-134.326167772408
 30
0.0
 10
88.06525334169896
 20
-134.5948852202575
 30
0.0
 10
87.75657278622059
 20
-134.8041747709865
 30
0.0
 10
87.75657278622059
 20
-134.8041747709865
 30
0.0
 10
87.63151582010602
 20
-134.6687825184162
 30
0.0
 10
87.63151582010602
 20
-134.6687825184162
 30
0.0
  0
SPLINE
  5
171
330
131
100
AcDbEntity
  8
_U+30EC_U+30A4_U+30E4_U+30FC 1
370
     0
100
AcDbSpline
210
0.0
220
0.0
230
1.0
 70
    11
 71
     3
 72
    38
 73
    34
 74
     0
 42
0.0000000001
 43
0.0000000001
 12
1.0
 22
0.0
 32
0.0
 13
1.0
 23
0.0
 33
0.0
 40
0.0
 40
0.0
 40
0.0
 40
0.0
 40
1.0
 40
1.0
 40
1.0
 40
2.0
 40
2.0
 40
2.0
 40
3.0
 40
3.0
 40
3.0
 40
4.0
 40
4.0
 40
4.0
 40
5.0
 40
5.0
 40
5.0
 40
6.0
 40
6.0
 40
6.0
 40
7.0
 40
7.0
 40
7.0
 40
8.0
 40
8.0
 40
8.0
 40
9.0
 40
9.0
 40
9.0
 40
10.0
 40
10.0
 40
10.0
 40
11.0
 40
11.0
 40
11.0
 40
11.0
 10
87.7458929902163
 20
-133.5963242938579
 30
0.0
 10
87.83891056831806
 20
-133.4735066398087
 30
0.0
 10
87.96396753443263
 20
-133.2938449102529
 30
0.0
 10
88.05905216982552
 20
-132.8452934780734
 30
0.0
 10
88.05905216982552
 20
-132.8452934780734
 30
0.0
 10
88.22613930086014
 20
-132.8642415032423
 30
0.0
 10
88.22613930086014
 20
-132.8642415032423
 30
0.0
 10
88.20064559426929
 20
-132.984819845226
 30
0.0
 10
88.17756345451811
 20
-133.0759426208109
 30
0.0
 10
88.13932289463185
 20
-133.1837741094992
 30
0.0
 10
88.13932289463185
 20
-133.1837741094992
 30
0.0
 10
88.7677083111414
 20
-133.1837741094992
 30
0.0
 10
88.7677083111414
 20
-133.1837741094992
 30
0.0
 10
88.7677083111414
 20
-133.1837741094992
 30
0.0
 10
88.7677083111414
 20
-133.3360473299472
 30
0.0
 10
88.7677083111414
 20
-133.3360473299472
 30
0.0
 10
88.73394637538597
 20
-133.4778130091653
 30
0.0
 10
88.63851723044453
 20
-133.7358506610105
 30
0.0
 10
88.56444767751167
 20
-133.8543619457031
 30
0.0
 10
88.56444767751167
 20
-133.8543619457031
 30
0.0
 10
88.41217445706363
 20
-133.7761582781879
 30
0.0
 10
88.41217445706363
 20
-133.7761582781879
 30
0.0
 10
88.50760360200505
 20
-133.6407660256176
 30
0.0
 10
88.57306041622479
 20
-133.4524915573487
 30
0.0
 10
88.6006211801068
 20
-133.3424207565949
 30
0.0
 10
88.6006211801068
 20
-133.3424207565949
 30
0.0
 10
88.08213430957669
 20
-133.3424207565949
 30
0.0
 10
88.08213430957669
 20
-133.3424207565949
 30
0.0
 10
87.9829155596015
 20
-133.5835774405624
 30
0.0
 10
87.90884600666863
 20
-133.6724609040819
 30
0.0
 10
87.87060544678235
 20
-133.7169026358416
 30
0.0
 10
87.87060544678235
 20
-133.7169026358416
 30
0.0
 10
87.7458929902163
 20
-133.5963242938579
 30
0.0
 10
87.7458929902163
 20
-133.5963242938579
 30
0.0
  0
HATCH
  5
172
330
131
100
AcDbEntity
  8
_U+30EC_U+30A4_U+30E4_U+30FC 1
 62
    12
420
 15007761
100
AcDbHatch
 10
0.0
 20
0.0
 30
0.0
210
0.0
220
0.0
230
1.0
  2
SOLID
 70
     1
 71
     0
 91
        7
 92
        1
 93
       28
 72
     1
 10
87.22327200510391
 20
-133.0060071824603
 11
87.22327200510391
 21
-132.8452934780734
 72
     1
 10
87.22327200510391
 20
-132.8452934780734
 11
87.37795679239163
 21
-132.8452934780734
 72
     1
 10
87.37795679239163
 20
-132.8452934780734
 11
87.37795679239163
 21
-133.0060071824603
 72
     1
 10
87.37795679239163
 20
-133.0060071824603
 11
87.77138669680716
 21
-133.0060071824603
 72
     1
 10
87.77138669680716
 20
-133.0060071824603
 11
87.77138669680716
 21
-133.1605197149738
 72
     1
 10
87.77138669680716
 20
-133.1605197149738
 11
87.37795679239163
 21
-133.1605197149738
 72
     1
 10
87.37795679239163
 20
-133.1605197149738
 11
87.37795679239163
 21
-133.314859992713
 72
     1
 10
87.37795679239163
 20
-133.314859992713
 11
87.73314613692088
 21
-133.314859992713
 72
     1
 10
87.73314613692088
 20
-133.314859992713
 11
87.73314613692088
 21
-134.1272135081349
 72
     1
 10
87.73314613692088
 20
-134.1272135081349
 11
87.37795679239163
 21
-134.1272135081349
 72
     1
 10
87.37795679239163
 20
-134.1272135081349
 11
87.37795679239163
 21
-134.2965399512349
 72
     1
 10
87.37795679239163
 20
-134.2965399512349
 11
87.78620060739374
 21
-134.2965399512349
 72
     1
 10
87.78620060739374
 20
-134.2965399512349
 11
87.78620060739374
 21
-134.4508802289741
 72
     1
 10
87.78620060739374
 20
-134.4508802289741
 11
87.37795679239163
 21
-134.4508802289741
 72
     1
 10
87.37795679239163
 20
-134.4508802289741
 11
87.37795679239163
 21
-134.8041747709865
 72
     1
 10
87.37795679239163
 20
-134.8041747709865
 11
87.22327200510391
 21
-134.8041747709865
 72
     1
 10
87.22327200510391
 20
-134.8041747709865
 11
87.22327200510391
 21
-134.4508802289741
 72
     1
 10
87.22327200510391
 20
-134.4508802289741
 11
86.81296113281066
 21
-134.4508802289741
 72
     1
 10
86.81296113281066
 20
-134.4508802289741
 11
86.81296113281066
 21
-134.2965399512349
 72
     1
 10
86.81296113281066
 20
-134.2965399512349
 11
87.22327200510391
 21
-134.2965399512349
 72
     1
 10
87.22327200510391
 20
-134.2965399512349
 11
87.22327200510391
 21
-134.1272135081349
 72
     1
 10
87.22327200510391
 20
-134.1272135081349
 11
86.8742838324481
 21
-134.1272135081349
 72
     1
 10
86.8742838324481
 20
-134.1272135081349
 11
86.8742838324481
 21
-133.314859992713
 72
     1
 10
86.8742838324481
 20
-133.314859992713
 11
87.22327200510391
 21
-133.314859992713
 72
     1
 10
87.22327200510391
 20
-133.314859992713
 11
87.22327200510391
 21
-133.1605197149738
 72
     1
 10
87.22327200510391
 20
-133.1605197149738
 11
86.83397621527068
 21
-133.1605197149738
 72
     1
 10
86.83397621527068
 20
-133.1605197149738
 11
86.83397621527068
 21
-133.0060071824603
 72
     1
 10
86.83397621527068
 20
-133.0060071824603
 11
87.22327200510391
 21
-133.0060071824603
 97
        0
 92
        1
 93
        4
 72
     1
 10
87.22327200510391
 20
-133.4545586146398
 11
87.0162217664404
 21
-133.4545586146398
 72
     1
 10
87.0162217664404
 20
-133.4545586146398
 11
87.0162217664404
 21
-133.6576469934953
 72
     1
 10
87.0162217664404
 20
-133.6576469934953
 11
87.22327200510391
 21
-133.6576469934953
 72
     1
 10
87.22327200510391
 20
-133.6576469934953
 11
87.22327200510391
 21
-133.4545586146398
 97
        0
 92
        1
 93
        4
 72
     1
 10
87.22327200510391
 20
-133.7802923927702
 11
87.0162217664404
 21
-133.7802923927702
 72
     1
 10
87.0162217664404
 20
-133.7802923927702
 11
87.0162217664404
 21
-133.9876871409822
 72
     1
 10
87.0162217664404
 20
-133.9876871409822
 11
87.22327200510391
 21
-133.9876871409822
 72
     1
 10
87.22327200510391
 20
-133.9876871409822
 11
87.22327200510391
 21
-133.7802923927702
 97
        0
 92
        1
 93
        4
 72
     1
 10
87.58948565518597
 20
-133.4545586146398
 11
87.37795679239163
 21
-133.4545586146398
 72
     1
 10
87.37795679239163
 20
-133.4545586146398
 11
87.37795679239163
 21
-133.6576469934953
 72
     1
 10
87.37795679239163
 20
-133.6576469934953
 11
87.58948565518597
 21
-133.6576469934953
 72
     1
 10
87.58948565518597
 20
-133.6576469934953
 11
87.58948565518597
 21
-133.4545586146398
 97
        0
 92
        1
 93
        4
 72
     1
 10
87.58948565518597
 20
-133.7802923927702
 11
87.37795679239163
 21
-133.7802923927702
 72
     1
 10
87.37795679239163
 20
-133.7802923927702
 11
87.37795679239163
 21
-133.9876871409822
 72
     1
 10
87.37795679239163
 20
-133.9876871409822
 11
87.58948565518597
 21
-133.9876871409822
 72
     1
 10
87.58948565518597
 20
-133.9876871409822
 11
87.58948565518597
 21
-133.7802923927702
 97
        0
 92
        1
 93
        1
 72
     4
 94
        3
 73
     0
 74
     1
 95
       38
 96
       34
 40
0.0
 40
0.0
 40
0.0
 40
0.0
 40
1.0
 40
1.0
 40
1.0
 40
2.0
 40
2.0
 40
2.0
 40
3.0
 40
3.0
 40
3.0
 40
4.0
 40
4.0
 40
4.0
 40
5.0
 40
5.0
 40
5.0
 40
6.0
 40
6.0
 40
6.0
 40
7.0
 40
7.0
 40
7.0
 40
8.0
 40
8.0
 40
8.0
 40
9.0
 40
9.0
 40
9.0
 40
10.0
 40
10.0
 40
10.0
 40
11.0
 40
11.0
 40
11.0
 40
11.0
 10
87.63151582010602
 20
-134.6687825184162
 10
87.71419811175201
 20
-134.6159003027176
 10
87.87921818549547
 20
-134.5080688140292
 10
87.98498261689265
 20
-134.3006740658172
 10
88.13312172275839
 20
-134.0088744782165
 10
88.13312172275839
 20
-133.7825317048356
 10
88.13312172275839
 20
-133.6977823558985
 10
88.13312172275839
 20
-133.6977823558985
 10
88.13312172275839
 20
-133.4629990985787
 10
88.13312172275839
 20
-133.4629990985787
 10
88.13312172275839
 20
-133.4629990985787
 10
88.29814179650185
 20
-133.4629990985787
 10
88.29814179650185
 20
-133.4629990985787
 10
88.29814179650185
 20
-133.4629990985787
 10
88.29814179650185
 20
-133.6893418719596
 10
88.29814179650185
 20
-133.6893418719596
 10
88.29814179650185
 20
-133.8882961362328
 10
88.36359861072161
 20
-134.1251464508437
 10
88.46522892753647
 20
-134.2986070085261
 10
88.58167315493792
 20
-134.4975612727992
 10
88.71051972608626
 20
-134.5969522775487
 10
88.79526907502341
 20
-134.6582749771861
 10
88.79526907502341
 20
-134.6582749771861
 10
88.6874375863351
 20
-134.808481140343
 10
88.6874375863351
 20
-134.808481140343
 10
88.50967065929619
 20
-134.6794623144204
 10
88.31088864979728
 20
-134.4403726877441
 10
88.23234047273358
 20
-134.0870781457317
 10
88.16688365851384
 20
-134.326167772408
 10
88.06525334169896
 20
-134.5948852202575
 10
87.75657278622059
 20
-134.8041747709865
 10
87.75657278622059
 20
-134.8041747709865
 10
87.63151582010602
 20
-134.6687825184162
 10
87.63151582010602
 20
-134.6687825184162
 97
        0
 97
        0
 92
        1
 93
        1
 72
     4
 94
        3
 73
     0
 74
     1
 95
       38
 96
       34
 40
0.0
 40
0.0
 40
0.0
 40
0.0
 40
1.0
 40
1.0
 40
1.0
 40
2.0
 40
2.0
 40
2.0
 40
3.0
 40
3.0
 40
3.0
 40
4.0
 40
4.0
 40
4.0
 40
5.0
 40
5.0
 40
5.0
 40
6.0
 40
6.0
 40
6.0
 40
7.0
 40
7.0
 40
7.0
 40
8.0
 40
8.0
 40
8.0
 40
9.0
 40
9.0
 40
9.0
 40
10.0
 40
10.0
 40
10.0
 40
11.0
 40
11.0
 40
11.0
 40
11.0
 10
87.7458929902163
 20
-133.5963242938579
 10
87.83891056831806
 20
-133.4735066398087
 10
87.96396753443263
 20
-133.2938449102529
 10
88.05905216982552
 20
-132.8452934780734
 10
88.05905216982552
 20
-132.8452934780734
 10
88.22613930086014
 20
-132.8642415032423
 10
88.22613930086014
 20
-132.8642415032423
 10
88.20064559426929
 20
-132.984819845226
 10
88.17756345451811
 20
-133.0759426208109
 10
88.13932289463185
 20
-133.1837741094992
 10
88.13932289463185
 20
-133.1837741094992
 10
88.7677083111414
 20
-133.1837741094992
 10
88.7677083111414
 20
-133.1837741094992
 10
88.7677083111414
 20
-133.1837741094992
 10
88.7677083111414
 20
-133.3360473299472
 10
88.7677083111414
 20
-133.3360473299472
 10
88.73394637538597
 20
-133.4778130091653
 10
88.63851723044453
 20
-133.7358506610105
 10
88.56444767751167
 20
-133.8543619457031
 10
88.56444767751167
 20
-133.8543619457031
 10
88.41217445706363
 20
-133.7761582781879
 10
88.41217445706363
 20
-133.7761582781879
 10
88.50760360200505
 20
-133.6407660256176
 10
88.57306041622479
 20
-133.4524915573487
 10
88.6006211801068
 20
-133.3424207565949
 10
88.6006211801068
 20
-133.3424207565949
 10
88.08213430957669
 20
-133.3424207565949
 10
88.08213430957669
 20
-133.3424207565949
 10
87.9829155596015
 20
-133.5835774405624
 10
87.90884600666863
 20
-133.6724609040819
 10
87.87060544678235
 20
-133.7169026358416
 10
87.87060544678235
 20
-133.7169026358416
 10
87.7458929902163
 20
-133.5963242938579
 10
87.7458929902163
 20
-133.5963242938579
 97
        0
 97
        0
 75
     2
 76
     1
 98
        0
  0
SPLINE
  5
173
330
131
100
AcDbEntity
  8
_U+30EC_U+30A4_U+30E4_U+30FC 1
370
     0
100
AcDbSpline
210
0.0
220
0.0
230
1.0
 70
    11
 71
     3
 72
    50
 73
    46
 74
     0
 42
0.0000000001
 43
0.0000000001
 12
1.0
 22
0.0
 32
0.0
 13
1.0
 23
0.0
 33
0.0
 40
0.0
 40
0.0
 40
0.0
 40
0.0
 40
1.0
 40
1.0
 40
1.0
 40
2.0
 40
2.0
 40
2.0
 40
3.0
 40
3.0
 40
3.0
 40
4.0
 40
4.0
 40
4.0
 40
5.0
 40
5.0
 40
5.0
 40
6.0
 40
6.0
 40
6.0
 40
7.0
 40
7.0
 40
7.0
 40
8.0
 40
8.0
 40
8.0
 40
9.0
 40
9.0
 40
9.0
 40
10.0
 40
10.0
 40
10.0
 40
11.0
 40
11.0
 40
11.0
 40
12.0
 40
12.0
 40
12.0
 40
13.0
 40
13.0
 40
13.0
 40
14.0
 40
14.0
 40
14.0
 40
15.0
 40
15.0
 40
15.0
 40
15.0
 10
89.24071992126622
 20
-133.143638747096
 30
0.0
 10
89.24071992126622
 20
-133.143638747096
 30
0.0
 10
89.89218747752696
 20
-133.143638747096
 30
0.0
 10
89.89218747752696
 20
-133.143638747096
 30
0.0
 10
89.89218747752696
 20
-133.143638747096
 30
0.0
 10
89.89218747752696
 20
-133.2683512036621
 30
0.0
 10
89.89218747752696
 20
-133.2683512036621
 30
0.0
 10
89.89218747752696
 20
-133.2683512036621
 30
0.0
 10
89.61520180051286
 20
-133.2683512036621
 30
0.0
 10
89.61520180051286
 20
-133.2683512036621
 30
0.0
 10
89.61520180051286
 20
-133.2683512036621
 30
0.0
 10
89.61520180051286
 20
-133.5434420781593
 30
0.0
 10
89.61520180051286
 20
-133.5434420781593
 30
0.0
 10
89.61520180051286
 20
-133.5434420781593
 30
0.0
 10
89.4543158413517
 20
-133.5434420781593
 30
0.0
 10
89.4543158413517
 20
-133.5434420781593
 30
0.0
 10
89.4543158413517
 20
-133.5434420781593
 30
0.0
 10
89.4543158413517
 20
-133.2683512036621
 30
0.0
 10
89.4543158413517
 20
-133.2683512036621
 30
0.0
 10
89.4543158413517
 20
-133.2683512036621
 30
0.0
 10
89.23417423984424
 20
-133.2683512036621
 30
0.0
 10
89.23417423984424
 20
-133.2683512036621
 30
0.0
 10
89.2238389533885
 20
-133.3381143872384
 30
0.0
 10
89.19834524679764
 20
-133.532762282155
 30
0.0
 10
89.04400496905845
 20
-133.6829684453119
 30
0.0
 10
89.04400496905845
 20
-133.6829684453119
 30
0.0
 10
88.92135956978355
 20
-133.5730698993324
 30
0.0
 10
88.92135956978355
 20
-133.5730698993324
 30
0.0
 10
89.04193791176729
 20
-133.4735066398087
 30
0.0
 10
89.08396807668734
 20
-133.2683512036621
 30
0.0
 10
89.08396807668734
 20
-133.1858411667903
 30
0.0
 10
89.08396807668734
 20
-133.1858411667903
 30
0.0
 10
89.08396807668734
 20
-132.9002427510631
 30
0.0
 10
89.08396807668734
 20
-132.9002427510631
 30
0.0
 10
89.568693011462
 20
-132.9002427510631
 30
0.0
 10
89.7230332892012
 20
-132.8537339620123
 30
0.0
 10
89.81811792459409
 20
-132.8261731981303
 30
0.0
 10
89.81811792459409
 20
-132.8261731981303
 30
0.0
 10
89.87117239506694
 20
-132.9658718200571
 30
0.0
 10
89.87117239506694
 20
-132.9658718200571
 30
0.0
 10
89.66171058956374
 20
-133.0144476663992
 30
0.0
 10
89.49875757311142
 20
-133.0251274624034
 30
0.0
 10
89.24071992126622
 20
-133.0292615769857
 30
0.0
 10
89.24071992126622
 20
-133.0292615769857
 30
0.0
 10
89.24071992126622
 20
-133.143638747096
 30
0.0
 10
89.24071992126622
 20
-133.143638747096
 30
0.0
  0
SPLINE
  5
174
330
131
100
AcDbEntity
  8
_U+30EC_U+30A4_U+30E4_U+30FC 1
370
     0
100
AcDbSpline
210
0.0
220
0.0
230
1.0
 70
    11
 71
     3
 72
    32
 73
    28
 74
     0
 42
0.0000000001
 43
0.0000000001
 12
1.0
 22
0.0
 32
0.0
 13
1.0
 23
0.0
 33
0.0
 40
0.0
 40
0.0
 40
0.0
 40
0.0
 40
1.0
 40
1.0
 40
1.0
 40
2.0
 40
2.0
 40
2.0
 40
3.0
 40
3.0
 40
3.0
 40
4.0
 40
4.0
 40
4.0
 40
5.0
 40
5.0
 40
5.0
 40
6.0
 40
6.0
 40
6.0
 40
7.0
 40
7.0
 40
7.0
 40
8.0
 40
8.0
 40
8.0
 40
9.0
 40
9.0
 40
9.0
 40
9.0
 10
89.15597057232907
 20
-134.4889485340861
 30
0.0
 10
89.15597057232907
 20
-134.4889485340861
 30
0.0
 10
89.15597057232907
 20
-133.5899508672101
 30
0.0
 10
89.15597057232907
 20
-133.5899508672101
 30
0.0
 10
89.15597057232907
 20
-133.5899508672101
 30
0.0
 10
90.6538980893157
 20
-133.5899508672101
 30
0.0
 10
90.6538980893157
 20
-133.5899508672101
 30
0.0
 10
90.6538980893157
 20
-133.5899508672101
 30
0.0
 10
90.6538980893157
 20
-134.4889485340861
 30
0.0
 10
90.6538980893157
 20
-134.4889485340861
 30
0.0
 10
90.6538980893157
 20
-134.4889485340861
 30
0.0
 10
89.5094373691157
 20
-134.4889485340861
 30
0.0
 10
89.5094373691157
 20
-134.4889485340861
 30
0.0
 10
89.5094373691157
 20
-134.4889485340861
 30
0.0
 10
89.61520180051286
 20
-134.5990193348398
 30
0.0
 10
89.61520180051286
 20
-134.5990193348398
 30
0.0
 10
89.4501817267694
 20
-134.694276225007
 30
0.0
 10
89.28516165302594
 20
-134.7555989246444
 30
0.0
 10
88.98888344129445
 20
-134.8064140830519
 30
0.0
 10
88.98888344129445
 20
-134.8064140830519
 30
0.0
 10
88.9234266270747
 20
-134.6539686078296
 30
0.0
 10
88.9234266270747
 20
-134.6539686078296
 30
0.0
 10
89.30204262090366
 20
-134.601086392131
 30
0.0
 10
89.42468802017855
 20
-134.5333902658458
 30
0.0
 10
89.50495874498488
 20
-134.4889485340861
 30
0.0
 10
89.50495874498488
 20
-134.4889485340861
 30
0.0
 10
89.15597057232907
 20
-134.4889485340861
 30
0.0
 10
89.15597057232907
 20
-134.4889485340861
 30
0.0
  0
POLYLINE
  5
175
330
131
100
AcDbEntity
  8
_U+30EC_U+30A4_U+30E4_U+30FC 1
370
     0
100
AcDb2dPolyline
 66
     1
 10
0.0
 20
0.0
 30
0.0
  0
VERTEX
  5
176
330
175
100
AcDbEntity
  8
_U+30EC_U+30A4_U+30E4_U+30FC 1
370
     0
100
AcDbVertex
100
AcDb2dVertex
 10
90.4843993914414
 20
-133.7232760624893
 30
0.0
  0
VERTEX
  5
177
330
175
100
AcDbEntity
  8
_U+30EC_U+30A4_U+30E4_U+30FC 1
370
     0
100
AcDbVertex
100
AcDb2dVertex
 10
89.32512476065483
 20
-133.7232760624893
 30
0.0
  0
VERTEX
  5
178
330
175
100
AcDbEntity
  8
_U+30EC_U+30A4_U+30E4_U+30FC 1
370
     0
100
AcDbVertex
100
AcDb2dVertex
 10
89.32512476065483
 20
-133.8522948884119
 30
0.0
  0
VERTEX
  5
179
330
175
100
AcDbEntity
  8
_U+30EC_U+30A4_U+30E4_U+30FC 1
370
     0
100
AcDbVertex
100
AcDb2dVertex
 10
90.4843993914414
 20
-133.8522948884119
 30
0.0
  0
VERTEX
  5
17A
330
175
100
AcDbEntity
  8
_U+30EC_U+30A4_U+30E4_U+30FC 1
370
     0
100
AcDbVertex
100
AcDb2dVertex
 10
90.4843993914414
 20
-133.7232760624893
 30
0.0
  0
SEQEND
  5
17B
330
175
100
AcDbEntity
  8
_U+30EC_U+30A4_U+30E4_U+30FC 1
370
     0
  0
POLYLINE
  5
17C
330
131
100
AcDbEntity
  8
_U+30EC_U+30A4_U+30E4_U+30FC 1
370
     0
100
AcDb2dPolyline
 66
     1
 10
0.0
 20
0.0
 30
0.0
  0
VERTEX
  5
17D
330
17C
100
AcDbEntity
  8
_U+30EC_U+30A4_U+30E4_U+30FC 1
370
     0
100
AcDbVertex
100
AcDb2dVertex
 10
90.4843993914414
 20
-133.9621934343914
 30
0.0
  0
VERTEX
  5
17E
330
17C
100
AcDbEntity
  8
_U+30EC_U+30A4_U+30E4_U+30FC 1
370
     0
100
AcDbVertex
100
AcDb2dVertex
 10
89.32512476065483
 20
-133.9621934343914
 30
0.0
  0
VERTEX
  5
17F
330
17C
100
AcDbEntity
  8
_U+30EC_U+30A4_U+30E4_U+30FC 1
370
     0
100
AcDbVertex
100
AcDb2dVertex
 10
89.32512476065483
 20
-134.1039591136094
 30
0.0
  0
VERTEX
  5
180
330
17C
100
AcDbEntity
  8
_U+30EC_U+30A4_U+30E4_U+30FC 1
370
     0
100
AcDbVertex
100
AcDb2dVertex
 10
90.4843993914414
 20
-134.1039591136094
 30
0.0
  0
VERTEX
  5
181
330
17C
100
AcDbEntity
  8
_U+30EC_U+30A4_U+30E4_U+30FC 1
370
     0
100
AcDbVertex
100
AcDb2dVertex
 10
90.4843993914414
 20
-133.9621934343914
 30
0.0
  0
SEQEND
  5
182
330
17C
100
AcDbEntity
  8
_U+30EC_U+30A4_U+30E4_U+30FC 1
370
     0
  0
POLYLINE
  5
183
330
131
100
AcDbEntity
  8
_U+30EC_U+30A4_U+30E4_U+30FC 1
370
     0
100
AcDb2dPolyline
 66
     1
 10
0.0
 20
0.0
 30
0.0
  0
VERTEX
  5
184
330
183
100
AcDbEntity
  8
_U+30EC_U+30A4_U+30E4_U+30FC 1
370
     0
100
AcDbVertex
100
AcDb2dVertex
 10
90.4843993914414
 20
-134.2140299143632
 30
0.0
  0
VERTEX
  5
185
330
183
100
AcDbEntity
  8
_U+30EC_U+30A4_U+30E4_U+30FC 1
370
     0
100
AcDbVertex
100
AcDb2dVertex
 10
89.32512476065483
 20
-134.2140299143632
 30
0.0
  0
VERTEX
  5
186
330
183
100
AcDbEntity
  8
_U+30EC_U+30A4_U+30E4_U+30FC 1
370
     0
100
AcDbVertex
100
AcDb2dVertex
 10
89.32512476065483
 20
-134.3535562815158
 30
0.0
  0
VERTEX
  5
187
330
183
100
AcDbEntity
  8
_U+30EC_U+30A4_U+30E4_U+30FC 1
370
     0
100
AcDbVertex
100
AcDb2dVertex
 10
90.4843993914414
 20
-134.3535562815158
 30
0.0
  0
VERTEX
  5
188
330
183
100
AcDbEntity
  8
_U+30EC_U+30A4_U+30E4_U+30FC 1
370
     0
100
AcDbVertex
100
AcDb2dVertex
 10
90.4843993914414
 20
-134.2140299143632
 30
0.0
  0
SEQEND
  5
189
330
183
100
AcDbEntity
  8
_U+30EC_U+30A4_U+30E4_U+30FC 1
370
     0
  0
SPLINE
  5
18A
330
131
100
AcDbEntity
  8
_U+30EC_U+30A4_U+30E4_U+30FC 1
370
     0
100
AcDbSpline
210
0.0
220
0.0
230
1.0
 70
    11
 71
     3
 72
    50
 73
    46
 74
     0
 42
0.0000000001
 43
0.0000000001
 12
1.0
 22
0.0
 32
0.0
 13
1.0
 23
0.0
 33
0.0
 40
0.0
 40
0.0
 40
0.0
 40
0.0
 40
1.0
 40
1.0
 40
1.0
 40
2.0
 40
2.0
 40
2.0
 40
3.0
 40
3.0
 40
3.0
 40
4.0
 40
4.0
 40
4.0
 40
5.0
 40
5.0
 40
5.0
 40
6.0
 40
6.0
 40
6.0
 40
7.0
 40
7.0
 40
7.0
 40
8.0
 40
8.0
 40
8.0
 40
9.0
 40
9.0
 40
9.0
 40
10.0
 40
10.0
 40
10.0
 40
11.0
 40
11.0
 40
11.0
 40
12.0
 40
12.0
 40
12.0
 40
13.0
 40
13.0
 40
13.0
 40
14.0
 40
14.0
 40
14.0
 40
15.0
 40
15.0
 40
15.0
 40
15.0
 10
90.14815807208102
 20
-133.143638747096
 30
0.0
 10
90.14815807208102
 20
-133.143638747096
 30
0.0
 10
90.88437497727891
 20
-133.143638747096
 30
0.0
 10
90.88437497727891
 20
-133.143638747096
 30
0.0
 10
90.88437497727891
 20
-133.143638747096
 30
0.0
 10
90.88437497727891
 20
-133.2683512036621
 30
0.0
 10
90.88437497727891
 20
-133.2683512036621
 30
0.0
 10
90.88437497727891
 20
-133.2683512036621
 30
0.0
 10
90.55433482979197
 20
-133.2683512036621
 30
0.0
 10
90.55433482979197
 20
-133.2683512036621
 30
0.0
 10
90.55433482979197
 20
-133.2683512036621
 30
0.0
 10
90.55433482979197
 20
-133.5434420781593
 30
0.0
 10
90.55433482979197
 20
-133.5434420781593
 30
0.0
 10
90.55433482979197
 20
-133.5434420781593
 30
0.0
 10
90.39792749476163
 20
-133.5434420781593
 30
0.0
 10
90.39792749476163
 20
-133.5434420781593
 30
0.0
 10
90.39792749476163
 20
-133.5434420781593
 30
0.0
 10
90.39792749476163
 20
-133.2683512036621
 30
0.0
 10
90.39792749476163
 20
-133.2683512036621
 30
0.0
 10
90.39792749476163
 20
-133.2683512036621
 30
0.0
 10
90.13334416149445
 20
-133.2683512036621
 30
0.0
 10
90.13334416149445
 20
-133.2683512036621
 30
0.0
 10
90.1078504549036
 20
-133.3973700295847
 30
0.0
 10
90.05720755127042
 20
-133.4883205503953
 30
0.0
 10
89.96005585858637
 20
-133.570830587267
 30
0.0
 10
89.96005585858637
 20
-133.570830587267
 30
0.0
 10
89.83706594976296
 20
-133.4629990985787
 30
0.0
 10
89.83706594976296
 20
-133.4629990985787
 30
0.0
 10
89.97245820233327
 20
-133.352928297825
 30
0.0
 10
89.99588485163298
 20
-133.2154689879635
 30
0.0
 10
89.99588485163298
 20
-133.1413994350306
 30
0.0
 10
89.99588485163298
 20
-133.1413994350306
 30
0.0
 10
89.99588485163298
 20
-132.898175693772
 30
0.0
 10
89.99588485163298
 20
-132.898175693772
 30
0.0
 10
90.46545136627253
 20
-132.898175693772
 30
0.0
 10
90.63253849730715
 20
-132.8580403313688
 30
0.0
 10
90.77654348859059
 20
-132.8156656569003
 30
0.0
 10
90.77654348859059
 20
-132.8156656569003
 30
0.0
 10
90.83579913093689
 20
-132.9531249667617
 30
0.0
 10
90.83579913093689
 20
-132.9531249667617
 30
0.0
 10
90.56501462579625
 20
-133.0230604051123
 30
0.0
 10
90.2497883888959
 20
-133.0271945196946
 30
0.0
 10
90.14815807208102
 20
-133.0271945196946
 30
0.0
 10
90.14815807208102
 20
-133.0271945196946
 30
0.0
 10
90.14815807208102
 20
-133.143638747096
 30
0.0
 10
90.14815807208102
 20
-133.143638747096
 30
0.0
  0
SPLINE
  5
18B
330
131
100
AcDbEntity
  8
_U+30EC_U+30A4_U+30E4_U+30FC 1
370
     0
100
AcDbSpline
210
0.0
220
0.0
230
1.0
 70
    11
 71
     3
 72
    17
 73
    13
 74
     0
 42
0.0000000001
 43
0.0000000001
 12
1.0
 22
0.0
 32
0.0
 13
1.0
 23
0.0
 33
0.0
 40
0.0
 40
0.0
 40
0.0
 40
0.0
 40
1.0
 40
1.0
 40
1.0
 40
2.0
 40
2.0
 40
2.0
 40
3.0
 40
3.0
 40
3.0
 40
4.0
 40
4.0
 40
4.0
 40
4.0
 10
90.26046818490016
 20
-134.4953219607338
 30
0.0
 10
90.4802652768591
 20
-134.6074598187787
 30
0.0
 10
90.74691566741744
 20
-134.6455281238907
 30
0.0
 10
90.87576223856578
 20
-134.656207919895
 30
0.0
 10
90.87576223856578
 20
-134.656207919895
 30
0.0
 10
90.80617130976374
 20
-134.8105481976342
 30
0.0
 10
90.80617130976374
 20
-134.8105481976342
 30
0.0
 10
90.68559296778
 20
-134.7957342870476
 30
0.0
 10
90.42307669180396
 20
-134.7555989246444
 30
0.0
 10
90.1588378680853
 20
-134.6095268760699
 30
0.0
 10
90.1588378680853
 20
-134.6095268760699
 30
0.0
 10
90.26046818490016
 20
-134.4953219607338
 30
0.0
 10
90.26046818490016
 20
-134.4953219607338
 30
0.0
  0
HATCH
  5
18C
330
131
100
AcDbEntity
  8
_U+30EC_U+30A4_U+30E4_U+30FC 1
 62
    12
420
 15007761
100
AcDbHatch
 10
0.0
 20
0.0
 30
0.0
210
0.0
220
0.0
230
1.0
  2
SOLID
 70
     1
 71
     0
 91
        7
 92
        1
 93
        1
 72
     4
 94
        3
 73
     0
 74
     1
 95
       50
 96
       46
 40
0.0
 40
0.0
 40
0.0
 40
0.0
 40
1.0
 40
1.0
 40
1.0
 40
2.0
 40
2.0
 40
2.0
 40
3.0
 40
3.0
 40
3.0
 40
4.0
 40
4.0
 40
4.0
 40
5.0
 40
5.0
 40
5.0
 40
6.0
 40
6.0
 40
6.0
 40
7.0
 40
7.0
 40
7.0
 40
8.0
 40
8.0
 40
8.0
 40
9.0
 40
9.0
 40
9.0
 40
10.0
 40
10.0
 40
10.0
 40
11.0
 40
11.0
 40
11.0
 40
12.0
 40
12.0
 40
12.0
 40
13.0
 40
13.0
 40
13.0
 40
14.0
 40
14.0
 40
14.0
 40
15.0
 40
15.0
 40
15.0
 40
15.0
 10
89.24071992126622
 20
-133.143638747096
 10
89.24071992126622
 20
-133.143638747096
 10
89.89218747752696
 20
-133.143638747096
 10
89.89218747752696
 20
-133.143638747096
 10
89.89218747752696
 20
-133.143638747096
 10
89.89218747752696
 20
-133.2683512036621
 10
89.89218747752696
 20
-133.2683512036621
 10
89.89218747752696
 20
-133.2683512036621
 10
89.61520180051286
 20
-133.2683512036621
 10
89.61520180051286
 20
-133.2683512036621
 10
89.61520180051286
 20
-133.2683512036621
 10
89.61520180051286
 20
-133.5434420781593
 10
89.61520180051286
 20
-133.5434420781593
 10
89.61520180051286
 20
-133.5434420781593
 10
89.4543158413517
 20
-133.5434420781593
 10
89.4543158413517
 20
-133.5434420781593
 10
89.4543158413517
 20
-133.5434420781593
 10
89.4543158413517
 20
-133.2683512036621
 10
89.4543158413517
 20
-133.2683512036621
 10
89.4543158413517
 20
-133.2683512036621
 10
89.23417423984424
 20
-133.2683512036621
 10
89.23417423984424
 20
-133.2683512036621
 10
89.2238389533885
 20
-133.3381143872384
 10
89.19834524679764
 20
-133.532762282155
 10
89.04400496905845
 20
-133.6829684453119
 10
89.04400496905845
 20
-133.6829684453119
 10
88.92135956978355
 20
-133.5730698993324
 10
88.92135956978355
 20
-133.5730698993324
 10
89.04193791176729
 20
-133.4735066398087
 10
89.08396807668734
 20
-133.2683512036621
 10
89.08396807668734
 20
-133.1858411667903
 10
89.08396807668734
 20
-133.1858411667903
 10
89.08396807668734
 20
-132.9002427510631
 10
89.08396807668734
 20
-132.9002427510631
 10
89.568693011462
 20
-132.9002427510631
 10
89.7230332892012
 20
-132.8537339620123
 10
89.81811792459409
 20
-132.8261731981303
 10
89.81811792459409
 20
-132.8261731981303
 10
89.87117239506694
 20
-132.9658718200571
 10
89.87117239506694
 20
-132.9658718200571
 10
89.66171058956374
 20
-133.0144476663992
 10
89.49875757311142
 20
-133.0251274624034
 10
89.24071992126622
 20
-133.0292615769857
 10
89.24071992126622
 20
-133.0292615769857
 10
89.24071992126622
 20
-133.143638747096
 10
89.24071992126622
 20
-133.143638747096
 97
        0
 97
        0
 92
        1
 93
        1
 72
     4
 94
        3
 73
     0
 74
     1
 95
       32
 96
       28
 40
0.0
 40
0.0
 40
0.0
 40
0.0
 40
1.0
 40
1.0
 40
1.0
 40
2.0
 40
2.0
 40
2.0
 40
3.0
 40
3.0
 40
3.0
 40
4.0
 40
4.0
 40
4.0
 40
5.0
 40
5.0
 40
5.0
 40
6.0
 40
6.0
 40
6.0
 40
7.0
 40
7.0
 40
7.0
 40
8.0
 40
8.0
 40
8.0
 40
9.0
 40
9.0
 40
9.0
 40
9.0
 10
89.15597057232907
 20
-134.4889485340861
 10
89.15597057232907
 20
-134.4889485340861
 10
89.15597057232907
 20
-133.5899508672101
 10
89.15597057232907
 20
-133.5899508672101
 10
89.15597057232907
 20
-133.5899508672101
 10
90.6538980893157
 20
-133.5899508672101
 10
90.6538980893157
 20
-133.5899508672101
 10
90.6538980893157
 20
-133.5899508672101
 10
90.6538980893157
 20
-134.4889485340861
 10
90.6538980893157
 20
-134.4889485340861
 10
90.6538980893157
 20
-134.4889485340861
 10
89.5094373691157
 20
-134.4889485340861
 10
89.5094373691157
 20
-134.4889485340861
 10
89.5094373691157
 20
-134.4889485340861
 10
89.61520180051286
 20
-134.5990193348398
 10
89.61520180051286
 20
-134.5990193348398
 10
89.4501817267694
 20
-134.694276225007
 10
89.28516165302594
 20
-134.7555989246444
 10
88.98888344129445
 20
-134.8064140830519
 10
88.98888344129445
 20
-134.8064140830519
 10
88.9234266270747
 20
-134.6539686078296
 10
88.9234266270747
 20
-134.6539686078296
 10
89.30204262090366
 20
-134.601086392131
 10
89.42468802017855
 20
-134.5333902658458
 10
89.50495874498488
 20
-134.4889485340861
 10
89.50495874498488
 20
-134.4889485340861
 10
89.15597057232907
 20
-134.4889485340861
 10
89.15597057232907
 20
-134.4889485340861
 97
        0
 97
        0
 92
        1
 93
        4
 72
     1
 10
90.4843993914414
 20
-133.7232760624893
 11
89.32512476065483
 21
-133.7232760624893
 72
     1
 10
89.32512476065483
 20
-133.7232760624893
 11
89.32512476065483
 21
-133.8522948884119
 72
     1
 10
89.32512476065483
 20
-133.8522948884119
 11
90.4843993914414
 21
-133.8522948884119
 72
     1
 10
90.4843993914414
 20
-133.8522948884119
 11
90.4843993914414
 21
-133.7232760624893
 97
        0
 92
        1
 93
        4
 72
     1
 10
90.4843993914414
 20
-133.9621934343914
 11
89.32512476065483
 21
-133.9621934343914
 72
     1
 10
89.32512476065483
 20
-133.9621934343914
 11
89.32512476065483
 21
-134.1039591136094
 72
     1
 10
89.32512476065483
 20
-134.1039591136094
 11
90.4843993914414
 21
-134.1039591136094
 72
     1
 10
90.4843993914414
 20
-134.1039591136094
 11
90.4843993914414
 21
-133.9621934343914
 97
        0
 92
        1
 93
        4
 72
     1
 10
90.4843993914414
 20
-134.2140299143632
 11
89.32512476065483
 21
-134.2140299143632
 72
     1
 10
89.32512476065483
 20
-134.2140299143632
 11
89.32512476065483
 21
-134.3535562815158
 72
     1
 10
89.32512476065483
 20
-134.3535562815158
 11
90.4843993914414
 21
-134.3535562815158
 72
     1
 10
90.4843993914414
 20
-134.3535562815158
 11
90.4843993914414
 21
-134.2140299143632
 97
        0
 92
        1
 93
        1
 72
     4
 94
        3
 73
     0
 74
     1
 95
       50
 96
       46
 40
0.0
 40
0.0
 40
0.0
 40
0.0
 40
1.0
 40
1.0
 40
1.0
 40
2.0
 40
2.0
 40
2.0
 40
3.0
 40
3.0
 40
3.0
 40
4.0
 40
4.0
 40
4.0
 40
5.0
 40
5.0
 40
5.0
 40
6.0
 40
6.0
 40
6.0
 40
7.0
 40
7.0
 40
7.0
 40
8.0
 40
8.0
 40
8.0
 40
9.0
 40
9.0
 40
9.0
 40
10.0
 40
10.0
 40
10.0
 40
11.0
 40
11.0
 40
11.0
 40
12.0
 40
12.0
 40
12.0
 40
13.0
 40
13.0
 40
13.0
 40
14.0
 40
14.0
 40
14.0
 40
15.0
 40
15.0
 40
15.0
 40
15.0
 10
90.14815807208102
 20
-133.143638747096
 10
90.14815807208102
 20
-133.143638747096
 10
90.88437497727891
 20
-133.143638747096
 10
90.88437497727891
 20
-133.143638747096
 10
90.88437497727891
 20
-133.143638747096
 10
90.88437497727891
 20
-133.2683512036621
 10
90.88437497727891
 20
-133.2683512036621
 10
90.88437497727891
 20
-133.2683512036621
 10
90.55433482979197
 20
-133.2683512036621
 10
90.55433482979197
 20
-133.2683512036621
 10
90.55433482979197
 20
-133.2683512036621
 10
90.55433482979197
 20
-133.5434420781593
 10
90.55433482979197
 20
-133.5434420781593
 10
90.55433482979197
 20
-133.5434420781593
 10
90.39792749476163
 20
-133.5434420781593
 10
90.39792749476163
 20
-133.5434420781593
 10
90.39792749476163
 20
-133.5434420781593
 10
90.39792749476163
 20
-133.2683512036621
 10
90.39792749476163
 20
-133.2683512036621
 10
90.39792749476163
 20
-133.2683512036621
 10
90.13334416149445
 20
-133.2683512036621
 10
90.13334416149445
 20
-133.2683512036621
 10
90.1078504549036
 20
-133.3973700295847
 10
90.05720755127042
 20
-133.4883205503953
 10
89.96005585858637
 20
-133.570830587267
 10
89.96005585858637
 20
-133.570830587267
 10
89.83706594976296
 20
-133.4629990985787
 10
89.83706594976296
 20
-133.4629990985787
 10
89.97245820233327
 20
-133.352928297825
 10
89.99588485163298
 20
-133.2154689879635
 10
89.99588485163298
 20
-133.1413994350306
 10
89.99588485163298
 20
-133.1413994350306
 10
89.99588485163298
 20
-132.898175693772
 10
89.99588485163298
 20
-132.898175693772
 10
90.46545136627253
 20
-132.898175693772
 10
90.63253849730715
 20
-132.8580403313688
 10
90.77654348859059
 20
-132.8156656569003
 10
90.77654348859059
 20
-132.8156656569003
 10
90.83579913093689
 20
-132.9531249667617
 10
90.83579913093689
 20
-132.9531249667617
 10
90.56501462579625
 20
-133.0230604051123
 10
90.2497883888959
 20
-133.0271945196946
 10
90.14815807208102
 20
-133.0271945196946
 10
90.14815807208102
 20
-133.0271945196946
 10
90.14815807208102
 20
-133.143638747096
 10
90.14815807208102
 20
-133.143638747096
 97
        0
 97
        0
 92
        1
 93
        1
 72
     4
 94
        3
 73
     0
 74
     1
 95
       17
 96
       13
 40
0.0
 40
0.0
 40
0.0
 40
0.0
 40
1.0
 40
1.0
 40
1.0
 40
2.0
 40
2.0
 40
2.0
 40
3.0
 40
3.0
 40
3.0
 40
4.0
 40
4.0
 40
4.0
 40
4.0
 10
90.26046818490016
 20
-134.4953219607338
 10
90.4802652768591
 20
-134.6074598187787
 10
90.74691566741744
 20
-134.6455281238907
 10
90.87576223856578
 20
-134.656207919895
 10
90.87576223856578
 20
-134.656207919895
 10
90.80617130976374
 20
-134.8105481976342
 10
90.80617130976374
 20
-134.8105481976342
 10
90.68559296778
 20
-134.7957342870476
 10
90.42307669180396
 20
-134.7555989246444
 10
90.1588378680853
 20
-134.6095268760699
 10
90.1588378680853
 20
-134.6095268760699
 10
90.26046818490016
 20
-134.4953219607338
 10
90.26046818490016
 20
-134.4953219607338
 97
        0
 97
        0
 75
     2
 76
     1
 98
        0
  0
ENDBLK
  5
134
330
131
100
AcDbEntity
  8
0
100
AcDbBlockEnd
  0
BLOCK
  5
198
330
196
100
AcDbEntity
  8
0
100
AcDbBlockBegin
  2
block 7
 70
     0
 10
0.0
 20
0.0
 30
0.0
  3
block 7
  1

  0
SPLINE
  5
19A
330
196
100
AcDbEntity
  8
_U+30EC_U+30A4_U+30E4_U+30FC 1
370
     0
100
AcDbSpline
210
0.0
220
0.0
230
1.0
 70
    11
 71
     3
 72
    59
 73
    55
 74
     0
 42
0.0000000001
 43
0.0000000001
 12
1.0
 22
0.0
 32
0.0
 13
1.0
 23
0.0
 33
0.0
 40
0.0
 40
0.0
 40
0.0
 40
0.0
 40
1.0
 40
1.0
 40
1.0
 40
2.0
 40
2.0
 40
2.0
 40
3.0
 40
3.0
 40
3.0
 40
4.0
 40
4.0
 40
4.0
 40
5.0
 40
5.0
 40
5.0
 40
6.0
 40
6.0
 40
6.0
 40
7.0
 40
7.0
 40
7.0
 40
8.0
 40
8.0
 40
8.0
 40
9.0
 40
9.0
 40
9.0
 40
10.0
 40
10.0
 40
10.0
 40
11.0
 40
11.0
 40
11.0
 40
12.0
 40
12.0
 40
12.0
 40
13.0
 40
13.0
 40
13.0
 40
14.0
 40
14.0
 40
14.0
 40
15.0
 40
15.0
 40
15.0
 40
16.0
 40
16.0
 40
16.0
 40
17.0
 40
17.0
 40
17.0
 40
18.0
 40
18.0
 40
18.0
 40
18.0
 10
113.4111653362306
 20
-154.6524033901563
 30
0.0
 10
113.2440782051959
 20
-155.1391953822221
 30
0.0
 10
112.9946532920638
 20
-155.661471857786
 30
0.0
 10
112.3958956967274
 20
-155.9787651519775
 30
0.0
 10
112.3958956967274
 20
-155.9787651519775
 30
0.0
 10
112.2074489736843
 20
-155.8264919315295
 30
0.0
 10
112.2074489736843
 20
-155.8264919315295
 30
0.0
 10
112.3683349328454
 20
-155.7569010027275
 30
0.0
 10
112.6136257313952
 20
-155.6466579471995
 30
0.0
 10
112.865462211367
 20
-155.3166177997125
 30
0.0
 10
113.1024847807522
 20
-155.0038031296518
 30
0.0
 10
113.1596733658073
 20
-154.7478325350978
 30
0.0
 10
113.1868896201408
 20
-154.620708511692
 30
0.0
 10
113.1868896201408
 20
-154.620708511692
 30
0.0
 10
112.5395561784623
 20
-154.620708511692
 30
0.0
 10
112.5395561784623
 20
-154.620708511692
 30
0.0
 10
112.4358588043563
 20
-154.7815944708532
 30
0.0
 10
112.3152804623726
 20
-154.9486816018878
 30
0.0
 10
112.1230441342956
 20
-155.1199028475048
 30
0.0
 10
112.1230441342956
 20
-155.1199028475048
 30
0.0
 10
111.949411321839
 20
-154.9972574482298
 30
0.0
 10
111.949411321839
 20
-154.9972574482298
 30
0.0
 10
112.0086669641853
 20
-154.950748659179
 30
0.0
 10
112.1568060700511
 20
-154.8387830559084
 30
0.0
 10
112.3218261437946
 20
-154.5890136332278
 30
0.0
 10
112.3979627540186
 20
-154.4705023485351
 30
0.0
 10
112.5016601281246
 20
-154.3013481602094
 30
0.0
 10
112.5271538347154
 20
-154.1787027609345
 30
0.0
 10
112.5271538347154
 20
-154.1787027609345
 30
0.0
 10
112.7576307226787
 20
-154.2799885682008
 30
0.0
 10
112.7576307226787
 20
-154.2799885682008
 30
0.0
 10
112.7724446332652
 20
-154.2865342496228
 30
0.0
 10
112.7872585438518
 20
-154.2948024787874
 30
0.0
 10
112.7872585438518
 20
-154.309616389374
 30
0.0
 10
112.7872585438518
 20
-154.3309759813826
 30
0.0
 10
112.761764837261
 20
-154.343722834678
 30
0.0
 10
112.7534966080964
 20
-154.3457898919691
 30
0.0
 10
112.7259358442143
 20
-154.3540581211337
 30
0.0
 10
112.7173231055012
 20
-154.3519910638426
 30
0.0
 10
112.6918293989104
 20
-154.3774847704334
 30
0.0
 10
112.6666802018681
 20
-154.4029784770242
 30
0.0
 10
112.6687472591592
 20
-154.4112467061888
 30
0.0
 10
112.6370523806949
 20
-154.4643011766617
 30
0.0
 10
112.6370523806949
 20
-154.4643011766617
 30
0.0
 10
112.9712266427641
 20
-154.4643011766617
 30
0.0
 10
112.9712266427641
 20
-154.4643011766617
 30
0.0
 10
113.2271972373182
 20
-154.4643011766617
 30
0.0
 10
113.2588921157825
 20
-154.4515543233663
 30
0.0
 10
113.3160807008376
 20
-154.4219265021931
 30
0.0
 10
113.3160807008376
 20
-154.4219265021931
 30
0.0
 10
113.472488035868
 20
-154.5869465759366
 30
0.0
 10
113.472488035868
 20
-154.5869465759366
 30
0.0
 10
113.4387261001125
 20
-154.6227755689832
 30
0.0
 10
113.4366590428214
 20
-154.6248426262744
 30
0.0
 10
113.4111653362306
 20
-154.6524033901563
 30
0.0
  0
HATCH
  5
19B
330
196
100
AcDbEntity
  8
_U+30EC_U+30A4_U+30E4_U+30FC 1
 62
   179
420
  2234388
100
AcDbHatch
 10
0.0
 20
0.0
 30
0.0
210
0.0
220
0.0
230
1.0
  2
SOLID
 70
     1
 71
     0
 91
        1
 92
        1
 93
        1
 72
     4
 94
        3
 73
     0
 74
     1
 95
       59
 96
       55
 40
0.0
 40
0.0
 40
0.0
 40
0.0
 40
1.0
 40
1.0
 40
1.0
 40
2.0
 40
2.0
 40
2.0
 40
3.0
 40
3.0
 40
3.0
 40
4.0
 40
4.0
 40
4.0
 40
5.0
 40
5.0
 40
5.0
 40
6.0
 40
6.0
 40
6.0
 40
7.0
 40
7.0
 40
7.0
 40
8.0
 40
8.0
 40
8.0
 40
9.0
 40
9.0
 40
9.0
 40
10.0
 40
10.0
 40
10.0
 40
11.0
 40
11.0
 40
11.0
 40
12.0
 40
12.0
 40
12.0
 40
13.0
 40
13.0
 40
13.0
 40
14.0
 40
14.0
 40
14.0
 40
15.0
 40
15.0
 40
15.0
 40
16.0
 40
16.0
 40
16.0
 40
17.0
 40
17.0
 40
17.0
 40
18.0
 40
18.0
 40
18.0
 40
18.0
 10
113.4111653362306
 20
-154.6524033901563
 10
113.2440782051959
 20
-155.1391953822221
 10
112.9946532920638
 20
-155.661471857786
 10
112.3958956967274
 20
-155.9787651519775
 10
112.3958956967274
 20
-155.9787651519775
 10
112.2074489736843
 20
-155.8264919315295
 10
112.2074489736843
 20
-155.8264919315295
 10
112.3683349328454
 20
-155.7569010027275
 10
112.6136257313952
 20
-155.6466579471995
 10
112.865462211367
 20
-155.3166177997125
 10
113.1024847807522
 20
-155.0038031296518
 10
113.1596733658073
 20
-154.7478325350978
 10
113.1868896201408
 20
-154.620708511692
 10
113.1868896201408
 20
-154.620708511692
 10
112.5395561784623
 20
-154.620708511692
 10
112.5395561784623
 20
-154.620708511692
 10
112.4358588043563
 20
-154.7815944708532
 10
112.3152804623726
 20
-154.9486816018878
 10
112.1230441342956
 20
-155.1199028475048
 10
112.1230441342956
 20
-155.1199028475048
 10
111.949411321839
 20
-154.9972574482298
 10
111.949411321839
 20
-154.9972574482298
 10
112.0086669641853
 20
-154.950748659179
 10
112.1568060700511
 20
-154.8387830559084
 10
112.3218261437946
 20
-154.5890136332278
 10
112.3979627540186
 20
-154.4705023485351
 10
112.5016601281246
 20
-154.3013481602094
 10
112.5271538347154
 20
-154.1787027609345
 10
112.5271538347154
 20
-154.1787027609345
 10
112.7576307226787
 20
-154.2799885682008
 10
112.7576307226787
 20
-154.2799885682008
 10
112.7724446332652
 20
-154.2865342496228
 10
112.7872585438518
 20
-154.2948024787874
 10
112.7872585438518
 20
-154.309616389374
 10
112.7872585438518
 20
-154.3309759813826
 10
112.761764837261
 20
-154.343722834678
 10
112.7534966080964
 20
-154.3457898919691
 10
112.7259358442143
 20
-154.3540581211337
 10
112.7173231055012
 20
-154.3519910638426
 10
112.6918293989104
 20
-154.3774847704334
 10
112.6666802018681
 20
-154.4029784770242
 10
112.6687472591592
 20
-154.4112467061888
 10
112.6370523806949
 20
-154.4643011766617
 10
112.6370523806949
 20
-154.4643011766617
 10
112.9712266427641
 20
-154.4643011766617
 10
112.9712266427641
 20
-154.4643011766617
 10
113.2271972373182
 20
-154.4643011766617
 10
113.2588921157825
 20
-154.4515543233663
 10
113.3160807008376
 20
-154.4219265021931
 10
113.3160807008376
 20
-154.4219265021931
 10
113.472488035868
 20
-154.5869465759366
 10
113.472488035868
 20
-154.5869465759366
 10
113.4387261001125
 20
-154.6227755689832
 10
113.4366590428214
 20
-154.6248426262744
 10
113.4111653362306
 20
-154.6524033901563
 97
        0
 97
        0
 75
     2
 76
     1
 98
        0
  0
SPLINE
  5
19C
330
196
100
AcDbEntity
  8
_U+30EC_U+30A4_U+30E4_U+30FC 1
370
     0
100
AcDbSpline
210
0.0
220
0.0
230
1.0
 70
    11
 71
     3
 72
    53
 73
    49
 74
     0
 42
0.0000000001
 43
0.0000000001
 12
1.0
 22
0.0
 32
0.0
 13
1.0
 23
0.0
 33
0.0
 40
0.0
 40
0.0
 40
0.0
 40
0.0
 40
1.0
 40
1.0
 40
1.0
 40
2.0
 40
2.0
 40
2.0
 40
3.0
 40
3.0
 40
3.0
 40
4.0
 40
4.0
 40
4.0
 40
5.0
 40
5.0
 40
5.0
 40
6.0
 40
6.0
 40
6.0
 40
7.0
 40
7.0
 40
7.0
 40
8.0
 40
8.0
 40
8.0
 40
9.0
 40
9.0
 40
9.0
 40
10.0
 40
10.0
 40
10.0
 40
11.0
 40
11.0
 40
11.0
 40
12.0
 40
12.0
 40
12.0
 40
13.0
 40
13.0
 40
13.0
 40
14.0
 40
14.0
 40
14.0
 40
15.0
 40
15.0
 40
15.0
 40
16.0
 40
16.0
 40
16.0
 40
16.0
 10
115.0307047238465
 20
-155.7651692318921
 30
0.0
 10
115.0389729530111
 20
-155.7207275001323
 30
0.0
 10
115.0389729530111
 20
-155.7124592709677
 30
0.0
 10
115.0455186344331
 20
-155.6383897180349
 30
0.0
 10
115.0455186344331
 20
-155.6383897180349
 30
0.0
 10
114.0150905747948
 20
-155.6383897180349
 30
0.0
 10
114.0150905747948
 20
-155.6383897180349
 30
0.0
 10
114.0150905747948
 20
-155.6700845964992
 30
0.0
 10
114.0150905747948
 20
-155.7252061242631
 30
0.0
 10
114.0195691989257
 20
-155.7610351173097
 30
0.0
 10
114.0195691989257
 20
-155.7610351173097
 30
0.0
 10
113.7784125149582
 20
-155.7610351173097
 30
0.0
 10
113.7784125149582
 20
-155.7610351173097
 30
0.0
 10
113.7846136868316
 20
-155.7059135895458
 30
0.0
 10
113.7952934828359
 20
-155.6149630687352
 30
0.0
 10
113.7952934828359
 20
-155.4861164975868
 30
0.0
 10
113.7973605401271
 20
-155.2807888066659
 30
0.0
 10
113.7973605401271
 20
-155.2573621573662
 30
0.0
 10
113.7973605401271
 20
-155.234280017615
 30
0.0
 10
113.7973605401271
 20
-155.234280017615
 30
0.0
 10
113.7973605401271
 20
-154.7943413241486
 30
0.0
 10
113.7973605401271
 20
-154.7943413241486
 30
0.0
 10
113.7973605401271
 20
-154.7285400003804
 30
0.0
 10
113.7908148587051
 20
-154.4050455343154
 30
0.0
 10
113.7866807441228
 20
-154.3499240065514
 30
0.0
 10
113.9113932006888
 20
-154.3626708598468
 30
0.0
 10
114.175976533956
 20
-154.3668049744291
 30
0.0
 10
114.307234671944
 20
-154.3668049744291
 30
0.0
 10
114.307234671944
 20
-154.3668049744291
 30
0.0
 10
114.761987275997
 20
-154.3668049744291
 30
0.0
 10
114.761987275997
 20
-154.3668049744291
 30
0.0
 10
114.9121934391539
 20
-154.3668049744291
 30
0.0
 10
115.1364691552437
 20
-154.364737917138
 30
0.0
 10
115.2825412038183
 20
-154.3564696879734
 30
0.0
 10
115.2739284651051
 20
-154.4663682339529
 30
0.0
 10
115.2697943505228
 20
-154.715793147085
 30
0.0
 10
115.2697943505228
 20
-154.8343044317776
 30
0.0
 10
115.2697943505228
 20
-154.8343044317776
 30
0.0
 10
115.2697943505228
 20
-155.2532280427839
 30
0.0
 10
115.2697943505228
 20
-155.2532280427839
 30
0.0
 10
115.2697943505228
 20
-155.2956027172525
 30
0.0
 10
115.2759955223963
 20
-155.4775037588737
 30
0.0
 10
115.2759955223963
 20
-155.51574431876
 30
0.0
 10
115.2780625796874
 20
-155.6659504819169
 30
0.0
 10
115.2866753184006
 20
-155.71659338555
 30
0.0
 10
115.2949435475652
 20
-155.7651692318921
 30
0.0
 10
115.2949435475652
 20
-155.7651692318921
 30
0.0
 10
115.0307047238465
 20
-155.7651692318921
 30
0.0
 10
115.0307047238465
 20
-155.7651692318921
 30
0.0
  0
POLYLINE
  5
19D
330
196
100
AcDbEntity
  8
_U+30EC_U+30A4_U+30E4_U+30FC 1
370
     0
100
AcDb2dPolyline
 66
     1
 10
0.0
 20
0.0
 30
0.0
  0
VERTEX
  5
19E
330
19D
100
AcDbEntity
  8
_U+30EC_U+30A4_U+30E4_U+30FC 1
370
     0
100
AcDbVertex
100
AcDb2dVertex
 10
115.0537868635977
 20
-154.5614528693457
 30
0.0
  0
VERTEX
  5
19F
330
19D
100
AcDbEntity
  8
_U+30EC_U+30A4_U+30E4_U+30FC 1
370
     0
100
AcDbVertex
100
AcDb2dVertex
 10
114.0130235175037
 20
-154.5614528693457
 30
0.0
  0
VERTEX
  5
1A0
330
19D
100
AcDbEntity
  8
_U+30EC_U+30A4_U+30E4_U+30FC 1
370
     0
100
AcDbVertex
100
AcDb2dVertex
 10
114.0130235175037
 20
-155.4499429949917
 30
0.0
  0
VERTEX
  5
1A1
330
19D
100
AcDbEntity
  8
_U+30EC_U+30A4_U+30E4_U+30FC 1
370
     0
100
AcDbVertex
100
AcDb2dVertex
 10
115.0537868635977
 20
-155.4499429949917
 30
0.0
  0
VERTEX
  5
1A2
330
19D
100
AcDbEntity
  8
_U+30EC_U+30A4_U+30E4_U+30FC 1
370
     0
100
AcDbVertex
100
AcDb2dVertex
 10
115.0537868635977
 20
-154.5614528693457
 30
0.0
  0
SEQEND
  5
1A3
330
19D
100
AcDbEntity
  8
_U+30EC_U+30A4_U+30E4_U+30FC 1
370
     0
  0
HATCH
  5
1A4
330
196
100
AcDbEntity
  8
_U+30EC_U+30A4_U+30E4_U+30FC 1
 62
   179
420
  2234388
100
AcDbHatch
 10
0.0
 20
0.0
 30
0.0
210
0.0
220
0.0
230
1.0
  2
SOLID
 70
     1
 71
     0
 91
        2
 92
        1
 93
        1
 72
     4
 94
        3
 73
     0
 74
     1
 95
       53
 96
       49
 40
0.0
 40
0.0
 40
0.0
 40
0.0
 40
1.0
 40
1.0
 40
1.0
 40
2.0
 40
2.0
 40
2.0
 40
3.0
 40
3.0
 40
3.0
 40
4.0
 40
4.0
 40
4.0
 40
5.0
 40
5.0
 40
5.0
 40
6.0
 40
6.0
 40
6.0
 40
7.0
 40
7.0
 40
7.0
 40
8.0
 40
8.0
 40
8.0
 40
9.0
 40
9.0
 40
9.0
 40
10.0
 40
10.0
 40
10.0
 40
11.0
 40
11.0
 40
11.0
 40
12.0
 40
12.0
 40
12.0
 40
13.0
 40
13.0
 40
13.0
 40
14.0
 40
14.0
 40
14.0
 40
15.0
 40
15.0
 40
15.0
 40
16.0
 40
16.0
 40
16.0
 40
16.0
 10
115.0307047238465
 20
-155.7651692318921
 10
115.0389729530111
 20
-155.7207275001323
 10
115.0389729530111
 20
-155.7124592709677
 10
115.0455186344331
 20
-155.6383897180349
 10
115.0455186344331
 20
-155.6383897180349
 10
114.0150905747948
 20
-155.6383897180349
 10
114.0150905747948
 20
-155.6383897180349
 10
114.0150905747948
 20
-155.6700845964992
 10
114.0150905747948
 20
-155.7252061242631
 10
114.0195691989257
 20
-155.7610351173097
 10
114.0195691989257
 20
-155.7610351173097
 10
113.7784125149582
 20
-155.7610351173097
 10
113.7784125149582
 20
-155.7610351173097
 10
113.7846136868316
 20
-155.7059135895458
 10
113.7952934828359
 20
-155.6149630687352
 10
113.7952934828359
 20
-155.4861164975868
 10
113.7973605401271
 20
-155.2807888066659
 10
113.7973605401271
 20
-155.2573621573662
 10
113.7973605401271
 20
-155.234280017615
 10
113.7973605401271
 20
-155.234280017615
 10
113.7973605401271
 20
-154.7943413241486
 10
113.7973605401271
 20
-154.7943413241486
 10
113.7973605401271
 20
-154.7285400003804
 10
113.7908148587051
 20
-154.4050455343154
 10
113.7866807441228
 20
-154.3499240065514
 10
113.9113932006888
 20
-154.3626708598468
 10
114.175976533956
 20
-154.3668049744291
 10
114.307234671944
 20
-154.3668049744291
 10
114.307234671944
 20
-154.3668049744291
 10
114.761987275997
 20
-154.3668049744291
 10
114.761987275997
 20
-154.3668049744291
 10
114.9121934391539
 20
-154.3668049744291
 10
115.1364691552437
 20
-154.364737917138
 10
115.2825412038183
 20
-154.3564696879734
 10
115.2739284651051
 20
-154.4663682339529
 10
115.2697943505228
 20
-154.715793147085
 10
115.2697943505228
 20
-154.8343044317776
 10
115.2697943505228
 20
-154.8343044317776
 10
115.2697943505228
 20
-155.2532280427839
 10
115.2697943505228
 20
-155.2532280427839
 10
115.2697943505228
 20
-155.2956027172525
 10
115.2759955223963
 20
-155.4775037588737
 10
115.2759955223963
 20
-155.51574431876
 10
115.2780625796874
 20
-155.6659504819169
 10
115.2866753184006
 20
-155.71659338555
 10
115.2949435475652
 20
-155.7651692318921
 10
115.2949435475652
 20
-155.7651692318921
 10
115.0307047238465
 20
-155.7651692318921
 10
115.0307047238465
 20
-155.7651692318921
 97
        0
 97
        0
 92
        1
 93
        4
 72
     1
 10
115.0537868635977
 20
-154.5614528693457
 11
114.0130235175037
 21
-154.5614528693457
 72
     1
 10
114.0130235175037
 20
-154.5614528693457
 11
114.0130235175037
 21
-155.4499429949917
 72
     1
 10
114.0130235175037
 20
-155.4499429949917
 11
115.0537868635977
 21
-155.4499429949917
 72
     1
 10
115.0537868635977
 20
-155.4499429949917
 11
115.0537868635977
 21
-154.5614528693457
 97
        0
 75
     2
 76
     1
 98
        0
  0
SPLINE
  5
1A5
330
196
100
AcDbEntity
  8
_U+30EC_U+30A4_U+30E4_U+30FC 1
370
     0
100
AcDbSpline
210
0.0
220
0.0
230
1.0
 70
    11
 71
     3
 72
    56
 73
    52
 74
     0
 42
0.0000000001
 43
0.0000000001
 12
1.0
 22
0.0
 32
0.0
 13
1.0
 23
0.0
 33
0.0
 40
0.0
 40
0.0
 40
0.0
 40
0.0
 40
1.0
 40
1.0
 40
1.0
 40
2.0
 40
2.0
 40
2.0
 40
3.0
 40
3.0
 40
3.0
 40
4.0
 40
4.0
 40
4.0
 40
5.0
 40
5.0
 40
5.0
 40
6.0
 40
6.0
 40
6.0
 40
7.0
 40
7.0
 40
7.0
 40
8.0
 40
8.0
 40
8.0
 40
9.0
 40
9.0
 40
9.0
 40
10.0
 40
10.0
 40
10.0
 40
11.0
 40
11.0
 40
11.0
 40
12.0
 40
12.0
 40
12.0
 40
13.0
 40
13.0
 40
13.0
 40
14.0
 40
14.0
 40
14.0
 40
15.0
 40
15.0
 40
15.0
 40
16.0
 40
16.0
 40
16.0
 40
17.0
 40
17.0
 40
17.0
 40
17.0
 10
117.043674015878
 20
-155.8309705556603
 30
0.0
 10
116.8510931782525
 20
-155.5219454906334
 30
0.0
 10
116.5930555264073
 20
-155.3166177997125
 30
0.0
 10
116.5021050055967
 20
-155.2511609854928
 30
0.0
 10
116.2078938511564
 20
-155.5898138716928
 30
0.0
 10
115.9181613208468
 20
-155.7420870921409
 30
0.0
 10
115.7193793113479
 20
-155.8351046702426
 30
0.0
 10
115.7193793113479
 20
-155.8351046702426
 30
0.0
 10
115.5605604094779
 20
-155.6466579471995
 30
0.0
 10
115.5605604094779
 20
-155.6466579471995
 30
0.0
 10
115.6642577835839
 20
-155.6108289541529
 30
0.0
 10
115.8778537036694
 20
-155.5346923439288
 30
0.0
 10
116.1107421584723
 20
-155.3486571877253
 30
0.0
 10
116.374980982191
 20
-155.1367838153825
 30
0.0
 10
116.561360647943
 20
-154.8491183423641
 30
0.0
 10
116.6840060472179
 20
-154.5363036723034
 30
0.0
 10
116.6840060472179
 20
-154.5363036723034
 30
0.0
 10
116.3074571106801
 20
-154.5363036723034
 30
0.0
 10
116.3074571106801
 20
-154.5363036723034
 30
0.0
 10
116.155183890232
 20
-154.5363036723034
 30
0.0
 10
115.9457220847289
 20
-154.5404377868857
 30
0.0
 10
115.795515921572
 20
-154.5593858120546
 30
0.0
 10
115.795515921572
 20
-154.5593858120546
 30
0.0
 10
115.795515921572
 20
-154.3478569492603
 30
0.0
 10
115.795515921572
 20
-154.3478569492603
 30
0.0
 10
115.8630397930829
 20
-154.3540581211337
 30
0.0
 10
116.1234890117677
 20
-154.364737917138
 30
0.0
 10
116.2099609084475
 20
-154.364737917138
 30
0.0
 10
116.2099609084475
 20
-154.364737917138
 30
0.0
 10
116.5210530307656
 20
-154.364737917138
 30
0.0
 10
116.5210530307656
 20
-154.364737917138
 30
0.0
 10
116.7284477789776
 20
-154.364737917138
 30
0.0
 10
116.7515299187288
 20
-154.3585367452645
 30
0.0
 10
116.7749565680285
 20
-154.3540581211337
 30
0.0
 10
116.8193982997882
 20
-154.3478569492603
 30
0.0
 10
116.857294350126
 20
-154.3223632426694
 30
0.0
 10
116.8786539421345
 20
-154.3054822747917
 30
0.0
 10
116.8786539421345
 20
-154.3054822747917
 30
0.0
 10
117.0350612771649
 20
-154.4791150872483
 30
0.0
 10
117.0350612771649
 20
-154.4791150872483
 30
0.0
 10
116.995098169536
 20
-154.5066758511303
 30
0.0
 10
116.9823513162405
 20
-154.517011137586
 30
0.0
 10
116.93343096035
 20
-154.5531846401811
 30
0.0
 10
116.8045843892016
 20
-154.8005424960221
 30
0.0
 10
116.7243136643953
 20
-154.950748659179
 30
0.0
 10
116.6206162902893
 20
-155.0968207077536
 30
0.0
 10
116.93343096035
 20
-155.3145507424214
 30
0.0
 10
117.1621853005706
 20
-155.6001491581486
 30
0.0
 10
117.2148952614949
 20
-155.6783528256638
 30
0.0
 10
117.2148952614949
 20
-155.6783528256638
 30
0.0
 10
117.043674015878
 20
-155.8309705556603
 30
0.0
 10
117.043674015878
 20
-155.8309705556603
 30
0.0
  0
HATCH
  5
1A6
330
196
100
AcDbEntity
  8
_U+30EC_U+30A4_U+30E4_U+30FC 1
 62
   179
420
  2234388
100
AcDbHatch
 10
0.0
 20
0.0
 30
0.0
210
0.0
220
0.0
230
1.0
  2
SOLID
 70
     1
 71
     0
 91
        1
 92
        1
 93
        1
 72
     4
 94
        3
 73
     0
 74
     1
 95
       56
 96
       52
 40
0.0
 40
0.0
 40
0.0
 40
0.0
 40
1.0
 40
1.0
 40
1.0
 40
2.0
 40
2.0
 40
2.0
 40
3.0
 40
3.0
 40
3.0
 40
4.0
 40
4.0
 40
4.0
 40
5.0
 40
5.0
 40
5.0
 40
6.0
 40
6.0
 40
6.0
 40
7.0
 40
7.0
 40
7.0
 40
8.0
 40
8.0
 40
8.0
 40
9.0
 40
9.0
 40
9.0
 40
10.0
 40
10.0
 40
10.0
 40
11.0
 40
11.0
 40
11.0
 40
12.0
 40
12.0
 40
12.0
 40
13.0
 40
13.0
 40
13.0
 40
14.0
 40
14.0
 40
14.0
 40
15.0
 40
15.0
 40
15.0
 40
16.0
 40
16.0
 40
16.0
 40
17.0
 40
17.0
 40
17.0
 40
17.0
 10
117.043674015878
 20
-155.8309705556603
 10
116.8510931782525
 20
-155.5219454906334
 10
116.5930555264073
 20
-155.3166177997125
 10
116.5021050055967
 20
-155.2511609854928
 10
116.2078938511564
 20
-155.5898138716928
 10
115.9181613208468
 20
-155.7420870921409
 10
115.7193793113479
 20
-155.8351046702426
 10
115.7193793113479
 20
-155.8351046702426
 10
115.5605604094779
 20
-155.6466579471995
 10
115.5605604094779
 20
-155.6466579471995
 10
115.6642577835839
 20
-155.6108289541529
 10
115.8778537036694
 20
-155.5346923439288
 10
116.1107421584723
 20
-155.3486571877253
 10
116.374980982191
 20
-155.1367838153825
 10
116.561360647943
 20
-154.8491183423641
 10
116.6840060472179
 20
-154.5363036723034
 10
116.6840060472179
 20
-154.5363036723034
 10
116.3074571106801
 20
-154.5363036723034
 10
116.3074571106801
 20
-154.5363036723034
 10
116.155183890232
 20
-154.5363036723034
 10
115.9457220847289
 20
-154.5404377868857
 10
115.795515921572
 20
-154.5593858120546
 10
115.795515921572
 20
-154.5593858120546
 10
115.795515921572
 20
-154.3478569492603
 10
115.795515921572
 20
-154.3478569492603
 10
115.8630397930829
 20
-154.3540581211337
 10
116.1234890117677
 20
-154.364737917138
 10
116.2099609084475
 20
-154.364737917138
 10
116.2099609084475
 20
-154.364737917138
 10
116.5210530307656
 20
-154.364737917138
 10
116.5210530307656
 20
-154.364737917138
 10
116.7284477789776
 20
-154.364737917138
 10
116.7515299187288
 20
-154.3585367452645
 10
116.7749565680285
 20
-154.3540581211337
 10
116.8193982997882
 20
-154.3478569492603
 10
116.857294350126
 20
-154.3223632426694
 10
116.8786539421345
 20
-154.3054822747917
 10
116.8786539421345
 20
-154.3054822747917
 10
117.0350612771649
 20
-154.4791150872483
 10
117.0350612771649
 20
-154.4791150872483
 10
116.995098169536
 20
-154.5066758511303
 10
116.9823513162405
 20
-154.517011137586
 10
116.93343096035
 20
-154.5531846401811
 10
116.8045843892016
 20
-154.8005424960221
 10
116.7243136643953
 20
-154.950748659179
 10
116.6206162902893
 20
-155.0968207077536
 10
116.93343096035
 20
-155.3145507424214
 10
117.1621853005706
 20
-155.6001491581486
 10
117.2148952614949
 20
-155.6783528256638
 10
117.2148952614949
 20
-155.6783528256638
 10
117.043674015878
 20
-155.8309705556603
 10
117.043674015878
 20
-155.8309705556603
 97
        0
 97
        0
 75
     2
 76
     1
 98
        0
  0
SPLINE
  5
1A7
330
196
100
AcDbEntity
  8
_U+30EC_U+30A4_U+30E4_U+30FC 1
370
     0
100
AcDbSpline
210
0.0
220
0.0
230
1.0
 70
    11
 71
     3
 72
    77
 73
    73
 74
     0
 42
0.0000000001
 43
0.0000000001
 12
1.0
 22
0.0
 32
0.0
 13
1.0
 23
0.0
 33
0.0
 40
0.0
 40
0.0
 40
0.0
 40
0.0
 40
1.0
 40
1.0
 40
1.0
 40
2.0
 40
2.0
 40
2.0
 40
3.0
 40
3.0
 40
3.0
 40
4.0
 40
4.0
 40
4.0
 40
5.0
 40
5.0
 40
5.0
 40
6.0
 40
6.0
 40
6.0
 40
7.0
 40
7.0
 40
7.0
 40
8.0
 40
8.0
 40
8.0
 40
9.0
 40
9.0
 40
9.0
 40
10.0
 40
10.0
 40
10.0
 40
11.0
 40
11.0
 40
11.0
 40
12.0
 40
12.0
 40
12.0
 40
13.0
 40
13.0
 40
13.0
 40
14.0
 40
14.0
 40
14.0
 40
15.0
 40
15.0
 40
15.0
 40
16.0
 40
16.0
 40
16.0
 40
17.0
 40
17.0
 40
17.0
 40
18.0
 40
18.0
 40
18.0
 40
19.0
 40
19.0
 40
19.0
 40
20.0
 40
20.0
 40
20.0
 40
21.0
 40
21.0
 40
21.0
 40
22.0
 40
22.0
 40
22.0
 40
23.0
 40
23.0
 40
23.0
 40
24.0
 40
24.0
 40
24.0
 40
24.0
 10
119.0607774224918
 20
-155.9684298655218
 30
0.0
 10
119.0142686334409
 20
-155.9935790625641
 30
0.0
 10
118.8895561768748
 20
-156.0063259158595
 30
0.0
 10
118.8110079998111
 20
-156.0063259158595
 30
0.0
 10
118.7986056560642
 20
-156.0063259158595
 30
0.0
 10
118.7731119494734
 20
-156.0063259158595
 30
0.0
 10
118.7393500137179
 20
-156.0021918012772
 30
0.0
 10
118.7393500137179
 20
-156.0021918012772
 30
0.0
 10
118.6418538114854
 20
-155.7758490278963
 30
0.0
 10
118.6418538114854
 20
-155.7758490278963
 30
0.0
 10
118.6714816326585
 20
-155.7820501997698
 30
0.0
 10
118.7286702177137
 20
-155.7906629384829
 30
0.0
 10
118.8451144451151
 20
-155.7906629384829
 30
0.0
 10
118.9233181126303
 20
-155.7906629384829
 30
0.0
 10
118.9253851699214
 20
-155.7482882640143
 30
0.0
 10
118.9253851699214
 20
-155.6910996789592
 30
0.0
 10
118.9253851699214
 20
-155.6910996789592
 30
0.0
 10
118.9253851699214
 20
-155.3421115063034
 30
0.0
 10
118.9253851699214
 20
-155.3421115063034
 30
0.0
 10
118.9253851699214
 20
-155.3421115063034
 30
0.0
 10
118.4661539417376
 20
-155.3421115063034
 30
0.0
 10
118.4661539417376
 20
-155.3421115063034
 30
0.0
 10
118.4685655085773
 20
-155.4795708161648
 30
0.0
 10
118.4706325658685
 20
-155.6783528256638
 30
0.0
 10
118.4768337377419
 20
-155.8116780209429
 30
0.0
 10
118.4789007950331
 20
-155.8392387848249
 30
0.0
 10
118.4789007950331
 20
-155.8836805165846
 30
0.0
 10
118.4916476483285
 20
-155.9450032162221
 30
0.0
 10
118.4916476483285
 20
-155.9450032162221
 30
0.0
 10
118.250490964361
 20
-155.9450032162221
 30
0.0
 10
118.250490964361
 20
-155.9450032162221
 30
0.0
 10
118.2759846709518
 20
-155.820290759656
 30
0.0
 10
118.2759846709518
 20
-155.4795708161648
 30
0.0
 10
118.2759846709518
 20
-155.3421115063034
 30
0.0
 10
118.2759846709518
 20
-155.3421115063034
 30
0.0
 10
117.8336344106458
 20
-155.3421115063034
 30
0.0
 10
117.8336344106458
 20
-155.3421115063034
 30
0.0
 10
117.8105522708946
 20
-155.5495062545154
 30
0.0
 10
117.7450954566748
 20
-155.8182237023649
 30
0.0
 10
117.5480359949185
 20
-156.0021918012772
 30
0.0
 10
117.5480359949185
 20
-156.0021918012772
 30
0.0
 10
117.3599337814239
 20
-155.8795464020023
 30
0.0
 10
117.3599337814239
 20
-155.8795464020023
 30
0.0
 10
117.6138373186868
 20
-155.6594048004949
 30
0.0
 10
117.6455321971511
 20
-155.3272975957168
 30
0.0
 10
117.6455321971511
 20
-154.9951903909387
 30
0.0
 10
117.6455321971511
 20
-154.9951903909387
 30
0.0
 10
117.6455321971511
 20
-154.5593858120546
 30
0.0
 10
117.6455321971511
 20
-154.5593858120546
 30
0.0
 10
117.6455321971511
 20
-154.523556819008
 30
0.0
 10
117.64346513986
 20
-154.2906683642051
 30
0.0
 10
117.6348524011468
 20
-154.1890380473903
 30
0.0
 10
117.774723277848
 20
-154.1997178433945
 30
0.0
 10
118.0158799618155
 20
-154.1997178433945
 30
0.0
 10
118.1595404435504
 20
-154.1997178433945
 30
0.0
 10
118.1595404435504
 20
-154.1997178433945
 30
0.0
 10
118.6187716717342
 20
-154.1997178433945
 30
0.0
 10
118.6187716717342
 20
-154.1997178433945
 30
0.0
 10
118.6335855823208
 20
-154.1997178433945
 30
0.0
 10
118.9825737549766
 20
-154.1997178433945
 30
0.0
 10
119.1410481472981
 20
-154.1890380473903
 30
0.0
 10
119.1389810900069
 20
-154.2420925178631
 30
0.0
 10
119.1327799181335
 20
-154.4029784770242
 30
0.0
 10
119.1327799181335
 20
-154.4536213806574
 30
0.0
 10
119.1327799181335
 20
-154.4536213806574
 30
0.0
 10
119.1327799181335
 20
-155.0606472051585
 30
0.0
 10
119.1327799181335
 20
-155.0606472051585
 30
0.0
 10
119.1327799181335
 20
-155.0799397398759
 30
0.0
 10
119.1431152045892
 20
-155.6511365713303
 30
0.0
 10
119.1431152045892
 20
-155.7631021746009
 30
0.0
 10
119.1431152045892
 20
-155.820290759656
 30
0.0
 10
119.1431152045892
 20
-155.9219210764709
 30
0.0
 10
119.0607774224918
 20
-155.9684298655218
 30
0.0
  0
POLYLINE
  5
1A8
330
196
100
AcDbEntity
  8
_U+30EC_U+30A4_U+30E4_U+30FC 1
370
     0
100
AcDb2dPolyline
 66
     1
 10
0.0
 20
0.0
 30
0.0
  0
VERTEX
  5
1A9
330
1A8
100
AcDbEntity
  8
_U+30EC_U+30A4_U+30E4_U+30FC 1
370
     0
100
AcDbVertex
100
AcDb2dVertex
 10
118.2759846709518
 20
-154.3816188850157
 30
0.0
  0
VERTEX
  5
1AA
330
1A8
100
AcDbEntity
  8
_U+30EC_U+30A4_U+30E4_U+30FC 1
370
     0
100
AcDbVertex
100
AcDb2dVertex
 10
117.8381130347766
 20
-154.3816188850157
 30
0.0
  0
VERTEX
  5
1AB
330
1A8
100
AcDbEntity
  8
_U+30EC_U+30A4_U+30E4_U+30FC 1
370
     0
100
AcDbVertex
100
AcDb2dVertex
 10
117.8381130347766
 20
-154.6861653259118
 30
0.0
  0
VERTEX
  5
1AC
330
1A8
100
AcDbEntity
  8
_U+30EC_U+30A4_U+30E4_U+30FC 1
370
     0
100
AcDbVertex
100
AcDb2dVertex
 10
118.2759846709518
 20
-154.6861653259118
 30
0.0
  0
VERTEX
  5
1AD
330
1A8
100
AcDbEntity
  8
_U+30EC_U+30A4_U+30E4_U+30FC 1
370
     0
100
AcDbVertex
100
AcDb2dVertex
 10
118.2759846709518
 20
-154.3816188850157
 30
0.0
  0
SEQEND
  5
1AE
330
1A8
100
AcDbEntity
  8
_U+30EC_U+30A4_U+30E4_U+30FC 1
370
     0
  0
POLYLINE
  5
1AF
330
196
100
AcDbEntity
  8
_U+30EC_U+30A4_U+30E4_U+30FC 1
370
     0
100
AcDb2dPolyline
 66
     1
 10
0.0
 20
0.0
 30
0.0
  0
VERTEX
  5
1B0
330
1AF
100
AcDbEntity
  8
_U+30EC_U+30A4_U+30E4_U+30FC 1
370
     0
100
AcDbVertex
100
AcDb2dVertex
 10
118.2759846709518
 20
-154.8535969664949
 30
0.0
  0
VERTEX
  5
1B1
330
1AF
100
AcDbEntity
  8
_U+30EC_U+30A4_U+30E4_U+30FC 1
370
     0
100
AcDbVertex
100
AcDb2dVertex
 10
117.8381130347766
 20
-154.8535969664949
 30
0.0
  0
VERTEX
  5
1B2
330
1AF
100
AcDbEntity
  8
_U+30EC_U+30A4_U+30E4_U+30FC 1
370
     0
100
AcDbVertex
100
AcDb2dVertex
 10
117.8381130347766
 20
-155.1622775219733
 30
0.0
  0
VERTEX
  5
1B3
330
1AF
100
AcDbEntity
  8
_U+30EC_U+30A4_U+30E4_U+30FC 1
370
     0
100
AcDbVertex
100
AcDb2dVertex
 10
118.2759846709518
 20
-155.1622775219733
 30
0.0
  0
VERTEX
  5
1B4
330
1AF
100
AcDbEntity
  8
_U+30EC_U+30A4_U+30E4_U+30FC 1
370
     0
100
AcDbVertex
100
AcDb2dVertex
 10
118.2759846709518
 20
-154.8535969664949
 30
0.0
  0
SEQEND
  5
1B5
330
1AF
100
AcDbEntity
  8
_U+30EC_U+30A4_U+30E4_U+30FC 1
370
     0
  0
POLYLINE
  5
1B6
330
196
100
AcDbEntity
  8
_U+30EC_U+30A4_U+30E4_U+30FC 1
370
     0
100
AcDb2dPolyline
 66
     1
 10
0.0
 20
0.0
 30
0.0
  0
VERTEX
  5
1B7
330
1B6
100
AcDbEntity
  8
_U+30EC_U+30A4_U+30E4_U+30FC 1
370
     0
100
AcDbVertex
100
AcDb2dVertex
 10
118.9253851699214
 20
-154.3816188850157
 30
0.0
  0
VERTEX
  5
1B8
330
1B6
100
AcDbEntity
  8
_U+30EC_U+30A4_U+30E4_U+30FC 1
370
     0
100
AcDbVertex
100
AcDb2dVertex
 10
118.4661539417376
 20
-154.3816188850157
 30
0.0
  0
VERTEX
  5
1B9
330
1B6
100
AcDbEntity
  8
_U+30EC_U+30A4_U+30E4_U+30FC 1
370
     0
100
AcDbVertex
100
AcDb2dVertex
 10
118.4661539417376
 20
-154.6861653259118
 30
0.0
  0
VERTEX
  5
1BA
330
1B6
100
AcDbEntity
  8
_U+30EC_U+30A4_U+30E4_U+30FC 1
370
     0
100
AcDbVertex
100
AcDb2dVertex
 10
118.9253851699214
 20
-154.6861653259118
 30
0.0
  0
VERTEX
  5
1BB
330
1B6
100
AcDbEntity
  8
_U+30EC_U+30A4_U+30E4_U+30FC 1
370
     0
100
AcDbVertex
100
AcDb2dVertex
 10
118.9253851699214
 20
-154.3816188850157
 30
0.0
  0
SEQEND
  5
1BC
330
1B6
100
AcDbEntity
  8
_U+30EC_U+30A4_U+30E4_U+30FC 1
370
     0
  0
POLYLINE
  5
1BD
330
196
100
AcDbEntity
  8
_U+30EC_U+30A4_U+30E4_U+30FC 1
370
     0
100
AcDb2dPolyline
 66
     1
 10
0.0
 20
0.0
 30
0.0
  0
VERTEX
  5
1BE
330
1BD
100
AcDbEntity
  8
_U+30EC_U+30A4_U+30E4_U+30FC 1
370
     0
100
AcDbVertex
100
AcDb2dVertex
 10
118.9253851699214
 20
-154.8535969664949
 30
0.0
  0
VERTEX
  5
1BF
330
1BD
100
AcDbEntity
  8
_U+30EC_U+30A4_U+30E4_U+30FC 1
370
     0
100
AcDbVertex
100
AcDb2dVertex
 10
118.4661539417376
 20
-154.8535969664949
 30
0.0
  0
VERTEX
  5
1C0
330
1BD
100
AcDbEntity
  8
_U+30EC_U+30A4_U+30E4_U+30FC 1
370
     0
100
AcDbVertex
100
AcDb2dVertex
 10
118.4661539417376
 20
-155.1622775219733
 30
0.0
  0
VERTEX
  5
1C1
330
1BD
100
AcDbEntity
  8
_U+30EC_U+30A4_U+30E4_U+30FC 1
370
     0
100
AcDbVertex
100
AcDb2dVertex
 10
118.9253851699214
 20
-155.1622775219733
 30
0.0
  0
VERTEX
  5
1C2
330
1BD
100
AcDbEntity
  8
_U+30EC_U+30A4_U+30E4_U+30FC 1
370
     0
100
AcDbVertex
100
AcDb2dVertex
 10
118.9253851699214
 20
-154.8535969664949
 30
0.0
  0
SEQEND
  5
1C3
330
1BD
100
AcDbEntity
  8
_U+30EC_U+30A4_U+30E4_U+30FC 1
370
     0
  0
HATCH
  5
1C4
330
196
100
AcDbEntity
  8
_U+30EC_U+30A4_U+30E4_U+30FC 1
 62
   179
420
  2234388
100
AcDbHatch
 10
0.0
 20
0.0
 30
0.0
210
0.0
220
0.0
230
1.0
  2
SOLID
 70
     1
 71
     0
 91
        5
 92
        1
 93
        1
 72
     4
 94
        3
 73
     0
 74
     1
 95
       77
 96
       73
 40
0.0
 40
0.0
 40
0.0
 40
0.0
 40
1.0
 40
1.0
 40
1.0
 40
2.0
 40
2.0
 40
2.0
 40
3.0
 40
3.0
 40
3.0
 40
4.0
 40
4.0
 40
4.0
 40
5.0
 40
5.0
 40
5.0
 40
6.0
 40
6.0
 40
6.0
 40
7.0
 40
7.0
 40
7.0
 40
8.0
 40
8.0
 40
8.0
 40
9.0
 40
9.0
 40
9.0
 40
10.0
 40
10.0
 40
10.0
 40
11.0
 40
11.0
 40
11.0
 40
12.0
 40
12.0
 40
12.0
 40
13.0
 40
13.0
 40
13.0
 40
14.0
 40
14.0
 40
14.0
 40
15.0
 40
15.0
 40
15.0
 40
16.0
 40
16.0
 40
16.0
 40
17.0
 40
17.0
 40
17.0
 40
18.0
 40
18.0
 40
18.0
 40
19.0
 40
19.0
 40
19.0
 40
20.0
 40
20.0
 40
20.0
 40
21.0
 40
21.0
 40
21.0
 40
22.0
 40
22.0
 40
22.0
 40
23.0
 40
23.0
 40
23.0
 40
24.0
 40
24.0
 40
24.0
 40
24.0
 10
119.0607774224918
 20
-155.9684298655218
 10
119.0142686334409
 20
-155.9935790625641
 10
118.8895561768748
 20
-156.0063259158595
 10
118.8110079998111
 20
-156.0063259158595
 10
118.7986056560642
 20
-156.0063259158595
 10
118.7731119494734
 20
-156.0063259158595
 10
118.7393500137179
 20
-156.0021918012772
 10
118.7393500137179
 20
-156.0021918012772
 10
118.6418538114854
 20
-155.7758490278963
 10
118.6418538114854
 20
-155.7758490278963
 10
118.6714816326585
 20
-155.7820501997698
 10
118.7286702177137
 20
-155.7906629384829
 10
118.8451144451151
 20
-155.7906629384829
 10
118.9233181126303
 20
-155.7906629384829
 10
118.9253851699214
 20
-155.7482882640143
 10
118.9253851699214
 20
-155.6910996789592
 10
118.9253851699214
 20
-155.6910996789592
 10
118.9253851699214
 20
-155.3421115063034
 10
118.9253851699214
 20
-155.3421115063034
 10
118.9253851699214
 20
-155.3421115063034
 10
118.4661539417376
 20
-155.3421115063034
 10
118.4661539417376
 20
-155.3421115063034
 10
118.4685655085773
 20
-155.4795708161648
 10
118.4706325658685
 20
-155.6783528256638
 10
118.4768337377419
 20
-155.8116780209429
 10
118.4789007950331
 20
-155.8392387848249
 10
118.4789007950331
 20
-155.8836805165846
 10
118.4916476483285
 20
-155.9450032162221
 10
118.4916476483285
 20
-155.9450032162221
 10
118.250490964361
 20
-155.9450032162221
 10
118.250490964361
 20
-155.9450032162221
 10
118.2759846709518
 20
-155.820290759656
 10
118.2759846709518
 20
-155.4795708161648
 10
118.2759846709518
 20
-155.3421115063034
 10
118.2759846709518
 20
-155.3421115063034
 10
117.8336344106458
 20
-155.3421115063034
 10
117.8336344106458
 20
-155.3421115063034
 10
117.8105522708946
 20
-155.5495062545154
 10
117.7450954566748
 20
-155.8182237023649
 10
117.5480359949185
 20
-156.0021918012772
 10
117.5480359949185
 20
-156.0021918012772
 10
117.3599337814239
 20
-155.8795464020023
 10
117.3599337814239
 20
-155.8795464020023
 10
117.6138373186868
 20
-155.6594048004949
 10
117.6455321971511
 20
-155.3272975957168
 10
117.6455321971511
 20
-154.9951903909387
 10
117.6455321971511
 20
-154.9951903909387
 10
117.6455321971511
 20
-154.5593858120546
 10
117.6455321971511
 20
-154.5593858120546
 10
117.6455321971511
 20
-154.523556819008
 10
117.64346513986
 20
-154.2906683642051
 10
117.6348524011468
 20
-154.1890380473903
 10
117.774723277848
 20
-154.1997178433945
 10
118.0158799618155
 20
-154.1997178433945
 10
118.1595404435504
 20
-154.1997178433945
 10
118.1595404435504
 20
-154.1997178433945
 10
118.6187716717342
 20
-154.1997178433945
 10
118.6187716717342
 20
-154.1997178433945
 10
118.6335855823208
 20
-154.1997178433945
 10
118.9825737549766
 20
-154.1997178433945
 10
119.1410481472981
 20
-154.1890380473903
 10
119.1389810900069
 20
-154.2420925178631
 10
119.1327799181335
 20
-154.4029784770242
 10
119.1327799181335
 20
-154.4536213806574
 10
119.1327799181335
 20
-154.4536213806574
 10
119.1327799181335
 20
-155.0606472051585
 10
119.1327799181335
 20
-155.0606472051585
 10
119.1327799181335
 20
-155.0799397398759
 10
119.1431152045892
 20
-155.6511365713303
 10
119.1431152045892
 20
-155.7631021746009
 10
119.1431152045892
 20
-155.820290759656
 10
119.1431152045892
 20
-155.9219210764709
 10
119.0607774224918
 20
-155.9684298655218
 97
        0
 97
        0
 92
        1
 93
        4
 72
     1
 10
118.2759846709518
 20
-154.3816188850157
 11
117.8381130347766
 21
-154.3816188850157
 72
     1
 10
117.8381130347766
 20
-154.3816188850157
 11
117.8381130347766
 21
-154.6861653259118
 72
     1
 10
117.8381130347766
 20
-154.6861653259118
 11
118.2759846709518
 21
-154.6861653259118
 72
     1
 10
118.2759846709518
 20
-154.6861653259118
 11
118.2759846709518
 21
-154.3816188850157
 97
        0
 92
        1
 93
        4
 72
     1
 10
118.2759846709518
 20
-154.8535969664949
 11
117.8381130347766
 21
-154.8535969664949
 72
     1
 10
117.8381130347766
 20
-154.8535969664949
 11
117.8381130347766
 21
-155.1622775219733
 72
     1
 10
117.8381130347766
 20
-155.1622775219733
 11
118.2759846709518
 21
-155.1622775219733
 72
     1
 10
118.2759846709518
 20
-155.1622775219733
 11
118.2759846709518
 21
-154.8535969664949
 97
        0
 92
        1
 93
        4
 72
     1
 10
118.9253851699214
 20
-154.3816188850157
 11
118.4661539417376
 21
-154.3816188850157
 72
     1
 10
118.4661539417376
 20
-154.3816188850157
 11
118.4661539417376
 21
-154.6861653259118
 72
     1
 10
118.4661539417376
 20
-154.6861653259118
 11
118.9253851699214
 21
-154.6861653259118
 72
     1
 10
118.9253851699214
 20
-154.6861653259118
 11
118.9253851699214
 21
-154.3816188850157
 97
        0
 92
        1
 93
        4
 72
     1
 10
118.9253851699214
 20
-154.8535969664949
 11
118.4661539417376
 21
-154.8535969664949
 72
     1
 10
118.4661539417376
 20
-154.8535969664949
 11
118.4661539417376
 21
-155.1622775219733
 72
     1
 10
118.4661539417376
 20
-155.1622775219733
 11
118.9253851699214
 21
-155.1622775219733
 72
     1
 10
118.9253851699214
 20
-155.1622775219733
 11
118.9253851699214
 21
-154.8535969664949
 97
        0
 75
     2
 76
     1
 98
        0
  0
ENDBLK
  5
199
330
196
100
AcDbEntity
  8
0
100
AcDbBlockEnd
  0
BLOCK
  5
1C7
330
1C5
100
AcDbEntity
  8
0
100
AcDbBlockBegin
  2
block 8
 70
     0
 10
0.0
 20
0.0
 30
0.0
  3
block 8
  1

  0
SPLINE
  5
1C9
330
1C5
100
AcDbEntity
  8
_U+30EC_U+30A4_U+30E4_U+30FC 1
370
     0
100
AcDbSpline
210
0.0
220
0.0
230
1.0
 70
    11
 71
     3
 72
    44
 73
    40
 74
     0
 42
0.0000000001
 43
0.0000000001
 12
1.0
 22
0.0
 32
0.0
 13
1.0
 23
0.0
 33
0.0
 40
0.0
 40
0.0
 40
0.0
 40
0.0
 40
1.0
 40
1.0
 40
1.0
 40
2.0
 40
2.0
 40
2.0
 40
3.0
 40
3.0
 40
3.0
 40
4.0
 40
4.0
 40
4.0
 40
5.0
 40
5.0
 40
5.0
 40
6.0
 40
6.0
 40
6.0
 40
7.0
 40
7.0
 40
7.0
 40
8.0
 40
8.0
 40
8.0
 40
9.0
 40
9.0
 40
9.0
 40
10.0
 40
10.0
 40
10.0
 40
11.0
 40
11.0
 40
11.0
 40
12.0
 40
12.0
 40
12.0
 40
13.0
 40
13.0
 40
13.0
 40
13.0
 10
113.396351425644
 20
-157.2579291056508
 30
0.0
 10
113.2843858223734
 20
-157.626209813024
 30
0.0
 10
113.2337429187402
 20
-157.7846842053455
 30
0.0
 10
113.0370279665324
 20
-158.0344536280261
 30
0.0
 10
112.8527153580715
 20
-158.2649305159893
 30
0.0
 10
112.6160372982349
 20
-158.4509656721928
 30
0.0
 10
112.3366400543811
 20
-158.5443277598431
 30
0.0
 10
112.3366400543811
 20
-158.5443277598431
 30
0.0
 10
112.1440592167557
 20
-158.364493775513
 30
0.0
 10
112.1440592167557
 20
-158.364493775513
 30
0.0
 10
112.7851914865606
 20
-158.212220555065
 30
0.0
 10
113.1152316340476
 20
-157.6558376341972
 30
0.0
 10
113.1786213909762
 20
-157.2155544311822
 30
0.0
 10
113.1786213909762
 20
-157.2155544311822
 30
0.0
 10
112.4127766646051
 20
-157.2155544311822
 30
0.0
 10
112.4127766646051
 20
-157.2155544311822
 30
0.0
 10
112.3197590865034
 20
-157.2155544311822
 30
0.0
 10
112.1357909875911
 20
-157.2200330553131
 30
0.0
 10
111.9790391430122
 20
-157.2389810804819
 30
0.0
 10
111.9790391430122
 20
-157.2389810804819
 30
0.0
 10
111.9790391430122
 20
-157.0188394789745
 30
0.0
 10
111.9790391430122
 20
-157.0188394789745
 30
0.0
 10
112.0658555492405
 20
-157.040199070983
 30
0.0
 10
112.3176920292123
 20
-157.040199070983
 30
0.0
 10
112.4169107791874
 20
-157.040199070983
 30
0.0
 10
112.4169107791874
 20
-157.040199070983
 30
0.0
 10
112.8485812434892
 20
-157.040199070983
 30
0.0
 10
112.8485812434892
 20
-157.040199070983
 30
0.0
 10
112.8909559179578
 20
-157.040199070983
 30
0.0
 10
113.1255669205033
 20
-157.0377875041433
 30
0.0
 10
113.1638074803896
 20
-157.0315863322699
 30
0.0
 10
113.2061821548582
 20
-157.0253851603964
 30
0.0
 10
113.2082492121493
 20
-157.0229735935568
 30
0.0
 10
113.2695719117868
 20
-156.9830104859279
 30
0.0
 10
113.2695719117868
 20
-156.9830104859279
 30
0.0
 10
113.4580186348299
 20
-157.1373507636671
 30
0.0
 10
113.4580186348299
 20
-157.1373507636671
 30
0.0
 10
113.4283908136568
 20
-157.1669785848402
 30
0.0
 10
113.4135769030702
 20
-157.1986734633045
 30
0.0
 10
113.396351425644
 20
-157.2579291056508
 30
0.0
  0
SPLINE
  5
1CA
330
1C5
100
AcDbEntity
  8
_U+30EC_U+30A4_U+30E4_U+30FC 1
370
     0
100
AcDbSpline
210
0.0
220
0.0
230
1.0
 70
    11
 71
     3
 72
    17
 73
    13
 74
     0
 42
0.0000000001
 43
0.0000000001
 12
1.0
 22
0.0
 32
0.0
 13
1.0
 23
0.0
 33
0.0
 40
0.0
 40
0.0
 40
0.0
 40
0.0
 40
1.0
 40
1.0
 40
1.0
 40
2.0
 40
2.0
 40
2.0
 40
3.0
 40
3.0
 40
3.0
 40
4.0
 40
4.0
 40
4.0
 40
4.0
 10
113.6058132311472
 20
-157.0591470961519
 30
0.0
 10
113.47903371729
 20
-157.0591470961519
 30
0.0
 10
113.3774034004751
 20
-156.957516779337
 30
0.0
 10
113.3774034004751
 20
-156.8307372654798
 30
0.0
 10
113.3774034004751
 20
-156.7036132420741
 30
0.0
 10
113.47903371729
 20
-156.5999158679681
 30
0.0
 10
113.6058132311472
 20
-156.5999158679681
 30
0.0
 10
113.7329372545529
 20
-156.5999158679681
 30
0.0
 10
113.8366346286589
 20
-156.7036132420741
 30
0.0
 10
113.8366346286589
 20
-156.8307372654798
 30
0.0
 10
113.8366346286589
 20
-156.957516779337
 30
0.0
 10
113.7329372545529
 20
-157.0591470961519
 30
0.0
 10
113.6058132311472
 20
-157.0591470961519
 30
0.0
  0
SPLINE
  5
1CB
330
1C5
100
AcDbEntity
  8
_U+30EC_U+30A4_U+30E4_U+30FC 1
370
     0
100
AcDbSpline
210
0.0
220
0.0
230
1.0
 70
    11
 71
     3
 72
    17
 73
    13
 74
     0
 42
0.0000000001
 43
0.0000000001
 12
1.0
 22
0.0
 32
0.0
 13
1.0
 23
0.0
 33
0.0
 40
0.0
 40
0.0
 40
0.0
 40
0.0
 40
1.0
 40
1.0
 40
1.0
 40
2.0
 40
2.0
 40
2.0
 40
3.0
 40
3.0
 40
3.0
 40
4.0
 40
4.0
 40
4.0
 40
4.0
 10
113.603746173856
 20
-156.729106948665
 30
0.0
 10
113.5489691556405
 20
-156.729106948665
 30
0.0
 10
113.5045274238808
 20
-156.7735486804247
 30
0.0
 10
113.5045274238808
 20
-156.8286702081887
 30
0.0
 10
113.5045274238808
 20
-156.8855142836953
 30
0.0
 10
113.5489691556405
 20
-156.9344346395858
 30
0.0
 10
113.6078802884383
 20
-156.9344346395858
 30
0.0
 10
113.6671359307846
 20
-156.9344346395858
 30
0.0
 10
113.707443547962
 20
-156.8834472264041
 30
0.0
 10
113.707443547962
 20
-156.8307372654798
 30
0.0
 10
113.707443547962
 20
-156.7735486804247
 30
0.0
 10
113.6609347589112
 20
-156.729106948665
 30
0.0
 10
113.603746173856
 20
-156.729106948665
 30
0.0
  0
HATCH
  5
1CC
330
1C5
100
AcDbEntity
  8
_U+30EC_U+30A4_U+30E4_U+30FC 1
 62
   179
420
  2234388
100
AcDbHatch
 10
0.0
 20
0.0
 30
0.0
210
0.0
220
0.0
230
1.0
  2
SOLID
 70
     1
 71
     0
 91
        3
 92
        1
 93
        1
 72
     4
 94
        3
 73
     0
 74
     1
 95
       44
 96
       40
 40
0.0
 40
0.0
 40
0.0
 40
0.0
 40
1.0
 40
1.0
 40
1.0
 40
2.0
 40
2.0
 40
2.0
 40
3.0
 40
3.0
 40
3.0
 40
4.0
 40
4.0
 40
4.0
 40
5.0
 40
5.0
 40
5.0
 40
6.0
 40
6.0
 40
6.0
 40
7.0
 40
7.0
 40
7.0
 40
8.0
 40
8.0
 40
8.0
 40
9.0
 40
9.0
 40
9.0
 40
10.0
 40
10.0
 40
10.0
 40
11.0
 40
11.0
 40
11.0
 40
12.0
 40
12.0
 40
12.0
 40
13.0
 40
13.0
 40
13.0
 40
13.0
 10
113.396351425644
 20
-157.2579291056508
 10
113.2843858223734
 20
-157.626209813024
 10
113.2337429187402
 20
-157.7846842053455
 10
113.0370279665324
 20
-158.0344536280261
 10
112.8527153580715
 20
-158.2649305159893
 10
112.6160372982349
 20
-158.4509656721928
 10
112.3366400543811
 20
-158.5443277598431
 10
112.3366400543811
 20
-158.5443277598431
 10
112.1440592167557
 20
-158.364493775513
 10
112.1440592167557
 20
-158.364493775513
 10
112.7851914865606
 20
-158.212220555065
 10
113.1152316340476
 20
-157.6558376341972
 10
113.1786213909762
 20
-157.2155544311822
 10
113.1786213909762
 20
-157.2155544311822
 10
112.4127766646051
 20
-157.2155544311822
 10
112.4127766646051
 20
-157.2155544311822
 10
112.3197590865034
 20
-157.2155544311822
 10
112.1357909875911
 20
-157.2200330553131
 10
111.9790391430122
 20
-157.2389810804819
 10
111.9790391430122
 20
-157.2389810804819
 10
111.9790391430122
 20
-157.0188394789745
 10
111.9790391430122
 20
-157.0188394789745
 10
112.0658555492405
 20
-157.040199070983
 10
112.3176920292123
 20
-157.040199070983
 10
112.4169107791874
 20
-157.040199070983
 10
112.4169107791874
 20
-157.040199070983
 10
112.8485812434892
 20
-157.040199070983
 10
112.8485812434892
 20
-157.040199070983
 10
112.8909559179578
 20
-157.040199070983
 10
113.1255669205033
 20
-157.0377875041433
 10
113.1638074803896
 20
-157.0315863322699
 10
113.2061821548582
 20
-157.0253851603964
 10
113.2082492121493
 20
-157.0229735935568
 10
113.2695719117868
 20
-156.9830104859279
 10
113.2695719117868
 20
-156.9830104859279
 10
113.4580186348299
 20
-157.1373507636671
 10
113.4580186348299
 20
-157.1373507636671
 10
113.4283908136568
 20
-157.1669785848402
 10
113.4135769030702
 20
-157.1986734633045
 10
113.396351425644
 20
-157.2579291056508
 97
        0
 97
        0
 92
        1
 93
        1
 72
     4
 94
        3
 73
     0
 74
     1
 95
       17
 96
       13
 40
0.0
 40
0.0
 40
0.0
 40
0.0
 40
1.0
 40
1.0
 40
1.0
 40
2.0
 40
2.0
 40
2.0
 40
3.0
 40
3.0
 40
3.0
 40
4.0
 40
4.0
 40
4.0
 40
4.0
 10
113.6058132311472
 20
-157.0591470961519
 10
113.47903371729
 20
-157.0591470961519
 10
113.3774034004751
 20
-156.957516779337
 10
113.3774034004751
 20
-156.8307372654798
 10
113.3774034004751
 20
-156.7036132420741
 10
113.47903371729
 20
-156.5999158679681
 10
113.6058132311472
 20
-156.5999158679681
 10
113.7329372545529
 20
-156.5999158679681
 10
113.8366346286589
 20
-156.7036132420741
 10
113.8366346286589
 20
-156.8307372654798
 10
113.8366346286589
 20
-156.957516779337
 10
113.7329372545529
 20
-157.0591470961519
 10
113.6058132311472
 20
-157.0591470961519
 97
        0
 97
        0
 92
        1
 93
        1
 72
     4
 94
        3
 73
     0
 74
     1
 95
       17
 96
       13
 40
0.0
 40
0.0
 40
0.0
 40
0.0
 40
1.0
 40
1.0
 40
1.0
 40
2.0
 40
2.0
 40
2.0
 40
3.0
 40
3.0
 40
3.0
 40
4.0
 40
4.0
 40
4.0
 40
4.0
 10
113.603746173856
 20
-156.729106948665
 10
113.5489691556405
 20
-156.729106948665
 10
113.5045274238808
 20
-156.7735486804247
 10
113.5045274238808
 20
-156.8286702081887
 10
113.5045274238808
 20
-156.8855142836953
 10
113.5489691556405
 20
-156.9344346395858
 10
113.6078802884383
 20
-156.9344346395858
 10
113.6671359307846
 20
-156.9344346395858
 10
113.707443547962
 20
-156.8834472264041
 10
113.707443547962
 20
-156.8307372654798
 10
113.707443547962
 20
-156.7735486804247
 10
113.6609347589112
 20
-156.729106948665
 10
113.603746173856
 20
-156.729106948665
 97
        0
 97
        0
 75
     2
 76
     1
 98
        0
  0
SPLINE
  5
1CD
330
1C5
100
AcDbEntity
  8
_U+30EC_U+30A4_U+30E4_U+30FC 1
370
     0
100
AcDbSpline
210
0.0
220
0.0
230
1.0
 70
    11
 71
     3
 72
    50
 73
    46
 74
     0
 42
0.0000000001
 43
0.0000000001
 12
1.0
 22
0.0
 32
0.0
 13
1.0
 23
0.0
 33
0.0
 40
0.0
 40
0.0
 40
0.0
 40
0.0
 40
1.0
 40
1.0
 40
1.0
 40
2.0
 40
2.0
 40
2.0
 40
3.0
 40
3.0
 40
3.0
 40
4.0
 40
4.0
 40
4.0
 40
5.0
 40
5.0
 40
5.0
 40
6.0
 40
6.0
 40
6.0
 40
7.0
 40
7.0
 40
7.0
 40
8.0
 40
8.0
 40
8.0
 40
9.0
 40
9.0
 40
9.0
 40
10.0
 40
10.0
 40
10.0
 40
11.0
 40
11.0
 40
11.0
 40
12.0
 40
12.0
 40
12.0
 40
13.0
 40
13.0
 40
13.0
 40
14.0
 40
14.0
 40
14.0
 40
15.0
 40
15.0
 40
15.0
 40
15.0
 10
115.4010524885109
 20
-157.5669541706777
 30
0.0
 10
115.3225043114472
 20
-157.7443765881681
 30
0.0
 10
115.1871120588768
 20
-157.9517713363801
 30
0.0
 10
115.0496527490154
 20
-158.0916422130813
 30
0.0
 10
114.8804985606896
 20
-158.2628634586982
 30
0.0
 10
114.7175455442373
 20
-158.3517469222176
 30
0.0
 10
114.3981851927546
 20
-158.4933403466614
 30
0.0
 10
114.3981851927546
 20
-158.4933403466614
 30
0.0
 10
114.2290310044289
 20
-158.3052381331667
 30
0.0
 10
114.2290310044289
 20
-158.3052381331667
 30
0.0
 10
114.4150661606323
 20
-158.281811483867
 30
0.0
 10
114.5862874062493
 20
-158.1949950776388
 30
0.0
 10
114.7389051362458
 20
-158.0892306462416
 30
0.0
 10
115.0010769026733
 20
-157.9073296046204
 30
0.0
 10
115.1915906830077
 20
-157.5941704250112
 30
0.0
 10
115.2401665293497
 20
-157.41226938339
 30
0.0
 10
115.2401665293497
 20
-157.41226938339
 30
0.0
 10
114.5694064383715
 20
-157.41226938339
 30
0.0
 10
114.5694064383715
 20
-157.41226938339
 30
0.0
 10
114.41093204605
 20
-157.41226938339
 30
0.0
 10
114.1187879489009
 20
-157.4208821221031
 30
0.0
 10
113.9665147284528
 20
-157.4377630899808
 30
0.0
 10
113.9665147284528
 20
-157.4377630899808
 30
0.0
 10
113.9665147284528
 20
-157.2093532593088
 30
0.0
 10
113.9665147284528
 20
-157.2093532593088
 30
0.0
 10
114.0006211737568
 20
-157.2155544311822
 30
0.0
 10
114.0257703707991
 20
-157.2221001126042
 30
0.0
 10
114.078824841272
 20
-157.2262342271865
 30
0.0
 10
114.1801106485383
 20
-157.23243539906
 30
0.0
 10
114.3771701102946
 20
-157.2348469658996
 30
0.0
 10
114.4615749496832
 20
-157.2348469658996
 30
0.0
 10
114.4615749496832
 20
-157.2348469658996
 30
0.0
 10
114.9673149669179
 20
-157.2348469658996
 30
0.0
 10
114.9673149669179
 20
-157.2348469658996
 30
0.0
 10
115.0348388384288
 20
-157.2348469658996
 30
0.0
 10
115.1809108870034
 20
-157.2303683417688
 30
0.0
 10
115.2422335866408
 20
-157.2241671698954
 30
0.0
 10
115.3142360822826
 20
-157.2155544311822
 30
0.0
 10
115.3417968461646
 20
-157.2007405205956
 30
0.0
 10
115.37555878192
 20
-157.1776583808445
 30
0.0
 10
115.37555878192
 20
-157.1776583808445
 30
0.0
 10
115.5405788556635
 20
-157.3447455118791
 30
0.0
 10
115.5405788556635
 20
-157.3447455118791
 30
0.0
 10
115.4706434173129
 20
-157.41226938339
 30
0.0
 10
115.424134628262
 20
-157.515966757496
 30
0.0
 10
115.4010524885109
 20
-157.5669541706777
 30
0.0
  0
SPLINE
  5
1CE
330
1C5
100
AcDbEntity
  8
_U+30EC_U+30A4_U+30E4_U+30FC 1
370
     0
100
AcDbSpline
210
0.0
220
0.0
230
1.0
 70
    11
 71
     3
 72
    29
 73
    25
 74
     0
 42
0.0000000001
 43
0.0000000001
 12
1.0
 22
0.0
 32
0.0
 13
1.0
 23
0.0
 33
0.0
 40
0.0
 40
0.0
 40
0.0
 40
0.0
 40
1.0
 40
1.0
 40
1.0
 40
2.0
 40
2.0
 40
2.0
 40
3.0
 40
3.0
 40
3.0
 40
4.0
 40
4.0
 40
4.0
 40
5.0
 40
5.0
 40
5.0
 40
6.0
 40
6.0
 40
6.0
 40
7.0
 40
7.0
 40
7.0
 40
8.0
 40
8.0
 40
8.0
 40
8.0
 10
114.9080593245716
 20
-156.9406358114593
 30
0.0
 10
114.9080593245716
 20
-156.9406358114593
 30
0.0
 10
114.5673393810804
 20
-156.9406358114593
 30
0.0
 10
114.5673393810804
 20
-156.9406358114593
 30
0.0
 10
114.4533067205186
 20
-156.9406358114593
 30
0.0
 10
114.3368624931172
 20
-156.9447699260416
 30
0.0
 10
114.2224853230069
 20
-156.9595838366282
 30
0.0
 10
114.2224853230069
 20
-156.9595838366282
 30
0.0
 10
114.2224853230069
 20
-156.750122031125
 30
0.0
 10
114.2224853230069
 20
-156.750122031125
 30
0.0
 10
114.3409966076995
 20
-156.7649359417115
 30
0.0
 10
114.5146294201561
 20
-156.7694145658424
 30
0.0
 10
114.5673393810804
 20
-156.7694145658424
 30
0.0
 10
114.5673393810804
 20
-156.7694145658424
 30
0.0
 10
114.9080593245716
 20
-156.7694145658424
 30
0.0
 10
114.9080593245716
 20
-156.7694145658424
 30
0.0
 10
115.024503551973
 20
-156.7694145658424
 30
0.0
 10
115.140603269826
 20
-156.7649359417115
 30
0.0
 10
115.2570474972274
 20
-156.750122031125
 30
0.0
 10
115.2570474972274
 20
-156.750122031125
 30
0.0
 10
115.2570474972274
 20
-156.9595838366282
 30
0.0
 10
115.2570474972274
 20
-156.9595838366282
 30
0.0
 10
115.1068413340705
 20
-156.9406358114593
 30
0.0
 10
114.9228732351582
 20
-156.9406358114593
 30
0.0
 10
114.9080593245716
 20
-156.9406358114593
 30
0.0
  0
HATCH
  5
1CF
330
1C5
100
AcDbEntity
  8
_U+30EC_U+30A4_U+30E4_U+30FC 1
 62
   179
420
  2234388
100
AcDbHatch
 10
0.0
 20
0.0
 30
0.0
210
0.0
220
0.0
230
1.0
  2
SOLID
 70
     1
 71
     0
 91
        2
 92
        1
 93
        1
 72
     4
 94
        3
 73
     0
 74
     1
 95
       50
 96
       46
 40
0.0
 40
0.0
 40
0.0
 40
0.0
 40
1.0
 40
1.0
 40
1.0
 40
2.0
 40
2.0
 40
2.0
 40
3.0
 40
3.0
 40
3.0
 40
4.0
 40
4.0
 40
4.0
 40
5.0
 40
5.0
 40
5.0
 40
6.0
 40
6.0
 40
6.0
 40
7.0
 40
7.0
 40
7.0
 40
8.0
 40
8.0
 40
8.0
 40
9.0
 40
9.0
 40
9.0
 40
10.0
 40
10.0
 40
10.0
 40
11.0
 40
11.0
 40
11.0
 40
12.0
 40
12.0
 40
12.0
 40
13.0
 40
13.0
 40
13.0
 40
14.0
 40
14.0
 40
14.0
 40
15.0
 40
15.0
 40
15.0
 40
15.0
 10
115.4010524885109
 20
-157.5669541706777
 10
115.3225043114472
 20
-157.7443765881681
 10
115.1871120588768
 20
-157.9517713363801
 10
115.0496527490154
 20
-158.0916422130813
 10
114.8804985606896
 20
-158.2628634586982
 10
114.7175455442373
 20
-158.3517469222176
 10
114.3981851927546
 20
-158.4933403466614
 10
114.3981851927546
 20
-158.4933403466614
 10
114.2290310044289
 20
-158.3052381331667
 10
114.2290310044289
 20
-158.3052381331667
 10
114.4150661606323
 20
-158.281811483867
 10
114.5862874062493
 20
-158.1949950776388
 10
114.7389051362458
 20
-158.0892306462416
 10
115.0010769026733
 20
-157.9073296046204
 10
115.1915906830077
 20
-157.5941704250112
 10
115.2401665293497
 20
-157.41226938339
 10
115.2401665293497
 20
-157.41226938339
 10
114.5694064383715
 20
-157.41226938339
 10
114.5694064383715
 20
-157.41226938339
 10
114.41093204605
 20
-157.41226938339
 10
114.1187879489009
 20
-157.4208821221031
 10
113.9665147284528
 20
-157.4377630899808
 10
113.9665147284528
 20
-157.4377630899808
 10
113.9665147284528
 20
-157.2093532593088
 10
113.9665147284528
 20
-157.2093532593088
 10
114.0006211737568
 20
-157.2155544311822
 10
114.0257703707991
 20
-157.2221001126042
 10
114.078824841272
 20
-157.2262342271865
 10
114.1801106485383
 20
-157.23243539906
 10
114.3771701102946
 20
-157.2348469658996
 10
114.4615749496832
 20
-157.2348469658996
 10
114.4615749496832
 20
-157.2348469658996
 10
114.9673149669179
 20
-157.2348469658996
 10
114.9673149669179
 20
-157.2348469658996
 10
115.0348388384288
 20
-157.2348469658996
 10
115.1809108870034
 20
-157.2303683417688
 10
115.2422335866408
 20
-157.2241671698954
 10
115.3142360822826
 20
-157.2155544311822
 10
115.3417968461646
 20
-157.2007405205956
 10
115.37555878192
 20
-157.1776583808445
 10
115.37555878192
 20
-157.1776583808445
 10
115.5405788556635
 20
-157.3447455118791
 10
115.5405788556635
 20
-157.3447455118791
 10
115.4706434173129
 20
-157.41226938339
 10
115.424134628262
 20
-157.515966757496
 10
115.4010524885109
 20
-157.5669541706777
 97
        0
 97
        0
 92
        1
 93
        1
 72
     4
 94
        3
 73
     0
 74
     1
 95
       29
 96
       25
 40
0.0
 40
0.0
 40
0.0
 40
0.0
 40
1.0
 40
1.0
 40
1.0
 40
2.0
 40
2.0
 40
2.0
 40
3.0
 40
3.0
 40
3.0
 40
4.0
 40
4.0
 40
4.0
 40
5.0
 40
5.0
 40
5.0
 40
6.0
 40
6.0
 40
6.0
 40
7.0
 40
7.0
 40
7.0
 40
8.0
 40
8.0
 40
8.0
 40
8.0
 10
114.9080593245716
 20
-156.9406358114593
 10
114.9080593245716
 20
-156.9406358114593
 10
114.5673393810804
 20
-156.9406358114593
 10
114.5673393810804
 20
-156.9406358114593
 10
114.4533067205186
 20
-156.9406358114593
 10
114.3368624931172
 20
-156.9447699260416
 10
114.2224853230069
 20
-156.9595838366282
 10
114.2224853230069
 20
-156.9595838366282
 10
114.2224853230069
 20
-156.750122031125
 10
114.2224853230069
 20
-156.750122031125
 10
114.3409966076995
 20
-156.7649359417115
 10
114.5146294201561
 20
-156.7694145658424
 10
114.5673393810804
 20
-156.7694145658424
 10
114.5673393810804
 20
-156.7694145658424
 10
114.9080593245716
 20
-156.7694145658424
 10
114.9080593245716
 20
-156.7694145658424
 10
115.024503551973
 20
-156.7694145658424
 10
115.140603269826
 20
-156.7649359417115
 10
115.2570474972274
 20
-156.750122031125
 10
115.2570474972274
 20
-156.750122031125
 10
115.2570474972274
 20
-156.9595838366282
 10
115.2570474972274
 20
-156.9595838366282
 10
115.1068413340705
 20
-156.9406358114593
 10
114.9228732351582
 20
-156.9406358114593
 10
114.9080593245716
 20
-156.9406358114593
 97
        0
 97
        0
 75
     2
 76
     1
 98
        0
  0
SPLINE
  5
1D0
330
1C5
100
AcDbEntity
  8
_U+30EC_U+30A4_U+30E4_U+30FC 1
370
     0
100
AcDbSpline
210
0.0
220
0.0
230
1.0
 70
    11
 71
     3
 72
    50
 73
    46
 74
     0
 42
0.0000000001
 43
0.0000000001
 12
1.0
 22
0.0
 32
0.0
 13
1.0
 23
0.0
 33
0.0
 40
0.0
 40
0.0
 40
0.0
 40
0.0
 40
1.0
 40
1.0
 40
1.0
 40
2.0
 40
2.0
 40
2.0
 40
3.0
 40
3.0
 40
3.0
 40
4.0
 40
4.0
 40
4.0
 40
5.0
 40
5.0
 40
5.0
 40
6.0
 40
6.0
 40
6.0
 40
7.0
 40
7.0
 40
7.0
 40
8.0
 40
8.0
 40
8.0
 40
9.0
 40
9.0
 40
9.0
 40
10.0
 40
10.0
 40
10.0
 40
11.0
 40
11.0
 40
11.0
 40
12.0
 40
12.0
 40
12.0
 40
13.0
 40
13.0
 40
13.0
 40
14.0
 40
14.0
 40
14.0
 40
15.0
 40
15.0
 40
15.0
 40
15.0
 10
117.1111978873889
 20
-156.9258219008727
 30
0.0
 10
116.9017360818857
 20
-157.1394178209582
 30
0.0
 10
116.8300780957925
 20
-157.2114203165999
 30
0.0
 10
116.6881401618002
 20
-157.3299316012925
 30
0.0
 10
116.6881401618002
 20
-157.3299316012925
 30
0.0
 10
116.6881401618002
 20
-157.8969943181646
 30
0.0
 10
116.6881401618002
 20
-157.8969943181646
 30
0.0
 10
116.6881401618002
 20
-158.0472004813215
 30
0.0
 10
116.6946858432222
 20
-158.0661485064904
 30
0.0
 10
116.6988199578045
 20
-158.2439154335293
 30
0.0
 10
116.7008870150956
 20
-158.3748290619688
 30
0.0
 10
116.7070881869691
 20
-158.4237494178593
 30
0.0
 10
116.713633868391
 20
-158.4830050602056
 30
0.0
 10
116.713633868391
 20
-158.4830050602056
 30
0.0
 10
116.4872910950101
 20
-158.4830050602056
 30
0.0
 10
116.4872910950101
 20
-158.4830050602056
 30
0.0
 10
116.4914252095924
 20
-158.4385633284459
 30
0.0
 10
116.4955593241747
 20
-158.3917100298465
 30
0.0
 10
116.4955593241747
 20
-158.3834418006819
 30
0.0
 10
116.4955593241747
 20
-158.3031710758756
 30
0.0
 10
116.5000379483055
 20
-157.9517713363801
 30
0.0
 10
116.5000379483055
 20
-157.8797688407384
 30
0.0
 10
116.5000379483055
 20
-157.8797688407384
 30
0.0
 10
116.5000379483055
 20
-157.4735920830275
 30
0.0
 10
116.5000379483055
 20
-157.4735920830275
 30
0.0
 10
116.3181369066844
 20
-157.598649049142
 30
0.0
 10
116.1234890117677
 20
-157.7085475951215
 30
0.0
 10
115.920228378138
 20
-157.7953640013498
 30
0.0
 10
115.920228378138
 20
-157.7953640013498
 30
0.0
 10
115.7173122540568
 20
-157.6324109848975
 30
0.0
 10
115.7173122540568
 20
-157.6324109848975
 30
0.0
 10
115.8399576533317
 20
-157.5965819918509
 30
0.0
 10
116.0959282478858
 20
-157.522512438918
 30
0.0
 10
116.4407823059593
 20
-157.2665418443639
 30
0.0
 10
116.6564452833359
 20
-157.1077229424939
 30
0.0
 10
116.8490261209614
 20
-156.9196207289993
 30
0.0
 10
117.0012993414094
 20
-156.6994791274918
 30
0.0
 10
117.0012993414094
 20
-156.6994791274918
 30
0.0
 10
117.1938801790349
 20
-156.8434841187753
 30
0.0
 10
117.1938801790349
 20
-156.8434841187753
 30
0.0
 10
117.2066270323303
 20
-156.853819405231
 30
0.0
 10
117.2148952614949
 20
-156.8686333158176
 30
0.0
 10
117.2148952614949
 20
-156.881380169113
 30
0.0
 10
117.2148952614949
 20
-156.9216877862904
 30
0.0
 10
117.1769992111571
 20
-156.9216877862904
 30
0.0
 10
117.1111978873889
 20
-156.9258219008727
 30
0.0
  0
HATCH
  5
1D1
330
1C5
100
AcDbEntity
  8
_U+30EC_U+30A4_U+30E4_U+30FC 1
 62
   179
420
  2234388
100
AcDbHatch
 10
0.0
 20
0.0
 30
0.0
210
0.0
220
0.0
230
1.0
  2
SOLID
 70
     1
 71
     0
 91
        1
 92
        1
 93
        1
 72
     4
 94
        3
 73
     0
 74
     1
 95
       50
 96
       46
 40
0.0
 40
0.0
 40
0.0
 40
0.0
 40
1.0
 40
1.0
 40
1.0
 40
2.0
 40
2.0
 40
2.0
 40
3.0
 40
3.0
 40
3.0
 40
4.0
 40
4.0
 40
4.0
 40
5.0
 40
5.0
 40
5.0
 40
6.0
 40
6.0
 40
6.0
 40
7.0
 40
7.0
 40
7.0
 40
8.0
 40
8.0
 40
8.0
 40
9.0
 40
9.0
 40
9.0
 40
10.0
 40
10.0
 40
10.0
 40
11.0
 40
11.0
 40
11.0
 40
12.0
 40
12.0
 40
12.0
 40
13.0
 40
13.0
 40
13.0
 40
14.0
 40
14.0
 40
14.0
 40
15.0
 40
15.0
 40
15.0
 40
15.0
 10
117.1111978873889
 20
-156.9258219008727
 10
116.9017360818857
 20
-157.1394178209582
 10
116.8300780957925
 20
-157.2114203165999
 10
116.6881401618002
 20
-157.3299316012925
 10
116.6881401618002
 20
-157.3299316012925
 10
116.6881401618002
 20
-157.8969943181646
 10
116.6881401618002
 20
-157.8969943181646
 10
116.6881401618002
 20
-158.0472004813215
 10
116.6946858432222
 20
-158.0661485064904
 10
116.6988199578045
 20
-158.2439154335293
 10
116.7008870150956
 20
-158.3748290619688
 10
116.7070881869691
 20
-158.4237494178593
 10
116.713633868391
 20
-158.4830050602056
 10
116.713633868391
 20
-158.4830050602056
 10
116.4872910950101
 20
-158.4830050602056
 10
116.4872910950101
 20
-158.4830050602056
 10
116.4914252095924
 20
-158.4385633284459
 10
116.4955593241747
 20
-158.3917100298465
 10
116.4955593241747
 20
-158.3834418006819
 10
116.4955593241747
 20
-158.3031710758756
 10
116.5000379483055
 20
-157.9517713363801
 10
116.5000379483055
 20
-157.8797688407384
 10
116.5000379483055
 20
-157.8797688407384
 10
116.5000379483055
 20
-157.4735920830275
 10
116.5000379483055
 20
-157.4735920830275
 10
116.3181369066844
 20
-157.598649049142
 10
116.1234890117677
 20
-157.7085475951215
 10
115.920228378138
 20
-157.7953640013498
 10
115.920228378138
 20
-157.7953640013498
 10
115.7173122540568
 20
-157.6324109848975
 10
115.7173122540568
 20
-157.6324109848975
 10
115.8399576533317
 20
-157.5965819918509
 10
116.0959282478858
 20
-157.522512438918
 10
116.4407823059593
 20
-157.2665418443639
 10
116.6564452833359
 20
-157.1077229424939
 10
116.8490261209614
 20
-156.9196207289993
 10
117.0012993414094
 20
-156.6994791274918
 10
117.0012993414094
 20
-156.6994791274918
 10
117.1938801790349
 20
-156.8434841187753
 10
117.1938801790349
 20
-156.8434841187753
 10
117.2066270323303
 20
-156.853819405231
 10
117.2148952614949
 20
-156.8686333158176
 10
117.2148952614949
 20
-156.881380169113
 10
117.2148952614949
 20
-156.9216877862904
 10
117.1769992111571
 20
-156.9216877862904
 10
117.1111978873889
 20
-156.9258219008727
 97
        0
 97
        0
 75
     2
 76
     1
 98
        0
  0
SPLINE
  5
1D2
330
1C5
100
AcDbEntity
  8
_U+30EC_U+30A4_U+30E4_U+30FC 1
370
     0
100
AcDbSpline
210
0.0
220
0.0
230
1.0
 70
    11
 71
     3
 72
    50
 73
    46
 74
     0
 42
0.0000000001
 43
0.0000000001
 12
1.0
 22
0.0
 32
0.0
 13
1.0
 23
0.0
 33
0.0
 40
0.0
 40
0.0
 40
0.0
 40
0.0
 40
1.0
 40
1.0
 40
1.0
 40
2.0
 40
2.0
 40
2.0
 40
3.0
 40
3.0
 40
3.0
 40
4.0
 40
4.0
 40
4.0
 40
5.0
 40
5.0
 40
5.0
 40
6.0
 40
6.0
 40
6.0
 40
7.0
 40
7.0
 40
7.0
 40
8.0
 40
8.0
 40
8.0
 40
9.0
 40
9.0
 40
9.0
 40
10.0
 40
10.0
 40
10.0
 40
11.0
 40
11.0
 40
11.0
 40
12.0
 40
12.0
 40
12.0
 40
13.0
 40
13.0
 40
13.0
 40
14.0
 40
14.0
 40
14.0
 40
15.0
 40
15.0
 40
15.0
 40
15.0
 10
118.8196207385243
 20
-157.4525770005674
 30
0.0
 10
118.7582980388868
 20
-157.5245794962091
 30
0.0
 10
118.4978488202019
 20
-157.8418727904007
 30
0.0
 10
118.4410047446953
 20
-157.9052625473292
 30
0.0
 10
118.5254095840839
 20
-158.0027587495618
 30
0.0
 10
118.5763969972656
 20
-158.0661485064904
 30
0.0
 10
118.6418538114854
 20
-158.157099027301
 30
0.0
 10
118.6418538114854
 20
-158.157099027301
 30
0.0
 10
118.457885712573
 20
-158.2945583371625
 30
0.0
 10
118.457885712573
 20
-158.2945583371625
 30
0.0
 10
118.3224934600027
 20
-158.0830294743681
 30
0.0
 10
118.1509277048373
 20
-157.8587537582784
 30
0.0
 10
117.8570610599455
 20
-157.6599717487795
 30
0.0
 10
117.8570610599455
 20
-157.6599717487795
 30
0.0
 10
118.0052001658112
 20
-157.5056314710403
 30
0.0
 10
118.0052001658112
 20
-157.5056314710403
 30
0.0
 10
118.1150987117907
 20
-157.5859021958466
 30
0.0
 10
118.2187960858967
 20
-157.674785659366
 30
0.0
 10
118.3159477785807
 20
-157.7698702947589
 30
0.0
 10
118.3838161596402
 20
-157.6937336845349
 30
0.0
 10
118.5867322837214
 20
-157.4505099432763
 30
0.0
 10
118.7200574790005
 20
-157.2221001126042
 30
0.0
 10
118.7200574790005
 20
-157.2221001126042
 30
0.0
 10
118.0472303307313
 20
-157.2221001126042
 30
0.0
 10
118.0472303307313
 20
-157.2221001126042
 30
0.0
 10
117.9225178741652
 20
-157.2221001126042
 30
0.0
 10
117.6706813941935
 20
-157.2303683417688
 30
0.0
 10
117.4612195886903
 20
-157.2410481377731
 30
0.0
 10
117.4612195886903
 20
-157.2410481377731
 30
0.0
 10
117.4612195886903
 20
-157.0209065362656
 30
0.0
 10
117.4612195886903
 20
-157.0209065362656
 30
0.0
 10
117.6455321971511
 20
-157.040199070983
 30
0.0
 10
117.8505153785235
 20
-157.0443331855653
 30
0.0
 10
118.0389621015667
 20
-157.0443331855653
 30
0.0
 10
118.0389621015667
 20
-157.0443331855653
 30
0.0
 10
118.5422905519617
 20
-157.0443331855653
 30
0.0
 10
118.5422905519617
 20
-157.0443331855653
 30
0.0
 10
118.8809434381617
 20
-157.0443331855653
 30
0.0
 10
118.9253851699214
 20
-157.0295192749787
 30
0.0
 10
119.0077229520189
 20
-156.9892116578013
 30
0.0
 10
119.0077229520189
 20
-156.9892116578013
 30
0.0
 10
119.1748100830535
 20
-157.1480305596713
 30
0.0
 10
119.1748100830535
 20
-157.1480305596713
 30
0.0
 10
119.0225368626055
 20
-157.2200330553131
 30
0.0
 10
118.8788763808706
 20
-157.3826415622168
 30
0.0
 10
118.8196207385243
 20
-157.4525770005674
 30
0.0
  0
HATCH
  5
1D3
330
1C5
100
AcDbEntity
  8
_U+30EC_U+30A4_U+30E4_U+30FC 1
 62
   179
420
  2234388
100
AcDbHatch
 10
0.0
 20
0.0
 30
0.0
210
0.0
220
0.0
230
1.0
  2
SOLID
 70
     1
 71
     0
 91
        1
 92
        1
 93
        1
 72
     4
 94
        3
 73
     0
 74
     1
 95
       50
 96
       46
 40
0.0
 40
0.0
 40
0.0
 40
0.0
 40
1.0
 40
1.0
 40
1.0
 40
2.0
 40
2.0
 40
2.0
 40
3.0
 40
3.0
 40
3.0
 40
4.0
 40
4.0
 40
4.0
 40
5.0
 40
5.0
 40
5.0
 40
6.0
 40
6.0
 40
6.0
 40
7.0
 40
7.0
 40
7.0
 40
8.0
 40
8.0
 40
8.0
 40
9.0
 40
9.0
 40
9.0
 40
10.0
 40
10.0
 40
10.0
 40
11.0
 40
11.0
 40
11.0
 40
12.0
 40
12.0
 40
12.0
 40
13.0
 40
13.0
 40
13.0
 40
14.0
 40
14.0
 40
14.0
 40
15.0
 40
15.0
 40
15.0
 40
15.0
 10
118.8196207385243
 20
-157.4525770005674
 10
118.7582980388868
 20
-157.5245794962091
 10
118.4978488202019
 20
-157.8418727904007
 10
118.4410047446953
 20
-157.9052625473292
 10
118.5254095840839
 20
-158.0027587495618
 10
118.5763969972656
 20
-158.0661485064904
 10
118.6418538114854
 20
-158.157099027301
 10
118.6418538114854
 20
-158.157099027301
 10
118.457885712573
 20
-158.2945583371625
 10
118.457885712573
 20
-158.2945583371625
 10
118.3224934600027
 20
-158.0830294743681
 10
118.1509277048373
 20
-157.8587537582784
 10
117.8570610599455
 20
-157.6599717487795
 10
117.8570610599455
 20
-157.6599717487795
 10
118.0052001658112
 20
-157.5056314710403
 10
118.0052001658112
 20
-157.5056314710403
 10
118.1150987117907
 20
-157.5859021958466
 10
118.2187960858967
 20
-157.674785659366
 10
118.3159477785807
 20
-157.7698702947589
 10
118.3838161596402
 20
-157.6937336845349
 10
118.5867322837214
 20
-157.4505099432763
 10
118.7200574790005
 20
-157.2221001126042
 10
118.7200574790005
 20
-157.2221001126042
 10
118.0472303307313
 20
-157.2221001126042
 10
118.0472303307313
 20
-157.2221001126042
 10
117.9225178741652
 20
-157.2221001126042
 10
117.6706813941935
 20
-157.2303683417688
 10
117.4612195886903
 20
-157.2410481377731
 10
117.4612195886903
 20
-157.2410481377731
 10
117.4612195886903
 20
-157.0209065362656
 10
117.4612195886903
 20
-157.0209065362656
 10
117.6455321971511
 20
-157.040199070983
 10
117.8505153785235
 20
-157.0443331855653
 10
118.0389621015667
 20
-157.0443331855653
 10
118.0389621015667
 20
-157.0443331855653
 10
118.5422905519617
 20
-157.0443331855653
 10
118.5422905519617
 20
-157.0443331855653
 10
118.8809434381617
 20
-157.0443331855653
 10
118.9253851699214
 20
-157.0295192749787
 10
119.0077229520189
 20
-156.9892116578013
 10
119.0077229520189
 20
-156.9892116578013
 10
119.1748100830535
 20
-157.1480305596713
 10
119.1748100830535
 20
-157.1480305596713
 10
119.0225368626055
 20
-157.2200330553131
 10
118.8788763808706
 20
-157.3826415622168
 10
118.8196207385243
 20
-157.4525770005674
 97
        0
 97
        0
 75
     2
 76
     1
 98
        0
  0
SPLINE
  5
1D4
330
1C5
100
AcDbEntity
  8
_U+30EC_U+30A4_U+30E4_U+30FC 1
370
     0
100
AcDbSpline
210
0.0
220
0.0
230
1.0
 70
    11
 71
     3
 72
    29
 73
    25
 74
     0
 42
0.0000000001
 43
0.0000000001
 12
1.0
 22
0.0
 32
0.0
 13
1.0
 23
0.0
 33
0.0
 40
0.0
 40
0.0
 40
0.0
 40
0.0
 40
1.0
 40
1.0
 40
1.0
 40
2.0
 40
2.0
 40
2.0
 40
3.0
 40
3.0
 40
3.0
 40
4.0
 40
4.0
 40
4.0
 40
5.0
 40
5.0
 40
5.0
 40
6.0
 40
6.0
 40
6.0
 40
7.0
 40
7.0
 40
7.0
 40
8.0
 40
8.0
 40
8.0
 40
8.0
 10
120.4450167884651
 20
-157.695800741826
 30
0.0
 10
120.4450167884651
 20
-157.695800741826
 30
0.0
 10
119.960636363239
 20
-157.695800741826
 30
0.0
 10
119.960636363239
 20
-157.695800741826
 30
0.0
 10
119.933075599357
 20
-157.695800741826
 30
0.0
 10
119.6157823051655
 20
-157.695800741826
 30
0.0
 10
119.4042534423712
 20
-157.7212944484169
 30
0.0
 10
119.4042534423712
 20
-157.7212944484169
 30
0.0
 10
119.4042534423712
 20
-157.4908175604537
 30
0.0
 10
119.4042534423712
 20
-157.4908175604537
 30
0.0
 10
119.5627278346927
 20
-157.5138997002049
 30
0.0
 10
119.753241615027
 20
-157.515966757496
 30
0.0
 10
119.960636363239
 20
-157.515966757496
 30
0.0
 10
119.960636363239
 20
-157.515966757496
 30
0.0
 10
120.4450167884651
 20
-157.515966757496
 30
0.0
 10
120.4450167884651
 20
-157.515966757496
 30
0.0
 10
120.6310519446686
 20
-157.515966757496
 30
0.0
 10
120.8174316104206
 20
-157.5138997002049
 30
0.0
 10
121.001399709333
 20
-157.4908175604537
 30
0.0
 10
121.001399709333
 20
-157.4908175604537
 30
0.0
 10
121.001399709333
 20
-157.7212944484169
 30
0.0
 10
121.001399709333
 20
-157.7212944484169
 30
0.0
 10
120.8174316104206
 20
-157.6978677991172
 30
0.0
 10
120.5697292450312
 20
-157.695800741826
 30
0.0
 10
120.4450167884651
 20
-157.695800741826
 30
0.0
  0
HATCH
  5
1D5
330
1C5
100
AcDbEntity
  8
_U+30EC_U+30A4_U+30E4_U+30FC 1
 62
   179
420
  2234388
100
AcDbHatch
 10
0.0
 20
0.0
 30
0.0
210
0.0
220
0.0
230
1.0
  2
SOLID
 70
     1
 71
     0
 91
        1
 92
        1
 93
        1
 72
     4
 94
        3
 73
     0
 74
     1
 95
       29
 96
       25
 40
0.0
 40
0.0
 40
0.0
 40
0.0
 40
1.0
 40
1.0
 40
1.0
 40
2.0
 40
2.0
 40
2.0
 40
3.0
 40
3.0
 40
3.0
 40
4.0
 40
4.0
 40
4.0
 40
5.0
 40
5.0
 40
5.0
 40
6.0
 40
6.0
 40
6.0
 40
7.0
 40
7.0
 40
7.0
 40
8.0
 40
8.0
 40
8.0
 40
8.0
 10
120.4450167884651
 20
-157.695800741826
 10
120.4450167884651
 20
-157.695800741826
 10
119.960636363239
 20
-157.695800741826
 10
119.960636363239
 20
-157.695800741826
 10
119.933075599357
 20
-157.695800741826
 10
119.6157823051655
 20
-157.695800741826
 10
119.4042534423712
 20
-157.7212944484169
 10
119.4042534423712
 20
-157.7212944484169
 10
119.4042534423712
 20
-157.4908175604537
 10
119.4042534423712
 20
-157.4908175604537
 10
119.5627278346927
 20
-157.5138997002049
 10
119.753241615027
 20
-157.515966757496
 10
119.960636363239
 20
-157.515966757496
 10
119.960636363239
 20
-157.515966757496
 10
120.4450167884651
 20
-157.515966757496
 10
120.4450167884651
 20
-157.515966757496
 10
120.6310519446686
 20
-157.515966757496
 10
120.8174316104206
 20
-157.5138997002049
 10
121.001399709333
 20
-157.4908175604537
 10
121.001399709333
 20
-157.4908175604537
 10
121.001399709333
 20
-157.7212944484169
 10
121.001399709333
 20
-157.7212944484169
 10
120.8174316104206
 20
-157.6978677991172
 10
120.5697292450312
 20
-157.695800741826
 10
120.4450167884651
 20
-157.695800741826
 97
        0
 97
        0
 75
     2
 76
     1
 98
        0
  0
SPLINE
  5
1D6
330
1C5
100
AcDbEntity
  8
_U+30EC_U+30A4_U+30E4_U+30FC 1
370
     0
100
AcDbSpline
210
0.0
220
0.0
230
1.0
 70
    11
 71
     3
 72
    53
 73
    49
 74
     0
 42
0.0000000001
 43
0.0000000001
 12
1.0
 22
0.0
 32
0.0
 13
1.0
 23
0.0
 33
0.0
 40
0.0
 40
0.0
 40
0.0
 40
0.0
 40
1.0
 40
1.0
 40
1.0
 40
2.0
 40
2.0
 40
2.0
 40
3.0
 40
3.0
 40
3.0
 40
4.0
 40
4.0
 40
4.0
 40
5.0
 40
5.0
 40
5.0
 40
6.0
 40
6.0
 40
6.0
 40
7.0
 40
7.0
 40
7.0
 40
8.0
 40
8.0
 40
8.0
 40
9.0
 40
9.0
 40
9.0
 40
10.0
 40
10.0
 40
10.0
 40
11.0
 40
11.0
 40
11.0
 40
12.0
 40
12.0
 40
12.0
 40
13.0
 40
13.0
 40
13.0
 40
14.0
 40
14.0
 40
14.0
 40
15.0
 40
15.0
 40
15.0
 40
16.0
 40
16.0
 40
16.0
 40
16.0
 10
121.863707109291
 20
-156.8221245267667
 30
0.0
 10
121.7961832377801
 20
-156.9743977472147
 30
0.0
 10
121.7538085633116
 20
-157.0526014147299
 30
0.0
 10
121.7155680034253
 20
-157.1204697957893
 30
0.0
 10
121.7579426778939
 20
-157.1414848782494
 30
0.0
 10
121.7620767924762
 20
-157.143896445089
 30
0.0
 10
121.7620767924762
 20
-157.1583658461271
 30
0.0
 10
121.7620767924762
 20
-157.1711126994225
 30
0.0
 10
121.7283148567207
 20
-157.2052191447265
 30
0.0
 10
121.7176350607164
 20
-157.2134873738911
 30
0.0
 10
121.7155680034253
 20
-157.4102023260988
 30
0.0
 10
121.7155680034253
 20
-157.4315619181074
 30
0.0
 10
121.7155680034253
 20
-157.564542603838
 30
0.0
 10
121.7135009461341
 20
-157.5772894571335
 30
0.0
 10
121.7135009461341
 20
-157.59210336772
 30
0.0
 10
121.7135009461341
 20
-157.6069172783066
 30
0.0
 10
121.7135009461341
 20
-157.6069172783066
 30
0.0
 10
121.7135009461341
 20
-158.1422851167144
 30
0.0
 10
121.7135009461341
 20
-158.1422851167144
 30
0.0
 10
121.7135009461341
 20
-158.2142876123561
 30
0.0
 10
121.7176350607164
 20
-158.4488986149017
 30
0.0
 10
121.7262477994296
 20
-158.5591416704297
 30
0.0
 10
121.7262477994296
 20
-158.5591416704297
 30
0.0
 10
121.4830240581709
 20
-158.5591416704297
 30
0.0
 10
121.4830240581709
 20
-158.5591416704297
 30
0.0
 10
121.5061061979221
 20
-158.4003227685596
 30
0.0
 10
121.5126518793441
 20
-158.1591660845922
 30
0.0
 10
121.5126518793441
 20
-158.1381510021321
 30
0.0
 10
121.5126518793441
 20
-158.1381510021321
 30
0.0
 10
121.5126518793441
 20
-157.4208821221031
 30
0.0
 10
121.5126518793441
 20
-157.4208821221031
 30
0.0
 10
121.4217013585335
 20
-157.5352592922134
 30
0.0
 10
121.360378658896
 20
-157.5941704250112
 30
0.0
 10
121.3180039844274
 20
-157.6365450994797
 30
0.0
 10
121.3180039844274
 20
-157.6365450994797
 30
0.0
 10
121.1274902040931
 20
-157.4990857896183
 30
0.0
 10
121.1274902040931
 20
-157.4990857896183
 30
0.0
 10
121.408954505238
 20
-157.2834228122416
 30
0.0
 10
121.6015353428635
 20
-156.9743977472147
 30
0.0
 10
121.7135009461341
 20
-156.6381564278544
 30
0.0
 10
121.7135009461341
 20
-156.6381564278544
 30
0.0
 10
121.9336425476416
 20
-156.7521890884161
 30
0.0
 10
121.9336425476416
 20
-156.7521890884161
 30
0.0
 10
121.946389400937
 20
-156.7587347698381
 30
0.0
 10
121.9546576301016
 20
-156.7628688844204
 30
0.0
 10
121.9546576301016
 20
-156.777682795007
 30
0.0
 10
121.9546576301016
 20
-156.8031765015978
 30
0.0
 10
121.9377766622239
 20
-156.8073106161801
 30
0.0
 10
121.863707109291
 20
-156.8221245267667
 30
0.0
  0
SPLINE
  5
1D7
330
1C5
100
AcDbEntity
  8
_U+30EC_U+30A4_U+30E4_U+30FC 1
370
     0
100
AcDbSpline
210
0.0
220
0.0
230
1.0
 70
    11
 71
     3
 72
    77
 73
    73
 74
     0
 42
0.0000000001
 43
0.0000000001
 12
1.0
 22
0.0
 32
0.0
 13
1.0
 23
0.0
 33
0.0
 40
0.0
 40
0.0
 40
0.0
 40
0.0
 40
1.0
 40
1.0
 40
1.0
 40
2.0
 40
2.0
 40
2.0
 40
3.0
 40
3.0
 40
3.0
 40
4.0
 40
4.0
 40
4.0
 40
5.0
 40
5.0
 40
5.0
 40
6.0
 40
6.0
 40
6.0
 40
7.0
 40
7.0
 40
7.0
 40
8.0
 40
8.0
 40
8.0
 40
9.0
 40
9.0
 40
9.0
 40
10.0
 40
10.0
 40
10.0
 40
11.0
 40
11.0
 40
11.0
 40
12.0
 40
12.0
 40
12.0
 40
13.0
 40
13.0
 40
13.0
 40
14.0
 40
14.0
 40
14.0
 40
15.0
 40
15.0
 40
15.0
 40
16.0
 40
16.0
 40
16.0
 40
17.0
 40
17.0
 40
17.0
 40
18.0
 40
18.0
 40
18.0
 40
19.0
 40
19.0
 40
19.0
 40
20.0
 40
20.0
 40
20.0
 40
21.0
 40
21.0
 40
21.0
 40
22.0
 40
22.0
 40
22.0
 40
23.0
 40
23.0
 40
23.0
 40
24.0
 40
24.0
 40
24.0
 40
24.0
 10
123.014713510913
 20
-157.3213188625794
 30
0.0
 10
122.9447780725624
 20
-157.3171847479971
 30
0.0
 10
122.876909691503
 20
-157.3171847479971
 30
0.0
 10
122.8093858199921
 20
-157.3171847479971
 30
0.0
 10
122.8093858199921
 20
-157.3171847479971
 30
0.0
 10
122.8093858199921
 20
-158.0916422130813
 30
0.0
 10
122.8093858199921
 20
-158.0916422130813
 30
0.0
 10
122.8093858199921
 20
-158.3558810367999
 30
0.0
 10
122.807318762701
 20
-158.3855088579731
 30
0.0
 10
122.800773081279
 20
-158.4151366791462
 30
0.0
 10
122.7670111455235
 20
-158.5484618744254
 30
0.0
 10
122.6653808287087
 20
-158.55673010359
 30
0.0
 10
122.4900254685094
 20
-158.55673010359
 30
0.0
 10
122.449717851332
 20
-158.55673010359
 30
0.0
 10
122.4328368834543
 20
-158.55673010359
 30
0.0
 10
122.3925292662769
 20
-158.5525959890077
 30
0.0
 10
122.3925292662769
 20
-158.5525959890077
 30
0.0
 10
122.2678168097108
 20
-158.3114393050402
 30
0.0
 10
122.2678168097108
 20
-158.3114393050402
 30
0.0
 10
122.3842610371123
 20
-158.3431341835045
 30
0.0
 10
122.4665988192098
 20
-158.3431341835045
 30
0.0
 10
122.4900254685094
 20
-158.3431341835045
 30
0.0
 10
122.5596163973115
 20
-158.3431341835045
 30
0.0
 10
122.5937228426155
 20
-158.3262532156268
 30
0.0
 10
122.5978569571978
 20
-158.2690646305716
 30
0.0
 10
122.5978569571978
 20
-158.2563177772762
 30
0.0
 10
122.5999240144889
 20
-158.1591660845922
 30
0.0
 10
122.5999240144889
 20
-158.101977499537
 30
0.0
 10
122.5999240144889
 20
-158.101977499537
 30
0.0
 10
122.5999240144889
 20
-157.315117690706
 30
0.0
 10
122.5999240144889
 20
-157.315117690706
 30
0.0
 10
122.5999240144889
 20
-157.315117690706
 30
0.0
 10
122.3057128600486
 20
-157.315117690706
 30
0.0
 10
122.3057128600486
 20
-157.315117690706
 30
0.0
 10
122.1599853210225
 20
-157.315117690706
 30
0.0
 10
122.0139132724479
 20
-157.3213188625794
 30
0.0
 10
121.870252790713
 20
-157.3340657158748
 30
0.0
 10
121.870252790713
 20
-157.3340657158748
 30
0.0
 10
121.870252790713
 20
-157.1266709676628
 30
0.0
 10
121.870252790713
 20
-157.1266709676628
 30
0.0
 10
122.0201144443214
 20
-157.1394178209582
 30
0.0
 10
122.2381889885377
 20
-157.143896445089
 30
0.0
 10
122.3057128600486
 20
-157.143896445089
 30
0.0
 10
122.3057128600486
 20
-157.143896445089
 30
0.0
 10
122.5999240144889
 20
-157.143896445089
 30
0.0
 10
122.5999240144889
 20
-157.143896445089
 30
0.0
 10
122.5978569571978
 20
-156.8751789972395
 30
0.0
 10
122.5978569571978
 20
-156.7990423870155
 30
0.0
 10
122.5892442184846
 20
-156.6509032811498
 30
0.0
 10
122.5892442184846
 20
-156.6509032811498
 30
0.0
 10
122.8472818703299
 20
-156.6887993314875
 30
0.0
 10
122.8472818703299
 20
-156.6887993314875
 30
0.0
 10
122.8620957809164
 20
-156.6908663887787
 30
0.0
 10
122.876909691503
 20
-156.6974120702006
 30
0.0
 10
122.876909691503
 20
-156.7184271526607
 30
0.0
 10
122.876909691503
 20
-156.7377196873781
 30
0.0
 10
122.8707085196295
 20
-156.7397867446692
 30
0.0
 10
122.8135199345744
 20
-156.7735486804247
 30
0.0
 10
122.8093858199921
 20
-156.8517523479399
 30
0.0
 10
122.8093858199921
 20
-156.8665662585264
 30
0.0
 10
122.8093858199921
 20
-157.143896445089
 30
0.0
 10
122.987152747031
 20
-157.1394178209582
 30
0.0
 10
123.0061007721999
 20
-157.1394178209582
 30
0.0
 10
123.0398627079553
 20
-157.1352837063759
 30
0.0
 10
123.090850121137
 20
-157.1311495917936
 30
0.0
 10
123.0949842357193
 20
-157.1290825345025
 30
0.0
 10
123.139425967479
 20
-157.1266709676628
 30
0.0
 10
123.139425967479
 20
-157.1266709676628
 30
0.0
 10
123.139425967479
 20
-157.3340657158748
 30
0.0
 10
123.139425967479
 20
-157.3340657158748
 30
0.0
 10
123.1097981463059
 20
-157.3319986585837
 30
0.0
 10
123.0546766185419
 20
-157.3233859198706
 30
0.0
 10
123.014713510913
 20
-157.3213188625794
 30
0.0
  0
SPLINE
  5
1D8
330
1C5
100
AcDbEntity
  8
_U+30EC_U+30A4_U+30E4_U+30FC 1
370
     0
100
AcDbSpline
210
0.0
220
0.0
230
1.0
 70
    11
 71
     3
 72
    20
 73
    16
 74
     0
 42
0.0000000001
 43
0.0000000001
 12
1.0
 22
0.0
 32
0.0
 13
1.0
 23
0.0
 33
0.0
 40
0.0
 40
0.0
 40
0.0
 40
0.0
 40
1.0
 40
1.0
 40
1.0
 40
2.0
 40
2.0
 40
2.0
 40
3.0
 40
3.0
 40
3.0
 40
4.0
 40
4.0
 40
4.0
 40
5.0
 40
5.0
 40
5.0
 40
5.0
 10
122.2443901604111
 20
-158.0472004813215
 30
0.0
 10
122.1978813713603
 20
-157.8694335542826
 30
0.0
 10
122.1007296786762
 20
-157.7274956202904
 30
0.0
 10
121.9612033115236
 20
-157.6175970743109
 30
0.0
 10
121.9612033115236
 20
-157.6175970743109
 30
0.0
 10
122.1217447611362
 20
-157.5032199042006
 30
0.0
 10
122.1217447611362
 20
-157.5032199042006
 30
0.0
 10
122.1830674607737
 20
-157.5455945786692
 30
0.0
 10
122.2233750779511
 20
-157.5793565144246
 30
0.0
 10
122.2995116881751
 20
-157.6875325126614
 30
0.0
 10
122.3797824129815
 20
-157.8036322305144
 30
0.0
 10
122.40114200499
 20
-157.8566867009872
 30
0.0
 10
122.4262912020323
 20
-157.922143515207
 30
0.0
 10
122.4262912020323
 20
-157.922143515207
 30
0.0
 10
122.2443901604111
 20
-158.0472004813215
 30
0.0
 10
122.2443901604111
 20
-158.0472004813215
 30
0.0
  0
HATCH
  5
1D9
330
1C5
100
AcDbEntity
  8
_U+30EC_U+30A4_U+30E4_U+30FC 1
 62
   179
420
  2234388
100
AcDbHatch
 10
0.0
 20
0.0
 30
0.0
210
0.0
220
0.0
230
1.0
  2
SOLID
 70
     1
 71
     0
 91
        3
 92
        1
 93
        1
 72
     4
 94
        3
 73
     0
 74
     1
 95
       53
 96
       49
 40
0.0
 40
0.0
 40
0.0
 40
0.0
 40
1.0
 40
1.0
 40
1.0
 40
2.0
 40
2.0
 40
2.0
 40
3.0
 40
3.0
 40
3.0
 40
4.0
 40
4.0
 40
4.0
 40
5.0
 40
5.0
 40
5.0
 40
6.0
 40
6.0
 40
6.0
 40
7.0
 40
7.0
 40
7.0
 40
8.0
 40
8.0
 40
8.0
 40
9.0
 40
9.0
 40
9.0
 40
10.0
 40
10.0
 40
10.0
 40
11.0
 40
11.0
 40
11.0
 40
12.0
 40
12.0
 40
12.0
 40
13.0
 40
13.0
 40
13.0
 40
14.0
 40
14.0
 40
14.0
 40
15.0
 40
15.0
 40
15.0
 40
16.0
 40
16.0
 40
16.0
 40
16.0
 10
121.863707109291
 20
-156.8221245267667
 10
121.7961832377801
 20
-156.9743977472147
 10
121.7538085633116
 20
-157.0526014147299
 10
121.7155680034253
 20
-157.1204697957893
 10
121.7579426778939
 20
-157.1414848782494
 10
121.7620767924762
 20
-157.143896445089
 10
121.7620767924762
 20
-157.1583658461271
 10
121.7620767924762
 20
-157.1711126994225
 10
121.7283148567207
 20
-157.2052191447265
 10
121.7176350607164
 20
-157.2134873738911
 10
121.7155680034253
 20
-157.4102023260988
 10
121.7155680034253
 20
-157.4315619181074
 10
121.7155680034253
 20
-157.564542603838
 10
121.7135009461341
 20
-157.5772894571335
 10
121.7135009461341
 20
-157.59210336772
 10
121.7135009461341
 20
-157.6069172783066
 10
121.7135009461341
 20
-157.6069172783066
 10
121.7135009461341
 20
-158.1422851167144
 10
121.7135009461341
 20
-158.1422851167144
 10
121.7135009461341
 20
-158.2142876123561
 10
121.7176350607164
 20
-158.4488986149017
 10
121.7262477994296
 20
-158.5591416704297
 10
121.7262477994296
 20
-158.5591416704297
 10
121.4830240581709
 20
-158.5591416704297
 10
121.4830240581709
 20
-158.5591416704297
 10
121.5061061979221
 20
-158.4003227685596
 10
121.5126518793441
 20
-158.1591660845922
 10
121.5126518793441
 20
-158.1381510021321
 10
121.5126518793441
 20
-158.1381510021321
 10
121.5126518793441
 20
-157.4208821221031
 10
121.5126518793441
 20
-157.4208821221031
 10
121.4217013585335
 20
-157.5352592922134
 10
121.360378658896
 20
-157.5941704250112
 10
121.3180039844274
 20
-157.6365450994797
 10
121.3180039844274
 20
-157.6365450994797
 10
121.1274902040931
 20
-157.4990857896183
 10
121.1274902040931
 20
-157.4990857896183
 10
121.408954505238
 20
-157.2834228122416
 10
121.6015353428635
 20
-156.9743977472147
 10
121.7135009461341
 20
-156.6381564278544
 10
121.7135009461341
 20
-156.6381564278544
 10
121.9336425476416
 20
-156.7521890884161
 10
121.9336425476416
 20
-156.7521890884161
 10
121.946389400937
 20
-156.7587347698381
 10
121.9546576301016
 20
-156.7628688844204
 10
121.9546576301016
 20
-156.777682795007
 10
121.9546576301016
 20
-156.8031765015978
 10
121.9377766622239
 20
-156.8073106161801
 10
121.863707109291
 20
-156.8221245267667
 97
        0
 97
        0
 92
        1
 93
        1
 72
     4
 94
        3
 73
     0
 74
     1
 95
       77
 96
       73
 40
0.0
 40
0.0
 40
0.0
 40
0.0
 40
1.0
 40
1.0
 40
1.0
 40
2.0
 40
2.0
 40
2.0
 40
3.0
 40
3.0
 40
3.0
 40
4.0
 40
4.0
 40
4.0
 40
5.0
 40
5.0
 40
5.0
 40
6.0
 40
6.0
 40
6.0
 40
7.0
 40
7.0
 40
7.0
 40
8.0
 40
8.0
 40
8.0
 40
9.0
 40
9.0
 40
9.0
 40
10.0
 40
10.0
 40
10.0
 40
11.0
 40
11.0
 40
11.0
 40
12.0
 40
12.0
 40
12.0
 40
13.0
 40
13.0
 40
13.0
 40
14.0
 40
14.0
 40
14.0
 40
15.0
 40
15.0
 40
15.0
 40
16.0
 40
16.0
 40
16.0
 40
17.0
 40
17.0
 40
17.0
 40
18.0
 40
18.0
 40
18.0
 40
19.0
 40
19.0
 40
19.0
 40
20.0
 40
20.0
 40
20.0
 40
21.0
 40
21.0
 40
21.0
 40
22.0
 40
22.0
 40
22.0
 40
23.0
 40
23.0
 40
23.0
 40
24.0
 40
24.0
 40
24.0
 40
24.0
 10
123.014713510913
 20
-157.3213188625794
 10
122.9447780725624
 20
-157.3171847479971
 10
122.876909691503
 20
-157.3171847479971
 10
122.8093858199921
 20
-157.3171847479971
 10
122.8093858199921
 20
-157.3171847479971
 10
122.8093858199921
 20
-158.0916422130813
 10
122.8093858199921
 20
-158.0916422130813
 10
122.8093858199921
 20
-158.3558810367999
 10
122.807318762701
 20
-158.3855088579731
 10
122.800773081279
 20
-158.4151366791462
 10
122.7670111455235
 20
-158.5484618744254
 10
122.6653808287087
 20
-158.55673010359
 10
122.4900254685094
 20
-158.55673010359
 10
122.449717851332
 20
-158.55673010359
 10
122.4328368834543
 20
-158.55673010359
 10
122.3925292662769
 20
-158.5525959890077
 10
122.3925292662769
 20
-158.5525959890077
 10
122.2678168097108
 20
-158.3114393050402
 10
122.2678168097108
 20
-158.3114393050402
 10
122.3842610371123
 20
-158.3431341835045
 10
122.4665988192098
 20
-158.3431341835045
 10
122.4900254685094
 20
-158.3431341835045
 10
122.5596163973115
 20
-158.3431341835045
 10
122.5937228426155
 20
-158.3262532156268
 10
122.5978569571978
 20
-158.2690646305716
 10
122.5978569571978
 20
-158.2563177772762
 10
122.5999240144889
 20
-158.1591660845922
 10
122.5999240144889
 20
-158.101977499537
 10
122.5999240144889
 20
-158.101977499537
 10
122.5999240144889
 20
-157.315117690706
 10
122.5999240144889
 20
-157.315117690706
 10
122.5999240144889
 20
-157.315117690706
 10
122.3057128600486
 20
-157.315117690706
 10
122.3057128600486
 20
-157.315117690706
 10
122.1599853210225
 20
-157.315117690706
 10
122.0139132724479
 20
-157.3213188625794
 10
121.870252790713
 20
-157.3340657158748
 10
121.870252790713
 20
-157.3340657158748
 10
121.870252790713
 20
-157.1266709676628
 10
121.870252790713
 20
-157.1266709676628
 10
122.0201144443214
 20
-157.1394178209582
 10
122.2381889885377
 20
-157.143896445089
 10
122.3057128600486
 20
-157.143896445089
 10
122.3057128600486
 20
-157.143896445089
 10
122.5999240144889
 20
-157.143896445089
 10
122.5999240144889
 20
-157.143896445089
 10
122.5978569571978
 20
-156.8751789972395
 10
122.5978569571978
 20
-156.7990423870155
 10
122.5892442184846
 20
-156.6509032811498
 10
122.5892442184846
 20
-156.6509032811498
 10
122.8472818703299
 20
-156.6887993314875
 10
122.8472818703299
 20
-156.6887993314875
 10
122.8620957809164
 20
-156.6908663887787
 10
122.876909691503
 20
-156.6974120702006
 10
122.876909691503
 20
-156.7184271526607
 10
122.876909691503
 20
-156.7377196873781
 10
122.8707085196295
 20
-156.7397867446692
 10
122.8135199345744
 20
-156.7735486804247
 10
122.8093858199921
 20
-156.8517523479399
 10
122.8093858199921
 20
-156.8665662585264
 10
122.8093858199921
 20
-157.143896445089
 10
122.987152747031
 20
-157.1394178209582
 10
123.0061007721999
 20
-157.1394178209582
 10
123.0398627079553
 20
-157.1352837063759
 10
123.090850121137
 20
-157.1311495917936
 10
123.0949842357193
 20
-157.1290825345025
 10
123.139425967479
 20
-157.1266709676628
 10
123.139425967479
 20
-157.1266709676628
 10
123.139425967479
 20
-157.3340657158748
 10
123.139425967479
 20
-157.3340657158748
 10
123.1097981463059
 20
-157.3319986585837
 10
123.0546766185419
 20
-157.3233859198706
 10
123.014713510913
 20
-157.3213188625794
 97
        0
 97
        0
 92
        1
 93
        1
 72
     4
 94
        3
 73
     0
 74
     1
 95
       20
 96
       16
 40
0.0
 40
0.0
 40
0.0
 40
0.0
 40
1.0
 40
1.0
 40
1.0
 40
2.0
 40
2.0
 40
2.0
 40
3.0
 40
3.0
 40
3.0
 40
4.0
 40
4.0
 40
4.0
 40
5.0
 40
5.0
 40
5.0
 40
5.0
 10
122.2443901604111
 20
-158.0472004813215
 10
122.1978813713603
 20
-157.8694335542826
 10
122.1007296786762
 20
-157.7274956202904
 10
121.9612033115236
 20
-157.6175970743109
 10
121.9612033115236
 20
-157.6175970743109
 10
122.1217447611362
 20
-157.5032199042006
 10
122.1217447611362
 20
-157.5032199042006
 10
122.1830674607737
 20
-157.5455945786692
 10
122.2233750779511
 20
-157.5793565144246
 10
122.2995116881751
 20
-157.6875325126614
 10
122.3797824129815
 20
-157.8036322305144
 10
122.40114200499
 20
-157.8566867009872
 10
122.4262912020323
 20
-157.922143515207
 10
122.4262912020323
 20
-157.922143515207
 10
122.2443901604111
 20
-158.0472004813215
 10
122.2443901604111
 20
-158.0472004813215
 97
        0
 97
        0
 75
     2
 76
     1
 98
        0
  0
ENDBLK
  5
1C8
330
1C5
100
AcDbEntity
  8
0
100
AcDbBlockEnd
  0
ENDSEC
  0
SECTION
  2
ENTITIES
  0
SPLINE
  5
41
330
1F
100
AcDbEntity
  8
_U+30EC_U+30A4_U+30E4_U+30FC 1
 62
   179
420
  2234388
370
     9
100
AcDbSpline
210
0.0
220
0.0
230
1.0
 70
    11
 71
     3
 72
    17
 73
    13
 74
     0
 42
0.0000000001
 43
0.0000000001
 12
1.0
 22
0.0
 32
0.0
 13
1.0
 23
0.0
 33
0.0
 40
0.0
 40
0.0
 40
0.0
 40
0.0
 40
1.0
 40
1.0
 40
1.0
 40
2.0
 40
2.0
 40
2.0
 40
3.0
 40
3.0
 40
3.0
 40
4.0
 40
4.0
 40
4.0
 40
4.0
 10
95.77722877651175
 20
-165.8003017434892
 30
0.0
 10
95.77722877651175
 20
-165.855337143866
 30
0.0
 10
95.82202578374307
 20
-165.9001449170211
 30
0.0
 10
95.87706118411994
 20
-165.9001449170211
 30
0.0
 10
95.9320965844968
 20
-165.9001449170211
 30
0.0
 10
95.97689359172844
 20
-165.855337143866
 30
0.0
 10
95.97689359172844
 20
-165.8003017434892
 30
0.0
 10
95.97689359172844
 20
-165.7452878749591
 30
0.0
 10
95.9320965844968
 20
-165.7004801018041
 30
0.0
 10
95.87706118411994
 20
-165.7004801018041
 30
0.0
 10
95.82202578374307
 20
-165.7004801018041
 30
0.0
 10
95.77722877651175
 20
-165.7452878749591
 30
0.0
 10
95.77722877651175
 20
-165.8003017434892
 30
0.0
  0
SPLINE
  5
42
330
1F
100
AcDbEntity
  8
_U+30EC_U+30A4_U+30E4_U+30FC 1
 62
   179
420
  2234388
370
     9
100
AcDbSpline
210
0.0
220
0.0
230
1.0
 70
    11
 71
     3
 72
    17
 73
    13
 74
     0
 42
0.0000000001
 43
0.0000000001
 12
1.0
 22
0.0
 32
0.0
 13
1.0
 23
0.0
 33
0.0
 40
0.0
 40
0.0
 40
0.0
 40
0.0
 40
1.0
 40
1.0
 40
1.0
 40
2.0
 40
2.0
 40
2.0
 40
3.0
 40
3.0
 40
3.0
 40
4.0
 40
4.0
 40
4.0
 40
4.0
 10
89.77725047940064
 20
-165.8003017434892
 30
0.0
 10
89.77725047940064
 20
-165.855337143866
 30
0.0
 10
89.82204748663194
 20
-165.9001449170211
 30
0.0
 10
89.87708288700881
 20
-165.9001449170211
 30
0.0
 10
89.93281807240612
 20
-165.9001449170211
 30
0.0
 10
89.97762584556115
 20
-165.855337143866
 30
0.0
 10
89.97762584556115
 20
-165.8003017434892
 30
0.0
 10
89.97762584556115
 20
-165.7452878749591
 30
0.0
 10
89.93281807240612
 20
-165.7004801018041
 30
0.0
 10
89.87708288700881
 20
-165.7004801018041
 30
0.0
 10
89.82204748663194
 20
-165.7004801018041
 30
0.0
 10
89.77725047940064
 20
-165.7452878749591
 30
0.0
 10
89.77725047940064
 20
-165.8003017434892
 30
0.0
  0
POLYLINE
  5
43
330
1F
100
AcDbEntity
  8
_U+30EC_U+30A4_U+30E4_U+30FC 1
 62
   179
420
  2234388
370
     9
100
AcDb2dPolyline
 66
     1
 10
0.0
 20
0.0
 30
0.0
  0
VERTEX
  5
44
330
43
100
AcDbEntity
  8
_U+30EC_U+30A4_U+30E4_U+30FC 1
 62
   179
420
  2234388
370
     9
100
AcDbVertex
100
AcDb2dVertex
 10
89.87715824847288
 20
-164.8003627788954
 30
0.0
  0
VERTEX
  5
45
330
43
100
AcDbEntity
  8
_U+30EC_U+30A4_U+30E4_U+30FC 1
 62
   179
420
  2234388
370
     9
100
AcDbVertex
100
AcDb2dVertex
 10
89.87715824847288
 20
-166.8002622399297
 30
0.0
  0
SEQEND
  5
46
330
43
100
AcDbEntity
  8
_U+30EC_U+30A4_U+30E4_U+30FC 1
 62
   179
420
  2234388
370
     9
  0
POLYLINE
  5
47
330
1F
100
AcDbEntity
  8
_U+30EC_U+30A4_U+30E4_U+30FC 1
 62
   179
420
  2234388
370
     9
100
AcDb2dPolyline
 66
     1
 10
0.0
 20
0.0
 30
0.0
  0
VERTEX
  5
48
330
47
100
AcDbEntity
  8
_U+30EC_U+30A4_U+30E4_U+30FC 1
 62
   179
420
  2234388
370
     9
100
AcDbVertex
100
AcDb2dVertex
 10
89.87715824847288
 20
-165.8003017434892
 30
0.0
  0
VERTEX
  5
49
330
47
100
AcDbEntity
  8
_U+30EC_U+30A4_U+30E4_U+30FC 1
 62
   179
420
  2234388
370
     9
100
AcDbVertex
100
AcDb2dVertex
 10
95.87720114112402
 20
-165.8003017434892
 30
0.0
  0
SEQEND
  5
4A
330
47
100
AcDbEntity
  8
_U+30EC_U+30A4_U+30E4_U+30FC 1
 62
   179
420
  2234388
370
     9
  0
POLYLINE
  5
4B
330
1F
100
AcDbEntity
  8
_U+30EC_U+30A4_U+30E4_U+30FC 1
 62
   179
420
  2234388
370
     9
100
AcDb2dPolyline
 66
     1
 10
0.0
 20
0.0
 30
0.0
  0
VERTEX
  5
4C
330
4B
100
AcDbEntity
  8
_U+30EC_U+30A4_U+30E4_U+30FC 1
 62
   179
420
  2234388
370
     9
100
AcDbVertex
100
AcDb2dVertex
 10
95.877136545584
 20
-148.1445103592855
 30
0.0
  0
VERTEX
  5
4D
330
4B
100
AcDbEntity
  8
_U+30EC_U+30A4_U+30E4_U+30FC 1
 62
   179
420
  2234388
370
     9
100
AcDbVertex
100
AcDb2dVertex
 10
95.877136545584
 20
-166.8004775583975
 30
0.0
  0
SEQEND
  5
4E
330
4B
100
AcDbEntity
  8
_U+30EC_U+30A4_U+30E4_U+30FC 1
 62
   179
420
  2234388
370
     9
  0
INSERT
  5
50
330
1F
100
AcDbEntity
  8
_U+30EC_U+30A4_U+30E4_U+30FC 1
100
AcDbBlockReference
  2
block 2
 10
0.0
 20
0.0
 30
0.0
  0
POLYLINE
  5
56
330
1F
100
AcDbEntity
  8
_U+30EC_U+30A4_U+30E4_U+30FC 1
 62
   179
420
  2234388
370
    25
100
AcDb2dPolyline
 66
     1
 10
0.0
 20
0.0
 30
0.0
  0
VERTEX
  5
57
330
56
100
AcDbEntity
  8
_U+30EC_U+30A4_U+30E4_U+30FC 1
 62
   179
420
  2234388
370
    25
100
AcDbVertex
100
AcDb2dVertex
 10
90.07492826117267
 20
-138.7501225442513
 30
0.0
  0
VERTEX
  5
58
330
56
100
AcDbEntity
  8
_U+30EC_U+30A4_U+30E4_U+30FC 1
 62
   179
420
  2234388
370
    25
100
AcDbVertex
100
AcDb2dVertex
 10
89.8621936149585
 20
-139.2341369280821
 30
0.0
  0
VERTEX
  5
59
330
56
100
AcDbEntity
  8
_U+30EC_U+30A4_U+30E4_U+30FC 1
 62
   179
420
  2234388
370
    25
100
AcDbVertex
100
AcDb2dVertex
 10
90.04952068196896
 20
-139.7287449805301
 30
0.0
  0
VERTEX
  5
5A
330
56
100
AcDbEntity
  8
_U+30EC_U+30A4_U+30E4_U+30FC 1
 62
   179
420
  2234388
370
    25
100
AcDbVertex
100
AcDb2dVertex
 10
89.8371520771501
 20
-140.2131038739097
 30
0.0
  0
VERTEX
  5
5B
330
56
100
AcDbEntity
  8
_U+30EC_U+30A4_U+30E4_U+30FC 1
 62
   179
420
  2234388
370
    25
100
AcDbVertex
100
AcDb2dVertex
 10
90.02376859321672
 20
-140.7084009454544
 30
0.0
  0
VERTEX
  5
5C
330
56
100
AcDbEntity
  8
_U+30EC_U+30A4_U+30E4_U+30FC 1
 62
   179
420
  2234388
370
    25
100
AcDbVertex
100
AcDb2dVertex
 10
89.81175526386977
 20
-141.1927598388338
 30
0.0
  0
VERTEX
  5
5D
330
56
100
AcDbEntity
  8
_U+30EC_U+30A4_U+30E4_U+30FC 1
 62
   179
420
  2234388
370
    25
100
AcDbVertex
100
AcDb2dVertex
 10
89.99837177993639
 20
-141.6877124008302
 30
0.0
  0
VERTEX
  5
5E
330
56
100
AcDbEntity
  8
_U+30EC_U+30A4_U+30E4_U+30FC 1
 62
   179
420
  2234388
370
    25
100
AcDbVertex
100
AcDb2dVertex
 10
89.78634768466604
 20
-142.1717267846614
 30
0.0
  0
VERTEX
  5
5F
330
56
100
AcDbEntity
  8
_U+30EC_U+30A4_U+30E4_U+30FC 1
 62
   179
420
  2234388
370
    25
100
AcDbVertex
100
AcDb2dVertex
 10
89.9733194762046
 20
-142.6663133052622
 30
0.0
  0
VERTEX
  5
60
330
56
100
AcDbEntity
  8
_U+30EC_U+30A4_U+30E4_U+30FC 1
 62
   179
420
  2234388
370
    25
100
AcDbVertex
100
AcDb2dVertex
 10
89.7605955959138
 20
-143.1503276890931
 30
0.0
  0
VERTEX
  5
61
330
56
100
AcDbEntity
  8
_U+30EC_U+30A4_U+30E4_U+30FC 1
 62
   179
420
  2234388
370
    25
100
AcDbVertex
100
AcDb2dVertex
 10
89.94792266292427
 20
-143.6452802510899
 30
0.0
  0
VERTEX
  5
62
330
56
100
AcDbEntity
  8
_U+30EC_U+30A4_U+30E4_U+30FC 1
 62
   179
420
  2234388
370
    25
100
AcDbVertex
100
AcDb2dVertex
 10
89.73519878263347
 20
-144.1299836540174
 30
0.0
  0
VERTEX
  5
63
330
56
100
AcDbEntity
  8
_U+30EC_U+30A4_U+30E4_U+30FC 1
 62
   179
420
  2234388
370
    25
100
AcDbVertex
100
AcDb2dVertex
 10
89.92217057417203
 20
-144.6249362160139
 30
0.0
  0
VERTEX
  5
64
330
56
100
AcDbEntity
  8
_U+30EC_U+30A4_U+30E4_U+30FC 1
 62
   179
420
  2234388
370
    25
100
AcDbVertex
100
AcDb2dVertex
 10
89.70980196935315
 20
-145.1096611507886
 30
0.0
  0
VERTEX
  5
65
330
56
100
AcDbEntity
  8
_U+30EC_U+30A4_U+30E4_U+30FC 1
 62
   179
420
  2234388
370
    25
100
AcDbVertex
100
AcDb2dVertex
 10
89.89711827044022
 20
-145.6042476713901
 30
0.0
  0
VERTEX
  5
66
330
56
100
AcDbEntity
  8
_U+30EC_U+30A4_U+30E4_U+30FC 1
 62
   179
420
  2234388
370
    25
100
AcDbVertex
100
AcDb2dVertex
 10
89.68439439014944
 20
-146.0886065647691
 30
0.0
  0
VERTEX
  5
67
330
56
100
AcDbEntity
  8
_U+30EC_U+30A4_U+30E4_U+30FC 1
 62
   179
420
  2234388
370
    25
100
AcDbVertex
100
AcDb2dVertex
 10
89.8717214571599
 20
-146.5817935153297
 30
0.0
  0
VERTEX
  5
68
330
56
100
AcDbEntity
  8
_U+30EC_U+30A4_U+30E4_U+30FC 1
 62
   179
420
  2234388
370
    25
100
AcDbVertex
100
AcDb2dVertex
 10
89.65899757686942
 20
-147.0644083291193
 30
0.0
  0
VERTEX
  5
69
330
56
100
AcDbEntity
  8
_U+30EC_U+30A4_U+30E4_U+30FC 1
 62
   179
420
  2234388
370
    25
100
AcDbVertex
100
AcDb2dVertex
 10
89.8463246438799
 20
-147.5572292382843
 30
0.0
  0
VERTEX
  5
6A
330
56
100
AcDbEntity
  8
_U+30EC_U+30A4_U+30E4_U+30FC 1
 62
   179
420
  2234388
370
    25
100
AcDbVertex
100
AcDb2dVertex
 10
89.6339560390607
 20
-148.0405330711716
 30
0.0
  0
VERTEX
  5
6B
330
56
100
AcDbEntity
  8
_U+30EC_U+30A4_U+30E4_U+30FC 1
 62
   179
420
  2234388
370
    25
100
AcDbVertex
100
AcDb2dVertex
 10
89.82057255512764
 20
-148.5344305726754
 30
0.0
  0
VERTEX
  5
6C
330
56
100
AcDbEntity
  8
_U+30EC_U+30A4_U+30E4_U+30FC 1
 62
   179
420
  2234388
370
    25
100
AcDbVertex
100
AcDb2dVertex
 10
89.60854845985698
 20
-149.0191339756033
 30
0.0
  0
VERTEX
  5
6D
330
56
100
AcDbEntity
  8
_U+30EC_U+30A4_U+30E4_U+30FC 1
 62
   179
420
  2234388
370
    25
100
AcDbVertex
100
AcDb2dVertex
 10
89.79516497592392
 20
-149.5147970885436
 30
0.0
  0
VERTEX
  5
6E
330
56
100
AcDbEntity
  8
_U+30EC_U+30A4_U+30E4_U+30FC 1
 62
   179
420
  2234388
370
    25
100
AcDbVertex
100
AcDb2dVertex
 10
89.58279637110473
 20
-149.9995004914715
 30
0.0
  0
VERTEX
  5
6F
330
56
100
AcDbEntity
  8
_U+30EC_U+30A4_U+30E4_U+30FC 1
 62
   179
420
  2234388
370
    25
100
AcDbVertex
100
AcDb2dVertex
 10
89.76976816264329
 20
-150.4937425025241
 30
0.0
  0
VERTEX
  5
70
330
56
100
AcDbEntity
  8
_U+30EC_U+30A4_U+30E4_U+30FC 1
 62
   179
420
  2234388
370
    25
100
AcDbVertex
100
AcDb2dVertex
 10
89.55739955782441
 20
-150.9774123768064
 30
0.0
  0
VERTEX
  5
71
330
56
100
AcDbEntity
  8
_U+30EC_U+30A4_U+30E4_U+30FC 1
 62
   179
420
  2234388
370
    25
100
AcDbVertex
100
AcDb2dVertex
 10
89.74437134936295
 20
-151.4716543878591
 30
0.0
  0
VERTEX
  5
72
330
56
100
AcDbEntity
  8
_U+30EC_U+30A4_U+30E4_U+30FC 1
 62
   179
420
  2234388
370
    25
100
AcDbVertex
100
AcDb2dVertex
 10
89.53200274454409
 20
-151.9563793226338
 30
0.0
  0
VERTEX
  5
73
330
56
100
AcDbEntity
  8
_U+30EC_U+30A4_U+30E4_U+30FC 1
 62
   179
420
  2234388
370
    25
100
AcDbVertex
100
AcDb2dVertex
 10
89.71897453608263
 20
-152.4516763941787
 30
0.0
  0
VERTEX
  5
74
330
56
100
AcDbEntity
  8
_U+30EC_U+30A4_U+30E4_U+30FC 1
 62
   179
420
  2234388
370
    25
100
AcDbVertex
100
AcDb2dVertex
 10
89.50659516534037
 20
-152.937434857599
 30
0.0
  0
VERTEX
  5
75
330
56
100
AcDbEntity
  8
_U+30EC_U+30A4_U+30E4_U+30FC 1
 62
   179
420
  2234388
370
    25
100
AcDbVertex
100
AcDb2dVertex
 10
89.69392223235083
 20
-153.4309878495546
 30
0.0
  0
VERTEX
  5
76
330
56
100
AcDbEntity
  8
_U+30EC_U+30A4_U+30E4_U+30FC 1
 62
   179
420
  2234388
370
    25
100
AcDbVertex
100
AcDb2dVertex
 10
89.48084307658813
 20
-153.9153467429339
 30
0.0
  0
VERTEX
  5
77
330
56
100
AcDbEntity
  8
_U+30EC_U+30A4_U+30E4_U+30FC 1
 62
   179
420
  2234388
370
    25
100
AcDbVertex
100
AcDb2dVertex
 10
89.6685254190705
 20
-154.4102993049304
 30
0.0
  0
VERTEX
  5
78
330
56
100
AcDbEntity
  8
_U+30EC_U+30A4_U+30E4_U+30FC 1
 62
   179
420
  2234388
370
    25
100
AcDbVertex
100
AcDb2dVertex
 10
89.4554462633078
 20
-154.8950027078583
 30
0.0
  0
VERTEX
  5
79
330
56
100
AcDbEntity
  8
_U+30EC_U+30A4_U+30E4_U+30FC 1
 62
   179
420
  2234388
370
    25
100
AcDbVertex
100
AcDb2dVertex
 10
89.64277333031826
 20
-155.3906658207986
 30
0.0
  0
VERTEX
  5
7A
330
56
100
AcDbEntity
  8
_U+30EC_U+30A4_U+30E4_U+30FC 1
 62
   179
420
  2234388
370
    25
100
AcDbVertex
100
AcDb2dVertex
 10
89.43004945002747
 20
-155.8746802046294
 30
0.0
  0
VERTEX
  5
7B
330
56
100
AcDbEntity
  8
_U+30EC_U+30A4_U+30E4_U+30FC 1
 62
   179
420
  2234388
370
    25
100
AcDbVertex
100
AcDb2dVertex
 10
89.61736575111455
 20
-156.370321785723
 30
0.0
  0
VERTEX
  5
7C
330
56
100
AcDbEntity
  8
_U+30EC_U+30A4_U+30E4_U+30FC 1
 62
   179
420
  2234388
370
    25
100
AcDbVertex
100
AcDb2dVertex
 10
89.40499714629567
 20
-156.8546806791023
 30
0.0
  0
VERTEX
  5
7D
330
56
100
AcDbEntity
  8
_U+30EC_U+30A4_U+30E4_U+30FC 1
 62
   179
420
  2234388
370
    25
100
AcDbVertex
100
AcDb2dVertex
 10
89.59196893783421
 20
-157.3517433620835
 30
0.0
  0
VERTEX
  5
7E
330
56
100
AcDbEntity
  8
_U+30EC_U+30A4_U+30E4_U+30FC 1
 62
   179
420
  2234388
370
    25
100
AcDbVertex
100
AcDb2dVertex
 10
89.37888978207151
 20
-157.8382339082943
 30
0.0
  0
VERTEX
  5
7F
330
56
100
AcDbEntity
  8
_U+30EC_U+30A4_U+30E4_U+30FC 1
 62
   179
420
  2234388
370
    25
100
AcDbVertex
100
AcDb2dVertex
 10
89.56657212455389
 20
-158.3352965912756
 30
0.0
  0
VERTEX
  5
80
330
56
100
AcDbEntity
  8
_U+30EC_U+30A4_U+30E4_U+30FC 1
 62
   179
420
  2234388
370
    25
100
AcDbVertex
100
AcDb2dVertex
 10
89.35349296879119
 20
-158.8217871374864
 30
0.0
  0
VERTEX
  5
81
330
56
100
AcDbEntity
  8
_U+30EC_U+30A4_U+30E4_U+30FC 1
 62
   179
420
  2234388
370
    25
100
AcDbVertex
100
AcDb2dVertex
 10
89.54082003580164
 20
-159.3184837790723
 30
0.0
  0
VERTEX
  5
82
330
56
100
AcDbEntity
  8
_U+30EC_U+30A4_U+30E4_U+30FC 1
 62
   179
420
  2234388
370
    25
100
AcDbVertex
100
AcDb2dVertex
 10
89.32809615551118
 20
-159.805684876227
 30
0.0
  0
VERTEX
  5
83
330
56
100
AcDbEntity
  8
_U+30EC_U+30A4_U+30E4_U+30FC 1
 62
   179
420
  2234388
370
    25
100
AcDbVertex
100
AcDb2dVertex
 10
89.5150679470494
 20
-160.3030920687567
 30
0.0
  0
VERTEX
  5
84
330
56
100
AcDbEntity
  8
_U+30EC_U+30A4_U+30E4_U+30FC 1
 62
   179
420
  2234388
370
    25
100
AcDbVertex
100
AcDb2dVertex
 10
89.30268857630746
 20
-160.7906376754599
 30
0.0
  0
VERTEX
  5
85
330
56
100
AcDbEntity
  8
_U+30EC_U+30A4_U+30E4_U+30FC 1
 62
   179
420
  2234388
370
    25
100
AcDbVertex
100
AcDb2dVertex
 10
89.48966036784569
 20
-161.2883893775382
 30
0.0
  0
VERTEX
  5
86
330
56
100
AcDbEntity
  8
_U+30EC_U+30A4_U+30E4_U+30FC 1
 62
   179
420
  2234388
370
    25
100
AcDbVertex
100
AcDb2dVertex
 10
89.27693648755522
 20
-161.7745354142005
 30
0.0
  0
VERTEX
  5
87
330
56
100
AcDbEntity
  8
_U+30EC_U+30A4_U+30E4_U+30FC 1
 62
   179
420
  2234388
370
    25
100
AcDbVertex
100
AcDb2dVertex
 10
89.46426355456568
 20
-162.2712320557864
 30
0.0
  0
VERTEX
  5
88
330
56
100
AcDbEntity
  8
_U+30EC_U+30A4_U+30E4_U+30FC 1
 62
   179
420
  2234388
370
    25
100
AcDbVertex
100
AcDb2dVertex
 10
89.25153967427458
 20
-162.7566675415048
 30
0.0
  0
VERTEX
  5
89
330
56
100
AcDbEntity
  8
_U+30EC_U+30A4_U+30E4_U+30FC 1
 62
   179
420
  2234388
370
    25
100
AcDbVertex
100
AcDb2dVertex
 10
89.43851146581343
 20
-163.2519646130499
 30
0.0
  0
VERTEX
  5
8A
330
56
100
AcDbEntity
  8
_U+30EC_U+30A4_U+30E4_U+30FC 1
 62
   179
420
  2234388
370
    25
100
AcDbVertex
100
AcDb2dVertex
 10
89.22614286099424
 20
-163.7363235064292
 30
0.0
  0
SEQEND
  5
8B
330
56
100
AcDbEntity
  8
_U+30EC_U+30A4_U+30E4_U+30FC 1
 62
   179
420
  2234388
370
    25
  0
POLYLINE
  5
8C
330
1F
100
AcDbEntity
  8
_U+30EC_U+30A4_U+30E4_U+30FC 1
 62
   179
420
  2234388
370
    25
100
AcDb2dPolyline
 66
     1
 10
0.0
 20
0.0
 30
0.0
  0
VERTEX
  5
8D
330
8C
100
AcDbEntity
  8
_U+30EC_U+30A4_U+30E4_U+30FC 1
 62
   179
420
  2234388
370
    25
100
AcDbVertex
100
AcDb2dVertex
 10
89.3259429708329
 20
-163.7389288598899
 30
0.0
  0
VERTEX
  5
8E
330
8C
100
AcDbEntity
  8
_U+30EC_U+30A4_U+30E4_U+30FC 1
 62
   179
420
  2234388
370
    25
100
AcDbVertex
100
AcDb2dVertex
 10
88.92553674805974
 20
-163.7283567231196
 30
0.0
  0
SEQEND
  5
8F
330
8C
100
AcDbEntity
  8
_U+30EC_U+30A4_U+30E4_U+30FC 1
 62
   179
420
  2234388
370
    25
  0
POLYLINE
  5
90
330
1F
100
AcDbEntity
  8
_U+30EC_U+30A4_U+30E4_U+30FC 1
 62
   179
420
  2234388
370
    25
100
AcDb2dPolyline
 66
     1
 10
0.0
 20
0.0
 30
0.0
  0
VERTEX
  5
91
330
90
100
AcDbEntity
  8
_U+30EC_U+30A4_U+30E4_U+30FC 1
 62
   179
420
  2234388
370
    25
100
AcDbVertex
100
AcDb2dVertex
 10
88.92564440729333
 20
-163.7282275320389
 30
0.0
  0
VERTEX
  5
92
330
90
100
AcDbEntity
  8
_U+30EC_U+30A4_U+30E4_U+30FC 1
 62
   179
420
  2234388
370
    25
100
AcDbVertex
100
AcDb2dVertex
 10
88.98032453219828
 20
-137.728156500399
 30
0.0
  0
SEQEND
  5
93
330
90
100
AcDbEntity
  8
_U+30EC_U+30A4_U+30E4_U+30FC 1
 62
   179
420
  2234388
370
    25
  0
POLYLINE
  5
94
330
1F
100
AcDbEntity
  8
_U+30EC_U+30A4_U+30E4_U+30FC 1
 62
   179
420
  2234388
370
    25
100
AcDb2dPolyline
 66
     1
 10
0.0
 20
0.0
 30
0.0
  0
VERTEX
  5
95
330
94
100
AcDbEntity
  8
_U+30EC_U+30A4_U+30E4_U+30FC 1
 62
   179
420
  2234388
370
    25
100
AcDbVertex
100
AcDb2dVertex
 10
95.9973596120955
 20
-144.8873878964496
 30
0.0
  0
VERTEX
  5
96
330
94
100
AcDbEntity
  8
_U+30EC_U+30A4_U+30E4_U+30FC 1
 62
   179
420
  2234388
370
    25
100
AcDbVertex
100
AcDb2dVertex
 10
96.53040201105078
 20
-145.0743704539115
 30
0.0
  0
VERTEX
  5
97
330
94
100
AcDbEntity
  8
_U+30EC_U+30A4_U+30E4_U+30FC 1
 62
   179
420
  2234388
370
    25
100
AcDbVertex
100
AcDb2dVertex
 10
97.05392733372805
 20
-144.862001849093
 30
0.0
  0
VERTEX
  5
98
330
94
100
AcDbEntity
  8
_U+30EC_U+30A4_U+30E4_U+30FC 1
 62
   179
420
  2234388
370
    25
100
AcDbVertex
100
AcDb2dVertex
 10
97.58802479317569
 20
-145.0489628747078
 30
0.0
  0
VERTEX
  5
99
330
94
100
AcDbEntity
  8
_U+30EC_U+30A4_U+30E4_U+30FC 1
 62
   179
420
  2234388
370
    25
100
AcDbVertex
100
AcDb2dVertex
 10
98.11226066679681
 20
-144.8362497603407
 30
0.0
  0
VERTEX
  5
9A
330
94
100
AcDbEntity
  8
_U+30EC_U+30A4_U+30E4_U+30FC 1
 62
   179
420
  2234388
370
    25
100
AcDbVertex
100
AcDb2dVertex
 10
98.645658341224
 20
-145.0235768273512
 30
0.0
  0
VERTEX
  5
9B
330
94
100
AcDbEntity
  8
_U+30EC_U+30A4_U+30E4_U+30FC 1
 62
   179
420
  2234388
370
    25
100
AcDbVertex
100
AcDb2dVertex
 10
99.1691836639016
 20
-144.811208222532
 30
0.0
  0
VERTEX
  5
9C
330
94
100
AcDbEntity
  8
_U+30EC_U+30A4_U+30E4_U+30FC 1
 62
   179
420
  2234388
370
    25
100
AcDbVertex
100
AcDb2dVertex
 10
99.70258133832849
 20
-144.9981692481475
 30
0.0
  0
VERTEX
  5
9D
330
94
100
AcDbEntity
  8
_U+30EC_U+30A4_U+30E4_U+30FC 1
 62
   179
420
  2234388
370
    25
100
AcDbVertex
100
AcDb2dVertex
 10
100.2253961100619
 20
-144.7858006433283
 30
0.0
  0
VERTEX
  5
9E
330
94
100
AcDbEntity
  8
_U+30EC_U+30A4_U+30E4_U+30FC 1
 62
   179
420
  2234388
370
    25
100
AcDbVertex
100
AcDb2dVertex
 10
100.7584385090172
 20
-144.9727616689438
 30
0.0
  0
VERTEX
  5
9F
330
94
100
AcDbEntity
  8
_U+30EC_U+30A4_U+30E4_U+30FC 1
 62
   179
420
  2234388
370
    25
100
AcDbVertex
100
AcDb2dVertex
 10
101.2816085562226
 20
-144.7603930641246
 30
0.0
  0
VERTEX
  5
A0
330
94
100
AcDbEntity
  8
_U+30EC_U+30A4_U+30E4_U+30FC 1
 62
   179
420
  2234388
370
    25
100
AcDbVertex
100
AcDb2dVertex
 10
101.8143064456293
 20
-144.9473756215865
 30
0.0
  0
VERTEX
  5
A1
330
94
100
AcDbEntity
  8
_U+30EC_U+30A4_U+30E4_U+30FC 1
 62
   179
420
  2234388
370
    25
100
AcDbVertex
100
AcDb2dVertex
 10
102.3381870437785
 20
-144.7350070167676
 30
0.0
  0
VERTEX
  5
A2
330
94
100
AcDbEntity
  8
_U+30EC_U+30A4_U+30E4_U+30FC 1
 62
   179
420
  2234388
370
    25
100
AcDbVertex
100
AcDb2dVertex
 10
102.8712294427338
 20
-144.9219680423828
 30
0.0
  0
VERTEX
  5
A3
330
94
100
AcDbEntity
  8
_U+30EC_U+30A4_U+30E4_U+30FC 1
 62
   179
420
  2234388
370
    25
100
AcDbVertex
100
AcDb2dVertex
 10
103.3950992749596
 20
-144.7095994375639
 30
0.0
  0
VERTEX
  5
A4
330
94
100
AcDbEntity
  8
_U+30EC_U+30A4_U+30E4_U+30FC 1
 62
   179
420
  2234388
370
    25
100
AcDbVertex
100
AcDb2dVertex
 10
103.9288522248587
 20
-144.8965604631791
 30
0.0
  0
VERTEX
  5
A5
330
94
100
AcDbEntity
  8
_U+30EC_U+30A4_U+30E4_U+30FC 1
 62
   179
420
  2234388
370
    25
100
AcDbVertex
100
AcDb2dVertex
 10
104.4530880984798
 20
-144.6841918583602
 30
0.0
  0
VERTEX
  5
A6
330
94
100
AcDbEntity
  8
_U+30EC_U+30A4_U+30E4_U+30FC 1
 62
   179
420
  2234388
370
    25
100
AcDbVertex
100
AcDb2dVertex
 10
104.9857752219632
 20
-144.8711744158221
 30
0.0
  0
VERTEX
  5
A7
330
94
100
AcDbEntity
  8
_U+30EC_U+30A4_U+30E4_U+30FC 1
 62
   179
420
  2234388
370
    25
100
AcDbVertex
100
AcDb2dVertex
 10
105.5089452691686
 20
-144.6588058110033
 30
0.0
  0
VERTEX
  5
A8
330
94
100
AcDbEntity
  8
_U+30EC_U+30A4_U+30E4_U+30FC 1
 62
   179
420
  2234388
370
    25
100
AcDbVertex
100
AcDb2dVertex
 10
106.0423537095191
 20
-144.8457668366184
 30
0.0
  0
VERTEX
  5
A9
330
94
100
AcDbEntity
  8
_U+30EC_U+30A4_U+30E4_U+30FC 1
 62
   179
420
  2234388
370
    25
100
AcDbVertex
100
AcDb2dVertex
 10
106.565868266273
 20
-144.6333982317996
 30
0.0
  0
VERTEX
  5
AA
330
94
100
AcDbEntity
  8
_U+30EC_U+30A4_U+30E4_U+30FC 1
 62
   179
420
  2234388
370
    25
100
AcDbVertex
100
AcDb2dVertex
 10
107.0999764916441
 20
-144.8203807892615
 30
0.0
  0
VERTEX
  5
AB
330
94
100
AcDbEntity
  8
_U+30EC_U+30A4_U+30E4_U+30FC 1
 62
   179
420
  2234388
370
    25
100
AcDbVertex
100
AcDb2dVertex
 10
107.6242015993418
 20
-144.6079906525958
 30
0.0
  0
VERTEX
  5
AC
330
94
100
AcDbEntity
  8
_U+30EC_U+30A4_U+30E4_U+30FC 1
 62
   179
420
  2234388
370
    25
100
AcDbVertex
100
AcDb2dVertex
 10
108.1583098247128
 20
-144.7949732100578
 30
0.0
  0
VERTEX
  5
AD
330
94
100
AcDbEntity
  8
_U+30EC_U+30A4_U+30E4_U+30FC 1
 62
   179
420
  2234388
370
    25
100
AcDbVertex
100
AcDb2dVertex
 10
108.6814798719182
 20
-144.5826046052392
 30
0.0
  0
VERTEX
  5
AE
330
94
100
AcDbEntity
  8
_U+30EC_U+30A4_U+30E4_U+30FC 1
 62
   179
420
  2234388
370
    25
100
AcDbVertex
100
AcDb2dVertex
 10
109.2152328218173
 20
-144.7695656308541
 30
0.0
  0
VERTEX
  5
AF
330
94
100
AcDbEntity
  8
_U+30EC_U+30A4_U+30E4_U+30FC 1
 62
   179
420
  2234388
370
    25
100
AcDbVertex
100
AcDb2dVertex
 10
109.7401684804588
 20
-144.556852516487
 30
0.0
  0
VERTEX
  5
B0
330
94
100
AcDbEntity
  8
_U+30EC_U+30A4_U+30E4_U+30FC 1
 62
   179
420
  2234388
370
    25
100
AcDbVertex
100
AcDb2dVertex
 10
110.2749764908503
 20
-144.7441795834974
 30
0.0
  0
VERTEX
  5
B1
330
94
100
AcDbEntity
  8
_U+30EC_U+30A4_U+30E4_U+30FC 1
 62
   179
420
  2234388
370
    25
100
AcDbVertex
100
AcDb2dVertex
 10
110.8006119345123
 20
-144.5314449372833
 30
0.0
  0
VERTEX
  5
B2
330
94
100
AcDbEntity
  8
_U+30EC_U+30A4_U+30E4_U+30FC 1
 62
   179
420
  2234388
370
    25
100
AcDbVertex
100
AcDb2dVertex
 10
111.3361304958476
 20
-144.7184274947452
 30
0.0
  0
VERTEX
  5
B3
330
94
100
AcDbEntity
  8
_U+30EC_U+30A4_U+30E4_U+30FC 1
 62
   179
420
  2234388
370
    25
100
AcDbVertex
100
AcDb2dVertex
 10
111.8631762754739
 20
-144.505692848531
 30
0.0
  0
VERTEX
  5
B4
330
94
100
AcDbEntity
  8
_U+30EC_U+30A4_U+30E4_U+30FC 1
 62
   179
420
  2234388
370
    25
100
AcDbVertex
100
AcDb2dVertex
 10
112.3990393463577
 20
-144.6930199155415
 30
0.0
  0
VERTEX
  5
B5
330
94
100
AcDbEntity
  8
_U+30EC_U+30A4_U+30E4_U+30FC 1
 62
   179
420
  2234388
370
    25
100
AcDbVertex
100
AcDb2dVertex
 10
112.9260958919074
 20
-144.4802852693273
 30
0.0
  0
VERTEX
  5
B6
330
94
100
AcDbEntity
  8
_U+30EC_U+30A4_U+30E4_U+30FC 1
 62
   179
420
  2234388
370
    25
100
AcDbVertex
100
AcDb2dVertex
 10
113.4630140232836
 20
-144.6672678267892
 30
0.0
  0
VERTEX
  5
B7
330
94
100
AcDbEntity
  8
_U+30EC_U+30A4_U+30E4_U+30FC 1
 62
   179
420
  2234388
370
    25
100
AcDbVertex
100
AcDb2dVertex
 10
113.9900705688332
 20
-144.4545331805751
 30
0.0
  0
VERTEX
  5
B8
330
94
100
AcDbEntity
  8
_U+30EC_U+30A4_U+30E4_U+30FC 1
 62
   179
420
  2234388
370
    25
100
AcDbVertex
100
AcDb2dVertex
 10
114.5248785792247
 20
-144.6418602475855
 30
0.0
  0
VERTEX
  5
B9
330
94
100
AcDbEntity
  8
_U+30EC_U+30A4_U+30E4_U+30FC 1
 62
   179
420
  2234388
370
    25
100
AcDbVertex
100
AcDb2dVertex
 10
115.0498250037896
 20
-144.4294916427663
 30
0.0
  0
VERTEX
  5
BA
330
94
100
AcDbEntity
  8
_U+30EC_U+30A4_U+30E4_U+30FC 1
 62
   179
420
  2234388
370
    25
100
AcDbVertex
100
AcDb2dVertex
 10
115.5842669727858
 20
-144.6164742002283
 30
0.0
  0
VERTEX
  5
BB
330
94
100
AcDbEntity
  8
_U+30EC_U+30A4_U+30E4_U+30FC 1
 62
   179
420
  2234388
370
    25
100
AcDbVertex
100
AcDb2dVertex
 10
116.1095579068993
 20
-144.4037395540141
 30
0.0
  0
VERTEX
  5
BC
330
94
100
AcDbEntity
  8
_U+30EC_U+30A4_U+30E4_U+30FC 1
 62
   179
420
  2234388
370
    25
100
AcDbVertex
100
AcDb2dVertex
 10
116.6440214077422
 20
-144.590722111476
 30
0.0
  0
VERTEX
  5
BD
330
94
100
AcDbEntity
  8
_U+30EC_U+30A4_U+30E4_U+30FC 1
 62
   179
420
  2234388
370
    25
100
AcDbVertex
100
AcDb2dVertex
 10
117.1693123418557
 20
-144.3783319748104
 30
0.0
  0
VERTEX
  5
BE
330
94
100
AcDbEntity
  8
_U+30EC_U+30A4_U+30E4_U+30FC 1
 62
   179
420
  2234388
370
    25
100
AcDbVertex
100
AcDb2dVertex
 10
117.7037758426986
 20
-144.5653145322723
 30
0.0
  0
VERTEX
  5
BF
330
94
100
AcDbEntity
  8
_U+30EC_U+30A4_U+30E4_U+30FC 1
 62
   179
420
  2234388
370
    25
100
AcDbVertex
100
AcDb2dVertex
 10
118.2283562258683
 20
-144.3529459274534
 30
0.0
  0
VERTEX
  5
C0
330
94
100
AcDbEntity
  8
_U+30EC_U+30A4_U+30E4_U+30FC 1
 62
   179
420
  2234388
370
    25
100
AcDbVertex
100
AcDb2dVertex
 10
118.7621091757674
 20
-144.5399069530686
 30
0.0
  0
VERTEX
  5
C1
330
94
100
AcDbEntity
  8
_U+30EC_U+30A4_U+30E4_U+30FC 1
 62
   179
420
  2234388
370
    25
100
AcDbVertex
100
AcDb2dVertex
 10
119.286689558937
 20
-144.3275383482497
 30
0.0
  0
VERTEX
  5
C2
330
94
100
AcDbEntity
  8
_U+30EC_U+30A4_U+30E4_U+30FC 1
 62
   179
420
  2234388
370
    25
100
AcDbVertex
100
AcDb2dVertex
 10
119.8225526298208
 20
-144.5145209057117
 30
0.0
  0
VERTEX
  5
C3
330
94
100
AcDbEntity
  8
_U+30EC_U+30A4_U+30E4_U+30FC 1
 62
   179
420
  2234388
370
    25
100
AcDbVertex
100
AcDb2dVertex
 10
120.3481880734828
 20
-144.3017862594975
 30
0.0
  0
VERTEX
  5
C4
330
94
100
AcDbEntity
  8
_U+30EC_U+30A4_U+30E4_U+30FC 1
 62
   179
420
  2234388
370
    25
100
AcDbVertex
100
AcDb2dVertex
 10
120.8822855329305
 20
-144.4891133265079
 30
0.0
  0
VERTEX
  5
C5
330
94
100
AcDbEntity
  8
_U+30EC_U+30A4_U+30E4_U+30FC 1
 62
   179
420
  2234388
370
    25
100
AcDbVertex
100
AcDb2dVertex
 10
121.4065214065516
 20
-144.2763786802938
 30
0.0
  0
VERTEX
  5
C6
330
94
100
AcDbEntity
  8
_U+30EC_U+30A4_U+30E4_U+30FC 1
 62
   179
420
  2234388
370
    25
100
AcDbVertex
100
AcDb2dVertex
 10
121.9392192959583
 20
-144.4633612377557
 30
0.0
  0
VERTEX
  5
C7
330
94
100
AcDbEntity
  8
_U+30EC_U+30A4_U+30E4_U+30FC 1
 62
   179
420
  2234388
370
    25
100
AcDbVertex
100
AcDb2dVertex
 10
122.4623785772403
 20
-144.2509926329368
 30
0.0
  0
VERTEX
  5
C8
330
94
100
AcDbEntity
  8
_U+30EC_U+30A4_U+30E4_U+30FC 1
 62
   179
420
  2234388
370
    25
100
AcDbVertex
100
AcDb2dVertex
 10
122.9933108552109
 20
-144.4383196999473
 30
0.0
  0
SEQEND
  5
C9
330
94
100
AcDbEntity
  8
_U+30EC_U+30A4_U+30E4_U+30FC 1
 62
   179
420
  2234388
370
    25
  0
POLYLINE
  5
CA
330
1F
100
AcDbEntity
  8
_U+30EC_U+30A4_U+30E4_U+30FC 1
 62
   179
420
  2234388
370
    25
100
AcDb2dPolyline
 66
     1
 10
0.0
 20
0.0
 30
0.0
  0
VERTEX
  5
CB
330
CA
100
AcDbEntity
  8
_U+30EC_U+30A4_U+30E4_U+30FC 1
 62
   179
420
  2234388
370
    25
100
AcDbVertex
100
AcDb2dVertex
 10
122.991416052694
 20
-144.338218144254
 30
0.0
  0
VERTEX
  5
CC
330
CA
100
AcDbEntity
  8
_U+30EC_U+30A4_U+30E4_U+30FC 1
 62
   179
420
  2234388
370
    25
100
AcDbVertex
100
AcDb2dVertex
 10
122.9811668936254
 20
-143.9378334533276
 30
0.0
  0
SEQEND
  5
CD
330
CA
100
AcDbEntity
  8
_U+30EC_U+30A4_U+30E4_U+30FC 1
 62
   179
420
  2234388
370
    25
  0
POLYLINE
  5
CE
330
1F
100
AcDbEntity
  8
_U+30EC_U+30A4_U+30E4_U+30FC 1
 62
   179
420
  2234388
370
    25
100
AcDb2dPolyline
 66
     1
 10
0.0
 20
0.0
 30
0.0
  0
VERTEX
  5
CF
330
CE
100
AcDbEntity
  8
_U+30EC_U+30A4_U+30E4_U+30FC 1
 62
   179
420
  2234388
370
    25
100
AcDbVertex
100
AcDb2dVertex
 10
122.9810807662382
 20
-143.9379195807147
 30
0.0
  0
VERTEX
  5
D0
330
CE
100
AcDbEntity
  8
_U+30EC_U+30A4_U+30E4_U+30FC 1
 62
   179
420
  2234388
370
    25
100
AcDbVertex
100
AcDb2dVertex
 10
96.02461893012254
 20
-143.9926104715431
 30
0.0
  0
SEQEND
  5
D1
330
CE
100
AcDbEntity
  8
_U+30EC_U+30A4_U+30E4_U+30FC 1
 62
   179
420
  2234388
370
    25
  0
SPLINE
  5
D2
330
1F
100
AcDbEntity
  8
_U+30EC_U+30A4_U+30E4_U+30FC 1
 62
   179
420
  2234388
370
     9
100
AcDbSpline
210
0.0
220
0.0
230
1.0
 70
    11
 71
     3
 72
    17
 73
    13
 74
     0
 42
0.0000000001
 43
0.0000000001
 12
1.0
 22
0.0
 32
0.0
 13
1.0
 23
0.0
 33
0.0
 40
0.0
 40
0.0
 40
0.0
 40
0.0
 40
1.0
 40
1.0
 40
1.0
 40
2.0
 40
2.0
 40
2.0
 40
3.0
 40
3.0
 40
3.0
 40
4.0
 40
4.0
 40
4.0
 40
4.0
 10
96.98026688588406
 20
-133.7287236197254
 30
0.0
 10
96.98026688588406
 20
-133.7837590201023
 30
0.0
 10
97.0250638931157
 20
-133.8285667932576
 30
0.0
 10
97.08009929349257
 20
-133.8285667932576
 30
0.0
 10
97.13513469386943
 20
-133.8285667932576
 30
0.0
 10
97.17993170110107
 20
-133.7837590201023
 30
0.0
 10
97.17993170110107
 20
-133.7287236197254
 30
0.0
 10
97.17993170110107
 20
-133.6737097511956
 30
0.0
 10
97.13513469386943
 20
-133.6289019780403
 30
0.0
 10
97.08009929349257
 20
-133.6289019780403
 30
0.0
 10
97.0250638931157
 20
-133.6289019780403
 30
0.0
 10
96.98026688588406
 20
-133.6737097511956
 30
0.0
 10
96.98026688588406
 20
-133.7287236197254
 30
0.0
  0
SPLINE
  5
D3
330
1F
100
AcDbEntity
  8
_U+30EC_U+30A4_U+30E4_U+30FC 1
 62
   179
420
  2234388
370
     9
100
AcDbSpline
210
0.0
220
0.0
230
1.0
 70
    11
 71
     3
 72
    17
 73
    13
 74
     0
 42
0.0000000001
 43
0.0000000001
 12
1.0
 22
0.0
 32
0.0
 13
1.0
 23
0.0
 33
0.0
 40
0.0
 40
0.0
 40
0.0
 40
0.0
 40
1.0
 40
1.0
 40
1.0
 40
2.0
 40
2.0
 40
2.0
 40
3.0
 40
3.0
 40
3.0
 40
4.0
 40
4.0
 40
4.0
 40
4.0
 10
83.85376406798513
 20
-137.8280212057774
 30
0.0
 10
83.85376406798513
 20
-137.8830566061542
 30
0.0
 10
83.89856107521678
 20
-137.9278643793093
 30
0.0
 10
83.95359647559364
 20
-137.9278643793093
 30
0.0
 10
84.00863187597051
 20
-137.9278643793093
 30
0.0
 10
84.05342888320214
 20
-137.8830566061542
 30
0.0
 10
84.05342888320214
 20
-137.8280212057774
 30
0.0
 10
84.05342888320214
 20
-137.7722967863035
 30
0.0
 10
84.00863187597051
 20
-137.7281995640923
 30
0.0
 10
83.95359647559364
 20
-137.7281995640923
 30
0.0
 10
83.89856107521678
 20
-137.7281995640923
 30
0.0
 10
83.85376406798513
 20
-137.7722967863035
 30
0.0
 10
83.85376406798513
 20
-137.8280212057774
 30
0.0
  0
SPLINE
  5
D4
330
1F
100
AcDbEntity
  8
_U+30EC_U+30A4_U+30E4_U+30FC 1
 62
   179
420
  2234388
370
     9
100
AcDbSpline
210
0.0
220
0.0
230
1.0
 70
    11
 71
     3
 72
    17
 73
    13
 74
     0
 42
0.0000000001
 43
0.0000000001
 12
1.0
 22
0.0
 32
0.0
 13
1.0
 23
0.0
 33
0.0
 40
0.0
 40
0.0
 40
0.0
 40
0.0
 40
1.0
 40
1.0
 40
1.0
 40
2.0
 40
2.0
 40
2.0
 40
3.0
 40
3.0
 40
3.0
 40
4.0
 40
4.0
 40
4.0
 40
4.0
 10
122.980413278988
 20
-133.7287236197254
 30
0.0
 10
122.980413278988
 20
-133.7837590201023
 30
0.0
 10
123.0251995202962
 20
-133.8285667932576
 30
0.0
 10
123.0802349206731
 20
-133.8285667932576
 30
0.0
 10
123.13527032105
 20
-133.8285667932576
 30
0.0
 10
123.180078094205
 20
-133.7837590201023
 30
0.0
 10
123.180078094205
 20
-133.7287236197254
 30
0.0
 10
123.180078094205
 20
-133.6737097511956
 30
0.0
 10
123.13527032105
 20
-133.6289019780403
 30
0.0
 10
123.0802349206731
 20
-133.6289019780403
 30
0.0
 10
123.0251995202962
 20
-133.6289019780403
 30
0.0
 10
122.980413278988
 20
-133.6737097511956
 30
0.0
 10
122.980413278988
 20
-133.7287236197254
 30
0.0
  0
SPLINE
  5
D5
330
1F
100
AcDbEntity
  8
_U+30EC_U+30A4_U+30E4_U+30FC 1
 62
   179
420
  2234388
370
     9
100
AcDbSpline
210
0.0
220
0.0
230
1.0
 70
    11
 71
     3
 72
    17
 73
    13
 74
     0
 42
0.0000000001
 43
0.0000000001
 12
1.0
 22
0.0
 32
0.0
 13
1.0
 23
0.0
 33
0.0
 40
0.0
 40
0.0
 40
0.0
 40
0.0
 40
1.0
 40
1.0
 40
1.0
 40
2.0
 40
2.0
 40
2.0
 40
3.0
 40
3.0
 40
3.0
 40
4.0
 40
4.0
 40
4.0
 40
4.0
 10
83.85376406798513
 20
-163.8278123234094
 30
0.0
 10
83.85376406798513
 20
-163.8828477237862
 30
0.0
 10
83.89856107521678
 20
-163.9276554969413
 30
0.0
 10
83.95359647559364
 20
-163.9276554969413
 30
0.0
 10
84.00863187597051
 20
-163.9276554969413
 30
0.0
 10
84.05342888320214
 20
-163.8828477237862
 30
0.0
 10
84.05342888320214
 20
-163.8278123234094
 30
0.0
 10
84.05342888320214
 20
-163.7727984548793
 30
0.0
 10
84.00863187597051
 20
-163.7279906817243
 30
0.0
 10
83.95359647559364
 20
-163.7279906817243
 30
0.0
 10
83.89856107521678
 20
-163.7279906817243
 30
0.0
 10
83.85376406798513
 20
-163.7727984548793
 30
0.0
 10
83.85376406798513
 20
-163.8278123234094
 30
0.0
  0
POLYLINE
  5
D6
330
1F
100
AcDbEntity
  8
_U+30EC_U+30A4_U+30E4_U+30FC 1
 62
   179
420
  2234388
370
     9
100
AcDb2dPolyline
 66
     1
 10
0.0
 20
0.0
 30
0.0
  0
VERTEX
  5
D7
330
D6
100
AcDbEntity
  8
_U+30EC_U+30A4_U+30E4_U+30FC 1
 62
   179
420
  2234388
370
     9
100
AcDbVertex
100
AcDb2dVertex
 10
123.0802779843667
 20
-133.7287236197254
 30
0.0
  0
VERTEX
  5
D8
330
D6
100
AcDbEntity
  8
_U+30EC_U+30A4_U+30E4_U+30FC 1
 62
   179
420
  2234388
370
     9
100
AcDbVertex
100
AcDb2dVertex
 10
97.0801961868031
 20
-133.7287236197254
 30
0.0
  0
SEQEND
  5
D9
330
D6
100
AcDbEntity
  8
_U+30EC_U+30A4_U+30E4_U+30FC 1
 62
   179
420
  2234388
370
     9
  0
POLYLINE
  5
DA
330
1F
100
AcDbEntity
  8
_U+30EC_U+30A4_U+30E4_U+30FC 1
 62
   179
420
  2234388
370
     9
100
AcDb2dPolyline
 66
     1
 10
0.0
 20
0.0
 30
0.0
  0
VERTEX
  5
DB
330
DA
100
AcDbEntity
  8
_U+30EC_U+30A4_U+30E4_U+30FC 1
 62
   179
420
  2234388
370
     9
100
AcDbVertex
100
AcDb2dVertex
 10
123.0802779843667
 20
-135.9887062580493
 30
0.0
  0
VERTEX
  5
DC
330
DA
100
AcDbEntity
  8
_U+30EC_U+30A4_U+30E4_U+30FC 1
 62
   179
420
  2234388
370
     9
100
AcDbVertex
100
AcDb2dVertex
 10
123.0802779843667
 20
-132.729043037293
 30
0.0
  0
SEQEND
  5
DD
330
DA
100
AcDbEntity
  8
_U+30EC_U+30A4_U+30E4_U+30FC 1
 62
   179
420
  2234388
370
     9
  0
POLYLINE
  5
DE
330
1F
100
AcDbEntity
  8
_U+30EC_U+30A4_U+30E4_U+30FC 1
 62
   179
420
  2234388
370
     9
100
AcDb2dPolyline
 66
     1
 10
0.0
 20
0.0
 30
0.0
  0
VERTEX
  5
DF
330
DE
100
AcDbEntity
  8
_U+30EC_U+30A4_U+30E4_U+30FC 1
 62
   179
420
  2234388
370
     9
100
AcDbVertex
100
AcDb2dVertex
 10
97.08017465495631
 20
-135.7888261243648
 30
0.0
  0
VERTEX
  5
E0
330
DE
100
AcDbEntity
  8
_U+30EC_U+30A4_U+30E4_U+30FC 1
 62
   179
420
  2234388
370
     9
100
AcDbVertex
100
AcDb2dVertex
 10
97.08017465495631
 20
-132.728849250672
 30
0.0
  0
SEQEND
  5
E1
330
DE
100
AcDbEntity
  8
_U+30EC_U+30A4_U+30E4_U+30FC 1
 62
   179
420
  2234388
370
     9
  0
INSERT
  5
E3
330
1F
100
AcDbEntity
  8
_U+30EC_U+30A4_U+30E4_U+30FC 1
100
AcDbBlockReference
  2
block 3
 10
0.0
 20
0.0
 30
0.0
  0
SPLINE
  5
EB
330
1F
100
AcDbEntity
  8
_U+30EC_U+30A4_U+30E4_U+30FC 1
 62
   179
420
  2234388
370
     9
100
AcDbSpline
210
0.0
220
0.0
230
1.0
 70
    11
 71
     3
 72
    17
 73
    13
 74
     0
 42
0.0000000001
 43
0.0000000001
 12
1.0
 22
0.0
 32
0.0
 13
1.0
 23
0.0
 33
0.0
 40
0.0
 40
0.0
 40
0.0
 40
0.0
 40
1.0
 40
1.0
 40
1.0
 40
2.0
 40
2.0
 40
2.0
 40
3.0
 40
3.0
 40
3.0
 40
4.0
 40
4.0
 40
4.0
 40
4.0
 10
125.9273479570707
 20
-143.9379195807147
 30
0.0
 10
125.9823618256008
 20
-143.9379195807147
 30
0.0
 10
126.0271695987558
 20
-143.8931333394065
 30
0.0
 10
126.0271695987558
 20
-143.8380979390296
 30
0.0
 10
126.0271695987558
 20
-143.7830625386528
 30
0.0
 10
125.9823618256008
 20
-143.7382547654977
 30
0.0
 10
125.9273479570707
 20
-143.7382547654977
 30
0.0
 10
125.8723125566938
 20
-143.7382547654977
 30
0.0
 10
125.8275047835388
 20
-143.7830625386528
 30
0.0
 10
125.8275047835388
 20
-143.8380979390296
 30
0.0
 10
125.8275047835388
 20
-143.8931333394065
 30
0.0
 10
125.8723125566938
 20
-143.9379195807147
 30
0.0
 10
125.9273479570707
 20
-143.9379195807147
 30
0.0
  0
SPLINE
  5
EC
330
1F
100
AcDbEntity
  8
_U+30EC_U+30A4_U+30E4_U+30FC 1
 62
   179
420
  2234388
370
     9
100
AcDbSpline
210
0.0
220
0.0
230
1.0
 70
    11
 71
     3
 72
    17
 73
    13
 74
     0
 42
0.0000000001
 43
0.0000000001
 12
1.0
 22
0.0
 32
0.0
 13
1.0
 23
0.0
 33
0.0
 40
0.0
 40
0.0
 40
0.0
 40
0.0
 40
1.0
 40
1.0
 40
1.0
 40
2.0
 40
2.0
 40
2.0
 40
3.0
 40
3.0
 40
3.0
 40
4.0
 40
4.0
 40
4.0
 40
4.0
 10
125.9273479570707
 20
-137.9382642613054
 30
0.0
 10
125.9823618256008
 20
-137.9382642613054
 30
0.0
 10
126.0271695987558
 20
-137.8934780199971
 30
0.0
 10
126.0271695987558
 20
-137.838076578225
 30
0.0
 10
126.0271695987558
 20
-137.7830627096949
 30
0.0
 10
125.9823618256008
 20
-137.7382549365398
 30
0.0
 10
125.9273479570707
 20
-137.7382549365398
 30
0.0
 10
125.8723125566938
 20
-137.7382549365398
 30
0.0
 10
125.8275047835388
 20
-137.7830627096949
 30
0.0
 10
125.8275047835388
 20
-137.838076578225
 30
0.0
 10
125.8275047835388
 20
-137.8934780199971
 30
0.0
 10
125.8723125566938
 20
-137.9382642613054
 30
0.0
 10
125.9273479570707
 20
-137.9382642613054
 30
0.0
  0
POLYLINE
  5
ED
330
1F
100
AcDbEntity
  8
_U+30EC_U+30A4_U+30E4_U+30FC 1
 62
   179
420
  2234388
370
     9
100
AcDb2dPolyline
 66
     1
 10
0.0
 20
0.0
 30
0.0
  0
VERTEX
  5
EE
330
ED
100
AcDbEntity
  8
_U+30EC_U+30A4_U+30E4_U+30FC 1
 62
   179
420
  2234388
370
     9
100
AcDbVertex
100
AcDb2dVertex
 10
125.9273479570707
 20
-137.8379689189914
 30
0.0
  0
VERTEX
  5
EF
330
ED
100
AcDbEntity
  8
_U+30EC_U+30A4_U+30E4_U+30FC 1
 62
   179
420
  2234388
370
     9
100
AcDbVertex
100
AcDb2dVertex
 10
125.9273479570707
 20
-143.8380333434896
 30
0.0
  0
SEQEND
  5
F0
330
ED
100
AcDbEntity
  8
_U+30EC_U+30A4_U+30E4_U+30FC 1
 62
   179
420
  2234388
370
     9
  0
POLYLINE
  5
F1
330
1F
100
AcDbEntity
  8
_U+30EC_U+30A4_U+30E4_U+30FC 1
 62
   179
420
  2234388
370
     9
100
AcDb2dPolyline
 66
     1
 10
0.0
 20
0.0
 30
0.0
  0
VERTEX
  5
F2
330
F1
100
AcDbEntity
  8
_U+30EC_U+30A4_U+30E4_U+30FC 1
 62
   179
420
  2234388
370
     9
100
AcDbVertex
100
AcDb2dVertex
 10
126.9209134950167
 20
-137.8379689189914
 30
0.0
  0
VERTEX
  5
F3
330
F1
100
AcDbEntity
  8
_U+30EC_U+30A4_U+30E4_U+30FC 1
 62
   179
420
  2234388
370
     9
100
AcDbVertex
100
AcDb2dVertex
 10
123.6612287424137
 20
-137.8379689189914
 30
0.0
  0
SEQEND
  5
F4
330
F1
100
AcDbEntity
  8
_U+30EC_U+30A4_U+30E4_U+30FC 1
 62
   179
420
  2234388
370
     9
  0
POLYLINE
  5
F5
330
1F
100
AcDbEntity
  8
_U+30EC_U+30A4_U+30E4_U+30FC 1
 62
   179
420
  2234388
370
     9
100
AcDb2dPolyline
 66
     1
 10
0.0
 20
0.0
 30
0.0
  0
VERTEX
  5
F6
330
F5
100
AcDbEntity
  8
_U+30EC_U+30A4_U+30E4_U+30FC 1
 62
   179
420
  2234388
370
     9
100
AcDbVertex
100
AcDb2dVertex
 10
126.9209134950167
 20
-143.8380118116425
 30
0.0
  0
VERTEX
  5
F7
330
F5
100
AcDbEntity
  8
_U+30EC_U+30A4_U+30E4_U+30FC 1
 62
   179
420
  2234388
370
     9
100
AcDbVertex
100
AcDb2dVertex
 10
123.6612287424137
 20
-143.8380118116425
 30
0.0
  0
SEQEND
  5
F8
330
F5
100
AcDbEntity
  8
_U+30EC_U+30A4_U+30E4_U+30FC 1
 62
   179
420
  2234388
370
     9
  0
INSERT
  5
FA
330
1F
100
AcDbEntity
  8
_U+30EC_U+30A4_U+30E4_U+30FC 1
100
AcDbBlockReference
  2
block 4
 10
0.0
 20
0.0
 30
0.0
  0
POLYLINE
  5
100
330
1F
100
AcDbEntity
  8
_U+30EC_U+30A4_U+30E4_U+30FC 1
 62
   179
420
  2234388
370
     9
100
AcDb2dPolyline
 66
     1
 10
0.0
 20
0.0
 30
0.0
  0
VERTEX
  5
101
330
100
100
AcDbEntity
  8
_U+30EC_U+30A4_U+30E4_U+30FC 1
 62
   179
420
  2234388
370
     9
100
AcDbVertex
100
AcDb2dVertex
 10
83.95367183705737
 20
-137.8280212057774
 30
0.0
  0
VERTEX
  5
102
330
100
100
AcDbEntity
  8
_U+30EC_U+30A4_U+30E4_U+30FC 1
 62
   179
420
  2234388
370
     9
100
AcDbVertex
100
AcDb2dVertex
 10
83.95367183705737
 20
-163.827747727869
 30
0.0
  0
SEQEND
  5
103
330
100
100
AcDbEntity
  8
_U+30EC_U+30A4_U+30E4_U+30FC 1
 62
   179
420
  2234388
370
     9
  0
POLYLINE
  5
104
330
1F
100
AcDbEntity
  8
_U+30EC_U+30A4_U+30E4_U+30FC 1
 62
   179
420
  2234388
370
     9
100
AcDb2dPolyline
 66
     1
 10
0.0
 20
0.0
 30
0.0
  0
VERTEX
  5
105
330
104
100
AcDbEntity
  8
_U+30EC_U+30A4_U+30E4_U+30FC 1
 62
   179
420
  2234388
370
     9
100
AcDbVertex
100
AcDb2dVertex
 10
82.66383885330323
 20
-137.8280212057774
 30
0.0
  0
VERTEX
  5
106
330
104
100
AcDbEntity
  8
_U+30EC_U+30A4_U+30E4_U+30FC 1
 62
   179
420
  2234388
370
     9
100
AcDbVertex
100
AcDb2dVertex
 10
87.02381174243133
 20
-137.8280212057774
 30
0.0
  0
SEQEND
  5
107
330
104
100
AcDbEntity
  8
_U+30EC_U+30A4_U+30E4_U+30FC 1
 62
   179
420
  2234388
370
     9
  0
POLYLINE
  5
108
330
1F
100
AcDbEntity
  8
_U+30EC_U+30A4_U+30E4_U+30FC 1
 62
   179
420
  2234388
370
     9
100
AcDb2dPolyline
 66
     1
 10
0.0
 20
0.0
 30
0.0
  0
VERTEX
  5
109
330
108
100
AcDbEntity
  8
_U+30EC_U+30A4_U+30E4_U+30FC 1
 62
   179
420
  2234388
370
     9
100
AcDbVertex
100
AcDb2dVertex
 10
82.66383885330323
 20
-163.8278123234094
 30
0.0
  0
VERTEX
  5
10A
330
108
100
AcDbEntity
  8
_U+30EC_U+30A4_U+30E4_U+30FC 1
 62
   179
420
  2234388
370
     9
100
AcDbVertex
100
AcDb2dVertex
 10
87.02381174243133
 20
-163.8278123234094
 30
0.0
  0
SEQEND
  5
10B
330
108
100
AcDbEntity
  8
_U+30EC_U+30A4_U+30E4_U+30FC 1
 62
   179
420
  2234388
370
     9
  0
INSERT
  5
10D
330
1F
100
AcDbEntity
  8
_U+30EC_U+30A4_U+30E4_U+30FC 1
100
AcDbBlockReference
  2
block 5
 10
0.0
 20
0.0
 30
0.0
  0
POLYLINE
  5
115
330
1F
100
AcDbEntity
  8
_U+30EC_U+30A4_U+30E4_U+30FC 1
 62
   179
420
  2234388
370
    25
100
AcDb2dPolyline
 66
     1
 10
0.0
 20
0.0
 30
0.0
  0
VERTEX
  5
116
330
115
100
AcDbEntity
  8
_U+30EC_U+30A4_U+30E4_U+30FC 1
 62
   179
420
  2234388
370
    25
100
AcDbVertex
100
AcDb2dVertex
 10
89.97502049210043
 20
-138.7475387226373
 30
0.0
  0
VERTEX
  5
117
330
115
100
AcDbEntity
  8
_U+30EC_U+30A4_U+30E4_U+30FC 1
 62
   179
420
  2234388
370
    25
100
AcDbVertex
100
AcDb2dVertex
 10
95.97506338475222
 20
-138.7475387226373
 30
0.0
  0
SEQEND
  5
118
330
115
100
AcDbEntity
  8
_U+30EC_U+30A4_U+30E4_U+30FC 1
 62
   179
420
  2234388
370
    25
  0
POLYLINE
  5
119
330
1F
100
AcDbEntity
  8
_U+30EC_U+30A4_U+30E4_U+30FC 1
 62
   179
420
  2234388
370
    25
100
AcDb2dPolyline
 66
     1
 10
0.0
 20
0.0
 30
0.0
  0
VERTEX
  5
11A
330
119
100
AcDbEntity
  8
_U+30EC_U+30A4_U+30E4_U+30FC 1
 62
   179
420
  2234388
370
    25
100
AcDbVertex
100
AcDb2dVertex
 10
88.98039989366234
 20
-137.7281134367051
 30
0.0
  0
VERTEX
  5
11B
330
119
100
AcDbEntity
  8
_U+30EC_U+30A4_U+30E4_U+30FC 1
 62
   179
420
  2234388
370
    25
100
AcDbVertex
100
AcDb2dVertex
 10
96.98033148142441
 20
-137.7281134367051
 30
0.0
  0
SEQEND
  5
11C
330
119
100
AcDbEntity
  8
_U+30EC_U+30A4_U+30E4_U+30FC 1
 62
   179
420
  2234388
370
    25
  0
POLYLINE
  5
11D
330
1F
100
AcDbEntity
  8
_U+30EC_U+30A4_U+30E4_U+30FC 1
 62
   179
420
  2234388
370
    25
100
AcDb2dPolyline
 66
     1
 10
0.0
 20
0.0
 30
0.0
  0
VERTEX
  5
11E
330
11D
100
AcDbEntity
  8
_U+30EC_U+30A4_U+30E4_U+30FC 1
 62
   179
420
  2234388
370
    25
100
AcDbVertex
100
AcDb2dVertex
 10
96.98026688588406
 20
-143.8648620245807
 30
0.0
  0
VERTEX
  5
11F
330
11D
100
AcDbEntity
  8
_U+30EC_U+30A4_U+30E4_U+30FC 1
 62
   179
420
  2234388
370
    25
100
AcDbVertex
100
AcDb2dVertex
 10
96.98026688588406
 20
-137.8648191319292
 30
0.0
  0
SEQEND
  5
120
330
11D
100
AcDbEntity
  8
_U+30EC_U+30A4_U+30E4_U+30FC 1
 62
   179
420
  2234388
370
    25
  0
POLYLINE
  5
121
330
1F
100
AcDbEntity
  8
_U+30EC_U+30A4_U+30E4_U+30FC 1
 62
   179
420
  2234388
370
    25
100
AcDb2dPolyline
 66
     1
 10
0.0
 20
0.0
 30
0.0
  0
VERTEX
  5
122
330
121
100
AcDbEntity
  8
_U+30EC_U+30A4_U+30E4_U+30FC 1
 62
   179
420
  2234388
370
    25
100
AcDbVertex
100
AcDb2dVertex
 10
95.97499878921155
 20
-144.9252408830938
 30
0.0
  0
VERTEX
  5
123
330
121
100
AcDbEntity
  8
_U+30EC_U+30A4_U+30E4_U+30FC 1
 62
   179
420
  2234388
370
    25
100
AcDbVertex
100
AcDb2dVertex
 10
95.97499878921155
 20
-138.7474095315567
 30
0.0
  0
SEQEND
  5
124
330
121
100
AcDbEntity
  8
_U+30EC_U+30A4_U+30E4_U+30FC 1
 62
   179
420
  2234388
370
    25
  0
POLYLINE
  5
125
330
1F
100
AcDbEntity
  8
_U+30EC_U+30A4_U+30E4_U+30FC 1
 62
   179
420
  2234388
370
     9
100
AcDb2dPolyline
 66
     1
 10
0.0
 20
0.0
 30
0.0
  0
VERTEX
  5
126
330
125
100
AcDbEntity
  8
_U+30EC_U+30A4_U+30E4_U+30FC 1
 62
   179
420
  2234388
370
     9
100
AcDbVertex
100
AcDb2dVertex
 10
89.55330850693568
 20
-136.757586974817
 30
0.0
  0
VERTEX
  5
127
330
125
100
AcDbEntity
  8
_U+30EC_U+30A4_U+30E4_U+30FC 1
 62
   179
420
  2234388
370
     9
100
AcDbVertex
100
AcDb2dVertex
 10
90.11033738320701
 20
-137.5883932829315
 30
0.0
  0
SEQEND
  5
128
330
125
100
AcDbEntity
  8
_U+30EC_U+30A4_U+30E4_U+30FC 1
 62
   179
420
  2234388
370
     9
  0
POLYLINE
  5
129
330
1F
100
AcDbEntity
  8
_U+30EC_U+30A4_U+30E4_U+30FC 1
 62
   179
420
  2234388
370
     9
100
AcDb2dPolyline
 66
     1
 10
0.0
 20
0.0
 30
0.0
  0
VERTEX
  5
12A
330
129
100
AcDbEntity
  8
_U+30EC_U+30A4_U+30E4_U+30FC 1
 62
   179
420
  2234388
370
     9
100
AcDbVertex
100
AcDb2dVertex
 10
90.04356712633351
 20
-136.5908658851774
 30
0.0
  0
VERTEX
  5
12B
330
129
100
AcDbEntity
  8
_U+30EC_U+30A4_U+30E4_U+30FC 1
 62
   179
420
  2234388
370
     9
100
AcDbVertex
100
AcDb2dVertex
 10
90.11024048989648
 20
-137.5885224740122
 30
0.0
  0
SEQEND
  5
12C
330
129
100
AcDbEntity
  8
_U+30EC_U+30A4_U+30E4_U+30FC 1
 62
   179
420
  2234388
370
     9
  0
POLYLINE
  5
12D
330
1F
100
AcDbEntity
  8
_U+30EC_U+30A4_U+30E4_U+30FC 1
 62
   179
420
  2234388
370
     9
100
AcDb2dPolyline
 66
     1
 10
0.0
 20
0.0
 30
0.0
  0
VERTEX
  5
12E
330
12D
100
AcDbEntity
  8
_U+30EC_U+30A4_U+30E4_U+30FC 1
 62
   179
420
  2234388
370
     9
100
AcDbVertex
100
AcDb2dVertex
 10
89.33455570954602
 20
-135.2283306207611
 30
0.0
  0
VERTEX
  5
12F
330
12D
100
AcDbEntity
  8
_U+30EC_U+30A4_U+30E4_U+30FC 1
 62
   179
420
  2234388
370
     9
100
AcDbVertex
100
AcDb2dVertex
 10
90.11030508543716
 20
-137.5884148147782
 30
0.0
  0
SEQEND
  5
130
330
12D
100
AcDbEntity
  8
_U+30EC_U+30A4_U+30E4_U+30FC 1
 62
   179
420
  2234388
370
     9
  0
INSERT
  5
132
330
1F
100
AcDbEntity
  8
_U+30EC_U+30A4_U+30E4_U+30FC 1
100
AcDbBlockReference
  2
block 6
 10
0.0
 20
0.0
 30
0.0
  0
POLYLINE
  5
18D
330
1F
100
AcDbEntity
  8
_U+30EC_U+30A4_U+30E4_U+30FC 1
 62
   179
420
  2234388
370
    25
100
AcDb2dPolyline
 66
     1
 10
0.0
 20
0.0
 30
0.0
  0
VERTEX
  5
18E
330
18D
100
AcDbEntity
  8
_U+30EC_U+30A4_U+30E4_U+30FC 1
 62
   179
420
  2234388
370
    25
100
AcDbVertex
100
AcDb2dVertex
 10
88.98039989366234
 20
-138.7475387226373
 30
0.0
  0
VERTEX
  5
18F
330
18D
100
AcDbEntity
  8
_U+30EC_U+30A4_U+30E4_U+30FC 1
 62
   179
420
  2234388
370
    25
100
AcDbVertex
100
AcDb2dVertex
 10
89.97486976917295
 20
-138.7475387226373
 30
0.0
  0
SEQEND
  5
190
330
18D
100
AcDbEntity
  8
_U+30EC_U+30A4_U+30E4_U+30FC 1
 62
   179
420
  2234388
370
    25
  0
POLYLINE
  5
191
330
1F
100
AcDbEntity
  8
_U+30EC_U+30A4_U+30E4_U+30FC 1
 62
   179
420
  2234388
370
     9
100
AcDb2dPolyline
 66
     1
 10
0.0
 20
0.0
 30
0.0
  0
VERTEX
  5
192
330
191
100
AcDbEntity
  8
_U+30EC_U+30A4_U+30E4_U+30FC 1
 62
   179
420
  2234388
370
     9
100
AcDbVertex
100
AcDb2dVertex
 10
103.9965591170673
 20
-145.4696090334568
 30
0.0
  0
VERTEX
  5
193
330
191
100
AcDbEntity
  8
_U+30EC_U+30A4_U+30E4_U+30FC 1
 62
   179
420
  2234388
370
     9
100
AcDbVertex
100
AcDb2dVertex
 10
109.3323230046222
 20
-159.2279423633506
 30
0.0
  0
VERTEX
  5
194
330
191
100
AcDbEntity
  8
_U+30EC_U+30A4_U+30E4_U+30FC 1
 62
   179
420
  2234388
370
     9
100
AcDbVertex
100
AcDb2dVertex
 10
123.2670452233608
 20
-159.2279423633506
 30
0.0
  0
SEQEND
  5
195
330
191
100
AcDbEntity
  8
_U+30EC_U+30A4_U+30E4_U+30FC 1
 62
   179
420
  2234388
370
     9
  0
INSERT
  5
197
330
1F
100
AcDbEntity
  8
_U+30EC_U+30A4_U+30E4_U+30FC 1
100
AcDbBlockReference
  2
block 7
 10
0.0
 20
0.0
 30
0.0
  0
INSERT
  5
1C6
330
1F
100
AcDbEntity
  8
_U+30EC_U+30A4_U+30E4_U+30FC 1
100
AcDbBlockReference
  2
block 8
 10
0.0
 20
0.0
 30
0.0
  0
POLYLINE
  5
1DA
330
1F
100
AcDbEntity
  8
_U+30EC_U+30A4_U+30E4_U+30FC 1
  6
AI-Linetype-1
 62
   154
420
    23468
370
    25
100
AcDb2dPolyline
 66
     1
 10
0.0
 20
0.0
 30
0.0
  0
VERTEX
  5
1DB
330
1DA
100
AcDbEntity
  8
_U+30EC_U+30A4_U+30E4_U+30FC 1
  6
AI-Linetype-1
 62
   154
420
    23468
370
    25
100
AcDbVertex
100
AcDb2dVertex
 10
90.026664626609
 20
-163.7389288598899
 30
0.0
  0
VERTEX
  5
1DC
330
1DA
100
AcDbEntity
  8
_U+30EC_U+30A4_U+30E4_U+30FC 1
  6
AI-Linetype-1
 62
   154
420
    23468
370
    25
100
AcDbVertex
100
AcDb2dVertex
 10
90.59110045817363
 20
-139.3842139001586
 30
0.0
  0
VERTEX
  5
1DD
330
1DA
100
AcDbEntity
  8
_U+30EC_U+30A4_U+30E4_U+30FC 1
  6
AI-Linetype-1
 62
   154
420
    23468
370
    25
100
AcDbVertex
100
AcDb2dVertex
 10
95.353600456983
 20
-139.3842139001586
 30
0.0
  0
VERTEX
  5
1DE
330
1DA
100
AcDbEntity
  8
_U+30EC_U+30A4_U+30E4_U+30FC 1
  6
AI-Linetype-1
 62
   154
420
    23468
370
    25
100
AcDbVertex
100
AcDb2dVertex
 10
95.353600456983
 20
-145.6460194541487
 30
0.0
  0
VERTEX
  5
1DF
330
1DA
100
AcDbEntity
  8
_U+30EC_U+30A4_U+30E4_U+30FC 1
  6
AI-Linetype-1
 62
   154
420
    23468
370
    25
100
AcDbVertex
100
AcDb2dVertex
 10
123.0466452396919
 20
-144.9845611209807
 30
0.0
  0
SEQEND
  5
1E1
330
1DA
100
AcDbEntity
  8
_U+30EC_U+30A4_U+30E4_U+30FC 1
  6
AI-Linetype-1
 62
   154
420
    23468
370
    25
  0
ENDSEC
  0
SECTION
  2
OBJECTS
  0
DICTIONARY
  5
C
330
0
100
AcDbDictionary
281
     1
  3
ACAD_GROUP
350
D
  3
ACAD_LAYOUT
350
1A
  3
ACAD_MATERIAL
350
3B
  3
ACAD_MLEADERSTYLE
350
1E3
  3
ACAD_MLINESTYLE
350
17
  3
ACAD_PLOTSETTINGS
350
19
  3
ACAD_PLOTSTYLENAME
350
E
  3
ACAD_TABLESTYLE
350
1E2
  3
ACAD_VISUALSTYLE
350
2A
  0
SUN
  5
3F
330
29
100
AcDbSun
 90
        1
290
     0
 63
     7
421
 16777215
 40
1.0
291
     1
 91
  2455826
 92
 54000000
292
     0
 70
     2
 71
   256
280
     1
  0
DICTIONARY
  5
D
102
{ACAD_REACTORS
330
C
102
}
330
C
100
AcDbDictionary
281
     1
  0
DICTIONARY
  5
1A
102
{ACAD_REACTORS
330
C
102
}
330
C
100
AcDbDictionary
281
     1
  3
Layout1
350
1E
  3
Layout2
350
26
  3
Model
350
22
  0
DICTIONARY
  5
3B
102
{ACAD_REACTORS
330
C
102
}
330
C
100
AcDbDictionary
281
     1
  3
ByBlock
350
3D
  3
ByLayer
350
3C
  3
Global
350
3E
  0
DICTIONARY
  5
1E3
102
{ACAD_REACTORS
330
C
102
}
330
C
100
AcDbDictionary
281
     1
  0
DICTIONARY
  5
17
102
{ACAD_REACTORS
330
C
102
}
330
C
100
AcDbDictionary
281
     1
  3
Standard
350
18
  0
DICTIONARY
  5
19
102
{ACAD_REACTORS
330
C
102
}
330
C
100
AcDbDictionary
281
     1
  0
ACDBDICTIONARYWDFLT
  5
E
102
{ACAD_REACTORS
330
C
102
}
330
C
100
AcDbDictionary
281
     1
  3
Normal
350
F
100
AcDbDictionaryWithDefault
340
F
  0
DICTIONARY
  5
1E2
102
{ACAD_REACTORS
330
C
102
}
330
C
100
AcDbDictionary
281
     1
  0
DICTIONARY
  5
2A
102
{ACAD_REACTORS
330
C
102
}
330
C
100
AcDbDictionary
281
     1
  3
2dWireframe
350
2F
  3
3D Hidden
350
31
  3
3dWireframe
350
30
  3
Basic
350
32
  3
Brighten
350
36
  3
ColorChange
350
3A
  3
Conceptual
350
34
  3
Dim
350
35
  3
Facepattern
350
39
  3
Flat
350
2B
  3
FlatWithEdges
350
2C
  3
Gouraud
350
2D
  3
GouraudWithEdges
350
2E
  3
Linepattern
350
38
  3
Realistic
350
33
  3
Thicken
350
37
  0
LAYOUT
  5
1E
102
{ACAD_REACTORS
330
1A
102
}
330
1A
100
AcDbPlotSettings
  1

  2
none_device
  4

  6

 40
0.0
 41
0.0
 42
0.0
 43
0.0
 44
0.0
 45
0.0
 46
0.0
 47
0.0
 48
0.0
 49
0.0
140
0.0
141
0.0
142
1.0
143
1.0
 70
   688
 72
     0
 73
     0
 74
     5
  7

 75
    16
 76
     0
 77
     2
 78
   300
147
1.0
148
0.0
149
0.0
100
AcDbLayout
  1
Layout1
 70
     1
 71
     1
 10
0.0
 20
0.0
 11
12.0
 21
9.0
 12
0.0
 22
0.0
 32
0.0
 14
1.000000000000000E+20
 24
1.000000000000000E+20
 34
1.000000000000000E+20
 15
-1.000000000000000E+20
 25
-1.000000000000000E+20
 35
-1.000000000000000E+20
146
0.0
 13
0.0
 23
0.0
 33
0.0
 16
1.0
 26
0.0
 36
0.0
 17
0.0
 27
1.0
 37
0.0
 76
     0
330
1B
  0
LAYOUT
  5
26
102
{ACAD_REACTORS
330
1A
102
}
330
1A
100
AcDbPlotSettings
  1

  2
none_device
  4

  6

 40
0.0
 41
0.0
 42
0.0
 43
0.0
 44
0.0
 45
0.0
 46
0.0
 47
0.0
 48
0.0
 49
0.0
140
0.0
141
0.0
142
1.0
143
1.0
 70
   688
 72
     0
 73
     0
 74
     5
  7

 75
    16
 76
     0
 77
     2
 78
   300
147
1.0
148
0.0
149
0.0
100
AcDbLayout
  1
Layout2
 70
     1
 71
     2
 10
0.0
 20
0.0
 11
0.0
 21
0.0
 12
0.0
 22
0.0
 32
0.0
 14
0.0
 24
0.0
 34
0.0
 15
0.0
 25
0.0
 35
0.0
146
0.0
 13
0.0
 23
0.0
 33
0.0
 16
1.0
 26
0.0
 36
0.0
 17
0.0
 27
1.0
 37
0.0
 76
     0
330
23
  0
LAYOUT
  5
22
102
{ACAD_REACTORS
330
1A
102
}
330
1A
100
AcDbPlotSettings
  1

  2
none_device
  4

  6

 40
0.0
 41
0.0
 42
0.0
 43
0.0
 44
0.0
 45
0.0
 46
0.0
 47
0.0
 48
0.0
 49
0.0
140
0.0
141
0.0
142
1.0
143
1.0
 70
  1712
 72
     0
 73
     0
 74
     0
  7

 75
     0
 76
     0
 77
     2
 78
   300
147
1.0
148
0.0
149
0.0
100
AcDbLayout
  1
Model
 70
     1
 71
     0
 10
0.0
 20
0.0
 11
12.0
 21
9.0
 12
0.0
 22
0.0
 32
0.0
 14
1.000000000000000E+20
 24
1.000000000000000E+20
 34
1.000000000000000E+20
 15
-1.000000000000000E+20
 25
-1.000000000000000E+20
 35
-1.000000000000000E+20
146
0.0
 13
0.0
 23
0.0
 33
0.0
 16
1.0
 26
0.0
 36
0.0
 17
0.0
 27
1.0
 37
0.0
 76
     0
330
1F
331
29
  0
MATERIAL
  5
3D
102
{ACAD_REACTORS
330
3B
102
}
330
3B
100
AcDbMaterial
  1
ByBlock
 72
     1
 94
      127
  0
MATERIAL
  5
3C
102
{ACAD_REACTORS
330
3B
102
}
330
3B
100
AcDbMaterial
  1
ByLayer
 72
     1
 94
      127
  0
MATERIAL
  5
3E
102
{ACAD_REACTORS
330
3B
102
}
330
3B
100
AcDbMaterial
  1
Global
 72
     1
 94
      127
  0
MLINESTYLE
  5
18
102
{ACAD_REACTORS
330
17
102
}
330
17
100
AcDbMlineStyle
  2
Standard
 70
     0
  3

 62
   256
 51
90.0
 52
90.0
 71
     2
 49
0.5
 62
   256
  6
BYLAYER
 49
-0.5
 62
   256
  6
BYLAYER
  0
ACDBPLACEHOLDER
  5
F
102
{ACAD_REACTORS
330
E
102
}
330
E
  0
VISUALSTYLE
  5
2F
102
{ACAD_REACTORS
330
2A
102
}
330
2A
100
AcDbVisualStyle
  2
2dWireframe
 70
     4
177
     2
291
     0
 71
     0
176
     1
 72
     2
176
     1
 73
     0
176
     1
 90
        0
176
     1
 40
-0.6
176
     1
 41
-30.0
176
     1
 62
     5
 63
     7
421
 16777215
176
     1
 74
     1
176
     1
 91
        4
176
     1
 64
     7
176
     1
 65
   257
176
     1
 75
     1
176
     1
175
     1
176
     1
 42
1.0
176
     1
 92
        0
176
     1
 66
   257
176
     1
 43
1.0
176
     1
 76
     1
176
     1
 77
     6
176
     1
 78
     2
176
     1
 67
     7
176
     1
 79
     5
176
     1
170
     0
176
     1
171
     0
176
     1
290
     0
176
     1
 93
        1
176
     1
 44
0.0
176
     1
173
     0
176
     1
  0
VISUALSTYLE
  5
31
102
{ACAD_REACTORS
330
2A
102
}
330
2A
100
AcDbVisualStyle
  2
3D Hidden
 70
     6
177
     2
291
     0
 71
     1
176
     1
 72
     2
176
     1
 73
     2
176
     1
 90
        0
176
     1
 40
-0.6
176
     1
 41
-30.0
176
     1
 62
     5
 63
     7
421
 16777215
176
     1
 74
     2
176
     1
 91
        2
176
     1
 64
     7
176
     1
 65
   257
176
     1
 75
     2
176
     1
175
     1
176
     1
 42
40.0
176
     1
 92
        0
176
     1
 66
   257
176
     1
 43
1.0
176
     1
 76
     1
176
     1
 77
     6
176
     1
 78
     2
176
     1
 67
     7
176
     1
 79
     3
176
     1
170
     0
176
     1
171
     0
176
     1
290
     0
176
     1
 93
        1
176
     1
 44
0.0
176
     1
173
     0
176
     1
  0
VISUALSTYLE
  5
30
102
{ACAD_REACTORS
330
2A
102
}
330
2A
100
AcDbVisualStyle
  2
3dWireframe
 70
     5
177
     2
291
     0
 71
     0
176
     1
 72
     2
176
     1
 73
     0
176
     1
 90
        0
176
     1
 40
-0.6
176
     1
 41
-30.0
176
     1
 62
     5
 63
     7
421
 16777215
176
     1
 74
     1
176
     1
 91
        4
176
     1
 64
     7
176
     1
 65
   257
176
     1
 75
     1
176
     1
175
     1
176
     1
 42
1.0
176
     1
 92
        0
176
     1
 66
   257
176
     1
 43
1.0
176
     1
 76
     1
176
     1
 77
     6
176
     1
 78
     2
176
     1
 67
     7
176
     1
 79
     5
176
     1
170
     0
176
     1
171
     0
176
     1
290
     0
176
     1
 93
        1
176
     1
 44
0.0
176
     1
173
     0
176
     1
  0
VISUALSTYLE
  5
32
102
{ACAD_REACTORS
330
2A
102
}
330
2A
100
AcDbVisualStyle
  2
Basic
 70
     7
177
     2
291
     1
 71
     1
176
     1
 72
     0
176
     1
 73
     1
176
     1
 90
        0
176
     1
 40
-0.6
176
     1
 41
-30.0
176
     1
 62
     5
 63
     7
421
 16777215
176
     1
 74
     0
176
     1
 91
        4
176
     1
 64
     7
176
     1
 65
   257
176
     1
 75
     1
176
     1
175
     1
176
     1
 42
1.0
176
     1
 92
        8
176
     1
 66
     7
176
     1
 43
1.0
176
     1
 76
     1
176
     1
 77
     6
176
     1
 78
     2
176
     1
 67
     7
176
     1
 79
     5
176
     1
170
     0
176
     1
171
     0
176
     1
290
     0
176
     1
 93
        1
176
     1
 44
0.0
176
     1
173
     0
176
     1
  0
VISUALSTYLE
  5
36
102
{ACAD_REACTORS
330
2A
102
}
330
2A
100
AcDbVisualStyle
  2
Brighten
 70
    12
177
     2
291
     1
 71
     2
176
     1
 72
     2
176
     1
 73
     0
176
     1
 90
        0
176
     1
 40
-0.6
176
     1
 41
-30.0
176
     1
 62
     5
 63
     7
421
 16777215
176
     1
 74
     1
176
     1
 91
        4
176
     1
 64
     7
176
     1
 65
   257
176
     1
 75
     1
176
     1
175
     1
176
     1
 42
1.0
176
     1
 92
        8
176
     1
 66
     7
176
     1
 43
1.0
176
     1
 76
     1
176
     1
 77
     6
176
     1
 78
     2
176
     1
 67
     7
176
     1
 79
     5
176
     1
170
     0
176
     1
171
     0
176
     1
290
     0
176
     1
 93
        1
176
     1
 44
50.0
176
     1
173
     0
176
     1
  0
VISUALSTYLE
  5
3A
102
{ACAD_REACTORS
330
2A
102
}
330
2A
100
AcDbVisualStyle
  2
ColorChange
 70
    16
177
     2
291
     1
 71
     2
176
     1
 72
     2
176
     1
 73
     3
176
     1
 90
        0
176
     1
 40
-0.6
176
     1
 41
-30.0
176
     1
 62
     5
 63
     8
421
  8421504
176
     1
 74
     1
176
     1
 91
        4
176
     1
 64
     7
176
     1
 65
   257
176
     1
 75
     1
176
     1
175
     1
176
     1
 42
1.0
176
     1
 92
        8
176
     1
 66
     8
424
  8421504
176
     1
 43
1.0
176
     1
 76
     1
176
     1
 77
     6
176
     1
 78
     2
176
     1
 67
     7
176
     1
 79
     5
176
     1
170
     0
176
     1
171
     0
176
     1
290
     0
176
     1
 93
        1
176
     1
 44
0.0
176
     1
173
     0
176
     1
  0
VISUALSTYLE
  5
34
102
{ACAD_REACTORS
330
2A
102
}
330
2A
100
AcDbVisualStyle
  2
Conceptual
 70
     9
177
     2
291
     0
 71
     3
176
     1
 72
     2
176
     1
 73
     0
176
     1
 90
        0
176
     1
 40
-0.6
176
     1
 41
-30.0
176
     1
 62
     5
 63
     7
421
 16777215
176
     1
 74
     2
176
     1
 91
        2
176
     1
 64
     7
176
     1
 65
   257
176
     1
 75
     1
176
     1
175
     1
176
     1
 42
40.0
176
     1
 92
        8
176
     1
 66
     7
176
     1
 43
1.0
176
     1
 76
     1
176
     1
 77
     6
176
     1
 78
     2
176
     1
 67
     7
176
     1
 79
     3
176
     1
170
     0
176
     1
171
     0
176
     1
290
     0
176
     1
 93
        1
176
     1
 44
0.0
176
     1
173
     0
176
     1
  0
VISUALSTYLE
  5
35
102
{ACAD_REACTORS
330
2A
102
}
330
2A
100
AcDbVisualStyle
  2
Dim
 70
    11
177
     2
291
     1
 71
     2
176
     1
 72
     2
176
     1
 73
     0
176
     1
 90
        0
176
     1
 40
-0.6
176
     1
 41
-30.0
176
     1
 62
     5
 63
     7
421
 16777215
176
     1
 74
     1
176
     1
 91
        4
176
     1
 64
     7
176
     1
 65
   257
176
     1
 75
     1
176
     1
175
     1
176
     1
 42
1.0
176
     1
 92
        8
176
     1
 66
     7
176
     1
 43
1.0
176
     1
 76
     1
176
     1
 77
     6
176
     1
 78
     2
176
     1
 67
     7
176
     1
 79
     5
176
     1
170
     0
176
     1
171
     0
176
     1
290
     0
176
     1
 93
        1
176
     1
 44
-50.0
176
     1
173
     0
176
     1
  0
VISUALSTYLE
  5
39
102
{ACAD_REACTORS
330
2A
102
}
330
2A
100
AcDbVisualStyle
  2
Facepattern
 70
    15
177
     2
291
     1
 71
     2
176
     1
 72
     2
176
     1
 73
     0
176
     1
 90
        0
176
     1
 40
-0.6
176
     1
 41
-30.0
176
     1
 62
     5
 63
     7
421
 16777215
176
     1
 74
     1
176
     1
 91
        4
176
     1
 64
     7
176
     1
 65
   257
176
     1
 75
     1
176
     1
175
     1
176
     1
 42
1.0
176
     1
 92
        8
176
     1
 66
     7
176
     1
 43
1.0
176
     1
 76
     1
176
     1
 77
     6
176
     1
 78
     2
176
     1
 67
     7
176
     1
 79
     5
176
     1
170
     0
176
     1
171
     0
176
     1
290
     0
176
     1
 93
        1
176
     1
 44
0.0
176
     1
173
     0
176
     1
  0
VISUALSTYLE
  5
2B
102
{ACAD_REACTORS
330
2A
102
}
330
2A
100
AcDbVisualStyle
  2
Flat
 70
     0
177
     2
291
     1
 71
     2
176
     1
 72
     1
176
     1
 73
     1
176
     1
 90
        2
176
     1
 40
-0.6
176
     1
 41
30.0
176
     1
 62
     5
 63
     7
421
 16777215
176
     1
 74
     0
176
     1
 91
        4
176
     1
 64
     7
176
     1
 65
   257
176
     1
 75
     1
176
     1
175
     1
176
     1
 42
1.0
176
     1
 92
        8
176
     1
 66
     7
176
     1
 43
1.0
176
     1
 76
     1
176
     1
 77
     6
176
     1
 78
     2
176
     1
 67
     7
176
     1
 79
     5
176
     1
170
     0
176
     1
171
     0
176
     1
290
     0
176
     1
 93
       13
176
     1
 44
0.0
176
     1
173
     0
176
     1
  0
VISUALSTYLE
  5
2C
102
{ACAD_REACTORS
330
2A
102
}
330
2A
100
AcDbVisualStyle
  2
FlatWithEdges
 70
     1
177
     2
291
     1
 71
     2
176
     1
 72
     1
176
     1
 73
     1
176
     1
 90
        2
176
     1
 40
-0.6
176
     1
 41
30.0
176
     1
 62
     5
 63
     7
421
 16777215
176
     1
 74
     1
176
     1
 91
        4
176
     1
 64
     7
176
     1
 65
   257
176
     1
 75
     1
176
     1
175
     1
176
     1
 42
1.0
176
     1
 92
        0
176
     1
 66
   257
176
     1
 43
1.0
176
     1
 76
     1
176
     1
 77
     6
176
     1
 78
     2
176
     1
 67
     7
176
     1
 79
     5
176
     1
170
     0
176
     1
171
     0
176
     1
290
     0
176
     1
 93
       13
176
     1
 44
0.0
176
     1
173
     0
176
     1
  0
VISUALSTYLE
  5
2D
102
{ACAD_REACTORS
330
2A
102
}
330
2A
100
AcDbVisualStyle
  2
Gouraud
 70
     2
177
     2
291
     1
 71
     2
176
     1
 72
     2
176
     1
 73
     1
176
     1
 90
        2
176
     1
 40
-0.6
176
     1
 41
30.0
176
     1
 62
     5
 63
     7
421
 16777215
176
     1
 74
     0
176
     1
 91
        4
176
     1
 64
     7
176
     1
 65
   257
176
     1
 75
     1
176
     1
175
     1
176
     1
 42
1.0
176
     1
 92
        0
176
     1
 66
     7
176
     1
 43
1.0
176
     1
 76
     1
176
     1
 77
     6
176
     1
 78
     2
176
     1
 67
     7
176
     1
 79
     5
176
     1
170
     0
176
     1
171
     0
176
     1
290
     0
176
     1
 93
       13
176
     1
 44
0.0
176
     1
173
     0
176
     1
  0
VISUALSTYLE
  5
2E
102
{ACAD_REACTORS
330
2A
102
}
330
2A
100
AcDbVisualStyle
  2
GouraudWithEdges
 70
     3
177
     2
291
     1
 71
     2
176
     1
 72
     2
176
     1
 73
     1
176
     1
 90
        2
176
     1
 40
-0.6
176
     1
 41
30.0
176
     1
 62
     5
 63
     7
421
 16777215
176
     1
 74
     1
176
     1
 91
        4
176
     1
 64
     7
176
     1
 65
   257
176
     1
 75
     1
176
     1
175
     1
176
     1
 42
1.0
176
     1
 92
        0
176
     1
 66
   257
176
     1
 43
1.0
176
     1
 76
     1
176
     1
 77
     6
176
     1
 78
     2
176
     1
 67
     7
176
     1
 79
     5
176
     1
170
     0
176
     1
171
     0
176
     1
290
     0
176
     1
 93
       13
176
     1
 44
0.0
176
     1
173
     0
176
     1
  0
VISUALSTYLE
  5
38
102
{ACAD_REACTORS
330
2A
102
}
330
2A
100
AcDbVisualStyle
  2
Linepattern
 70
    14
177
     2
291
     1
 71
     2
176
     1
 72
     2
176
     1
 73
     0
176
     1
 90
        0
176
     1
 40
-0.6
176
     1
 41
-30.0
176
     1
 62
     5
 63
     7
421
 16777215
176
     1
 74
     1
176
     1
 91
        4
176
     1
 64
     7
176
     1
 65
   257
176
     1
 75
     7
176
     1
175
     7
176
     1
 42
1.0
176
     1
 92
        8
176
     1
 66
     7
176
     1
 43
1.0
176
     1
 76
     1
176
     1
 77
     6
176
     1
 78
     2
176
     1
 67
     7
176
     1
 79
     5
176
     1
170
     0
176
     1
171
     0
176
     1
290
     0
176
     1
 93
        1
176
     1
 44
0.0
176
     1
173
     0
176
     1
  0
VISUALSTYLE
  5
33
102
{ACAD_REACTORS
330
2A
102
}
330
2A
100
AcDbVisualStyle
  2
Realistic
 70
     8
177
     2
291
     0
 71
     2
176
     1
 72
     2
176
     1
 73
     0
176
     1
 90
        0
176
     1
 40
-0.6
176
     1
 41
-30.0
176
     1
 62
     5
 63
     7
421
 16777215
176
     1
 74
     1
176
     1
 91
        0
176
     1
 64
     7
176
     1
 65
   257
176
     1
 75
     1
176
     1
175
     1
176
     1
 42
1.0
176
     1
 92
        8
176
     1
 66
     8
424
  7895160
176
     1
 43
1.0
176
     1
 76
     1
176
     1
 77
     6
176
     1
 78
     2
176
     1
 67
     7
176
     1
 79
     5
176
     1
170
     0
176
     1
171
     0
176
     1
290
     0
176
     1
 93
       13
176
     1
 44
0.0
176
     1
173
     0
176
     1
  0
VISUALSTYLE
  5
37
102
{ACAD_REACTORS
330
2A
102
}
330
2A
100
AcDbVisualStyle
  2
Thicken
 70
    13
177
     2
291
     1
 71
     2
176
     1
 72
     2
176
     1
 73
     0
176
     1
 90
        0
176
     1
 40
-0.6
176
     1
 41
-30.0
176
     1
 62
     5
 63
     7
421
 16777215
176
     1
 74
     1
176
     1
 91
        4
176
     1
 64
     7
176
     1
 65
   257
176
     1
 75
     1
176
     1
175
     1
176
     1
 42
1.0
176
     1
 92
       12
176
     1
 66
     7
176
     1
 43
1.0
176
     1
 76
     1
176
     1
 77
     6
176
     1
 78
     2
176
     1
 67
     7
176
     1
 79
     5
176
     1
170
     0
176
     1
171
     0
176
     1
290
     0
176
     1
 93
        1
176
     1
 44
0.0
176
     1
173
     0
176
     1
  0
ENDSEC
  0
EOF
