  0
SECTION
  2
HEADER
  9
$ACADVER
  1
AC1024
  9
$ACADMAINTVER
 70
     6
  9
$DWGCODEPAGE
  3
UNDEFINED
  9
$INSBASE
 10
0.0
 20
0.0
 30
0.0
  9
$EXTMIN
 10
1.000000000000000E+20
 20
1.000000000000000E+20
 30
1.000000000000000E+20
  9
$EXTMAX
 10
-1.000000000000000E+20
 20
-1.000000000000000E+20
 30
-1.000000000000000E+20
  9
$LIMMIN
 10
0.0
 20
0.0
  9
$LIMMAX
 10
12.0
 20
9.0
  9
$ORTHOMODE
 70
     0
  9
$REGENMODE
 70
     1
  9
$FILLMODE
 70
     1
  9
$QTEXTMODE
 70
     0
  9
$MIRRTEXT
 70
     1
  9
$LTSCALE
 40
1.0
  9
$ATTMODE
 70
     1
  9
$TEXTSIZE
 40
0.2
  9
$TRACEWID
 40
0.05
  9
$TEXTSTYLE
  7
Standard
  9
$CLAYER
  8
0
  9
$CELTYPE
  6
ByLayer
  9
$CECOLOR
 62
   256
  9
$CELTSCALE
 40
1.0
  9
$DISPSILH
 70
     0
  9
$DIMSCALE
 40
1.0
  9
$DIMASZ
 40
0.18
  9
$DIMEXO
 40
0.0625
  9
$DIMDLI
 40
0.38
  9
$DIMRND
 40
0.0
  9
$DIMDLE
 40
0.0
  9
$DIMEXE
 40
0.18
  9
$DIMTP
 40
0.0
  9
$DIMTM
 40
0.0
  9
$DIMTXT
 40
0.18
  9
$DIMCEN
 40
0.09
  9
$DIMTSZ
 40
0.0
  9
$DIMTOL
 70
     0
  9
$DIMLIM
 70
     0
  9
$DIMTIH
 70
     1
  9
$DIMTOH
 70
     1
  9
$DIMSE1
 70
     0
  9
$DIMSE2
 70
     0
  9
$DIMTAD
 70
     0
  9
$DIMZIN
 70
     0
  9
$DIMBLK
  1

  9
$DIMASO
 70
     1
  9
$DIMSHO
 70
     1
  9
$DIMPOST
  1

  9
$DIMAPOST
  1

  9
$DIMALT
 70
     0
  9
$DIMALTD
 70
     2
  9
$DIMALTF
 40
25.4
  9
$DIMLFAC
 40
1.0
  9
$DIMTOFL
 70
     0
  9
$DIMTVP
 40
0.0
  9
$DIMTIX
 70
     0
  9
$DIMSOXD
 70
     0
  9
$DIMSAH
 70
     0
  9
$DIMBLK1
  1

  9
$DIMBLK2
  1

  9
$DIMSTYLE
  2
Standard
  9
$DIMCLRD
 70
     0
  9
$DIMCLRE
 70
     0
  9
$DIMCLRT
 70
     0
  9
$DIMTFAC
 40
1.0
  9
$DIMGAP
 40
0.09
  9
$DIMJUST
 70
     0
  9
$DIMSD1
 70
     0
  9
$DIMSD2
 70
     0
  9
$DIMTOLJ
 70
     1
  9
$DIMTZIN
 70
     0
  9
$DIMALTZ
 70
     0
  9
$DIMALTTZ
 70
     0
  9
$DIMUPT
 70
     0
  9
$DIMDEC
 70
     4
  9
$DIMTDEC
 70
     4
  9
$DIMALTU
 70
     2
  9
$DIMALTTD
 70
     2
  9
$DIMTXSTY
  7
Standard
  9
$DIMAUNIT
 70
     0
  9
$DIMADEC
 70
     0
  9
$DIMALTRND
 40
0.0
  9
$DIMAZIN
 70
     0
  9
$DIMDSEP
 70
    46
  9
$DIMATFIT
 70
     3
  9
$DIMFRAC
 70
     0
  9
$DIMLDRBLK
  1

  9
$DIMLUNIT
 70
     2
  9
$DIMLWD
 70
    -2
  9
$DIMLWE
 70
    -2
  9
$DIMTMOVE
 70
     0
  9
$DIMFXL
 40
1.0
  9
$DIMFXLON
 70
     0
  9
$DIMJOGANG
 40
0.7853981633974483
  9
$DIMTFILL
 70
     0
  9
$DIMTFILLCLR
 70
     0
  9
$DIMARCSYM
 70
     0
  9
$DIMLTYPE
  6

  9
$DIMLTEX1
  6

  9
$DIMLTEX2
  6

  9
$DIMTXTDIRECTION
 70
     0
  9
$LUNITS
 70
     2
  9
$LUPREC
 70
     4
  9
$SKETCHINC
 40
0.1
  9
$FILLETRAD
 40
0.5
  9
$AUNITS
 70
     0
  9
$AUPREC
 70
     0
  9
$MENU
  1
.
  9
$ELEVATION
 40
0.0
  9
$PELEVATION
 40
0.0
  9
$THICKNESS
 40
0.0
  9
$LIMCHECK
 70
     0
  9
$CHAMFERA
 40
0.5
  9
$CHAMFERB
 40
0.5
  9
$CHAMFERC
 40
1.0
  9
$CHAMFERD
 40
0.0
  9
$SKPOLY
 70
     0
  9
$TDCREATE
 40
2458270.587962963
  9
$TDUCREATE
 40
2458270.212962963
  9
$TDUPDATE
 40
2458270.587962963
  9
$TDUUPDATE
 40
2458270.212962963
  9
$TDINDWG
 40
0.0000000116
  9
$TDUSRTIMER
 40
0.0000000116
  9
$USRTIMER
 70
     1
  9
$ANGBASE
 50
0.0
  9
$ANGDIR
 70
     0
  9
$PDMODE
 70
     0
  9
$PDSIZE
 40
0.0
  9
$PLINEWID
 40
0.0
  9
$SPLFRAME
 70
     0
  9
$SPLINETYPE
 70
     6
  9
$SPLINESEGS
 70
     8
  9
$HANDSEED
  5
1CD
  9
$SURFTAB1
 70
     6
  9
$SURFTAB2
 70
     6
  9
$SURFTYPE
 70
     6
  9
$SURFU
 70
     6
  9
$SURFV
 70
     6
  9
$UCSBASE
  2

  9
$UCSNAME
  2

  9
$UCSORG
 10
0.0
 20
0.0
 30
0.0
  9
$UCSXDIR
 10
1.0
 20
0.0
 30
0.0
  9
$UCSYDIR
 10
0.0
 20
1.0
 30
0.0
  9
$UCSORTHOREF
  2

  9
$UCSORTHOVIEW
 70
     0
  9
$UCSORGTOP
 10
0.0
 20
0.0
 30
0.0
  9
$UCSORGBOTTOM
 10
0.0
 20
0.0
 30
0.0
  9
$UCSORGLEFT
 10
0.0
 20
0.0
 30
0.0
  9
$UCSORGRIGHT
 10
0.0
 20
0.0
 30
0.0
  9
$UCSORGFRONT
 10
0.0
 20
0.0
 30
0.0
  9
$UCSORGBACK
 10
0.0
 20
0.0
 30
0.0
  9
$PUCSBASE
  2

  9
$PUCSNAME
  2

  9
$PUCSORG
 10
0.0
 20
0.0
 30
0.0
  9
$PUCSXDIR
 10
1.0
 20
0.0
 30
0.0
  9
$PUCSYDIR
 10
0.0
 20
1.0
 30
0.0
  9
$PUCSORTHOREF
  2

  9
$PUCSORTHOVIEW
 70
     0
  9
$PUCSORGTOP
 10
0.0
 20
0.0
 30
0.0
  9
$PUCSORGBOTTOM
 10
0.0
 20
0.0
 30
0.0
  9
$PUCSORGLEFT
 10
0.0
 20
0.0
 30
0.0
  9
$PUCSORGRIGHT
 10
0.0
 20
0.0
 30
0.0
  9
$PUCSORGFRONT
 10
0.0
 20
0.0
 30
0.0
  9
$PUCSORGBACK
 10
0.0
 20
0.0
 30
0.0
  9
$USERI1
 70
     0
  9
$USERI2
 70
     0
  9
$USERI3
 70
     0
  9
$USERI4
 70
     0
  9
$USERI5
 70
     0
  9
$USERR1
 40
0.0
  9
$USERR2
 40
0.0
  9
$USERR3
 40
0.0
  9
$USERR4
 40
0.0
  9
$USERR5
 40
0.0
  9
$WORLDVIEW
 70
     1
  9
$SHADEDGE
 70
     3
  9
$SHADEDIF
 70
    70
  9
$TILEMODE
 70
     1
  9
$MAXACTVP
 70
    64
  9
$PINSBASE
 10
0.0
 20
0.0
 30
0.0
  9
$PLIMCHECK
 70
     0
  9
$PEXTMIN
 10
1.000000000000000E+20
 20
1.000000000000000E+20
 30
1.000000000000000E+20
  9
$PEXTMAX
 10
-1.000000000000000E+20
 20
-1.000000000000000E+20
 30
-1.000000000000000E+20
  9
$PLIMMIN
 10
0.0
 20
0.0
  9
$PLIMMAX
 10
12.0
 20
9.0
  9
$UNITMODE
 70
     0
  9
$VISRETAIN
 70
     1
  9
$PLINEGEN
 70
     0
  9
$PSLTSCALE
 70
     1
  9
$TREEDEPTH
 70
  3020
  9
$CMLSTYLE
  2
Standard
  9
$CMLJUST
 70
     0
  9
$CMLSCALE
 40
1.0
  9
$PROXYGRAPHICS
 70
     1
  9
$MEASUREMENT
 70
     0
  9
$CELWEIGHT
370
    -1
  9
$ENDCAPS
280
     0
  9
$JOINSTYLE
280
     0
  9
$LWDISPLAY
290
     1
  9
$INSUNITS
 70
     1
  9
$HYPERLINKBASE
  1

  9
$STYLESHEET
  1

  9
$XEDIT
290
     1
  9
$CEPSNTYPE
380
     0
  9
$PSTYLEMODE
290
     1
  9
$FINGERPRINTGUID
  2
{7296D9FC-93F4-D886-0FB3-EC0F1663665F}
  9
$VERSIONGUID
  2
{FAEB1C32-E019-11D5-929B-00C0DF256EC4}
  9
$EXTNAMES
290
     1
  9
$PSVPSCALE
 40
0.0
  9
$OLESTARTUP
290
     0
  9
$SORTENTS
280
   127
  9
$INDEXCTL
280
     0
  9
$HIDETEXT
280
     1
  9
$XCLIPFRAME
280
     2
  9
$HALOGAP
280
     0
  9
$OBSCOLOR
 70
   257
  9
$OBSLTYPE
280
     0
  9
$INTERSECTIONDISPLAY
280
     0
  9
$INTERSECTIONCOLOR
 70
   257
  9
$DIMASSOC
280
     2
  9
$PROJECTNAME
  1

  9
$CAMERADISPLAY
290
     0
  9
$LENSLENGTH
 40
50.0
  9
$CAMERAHEIGHT
 40
0.0
  9
$STEPSPERSEC
 40
2.0
  9
$STEPSIZE
 40
6.0
  9
$3DDWFPREC
 40
2.0
  9
$PSOLWIDTH
 40
0.25
  9
$PSOLHEIGHT
 40
4.0
  9
$LOFTANG1
 40
1.570796326794897
  9
$LOFTANG2
 40
1.570796326794897
  9
$LOFTMAG1
 40
0.0
  9
$LOFTMAG2
 40
0.0
  9
$LOFTPARAM
 70
     7
  9
$LOFTNORMALS
280
     1
  9
$LATITUDE
 40
37.795
  9
$LONGITUDE
 40
-122.394
  9
$NORTHDIRECTION
 40
0.0
  9
$TIMEZONE
 70
 -8000
  9
$LIGHTGLYPHDISPLAY
280
     1
  9
$TILEMODELIGHTSYNCH
280
     1
  9
$CMATERIAL
347
3C
  9
$SOLIDHIST
280
     1
  9
$SHOWHIST
280
     1
  9
$DWFFRAME
280
     2
  9
$DGNFRAME
280
     2
  9
$REALWORLDSCALE
290
     1
  9
$INTERFERECOLOR
 62
   256
  9
$CSHADOW
280
     0
  9
$SHADOWPLANELOCATION
 40
0.0
  0
ENDSEC
  0
SECTION
  2
CLASSES
  0
CLASS
  1
ACDBDICTIONARYWDFLT
  2
AcDbDictionaryWithDefault
  3
ObjectDBX Classes
 90
        0
 91
        4
280
     0
281
     0
  0
CLASS
  1
VISUALSTYLE
  2
AcDbVisualStyle
  3
ObjectDBX Classes
 90
     4095
 91
        4
280
     0
281
     0
  0
CLASS
  1
MATERIAL
  2
AcDbMaterial
  3
ObjectDBX Classes
 90
     1153
 91
        4
280
     0
281
     0
  0
CLASS
  1
SUN
  2
AcDbSun
  3
SCENEOE
 90
     1024
 91
        4
280
     0
281
     0
  0
ENDSEC
  0
SECTION
  2
TABLES
  0
TABLE
  2
VPORT
  5
8
330
0
100
AcDbSymbolTable
 70
     1
  0
VPORT
  5
29
330
8
100
AcDbSymbolTableRecord
100
AcDbViewportTableRecord
  2
*Active
 70
     0
 10
0.0
 20
0.0
 11
1.0
 21
1.0
 12
0.0
 22
0.0
 13
0.0
 23
0.0
 14
0.5
 24
0.5
 15
0.5
 25
0.5
 16
0.0
 26
0.0
 36
1.0
 17
105.0007777515277
 27
-148.5000416295416
 37
0.0
 40
297.0000832590831
 41
0.7070757462376333
 42
50.0
 43
0.0
 44
0.0
 50
0.0
 51
0.0
 71
     0
 72
   100
 73
     1
 74
     3
 75
     0
 76
     0
 77
     0
 78
     0
281
     0
 65
     1
110
0.0
120
0.0
130
0.0
111
1.0
121
0.0
131
0.0
112
0.0
122
1.0
132
0.0
 79
     0
146
0.0
 60
     3
 61
     5
292
     1
282
     1
141
0.0
142
0.0
 63
   250
361
3F
  0
ENDTAB
  0
TABLE
  2
LTYPE
  5
5
330
0
100
AcDbSymbolTable
 70
     3
  0
LTYPE
  5
14
330
5
100
AcDbSymbolTableRecord
100
AcDbLinetypeTableRecord
  2
ByBlock
 70
     0
  3

 72
    65
 73
     0
 40
0.0
  0
LTYPE
  5
15
330
5
100
AcDbSymbolTableRecord
100
AcDbLinetypeTableRecord
  2
ByLayer
 70
     0
  3

 72
    65
 73
     0
 40
0.0
  0
LTYPE
  5
16
330
5
100
AcDbSymbolTableRecord
100
AcDbLinetypeTableRecord
  2
Continuous
 70
     0
  3
Solid line
 72
    65
 73
     0
 40
0.0
  0
LTYPE
  5
194
330
5
100
AcDbSymbolTableRecord
100
AcDbLinetypeTableRecord
  2
AI-Linetype-1
 70
     0
  3
Adobe Illustrator Linetype No. 1
 72
    65
 73
     2
 40
1.411111110758333
 49
0.7055555553791667
 74
     0
 49
-0.7055555553791667
 74
     0
  0
LTYPE
  5
1C5
330
5
100
AcDbSymbolTableRecord
100
AcDbLinetypeTableRecord
  2
AI-Linetype-2
 70
     0
  3
Adobe Illustrator Linetype No. 2
 72
    65
 73
     2
 40
1.411111110758333
 49
0.7055555553791667
 74
     0
 49
-0.7055555553791667
 74
     0
  0
ENDTAB
  0
TABLE
  2
LAYER
  5
2
330
0
100
AcDbSymbolTable
 70
     2
  0
LAYER
  5
10
330
2
100
AcDbSymbolTableRecord
100
AcDbLayerTableRecord
  2
0
 70
     0
 62
     7
  6
Continuous
370
    -3
390
F
347
3E
  0
LAYER
  5
40
330
2
100
AcDbSymbolTableRecord
100
AcDbLayerTableRecord
  2
_U+30EC_U+30A4_U+30E4_U+30FC 1
 70
     0
 62
     7
  6
Continuous
370
    -3
390
F
347
3E
  0
ENDTAB
  0
TABLE
  2
STYLE
  5
3
330
0
100
AcDbSymbolTable
 70
     1
  0
STYLE
  5
11
330
3
100
AcDbSymbolTableRecord
100
AcDbTextStyleTableRecord
  2
Standard
 70
     0
 40
0.0
 41
1.0
 50
0.0
 71
     0
 42
0.2
  3
txt
  4

  0
ENDTAB
  0
TABLE
  2
VIEW
  5
6
330
0
100
AcDbSymbolTable
 70
     0
  0
ENDTAB
  0
TABLE
  2
UCS
  5
7
330
0
100
AcDbSymbolTable
 70
     0
  0
ENDTAB
  0
TABLE
  2
APPID
  5
9
330
0
100
AcDbSymbolTable
 70
     1
  0
APPID
  5
12
330
9
100
AcDbSymbolTableRecord
100
AcDbRegAppTableRecord
  2
ACAD
 70
     0
  0
ENDTAB
  0
TABLE
  2
DIMSTYLE
  5
A
330
0
100
AcDbSymbolTable
 70
     1
100
AcDbDimStyleTable
  0
DIMSTYLE
105
27
330
A
100
AcDbSymbolTableRecord
100
AcDbDimStyleTableRecord
  2
Standard
 70
     0
178
     0
340
11
  0
ENDTAB
  0
TABLE
  2
BLOCK_RECORD
  5
1
330
0
100
AcDbSymbolTable
 70
     7
  0
BLOCK_RECORD
  5
1F
330
1
100
AcDbSymbolTableRecord
100
AcDbBlockTableRecord
  2
*Model_Space
340
22
 70
     0
280
     1
281
     0
  0
BLOCK_RECORD
  5
1B
330
1
100
AcDbSymbolTableRecord
100
AcDbBlockTableRecord
  2
*Paper_Space
340
1E
 70
     0
280
     1
281
     0
  0
BLOCK_RECORD
  5
23
330
1
100
AcDbSymbolTableRecord
100
AcDbBlockTableRecord
  2
*Paper_Space0
340
26
 70
     0
280
     1
281
     0
  0
BLOCK_RECORD
  5
4F
330
1
100
AcDbSymbolTableRecord
100
AcDbBlockTableRecord
  2
block 2
340
0
102
{BLKREFS
331
50
102
}
 70
     0
280
     1
281
     0
  0
BLOCK_RECORD
  5
E2
330
1
100
AcDbSymbolTableRecord
100
AcDbBlockTableRecord
  2
block 3
340
0
102
{BLKREFS
331
E3
102
}
 70
     0
280
     1
281
     0
  0
BLOCK_RECORD
  5
F9
330
1
100
AcDbSymbolTableRecord
100
AcDbBlockTableRecord
  2
block 4
340
0
102
{BLKREFS
331
FA
102
}
 70
     0
280
     1
281
     0
  0
BLOCK_RECORD
  5
10C
330
1
100
AcDbSymbolTableRecord
100
AcDbBlockTableRecord
  2
block 5
340
0
102
{BLKREFS
331
10D
102
}
 70
     0
280
     1
281
     0
  0
BLOCK_RECORD
  5
131
330
1
100
AcDbSymbolTableRecord
100
AcDbBlockTableRecord
  2
block 6
340
0
102
{BLKREFS
331
132
102
}
 70
     0
280
     1
281
     0
  0
BLOCK_RECORD
  5
19A
330
1
100
AcDbSymbolTableRecord
100
AcDbBlockTableRecord
  2
block 7
340
0
102
{BLKREFS
331
19B
102
}
 70
     0
280
     1
281
     0
  0
ENDTAB
  0
ENDSEC
  0
SECTION
  2
BLOCKS
  0
BLOCK
  5
20
330
1F
100
AcDbEntity
  8
0
100
AcDbBlockBegin
  2
*Model_Space
 70
     0
 10
0.0
 20
0.0
 30
0.0
  3
*Model_Space
  1

  0
ENDBLK
  5
21
330
1F
100
AcDbEntity
  8
0
100
AcDbBlockEnd
  0
BLOCK
  5
1C
330
1B
100
AcDbEntity
 67
     1
  8
0
100
AcDbBlockBegin
  2
*Paper_Space
 70
     0
 10
0.0
 20
0.0
 30
0.0
  3
*Paper_Space
  1

  0
ENDBLK
  5
1D
330
1B
100
AcDbEntity
 67
     1
  8
0
100
AcDbBlockEnd
  0
BLOCK
  5
24
330
23
100
AcDbEntity
  8
0
100
AcDbBlockBegin
  2
*Paper_Space0
 70
     0
 10
0.0
 20
0.0
 30
0.0
  3
*Paper_Space0
  1

  0
ENDBLK
  5
25
330
23
100
AcDbEntity
  8
0
100
AcDbBlockEnd
  0
BLOCK
  5
51
330
4F
100
AcDbEntity
  8
0
100
AcDbBlockBegin
  2
block 2
 70
     0
 10
0.0
 20
0.0
 30
0.0
  3
block 2
  1

  0
SPLINE
  5
53
330
4F
100
AcDbEntity
  8
_U+30EC_U+30A4_U+30E4_U+30FC 1
370
     0
100
AcDbSpline
210
0.0
220
0.0
230
1.0
 70
    11
 71
     3
 72
    32
 73
    28
 74
     0
 42
0.0000000001
 43
0.0000000001
 12
1.0
 22
0.0
 32
0.0
 13
1.0
 23
0.0
 33
0.0
 40
0.0
 40
0.0
 40
0.0
 40
0.0
 40
1.0
 40
1.0
 40
1.0
 40
2.0
 40
2.0
 40
2.0
 40
3.0
 40
3.0
 40
3.0
 40
4.0
 40
4.0
 40
4.0
 40
5.0
 40
5.0
 40
5.0
 40
6.0
 40
6.0
 40
6.0
 40
7.0
 40
7.0
 40
7.0
 40
8.0
 40
8.0
 40
8.0
 40
9.0
 40
9.0
 40
9.0
 40
9.0
 10
93.04686141337024
 20
-164.0778401282514
 30
0.0
 10
92.53061385490554
 20
-164.0778401282514
 30
0.0
 10
92.52217337096668
 20
-163.5235242646747
 30
0.0
 10
92.52217337096668
 20
-163.3099283445892
 30
0.0
 10
92.52217337096668
 20
-163.0791069470775
 30
0.0
 10
92.54129365090982
 20
-162.431773505399
 30
0.0
 10
93.08492971848224
 20
-162.431773505399
 30
0.0
 10
93.25839027616458
 20
-162.431773505399
 30
0.0
 10
93.50368107471436
 20
-162.5017089437496
 30
0.0
 10
93.54192163460064
 20
-162.8338161485277
 30
0.0
 10
93.54192163460064
 20
-162.8338161485277
 30
0.0
 10
93.32815345974089
 20
-162.8338161485277
 30
0.0
 10
93.32815345974089
 20
-162.8338161485277
 30
0.0
 10
93.31764591851088
 20
-162.7766275634725
 30
0.0
 10
93.28595104004657
 20
-162.6284884576068
 30
0.0
 10
93.0828626611911
 20
-162.6284884576068
 30
0.0
 10
92.79089081881617
 20
-162.6284884576068
 30
0.0
 10
92.75058320163875
 20
-162.9564615478025
 30
0.0
 10
92.73800860311759
 20
-163.1617892387235
 30
0.0
 10
92.83102618121933
 20
-163.0835855712083
 30
0.0
 10
92.89872230750449
 20
-163.024329928862
 30
0.0
 10
93.08062334912569
 20
-163.024329928862
 30
0.0
 10
93.26045733345572
 20
-163.024329928862
 30
0.0
 10
93.56293671706067
 20
-163.1321614175503
 30
0.0
 10
93.56293671706067
 20
-163.5383381752613
 30
0.0
 10
93.56293671706067
 20
-163.8576985267439
 30
0.0
 10
93.36415470756174
 20
-164.0778401282514
 30
0.0
 10
93.04686141337024
 20
-164.0778401282514
 30
0.0
  0
SPLINE
  5
54
330
4F
100
AcDbEntity
  8
_U+30EC_U+30A4_U+30E4_U+30FC 1
370
     0
100
AcDbSpline
210
0.0
220
0.0
230
1.0
 70
    11
 71
     3
 72
    17
 73
    13
 74
     0
 42
0.0000000001
 43
0.0000000001
 12
1.0
 22
0.0
 32
0.0
 13
1.0
 23
0.0
 33
0.0
 40
0.0
 40
0.0
 40
0.0
 40
0.0
 40
1.0
 40
1.0
 40
1.0
 40
2.0
 40
2.0
 40
2.0
 40
3.0
 40
3.0
 40
3.0
 40
4.0
 40
4.0
 40
4.0
 40
4.0
 10
93.06374238124796
 20
-163.2189778237786
 30
0.0
 10
92.80139836004618
 20
-163.2189778237786
 30
0.0
 10
92.76333005493417
 20
-163.4305066865729
 30
0.0
 10
92.76333005493417
 20
-163.5466064044259
 30
0.0
 10
92.76333005493417
 20
-163.7223062741736
 30
0.0
 10
92.85858694510134
 20
-163.8852592906259
 30
0.0
 10
93.04255504401367
 20
-163.8852592906259
 30
0.0
 10
93.16313338599741
 20
-163.8852592906259
 30
0.0
 10
93.33883325574516
 20
-163.8260036482796
 30
0.0
 10
93.33883325574516
 20
-163.5404052325524
 30
0.0
 10
93.33883325574516
 20
-163.3161295164626
 30
0.0
 10
93.19913463381828
 20
-163.2189778237786
 30
0.0
 10
93.06374238124796
 20
-163.2189778237786
 30
0.0
  0
HATCH
  5
55
330
4F
100
AcDbEntity
  8
_U+30EC_U+30A4_U+30E4_U+30FC 1
 62
   179
420
  2234388
100
AcDbHatch
 10
0.0
 20
0.0
 30
0.0
210
0.0
220
0.0
230
1.0
  2
SOLID
 70
     1
 71
     0
 91
        2
 92
        1
 93
        1
 72
     4
 94
        3
 73
     0
 74
     1
 95
       32
 96
       28
 40
0.0
 40
0.0
 40
0.0
 40
0.0
 40
1.0
 40
1.0
 40
1.0
 40
2.0
 40
2.0
 40
2.0
 40
3.0
 40
3.0
 40
3.0
 40
4.0
 40
4.0
 40
4.0
 40
5.0
 40
5.0
 40
5.0
 40
6.0
 40
6.0
 40
6.0
 40
7.0
 40
7.0
 40
7.0
 40
8.0
 40
8.0
 40
8.0
 40
9.0
 40
9.0
 40
9.0
 40
9.0
 10
93.04686141337024
 20
-164.0778401282514
 10
92.53061385490554
 20
-164.0778401282514
 10
92.52217337096668
 20
-163.5235242646747
 10
92.52217337096668
 20
-163.3099283445892
 10
92.52217337096668
 20
-163.0791069470775
 10
92.54129365090982
 20
-162.431773505399
 10
93.08492971848224
 20
-162.431773505399
 10
93.25839027616458
 20
-162.431773505399
 10
93.50368107471436
 20
-162.5017089437496
 10
93.54192163460064
 20
-162.8338161485277
 10
93.54192163460064
 20
-162.8338161485277
 10
93.32815345974089
 20
-162.8338161485277
 10
93.32815345974089
 20
-162.8338161485277
 10
93.31764591851088
 20
-162.7766275634725
 10
93.28595104004657
 20
-162.6284884576068
 10
93.0828626611911
 20
-162.6284884576068
 10
92.79089081881617
 20
-162.6284884576068
 10
92.75058320163875
 20
-162.9564615478025
 10
92.73800860311759
 20
-163.1617892387235
 10
92.83102618121933
 20
-163.0835855712083
 10
92.89872230750449
 20
-163.024329928862
 10
93.08062334912569
 20
-163.024329928862
 10
93.26045733345572
 20
-163.024329928862
 10
93.56293671706067
 20
-163.1321614175503
 10
93.56293671706067
 20
-163.5383381752613
 10
93.56293671706067
 20
-163.8576985267439
 10
93.36415470756174
 20
-164.0778401282514
 10
93.04686141337024
 20
-164.0778401282514
 97
        0
 97
        0
 92
        1
 93
        1
 72
     4
 94
        3
 73
     0
 74
     1
 95
       17
 96
       13
 40
0.0
 40
0.0
 40
0.0
 40
0.0
 40
1.0
 40
1.0
 40
1.0
 40
2.0
 40
2.0
 40
2.0
 40
3.0
 40
3.0
 40
3.0
 40
4.0
 40
4.0
 40
4.0
 40
4.0
 10
93.06374238124796
 20
-163.2189778237786
 10
92.80139836004618
 20
-163.2189778237786
 10
92.76333005493417
 20
-163.4305066865729
 10
92.76333005493417
 20
-163.5466064044259
 10
92.76333005493417
 20
-163.7223062741736
 10
92.85858694510134
 20
-163.8852592906259
 10
93.04255504401367
 20
-163.8852592906259
 10
93.16313338599741
 20
-163.8852592906259
 10
93.33883325574516
 20
-163.8260036482796
 10
93.33883325574516
 20
-163.5404052325524
 10
93.33883325574516
 20
-163.3161295164626
 10
93.19913463381828
 20
-163.2189778237786
 10
93.06374238124796
 20
-163.2189778237786
 97
        0
 97
        0
 75
     2
 76
     1
 98
        0
  0
ENDBLK
  5
52
330
4F
100
AcDbEntity
  8
0
100
AcDbBlockEnd
  0
BLOCK
  5
E4
330
E2
100
AcDbEntity
  8
0
100
AcDbBlockBegin
  2
block 3
 70
     0
 10
0.0
 20
0.0
 30
0.0
  3
block 3
  1

  0
SPLINE
  5
E6
330
E2
100
AcDbEntity
  8
_U+30EC_U+30A4_U+30E4_U+30FC 1
370
     0
100
AcDbSpline
210
0.0
220
0.0
230
1.0
 70
    11
 71
     3
 72
    44
 73
    40
 74
     0
 42
0.0000000001
 43
0.0000000001
 12
1.0
 22
0.0
 32
0.0
 13
1.0
 23
0.0
 33
0.0
 40
0.0
 40
0.0
 40
0.0
 40
0.0
 40
1.0
 40
1.0
 40
1.0
 40
2.0
 40
2.0
 40
2.0
 40
3.0
 40
3.0
 40
3.0
 40
4.0
 40
4.0
 40
4.0
 40
5.0
 40
5.0
 40
5.0
 40
6.0
 40
6.0
 40
6.0
 40
7.0
 40
7.0
 40
7.0
 40
8.0
 40
8.0
 40
8.0
 40
9.0
 40
9.0
 40
9.0
 40
10.0
 40
10.0
 40
10.0
 40
11.0
 40
11.0
 40
11.0
 40
12.0
 40
12.0
 40
12.0
 40
13.0
 40
13.0
 40
13.0
 40
13.0
 10
109.7504068736041
 20
-133.2886772670251
 30
0.0
 10
109.5323323293878
 20
-133.4473239141208
 30
0.0
 10
109.4389702417375
 20
-133.5213934670537
 30
0.0
 10
109.390738904944
 20
-133.6652262035629
 30
0.0
 10
109.390738904944
 20
-133.6652262035629
 30
0.0
 10
110.1689859750619
 20
-133.6652262035629
 30
0.0
 10
110.1689859750619
 20
-133.6652262035629
 30
0.0
 10
110.1689859750619
 20
-133.6652262035629
 30
0.0
 10
110.1689859750619
 20
-133.8703816397095
 30
0.0
 10
110.1689859750619
 20
-133.8703816397095
 30
0.0
 10
110.1689859750619
 20
-133.8703816397095
 30
0.0
 10
109.1409694822634
 20
-133.8703816397095
 30
0.0
 10
109.1409694822634
 20
-133.8703816397095
 30
0.0
 10
109.1726643607277
 20
-133.5127807283406
 30
0.0
 10
109.2381211749474
 20
-133.4345770608254
 30
0.0
 10
109.6232828501984
 20
-133.1362317918027
 30
0.0
 10
109.8792534447524
 20
-132.9374497823038
 30
0.0
 10
109.9447102589722
 20
-132.8697536560187
 30
0.0
 10
109.9447102589722
 20
-132.7322943461572
 30
0.0
 10
109.9447102589722
 20
-132.6137830614646
 30
0.0
 10
109.873052272879
 20
-132.4826971782509
 30
0.0
 10
109.6759928111227
 20
-132.4826971782509
 30
0.0
 10
109.4158881019863
 20
-132.4826971782509
 30
0.0
 10
109.4072753632732
 20
-132.7131740662141
 30
0.0
 10
109.4031412486909
 20
-132.8296182936155
 30
0.0
 10
109.4031412486909
 20
-132.8296182936155
 30
0.0
 10
109.1792100421496
 20
-132.8296182936155
 30
0.0
 10
109.1792100421496
 20
-132.8296182936155
 30
0.0
 10
109.1874782713142
 20
-132.7026665249841
 30
0.0
 10
109.19781355777
 20
-132.5905286669392
 30
0.0
 10
109.2784287921248
 20
-132.4720173822466
 30
0.0
 10
109.3883273381043
 20
-132.3113036778597
 30
0.0
 10
109.5747070038563
 20
-132.27736948733
 30
0.0
 10
109.6911512312578
 20
-132.27736948733
 30
0.0
 10
109.9681369082719
 20
-132.27736948733
 30
0.0
 10
110.1755316564839
 20
-132.4615098410166
 30
0.0
 10
110.1755316564839
 20
-132.7343614034484
 30
0.0
 10
110.1755316564839
 20
-132.9627712341204
 30
0.0
 10
110.0590874290825
 20
-133.0623344936442
 30
0.0
 10
109.7504068736041
 20
-133.2886772670251
 30
0.0
  0
HATCH
  5
E7
330
E2
100
AcDbEntity
  8
_U+30EC_U+30A4_U+30E4_U+30FC 1
 62
   179
420
  2234388
100
AcDbHatch
 10
0.0
 20
0.0
 30
0.0
210
0.0
220
0.0
230
1.0
  2
SOLID
 70
     1
 71
     0
 91
        1
 92
        1
 93
        1
 72
     4
 94
        3
 73
     0
 74
     1
 95
       44
 96
       40
 40
0.0
 40
0.0
 40
0.0
 40
0.0
 40
1.0
 40
1.0
 40
1.0
 40
2.0
 40
2.0
 40
2.0
 40
3.0
 40
3.0
 40
3.0
 40
4.0
 40
4.0
 40
4.0
 40
5.0
 40
5.0
 40
5.0
 40
6.0
 40
6.0
 40
6.0
 40
7.0
 40
7.0
 40
7.0
 40
8.0
 40
8.0
 40
8.0
 40
9.0
 40
9.0
 40
9.0
 40
10.0
 40
10.0
 40
10.0
 40
11.0
 40
11.0
 40
11.0
 40
12.0
 40
12.0
 40
12.0
 40
13.0
 40
13.0
 40
13.0
 40
13.0
 10
109.7504068736041
 20
-133.2886772670251
 10
109.5323323293878
 20
-133.4473239141208
 10
109.4389702417375
 20
-133.5213934670537
 10
109.390738904944
 20
-133.6652262035629
 10
109.390738904944
 20
-133.6652262035629
 10
110.1689859750619
 20
-133.6652262035629
 10
110.1689859750619
 20
-133.6652262035629
 10
110.1689859750619
 20
-133.6652262035629
 10
110.1689859750619
 20
-133.8703816397095
 10
110.1689859750619
 20
-133.8703816397095
 10
110.1689859750619
 20
-133.8703816397095
 10
109.1409694822634
 20
-133.8703816397095
 10
109.1409694822634
 20
-133.8703816397095
 10
109.1726643607277
 20
-133.5127807283406
 10
109.2381211749474
 20
-133.4345770608254
 10
109.6232828501984
 20
-133.1362317918027
 10
109.8792534447524
 20
-132.9374497823038
 10
109.9447102589722
 20
-132.8697536560187
 10
109.9447102589722
 20
-132.7322943461572
 10
109.9447102589722
 20
-132.6137830614646
 10
109.873052272879
 20
-132.4826971782509
 10
109.6759928111227
 20
-132.4826971782509
 10
109.4158881019863
 20
-132.4826971782509
 10
109.4072753632732
 20
-132.7131740662141
 10
109.4031412486909
 20
-132.8296182936155
 10
109.4031412486909
 20
-132.8296182936155
 10
109.1792100421496
 20
-132.8296182936155
 10
109.1792100421496
 20
-132.8296182936155
 10
109.1874782713142
 20
-132.7026665249841
 10
109.19781355777
 20
-132.5905286669392
 10
109.2784287921248
 20
-132.4720173822466
 10
109.3883273381043
 20
-132.3113036778597
 10
109.5747070038563
 20
-132.27736948733
 10
109.6911512312578
 20
-132.27736948733
 10
109.9681369082719
 20
-132.27736948733
 10
110.1755316564839
 20
-132.4615098410166
 10
110.1755316564839
 20
-132.7343614034484
 10
110.1755316564839
 20
-132.9627712341204
 10
110.0590874290825
 20
-133.0623344936442
 10
109.7504068736041
 20
-133.2886772670251
 97
        0
 97
        0
 75
     2
 76
     1
 98
        0
  0
SPLINE
  5
E8
330
E2
100
AcDbEntity
  8
_U+30EC_U+30A4_U+30E4_U+30FC 1
370
     0
100
AcDbSpline
210
0.0
220
0.0
230
1.0
 70
    11
 71
     3
 72
    32
 73
    28
 74
     0
 42
0.0000000001
 43
0.0000000001
 12
1.0
 22
0.0
 32
0.0
 13
1.0
 23
0.0
 33
0.0
 40
0.0
 40
0.0
 40
0.0
 40
0.0
 40
1.0
 40
1.0
 40
1.0
 40
2.0
 40
2.0
 40
2.0
 40
3.0
 40
3.0
 40
3.0
 40
4.0
 40
4.0
 40
4.0
 40
5.0
 40
5.0
 40
5.0
 40
6.0
 40
6.0
 40
6.0
 40
7.0
 40
7.0
 40
7.0
 40
8.0
 40
8.0
 40
8.0
 40
9.0
 40
9.0
 40
9.0
 40
9.0
 10
110.838368027846
 20
-133.9211967981169
 30
0.0
 10
110.321948214607
 20
-133.9211967981169
 30
0.0
 10
110.3133354758939
 20
-133.3668809345402
 30
0.0
 10
110.3133354758939
 20
-133.1532850144548
 30
0.0
 10
110.3133354758939
 20
-132.9226358717173
 30
0.0
 10
110.3326280106113
 20
-132.2753024300388
 30
0.0
 10
110.8762640781837
 20
-132.2753024300388
 30
0.0
 10
111.0498968906403
 20
-132.2753024300388
 30
0.0
 10
111.2951876891901
 20
-132.3450656136151
 30
0.0
 10
111.3330837395279
 20
-132.6771728183932
 30
0.0
 10
111.3330837395279
 20
-132.6771728183932
 30
0.0
 10
111.1194878194424
 20
-132.6771728183932
 30
0.0
 10
111.1194878194424
 20
-132.6771728183932
 30
0.0
 10
111.1091525329866
 20
-132.6201564881123
 30
0.0
 10
111.0774576545223
 20
-132.4720173822466
 30
0.0
 10
110.8741970208926
 20
-132.4720173822466
 30
0.0
 10
110.5820529237434
 20
-132.4720173822466
 30
0.0
 10
110.5420898161145
 20
-132.7999904724424
 30
0.0
 10
110.5293429628191
 20
-133.005145908589
 30
0.0
 10
110.6223605409208
 20
-132.9269422410738
 30
0.0
 10
110.6902289219802
 20
-132.8676865987275
 30
0.0
 10
110.8721299636014
 20
-132.8676865987275
 30
0.0
 10
111.0519639479315
 20
-132.8676865987275
 30
0.0
 10
111.3544433315364
 20
-132.9755180874158
 30
0.0
 10
111.3544433315364
 20
-133.3816948451268
 30
0.0
 10
111.3544433315364
 20
-133.7012274513837
 30
0.0
 10
111.1553168124889
 20
-133.9211967981169
 30
0.0
 10
110.838368027846
 20
-133.9211967981169
 30
0.0
  0
SPLINE
  5
E9
330
E2
100
AcDbEntity
  8
_U+30EC_U+30A4_U+30E4_U+30FC 1
370
     0
100
AcDbSpline
210
0.0
220
0.0
230
1.0
 70
    11
 71
     3
 72
    17
 73
    13
 74
     0
 42
0.0000000001
 43
0.0000000001
 12
1.0
 22
0.0
 32
0.0
 13
1.0
 23
0.0
 33
0.0
 40
0.0
 40
0.0
 40
0.0
 40
0.0
 40
1.0
 40
1.0
 40
1.0
 40
2.0
 40
2.0
 40
2.0
 40
3.0
 40
3.0
 40
3.0
 40
4.0
 40
4.0
 40
4.0
 40
4.0
 10
110.8549044861752
 20
-133.0623344936442
 30
0.0
 10
110.5927327197477
 20
-133.0623344936442
 30
0.0
 10
110.5544921598614
 20
-133.2738633564385
 30
0.0
 10
110.5544921598614
 20
-133.3901353290657
 30
0.0
 10
110.5544921598614
 20
-133.5658351988134
 30
0.0
 10
110.6499213048028
 20
-133.7286159604915
 30
0.0
 10
110.8338894037151
 20
-133.7286159604915
 30
0.0
 10
110.9544677456989
 20
-133.7286159604915
 30
0.0
 10
111.1301676154466
 20
-133.6693603181452
 30
0.0
 10
111.1301676154466
 20
-133.3837619024179
 30
0.0
 10
111.1301676154466
 20
-133.1596584411025
 30
0.0
 10
110.990641248294
 20
-133.0623344936442
 30
0.0
 10
110.8549044861752
 20
-133.0623344936442
 30
0.0
  0
HATCH
  5
EA
330
E2
100
AcDbEntity
  8
_U+30EC_U+30A4_U+30E4_U+30FC 1
 62
   179
420
  2234388
100
AcDbHatch
 10
0.0
 20
0.0
 30
0.0
210
0.0
220
0.0
230
1.0
  2
SOLID
 70
     1
 71
     0
 91
        2
 92
        1
 93
        1
 72
     4
 94
        3
 73
     0
 74
     1
 95
       32
 96
       28
 40
0.0
 40
0.0
 40
0.0
 40
0.0
 40
1.0
 40
1.0
 40
1.0
 40
2.0
 40
2.0
 40
2.0
 40
3.0
 40
3.0
 40
3.0
 40
4.0
 40
4.0
 40
4.0
 40
5.0
 40
5.0
 40
5.0
 40
6.0
 40
6.0
 40
6.0
 40
7.0
 40
7.0
 40
7.0
 40
8.0
 40
8.0
 40
8.0
 40
9.0
 40
9.0
 40
9.0
 40
9.0
 10
110.838368027846
 20
-133.9211967981169
 10
110.321948214607
 20
-133.9211967981169
 10
110.3133354758939
 20
-133.3668809345402
 10
110.3133354758939
 20
-133.1532850144548
 10
110.3133354758939
 20
-132.9226358717173
 10
110.3326280106113
 20
-132.2753024300388
 10
110.8762640781837
 20
-132.2753024300388
 10
111.0498968906403
 20
-132.2753024300388
 10
111.2951876891901
 20
-132.3450656136151
 10
111.3330837395279
 20
-132.6771728183932
 10
111.3330837395279
 20
-132.6771728183932
 10
111.1194878194424
 20
-132.6771728183932
 10
111.1194878194424
 20
-132.6771728183932
 10
111.1091525329866
 20
-132.6201564881123
 10
111.0774576545223
 20
-132.4720173822466
 10
110.8741970208926
 20
-132.4720173822466
 10
110.5820529237434
 20
-132.4720173822466
 10
110.5420898161145
 20
-132.7999904724424
 10
110.5293429628191
 20
-133.005145908589
 10
110.6223605409208
 20
-132.9269422410738
 10
110.6902289219802
 20
-132.8676865987275
 10
110.8721299636014
 20
-132.8676865987275
 10
111.0519639479315
 20
-132.8676865987275
 10
111.3544433315364
 20
-132.9755180874158
 10
111.3544433315364
 20
-133.3816948451268
 10
111.3544433315364
 20
-133.7012274513837
 10
111.1553168124889
 20
-133.9211967981169
 10
110.838368027846
 20
-133.9211967981169
 97
        0
 97
        0
 92
        1
 93
        1
 72
     4
 94
        3
 73
     0
 74
     1
 95
       17
 96
       13
 40
0.0
 40
0.0
 40
0.0
 40
0.0
 40
1.0
 40
1.0
 40
1.0
 40
2.0
 40
2.0
 40
2.0
 40
3.0
 40
3.0
 40
3.0
 40
4.0
 40
4.0
 40
4.0
 40
4.0
 10
110.8549044861752
 20
-133.0623344936442
 10
110.5927327197477
 20
-133.0623344936442
 10
110.5544921598614
 20
-133.2738633564385
 10
110.5544921598614
 20
-133.3901353290657
 10
110.5544921598614
 20
-133.5658351988134
 10
110.6499213048028
 20
-133.7286159604915
 10
110.8338894037151
 20
-133.7286159604915
 10
110.9544677456989
 20
-133.7286159604915
 10
111.1301676154466
 20
-133.6693603181452
 10
111.1301676154466
 20
-133.3837619024179
 10
111.1301676154466
 20
-133.1596584411025
 10
110.990641248294
 20
-133.0623344936442
 10
110.8549044861752
 20
-133.0623344936442
 97
        0
 97
        0
 75
     2
 76
     1
 98
        0
  0
ENDBLK
  5
E5
330
E2
100
AcDbEntity
  8
0
100
AcDbBlockEnd
  0
BLOCK
  5
FB
330
F9
100
AcDbEntity
  8
0
100
AcDbBlockBegin
  2
block 4
 70
     0
 10
0.0
 20
0.0
 30
0.0
  3
block 4
  1

  0
SPLINE
  5
FD
330
F9
100
AcDbEntity
  8
_U+30EC_U+30A4_U+30E4_U+30FC 1
370
     0
100
AcDbSpline
210
0.0
220
0.0
230
1.0
 70
    11
 71
     3
 72
    32
 73
    28
 74
     0
 42
0.0000000001
 43
0.0000000001
 12
1.0
 22
0.0
 32
0.0
 13
1.0
 23
0.0
 33
0.0
 40
0.0
 40
0.0
 40
0.0
 40
0.0
 40
1.0
 40
1.0
 40
1.0
 40
2.0
 40
2.0
 40
2.0
 40
3.0
 40
3.0
 40
3.0
 40
4.0
 40
4.0
 40
4.0
 40
5.0
 40
5.0
 40
5.0
 40
6.0
 40
6.0
 40
6.0
 40
7.0
 40
7.0
 40
7.0
 40
8.0
 40
8.0
 40
8.0
 40
9.0
 40
9.0
 40
9.0
 40
9.0
 10
128.4820800460045
 20
-141.733639830018
 30
0.0
 10
128.4820800460045
 20
-142.2497151337084
 30
0.0
 10
127.9274196728793
 20
-142.2583278724215
 30
0.0
 10
127.7138237527938
 20
-142.2583278724215
 30
0.0
 10
127.4833468648306
 20
-142.2583278724215
 30
0.0
 10
126.8360134231521
 20
-142.2390353377041
 30
0.0
 10
126.8360134231521
 20
-141.6953992701317
 30
0.0
 10
126.8360134231521
 20
-141.5221109672237
 30
0.0
 10
126.9056043519542
 20
-141.2764756591253
 30
0.0
 10
127.2377115567323
 20
-141.2385796087876
 30
0.0
 10
127.2377115567323
 20
-141.2385796087876
 30
0.0
 10
127.2377115567323
 20
-141.4521755288731
 30
0.0
 10
127.2377115567323
 20
-141.4521755288731
 30
0.0
 10
127.1808674812256
 20
-141.4628553248774
 30
0.0
 10
127.0327283753599
 20
-141.4945502033416
 30
0.0
 10
127.0327283753599
 20
-141.6974663274229
 30
0.0
 10
127.0327283753599
 20
-141.989610424572
 30
0.0
 10
127.3607014655557
 20
-142.0295735322009
 30
0.0
 10
127.565684646928
 20
-142.0423203854964
 30
0.0
 10
127.4878254889614
 20
-141.9493028073946
 30
0.0
 10
127.4285698466151
 20
-141.8814344263352
 30
0.0
 10
127.4285698466151
 20
-141.699533384714
 30
0.0
 10
127.4285698466151
 20
-141.519699400384
 30
0.0
 10
127.5360568257549
 20
-141.217220016779
 30
0.0
 10
127.9425780930144
 20
-141.217220016779
 30
0.0
 10
128.261938444497
 20
-141.217220016779
 30
0.0
 10
128.4820800460045
 20
-141.4163465358265
 30
0.0
 10
128.4820800460045
 20
-141.733639830018
 30
0.0
  0
SPLINE
  5
FE
330
F9
100
AcDbEntity
  8
_U+30EC_U+30A4_U+30E4_U+30FC 1
370
     0
100
AcDbSpline
210
0.0
220
0.0
230
1.0
 70
    11
 71
     3
 72
    17
 73
    13
 74
     0
 42
0.0000000001
 43
0.0000000001
 12
1.0
 22
0.0
 32
0.0
 13
1.0
 23
0.0
 33
0.0
 40
0.0
 40
0.0
 40
0.0
 40
0.0
 40
1.0
 40
1.0
 40
1.0
 40
2.0
 40
2.0
 40
2.0
 40
3.0
 40
3.0
 40
3.0
 40
4.0
 40
4.0
 40
4.0
 40
4.0
 10
127.6228732319832
 20
-141.7167588621403
 30
0.0
 10
127.6228732319832
 20
-141.9789306285678
 30
0.0
 10
127.8344020947775
 20
-142.0168266789055
 30
0.0
 10
127.950846322179
 20
-142.0168266789055
 30
0.0
 10
128.1265461919267
 20
-142.0168266789055
 30
0.0
 10
128.2891546988305
 20
-141.9217420435126
 30
0.0
 10
128.2891546988305
 20
-141.7377739446003
 30
0.0
 10
128.2891546988305
 20
-141.6171956026165
 30
0.0
 10
128.2298990564842
 20
-141.4414957328688
 30
0.0
 10
127.9446451503055
 20
-141.4414957328688
 30
0.0
 10
127.7203694342157
 20
-141.4414957328688
 30
0.0
 10
127.6228732319832
 20
-141.5810221000214
 30
0.0
 10
127.6228732319832
 20
-141.7167588621403
 30
0.0
  0
HATCH
  5
FF
330
F9
100
AcDbEntity
  8
_U+30EC_U+30A4_U+30E4_U+30FC 1
 62
   179
420
  2234388
100
AcDbHatch
 10
0.0
 20
0.0
 30
0.0
210
0.0
220
0.0
230
1.0
  2
SOLID
 70
     1
 71
     0
 91
        2
 92
        1
 93
        1
 72
     4
 94
        3
 73
     0
 74
     1
 95
       32
 96
       28
 40
0.0
 40
0.0
 40
0.0
 40
0.0
 40
1.0
 40
1.0
 40
1.0
 40
2.0
 40
2.0
 40
2.0
 40
3.0
 40
3.0
 40
3.0
 40
4.0
 40
4.0
 40
4.0
 40
5.0
 40
5.0
 40
5.0
 40
6.0
 40
6.0
 40
6.0
 40
7.0
 40
7.0
 40
7.0
 40
8.0
 40
8.0
 40
8.0
 40
9.0
 40
9.0
 40
9.0
 40
9.0
 10
128.4820800460045
 20
-141.733639830018
 10
128.4820800460045
 20
-142.2497151337084
 10
127.9274196728793
 20
-142.2583278724215
 10
127.7138237527938
 20
-142.2583278724215
 10
127.4833468648306
 20
-142.2583278724215
 10
126.8360134231521
 20
-142.2390353377041
 10
126.8360134231521
 20
-141.6953992701317
 10
126.8360134231521
 20
-141.5221109672237
 10
126.9056043519542
 20
-141.2764756591253
 10
127.2377115567323
 20
-141.2385796087876
 10
127.2377115567323
 20
-141.2385796087876
 10
127.2377115567323
 20
-141.4521755288731
 10
127.2377115567323
 20
-141.4521755288731
 10
127.1808674812256
 20
-141.4628553248774
 10
127.0327283753599
 20
-141.4945502033416
 10
127.0327283753599
 20
-141.6974663274229
 10
127.0327283753599
 20
-141.989610424572
 10
127.3607014655557
 20
-142.0295735322009
 10
127.565684646928
 20
-142.0423203854964
 10
127.4878254889614
 20
-141.9493028073946
 10
127.4285698466151
 20
-141.8814344263352
 10
127.4285698466151
 20
-141.699533384714
 10
127.4285698466151
 20
-141.519699400384
 10
127.5360568257549
 20
-141.217220016779
 10
127.9425780930144
 20
-141.217220016779
 10
128.261938444497
 20
-141.217220016779
 10
128.4820800460045
 20
-141.4163465358265
 10
128.4820800460045
 20
-141.733639830018
 97
        0
 97
        0
 92
        1
 93
        1
 72
     4
 94
        3
 73
     0
 74
     1
 95
       17
 96
       13
 40
0.0
 40
0.0
 40
0.0
 40
0.0
 40
1.0
 40
1.0
 40
1.0
 40
2.0
 40
2.0
 40
2.0
 40
3.0
 40
3.0
 40
3.0
 40
4.0
 40
4.0
 40
4.0
 40
4.0
 10
127.6228732319832
 20
-141.7167588621403
 10
127.6228732319832
 20
-141.9789306285678
 10
127.8344020947775
 20
-142.0168266789055
 10
127.950846322179
 20
-142.0168266789055
 10
128.1265461919267
 20
-142.0168266789055
 10
128.2891546988305
 20
-141.9217420435126
 10
128.2891546988305
 20
-141.7377739446003
 10
128.2891546988305
 20
-141.6171956026165
 10
128.2298990564842
 20
-141.4414957328688
 10
127.9446451503055
 20
-141.4414957328688
 10
127.7203694342157
 20
-141.4414957328688
 10
127.6228732319832
 20
-141.5810221000214
 10
127.6228732319832
 20
-141.7167588621403
 97
        0
 97
        0
 75
     2
 76
     1
 98
        0
  0
ENDBLK
  5
FC
330
F9
100
AcDbEntity
  8
0
100
AcDbBlockEnd
  0
BLOCK
  5
10E
330
10C
100
AcDbEntity
  8
0
100
AcDbBlockBegin
  2
block 5
 70
     0
 10
0.0
 20
0.0
 30
0.0
  3
block 5
  1

  0
SPLINE
  5
110
330
10C
100
AcDbEntity
  8
_U+30EC_U+30A4_U+30E4_U+30FC 1
370
     0
100
AcDbSpline
210
0.0
220
0.0
230
1.0
 70
    11
 71
     3
 72
    44
 73
    40
 74
     0
 42
0.0000000001
 43
0.0000000001
 12
1.0
 22
0.0
 32
0.0
 13
1.0
 23
0.0
 33
0.0
 40
0.0
 40
0.0
 40
0.0
 40
0.0
 40
1.0
 40
1.0
 40
1.0
 40
2.0
 40
2.0
 40
2.0
 40
3.0
 40
3.0
 40
3.0
 40
4.0
 40
4.0
 40
4.0
 40
5.0
 40
5.0
 40
5.0
 40
6.0
 40
6.0
 40
6.0
 40
7.0
 40
7.0
 40
7.0
 40
8.0
 40
8.0
 40
8.0
 40
9.0
 40
9.0
 40
9.0
 40
10.0
 40
10.0
 40
10.0
 40
11.0
 40
11.0
 40
11.0
 40
12.0
 40
12.0
 40
12.0
 40
13.0
 40
13.0
 40
13.0
 40
13.0
 10
82.79442950404098
 20
-152.2222330348611
 30
0.0
 10
82.95307615113674
 20
-152.4399630695289
 30
0.0
 10
83.02714570406961
 20
-152.5329806476306
 30
0.0
 10
83.17097844057879
 20
-152.5819010035212
 30
0.0
 10
83.17097844057879
 20
-152.5819010035212
 30
0.0
 10
83.17097844057879
 20
-151.8033094238547
 30
0.0
 10
83.17097844057879
 20
-151.8033094238547
 30
0.0
 10
83.17097844057879
 20
-151.8033094238547
 30
0.0
 10
83.37613387672542
 20
-151.8033094238547
 30
0.0
 10
83.37613387672542
 20
-151.8033094238547
 30
0.0
 10
83.37613387672542
 20
-151.8033094238547
 30
0.0
 10
83.37613387672542
 20
-152.8313259166533
 30
0.0
 10
83.37613387672542
 20
-152.8313259166533
 30
0.0
 10
83.01853296535648
 20
-152.799631038189
 30
0.0
 10
82.94032929784132
 20
-152.7341742239692
 30
0.0
 10
82.64198402881867
 20
-152.3490125487183
 30
0.0
 10
82.44320201931976
 20
-152.0930419541642
 30
0.0
 10
82.3755058930346
 20
-152.0275851399445
 30
0.0
 10
82.23804658317313
 20
-152.0275851399445
 30
0.0
 10
82.11953529848054
 20
-152.0275851399445
 30
0.0
 10
81.98844941526679
 20
-152.0995876355862
 30
0.0
 10
81.98844941526679
 20
-152.2959580782455
 30
0.0
 10
81.98844941526679
 20
-152.5564072969304
 30
0.0
 10
82.21892630322999
 20
-152.564675526095
 30
0.0
 10
82.33537053063144
 20
-152.5691541502258
 30
0.0
 10
82.33537053063144
 20
-152.5691541502258
 30
0.0
 10
82.33537053063144
 20
-152.7934298663155
 30
0.0
 10
82.33537053063144
 20
-152.7934298663155
 30
0.0
 10
82.20841876199998
 20
-152.7848171276024
 30
0.0
 10
82.0962809039551
 20
-152.7741373315981
 30
0.0
 10
81.9777696192625
 20
-152.6938666067918
 30
0.0
 10
81.8170559148756
 20
-152.5839680608123
 30
0.0
 10
81.78312172434589
 20
-152.3979329046089
 30
0.0
 10
81.78312172434589
 20
-152.2814886772074
 30
0.0
 10
81.78312172434589
 20
-152.0041584906448
 30
0.0
 10
81.96726207803249
 20
-151.7971082519813
 30
0.0
 10
82.24011364046429
 20
-151.7971082519813
 30
0.0
 10
82.46852347113635
 20
-151.7971082519813
 30
0.0
 10
82.56808673066007
 20
-151.9132079698342
 30
0.0
 10
82.79442950404098
 20
-152.2222330348611
 30
0.0
  0
HATCH
  5
111
330
10C
100
AcDbEntity
  8
_U+30EC_U+30A4_U+30E4_U+30FC 1
 62
   179
420
  2234388
100
AcDbHatch
 10
0.0
 20
0.0
 30
0.0
210
0.0
220
0.0
230
1.0
  2
SOLID
 70
     1
 71
     0
 91
        1
 92
        1
 93
        1
 72
     4
 94
        3
 73
     0
 74
     1
 95
       44
 96
       40
 40
0.0
 40
0.0
 40
0.0
 40
0.0
 40
1.0
 40
1.0
 40
1.0
 40
2.0
 40
2.0
 40
2.0
 40
3.0
 40
3.0
 40
3.0
 40
4.0
 40
4.0
 40
4.0
 40
5.0
 40
5.0
 40
5.0
 40
6.0
 40
6.0
 40
6.0
 40
7.0
 40
7.0
 40
7.0
 40
8.0
 40
8.0
 40
8.0
 40
9.0
 40
9.0
 40
9.0
 40
10.0
 40
10.0
 40
10.0
 40
11.0
 40
11.0
 40
11.0
 40
12.0
 40
12.0
 40
12.0
 40
13.0
 40
13.0
 40
13.0
 40
13.0
 10
82.79442950404098
 20
-152.2222330348611
 10
82.95307615113674
 20
-152.4399630695289
 10
83.02714570406961
 20
-152.5329806476306
 10
83.17097844057879
 20
-152.5819010035212
 10
83.17097844057879
 20
-152.5819010035212
 10
83.17097844057879
 20
-151.8033094238547
 10
83.17097844057879
 20
-151.8033094238547
 10
83.17097844057879
 20
-151.8033094238547
 10
83.37613387672542
 20
-151.8033094238547
 10
83.37613387672542
 20
-151.8033094238547
 10
83.37613387672542
 20
-151.8033094238547
 10
83.37613387672542
 20
-152.8313259166533
 10
83.37613387672542
 20
-152.8313259166533
 10
83.01853296535648
 20
-152.799631038189
 10
82.94032929784132
 20
-152.7341742239692
 10
82.64198402881867
 20
-152.3490125487183
 10
82.44320201931976
 20
-152.0930419541642
 10
82.3755058930346
 20
-152.0275851399445
 10
82.23804658317313
 20
-152.0275851399445
 10
82.11953529848054
 20
-152.0275851399445
 10
81.98844941526679
 20
-152.0995876355862
 10
81.98844941526679
 20
-152.2959580782455
 10
81.98844941526679
 20
-152.5564072969304
 10
82.21892630322999
 20
-152.564675526095
 10
82.33537053063144
 20
-152.5691541502258
 10
82.33537053063144
 20
-152.5691541502258
 10
82.33537053063144
 20
-152.7934298663155
 10
82.33537053063144
 20
-152.7934298663155
 10
82.20841876199998
 20
-152.7848171276024
 10
82.0962809039551
 20
-152.7741373315981
 10
81.9777696192625
 20
-152.6938666067918
 10
81.8170559148756
 20
-152.5839680608123
 10
81.78312172434589
 20
-152.3979329046089
 10
81.78312172434589
 20
-152.2814886772074
 10
81.78312172434589
 20
-152.0041584906448
 10
81.96726207803249
 20
-151.7971082519813
 10
82.24011364046429
 20
-151.7971082519813
 10
82.46852347113635
 20
-151.7971082519813
 10
82.56808673066007
 20
-151.9132079698342
 10
82.79442950404098
 20
-152.2222330348611
 97
        0
 97
        0
 75
     2
 76
     1
 98
        0
  0
SPLINE
  5
112
330
10C
100
AcDbEntity
  8
_U+30EC_U+30A4_U+30E4_U+30FC 1
370
     0
100
AcDbSpline
210
0.0
220
0.0
230
1.0
 70
    11
 71
     3
 72
    32
 73
    28
 74
     0
 42
0.0000000001
 43
0.0000000001
 12
1.0
 22
0.0
 32
0.0
 13
1.0
 23
0.0
 33
0.0
 40
0.0
 40
0.0
 40
0.0
 40
0.0
 40
1.0
 40
1.0
 40
1.0
 40
2.0
 40
2.0
 40
2.0
 40
3.0
 40
3.0
 40
3.0
 40
4.0
 40
4.0
 40
4.0
 40
5.0
 40
5.0
 40
5.0
 40
6.0
 40
6.0
 40
6.0
 40
7.0
 40
7.0
 40
7.0
 40
8.0
 40
8.0
 40
8.0
 40
9.0
 40
9.0
 40
9.0
 40
9.0
 10
83.42694903513285
 20
-151.1342718806192
 30
0.0
 10
83.42694903513285
 20
-151.6503471843097
 30
0.0
 10
82.87263317155615
 20
-151.6586154134743
 30
0.0
 10
82.65903725147066
 20
-151.6586154134743
 30
0.0
 10
82.42838810873319
 20
-151.6586154134743
 30
0.0
 10
81.78105466705475
 20
-151.6396673883054
 30
0.0
 10
81.78105466705475
 20
-151.0960313207329
 30
0.0
 10
81.78105466705475
 20
-150.9227430178249
 30
0.0
 10
81.85081785063105
 20
-150.6771077097266
 30
0.0
 10
82.18292505540913
 20
-150.6388671498403
 30
0.0
 10
82.18292505540913
 20
-150.6388671498403
 30
0.0
 10
82.18292505540913
 20
-150.8528075794743
 30
0.0
 10
82.18292505540913
 20
-150.8528075794743
 30
0.0
 10
82.12590872512826
 20
-150.8634873754786
 30
0.0
 10
81.9777696192625
 20
-150.8951822539429
 30
0.0
 10
81.9777696192625
 20
-151.0980983780241
 30
0.0
 10
81.9777696192625
 20
-151.3898979656248
 30
0.0
 10
82.30574270945829
 20
-151.4305500923507
 30
0.0
 10
82.51089814560491
 20
-151.4429524360976
 30
0.0
 10
82.43269447808974
 20
-151.3499348579959
 30
0.0
 10
82.37343883574344
 20
-151.282410986485
 30
0.0
 10
82.37343883574344
 20
-151.1005099448638
 30
0.0
 10
82.37343883574344
 20
-150.9206759605337
 30
0.0
 10
82.48127032443178
 20
-150.6181965769288
 30
0.0
 10
82.88744708214273
 20
-150.6181965769288
 30
0.0
 10
83.20697968839964
 20
-150.6181965769288
 30
0.0
 10
83.42694903513285
 20
-150.8166340768792
 30
0.0
 10
83.42694903513285
 20
-151.1342718806192
 30
0.0
  0
SPLINE
  5
113
330
10C
100
AcDbEntity
  8
_U+30EC_U+30A4_U+30E4_U+30FC 1
370
     0
100
AcDbSpline
210
0.0
220
0.0
230
1.0
 70
    11
 71
     3
 72
    17
 73
    13
 74
     0
 42
0.0000000001
 43
0.0000000001
 12
1.0
 22
0.0
 32
0.0
 13
1.0
 23
0.0
 33
0.0
 40
0.0
 40
0.0
 40
0.0
 40
0.0
 40
1.0
 40
1.0
 40
1.0
 40
2.0
 40
2.0
 40
2.0
 40
3.0
 40
3.0
 40
3.0
 40
4.0
 40
4.0
 40
4.0
 40
4.0
 10
82.56808673066007
 20
-151.117046403193
 30
0.0
 10
82.56808673066007
 20
-151.379562679169
 30
0.0
 10
82.77961559345441
 20
-151.4174587295068
 30
0.0
 10
82.89588756608158
 20
-151.4174587295068
 30
0.0
 10
83.07158743582933
 20
-151.4174587295068
 30
0.0
 10
83.23436819750738
 20
-151.3223740941139
 30
0.0
 10
83.23436819750738
 20
-151.1384059952015
 30
0.0
 10
83.23436819750738
 20
-151.0178276532178
 30
0.0
 10
83.17511255516109
 20
-150.84212778347
 30
0.0
 10
82.88951413943387
 20
-150.84212778347
 30
0.0
 10
82.66541067811838
 20
-150.84212778347
 30
0.0
 10
82.56808673066007
 20
-150.9819986601712
 30
0.0
 10
82.56808673066007
 20
-151.117046403193
 30
0.0
  0
HATCH
  5
114
330
10C
100
AcDbEntity
  8
_U+30EC_U+30A4_U+30E4_U+30FC 1
 62
   179
420
  2234388
100
AcDbHatch
 10
0.0
 20
0.0
 30
0.0
210
0.0
220
0.0
230
1.0
  2
SOLID
 70
     1
 71
     0
 91
        2
 92
        1
 93
        1
 72
     4
 94
        3
 73
     0
 74
     1
 95
       32
 96
       28
 40
0.0
 40
0.0
 40
0.0
 40
0.0
 40
1.0
 40
1.0
 40
1.0
 40
2.0
 40
2.0
 40
2.0
 40
3.0
 40
3.0
 40
3.0
 40
4.0
 40
4.0
 40
4.0
 40
5.0
 40
5.0
 40
5.0
 40
6.0
 40
6.0
 40
6.0
 40
7.0
 40
7.0
 40
7.0
 40
8.0
 40
8.0
 40
8.0
 40
9.0
 40
9.0
 40
9.0
 40
9.0
 10
83.42694903513285
 20
-151.1342718806192
 10
83.42694903513285
 20
-151.6503471843097
 10
82.87263317155615
 20
-151.6586154134743
 10
82.65903725147066
 20
-151.6586154134743
 10
82.42838810873319
 20
-151.6586154134743
 10
81.78105466705475
 20
-151.6396673883054
 10
81.78105466705475
 20
-151.0960313207329
 10
81.78105466705475
 20
-150.9227430178249
 10
81.85081785063105
 20
-150.6771077097266
 10
82.18292505540913
 20
-150.6388671498403
 10
82.18292505540913
 20
-150.6388671498403
 10
82.18292505540913
 20
-150.8528075794743
 10
82.18292505540913
 20
-150.8528075794743
 10
82.12590872512826
 20
-150.8634873754786
 10
81.9777696192625
 20
-150.8951822539429
 10
81.9777696192625
 20
-151.0980983780241
 10
81.9777696192625
 20
-151.3898979656248
 10
82.30574270945829
 20
-151.4305500923507
 10
82.51089814560491
 20
-151.4429524360976
 10
82.43269447808974
 20
-151.3499348579959
 10
82.37343883574344
 20
-151.282410986485
 10
82.37343883574344
 20
-151.1005099448638
 10
82.37343883574344
 20
-150.9206759605337
 10
82.48127032443178
 20
-150.6181965769288
 10
82.88744708214273
 20
-150.6181965769288
 10
83.20697968839964
 20
-150.6181965769288
 10
83.42694903513285
 20
-150.8166340768792
 10
83.42694903513285
 20
-151.1342718806192
 97
        0
 97
        0
 92
        1
 93
        1
 72
     4
 94
        3
 73
     0
 74
     1
 95
       17
 96
       13
 40
0.0
 40
0.0
 40
0.0
 40
0.0
 40
1.0
 40
1.0
 40
1.0
 40
2.0
 40
2.0
 40
2.0
 40
3.0
 40
3.0
 40
3.0
 40
4.0
 40
4.0
 40
4.0
 40
4.0
 10
82.56808673066007
 20
-151.117046403193
 10
82.56808673066007
 20
-151.379562679169
 10
82.77961559345441
 20
-151.4174587295068
 10
82.89588756608158
 20
-151.4174587295068
 10
83.07158743582933
 20
-151.4174587295068
 10
83.23436819750738
 20
-151.3223740941139
 10
83.23436819750738
 20
-151.1384059952015
 10
83.23436819750738
 20
-151.0178276532178
 10
83.17511255516109
 20
-150.84212778347
 10
82.88951413943387
 20
-150.84212778347
 10
82.66541067811838
 20
-150.84212778347
 10
82.56808673066007
 20
-150.9819986601712
 10
82.56808673066007
 20
-151.117046403193
 97
        0
 97
        0
 75
     2
 76
     1
 98
        0
  0
ENDBLK
  5
10F
330
10C
100
AcDbEntity
  8
0
100
AcDbBlockEnd
  0
BLOCK
  5
133
330
131
100
AcDbEntity
  8
0
100
AcDbBlockBegin
  2
block 6
 70
     0
 10
0.0
 20
0.0
 30
0.0
  3
block 6
  1

  0
POLYLINE
  5
135
330
131
100
AcDbEntity
  8
_U+30EC_U+30A4_U+30E4_U+30FC 1
370
     0
100
AcDb2dPolyline
 66
     1
 10
0.0
 20
0.0
 30
0.0
  0
VERTEX
  5
136
330
135
100
AcDbEntity
  8
_U+30EC_U+30A4_U+30E4_U+30FC 1
370
     0
100
AcDbVertex
100
AcDb2dVertex
 10
87.38949786226722
 20
-133.9044880850135
 30
0.0
  0
VERTEX
  5
137
330
135
100
AcDbEntity
  8
_U+30EC_U+30A4_U+30E4_U+30FC 1
370
     0
100
AcDbVertex
100
AcDb2dVertex
 10
87.38949786226722
 20
-133.7437743806266
 30
0.0
  0
VERTEX
  5
138
330
135
100
AcDbEntity
  8
_U+30EC_U+30A4_U+30E4_U+30FC 1
370
     0
100
AcDbVertex
100
AcDb2dVertex
 10
87.5438381400064
 20
-133.7437743806266
 30
0.0
  0
VERTEX
  5
139
330
135
100
AcDbEntity
  8
_U+30EC_U+30A4_U+30E4_U+30FC 1
370
     0
100
AcDbVertex
100
AcDb2dVertex
 10
87.5438381400064
 20
-133.9044880850135
 30
0.0
  0
VERTEX
  5
13A
330
135
100
AcDbEntity
  8
_U+30EC_U+30A4_U+30E4_U+30FC 1
370
     0
100
AcDbVertex
100
AcDb2dVertex
 10
87.9374402991962
 20
-133.9044880850135
 30
0.0
  0
VERTEX
  5
13B
330
135
100
AcDbEntity
  8
_U+30EC_U+30A4_U+30E4_U+30FC 1
370
     0
100
AcDbVertex
100
AcDb2dVertex
 10
87.9374402991962
 20
-134.0590006175269
 30
0.0
  0
VERTEX
  5
13C
330
135
100
AcDbEntity
  8
_U+30EC_U+30A4_U+30E4_U+30FC 1
370
     0
100
AcDbVertex
100
AcDb2dVertex
 10
87.5438381400064
 20
-134.0590006175269
 30
0.0
  0
VERTEX
  5
13D
330
135
100
AcDbEntity
  8
_U+30EC_U+30A4_U+30E4_U+30FC 1
370
     0
100
AcDbVertex
100
AcDb2dVertex
 10
87.5438381400064
 20
-134.2133408952661
 30
0.0
  0
VERTEX
  5
13E
330
135
100
AcDbEntity
  8
_U+30EC_U+30A4_U+30E4_U+30FC 1
370
     0
100
AcDbVertex
100
AcDb2dVertex
 10
87.89919973930992
 20
-134.2133408952661
 30
0.0
  0
VERTEX
  5
13F
330
135
100
AcDbEntity
  8
_U+30EC_U+30A4_U+30E4_U+30FC 1
370
     0
100
AcDbVertex
100
AcDb2dVertex
 10
87.89919973930992
 20
-135.025694410688
 30
0.0
  0
VERTEX
  5
140
330
135
100
AcDbEntity
  8
_U+30EC_U+30A4_U+30E4_U+30FC 1
370
     0
100
AcDbVertex
100
AcDb2dVertex
 10
87.5438381400064
 20
-135.025694410688
 30
0.0
  0
VERTEX
  5
141
330
135
100
AcDbEntity
  8
_U+30EC_U+30A4_U+30E4_U+30FC 1
370
     0
100
AcDbVertex
100
AcDb2dVertex
 10
87.5438381400064
 20
-135.1950208537881
 30
0.0
  0
VERTEX
  5
142
330
135
100
AcDbEntity
  8
_U+30EC_U+30A4_U+30E4_U+30FC 1
370
     0
100
AcDbVertex
100
AcDb2dVertex
 10
87.95225420978278
 20
-135.1950208537881
 30
0.0
  0
VERTEX
  5
143
330
135
100
AcDbEntity
  8
_U+30EC_U+30A4_U+30E4_U+30FC 1
370
     0
100
AcDbVertex
100
AcDb2dVertex
 10
87.95225420978278
 20
-135.3493611315272
 30
0.0
  0
VERTEX
  5
144
330
135
100
AcDbEntity
  8
_U+30EC_U+30A4_U+30E4_U+30FC 1
370
     0
100
AcDbVertex
100
AcDb2dVertex
 10
87.5438381400064
 20
-135.3493611315272
 30
0.0
  0
VERTEX
  5
145
330
135
100
AcDbEntity
  8
_U+30EC_U+30A4_U+30E4_U+30FC 1
370
     0
100
AcDbVertex
100
AcDb2dVertex
 10
87.5438381400064
 20
-135.7026556735396
 30
0.0
  0
VERTEX
  5
146
330
135
100
AcDbEntity
  8
_U+30EC_U+30A4_U+30E4_U+30FC 1
370
     0
100
AcDbVertex
100
AcDb2dVertex
 10
87.38949786226722
 20
-135.7026556735396
 30
0.0
  0
VERTEX
  5
147
330
135
100
AcDbEntity
  8
_U+30EC_U+30A4_U+30E4_U+30FC 1
370
     0
100
AcDbVertex
100
AcDb2dVertex
 10
87.38949786226722
 20
-135.3493611315272
 30
0.0
  0
VERTEX
  5
148
330
135
100
AcDbEntity
  8
_U+30EC_U+30A4_U+30E4_U+30FC 1
370
     0
100
AcDbVertex
100
AcDb2dVertex
 10
86.9790147351997
 20
-135.3493611315272
 30
0.0
  0
VERTEX
  5
149
330
135
100
AcDbEntity
  8
_U+30EC_U+30A4_U+30E4_U+30FC 1
370
     0
100
AcDbVertex
100
AcDb2dVertex
 10
86.9790147351997
 20
-135.1950208537881
 30
0.0
  0
VERTEX
  5
14A
330
135
100
AcDbEntity
  8
_U+30EC_U+30A4_U+30E4_U+30FC 1
370
     0
100
AcDbVertex
100
AcDb2dVertex
 10
87.38949786226722
 20
-135.1950208537881
 30
0.0
  0
VERTEX
  5
14B
330
135
100
AcDbEntity
  8
_U+30EC_U+30A4_U+30E4_U+30FC 1
370
     0
100
AcDbVertex
100
AcDb2dVertex
 10
87.38949786226722
 20
-135.025694410688
 30
0.0
  0
VERTEX
  5
14C
330
135
100
AcDbEntity
  8
_U+30EC_U+30A4_U+30E4_U+30FC 1
370
     0
100
AcDbVertex
100
AcDb2dVertex
 10
87.04033743483714
 20
-135.025694410688
 30
0.0
  0
VERTEX
  5
14D
330
135
100
AcDbEntity
  8
_U+30EC_U+30A4_U+30E4_U+30FC 1
370
     0
100
AcDbVertex
100
AcDb2dVertex
 10
87.04033743483714
 20
-134.2133408952661
 30
0.0
  0
VERTEX
  5
14E
330
135
100
AcDbEntity
  8
_U+30EC_U+30A4_U+30E4_U+30FC 1
370
     0
100
AcDbVertex
100
AcDb2dVertex
 10
87.38949786226722
 20
-134.2133408952661
 30
0.0
  0
VERTEX
  5
14F
330
135
100
AcDbEntity
  8
_U+30EC_U+30A4_U+30E4_U+30FC 1
370
     0
100
AcDbVertex
100
AcDb2dVertex
 10
87.38949786226722
 20
-134.0590006175269
 30
0.0
  0
VERTEX
  5
150
330
135
100
AcDbEntity
  8
_U+30EC_U+30A4_U+30E4_U+30FC 1
370
     0
100
AcDbVertex
100
AcDb2dVertex
 10
87.00020207243398
 20
-134.0590006175269
 30
0.0
  0
VERTEX
  5
151
330
135
100
AcDbEntity
  8
_U+30EC_U+30A4_U+30E4_U+30FC 1
370
     0
100
AcDbVertex
100
AcDb2dVertex
 10
87.00020207243398
 20
-133.9044880850135
 30
0.0
  0
VERTEX
  5
152
330
135
100
AcDbEntity
  8
_U+30EC_U+30A4_U+30E4_U+30FC 1
370
     0
100
AcDbVertex
100
AcDb2dVertex
 10
87.38949786226722
 20
-133.9044880850135
 30
0.0
  0
SEQEND
  5
153
330
135
100
AcDbEntity
  8
_U+30EC_U+30A4_U+30E4_U+30FC 1
370
     0
  0
POLYLINE
  5
154
330
131
100
AcDbEntity
  8
_U+30EC_U+30A4_U+30E4_U+30FC 1
370
     0
100
AcDb2dPolyline
 66
     1
 10
0.0
 20
0.0
 30
0.0
  0
VERTEX
  5
155
330
154
100
AcDbEntity
  8
_U+30EC_U+30A4_U+30E4_U+30FC 1
370
     0
100
AcDbVertex
100
AcDb2dVertex
 10
87.38949786226722
 20
-134.353039517193
 30
0.0
  0
VERTEX
  5
156
330
154
100
AcDbEntity
  8
_U+30EC_U+30A4_U+30E4_U+30FC 1
370
     0
100
AcDbVertex
100
AcDb2dVertex
 10
87.18210311405517
 20
-134.353039517193
 30
0.0
  0
VERTEX
  5
157
330
154
100
AcDbEntity
  8
_U+30EC_U+30A4_U+30E4_U+30FC 1
370
     0
100
AcDbVertex
100
AcDb2dVertex
 10
87.18210311405517
 20
-134.5561278960485
 30
0.0
  0
VERTEX
  5
158
330
154
100
AcDbEntity
  8
_U+30EC_U+30A4_U+30E4_U+30FC 1
370
     0
100
AcDbVertex
100
AcDb2dVertex
 10
87.38949786226722
 20
-134.5561278960485
 30
0.0
  0
VERTEX
  5
159
330
154
100
AcDbEntity
  8
_U+30EC_U+30A4_U+30E4_U+30FC 1
370
     0
100
AcDbVertex
100
AcDb2dVertex
 10
87.38949786226722
 20
-134.353039517193
 30
0.0
  0
SEQEND
  5
15A
330
154
100
AcDbEntity
  8
_U+30EC_U+30A4_U+30E4_U+30FC 1
370
     0
  0
POLYLINE
  5
15B
330
131
100
AcDbEntity
  8
_U+30EC_U+30A4_U+30E4_U+30FC 1
370
     0
100
AcDb2dPolyline
 66
     1
 10
0.0
 20
0.0
 30
0.0
  0
VERTEX
  5
15C
330
15B
100
AcDbEntity
  8
_U+30EC_U+30A4_U+30E4_U+30FC 1
370
     0
100
AcDbVertex
100
AcDb2dVertex
 10
87.38949786226722
 20
-134.6787732953234
 30
0.0
  0
VERTEX
  5
15D
330
15B
100
AcDbEntity
  8
_U+30EC_U+30A4_U+30E4_U+30FC 1
370
     0
100
AcDbVertex
100
AcDb2dVertex
 10
87.18210311405517
 20
-134.6787732953234
 30
0.0
  0
VERTEX
  5
15E
330
15B
100
AcDbEntity
  8
_U+30EC_U+30A4_U+30E4_U+30FC 1
370
     0
100
AcDbVertex
100
AcDb2dVertex
 10
87.18210311405517
 20
-134.8861680435354
 30
0.0
  0
VERTEX
  5
15F
330
15B
100
AcDbEntity
  8
_U+30EC_U+30A4_U+30E4_U+30FC 1
370
     0
100
AcDbVertex
100
AcDb2dVertex
 10
87.38949786226722
 20
-134.8861680435354
 30
0.0
  0
VERTEX
  5
160
330
15B
100
AcDbEntity
  8
_U+30EC_U+30A4_U+30E4_U+30FC 1
370
     0
100
AcDbVertex
100
AcDb2dVertex
 10
87.38949786226722
 20
-134.6787732953234
 30
0.0
  0
SEQEND
  5
161
330
15B
100
AcDbEntity
  8
_U+30EC_U+30A4_U+30E4_U+30FC 1
370
     0
  0
POLYLINE
  5
162
330
131
100
AcDbEntity
  8
_U+30EC_U+30A4_U+30E4_U+30FC 1
370
     0
100
AcDb2dPolyline
 66
     1
 10
0.0
 20
0.0
 30
0.0
  0
VERTEX
  5
163
330
162
100
AcDbEntity
  8
_U+30EC_U+30A4_U+30E4_U+30FC 1
370
     0
100
AcDbVertex
100
AcDb2dVertex
 10
87.75536700280074
 20
-134.353039517193
 30
0.0
  0
VERTEX
  5
164
330
162
100
AcDbEntity
  8
_U+30EC_U+30A4_U+30E4_U+30FC 1
370
     0
100
AcDbVertex
100
AcDb2dVertex
 10
87.5438381400064
 20
-134.353039517193
 30
0.0
  0
VERTEX
  5
165
330
162
100
AcDbEntity
  8
_U+30EC_U+30A4_U+30E4_U+30FC 1
370
     0
100
AcDbVertex
100
AcDb2dVertex
 10
87.5438381400064
 20
-134.5561278960485
 30
0.0
  0
VERTEX
  5
166
330
162
100
AcDbEntity
  8
_U+30EC_U+30A4_U+30E4_U+30FC 1
370
     0
100
AcDbVertex
100
AcDb2dVertex
 10
87.75536700280074
 20
-134.5561278960485
 30
0.0
  0
VERTEX
  5
167
330
162
100
AcDbEntity
  8
_U+30EC_U+30A4_U+30E4_U+30FC 1
370
     0
100
AcDbVertex
100
AcDb2dVertex
 10
87.75536700280074
 20
-134.353039517193
 30
0.0
  0
SEQEND
  5
168
330
162
100
AcDbEntity
  8
_U+30EC_U+30A4_U+30E4_U+30FC 1
370
     0
  0
POLYLINE
  5
169
330
131
100
AcDbEntity
  8
_U+30EC_U+30A4_U+30E4_U+30FC 1
370
     0
100
AcDb2dPolyline
 66
     1
 10
0.0
 20
0.0
 30
0.0
  0
VERTEX
  5
16A
330
169
100
AcDbEntity
  8
_U+30EC_U+30A4_U+30E4_U+30FC 1
370
     0
100
AcDbVertex
100
AcDb2dVertex
 10
87.75536700280074
 20
-134.6787732953234
 30
0.0
  0
VERTEX
  5
16B
330
169
100
AcDbEntity
  8
_U+30EC_U+30A4_U+30E4_U+30FC 1
370
     0
100
AcDbVertex
100
AcDb2dVertex
 10
87.5438381400064
 20
-134.6787732953234
 30
0.0
  0
VERTEX
  5
16C
330
169
100
AcDbEntity
  8
_U+30EC_U+30A4_U+30E4_U+30FC 1
370
     0
100
AcDbVertex
100
AcDb2dVertex
 10
87.5438381400064
 20
-134.8861680435354
 30
0.0
  0
VERTEX
  5
16D
330
169
100
AcDbEntity
  8
_U+30EC_U+30A4_U+30E4_U+30FC 1
370
     0
100
AcDbVertex
100
AcDb2dVertex
 10
87.75536700280074
 20
-134.8861680435354
 30
0.0
  0
VERTEX
  5
16E
330
169
100
AcDbEntity
  8
_U+30EC_U+30A4_U+30E4_U+30FC 1
370
     0
100
AcDbVertex
100
AcDb2dVertex
 10
87.75536700280074
 20
-134.6787732953234
 30
0.0
  0
SEQEND
  5
16F
330
169
100
AcDbEntity
  8
_U+30EC_U+30A4_U+30E4_U+30FC 1
370
     0
  0
SPLINE
  5
170
330
131
100
AcDbEntity
  8
_U+30EC_U+30A4_U+30E4_U+30FC 1
370
     0
100
AcDbSpline
210
0.0
220
0.0
230
1.0
 70
    11
 71
     3
 72
    38
 73
    34
 74
     0
 42
0.0000000001
 43
0.0000000001
 12
1.0
 22
0.0
 32
0.0
 13
1.0
 23
0.0
 33
0.0
 40
0.0
 40
0.0
 40
0.0
 40
0.0
 40
1.0
 40
1.0
 40
1.0
 40
2.0
 40
2.0
 40
2.0
 40
3.0
 40
3.0
 40
3.0
 40
4.0
 40
4.0
 40
4.0
 40
5.0
 40
5.0
 40
5.0
 40
6.0
 40
6.0
 40
6.0
 40
7.0
 40
7.0
 40
7.0
 40
8.0
 40
8.0
 40
8.0
 40
9.0
 40
9.0
 40
9.0
 40
10.0
 40
10.0
 40
10.0
 40
11.0
 40
11.0
 40
11.0
 40
11.0
 10
87.79774167726931
 20
-135.5672634209693
 30
0.0
 10
87.88025171414105
 20
-135.5143812052707
 30
0.0
 10
88.04527178788452
 20
-135.4065497165824
 30
0.0
 10
88.15103621928169
 20
-135.1991549683704
 30
0.0
 10
88.29917532514743
 20
-134.9073553807697
 30
0.0
 10
88.29917532514743
 20
-134.6810126073888
 30
0.0
 10
88.29917532514743
 20
-134.5962632584516
 30
0.0
 10
88.29917532514743
 20
-134.5962632584516
 30
0.0
 10
88.29917532514743
 20
-134.3614800011319
 30
0.0
 10
88.29917532514743
 20
-134.3614800011319
 30
0.0
 10
88.29917532514743
 20
-134.3614800011319
 30
0.0
 10
88.4641953988909
 20
-134.3614800011319
 30
0.0
 10
88.4641953988909
 20
-134.3614800011319
 30
0.0
 10
88.4641953988909
 20
-134.3614800011319
 30
0.0
 10
88.4641953988909
 20
-134.5878227745128
 30
0.0
 10
88.4641953988909
 20
-134.5878227745128
 30
0.0
 10
88.4641953988909
 20
-134.7867770387859
 30
0.0
 10
88.52965221311065
 20
-135.0236273533969
 30
0.0
 10
88.63128252992551
 20
-135.1970879110792
 30
0.0
 10
88.7475545025527
 20
-135.3960421753524
 30
0.0
 10
88.8765733284753
 20
-135.4954331801019
 30
0.0
 10
88.96132267741245
 20
-135.5567558797393
 30
0.0
 10
88.96132267741245
 20
-135.5567558797393
 30
0.0
 10
88.85331893394986
 20
-135.7069620428962
 30
0.0
 10
88.85331893394986
 20
-135.7069620428962
 30
0.0
 10
88.67572426168525
 20
-135.5779432169736
 30
0.0
 10
88.47676999741206
 20
-135.3388535902972
 30
0.0
 10
88.3985663298969
 20
-134.9855590482849
 30
0.0
 10
88.33293726090288
 20
-135.2246486749612
 30
0.0
 10
88.23147919886227
 20
-135.4933661228107
 30
0.0
 10
87.92262638860963
 20
-135.7026556735396
 30
0.0
 10
87.92262638860963
 20
-135.7026556735396
 30
0.0
 10
87.79774167726931
 20
-135.5672634209693
 30
0.0
 10
87.79774167726931
 20
-135.5672634209693
 30
0.0
  0
SPLINE
  5
171
330
131
100
AcDbEntity
  8
_U+30EC_U+30A4_U+30E4_U+30FC 1
370
     0
100
AcDbSpline
210
0.0
220
0.0
230
1.0
 70
    11
 71
     3
 72
    38
 73
    34
 74
     0
 42
0.0000000001
 43
0.0000000001
 12
1.0
 22
0.0
 32
0.0
 13
1.0
 23
0.0
 33
0.0
 40
0.0
 40
0.0
 40
0.0
 40
0.0
 40
1.0
 40
1.0
 40
1.0
 40
2.0
 40
2.0
 40
2.0
 40
3.0
 40
3.0
 40
3.0
 40
4.0
 40
4.0
 40
4.0
 40
5.0
 40
5.0
 40
5.0
 40
6.0
 40
6.0
 40
6.0
 40
7.0
 40
7.0
 40
7.0
 40
8.0
 40
8.0
 40
8.0
 40
9.0
 40
9.0
 40
9.0
 40
10.0
 40
10.0
 40
10.0
 40
11.0
 40
11.0
 40
11.0
 40
11.0
 10
87.91194659260535
 20
-134.494805196411
 30
0.0
 10
88.00513642548135
 20
-134.3719875423619
 30
0.0
 10
88.1298488820474
 20
-134.1923258128061
 30
0.0
 10
88.22510577221456
 20
-133.7437743806266
 30
0.0
 10
88.22510577221456
 20
-133.7437743806266
 30
0.0
 10
88.39219290324918
 20
-133.7627224057954
 30
0.0
 10
88.39219290324918
 20
-133.7627224057954
 30
0.0
 10
88.36687145143259
 20
-133.8833007477792
 30
0.0
 10
88.34361705690715
 20
-133.974423523364
 30
0.0
 10
88.30537649702089
 20
-134.0822550120524
 30
0.0
 10
88.30537649702089
 20
-134.0822550120524
 30
0.0
 10
88.93376191353045
 20
-134.0822550120524
 30
0.0
 10
88.93376191353045
 20
-134.0822550120524
 30
0.0
 10
88.93376191353045
 20
-134.0822550120524
 30
0.0
 10
88.93376191353045
 20
-134.2345282325004
 30
0.0
 10
88.93376191353045
 20
-134.2345282325004
 30
0.0
 10
88.89999997777501
 20
-134.3762939117184
 30
0.0
 10
88.80474308760785
 20
-134.6343315635636
 30
0.0
 10
88.73067353467498
 20
-134.7528428482563
 30
0.0
 10
88.73067353467498
 20
-134.7528428482563
 30
0.0
 10
88.57840031422693
 20
-134.6746391807411
 30
0.0
 10
88.57840031422693
 20
-134.6746391807411
 30
0.0
 10
88.67348494961983
 20
-134.5392469281707
 30
0.0
 10
88.73911401861383
 20
-134.3509724599018
 30
0.0
 10
88.76667478249584
 20
-134.2409016591481
 30
0.0
 10
88.76667478249584
 20
-134.2409016591481
 30
0.0
 10
88.24836016674
 20
-134.2409016591481
 30
0.0
 10
88.24836016674
 20
-134.2409016591481
 30
0.0
 10
88.14896916199054
 20
-134.4820583431156
 30
0.0
 10
88.07489960905767
 20
-134.5709418066351
 30
0.0
 10
88.03683130394566
 20
-134.6153835383948
 30
0.0
 10
88.03683130394566
 20
-134.6153835383948
 30
0.0
 10
87.91194659260535
 20
-134.494805196411
 30
0.0
 10
87.91194659260535
 20
-134.494805196411
 30
0.0
  0
HATCH
  5
172
330
131
100
AcDbEntity
  8
_U+30EC_U+30A4_U+30E4_U+30FC 1
 62
    12
420
 15007761
100
AcDbHatch
 10
0.0
 20
0.0
 30
0.0
210
0.0
220
0.0
230
1.0
  2
SOLID
 70
     1
 71
     0
 91
        7
 92
        1
 93
       28
 72
     1
 10
87.38949786226722
 20
-133.9044880850135
 11
87.38949786226722
 21
-133.7437743806266
 72
     1
 10
87.38949786226722
 20
-133.7437743806266
 11
87.5438381400064
 21
-133.7437743806266
 72
     1
 10
87.5438381400064
 20
-133.7437743806266
 11
87.5438381400064
 21
-133.9044880850135
 72
     1
 10
87.5438381400064
 20
-133.9044880850135
 11
87.9374402991962
 21
-133.9044880850135
 72
     1
 10
87.9374402991962
 20
-133.9044880850135
 11
87.9374402991962
 21
-134.0590006175269
 72
     1
 10
87.9374402991962
 20
-134.0590006175269
 11
87.5438381400064
 21
-134.0590006175269
 72
     1
 10
87.5438381400064
 20
-134.0590006175269
 11
87.5438381400064
 21
-134.2133408952661
 72
     1
 10
87.5438381400064
 20
-134.2133408952661
 11
87.89919973930992
 21
-134.2133408952661
 72
     1
 10
87.89919973930992
 20
-134.2133408952661
 11
87.89919973930992
 21
-135.025694410688
 72
     1
 10
87.89919973930992
 20
-135.025694410688
 11
87.5438381400064
 21
-135.025694410688
 72
     1
 10
87.5438381400064
 20
-135.025694410688
 11
87.5438381400064
 21
-135.1950208537881
 72
     1
 10
87.5438381400064
 20
-135.1950208537881
 11
87.95225420978278
 21
-135.1950208537881
 72
     1
 10
87.95225420978278
 20
-135.1950208537881
 11
87.95225420978278
 21
-135.3493611315272
 72
     1
 10
87.95225420978278
 20
-135.3493611315272
 11
87.5438381400064
 21
-135.3493611315272
 72
     1
 10
87.5438381400064
 20
-135.3493611315272
 11
87.5438381400064
 21
-135.7026556735396
 72
     1
 10
87.5438381400064
 20
-135.7026556735396
 11
87.38949786226722
 21
-135.7026556735396
 72
     1
 10
87.38949786226722
 20
-135.7026556735396
 11
87.38949786226722
 21
-135.3493611315272
 72
     1
 10
87.38949786226722
 20
-135.3493611315272
 11
86.9790147351997
 21
-135.3493611315272
 72
     1
 10
86.9790147351997
 20
-135.3493611315272
 11
86.9790147351997
 21
-135.1950208537881
 72
     1
 10
86.9790147351997
 20
-135.1950208537881
 11
87.38949786226722
 21
-135.1950208537881
 72
     1
 10
87.38949786226722
 20
-135.1950208537881
 11
87.38949786226722
 21
-135.025694410688
 72
     1
 10
87.38949786226722
 20
-135.025694410688
 11
87.04033743483714
 21
-135.025694410688
 72
     1
 10
87.04033743483714
 20
-135.025694410688
 11
87.04033743483714
 21
-134.2133408952661
 72
     1
 10
87.04033743483714
 20
-134.2133408952661
 11
87.38949786226722
 21
-134.2133408952661
 72
     1
 10
87.38949786226722
 20
-134.2133408952661
 11
87.38949786226722
 21
-134.0590006175269
 72
     1
 10
87.38949786226722
 20
-134.0590006175269
 11
87.00020207243398
 21
-134.0590006175269
 72
     1
 10
87.00020207243398
 20
-134.0590006175269
 11
87.00020207243398
 21
-133.9044880850135
 72
     1
 10
87.00020207243398
 20
-133.9044880850135
 11
87.38949786226722
 21
-133.9044880850135
 97
        0
 92
        1
 93
        4
 72
     1
 10
87.38949786226722
 20
-134.353039517193
 11
87.18210311405517
 21
-134.353039517193
 72
     1
 10
87.18210311405517
 20
-134.353039517193
 11
87.18210311405517
 21
-134.5561278960485
 72
     1
 10
87.18210311405517
 20
-134.5561278960485
 11
87.38949786226722
 21
-134.5561278960485
 72
     1
 10
87.38949786226722
 20
-134.5561278960485
 11
87.38949786226722
 21
-134.353039517193
 97
        0
 92
        1
 93
        4
 72
     1
 10
87.38949786226722
 20
-134.6787732953234
 11
87.18210311405517
 21
-134.6787732953234
 72
     1
 10
87.18210311405517
 20
-134.6787732953234
 11
87.18210311405517
 21
-134.8861680435354
 72
     1
 10
87.18210311405517
 20
-134.8861680435354
 11
87.38949786226722
 21
-134.8861680435354
 72
     1
 10
87.38949786226722
 20
-134.8861680435354
 11
87.38949786226722
 21
-134.6787732953234
 97
        0
 92
        1
 93
        4
 72
     1
 10
87.75536700280074
 20
-134.353039517193
 11
87.5438381400064
 21
-134.353039517193
 72
     1
 10
87.5438381400064
 20
-134.353039517193
 11
87.5438381400064
 21
-134.5561278960485
 72
     1
 10
87.5438381400064
 20
-134.5561278960485
 11
87.75536700280074
 21
-134.5561278960485
 72
     1
 10
87.75536700280074
 20
-134.5561278960485
 11
87.75536700280074
 21
-134.353039517193
 97
        0
 92
        1
 93
        4
 72
     1
 10
87.75536700280074
 20
-134.6787732953234
 11
87.5438381400064
 21
-134.6787732953234
 72
     1
 10
87.5438381400064
 20
-134.6787732953234
 11
87.5438381400064
 21
-134.8861680435354
 72
     1
 10
87.5438381400064
 20
-134.8861680435354
 11
87.75536700280074
 21
-134.8861680435354
 72
     1
 10
87.75536700280074
 20
-134.8861680435354
 11
87.75536700280074
 21
-134.6787732953234
 97
        0
 92
        1
 93
        1
 72
     4
 94
        3
 73
     0
 74
     1
 95
       38
 96
       34
 40
0.0
 40
0.0
 40
0.0
 40
0.0
 40
1.0
 40
1.0
 40
1.0
 40
2.0
 40
2.0
 40
2.0
 40
3.0
 40
3.0
 40
3.0
 40
4.0
 40
4.0
 40
4.0
 40
5.0
 40
5.0
 40
5.0
 40
6.0
 40
6.0
 40
6.0
 40
7.0
 40
7.0
 40
7.0
 40
8.0
 40
8.0
 40
8.0
 40
9.0
 40
9.0
 40
9.0
 40
10.0
 40
10.0
 40
10.0
 40
11.0
 40
11.0
 40
11.0
 40
11.0
 10
87.79774167726931
 20
-135.5672634209693
 10
87.88025171414105
 20
-135.5143812052707
 10
88.04527178788452
 20
-135.4065497165824
 10
88.15103621928169
 20
-135.1991549683704
 10
88.29917532514743
 20
-134.9073553807697
 10
88.29917532514743
 20
-134.6810126073888
 10
88.29917532514743
 20
-134.5962632584516
 10
88.29917532514743
 20
-134.5962632584516
 10
88.29917532514743
 20
-134.3614800011319
 10
88.29917532514743
 20
-134.3614800011319
 10
88.29917532514743
 20
-134.3614800011319
 10
88.4641953988909
 20
-134.3614800011319
 10
88.4641953988909
 20
-134.3614800011319
 10
88.4641953988909
 20
-134.3614800011319
 10
88.4641953988909
 20
-134.5878227745128
 10
88.4641953988909
 20
-134.5878227745128
 10
88.4641953988909
 20
-134.7867770387859
 10
88.52965221311065
 20
-135.0236273533969
 10
88.63128252992551
 20
-135.1970879110792
 10
88.7475545025527
 20
-135.3960421753524
 10
88.8765733284753
 20
-135.4954331801019
 10
88.96132267741245
 20
-135.5567558797393
 10
88.96132267741245
 20
-135.5567558797393
 10
88.85331893394986
 20
-135.7069620428962
 10
88.85331893394986
 20
-135.7069620428962
 10
88.67572426168525
 20
-135.5779432169736
 10
88.47676999741206
 20
-135.3388535902972
 10
88.3985663298969
 20
-134.9855590482849
 10
88.33293726090288
 20
-135.2246486749612
 10
88.23147919886227
 20
-135.4933661228107
 10
87.92262638860963
 20
-135.7026556735396
 10
87.92262638860963
 20
-135.7026556735396
 10
87.79774167726931
 20
-135.5672634209693
 10
87.79774167726931
 20
-135.5672634209693
 97
        0
 97
        0
 92
        1
 93
        1
 72
     4
 94
        3
 73
     0
 74
     1
 95
       38
 96
       34
 40
0.0
 40
0.0
 40
0.0
 40
0.0
 40
1.0
 40
1.0
 40
1.0
 40
2.0
 40
2.0
 40
2.0
 40
3.0
 40
3.0
 40
3.0
 40
4.0
 40
4.0
 40
4.0
 40
5.0
 40
5.0
 40
5.0
 40
6.0
 40
6.0
 40
6.0
 40
7.0
 40
7.0
 40
7.0
 40
8.0
 40
8.0
 40
8.0
 40
9.0
 40
9.0
 40
9.0
 40
10.0
 40
10.0
 40
10.0
 40
11.0
 40
11.0
 40
11.0
 40
11.0
 10
87.91194659260535
 20
-134.494805196411
 10
88.00513642548135
 20
-134.3719875423619
 10
88.1298488820474
 20
-134.1923258128061
 10
88.22510577221456
 20
-133.7437743806266
 10
88.22510577221456
 20
-133.7437743806266
 10
88.39219290324918
 20
-133.7627224057954
 10
88.39219290324918
 20
-133.7627224057954
 10
88.36687145143259
 20
-133.8833007477792
 10
88.34361705690715
 20
-133.974423523364
 10
88.30537649702089
 20
-134.0822550120524
 10
88.30537649702089
 20
-134.0822550120524
 10
88.93376191353045
 20
-134.0822550120524
 10
88.93376191353045
 20
-134.0822550120524
 10
88.93376191353045
 20
-134.0822550120524
 10
88.93376191353045
 20
-134.2345282325004
 10
88.93376191353045
 20
-134.2345282325004
 10
88.89999997777501
 20
-134.3762939117184
 10
88.80474308760785
 20
-134.6343315635636
 10
88.73067353467498
 20
-134.7528428482563
 10
88.73067353467498
 20
-134.7528428482563
 10
88.57840031422693
 20
-134.6746391807411
 10
88.57840031422693
 20
-134.6746391807411
 10
88.67348494961983
 20
-134.5392469281707
 10
88.73911401861383
 20
-134.3509724599018
 10
88.76667478249584
 20
-134.2409016591481
 10
88.76667478249584
 20
-134.2409016591481
 10
88.24836016674
 20
-134.2409016591481
 10
88.24836016674
 20
-134.2409016591481
 10
88.14896916199054
 20
-134.4820583431156
 10
88.07489960905767
 20
-134.5709418066351
 10
88.03683130394566
 20
-134.6153835383948
 10
88.03683130394566
 20
-134.6153835383948
 10
87.91194659260535
 20
-134.494805196411
 10
87.91194659260535
 20
-134.494805196411
 97
        0
 97
        0
 75
     2
 76
     1
 98
        0
  0
SPLINE
  5
173
330
131
100
AcDbEntity
  8
_U+30EC_U+30A4_U+30E4_U+30FC 1
370
     0
100
AcDbSpline
210
0.0
220
0.0
230
1.0
 70
    11
 71
     3
 72
    50
 73
    46
 74
     0
 42
0.0000000001
 43
0.0000000001
 12
1.0
 22
0.0
 32
0.0
 13
1.0
 23
0.0
 33
0.0
 40
0.0
 40
0.0
 40
0.0
 40
0.0
 40
1.0
 40
1.0
 40
1.0
 40
2.0
 40
2.0
 40
2.0
 40
3.0
 40
3.0
 40
3.0
 40
4.0
 40
4.0
 40
4.0
 40
5.0
 40
5.0
 40
5.0
 40
6.0
 40
6.0
 40
6.0
 40
7.0
 40
7.0
 40
7.0
 40
8.0
 40
8.0
 40
8.0
 40
9.0
 40
9.0
 40
9.0
 40
10.0
 40
10.0
 40
10.0
 40
11.0
 40
11.0
 40
11.0
 40
12.0
 40
12.0
 40
12.0
 40
13.0
 40
13.0
 40
13.0
 40
14.0
 40
14.0
 40
14.0
 40
15.0
 40
15.0
 40
15.0
 40
15.0
 10
89.40660126888099
 20
-134.0421196496492
 30
0.0
 10
89.40660126888099
 20
-134.0421196496492
 30
0.0
 10
90.058241079916
 20
-134.0421196496492
 30
0.0
 10
90.058241079916
 20
-134.0421196496492
 30
0.0
 10
90.058241079916
 20
-134.0421196496492
 30
0.0
 10
90.058241079916
 20
-134.1668321062153
 30
0.0
 10
90.058241079916
 20
-134.1668321062153
 30
0.0
 10
90.058241079916
 20
-134.1668321062153
 30
0.0
 10
89.78108314812765
 20
-134.1668321062153
 30
0.0
 10
89.78108314812765
 20
-134.1668321062153
 30
0.0
 10
89.78108314812765
 20
-134.1668321062153
 30
0.0
 10
89.78108314812765
 20
-134.4419229807124
 30
0.0
 10
89.78108314812765
 20
-134.4419229807124
 30
0.0
 10
89.78108314812765
 20
-134.4419229807124
 30
0.0
 10
89.62036944374074
 20
-134.4419229807124
 30
0.0
 10
89.62036944374074
 20
-134.4419229807124
 30
0.0
 10
89.62036944374074
 20
-134.4419229807124
 30
0.0
 10
89.62036944374074
 20
-134.1668321062153
 30
0.0
 10
89.62036944374074
 20
-134.1668321062153
 30
0.0
 10
89.62036944374074
 20
-134.1668321062153
 30
0.0
 10
89.40040009700755
 20
-134.1668321062153
 30
0.0
 10
89.40040009700755
 20
-134.1668321062153
 30
0.0
 10
89.38972030100327
 20
-134.2365952897916
 30
0.0
 10
89.36439884918668
 20
-134.4312431847082
 30
0.0
 10
89.20988631667322
 20
-134.5814493478651
 30
0.0
 10
89.20988631667322
 20
-134.5814493478651
 30
0.0
 10
89.08724091739833
 20
-134.4715508018856
 30
0.0
 10
89.08724091739833
 20
-134.4715508018856
 30
0.0
 10
89.20781925938208
 20
-134.3719875423619
 30
0.0
 10
89.25019393385065
 20
-134.1668321062153
 30
0.0
 10
89.25019393385065
 20
-134.0843220693435
 30
0.0
 10
89.25019393385065
 20
-134.0843220693435
 30
0.0
 10
89.25019393385065
 20
-133.7987236536163
 30
0.0
 10
89.25019393385065
 20
-133.7987236536163
 30
0.0
 10
89.73457435907677
 20
-133.7987236536163
 30
0.0
 10
89.88908689159024
 20
-133.7522148645654
 30
0.0
 10
89.98417152698313
 20
-133.7246541006834
 30
0.0
 10
89.98417152698313
 20
-133.7246541006834
 30
0.0
 10
90.0370537426817
 20
-133.8643527226103
 30
0.0
 10
90.0370537426817
 20
-133.8643527226103
 30
0.0
 10
89.82759193717852
 20
-133.9129285689523
 30
0.0
 10
89.66481117550047
 20
-133.9236083649566
 30
0.0
 10
89.40660126888099
 20
-133.9277424795389
 30
0.0
 10
89.40660126888099
 20
-133.9277424795389
 30
0.0
 10
89.40660126888099
 20
-134.0421196496492
 30
0.0
 10
89.40660126888099
 20
-134.0421196496492
 30
0.0
  0
SPLINE
  5
174
330
131
100
AcDbEntity
  8
_U+30EC_U+30A4_U+30E4_U+30FC 1
370
     0
100
AcDbSpline
210
0.0
220
0.0
230
1.0
 70
    11
 71
     3
 72
    32
 73
    28
 74
     0
 42
0.0000000001
 43
0.0000000001
 12
1.0
 22
0.0
 32
0.0
 13
1.0
 23
0.0
 33
0.0
 40
0.0
 40
0.0
 40
0.0
 40
0.0
 40
1.0
 40
1.0
 40
1.0
 40
2.0
 40
2.0
 40
2.0
 40
3.0
 40
3.0
 40
3.0
 40
4.0
 40
4.0
 40
4.0
 40
5.0
 40
5.0
 40
5.0
 40
6.0
 40
6.0
 40
6.0
 40
7.0
 40
7.0
 40
7.0
 40
8.0
 40
8.0
 40
8.0
 40
9.0
 40
9.0
 40
9.0
 40
9.0
 10
89.32202417471811
 20
-135.3874294366393
 30
0.0
 10
89.32202417471811
 20
-135.3874294366393
 30
0.0
 10
89.32202417471811
 20
-134.4884317697633
 30
0.0
 10
89.32202417471811
 20
-134.4884317697633
 30
0.0
 10
89.32202417471811
 20
-134.4884317697633
 30
0.0
 10
90.81977943693047
 20
-134.4884317697633
 30
0.0
 10
90.81977943693047
 20
-134.4884317697633
 30
0.0
 10
90.81977943693047
 20
-134.4884317697633
 30
0.0
 10
90.81977943693047
 20
-135.3874294366393
 30
0.0
 10
90.81977943693047
 20
-135.3874294366393
 30
0.0
 10
90.81977943693047
 20
-135.3874294366393
 30
0.0
 10
89.67531871673047
 20
-135.3874294366393
 30
0.0
 10
89.67531871673047
 20
-135.3874294366393
 30
0.0
 10
89.67531871673047
 20
-135.3874294366393
 30
0.0
 10
89.78108314812765
 20
-135.497500237393
 30
0.0
 10
89.78108314812765
 20
-135.497500237393
 30
0.0
 10
89.61606307438419
 20
-135.5927571275602
 30
0.0
 10
89.45104300064071
 20
-135.6540798271976
 30
0.0
 10
89.15493704368349
 20
-135.704894985605
 30
0.0
 10
89.15493704368349
 20
-135.704894985605
 30
0.0
 10
89.08930797468948
 20
-135.5524495103827
 30
0.0
 10
89.08930797468948
 20
-135.5524495103827
 30
0.0
 10
89.4680962232927
 20
-135.4995672946841
 30
0.0
 10
89.59074162256759
 20
-135.431871168399
 30
0.0
 10
89.67118460214817
 20
-135.3874294366393
 30
0.0
 10
89.67118460214817
 20
-135.3874294366393
 30
0.0
 10
89.32202417471811
 20
-135.3874294366393
 30
0.0
 10
89.32202417471811
 20
-135.3874294366393
 30
0.0
  0
POLYLINE
  5
175
330
131
100
AcDbEntity
  8
_U+30EC_U+30A4_U+30E4_U+30FC 1
370
     0
100
AcDb2dPolyline
 66
     1
 10
0.0
 20
0.0
 30
0.0
  0
VERTEX
  5
176
330
175
100
AcDbEntity
  8
_U+30EC_U+30A4_U+30E4_U+30FC 1
370
     0
100
AcDbVertex
100
AcDb2dVertex
 10
90.65062524860471
 20
-134.6217569650425
 30
0.0
  0
VERTEX
  5
177
330
175
100
AcDbEntity
  8
_U+30EC_U+30A4_U+30E4_U+30FC 1
370
     0
100
AcDbVertex
100
AcDb2dVertex
 10
89.49135061781814
 20
-134.6217569650425
 30
0.0
  0
VERTEX
  5
178
330
175
100
AcDbEntity
  8
_U+30EC_U+30A4_U+30E4_U+30FC 1
370
     0
100
AcDbVertex
100
AcDb2dVertex
 10
89.49135061781814
 20
-134.7507757909651
 30
0.0
  0
VERTEX
  5
179
330
175
100
AcDbEntity
  8
_U+30EC_U+30A4_U+30E4_U+30FC 1
370
     0
100
AcDbVertex
100
AcDb2dVertex
 10
90.65062524860471
 20
-134.7507757909651
 30
0.0
  0
VERTEX
  5
17A
330
175
100
AcDbEntity
  8
_U+30EC_U+30A4_U+30E4_U+30FC 1
370
     0
100
AcDbVertex
100
AcDb2dVertex
 10
90.65062524860471
 20
-134.6217569650425
 30
0.0
  0
SEQEND
  5
17B
330
175
100
AcDbEntity
  8
_U+30EC_U+30A4_U+30E4_U+30FC 1
370
     0
  0
POLYLINE
  5
17C
330
131
100
AcDbEntity
  8
_U+30EC_U+30A4_U+30E4_U+30FC 1
370
     0
100
AcDb2dPolyline
 66
     1
 10
0.0
 20
0.0
 30
0.0
  0
VERTEX
  5
17D
330
17C
100
AcDbEntity
  8
_U+30EC_U+30A4_U+30E4_U+30FC 1
370
     0
100
AcDbVertex
100
AcDb2dVertex
 10
90.65062524860471
 20
-134.8606743369446
 30
0.0
  0
VERTEX
  5
17E
330
17C
100
AcDbEntity
  8
_U+30EC_U+30A4_U+30E4_U+30FC 1
370
     0
100
AcDbVertex
100
AcDb2dVertex
 10
89.49135061781814
 20
-134.8606743369446
 30
0.0
  0
VERTEX
  5
17F
330
17C
100
AcDbEntity
  8
_U+30EC_U+30A4_U+30E4_U+30FC 1
370
     0
100
AcDbVertex
100
AcDb2dVertex
 10
89.49135061781814
 20
-135.0024400161626
 30
0.0
  0
VERTEX
  5
180
330
17C
100
AcDbEntity
  8
_U+30EC_U+30A4_U+30E4_U+30FC 1
370
     0
100
AcDbVertex
100
AcDb2dVertex
 10
90.65062524860471
 20
-135.0024400161626
 30
0.0
  0
VERTEX
  5
181
330
17C
100
AcDbEntity
  8
_U+30EC_U+30A4_U+30E4_U+30FC 1
370
     0
100
AcDbVertex
100
AcDb2dVertex
 10
90.65062524860471
 20
-134.8606743369446
 30
0.0
  0
SEQEND
  5
182
330
17C
100
AcDbEntity
  8
_U+30EC_U+30A4_U+30E4_U+30FC 1
370
     0
  0
POLYLINE
  5
183
330
131
100
AcDbEntity
  8
_U+30EC_U+30A4_U+30E4_U+30FC 1
370
     0
100
AcDb2dPolyline
 66
     1
 10
0.0
 20
0.0
 30
0.0
  0
VERTEX
  5
184
330
183
100
AcDbEntity
  8
_U+30EC_U+30A4_U+30E4_U+30FC 1
370
     0
100
AcDbVertex
100
AcDb2dVertex
 10
90.65062524860471
 20
-135.1125108169163
 30
0.0
  0
VERTEX
  5
185
330
183
100
AcDbEntity
  8
_U+30EC_U+30A4_U+30E4_U+30FC 1
370
     0
100
AcDbVertex
100
AcDb2dVertex
 10
89.49135061781814
 20
-135.1125108169163
 30
0.0
  0
VERTEX
  5
186
330
183
100
AcDbEntity
  8
_U+30EC_U+30A4_U+30E4_U+30FC 1
370
     0
100
AcDbVertex
100
AcDb2dVertex
 10
89.49135061781814
 20
-135.2520371840689
 30
0.0
  0
VERTEX
  5
187
330
183
100
AcDbEntity
  8
_U+30EC_U+30A4_U+30E4_U+30FC 1
370
     0
100
AcDbVertex
100
AcDb2dVertex
 10
90.65062524860471
 20
-135.2520371840689
 30
0.0
  0
VERTEX
  5
188
330
183
100
AcDbEntity
  8
_U+30EC_U+30A4_U+30E4_U+30FC 1
370
     0
100
AcDbVertex
100
AcDb2dVertex
 10
90.65062524860471
 20
-135.1125108169163
 30
0.0
  0
SEQEND
  5
189
330
183
100
AcDbEntity
  8
_U+30EC_U+30A4_U+30E4_U+30FC 1
370
     0
  0
SPLINE
  5
18A
330
131
100
AcDbEntity
  8
_U+30EC_U+30A4_U+30E4_U+30FC 1
370
     0
100
AcDbSpline
210
0.0
220
0.0
230
1.0
 70
    11
 71
     3
 72
    50
 73
    46
 74
     0
 42
0.0000000001
 43
0.0000000001
 12
1.0
 22
0.0
 32
0.0
 13
1.0
 23
0.0
 33
0.0
 40
0.0
 40
0.0
 40
0.0
 40
0.0
 40
1.0
 40
1.0
 40
1.0
 40
2.0
 40
2.0
 40
2.0
 40
3.0
 40
3.0
 40
3.0
 40
4.0
 40
4.0
 40
4.0
 40
5.0
 40
5.0
 40
5.0
 40
6.0
 40
6.0
 40
6.0
 40
7.0
 40
7.0
 40
7.0
 40
8.0
 40
8.0
 40
8.0
 40
9.0
 40
9.0
 40
9.0
 40
10.0
 40
10.0
 40
10.0
 40
11.0
 40
11.0
 40
11.0
 40
12.0
 40
12.0
 40
12.0
 40
13.0
 40
13.0
 40
13.0
 40
14.0
 40
14.0
 40
14.0
 40
15.0
 40
15.0
 40
15.0
 40
15.0
 10
90.31421167447006
 20
-134.0421196496492
 30
0.0
 10
90.31421167447006
 20
-134.0421196496492
 30
0.0
 10
91.05042857966795
 20
-134.0421196496492
 30
0.0
 10
91.05042857966795
 20
-134.0421196496492
 30
0.0
 10
91.05042857966795
 20
-134.0421196496492
 30
0.0
 10
91.05042857966795
 20
-134.1668321062153
 30
0.0
 10
91.05042857966795
 20
-134.1668321062153
 30
0.0
 10
91.05042857966795
 20
-134.1668321062153
 30
0.0
 10
90.72038843218102
 20
-134.1668321062153
 30
0.0
 10
90.72038843218102
 20
-134.1668321062153
 30
0.0
 10
90.72038843218102
 20
-134.1668321062153
 30
0.0
 10
90.72038843218102
 20
-134.4419229807124
 30
0.0
 10
90.72038843218102
 20
-134.4419229807124
 30
0.0
 10
90.72038843218102
 20
-134.4419229807124
 30
0.0
 10
90.56380884237642
 20
-134.4419229807124
 30
0.0
 10
90.56380884237642
 20
-134.4419229807124
 30
0.0
 10
90.56380884237642
 20
-134.4419229807124
 30
0.0
 10
90.56380884237642
 20
-134.1668321062153
 30
0.0
 10
90.56380884237642
 20
-134.1668321062153
 30
0.0
 10
90.56380884237642
 20
-134.1668321062153
 30
0.0
 10
90.29939776388349
 20
-134.1668321062153
 30
0.0
 10
90.29939776388349
 20
-134.1668321062153
 30
0.0
 10
90.2740763120669
 20
-134.2958509321379
 30
0.0
 10
90.22326115365946
 20
-134.3868014529484
 30
0.0
 10
90.12593720620116
 20
-134.4693114898202
 30
0.0
 10
90.12593720620116
 20
-134.4693114898202
 30
0.0
 10
90.00329180692627
 20
-134.3614800011319
 30
0.0
 10
90.00329180692627
 20
-134.3614800011319
 30
0.0
 10
90.13868405949658
 20
-134.2514092003781
 30
0.0
 10
90.16193845402202
 20
-134.1139498905167
 30
0.0
 10
90.16193845402202
 20
-134.0398803375838
 30
0.0
 10
90.16193845402202
 20
-134.0398803375838
 30
0.0
 10
90.16193845402202
 20
-133.7966565963251
 30
0.0
 10
90.16193845402202
 20
-133.7966565963251
 30
0.0
 10
90.63150496866157
 20
-133.7966565963251
 30
0.0
 10
90.79876435447045
 20
-133.756521233922
 30
0.0
 10
90.94259709097963
 20
-133.7141465594534
 30
0.0
 10
90.94259709097963
 20
-133.7141465594534
 30
0.0
 10
91.00185273332593
 20
-133.8516058693149
 30
0.0
 10
91.00185273332593
 20
-133.8516058693149
 30
0.0
 10
90.7310682281853
 20
-133.9215413076654
 30
0.0
 10
90.41584199128494
 20
-133.9256754222478
 30
0.0
 10
90.31421167447006
 20
-133.9256754222478
 30
0.0
 10
90.31421167447006
 20
-133.9256754222478
 30
0.0
 10
90.31421167447006
 20
-134.0421196496492
 30
0.0
 10
90.31421167447006
 20
-134.0421196496492
 30
0.0
  0
SPLINE
  5
18B
330
131
100
AcDbEntity
  8
_U+30EC_U+30A4_U+30E4_U+30FC 1
370
     0
100
AcDbSpline
210
0.0
220
0.0
230
1.0
 70
    11
 71
     3
 72
    17
 73
    13
 74
     0
 42
0.0000000001
 43
0.0000000001
 12
1.0
 22
0.0
 32
0.0
 13
1.0
 23
0.0
 33
0.0
 40
0.0
 40
0.0
 40
0.0
 40
0.0
 40
1.0
 40
1.0
 40
1.0
 40
2.0
 40
2.0
 40
2.0
 40
3.0
 40
3.0
 40
3.0
 40
4.0
 40
4.0
 40
4.0
 40
4.0
 10
90.42634953251495
 20
-135.393802863287
 30
0.0
 10
90.64631887924814
 20
-135.5059407213319
 30
0.0
 10
90.91296926980648
 20
-135.5440090264439
 30
0.0
 10
91.0419880957291
 20
-135.5546888224481
 30
0.0
 10
91.0419880957291
 20
-135.5546888224481
 30
0.0
 10
90.97222491215278
 20
-135.7090291001873
 30
0.0
 10
90.97222491215278
 20
-135.7090291001873
 30
0.0
 10
90.85164657016904
 20
-135.6942151896008
 30
0.0
 10
90.58930254896727
 20
-135.6540798271976
 30
0.0
 10
90.32489147047434
 20
-135.508007778623
 30
0.0
 10
90.32489147047434
 20
-135.508007778623
 30
0.0
 10
90.42634953251495
 20
-135.393802863287
 30
0.0
 10
90.42634953251495
 20
-135.393802863287
 30
0.0
  0
HATCH
  5
18C
330
131
100
AcDbEntity
  8
_U+30EC_U+30A4_U+30E4_U+30FC 1
 62
    12
420
 15007761
100
AcDbHatch
 10
0.0
 20
0.0
 30
0.0
210
0.0
220
0.0
230
1.0
  2
SOLID
 70
     1
 71
     0
 91
        7
 92
        1
 93
        1
 72
     4
 94
        3
 73
     0
 74
     1
 95
       50
 96
       46
 40
0.0
 40
0.0
 40
0.0
 40
0.0
 40
1.0
 40
1.0
 40
1.0
 40
2.0
 40
2.0
 40
2.0
 40
3.0
 40
3.0
 40
3.0
 40
4.0
 40
4.0
 40
4.0
 40
5.0
 40
5.0
 40
5.0
 40
6.0
 40
6.0
 40
6.0
 40
7.0
 40
7.0
 40
7.0
 40
8.0
 40
8.0
 40
8.0
 40
9.0
 40
9.0
 40
9.0
 40
10.0
 40
10.0
 40
10.0
 40
11.0
 40
11.0
 40
11.0
 40
12.0
 40
12.0
 40
12.0
 40
13.0
 40
13.0
 40
13.0
 40
14.0
 40
14.0
 40
14.0
 40
15.0
 40
15.0
 40
15.0
 40
15.0
 10
89.40660126888099
 20
-134.0421196496492
 10
89.40660126888099
 20
-134.0421196496492
 10
90.058241079916
 20
-134.0421196496492
 10
90.058241079916
 20
-134.0421196496492
 10
90.058241079916
 20
-134.0421196496492
 10
90.058241079916
 20
-134.1668321062153
 10
90.058241079916
 20
-134.1668321062153
 10
90.058241079916
 20
-134.1668321062153
 10
89.78108314812765
 20
-134.1668321062153
 10
89.78108314812765
 20
-134.1668321062153
 10
89.78108314812765
 20
-134.1668321062153
 10
89.78108314812765
 20
-134.4419229807124
 10
89.78108314812765
 20
-134.4419229807124
 10
89.78108314812765
 20
-134.4419229807124
 10
89.62036944374074
 20
-134.4419229807124
 10
89.62036944374074
 20
-134.4419229807124
 10
89.62036944374074
 20
-134.4419229807124
 10
89.62036944374074
 20
-134.1668321062153
 10
89.62036944374074
 20
-134.1668321062153
 10
89.62036944374074
 20
-134.1668321062153
 10
89.40040009700755
 20
-134.1668321062153
 10
89.40040009700755
 20
-134.1668321062153
 10
89.38972030100327
 20
-134.2365952897916
 10
89.36439884918668
 20
-134.4312431847082
 10
89.20988631667322
 20
-134.5814493478651
 10
89.20988631667322
 20
-134.5814493478651
 10
89.08724091739833
 20
-134.4715508018856
 10
89.08724091739833
 20
-134.4715508018856
 10
89.20781925938208
 20
-134.3719875423619
 10
89.25019393385065
 20
-134.1668321062153
 10
89.25019393385065
 20
-134.0843220693435
 10
89.25019393385065
 20
-134.0843220693435
 10
89.25019393385065
 20
-133.7987236536163
 10
89.25019393385065
 20
-133.7987236536163
 10
89.73457435907677
 20
-133.7987236536163
 10
89.88908689159024
 20
-133.7522148645654
 10
89.98417152698313
 20
-133.7246541006834
 10
89.98417152698313
 20
-133.7246541006834
 10
90.0370537426817
 20
-133.8643527226103
 10
90.0370537426817
 20
-133.8643527226103
 10
89.82759193717852
 20
-133.9129285689523
 10
89.66481117550047
 20
-133.9236083649566
 10
89.40660126888099
 20
-133.9277424795389
 10
89.40660126888099
 20
-133.9277424795389
 10
89.40660126888099
 20
-134.0421196496492
 10
89.40660126888099
 20
-134.0421196496492
 97
        0
 97
        0
 92
        1
 93
        1
 72
     4
 94
        3
 73
     0
 74
     1
 95
       32
 96
       28
 40
0.0
 40
0.0
 40
0.0
 40
0.0
 40
1.0
 40
1.0
 40
1.0
 40
2.0
 40
2.0
 40
2.0
 40
3.0
 40
3.0
 40
3.0
 40
4.0
 40
4.0
 40
4.0
 40
5.0
 40
5.0
 40
5.0
 40
6.0
 40
6.0
 40
6.0
 40
7.0
 40
7.0
 40
7.0
 40
8.0
 40
8.0
 40
8.0
 40
9.0
 40
9.0
 40
9.0
 40
9.0
 10
89.32202417471811
 20
-135.3874294366393
 10
89.32202417471811
 20
-135.3874294366393
 10
89.32202417471811
 20
-134.4884317697633
 10
89.32202417471811
 20
-134.4884317697633
 10
89.32202417471811
 20
-134.4884317697633
 10
90.81977943693047
 20
-134.4884317697633
 10
90.81977943693047
 20
-134.4884317697633
 10
90.81977943693047
 20
-134.4884317697633
 10
90.81977943693047
 20
-135.3874294366393
 10
90.81977943693047
 20
-135.3874294366393
 10
90.81977943693047
 20
-135.3874294366393
 10
89.67531871673047
 20
-135.3874294366393
 10
89.67531871673047
 20
-135.3874294366393
 10
89.67531871673047
 20
-135.3874294366393
 10
89.78108314812765
 20
-135.497500237393
 10
89.78108314812765
 20
-135.497500237393
 10
89.61606307438419
 20
-135.5927571275602
 10
89.45104300064071
 20
-135.6540798271976
 10
89.15493704368349
 20
-135.704894985605
 10
89.15493704368349
 20
-135.704894985605
 10
89.08930797468948
 20
-135.5524495103827
 10
89.08930797468948
 20
-135.5524495103827
 10
89.4680962232927
 20
-135.4995672946841
 10
89.59074162256759
 20
-135.431871168399
 10
89.67118460214817
 20
-135.3874294366393
 10
89.67118460214817
 20
-135.3874294366393
 10
89.32202417471811
 20
-135.3874294366393
 10
89.32202417471811
 20
-135.3874294366393
 97
        0
 97
        0
 92
        1
 93
        4
 72
     1
 10
90.65062524860471
 20
-134.6217569650425
 11
89.49135061781814
 21
-134.6217569650425
 72
     1
 10
89.49135061781814
 20
-134.6217569650425
 11
89.49135061781814
 21
-134.7507757909651
 72
     1
 10
89.49135061781814
 20
-134.7507757909651
 11
90.65062524860471
 21
-134.7507757909651
 72
     1
 10
90.65062524860471
 20
-134.7507757909651
 11
90.65062524860471
 21
-134.6217569650425
 97
        0
 92
        1
 93
        4
 72
     1
 10
90.65062524860471
 20
-134.8606743369446
 11
89.49135061781814
 21
-134.8606743369446
 72
     1
 10
89.49135061781814
 20
-134.8606743369446
 11
89.49135061781814
 21
-135.0024400161626
 72
     1
 10
89.49135061781814
 20
-135.0024400161626
 11
90.65062524860471
 21
-135.0024400161626
 72
     1
 10
90.65062524860471
 20
-135.0024400161626
 11
90.65062524860471
 21
-134.8606743369446
 97
        0
 92
        1
 93
        4
 72
     1
 10
90.65062524860471
 20
-135.1125108169163
 11
89.49135061781814
 21
-135.1125108169163
 72
     1
 10
89.49135061781814
 20
-135.1125108169163
 11
89.49135061781814
 21
-135.2520371840689
 72
     1
 10
89.49135061781814
 20
-135.2520371840689
 11
90.65062524860471
 21
-135.2520371840689
 72
     1
 10
90.65062524860471
 20
-135.2520371840689
 11
90.65062524860471
 21
-135.1125108169163
 97
        0
 92
        1
 93
        1
 72
     4
 94
        3
 73
     0
 74
     1
 95
       50
 96
       46
 40
0.0
 40
0.0
 40
0.0
 40
0.0
 40
1.0
 40
1.0
 40
1.0
 40
2.0
 40
2.0
 40
2.0
 40
3.0
 40
3.0
 40
3.0
 40
4.0
 40
4.0
 40
4.0
 40
5.0
 40
5.0
 40
5.0
 40
6.0
 40
6.0
 40
6.0
 40
7.0
 40
7.0
 40
7.0
 40
8.0
 40
8.0
 40
8.0
 40
9.0
 40
9.0
 40
9.0
 40
10.0
 40
10.0
 40
10.0
 40
11.0
 40
11.0
 40
11.0
 40
12.0
 40
12.0
 40
12.0
 40
13.0
 40
13.0
 40
13.0
 40
14.0
 40
14.0
 40
14.0
 40
15.0
 40
15.0
 40
15.0
 40
15.0
 10
90.31421167447006
 20
-134.0421196496492
 10
90.31421167447006
 20
-134.0421196496492
 10
91.05042857966795
 20
-134.0421196496492
 10
91.05042857966795
 20
-134.0421196496492
 10
91.05042857966795
 20
-134.0421196496492
 10
91.05042857966795
 20
-134.1668321062153
 10
91.05042857966795
 20
-134.1668321062153
 10
91.05042857966795
 20
-134.1668321062153
 10
90.72038843218102
 20
-134.1668321062153
 10
90.72038843218102
 20
-134.1668321062153
 10
90.72038843218102
 20
-134.1668321062153
 10
90.72038843218102
 20
-134.4419229807124
 10
90.72038843218102
 20
-134.4419229807124
 10
90.72038843218102
 20
-134.4419229807124
 10
90.56380884237642
 20
-134.4419229807124
 10
90.56380884237642
 20
-134.4419229807124
 10
90.56380884237642
 20
-134.4419229807124
 10
90.56380884237642
 20
-134.1668321062153
 10
90.56380884237642
 20
-134.1668321062153
 10
90.56380884237642
 20
-134.1668321062153
 10
90.29939776388349
 20
-134.1668321062153
 10
90.29939776388349
 20
-134.1668321062153
 10
90.2740763120669
 20
-134.2958509321379
 10
90.22326115365946
 20
-134.3868014529484
 10
90.12593720620116
 20
-134.4693114898202
 10
90.12593720620116
 20
-134.4693114898202
 10
90.00329180692627
 20
-134.3614800011319
 10
90.00329180692627
 20
-134.3614800011319
 10
90.13868405949658
 20
-134.2514092003781
 10
90.16193845402202
 20
-134.1139498905167
 10
90.16193845402202
 20
-134.0398803375838
 10
90.16193845402202
 20
-134.0398803375838
 10
90.16193845402202
 20
-133.7966565963251
 10
90.16193845402202
 20
-133.7966565963251
 10
90.63150496866157
 20
-133.7966565963251
 10
90.79876435447045
 20
-133.756521233922
 10
90.94259709097963
 20
-133.7141465594534
 10
90.94259709097963
 20
-133.7141465594534
 10
91.00185273332593
 20
-133.8516058693149
 10
91.00185273332593
 20
-133.8516058693149
 10
90.7310682281853
 20
-133.9215413076654
 10
90.41584199128494
 20
-133.9256754222478
 10
90.31421167447006
 20
-133.9256754222478
 10
90.31421167447006
 20
-133.9256754222478
 10
90.31421167447006
 20
-134.0421196496492
 10
90.31421167447006
 20
-134.0421196496492
 97
        0
 97
        0
 92
        1
 93
        1
 72
     4
 94
        3
 73
     0
 74
     1
 95
       17
 96
       13
 40
0.0
 40
0.0
 40
0.0
 40
0.0
 40
1.0
 40
1.0
 40
1.0
 40
2.0
 40
2.0
 40
2.0
 40
3.0
 40
3.0
 40
3.0
 40
4.0
 40
4.0
 40
4.0
 40
4.0
 10
90.42634953251495
 20
-135.393802863287
 10
90.64631887924814
 20
-135.5059407213319
 10
90.91296926980648
 20
-135.5440090264439
 10
91.0419880957291
 20
-135.5546888224481
 10
91.0419880957291
 20
-135.5546888224481
 10
90.97222491215278
 20
-135.7090291001873
 10
90.97222491215278
 20
-135.7090291001873
 10
90.85164657016904
 20
-135.6942151896008
 10
90.58930254896727
 20
-135.6540798271976
 10
90.32489147047434
 20
-135.508007778623
 10
90.32489147047434
 20
-135.508007778623
 10
90.42634953251495
 20
-135.393802863287
 10
90.42634953251495
 20
-135.393802863287
 97
        0
 97
        0
 75
     2
 76
     1
 98
        0
  0
ENDBLK
  5
134
330
131
100
AcDbEntity
  8
0
100
AcDbBlockEnd
  0
BLOCK
  5
19C
330
19A
100
AcDbEntity
  8
0
100
AcDbBlockBegin
  2
block 7
 70
     0
 10
0.0
 20
0.0
 30
0.0
  3
block 7
  1

  0
SPLINE
  5
19E
330
19A
100
AcDbEntity
  8
_U+30EC_U+30A4_U+30E4_U+30FC 1
370
     0
100
AcDbSpline
210
0.0
220
0.0
230
1.0
 70
    11
 71
     3
 72
   242
 73
   238
 74
     0
 42
0.0000000001
 43
0.0000000001
 12
1.0
 22
0.0
 32
0.0
 13
1.0
 23
0.0
 33
0.0
 40
0.0
 40
0.0
 40
0.0
 40
0.0
 40
1.0
 40
1.0
 40
1.0
 40
2.0
 40
2.0
 40
2.0
 40
3.0
 40
3.0
 40
3.0
 40
4.0
 40
4.0
 40
4.0
 40
5.0
 40
5.0
 40
5.0
 40
6.0
 40
6.0
 40
6.0
 40
7.0
 40
7.0
 40
7.0
 40
8.0
 40
8.0
 40
8.0
 40
9.0
 40
9.0
 40
9.0
 40
10.0
 40
10.0
 40
10.0
 40
11.0
 40
11.0
 40
11.0
 40
12.0
 40
12.0
 40
12.0
 40
13.0
 40
13.0
 40
13.0
 40
14.0
 40
14.0
 40
14.0
 40
15.0
 40
15.0
 40
15.0
 40
16.0
 40
16.0
 40
16.0
 40
17.0
 40
17.0
 40
17.0
 40
18.0
 40
18.0
 40
18.0
 40
19.0
 40
19.0
 40
19.0
 40
20.0
 40
20.0
 40
20.0
 40
21.0
 40
21.0
 40
21.0
 40
22.0
 40
22.0
 40
22.0
 40
23.0
 40
23.0
 40
23.0
 40
24.0
 40
24.0
 40
24.0
 40
25.0
 40
25.0
 40
25.0
 40
26.0
 40
26.0
 40
26.0
 40
27.0
 40
27.0
 40
27.0
 40
28.0
 40
28.0
 40
28.0
 40
29.0
 40
29.0
 40
29.0
 40
30.0
 40
30.0
 40
30.0
 40
31.0
 40
31.0
 40
31.0
 40
32.0
 40
32.0
 40
32.0
 40
33.0
 40
33.0
 40
33.0
 40
34.0
 40
34.0
 40
34.0
 40
35.0
 40
35.0
 40
35.0
 40
36.0
 40
36.0
 40
36.0
 40
37.0
 40
37.0
 40
37.0
 40
38.0
 40
38.0
 40
38.0
 40
39.0
 40
39.0
 40
39.0
 40
40.0
 40
40.0
 40
40.0
 40
41.0
 40
41.0
 40
41.0
 40
42.0
 40
42.0
 40
42.0
 40
43.0
 40
43.0
 40
43.0
 40
44.0
 40
44.0
 40
44.0
 40
45.0
 40
45.0
 40
45.0
 40
46.0
 40
46.0
 40
46.0
 40
47.0
 40
47.0
 40
47.0
 40
48.0
 40
48.0
 40
48.0
 40
49.0
 40
49.0
 40
49.0
 40
50.0
 40
50.0
 40
50.0
 40
51.0
 40
51.0
 40
51.0
 40
52.0
 40
52.0
 40
52.0
 40
53.0
 40
53.0
 40
53.0
 40
54.0
 40
54.0
 40
54.0
 40
55.0
 40
55.0
 40
55.0
 40
56.0
 40
56.0
 40
56.0
 40
57.0
 40
57.0
 40
57.0
 40
58.0
 40
58.0
 40
58.0
 40
59.0
 40
59.0
 40
59.0
 40
60.0
 40
60.0
 40
60.0
 40
61.0
 40
61.0
 40
61.0
 40
62.0
 40
62.0
 40
62.0
 40
63.0
 40
63.0
 40
63.0
 40
64.0
 40
64.0
 40
64.0
 40
65.0
 40
65.0
 40
65.0
 40
66.0
 40
66.0
 40
66.0
 40
67.0
 40
67.0
 40
67.0
 40
68.0
 40
68.0
 40
68.0
 40
69.0
 40
69.0
 40
69.0
 40
70.0
 40
70.0
 40
70.0
 40
71.0
 40
71.0
 40
71.0
 40
72.0
 40
72.0
 40
72.0
 40
73.0
 40
73.0
 40
73.0
 40
74.0
 40
74.0
 40
74.0
 40
75.0
 40
75.0
 40
75.0
 40
76.0
 40
76.0
 40
76.0
 40
77.0
 40
77.0
 40
77.0
 40
78.0
 40
78.0
 40
78.0
 40
79.0
 40
79.0
 40
79.0
 40
79.0
 10
110.65991208171
 20
-155.5384819489626
 30
0.0
 10
110.65991208171
 20
-155.5384819489626
 30
0.0
 10
110.4056640348986
 20
-155.5384819489626
 30
0.0
 10
110.4056640348986
 20
-155.5384819489626
 30
0.0
 10
110.4056640348986
 20
-155.5384819489626
 30
0.0
 10
110.1286783578845
 20
-155.5384819489626
 30
0.0
 10
110.1286783578845
 20
-155.5384819489626
 30
0.0
 10
110.1286783578845
 20
-155.5384819489626
 30
0.0
 10
110.2554578717417
 20
-155.5808566234312
 30
0.0
 10
110.2554578717417
 20
-155.5808566234312
 30
0.0
 10
110.266137667746
 20
-155.5849907380135
 30
0.0
 10
110.2788845210414
 20
-155.5911919098869
 30
0.0
 10
110.2788845210414
 20
-155.6039387631824
 30
0.0
 10
110.2788845210414
 20
-155.6252983551909
 30
0.0
 10
110.2471896425771
 20
-155.6314995270644
 30
0.0
 10
110.2258300505685
 20
-155.6356336416466
 30
0.0
 10
110.2154947641128
 20
-155.6590602909463
 30
0.0
 10
110.1858669429397
 20
-155.7245171051661
 30
0.0
 10
110.1665744082222
 20
-155.7689588369258
 30
0.0
 10
110.1665744082222
 20
-155.7689588369258
 30
0.0
 10
110.4373589133629
 20
-155.7689588369258
 30
0.0
 10
110.4373589133629
 20
-155.7689588369258
 30
0.0
 10
110.5283094341735
 20
-155.7689588369258
 30
0.0
 10
110.7253688959298
 20
-155.7648247223435
 30
0.0
 10
110.8669623203735
 20
-155.7562119836304
 30
0.0
 10
110.8669623203735
 20
-155.7562119836304
 30
0.0
 10
110.8669623203735
 20
-155.9339789106693
 30
0.0
 10
110.8669623203735
 20
-155.9339789106693
 30
0.0
 10
110.7846245382761
 20
-155.929844796087
 30
0.0
 10
110.7632649462675
 20
-155.929844796087
 30
0.0
 10
110.5834309619375
 20
-155.9257106815047
 30
0.0
 10
110.5517360834732
 20
-156.0800509592439
 30
0.0
 10
110.5072943517135
 20
-156.1603216840502
 30
0.0
 10
110.4628526199537
 20
-156.2302571224008
 30
0.0
 10
110.5834309619375
 20
-156.2895127647471
 30
0.0
 10
110.6895399028832
 20
-156.357036636258
 30
0.0
 10
110.7928927674407
 20
-156.439718927904
 30
0.0
 10
110.7928927674407
 20
-156.439718927904
 30
0.0
 10
110.6743814827481
 20
-156.6068060589386
 30
0.0
 10
110.6743814827481
 20
-156.6068060589386
 30
0.0
 10
110.6512993429969
 20
-156.5878580337697
 30
0.0
 10
110.6385524897015
 20
-156.5792452950566
 30
0.0
 10
110.5262423768823
 20
-156.4944959461194
 30
0.0
 10
110.4776665305403
 20
-156.4565998957817
 30
0.0
 10
110.4187553977425
 20
-156.4207709027351
 30
0.0
 10
110.3381401633877
 20
-156.3763291709754
 30
0.0
 10
110.1266113005934
 20
-156.5623643271789
 30
0.0
 10
109.9212836096725
 20
-156.5857909764786
 30
0.0
 10
109.6315510793629
 20
-156.6154187976517
 30
0.0
 10
109.6315510793629
 20
-156.6154187976517
 30
0.0
 10
109.5278537052569
 20
-156.4355848133217
 30
0.0
 10
109.5278537052569
 20
-156.4355848133217
 30
0.0
 10
109.8451469994484
 20
-156.4311061891908
 30
0.0
 10
110.0208468691962
 20
-156.4059569921485
 30
0.0
 10
110.1731200896442
 20
-156.2957139366205
 30
0.0
 10
110.0546088049516
 20
-156.2450710329873
 30
0.0
 10
109.9657253414322
 20
-156.2175102691054
 30
0.0
 10
109.9298963483856
 20
-156.2047634158099
 30
0.0
 10
109.9109483232167
 20
-156.2323241796919
 30
0.0
 10
109.8957899030816
 20
-156.2512722048608
 30
0.0
 10
109.8682291391996
 20
-156.2853786501648
 30
0.0
 10
109.8682291391996
 20
-156.2853786501648
 30
0.0
 10
109.6718586965404
 20
-156.2026963585188
 30
0.0
 10
109.6718586965404
 20
-156.2026963585188
 30
0.0
 10
109.7541964786379
 20
-156.1224256337125
 30
0.0
 10
109.8155191782753
 20
-156.026996488771
 30
0.0
 10
109.8727077633304
 20
-155.9257106815047
 30
0.0
 10
109.6821939829961
 20
-155.929844796087
 30
0.0
 10
109.6611789005361
 20
-155.929844796087
 30
0.0
 10
109.5788411184386
 20
-155.9339789106693
 30
0.0
 10
109.5788411184386
 20
-155.9339789106693
 30
0.0
 10
109.5788411184386
 20
-155.7562119836304
 30
0.0
 10
109.5788411184386
 20
-155.7562119836304
 30
0.0
 10
109.7180229760427
 20
-155.7627576650524
 30
0.0
 10
109.9274847815459
 20
-155.7668917796347
 30
0.0
 10
109.9529784881368
 20
-155.7668917796347
 30
0.0
 10
109.970203965563
 20
-155.7331298438792
 30
0.0
 10
110.0249809837785
 20
-155.6125515018955
 30
0.0
 10
110.0439290089474
 20
-155.5384819489626
 30
0.0
 10
110.0249809837785
 20
-155.5384819489626
 30
0.0
 10
109.8475585662881
 20
-155.5446831208361
 30
0.0
 10
109.652566161823
 20
-155.5574299741315
 30
0.0
 10
109.652566161823
 20
-155.5574299741315
 30
0.0
 10
109.652566161823
 20
-155.6907551694107
 30
0.0
 10
109.652566161823
 20
-155.6907551694107
 30
0.0
 10
109.603990315481
 20
-155.7162488760015
 30
0.0
 10
109.5447346731347
 20
-155.7479437544658
 30
0.0
 10
109.4114094778555
 20
-155.8134005686856
 30
0.0
 10
109.4114094778555
 20
-155.8134005686856
 30
0.0
 10
109.4114094778555
 20
-155.9594726172601
 30
0.0
 10
109.4114094778555
 20
-155.9594726172601
 30
0.0
 10
109.4114094778555
 20
-155.9594726172601
 30
0.0
 10
109.4114094778555
 20
-156.4269720746085
 30
0.0
 10
109.4114094778555
 20
-156.4269720746085
 30
0.0
 10
109.4114094778555
 20
-156.5537515884657
 30
0.0
 10
109.3755804848089
 20
-156.613007230812
 30
0.0
 10
109.0920491263728
 20
-156.6047390016474
 30
0.0
 10
109.0920491263728
 20
-156.6047390016474
 30
0.0
 10
108.9883517522668
 20
-156.3973442534354
 30
0.0
 10
108.9883517522668
 20
-156.3973442534354
 30
0.0
 10
109.0517415091954
 20
-156.4100911067308
 30
0.0
 10
109.100661865086
 20
-156.4142252213131
 30
0.0
 10
109.1406249727148
 20
-156.4142252213131
 30
0.0
 10
109.2171060924874
 20
-156.4142252213131
 30
0.0
 10
109.2274413789431
 20
-156.3911430815619
 30
0.0
 10
109.2274413789431
 20
-156.3253417577937
 30
0.0
 10
109.2274413789431
 20
-156.3253417577937
 30
0.0
 10
109.2274413789431
 20
-155.8960828603315
 30
0.0
 10
109.2274413789431
 20
-155.8960828603315
 30
0.0
 10
109.1302896862591
 20
-155.9360459679604
 30
0.0
 10
109.1130642088329
 20
-155.9425916493824
 30
0.0
 10
109.0668999293305
 20
-155.9615396745513
 30
0.0
 10
109.0624213051997
 20
-155.9825547570113
 30
0.0
 10
109.0582871906174
 20
-156.0121825781845
 30
0.0
 10
109.0393391654485
 20
-156.0121825781845
 30
0.0
 10
109.0307264267354
 20
-156.0121825781845
 30
0.0
 10
109.0200466307311
 20
-156.0080484636022
 30
0.0
 10
109.0138454588577
 20
-155.984966323851
 30
0.0
 10
109.0138454588577
 20
-155.984966323851
 30
0.0
 10
108.9607909883848
 20
-155.7923854862255
 30
0.0
 10
108.9607909883848
 20
-155.7923854862255
 30
0.0
 10
109.1068630369594
 20
-155.7458766971747
 30
0.0
 10
109.1723198511792
 20
-155.722450047875
 30
0.0
 10
109.2274413789431
 20
-155.7014349654149
 30
0.0
 10
109.2274413789431
 20
-155.7014349654149
 30
0.0
 10
109.2274413789431
 20
-155.288712526282
 30
0.0
 10
109.2274413789431
 20
-155.288712526282
 30
0.0
 10
109.2274413789431
 20
-155.288712526282
 30
0.0
 10
109.1743869084703
 20
-155.288712526282
 30
0.0
 10
109.1743869084703
 20
-155.288712526282
 30
0.0
 10
109.1743869084703
 20
-155.288712526282
 30
0.0
 10
109.0965277505037
 20
-155.288712526282
 30
0.0
 10
109.0965277505037
 20
-155.288712526282
 30
0.0
 10
109.0286593694442
 20
-155.288712526282
 30
0.0
 10
109.0200466307311
 20
-155.288712526282
 30
0.0
 10
108.9842176376845
 20
-155.295258207704
 30
0.0
 10
108.9842176376845
 20
-155.295258207704
 30
0.0
 10
108.9842176376845
 20
-155.1006103127874
 30
0.0
 10
108.9842176376845
 20
-155.1006103127874
 30
0.0
 10
109.0117784015665
 20
-155.1068114846608
 30
0.0
 10
109.0200466307311
 20
-155.1068114846608
 30
0.0
 10
109.0899820690817
 20
-155.1068114846608
 30
0.0
 10
109.0899820690817
 20
-155.1068114846608
 30
0.0
 10
109.2233072643608
 20
-155.1068114846608
 30
0.0
 10
109.2233072643608
 20
-155.1068114846608
 30
0.0
 10
109.2233072643608
 20
-155.0372205558588
 30
0.0
 10
109.2233072643608
 20
-154.9545382642128
 30
0.0
 10
109.2212402070697
 20
-154.9504041496305
 30
0.0
 10
109.2126274683566
 20
-154.7705701653004
 30
0.0
 10
109.2126274683566
 20
-154.7516221401316
 30
0.0
 10
109.2105604110654
 20
-154.7051133510807
 30
0.0
 10
109.2105604110654
 20
-154.7051133510807
 30
0.0
 10
109.4265678979906
 20
-154.7133815802453
 30
0.0
 10
109.4265678979906
 20
-154.7133815802453
 30
0.0
 10
109.4369031844463
 20
-154.7133815802453
 30
0.0
 10
109.4582627764549
 20
-154.7154486375364
 30
0.0
 10
109.4582627764549
 20
-154.7323296054142
 30
0.0
 10
109.4582627764549
 20
-154.7516221401316
 30
0.0
 10
109.4431043563198
 20
-154.7619574265873
 30
0.0
 10
109.4179551592775
 20
-154.7812499613047
 30
0.0
 10
109.4179551592775
 20
-154.8318928649379
 30
0.0
 10
109.4114094778555
 20
-155.0603026956099
 30
0.0
 10
109.4134765351466
 20
-155.1068114846608
 30
0.0
 10
109.5426676158435
 20
-155.1068114846608
 30
0.0
 10
109.5554144691389
 20
-155.1068114846608
 30
0.0
 10
109.652566161823
 20
-155.0985432554962
 30
0.0
 10
109.652566161823
 20
-155.0985432554962
 30
0.0
 10
109.652566161823
 20
-155.2931911504128
 30
0.0
 10
109.652566161823
 20
-155.2931911504128
 30
0.0
 10
109.6146701114852
 20
-155.2907795835731
 30
0.0
 10
109.5471462399743
 20
-155.2866454689909
 30
0.0
 10
109.4114094778555
 20
-155.288712526282
 30
0.0
 10
109.4114094778555
 20
-155.288712526282
 30
0.0
 10
109.4114094778555
 20
-155.627365412482
 30
0.0
 10
109.4114094778555
 20
-155.627365412482
 30
0.0
 10
109.4665310056195
 20
-155.6039387631824
 30
0.0
 10
109.5319878198392
 20
-155.5763779993003
 30
0.0
 10
109.5809081757298
 20
-155.5532958595492
 30
0.0
 10
109.5809081757298
 20
-155.5532958595492
 30
0.0
 10
109.5809081757298
 20
-155.3755289325103
 30
0.0
 10
109.5809081757298
 20
-155.3755289325103
 30
0.0
 10
109.6949408362916
 20
-155.3882757858057
 30
0.0
 10
109.8134521209841
 20
-155.3882757858057
 30
0.0
 10
109.9298963483856
 20
-155.3882757858057
 30
0.0
 10
109.9064696990859
 20
-155.2931911504128
 30
0.0
 10
109.8792534447524
 20
-155.2105088587668
 30
0.0
 10
109.8155191782753
 20
-155.0771836634877
 30
0.0
 10
109.7710774465156
 20
-155.0792507207788
 30
0.0
 10
109.6887396644181
 20
-155.0837293449096
 30
0.0
 10
109.6504991045318
 20
-155.0857964022008
 30
0.0
 10
109.6504991045318
 20
-155.0857964022008
 30
0.0
 10
109.6504991045318
 20
-154.9059624178707
 30
0.0
 10
109.6504991045318
 20
-154.9059624178707
 30
0.0
 10
109.7752115610979
 20
-154.9142306470353
 30
0.0
 10
109.9488443735545
 20
-154.9187092711662
 30
0.0
 10
110.0315266652005
 20
-154.9187092711662
 30
0.0
 10
110.0315266652005
 20
-154.9187092711662
 30
0.0
 10
110.1138644472979
 20
-154.9187092711662
 30
0.0
 10
110.1138644472979
 20
-154.9187092711662
 30
0.0
 10
110.1138644472979
 20
-154.7557562547138
 30
0.0
 10
110.1138644472979
 20
-154.7450764587096
 30
0.0
 10
110.1117973900068
 20
-154.6902994404941
 30
0.0
 10
110.1117973900068
 20
-154.6902994404941
 30
0.0
 10
110.3360731060965
 20
-154.7154486375364
 30
0.0
 10
110.3360731060965
 20
-154.7154486375364
 30
0.0
 10
110.3402072206788
 20
-154.7154486375364
 30
0.0
 10
110.3615668126874
 20
-154.7175156948276
 30
0.0
 10
110.3615668126874
 20
-154.7343966627053
 30
0.0
 10
110.3615668126874
 20
-154.7492105732919
 30
0.0
 10
110.3508870166831
 20
-154.757823312005
 30
0.0
 10
110.3233262528011
 20
-154.7726372225916
 30
0.0
 10
110.3167805713791
 20
-154.8380940368113
 30
0.0
 10
110.314713514088
 20
-154.8594536288199
 30
0.0
 10
110.314713514088
 20
-154.9187092711662
 30
0.0
 10
110.314713514088
 20
-154.9187092711662
 30
0.0
 10
110.4097981494809
 20
-154.9187092711662
 30
0.0
 10
110.4097981494809
 20
-154.9187092711662
 30
0.0
 10
110.4924804411269
 20
-154.9187092711662
 30
0.0
 10
110.6661132535835
 20
-154.9142306470353
 30
0.0
 10
110.7908257101495
 20
-154.9059624178707
 30
0.0
 10
110.7908257101495
 20
-154.9059624178707
 30
0.0
 10
110.7908257101495
 20
-155.0857964022008
 30
0.0
 10
110.7908257101495
 20
-155.0857964022008
 30
0.0
 10
110.7611978889764
 20
-155.0837293449096
 30
0.0
 10
110.6426866042838
 20
-155.0792507207788
 30
0.0
 10
110.6027234966549
 20
-155.0771836634877
 30
0.0
 10
110.5875650765198
 20
-155.1281710766694
 30
0.0
 10
110.5538031407643
 20
-155.24013667994
 30
0.0
 10
110.4883463265446
 20
-155.3796630470926
 30
0.0
 10
110.5303764914646
 20
-155.3796630470926
 30
0.0
 10
110.8077066780272
 20
-155.3607150219237
 30
0.0
 10
110.8690293776647
 20
-155.3586479646326
 30
0.0
 10
110.8690293776647
 20
-155.3586479646326
 30
0.0
 10
110.8690293776647
 20
-155.5426160635449
 30
0.0
 10
110.8690293776647
 20
-155.5426160635449
 30
0.0
 10
110.8397460660401
 20
-155.5426160635449
 30
0.0
 10
110.8225205886138
 20
-155.5384819489626
 30
0.0
 10
110.65991208171
 20
-155.5384819489626
 30
0.0
  0
SPLINE
  5
19F
330
19A
100
AcDbEntity
  8
_U+30EC_U+30A4_U+30E4_U+30FC 1
370
     0
100
AcDbSpline
210
0.0
220
0.0
230
1.0
 70
    11
 71
     3
 72
    20
 73
    16
 74
     0
 42
0.0000000001
 43
0.0000000001
 12
1.0
 22
0.0
 32
0.0
 13
1.0
 23
0.0
 33
0.0
 40
0.0
 40
0.0
 40
0.0
 40
0.0
 40
1.0
 40
1.0
 40
1.0
 40
2.0
 40
2.0
 40
2.0
 40
3.0
 40
3.0
 40
3.0
 40
4.0
 40
4.0
 40
4.0
 40
5.0
 40
5.0
 40
5.0
 40
5.0
 10
110.0315266652005
 20
-155.0730495489053
 30
0.0
 10
110.0315266652005
 20
-155.0730495489053
 30
0.0
 10
109.9998317867362
 20
-155.0730495489053
 30
0.0
 10
109.9998317867362
 20
-155.0730495489053
 30
0.0
 10
110.0459960662385
 20
-155.1726128084291
 30
0.0
 10
110.0776909447028
 20
-155.2528835332354
 30
0.0
 10
110.1117973900068
 20
-155.3796630470926
 30
0.0
 10
110.1117973900068
 20
-155.3796630470926
 30
0.0
 10
110.3188476286703
 20
-155.3796630470926
 30
0.0
 10
110.3188476286703
 20
-155.3796630470926
 30
0.0
 10
110.3508870166831
 20
-155.2866454689909
 30
0.0
 10
110.3739691564343
 20
-155.2022406296022
 30
0.0
 10
110.397395805734
 20
-155.0730495489053
 30
0.0
 10
110.397395805734
 20
-155.0730495489053
 30
0.0
 10
110.0315266652005
 20
-155.0730495489053
 30
0.0
 10
110.0315266652005
 20
-155.0730495489053
 30
0.0
  0
SPLINE
  5
1A0
330
19A
100
AcDbEntity
  8
_U+30EC_U+30A4_U+30E4_U+30FC 1
370
     0
100
AcDbSpline
210
0.0
220
0.0
230
1.0
 70
    11
 71
     3
 72
    17
 73
    13
 74
     0
 42
0.0000000001
 43
0.0000000001
 12
1.0
 22
0.0
 32
0.0
 13
1.0
 23
0.0
 33
0.0
 40
0.0
 40
0.0
 40
0.0
 40
0.0
 40
1.0
 40
1.0
 40
1.0
 40
2.0
 40
2.0
 40
2.0
 40
3.0
 40
3.0
 40
3.0
 40
4.0
 40
4.0
 40
4.0
 40
4.0
 10
110.0949164221291
 20
-155.9236436242136
 30
0.0
 10
110.0776909447028
 20
-155.9529269358382
 30
0.0
 10
110.0273925506182
 20
-156.0462890234884
 30
0.0
 10
110.0163682450654
 20
-156.0652370486573
 30
0.0
 10
110.2068820253997
 20
-156.1244926910036
 30
0.0
 10
110.2278971078597
 20
-156.1306938628771
 30
0.0
 10
110.3002441130499
 20
-156.1582546267591
 30
0.0
 10
110.3550211312654
 20
-156.0714382205308
 30
0.0
 10
110.3781032710166
 20
-155.9973686675979
 30
0.0
 10
110.3932616911517
 20
-155.9236436242136
 30
0.0
 10
110.3932616911517
 20
-155.9236436242136
 30
0.0
 10
110.0949164221291
 20
-155.9236436242136
 30
0.0
 10
110.0949164221291
 20
-155.9236436242136
 30
0.0
  0
HATCH
  5
1A1
330
19A
100
AcDbEntity
  8
_U+30EC_U+30A4_U+30E4_U+30FC 1
 62
   179
420
  2234388
100
AcDbHatch
 10
0.0
 20
0.0
 30
0.0
210
0.0
220
0.0
230
1.0
  2
SOLID
 70
     1
 71
     0
 91
        3
 92
        1
 93
        1
 72
     4
 94
        3
 73
     0
 74
     1
 95
      242
 96
      238
 40
0.0
 40
0.0
 40
0.0
 40
0.0
 40
1.0
 40
1.0
 40
1.0
 40
2.0
 40
2.0
 40
2.0
 40
3.0
 40
3.0
 40
3.0
 40
4.0
 40
4.0
 40
4.0
 40
5.0
 40
5.0
 40
5.0
 40
6.0
 40
6.0
 40
6.0
 40
7.0
 40
7.0
 40
7.0
 40
8.0
 40
8.0
 40
8.0
 40
9.0
 40
9.0
 40
9.0
 40
10.0
 40
10.0
 40
10.0
 40
11.0
 40
11.0
 40
11.0
 40
12.0
 40
12.0
 40
12.0
 40
13.0
 40
13.0
 40
13.0
 40
14.0
 40
14.0
 40
14.0
 40
15.0
 40
15.0
 40
15.0
 40
16.0
 40
16.0
 40
16.0
 40
17.0
 40
17.0
 40
17.0
 40
18.0
 40
18.0
 40
18.0
 40
19.0
 40
19.0
 40
19.0
 40
20.0
 40
20.0
 40
20.0
 40
21.0
 40
21.0
 40
21.0
 40
22.0
 40
22.0
 40
22.0
 40
23.0
 40
23.0
 40
23.0
 40
24.0
 40
24.0
 40
24.0
 40
25.0
 40
25.0
 40
25.0
 40
26.0
 40
26.0
 40
26.0
 40
27.0
 40
27.0
 40
27.0
 40
28.0
 40
28.0
 40
28.0
 40
29.0
 40
29.0
 40
29.0
 40
30.0
 40
30.0
 40
30.0
 40
31.0
 40
31.0
 40
31.0
 40
32.0
 40
32.0
 40
32.0
 40
33.0
 40
33.0
 40
33.0
 40
34.0
 40
34.0
 40
34.0
 40
35.0
 40
35.0
 40
35.0
 40
36.0
 40
36.0
 40
36.0
 40
37.0
 40
37.0
 40
37.0
 40
38.0
 40
38.0
 40
38.0
 40
39.0
 40
39.0
 40
39.0
 40
40.0
 40
40.0
 40
40.0
 40
41.0
 40
41.0
 40
41.0
 40
42.0
 40
42.0
 40
42.0
 40
43.0
 40
43.0
 40
43.0
 40
44.0
 40
44.0
 40
44.0
 40
45.0
 40
45.0
 40
45.0
 40
46.0
 40
46.0
 40
46.0
 40
47.0
 40
47.0
 40
47.0
 40
48.0
 40
48.0
 40
48.0
 40
49.0
 40
49.0
 40
49.0
 40
50.0
 40
50.0
 40
50.0
 40
51.0
 40
51.0
 40
51.0
 40
52.0
 40
52.0
 40
52.0
 40
53.0
 40
53.0
 40
53.0
 40
54.0
 40
54.0
 40
54.0
 40
55.0
 40
55.0
 40
55.0
 40
56.0
 40
56.0
 40
56.0
 40
57.0
 40
57.0
 40
57.0
 40
58.0
 40
58.0
 40
58.0
 40
59.0
 40
59.0
 40
59.0
 40
60.0
 40
60.0
 40
60.0
 40
61.0
 40
61.0
 40
61.0
 40
62.0
 40
62.0
 40
62.0
 40
63.0
 40
63.0
 40
63.0
 40
64.0
 40
64.0
 40
64.0
 40
65.0
 40
65.0
 40
65.0
 40
66.0
 40
66.0
 40
66.0
 40
67.0
 40
67.0
 40
67.0
 40
68.0
 40
68.0
 40
68.0
 40
69.0
 40
69.0
 40
69.0
 40
70.0
 40
70.0
 40
70.0
 40
71.0
 40
71.0
 40
71.0
 40
72.0
 40
72.0
 40
72.0
 40
73.0
 40
73.0
 40
73.0
 40
74.0
 40
74.0
 40
74.0
 40
75.0
 40
75.0
 40
75.0
 40
76.0
 40
76.0
 40
76.0
 40
77.0
 40
77.0
 40
77.0
 40
78.0
 40
78.0
 40
78.0
 40
79.0
 40
79.0
 40
79.0
 40
79.0
 10
110.65991208171
 20
-155.5384819489626
 10
110.65991208171
 20
-155.5384819489626
 10
110.4056640348986
 20
-155.5384819489626
 10
110.4056640348986
 20
-155.5384819489626
 10
110.4056640348986
 20
-155.5384819489626
 10
110.1286783578845
 20
-155.5384819489626
 10
110.1286783578845
 20
-155.5384819489626
 10
110.1286783578845
 20
-155.5384819489626
 10
110.2554578717417
 20
-155.5808566234312
 10
110.2554578717417
 20
-155.5808566234312
 10
110.266137667746
 20
-155.5849907380135
 10
110.2788845210414
 20
-155.5911919098869
 10
110.2788845210414
 20
-155.6039387631824
 10
110.2788845210414
 20
-155.6252983551909
 10
110.2471896425771
 20
-155.6314995270644
 10
110.2258300505685
 20
-155.6356336416466
 10
110.2154947641128
 20
-155.6590602909463
 10
110.1858669429397
 20
-155.7245171051661
 10
110.1665744082222
 20
-155.7689588369258
 10
110.1665744082222
 20
-155.7689588369258
 10
110.4373589133629
 20
-155.7689588369258
 10
110.4373589133629
 20
-155.7689588369258
 10
110.5283094341735
 20
-155.7689588369258
 10
110.7253688959298
 20
-155.7648247223435
 10
110.8669623203735
 20
-155.7562119836304
 10
110.8669623203735
 20
-155.7562119836304
 10
110.8669623203735
 20
-155.9339789106693
 10
110.8669623203735
 20
-155.9339789106693
 10
110.7846245382761
 20
-155.929844796087
 10
110.7632649462675
 20
-155.929844796087
 10
110.5834309619375
 20
-155.9257106815047
 10
110.5517360834732
 20
-156.0800509592439
 10
110.5072943517135
 20
-156.1603216840502
 10
110.4628526199537
 20
-156.2302571224008
 10
110.5834309619375
 20
-156.2895127647471
 10
110.6895399028832
 20
-156.357036636258
 10
110.7928927674407
 20
-156.439718927904
 10
110.7928927674407
 20
-156.439718927904
 10
110.6743814827481
 20
-156.6068060589386
 10
110.6743814827481
 20
-156.6068060589386
 10
110.6512993429969
 20
-156.5878580337697
 10
110.6385524897015
 20
-156.5792452950566
 10
110.5262423768823
 20
-156.4944959461194
 10
110.4776665305403
 20
-156.4565998957817
 10
110.4187553977425
 20
-156.4207709027351
 10
110.3381401633877
 20
-156.3763291709754
 10
110.1266113005934
 20
-156.5623643271789
 10
109.9212836096725
 20
-156.5857909764786
 10
109.6315510793629
 20
-156.6154187976517
 10
109.6315510793629
 20
-156.6154187976517
 10
109.5278537052569
 20
-156.4355848133217
 10
109.5278537052569
 20
-156.4355848133217
 10
109.8451469994484
 20
-156.4311061891908
 10
110.0208468691962
 20
-156.4059569921485
 10
110.1731200896442
 20
-156.2957139366205
 10
110.0546088049516
 20
-156.2450710329873
 10
109.9657253414322
 20
-156.2175102691054
 10
109.9298963483856
 20
-156.2047634158099
 10
109.9109483232167
 20
-156.2323241796919
 10
109.8957899030816
 20
-156.2512722048608
 10
109.8682291391996
 20
-156.2853786501648
 10
109.8682291391996
 20
-156.2853786501648
 10
109.6718586965404
 20
-156.2026963585188
 10
109.6718586965404
 20
-156.2026963585188
 10
109.7541964786379
 20
-156.1224256337125
 10
109.8155191782753
 20
-156.026996488771
 10
109.8727077633304
 20
-155.9257106815047
 10
109.6821939829961
 20
-155.929844796087
 10
109.6611789005361
 20
-155.929844796087
 10
109.5788411184386
 20
-155.9339789106693
 10
109.5788411184386
 20
-155.9339789106693
 10
109.5788411184386
 20
-155.7562119836304
 10
109.5788411184386
 20
-155.7562119836304
 10
109.7180229760427
 20
-155.7627576650524
 10
109.9274847815459
 20
-155.7668917796347
 10
109.9529784881368
 20
-155.7668917796347
 10
109.970203965563
 20
-155.7331298438792
 10
110.0249809837785
 20
-155.6125515018955
 10
110.0439290089474
 20
-155.5384819489626
 10
110.0249809837785
 20
-155.5384819489626
 10
109.8475585662881
 20
-155.5446831208361
 10
109.652566161823
 20
-155.5574299741315
 10
109.652566161823
 20
-155.5574299741315
 10
109.652566161823
 20
-155.6907551694107
 10
109.652566161823
 20
-155.6907551694107
 10
109.603990315481
 20
-155.7162488760015
 10
109.5447346731347
 20
-155.7479437544658
 10
109.4114094778555
 20
-155.8134005686856
 10
109.4114094778555
 20
-155.8134005686856
 10
109.4114094778555
 20
-155.9594726172601
 10
109.4114094778555
 20
-155.9594726172601
 10
109.4114094778555
 20
-155.9594726172601
 10
109.4114094778555
 20
-156.4269720746085
 10
109.4114094778555
 20
-156.4269720746085
 10
109.4114094778555
 20
-156.5537515884657
 10
109.3755804848089
 20
-156.613007230812
 10
109.0920491263728
 20
-156.6047390016474
 10
109.0920491263728
 20
-156.6047390016474
 10
108.9883517522668
 20
-156.3973442534354
 10
108.9883517522668
 20
-156.3973442534354
 10
109.0517415091954
 20
-156.4100911067308
 10
109.100661865086
 20
-156.4142252213131
 10
109.1406249727148
 20
-156.4142252213131
 10
109.2171060924874
 20
-156.4142252213131
 10
109.2274413789431
 20
-156.3911430815619
 10
109.2274413789431
 20
-156.3253417577937
 10
109.2274413789431
 20
-156.3253417577937
 10
109.2274413789431
 20
-155.8960828603315
 10
109.2274413789431
 20
-155.8960828603315
 10
109.1302896862591
 20
-155.9360459679604
 10
109.1130642088329
 20
-155.9425916493824
 10
109.0668999293305
 20
-155.9615396745513
 10
109.0624213051997
 20
-155.9825547570113
 10
109.0582871906174
 20
-156.0121825781845
 10
109.0393391654485
 20
-156.0121825781845
 10
109.0307264267354
 20
-156.0121825781845
 10
109.0200466307311
 20
-156.0080484636022
 10
109.0138454588577
 20
-155.984966323851
 10
109.0138454588577
 20
-155.984966323851
 10
108.9607909883848
 20
-155.7923854862255
 10
108.9607909883848
 20
-155.7923854862255
 10
109.1068630369594
 20
-155.7458766971747
 10
109.1723198511792
 20
-155.722450047875
 10
109.2274413789431
 20
-155.7014349654149
 10
109.2274413789431
 20
-155.7014349654149
 10
109.2274413789431
 20
-155.288712526282
 10
109.2274413789431
 20
-155.288712526282
 10
109.2274413789431
 20
-155.288712526282
 10
109.1743869084703
 20
-155.288712526282
 10
109.1743869084703
 20
-155.288712526282
 10
109.1743869084703
 20
-155.288712526282
 10
109.0965277505037
 20
-155.288712526282
 10
109.0965277505037
 20
-155.288712526282
 10
109.0286593694442
 20
-155.288712526282
 10
109.0200466307311
 20
-155.288712526282
 10
108.9842176376845
 20
-155.295258207704
 10
108.9842176376845
 20
-155.295258207704
 10
108.9842176376845
 20
-155.1006103127874
 10
108.9842176376845
 20
-155.1006103127874
 10
109.0117784015665
 20
-155.1068114846608
 10
109.0200466307311
 20
-155.1068114846608
 10
109.0899820690817
 20
-155.1068114846608
 10
109.0899820690817
 20
-155.1068114846608
 10
109.2233072643608
 20
-155.1068114846608
 10
109.2233072643608
 20
-155.1068114846608
 10
109.2233072643608
 20
-155.0372205558588
 10
109.2233072643608
 20
-154.9545382642128
 10
109.2212402070697
 20
-154.9504041496305
 10
109.2126274683566
 20
-154.7705701653004
 10
109.2126274683566
 20
-154.7516221401316
 10
109.2105604110654
 20
-154.7051133510807
 10
109.2105604110654
 20
-154.7051133510807
 10
109.4265678979906
 20
-154.7133815802453
 10
109.4265678979906
 20
-154.7133815802453
 10
109.4369031844463
 20
-154.7133815802453
 10
109.4582627764549
 20
-154.7154486375364
 10
109.4582627764549
 20
-154.7323296054142
 10
109.4582627764549
 20
-154.7516221401316
 10
109.4431043563198
 20
-154.7619574265873
 10
109.4179551592775
 20
-154.7812499613047
 10
109.4179551592775
 20
-154.8318928649379
 10
109.4114094778555
 20
-155.0603026956099
 10
109.4134765351466
 20
-155.1068114846608
 10
109.5426676158435
 20
-155.1068114846608
 10
109.5554144691389
 20
-155.1068114846608
 10
109.652566161823
 20
-155.0985432554962
 10
109.652566161823
 20
-155.0985432554962
 10
109.652566161823
 20
-155.2931911504128
 10
109.652566161823
 20
-155.2931911504128
 10
109.6146701114852
 20
-155.2907795835731
 10
109.5471462399743
 20
-155.2866454689909
 10
109.4114094778555
 20
-155.288712526282
 10
109.4114094778555
 20
-155.288712526282
 10
109.4114094778555
 20
-155.627365412482
 10
109.4114094778555
 20
-155.627365412482
 10
109.4665310056195
 20
-155.6039387631824
 10
109.5319878198392
 20
-155.5763779993003
 10
109.5809081757298
 20
-155.5532958595492
 10
109.5809081757298
 20
-155.5532958595492
 10
109.5809081757298
 20
-155.3755289325103
 10
109.5809081757298
 20
-155.3755289325103
 10
109.6949408362916
 20
-155.3882757858057
 10
109.8134521209841
 20
-155.3882757858057
 10
109.9298963483856
 20
-155.3882757858057
 10
109.9064696990859
 20
-155.2931911504128
 10
109.8792534447524
 20
-155.2105088587668
 10
109.8155191782753
 20
-155.0771836634877
 10
109.7710774465156
 20
-155.0792507207788
 10
109.6887396644181
 20
-155.0837293449096
 10
109.6504991045318
 20
-155.0857964022008
 10
109.6504991045318
 20
-155.0857964022008
 10
109.6504991045318
 20
-154.9059624178707
 10
109.6504991045318
 20
-154.9059624178707
 10
109.7752115610979
 20
-154.9142306470353
 10
109.9488443735545
 20
-154.9187092711662
 10
110.0315266652005
 20
-154.9187092711662
 10
110.0315266652005
 20
-154.9187092711662
 10
110.1138644472979
 20
-154.9187092711662
 10
110.1138644472979
 20
-154.9187092711662
 10
110.1138644472979
 20
-154.7557562547138
 10
110.1138644472979
 20
-154.7450764587096
 10
110.1117973900068
 20
-154.6902994404941
 10
110.1117973900068
 20
-154.6902994404941
 10
110.3360731060965
 20
-154.7154486375364
 10
110.3360731060965
 20
-154.7154486375364
 10
110.3402072206788
 20
-154.7154486375364
 10
110.3615668126874
 20
-154.7175156948276
 10
110.3615668126874
 20
-154.7343966627053
 10
110.3615668126874
 20
-154.7492105732919
 10
110.3508870166831
 20
-154.757823312005
 10
110.3233262528011
 20
-154.7726372225916
 10
110.3167805713791
 20
-154.8380940368113
 10
110.314713514088
 20
-154.8594536288199
 10
110.314713514088
 20
-154.9187092711662
 10
110.314713514088
 20
-154.9187092711662
 10
110.4097981494809
 20
-154.9187092711662
 10
110.4097981494809
 20
-154.9187092711662
 10
110.4924804411269
 20
-154.9187092711662
 10
110.6661132535835
 20
-154.9142306470353
 10
110.7908257101495
 20
-154.9059624178707
 10
110.7908257101495
 20
-154.9059624178707
 10
110.7908257101495
 20
-155.0857964022008
 10
110.7908257101495
 20
-155.0857964022008
 10
110.7611978889764
 20
-155.0837293449096
 10
110.6426866042838
 20
-155.0792507207788
 10
110.6027234966549
 20
-155.0771836634877
 10
110.5875650765198
 20
-155.1281710766694
 10
110.5538031407643
 20
-155.24013667994
 10
110.4883463265446
 20
-155.3796630470926
 10
110.5303764914646
 20
-155.3796630470926
 10
110.8077066780272
 20
-155.3607150219237
 10
110.8690293776647
 20
-155.3586479646326
 10
110.8690293776647
 20
-155.3586479646326
 10
110.8690293776647
 20
-155.5426160635449
 10
110.8690293776647
 20
-155.5426160635449
 10
110.8397460660401
 20
-155.5426160635449
 10
110.8225205886138
 20
-155.5384819489626
 10
110.65991208171
 20
-155.5384819489626
 97
        0
 97
        0
 92
        1
 93
        1
 72
     4
 94
        3
 73
     0
 74
     1
 95
       20
 96
       16
 40
0.0
 40
0.0
 40
0.0
 40
0.0
 40
1.0
 40
1.0
 40
1.0
 40
2.0
 40
2.0
 40
2.0
 40
3.0
 40
3.0
 40
3.0
 40
4.0
 40
4.0
 40
4.0
 40
5.0
 40
5.0
 40
5.0
 40
5.0
 10
110.0315266652005
 20
-155.0730495489053
 10
110.0315266652005
 20
-155.0730495489053
 10
109.9998317867362
 20
-155.0730495489053
 10
109.9998317867362
 20
-155.0730495489053
 10
110.0459960662385
 20
-155.1726128084291
 10
110.0776909447028
 20
-155.2528835332354
 10
110.1117973900068
 20
-155.3796630470926
 10
110.1117973900068
 20
-155.3796630470926
 10
110.3188476286703
 20
-155.3796630470926
 10
110.3188476286703
 20
-155.3796630470926
 10
110.3508870166831
 20
-155.2866454689909
 10
110.3739691564343
 20
-155.2022406296022
 10
110.397395805734
 20
-155.0730495489053
 10
110.397395805734
 20
-155.0730495489053
 10
110.0315266652005
 20
-155.0730495489053
 10
110.0315266652005
 20
-155.0730495489053
 97
        0
 97
        0
 92
        1
 93
        1
 72
     4
 94
        3
 73
     0
 74
     1
 95
       17
 96
       13
 40
0.0
 40
0.0
 40
0.0
 40
0.0
 40
1.0
 40
1.0
 40
1.0
 40
2.0
 40
2.0
 40
2.0
 40
3.0
 40
3.0
 40
3.0
 40
4.0
 40
4.0
 40
4.0
 40
4.0
 10
110.0949164221291
 20
-155.9236436242136
 10
110.0776909447028
 20
-155.9529269358382
 10
110.0273925506182
 20
-156.0462890234884
 10
110.0163682450654
 20
-156.0652370486573
 10
110.2068820253997
 20
-156.1244926910036
 10
110.2278971078597
 20
-156.1306938628771
 10
110.3002441130499
 20
-156.1582546267591
 10
110.3550211312654
 20
-156.0714382205308
 10
110.3781032710166
 20
-155.9973686675979
 10
110.3932616911517
 20
-155.9236436242136
 10
110.3932616911517
 20
-155.9236436242136
 10
110.0949164221291
 20
-155.9236436242136
 10
110.0949164221291
 20
-155.9236436242136
 97
        0
 97
        0
 75
     2
 76
     1
 98
        0
  0
SPLINE
  5
1A2
330
19A
100
AcDbEntity
  8
_U+30EC_U+30A4_U+30E4_U+30FC 1
370
     0
100
AcDbSpline
210
0.0
220
0.0
230
1.0
 70
    11
 71
     3
 72
   203
 73
   199
 74
     0
 42
0.0000000001
 43
0.0000000001
 12
1.0
 22
0.0
 32
0.0
 13
1.0
 23
0.0
 33
0.0
 40
0.0
 40
0.0
 40
0.0
 40
0.0
 40
1.0
 40
1.0
 40
1.0
 40
2.0
 40
2.0
 40
2.0
 40
3.0
 40
3.0
 40
3.0
 40
4.0
 40
4.0
 40
4.0
 40
5.0
 40
5.0
 40
5.0
 40
6.0
 40
6.0
 40
6.0
 40
7.0
 40
7.0
 40
7.0
 40
8.0
 40
8.0
 40
8.0
 40
9.0
 40
9.0
 40
9.0
 40
10.0
 40
10.0
 40
10.0
 40
11.0
 40
11.0
 40
11.0
 40
12.0
 40
12.0
 40
12.0
 40
13.0
 40
13.0
 40
13.0
 40
14.0
 40
14.0
 40
14.0
 40
15.0
 40
15.0
 40
15.0
 40
16.0
 40
16.0
 40
16.0
 40
17.0
 40
17.0
 40
17.0
 40
18.0
 40
18.0
 40
18.0
 40
19.0
 40
19.0
 40
19.0
 40
20.0
 40
20.0
 40
20.0
 40
21.0
 40
21.0
 40
21.0
 40
22.0
 40
22.0
 40
22.0
 40
23.0
 40
23.0
 40
23.0
 40
24.0
 40
24.0
 40
24.0
 40
25.0
 40
25.0
 40
25.0
 40
26.0
 40
26.0
 40
26.0
 40
27.0
 40
27.0
 40
27.0
 40
28.0
 40
28.0
 40
28.0
 40
29.0
 40
29.0
 40
29.0
 40
30.0
 40
30.0
 40
30.0
 40
31.0
 40
31.0
 40
31.0
 40
32.0
 40
32.0
 40
32.0
 40
33.0
 40
33.0
 40
33.0
 40
34.0
 40
34.0
 40
34.0
 40
35.0
 40
35.0
 40
35.0
 40
36.0
 40
36.0
 40
36.0
 40
37.0
 40
37.0
 40
37.0
 40
38.0
 40
38.0
 40
38.0
 40
39.0
 40
39.0
 40
39.0
 40
40.0
 40
40.0
 40
40.0
 40
41.0
 40
41.0
 40
41.0
 40
42.0
 40
42.0
 40
42.0
 40
43.0
 40
43.0
 40
43.0
 40
44.0
 40
44.0
 40
44.0
 40
45.0
 40
45.0
 40
45.0
 40
46.0
 40
46.0
 40
46.0
 40
47.0
 40
47.0
 40
47.0
 40
48.0
 40
48.0
 40
48.0
 40
49.0
 40
49.0
 40
49.0
 40
50.0
 40
50.0
 40
50.0
 40
51.0
 40
51.0
 40
51.0
 40
52.0
 40
52.0
 40
52.0
 40
53.0
 40
53.0
 40
53.0
 40
54.0
 40
54.0
 40
54.0
 40
55.0
 40
55.0
 40
55.0
 40
56.0
 40
56.0
 40
56.0
 40
57.0
 40
57.0
 40
57.0
 40
58.0
 40
58.0
 40
58.0
 40
59.0
 40
59.0
 40
59.0
 40
60.0
 40
60.0
 40
60.0
 40
61.0
 40
61.0
 40
61.0
 40
62.0
 40
62.0
 40
62.0
 40
63.0
 40
63.0
 40
63.0
 40
64.0
 40
64.0
 40
64.0
 40
65.0
 40
65.0
 40
65.0
 40
66.0
 40
66.0
 40
66.0
 40
66.0
 10
112.3511094554192
 20
-155.6060058204735
 30
0.0
 10
112.3511094554192
 20
-155.6060058204735
 30
0.0
 10
111.7926594772602
 20
-155.6060058204735
 30
0.0
 10
111.7926594772602
 20
-155.6060058204735
 30
0.0
 10
111.7819796812559
 20
-155.6504475522332
 30
0.0
 10
111.7737114520913
 20
-155.6821424306975
 30
0.0
 10
111.7609645987959
 20
-155.7203829905838
 30
0.0
 10
111.7864583053867
 20
-155.7203829905838
 30
0.0
 10
111.8009277064248
 20
-155.722450047875
 30
0.0
 10
111.8074733878467
 20
-155.722450047875
 30
0.0
 10
111.8074733878467
 20
-155.722450047875
 30
0.0
 10
111.9955756013414
 20
-155.722450047875
 30
0.0
 10
111.9955756013414
 20
-155.722450047875
 30
0.0
 10
111.9955756013414
 20
-155.722450047875
 30
0.0
 10
112.370057480588
 20
-155.722450047875
 30
0.0
 10
112.370057480588
 20
-155.722450047875
 30
0.0
 10
112.4210448937697
 20
-155.722450047875
 30
0.0
 10
112.7045762522058
 20
-155.7097031945795
 30
0.0
 10
112.7362711306701
 20
-155.7097031945795
 30
0.0
 10
112.7338595638304
 20
-155.7372639584615
 30
0.0
 10
112.7317925065393
 20
-155.7562119836304
 30
0.0
 10
112.7317925065393
 20
-155.7858398048035
 30
0.0
 10
112.7297254492481
 20
-155.8175346832678
 30
0.0
 10
112.7297254492481
 20
-155.9529269358382
 30
0.0
 10
112.7297254492481
 20
-155.9804876997202
 30
0.0
 10
112.7297254492481
 20
-155.9804876997202
 30
0.0
 10
112.7297254492481
 20
-156.2261230078185
 30
0.0
 10
112.7297254492481
 20
-156.2261230078185
 30
0.0
 10
112.7297254492481
 20
-156.2705647395782
 30
0.0
 10
112.7338595638304
 20
-156.467279691786
 30
0.0
 10
112.7383381879612
 20
-156.619552912234
 30
0.0
 10
112.7383381879612
 20
-156.619552912234
 30
0.0
 10
112.5119954145803
 20
-156.619552912234
 30
0.0
 10
112.5119954145803
 20
-156.619552912234
 30
0.0
 10
112.5119954145803
 20
-156.619552912234
 30
0.0
 10
112.5140624718715
 20
-156.5857909764786
 30
0.0
 10
112.5140624718715
 20
-156.5857909764786
 30
0.0
 10
112.5140624718715
 20
-156.5857909764786
 30
0.0
 10
111.811607502429
 20
-156.5857909764786
 30
0.0
 10
111.811607502429
 20
-156.5857909764786
 30
0.0
 10
111.811607502429
 20
-156.5857909764786
 30
0.0
 10
111.8136745597202
 20
-156.619552912234
 30
0.0
 10
111.8136745597202
 20
-156.619552912234
 30
0.0
 10
111.8136745597202
 20
-156.619552912234
 30
0.0
 10
111.5959445250524
 20
-156.619552912234
 30
0.0
 10
111.5959445250524
 20
-156.619552912234
 30
0.0
 10
111.6000786396347
 20
-156.56443138447
 30
0.0
 10
111.6000786396347
 20
-156.5516845311746
 30
0.0
 10
111.6066243210567
 20
-156.4376518706128
 30
0.0
 10
111.6086913783478
 20
-156.4100911067308
 30
0.0
 10
111.610758435639
 20
-156.2767659114517
 30
0.0
 10
111.610758435639
 20
-156.2578178862828
 30
0.0
 10
111.610758435639
 20
-156.2578178862828
 30
0.0
 10
111.610758435639
 20
-156.054557252653
 30
0.0
 10
111.610758435639
 20
-156.054557252653
 30
0.0
 10
111.4712320684864
 20
-156.3043266753336
 30
0.0
 10
111.3017333706121
 20
-156.4355848133217
 30
0.0
 10
111.1959689392149
 20
-156.5010416275414
 30
0.0
 10
111.1959689392149
 20
-156.5010416275414
 30
0.0
 10
111.0223361267583
 20
-156.3615152603888
 30
0.0
 10
111.0223361267583
 20
-156.3615152603888
 30
0.0
 10
111.1112195902778
 20
-156.3105278472071
 30
0.0
 10
111.2552245815612
 20
-156.2237114409788
 30
0.0
 10
111.3926838914227
 20
-156.0294080556107
 30
0.0
 10
111.4836344122333
 20
-155.902284032205
 30
0.0
 10
111.5494357360015
 20
-155.7586235504701
 30
0.0
 10
111.583197671757
 20
-155.6060058204735
 30
0.0
 10
111.3547878410849
 20
-155.6084173873132
 30
0.0
 10
111.1749538567549
 20
-155.6146185591866
 30
0.0
 10
111.0795247118135
 20
-155.6166856164778
 30
0.0
 10
111.0795247118135
 20
-155.6166856164778
 30
0.0
 10
111.0795247118135
 20
-155.4389186894389
 30
0.0
 10
111.0795247118135
 20
-155.4389186894389
 30
0.0
 10
111.2765841735697
 20
-155.4454643708609
 30
0.0
 10
111.5597710224573
 20
-155.4495984854432
 30
0.0
 10
111.7099771856142
 20
-155.4495984854432
 30
0.0
 10
111.7099771856142
 20
-155.4495984854432
 30
0.0
 10
111.9239176152482
 20
-155.4495984854432
 30
0.0
 10
111.9239176152482
 20
-155.4495984854432
 30
0.0
 10
111.9239176152482
 20
-155.4495984854432
 30
0.0
 10
111.9239176152482
 20
-155.3417669967548
 30
0.0
 10
111.9239176152482
 20
-155.3417669967548
 30
0.0
 10
111.9239176152482
 20
-155.3417669967548
 30
0.0
 10
111.7778455666736
 20
-155.3417669967548
 30
0.0
 10
111.7778455666736
 20
-155.3417669967548
 30
0.0
 10
111.6086913783478
 20
-155.3417669967548
 30
0.0
 10
111.4391926804735
 20
-155.3459011113372
 30
0.0
 10
111.2721055494389
 20
-155.3524467927591
 30
0.0
 10
111.2721055494389
 20
-155.3524467927591
 30
0.0
 10
111.2721055494389
 20
-155.1808810375937
 30
0.0
 10
111.2721055494389
 20
-155.1808810375937
 30
0.0
 10
111.4267903367266
 20
-155.1915608335979
 30
0.0
 10
111.6128254929301
 20
-155.1915608335979
 30
0.0
 10
111.7778455666736
 20
-155.1915608335979
 30
0.0
 10
111.7778455666736
 20
-155.1915608335979
 30
0.0
 10
111.9239176152482
 20
-155.1915608335979
 30
0.0
 10
111.9239176152482
 20
-155.1915608335979
 30
0.0
 10
111.9239176152482
 20
-155.1915608335979
 30
0.0
 10
111.9239176152482
 20
-155.0730495489053
 30
0.0
 10
111.9239176152482
 20
-155.0730495489053
 30
0.0
 10
111.9239176152482
 20
-155.0730495489053
 30
0.0
 10
111.7926594772602
 20
-155.0730495489053
 30
0.0
 10
111.7926594772602
 20
-155.0730495489053
 30
0.0
 10
111.7461506882093
 20
-155.0730495489053
 30
0.0
 10
111.5428900545796
 20
-155.0816622876185
 30
0.0
 10
111.5008598896595
 20
-155.0816622876185
 30
0.0
 10
111.2975992560298
 20
-155.0857964022008
 30
0.0
 10
111.2214626458057
 20
-155.0878634594919
 30
0.0
 10
111.1432589782906
 20
-155.0899305167831
 30
0.0
 10
111.1432589782906
 20
-155.0899305167831
 30
0.0
 10
111.1432589782906
 20
-154.9059624178707
 30
0.0
 10
111.1432589782906
 20
-154.9059624178707
 30
0.0
 10
111.2572916388524
 20
-154.9142306470353
 30
0.0
 10
111.3017333706121
 20
-154.9142306470353
 30
0.0
 10
111.6848279885719
 20
-154.9228433857485
 30
0.0
 10
111.6214382316433
 20
-154.8277587503556
 30
0.0
 10
111.5938774677613
 20
-154.8001979864736
 30
0.0
 10
111.5577039651661
 20
-154.7640244838784
 30
0.0
 10
111.5577039651661
 20
-154.7640244838784
 30
0.0
 10
111.7334038349139
 20
-154.681686701781
 30
0.0
 10
111.7334038349139
 20
-154.681686701781
 30
0.0
 10
111.7737114520913
 20
-154.7175156948276
 30
0.0
 10
111.818153183851
 20
-154.7598903692962
 30
0.0
 10
111.8922227367839
 20
-154.8697889152756
 30
0.0
 10
111.8922227367839
 20
-154.8697889152756
 30
0.0
 10
111.7778455666736
 20
-154.9249104430396
 30
0.0
 10
111.7778455666736
 20
-154.9249104430396
 30
0.0
 10
111.7778455666736
 20
-154.9249104430396
 30
0.0
 10
111.7885253626779
 20
-154.9249104430396
 30
0.0
 10
111.7885253626779
 20
-154.9249104430396
 30
0.0
 10
111.7885253626779
 20
-154.9249104430396
 30
0.0
 10
112.3108018382417
 20
-154.9249104430396
 30
0.0
 10
112.3108018382417
 20
-154.9249104430396
 30
0.0
 10
112.3108018382417
 20
-154.9249104430396
 30
0.0
 10
112.2157172028489
 20
-154.8804687112799
 30
0.0
 10
112.2157172028489
 20
-154.8804687112799
 30
0.0
 10
112.2432779667309
 20
-154.8425726609422
 30
0.0
 10
112.300466551786
 20
-154.7619574265873
 30
0.0
 10
112.3152804623726
 20
-154.6878878736544
 30
0.0
 10
112.3152804623726
 20
-154.6878878736544
 30
0.0
 10
112.5288763824581
 20
-154.7516221401316
 30
0.0
 10
112.5288763824581
 20
-154.7516221401316
 30
0.0
 10
112.5371446116227
 20
-154.7536891974227
 30
0.0
 10
112.5585042036312
 20
-154.7640244838784
 30
0.0
 10
112.5585042036312
 20
-154.785384075887
 30
0.0
 10
112.5585042036312
 20
-154.8232801262247
 30
0.0
 10
112.4927028798629
 20
-154.8232801262247
 30
0.0
 10
112.4737548546941
 20
-154.8232801262247
 30
0.0
 10
112.4630750586898
 20
-154.8425726609422
 30
0.0
 10
112.4399929189386
 20
-154.882535768571
 30
0.0
 10
112.4103650977655
 20
-154.9228433857485
 30
0.0
 10
112.810340683603
 20
-154.916642213875
 30
0.0
 10
112.8399685047761
 20
-154.9142306470353
 30
0.0
 10
112.9161051150001
 20
-154.9080294751619
 30
0.0
 10
112.9161051150001
 20
-154.9080294751619
 30
0.0
 10
112.9161051150001
 20
-155.0899305167831
 30
0.0
 10
112.9161051150001
 20
-155.0899305167831
 30
0.0
 10
112.8968125802827
 20
-155.0899305167831
 30
0.0
 10
112.8716633832404
 20
-155.0878634594919
 30
0.0
 10
112.651521781733
 20
-155.0792507207788
 30
0.0
 10
112.6008788780998
 20
-155.0771836634877
 30
0.0
 10
112.3807372765923
 20
-155.0730495489053
 30
0.0
 10
112.3362955448326
 20
-155.0730495489053
 30
0.0
 10
112.3362955448326
 20
-155.0730495489053
 30
0.0
 10
112.120632567456
 20
-155.0730495489053
 30
0.0
 10
112.120632567456
 20
-155.0730495489053
 30
0.0
 10
112.120632567456
 20
-155.0730495489053
 30
0.0
 10
112.120632567456
 20
-155.1915608335979
 30
0.0
 10
112.120632567456
 20
-155.1915608335979
 30
0.0
 10
112.120632567456
 20
-155.1915608335979
 30
0.0
 10
112.293920870364
 20
-155.1915608335979
 30
0.0
 10
112.293920870364
 20
-155.1915608335979
 30
0.0
 10
112.4568738868163
 20
-155.1915608335979
 30
0.0
 10
112.6473876671507
 20
-155.1915608335979
 30
0.0
 10
112.803795002181
 20
-155.1808810375937
 30
0.0
 10
112.803795002181
 20
-155.1808810375937
 30
0.0
 10
112.803795002181
 20
-155.3524467927591
 30
0.0
 10
112.803795002181
 20
-155.3524467927591
 30
0.0
 10
112.5943331966778
 20
-155.343834054046
 30
0.0
 10
112.39761824447
 20
-155.3417669967548
 30
0.0
 10
112.293920870364
 20
-155.3417669967548
 30
0.0
 10
112.293920870364
 20
-155.3417669967548
 30
0.0
 10
112.120632567456
 20
-155.3417669967548
 30
0.0
 10
112.120632567456
 20
-155.3417669967548
 30
0.0
 10
112.120632567456
 20
-155.3417669967548
 30
0.0
 10
112.120632567456
 20
-155.4495984854432
 30
0.0
 10
112.120632567456
 20
-155.4495984854432
 30
0.0
 10
112.120632567456
 20
-155.4495984854432
 30
0.0
 10
112.3511094554192
 20
-155.4495984854432
 30
0.0
 10
112.3511094554192
 20
-155.4495984854432
 30
0.0
 10
112.4844346506983
 20
-155.4495984854432
 30
0.0
 10
112.7721001237167
 20
-155.4454643708609
 30
0.0
 10
112.9815619292199
 20
-155.4389186894389
 30
0.0
 10
112.9815619292199
 20
-155.4389186894389
 30
0.0
 10
112.9815619292199
 20
-155.6166856164778
 30
0.0
 10
112.9815619292199
 20
-155.6166856164778
 30
0.0
 10
112.7889810915944
 20
-155.6104844446043
 30
0.0
 10
112.4758219119852
 20
-155.6060058204735
 30
0.0
 10
112.3511094554192
 20
-155.6060058204735
 30
0.0
  0
POLYLINE
  5
1A3
330
19A
100
AcDbEntity
  8
_U+30EC_U+30A4_U+30E4_U+30FC 1
370
     0
100
AcDb2dPolyline
 66
     1
 10
0.0
 20
0.0
 30
0.0
  0
VERTEX
  5
1A4
330
1A3
100
AcDbEntity
  8
_U+30EC_U+30A4_U+30E4_U+30FC 1
370
     0
100
AcDbVertex
100
AcDb2dVertex
 10
112.5161295291626
 20
-155.8619764150276
 30
0.0
  0
VERTEX
  5
1A5
330
1A3
100
AcDbEntity
  8
_U+30EC_U+30A4_U+30E4_U+30FC 1
370
     0
100
AcDbVertex
100
AcDb2dVertex
 10
111.8095404451379
 20
-155.8619764150276
 30
0.0
  0
VERTEX
  5
1A6
330
1A3
100
AcDbEntity
  8
_U+30EC_U+30A4_U+30E4_U+30FC 1
370
     0
100
AcDbVertex
100
AcDb2dVertex
 10
111.8095404451379
 20
-155.9701524132644
 30
0.0
  0
VERTEX
  5
1A7
330
1A3
100
AcDbEntity
  8
_U+30EC_U+30A4_U+30E4_U+30FC 1
370
     0
100
AcDbVertex
100
AcDb2dVertex
 10
112.5161295291626
 20
-155.9701524132644
 30
0.0
  0
VERTEX
  5
1A8
330
1A3
100
AcDbEntity
  8
_U+30EC_U+30A4_U+30E4_U+30FC 1
370
     0
100
AcDbVertex
100
AcDb2dVertex
 10
112.5161295291626
 20
-155.8619764150276
 30
0.0
  0
SEQEND
  5
1A9
330
1A3
100
AcDbEntity
  8
_U+30EC_U+30A4_U+30E4_U+30FC 1
370
     0
  0
POLYLINE
  5
1AA
330
19A
100
AcDbEntity
  8
_U+30EC_U+30A4_U+30E4_U+30FC 1
370
     0
100
AcDb2dPolyline
 66
     1
 10
0.0
 20
0.0
 30
0.0
  0
VERTEX
  5
1AB
330
1AA
100
AcDbEntity
  8
_U+30EC_U+30A4_U+30E4_U+30FC 1
370
     0
100
AcDbVertex
100
AcDb2dVertex
 10
112.5161295291626
 20
-156.0948648698304
 30
0.0
  0
VERTEX
  5
1AC
330
1AA
100
AcDbEntity
  8
_U+30EC_U+30A4_U+30E4_U+30FC 1
370
     0
100
AcDbVertex
100
AcDb2dVertex
 10
111.8095404451379
 20
-156.0948648698304
 30
0.0
  0
VERTEX
  5
1AD
330
1AA
100
AcDbEntity
  8
_U+30EC_U+30A4_U+30E4_U+30FC 1
370
     0
100
AcDbVertex
100
AcDb2dVertex
 10
111.8095404451379
 20
-156.2092420399408
 30
0.0
  0
VERTEX
  5
1AE
330
1AA
100
AcDbEntity
  8
_U+30EC_U+30A4_U+30E4_U+30FC 1
370
     0
100
AcDbVertex
100
AcDb2dVertex
 10
112.5161295291626
 20
-156.2092420399408
 30
0.0
  0
VERTEX
  5
1AF
330
1AA
100
AcDbEntity
  8
_U+30EC_U+30A4_U+30E4_U+30FC 1
370
     0
100
AcDbVertex
100
AcDb2dVertex
 10
112.5161295291626
 20
-156.0948648698304
 30
0.0
  0
SEQEND
  5
1B0
330
1AA
100
AcDbEntity
  8
_U+30EC_U+30A4_U+30E4_U+30FC 1
370
     0
  0
POLYLINE
  5
1B1
330
19A
100
AcDbEntity
  8
_U+30EC_U+30A4_U+30E4_U+30FC 1
370
     0
100
AcDb2dPolyline
 66
     1
 10
0.0
 20
0.0
 30
0.0
  0
VERTEX
  5
1B2
330
1B1
100
AcDbEntity
  8
_U+30EC_U+30A4_U+30E4_U+30FC 1
370
     0
100
AcDbVertex
100
AcDb2dVertex
 10
112.5161295291626
 20
-156.3380886110891
 30
0.0
  0
VERTEX
  5
1B3
330
1B1
100
AcDbEntity
  8
_U+30EC_U+30A4_U+30E4_U+30FC 1
370
     0
100
AcDbVertex
100
AcDb2dVertex
 10
111.8095404451379
 20
-156.3380886110891
 30
0.0
  0
VERTEX
  5
1B4
330
1B1
100
AcDbEntity
  8
_U+30EC_U+30A4_U+30E4_U+30FC 1
370
     0
100
AcDbVertex
100
AcDb2dVertex
 10
111.8095404451379
 20
-156.4524657811994
 30
0.0
  0
VERTEX
  5
1B5
330
1B1
100
AcDbEntity
  8
_U+30EC_U+30A4_U+30E4_U+30FC 1
370
     0
100
AcDbVertex
100
AcDb2dVertex
 10
112.5161295291626
 20
-156.4524657811994
 30
0.0
  0
VERTEX
  5
1B6
330
1B1
100
AcDbEntity
  8
_U+30EC_U+30A4_U+30E4_U+30FC 1
370
     0
100
AcDbVertex
100
AcDb2dVertex
 10
112.5161295291626
 20
-156.3380886110891
 30
0.0
  0
SEQEND
  5
1B7
330
1B1
100
AcDbEntity
  8
_U+30EC_U+30A4_U+30E4_U+30FC 1
370
     0
  0
HATCH
  5
1B8
330
19A
100
AcDbEntity
  8
_U+30EC_U+30A4_U+30E4_U+30FC 1
 62
   179
420
  2234388
100
AcDbHatch
 10
0.0
 20
0.0
 30
0.0
210
0.0
220
0.0
230
1.0
  2
SOLID
 70
     1
 71
     0
 91
        4
 92
        1
 93
        1
 72
     4
 94
        3
 73
     0
 74
     1
 95
      203
 96
      199
 40
0.0
 40
0.0
 40
0.0
 40
0.0
 40
1.0
 40
1.0
 40
1.0
 40
2.0
 40
2.0
 40
2.0
 40
3.0
 40
3.0
 40
3.0
 40
4.0
 40
4.0
 40
4.0
 40
5.0
 40
5.0
 40
5.0
 40
6.0
 40
6.0
 40
6.0
 40
7.0
 40
7.0
 40
7.0
 40
8.0
 40
8.0
 40
8.0
 40
9.0
 40
9.0
 40
9.0
 40
10.0
 40
10.0
 40
10.0
 40
11.0
 40
11.0
 40
11.0
 40
12.0
 40
12.0
 40
12.0
 40
13.0
 40
13.0
 40
13.0
 40
14.0
 40
14.0
 40
14.0
 40
15.0
 40
15.0
 40
15.0
 40
16.0
 40
16.0
 40
16.0
 40
17.0
 40
17.0
 40
17.0
 40
18.0
 40
18.0
 40
18.0
 40
19.0
 40
19.0
 40
19.0
 40
20.0
 40
20.0
 40
20.0
 40
21.0
 40
21.0
 40
21.0
 40
22.0
 40
22.0
 40
22.0
 40
23.0
 40
23.0
 40
23.0
 40
24.0
 40
24.0
 40
24.0
 40
25.0
 40
25.0
 40
25.0
 40
26.0
 40
26.0
 40
26.0
 40
27.0
 40
27.0
 40
27.0
 40
28.0
 40
28.0
 40
28.0
 40
29.0
 40
29.0
 40
29.0
 40
30.0
 40
30.0
 40
30.0
 40
31.0
 40
31.0
 40
31.0
 40
32.0
 40
32.0
 40
32.0
 40
33.0
 40
33.0
 40
33.0
 40
34.0
 40
34.0
 40
34.0
 40
35.0
 40
35.0
 40
35.0
 40
36.0
 40
36.0
 40
36.0
 40
37.0
 40
37.0
 40
37.0
 40
38.0
 40
38.0
 40
38.0
 40
39.0
 40
39.0
 40
39.0
 40
40.0
 40
40.0
 40
40.0
 40
41.0
 40
41.0
 40
41.0
 40
42.0
 40
42.0
 40
42.0
 40
43.0
 40
43.0
 40
43.0
 40
44.0
 40
44.0
 40
44.0
 40
45.0
 40
45.0
 40
45.0
 40
46.0
 40
46.0
 40
46.0
 40
47.0
 40
47.0
 40
47.0
 40
48.0
 40
48.0
 40
48.0
 40
49.0
 40
49.0
 40
49.0
 40
50.0
 40
50.0
 40
50.0
 40
51.0
 40
51.0
 40
51.0
 40
52.0
 40
52.0
 40
52.0
 40
53.0
 40
53.0
 40
53.0
 40
54.0
 40
54.0
 40
54.0
 40
55.0
 40
55.0
 40
55.0
 40
56.0
 40
56.0
 40
56.0
 40
57.0
 40
57.0
 40
57.0
 40
58.0
 40
58.0
 40
58.0
 40
59.0
 40
59.0
 40
59.0
 40
60.0
 40
60.0
 40
60.0
 40
61.0
 40
61.0
 40
61.0
 40
62.0
 40
62.0
 40
62.0
 40
63.0
 40
63.0
 40
63.0
 40
64.0
 40
64.0
 40
64.0
 40
65.0
 40
65.0
 40
65.0
 40
66.0
 40
66.0
 40
66.0
 40
66.0
 10
112.3511094554192
 20
-155.6060058204735
 10
112.3511094554192
 20
-155.6060058204735
 10
111.7926594772602
 20
-155.6060058204735
 10
111.7926594772602
 20
-155.6060058204735
 10
111.7819796812559
 20
-155.6504475522332
 10
111.7737114520913
 20
-155.6821424306975
 10
111.7609645987959
 20
-155.7203829905838
 10
111.7864583053867
 20
-155.7203829905838
 10
111.8009277064248
 20
-155.722450047875
 10
111.8074733878467
 20
-155.722450047875
 10
111.8074733878467
 20
-155.722450047875
 10
111.9955756013414
 20
-155.722450047875
 10
111.9955756013414
 20
-155.722450047875
 10
111.9955756013414
 20
-155.722450047875
 10
112.370057480588
 20
-155.722450047875
 10
112.370057480588
 20
-155.722450047875
 10
112.4210448937697
 20
-155.722450047875
 10
112.7045762522058
 20
-155.7097031945795
 10
112.7362711306701
 20
-155.7097031945795
 10
112.7338595638304
 20
-155.7372639584615
 10
112.7317925065393
 20
-155.7562119836304
 10
112.7317925065393
 20
-155.7858398048035
 10
112.7297254492481
 20
-155.8175346832678
 10
112.7297254492481
 20
-155.9529269358382
 10
112.7297254492481
 20
-155.9804876997202
 10
112.7297254492481
 20
-155.9804876997202
 10
112.7297254492481
 20
-156.2261230078185
 10
112.7297254492481
 20
-156.2261230078185
 10
112.7297254492481
 20
-156.2705647395782
 10
112.7338595638304
 20
-156.467279691786
 10
112.7383381879612
 20
-156.619552912234
 10
112.7383381879612
 20
-156.619552912234
 10
112.5119954145803
 20
-156.619552912234
 10
112.5119954145803
 20
-156.619552912234
 10
112.5119954145803
 20
-156.619552912234
 10
112.5140624718715
 20
-156.5857909764786
 10
112.5140624718715
 20
-156.5857909764786
 10
112.5140624718715
 20
-156.5857909764786
 10
111.811607502429
 20
-156.5857909764786
 10
111.811607502429
 20
-156.5857909764786
 10
111.811607502429
 20
-156.5857909764786
 10
111.8136745597202
 20
-156.619552912234
 10
111.8136745597202
 20
-156.619552912234
 10
111.8136745597202
 20
-156.619552912234
 10
111.5959445250524
 20
-156.619552912234
 10
111.5959445250524
 20
-156.619552912234
 10
111.6000786396347
 20
-156.56443138447
 10
111.6000786396347
 20
-156.5516845311746
 10
111.6066243210567
 20
-156.4376518706128
 10
111.6086913783478
 20
-156.4100911067308
 10
111.610758435639
 20
-156.2767659114517
 10
111.610758435639
 20
-156.2578178862828
 10
111.610758435639
 20
-156.2578178862828
 10
111.610758435639
 20
-156.054557252653
 10
111.610758435639
 20
-156.054557252653
 10
111.4712320684864
 20
-156.3043266753336
 10
111.3017333706121
 20
-156.4355848133217
 10
111.1959689392149
 20
-156.5010416275414
 10
111.1959689392149
 20
-156.5010416275414
 10
111.0223361267583
 20
-156.3615152603888
 10
111.0223361267583
 20
-156.3615152603888
 10
111.1112195902778
 20
-156.3105278472071
 10
111.2552245815612
 20
-156.2237114409788
 10
111.3926838914227
 20
-156.0294080556107
 10
111.4836344122333
 20
-155.902284032205
 10
111.5494357360015
 20
-155.7586235504701
 10
111.583197671757
 20
-155.6060058204735
 10
111.3547878410849
 20
-155.6084173873132
 10
111.1749538567549
 20
-155.6146185591866
 10
111.0795247118135
 20
-155.6166856164778
 10
111.0795247118135
 20
-155.6166856164778
 10
111.0795247118135
 20
-155.4389186894389
 10
111.0795247118135
 20
-155.4389186894389
 10
111.2765841735697
 20
-155.4454643708609
 10
111.5597710224573
 20
-155.4495984854432
 10
111.7099771856142
 20
-155.4495984854432
 10
111.7099771856142
 20
-155.4495984854432
 10
111.9239176152482
 20
-155.4495984854432
 10
111.9239176152482
 20
-155.4495984854432
 10
111.9239176152482
 20
-155.4495984854432
 10
111.9239176152482
 20
-155.3417669967548
 10
111.9239176152482
 20
-155.3417669967548
 10
111.9239176152482
 20
-155.3417669967548
 10
111.7778455666736
 20
-155.3417669967548
 10
111.7778455666736
 20
-155.3417669967548
 10
111.6086913783478
 20
-155.3417669967548
 10
111.4391926804735
 20
-155.3459011113372
 10
111.2721055494389
 20
-155.3524467927591
 10
111.2721055494389
 20
-155.3524467927591
 10
111.2721055494389
 20
-155.1808810375937
 10
111.2721055494389
 20
-155.1808810375937
 10
111.4267903367266
 20
-155.1915608335979
 10
111.6128254929301
 20
-155.1915608335979
 10
111.7778455666736
 20
-155.1915608335979
 10
111.7778455666736
 20
-155.1915608335979
 10
111.9239176152482
 20
-155.1915608335979
 10
111.9239176152482
 20
-155.1915608335979
 10
111.9239176152482
 20
-155.1915608335979
 10
111.9239176152482
 20
-155.0730495489053
 10
111.9239176152482
 20
-155.0730495489053
 10
111.9239176152482
 20
-155.0730495489053
 10
111.7926594772602
 20
-155.0730495489053
 10
111.7926594772602
 20
-155.0730495489053
 10
111.7461506882093
 20
-155.0730495489053
 10
111.5428900545796
 20
-155.0816622876185
 10
111.5008598896595
 20
-155.0816622876185
 10
111.2975992560298
 20
-155.0857964022008
 10
111.2214626458057
 20
-155.0878634594919
 10
111.1432589782906
 20
-155.0899305167831
 10
111.1432589782906
 20
-155.0899305167831
 10
111.1432589782906
 20
-154.9059624178707
 10
111.1432589782906
 20
-154.9059624178707
 10
111.2572916388524
 20
-154.9142306470353
 10
111.3017333706121
 20
-154.9142306470353
 10
111.6848279885719
 20
-154.9228433857485
 10
111.6214382316433
 20
-154.8277587503556
 10
111.5938774677613
 20
-154.8001979864736
 10
111.5577039651661
 20
-154.7640244838784
 10
111.5577039651661
 20
-154.7640244838784
 10
111.7334038349139
 20
-154.681686701781
 10
111.7334038349139
 20
-154.681686701781
 10
111.7737114520913
 20
-154.7175156948276
 10
111.818153183851
 20
-154.7598903692962
 10
111.8922227367839
 20
-154.8697889152756
 10
111.8922227367839
 20
-154.8697889152756
 10
111.7778455666736
 20
-154.9249104430396
 10
111.7778455666736
 20
-154.9249104430396
 10
111.7778455666736
 20
-154.9249104430396
 10
111.7885253626779
 20
-154.9249104430396
 10
111.7885253626779
 20
-154.9249104430396
 10
111.7885253626779
 20
-154.9249104430396
 10
112.3108018382417
 20
-154.9249104430396
 10
112.3108018382417
 20
-154.9249104430396
 10
112.3108018382417
 20
-154.9249104430396
 10
112.2157172028489
 20
-154.8804687112799
 10
112.2157172028489
 20
-154.8804687112799
 10
112.2432779667309
 20
-154.8425726609422
 10
112.300466551786
 20
-154.7619574265873
 10
112.3152804623726
 20
-154.6878878736544
 10
112.3152804623726
 20
-154.6878878736544
 10
112.5288763824581
 20
-154.7516221401316
 10
112.5288763824581
 20
-154.7516221401316
 10
112.5371446116227
 20
-154.7536891974227
 10
112.5585042036312
 20
-154.7640244838784
 10
112.5585042036312
 20
-154.785384075887
 10
112.5585042036312
 20
-154.8232801262247
 10
112.4927028798629
 20
-154.8232801262247
 10
112.4737548546941
 20
-154.8232801262247
 10
112.4630750586898
 20
-154.8425726609422
 10
112.4399929189386
 20
-154.882535768571
 10
112.4103650977655
 20
-154.9228433857485
 10
112.810340683603
 20
-154.916642213875
 10
112.8399685047761
 20
-154.9142306470353
 10
112.9161051150001
 20
-154.9080294751619
 10
112.9161051150001
 20
-154.9080294751619
 10
112.9161051150001
 20
-155.0899305167831
 10
112.9161051150001
 20
-155.0899305167831
 10
112.8968125802827
 20
-155.0899305167831
 10
112.8716633832404
 20
-155.0878634594919
 10
112.651521781733
 20
-155.0792507207788
 10
112.6008788780998
 20
-155.0771836634877
 10
112.3807372765923
 20
-155.0730495489053
 10
112.3362955448326
 20
-155.0730495489053
 10
112.3362955448326
 20
-155.0730495489053
 10
112.120632567456
 20
-155.0730495489053
 10
112.120632567456
 20
-155.0730495489053
 10
112.120632567456
 20
-155.0730495489053
 10
112.120632567456
 20
-155.1915608335979
 10
112.120632567456
 20
-155.1915608335979
 10
112.120632567456
 20
-155.1915608335979
 10
112.293920870364
 20
-155.1915608335979
 10
112.293920870364
 20
-155.1915608335979
 10
112.4568738868163
 20
-155.1915608335979
 10
112.6473876671507
 20
-155.1915608335979
 10
112.803795002181
 20
-155.1808810375937
 10
112.803795002181
 20
-155.1808810375937
 10
112.803795002181
 20
-155.3524467927591
 10
112.803795002181
 20
-155.3524467927591
 10
112.5943331966778
 20
-155.343834054046
 10
112.39761824447
 20
-155.3417669967548
 10
112.293920870364
 20
-155.3417669967548
 10
112.293920870364
 20
-155.3417669967548
 10
112.120632567456
 20
-155.3417669967548
 10
112.120632567456
 20
-155.3417669967548
 10
112.120632567456
 20
-155.3417669967548
 10
112.120632567456
 20
-155.4495984854432
 10
112.120632567456
 20
-155.4495984854432
 10
112.120632567456
 20
-155.4495984854432
 10
112.3511094554192
 20
-155.4495984854432
 10
112.3511094554192
 20
-155.4495984854432
 10
112.4844346506983
 20
-155.4495984854432
 10
112.7721001237167
 20
-155.4454643708609
 10
112.9815619292199
 20
-155.4389186894389
 10
112.9815619292199
 20
-155.4389186894389
 10
112.9815619292199
 20
-155.6166856164778
 10
112.9815619292199
 20
-155.6166856164778
 10
112.7889810915944
 20
-155.6104844446043
 10
112.4758219119852
 20
-155.6060058204735
 10
112.3511094554192
 20
-155.6060058204735
 97
        0
 97
        0
 92
        1
 93
        4
 72
     1
 10
112.5161295291626
 20
-155.8619764150276
 11
111.8095404451379
 21
-155.8619764150276
 72
     1
 10
111.8095404451379
 20
-155.8619764150276
 11
111.8095404451379
 21
-155.9701524132644
 72
     1
 10
111.8095404451379
 20
-155.9701524132644
 11
112.5161295291626
 21
-155.9701524132644
 72
     1
 10
112.5161295291626
 20
-155.9701524132644
 11
112.5161295291626
 21
-155.8619764150276
 97
        0
 92
        1
 93
        4
 72
     1
 10
112.5161295291626
 20
-156.0948648698304
 11
111.8095404451379
 21
-156.0948648698304
 72
     1
 10
111.8095404451379
 20
-156.0948648698304
 11
111.8095404451379
 21
-156.2092420399408
 72
     1
 10
111.8095404451379
 20
-156.2092420399408
 11
112.5161295291626
 21
-156.2092420399408
 72
     1
 10
112.5161295291626
 20
-156.2092420399408
 11
112.5161295291626
 21
-156.0948648698304
 97
        0
 92
        1
 93
        4
 72
     1
 10
112.5161295291626
 20
-156.3380886110891
 11
111.8095404451379
 21
-156.3380886110891
 72
     1
 10
111.8095404451379
 20
-156.3380886110891
 11
111.8095404451379
 21
-156.4524657811994
 72
     1
 10
111.8095404451379
 20
-156.4524657811994
 11
112.5161295291626
 21
-156.4524657811994
 72
     1
 10
112.5161295291626
 20
-156.4524657811994
 11
112.5161295291626
 21
-156.3380886110891
 97
        0
 75
     2
 76
     1
 98
        0
  0
SPLINE
  5
1B9
330
19A
100
AcDbEntity
  8
_U+30EC_U+30A4_U+30E4_U+30FC 1
370
     0
100
AcDbSpline
210
0.0
220
0.0
230
1.0
 70
    11
 71
     3
 72
    47
 73
    43
 74
     0
 42
0.0000000001
 43
0.0000000001
 12
1.0
 22
0.0
 32
0.0
 13
1.0
 23
0.0
 33
0.0
 40
0.0
 40
0.0
 40
0.0
 40
0.0
 40
1.0
 40
1.0
 40
1.0
 40
2.0
 40
2.0
 40
2.0
 40
3.0
 40
3.0
 40
3.0
 40
4.0
 40
4.0
 40
4.0
 40
5.0
 40
5.0
 40
5.0
 40
6.0
 40
6.0
 40
6.0
 40
7.0
 40
7.0
 40
7.0
 40
8.0
 40
8.0
 40
8.0
 40
9.0
 40
9.0
 40
9.0
 40
10.0
 40
10.0
 40
10.0
 40
11.0
 40
11.0
 40
11.0
 40
12.0
 40
12.0
 40
12.0
 40
13.0
 40
13.0
 40
13.0
 40
14.0
 40
14.0
 40
14.0
 40
14.0
 10
114.3282497544041
 20
-155.5829236807223
 30
0.0
 10
114.3282497544041
 20
-155.5829236807223
 30
0.0
 10
114.2266194375892
 20
-155.5829236807223
 30
0.0
 10
114.2266194375892
 20
-155.5829236807223
 30
0.0
 10
114.2266194375892
 20
-155.6697400869506
 30
0.0
 10
114.2056043551292
 20
-156.0590358767839
 30
0.0
 10
114.0085448933729
 20
-156.2788329687428
 30
0.0
 10
113.8562716729248
 20
-156.4479871570686
 30
0.0
 10
113.6492214342613
 20
-156.5179225954192
 30
0.0
 10
113.5644720853242
 20
-156.5454833593011
 30
0.0
 10
113.5644720853242
 20
-156.5454833593011
 30
0.0
 10
113.3698241904076
 20
-156.3783962282665
 30
0.0
 10
113.3698241904076
 20
-156.3783962282665
 30
0.0
 10
113.4669758830916
 20
-156.3656493749711
 30
0.0
 10
113.6426757528393
 20
-156.3422227256714
 30
0.0
 10
113.8311224758825
 20
-156.1541205121767
 30
0.0
 10
113.9051920288154
 20
-156.082118016535
 30
0.0
 10
114.0085448933729
 20
-155.9425916493824
 30
0.0
 10
114.0085448933729
 20
-155.5829236807223
 30
0.0
 10
114.0085448933729
 20
-155.5829236807223
 30
0.0
 10
113.7780680054097
 20
-155.5829236807223
 30
0.0
 10
113.7780680054097
 20
-155.5829236807223
 30
0.0
 10
113.5920328492062
 20
-155.5829236807223
 30
0.0
 10
113.4056531834541
 20
-155.5870577953046
 30
0.0
 10
113.2196180272507
 20
-155.6018717058912
 30
0.0
 10
113.2196180272507
 20
-155.6018717058912
 30
0.0
 10
113.2196180272507
 20
-155.3820746139323
 30
0.0
 10
113.2196180272507
 20
-155.3820746139323
 30
0.0
 10
113.4080647502938
 20
-155.3968885245188
 30
0.0
 10
113.693663166021
 20
-155.4010226391011
 30
0.0
 10
113.7780680054097
 20
-155.4010226391011
 30
0.0
 10
113.7780680054097
 20
-155.4010226391011
 30
0.0
 10
114.3282497544041
 20
-155.4010226391011
 30
0.0
 10
114.3282497544041
 20
-155.4010226391011
 30
0.0
 10
114.3471977795729
 20
-155.4010226391011
 30
0.0
 10
114.6644910737644
 20
-155.4010226391011
 30
0.0
 10
114.8929009044365
 20
-155.3820746139323
 30
0.0
 10
114.8929009044365
 20
-155.3820746139323
 30
0.0
 10
114.8929009044365
 20
-155.6018717058912
 30
0.0
 10
114.8929009044365
 20
-155.6018717058912
 30
0.0
 10
114.7047986909419
 20
-155.5870577953046
 30
0.0
 10
114.5163519678987
 20
-155.5829236807223
 30
0.0
 10
114.3282497544041
 20
-155.5829236807223
 30
0.0
  0
SPLINE
  5
1BA
330
19A
100
AcDbEntity
  8
_U+30EC_U+30A4_U+30E4_U+30FC 1
370
     0
100
AcDbSpline
210
0.0
220
0.0
230
1.0
 70
    11
 71
     3
 72
    29
 73
    25
 74
     0
 42
0.0000000001
 43
0.0000000001
 12
1.0
 22
0.0
 32
0.0
 13
1.0
 23
0.0
 33
0.0
 40
0.0
 40
0.0
 40
0.0
 40
0.0
 40
1.0
 40
1.0
 40
1.0
 40
2.0
 40
2.0
 40
2.0
 40
3.0
 40
3.0
 40
3.0
 40
4.0
 40
4.0
 40
4.0
 40
5.0
 40
5.0
 40
5.0
 40
6.0
 40
6.0
 40
6.0
 40
7.0
 40
7.0
 40
7.0
 40
8.0
 40
8.0
 40
8.0
 40
8.0
 10
114.2266194375892
 20
-155.0541015237365
 30
0.0
 10
114.2266194375892
 20
-155.0541015237365
 30
0.0
 10
113.8734971503511
 20
-155.0541015237365
 30
0.0
 10
113.8734971503511
 20
-155.0541015237365
 30
0.0
 10
113.7611870375319
 20
-155.0541015237365
 30
0.0
 10
113.6216606703793
 20
-155.0603026956099
 30
0.0
 10
113.513829181691
 20
-155.0730495489053
 30
0.0
 10
113.513829181691
 20
-155.0730495489053
 30
0.0
 10
113.513829181691
 20
-154.8380940368113
 30
0.0
 10
113.513829181691
 20
-154.8380940368113
 30
0.0
 10
113.6319959568351
 20
-154.8529079473979
 30
0.0
 10
113.8163085652959
 20
-154.8573865715287
 30
0.0
 10
113.8734971503511
 20
-154.8573865715287
 30
0.0
 10
113.8734971503511
 20
-154.8573865715287
 30
0.0
 10
114.2266194375892
 20
-154.8573865715287
 30
0.0
 10
114.2266194375892
 20
-154.8573865715287
 30
0.0
 10
114.2455674627581
 20
-154.8573865715287
 30
0.0
 10
114.4488280963878
 20
-154.8573865715287
 30
0.0
 10
114.5904215208316
 20
-154.8380940368113
 30
0.0
 10
114.5904215208316
 20
-154.8380940368113
 30
0.0
 10
114.5904215208316
 20
-155.0730495489053
 30
0.0
 10
114.5904215208316
 20
-155.0730495489053
 30
0.0
 10
114.4340141858012
 20
-155.0541015237365
 30
0.0
 10
114.2435004054669
 20
-155.0541015237365
 30
0.0
 10
114.2266194375892
 20
-155.0541015237365
 30
0.0
  0
HATCH
  5
1BB
330
19A
100
AcDbEntity
  8
_U+30EC_U+30A4_U+30E4_U+30FC 1
 62
   179
420
  2234388
100
AcDbHatch
 10
0.0
 20
0.0
 30
0.0
210
0.0
220
0.0
230
1.0
  2
SOLID
 70
     1
 71
     0
 91
        2
 92
        1
 93
        1
 72
     4
 94
        3
 73
     0
 74
     1
 95
       47
 96
       43
 40
0.0
 40
0.0
 40
0.0
 40
0.0
 40
1.0
 40
1.0
 40
1.0
 40
2.0
 40
2.0
 40
2.0
 40
3.0
 40
3.0
 40
3.0
 40
4.0
 40
4.0
 40
4.0
 40
5.0
 40
5.0
 40
5.0
 40
6.0
 40
6.0
 40
6.0
 40
7.0
 40
7.0
 40
7.0
 40
8.0
 40
8.0
 40
8.0
 40
9.0
 40
9.0
 40
9.0
 40
10.0
 40
10.0
 40
10.0
 40
11.0
 40
11.0
 40
11.0
 40
12.0
 40
12.0
 40
12.0
 40
13.0
 40
13.0
 40
13.0
 40
14.0
 40
14.0
 40
14.0
 40
14.0
 10
114.3282497544041
 20
-155.5829236807223
 10
114.3282497544041
 20
-155.5829236807223
 10
114.2266194375892
 20
-155.5829236807223
 10
114.2266194375892
 20
-155.5829236807223
 10
114.2266194375892
 20
-155.6697400869506
 10
114.2056043551292
 20
-156.0590358767839
 10
114.0085448933729
 20
-156.2788329687428
 10
113.8562716729248
 20
-156.4479871570686
 10
113.6492214342613
 20
-156.5179225954192
 10
113.5644720853242
 20
-156.5454833593011
 10
113.5644720853242
 20
-156.5454833593011
 10
113.3698241904076
 20
-156.3783962282665
 10
113.3698241904076
 20
-156.3783962282665
 10
113.4669758830916
 20
-156.3656493749711
 10
113.6426757528393
 20
-156.3422227256714
 10
113.8311224758825
 20
-156.1541205121767
 10
113.9051920288154
 20
-156.082118016535
 10
114.0085448933729
 20
-155.9425916493824
 10
114.0085448933729
 20
-155.5829236807223
 10
114.0085448933729
 20
-155.5829236807223
 10
113.7780680054097
 20
-155.5829236807223
 10
113.7780680054097
 20
-155.5829236807223
 10
113.5920328492062
 20
-155.5829236807223
 10
113.4056531834541
 20
-155.5870577953046
 10
113.2196180272507
 20
-155.6018717058912
 10
113.2196180272507
 20
-155.6018717058912
 10
113.2196180272507
 20
-155.3820746139323
 10
113.2196180272507
 20
-155.3820746139323
 10
113.4080647502938
 20
-155.3968885245188
 10
113.693663166021
 20
-155.4010226391011
 10
113.7780680054097
 20
-155.4010226391011
 10
113.7780680054097
 20
-155.4010226391011
 10
114.3282497544041
 20
-155.4010226391011
 10
114.3282497544041
 20
-155.4010226391011
 10
114.3471977795729
 20
-155.4010226391011
 10
114.6644910737644
 20
-155.4010226391011
 10
114.8929009044365
 20
-155.3820746139323
 10
114.8929009044365
 20
-155.3820746139323
 10
114.8929009044365
 20
-155.6018717058912
 10
114.8929009044365
 20
-155.6018717058912
 10
114.7047986909419
 20
-155.5870577953046
 10
114.5163519678987
 20
-155.5829236807223
 10
114.3282497544041
 20
-155.5829236807223
 97
        0
 97
        0
 92
        1
 93
        1
 72
     4
 94
        3
 73
     0
 74
     1
 95
       29
 96
       25
 40
0.0
 40
0.0
 40
0.0
 40
0.0
 40
1.0
 40
1.0
 40
1.0
 40
2.0
 40
2.0
 40
2.0
 40
3.0
 40
3.0
 40
3.0
 40
4.0
 40
4.0
 40
4.0
 40
5.0
 40
5.0
 40
5.0
 40
6.0
 40
6.0
 40
6.0
 40
7.0
 40
7.0
 40
7.0
 40
8.0
 40
8.0
 40
8.0
 40
8.0
 10
114.2266194375892
 20
-155.0541015237365
 10
114.2266194375892
 20
-155.0541015237365
 10
113.8734971503511
 20
-155.0541015237365
 10
113.8734971503511
 20
-155.0541015237365
 10
113.7611870375319
 20
-155.0541015237365
 10
113.6216606703793
 20
-155.0603026956099
 10
113.513829181691
 20
-155.0730495489053
 10
113.513829181691
 20
-155.0730495489053
 10
113.513829181691
 20
-154.8380940368113
 10
113.513829181691
 20
-154.8380940368113
 10
113.6319959568351
 20
-154.8529079473979
 10
113.8163085652959
 20
-154.8573865715287
 10
113.8734971503511
 20
-154.8573865715287
 10
113.8734971503511
 20
-154.8573865715287
 10
114.2266194375892
 20
-154.8573865715287
 10
114.2266194375892
 20
-154.8573865715287
 10
114.2455674627581
 20
-154.8573865715287
 10
114.4488280963878
 20
-154.8573865715287
 10
114.5904215208316
 20
-154.8380940368113
 10
114.5904215208316
 20
-154.8380940368113
 10
114.5904215208316
 20
-155.0730495489053
 10
114.5904215208316
 20
-155.0730495489053
 10
114.4340141858012
 20
-155.0541015237365
 10
114.2435004054669
 20
-155.0541015237365
 10
114.2266194375892
 20
-155.0541015237365
 97
        0
 97
        0
 75
     2
 76
     1
 98
        0
  0
SPLINE
  5
1BC
330
19A
100
AcDbEntity
  8
_U+30EC_U+30A4_U+30E4_U+30FC 1
370
     0
100
AcDbSpline
210
0.0
220
0.0
230
1.0
 70
    11
 71
     3
 72
    29
 73
    25
 74
     0
 42
0.0000000001
 43
0.0000000001
 12
1.0
 22
0.0
 32
0.0
 13
1.0
 23
0.0
 33
0.0
 40
0.0
 40
0.0
 40
0.0
 40
0.0
 40
1.0
 40
1.0
 40
1.0
 40
2.0
 40
2.0
 40
2.0
 40
3.0
 40
3.0
 40
3.0
 40
4.0
 40
4.0
 40
4.0
 40
5.0
 40
5.0
 40
5.0
 40
6.0
 40
6.0
 40
6.0
 40
7.0
 40
7.0
 40
7.0
 40
8.0
 40
8.0
 40
8.0
 40
8.0
 10
116.1758544631435
 20
-155.7458766971747
 30
0.0
 10
116.1758544631435
 20
-155.7458766971747
 30
0.0
 10
115.6914740379174
 20
-155.7458766971747
 30
0.0
 10
115.6914740379174
 20
-155.7458766971747
 30
0.0
 10
115.6639132740354
 20
-155.7458766971747
 30
0.0
 10
115.3466199798439
 20
-155.7458766971747
 30
0.0
 10
115.1350911170496
 20
-155.771025894217
 30
0.0
 10
115.1350911170496
 20
-155.771025894217
 30
0.0
 10
115.1350911170496
 20
-155.5405490062538
 30
0.0
 10
115.1350911170496
 20
-155.5405490062538
 30
0.0
 10
115.2935655093711
 20
-155.5639756555535
 30
0.0
 10
115.4840792897054
 20
-155.5660427128446
 30
0.0
 10
115.6914740379174
 20
-155.5660427128446
 30
0.0
 10
115.6914740379174
 20
-155.5660427128446
 30
0.0
 10
116.1758544631435
 20
-155.5660427128446
 30
0.0
 10
116.1758544631435
 20
-155.5660427128446
 30
0.0
 10
116.361889619347
 20
-155.5660427128446
 30
0.0
 10
116.5482692850991
 20
-155.5639756555535
 30
0.0
 10
116.7322373840114
 20
-155.5405490062538
 30
0.0
 10
116.7322373840114
 20
-155.5405490062538
 30
0.0
 10
116.7322373840114
 20
-155.771025894217
 30
0.0
 10
116.7322373840114
 20
-155.771025894217
 30
0.0
 10
116.5482692850991
 20
-155.7479437544658
 30
0.0
 10
116.3005669197096
 20
-155.7458766971747
 30
0.0
 10
116.1758544631435
 20
-155.7458766971747
 30
0.0
  0
HATCH
  5
1BD
330
19A
100
AcDbEntity
  8
_U+30EC_U+30A4_U+30E4_U+30FC 1
 62
   179
420
  2234388
100
AcDbHatch
 10
0.0
 20
0.0
 30
0.0
210
0.0
220
0.0
230
1.0
  2
SOLID
 70
     1
 71
     0
 91
        1
 92
        1
 93
        1
 72
     4
 94
        3
 73
     0
 74
     1
 95
       29
 96
       25
 40
0.0
 40
0.0
 40
0.0
 40
0.0
 40
1.0
 40
1.0
 40
1.0
 40
2.0
 40
2.0
 40
2.0
 40
3.0
 40
3.0
 40
3.0
 40
4.0
 40
4.0
 40
4.0
 40
5.0
 40
5.0
 40
5.0
 40
6.0
 40
6.0
 40
6.0
 40
7.0
 40
7.0
 40
7.0
 40
8.0
 40
8.0
 40
8.0
 40
8.0
 10
116.1758544631435
 20
-155.7458766971747
 10
116.1758544631435
 20
-155.7458766971747
 10
115.6914740379174
 20
-155.7458766971747
 10
115.6914740379174
 20
-155.7458766971747
 10
115.6639132740354
 20
-155.7458766971747
 10
115.3466199798439
 20
-155.7458766971747
 10
115.1350911170496
 20
-155.771025894217
 10
115.1350911170496
 20
-155.771025894217
 10
115.1350911170496
 20
-155.5405490062538
 10
115.1350911170496
 20
-155.5405490062538
 10
115.2935655093711
 20
-155.5639756555535
 10
115.4840792897054
 20
-155.5660427128446
 10
115.6914740379174
 20
-155.5660427128446
 10
115.6914740379174
 20
-155.5660427128446
 10
116.1758544631435
 20
-155.5660427128446
 10
116.1758544631435
 20
-155.5660427128446
 10
116.361889619347
 20
-155.5660427128446
 10
116.5482692850991
 20
-155.5639756555535
 10
116.7322373840114
 20
-155.5405490062538
 10
116.7322373840114
 20
-155.5405490062538
 10
116.7322373840114
 20
-155.771025894217
 10
116.7322373840114
 20
-155.771025894217
 10
116.5482692850991
 20
-155.7479437544658
 10
116.3005669197096
 20
-155.7458766971747
 10
116.1758544631435
 20
-155.7458766971747
 97
        0
 97
        0
 75
     2
 76
     1
 98
        0
  0
SPLINE
  5
1BE
330
19A
100
AcDbEntity
  8
_U+30EC_U+30A4_U+30E4_U+30FC 1
370
     0
100
AcDbSpline
210
0.0
220
0.0
230
1.0
 70
    11
 71
     3
 72
    44
 73
    40
 74
     0
 42
0.0000000001
 43
0.0000000001
 12
1.0
 22
0.0
 32
0.0
 13
1.0
 23
0.0
 33
0.0
 40
0.0
 40
0.0
 40
0.0
 40
0.0
 40
1.0
 40
1.0
 40
1.0
 40
2.0
 40
2.0
 40
2.0
 40
3.0
 40
3.0
 40
3.0
 40
4.0
 40
4.0
 40
4.0
 40
5.0
 40
5.0
 40
5.0
 40
6.0
 40
6.0
 40
6.0
 40
7.0
 40
7.0
 40
7.0
 40
8.0
 40
8.0
 40
8.0
 40
9.0
 40
9.0
 40
9.0
 40
10.0
 40
10.0
 40
10.0
 40
11.0
 40
11.0
 40
11.0
 40
12.0
 40
12.0
 40
12.0
 40
13.0
 40
13.0
 40
13.0
 40
13.0
 10
118.3896728219651
 20
-155.3080050609994
 30
0.0
 10
118.2777072186945
 20
-155.6759412588241
 30
0.0
 10
118.2270643150613
 20
-155.8347601606941
 30
0.0
 10
118.0303493628535
 20
-156.0841850738262
 30
0.0
 10
117.8460367543927
 20
-156.3150064713379
 30
0.0
 10
117.609358694556
 20
-156.5010416275414
 30
0.0
 10
117.3299614507022
 20
-156.5940592056432
 30
0.0
 10
117.3299614507022
 20
-156.5940592056432
 30
0.0
 10
117.1373806130768
 20
-156.4142252213131
 30
0.0
 10
117.1373806130768
 20
-156.4142252213131
 30
0.0
 10
117.7785128828818
 20
-156.2619520008651
 30
0.0
 10
118.1085530303687
 20
-155.7055690799972
 30
0.0
 10
118.1719427872973
 20
-155.2656303865308
 30
0.0
 10
118.1719427872973
 20
-155.2656303865308
 30
0.0
 10
117.4060980609263
 20
-155.2656303865308
 30
0.0
 10
117.4060980609263
 20
-155.2656303865308
 30
0.0
 10
117.3130804828245
 20
-155.2656303865308
 30
0.0
 10
117.1291123839122
 20
-155.2697645011131
 30
0.0
 10
116.9723605393333
 20
-155.288712526282
 30
0.0
 10
116.9723605393333
 20
-155.288712526282
 30
0.0
 10
116.9723605393333
 20
-155.0689154343231
 30
0.0
 10
116.9723605393333
 20
-155.0689154343231
 30
0.0
 10
117.0591769455616
 20
-155.0899305167831
 30
0.0
 10
117.3110134255334
 20
-155.0899305167831
 30
0.0
 10
117.4102321755086
 20
-155.0899305167831
 30
0.0
 10
117.4102321755086
 20
-155.0899305167831
 30
0.0
 10
117.8419026398104
 20
-155.0899305167831
 30
0.0
 10
117.8419026398104
 20
-155.0899305167831
 30
0.0
 10
117.8842773142789
 20
-155.0899305167831
 30
0.0
 10
118.1188883168245
 20
-155.0878634594919
 30
0.0
 10
118.1571288767107
 20
-155.0816622876185
 30
0.0
 10
118.1995035511793
 20
-155.0751166061965
 30
0.0
 10
118.2015706084704
 20
-155.0730495489053
 30
0.0
 10
118.2628933081079
 20
-155.0327419317279
 30
0.0
 10
118.2628933081079
 20
-155.0327419317279
 30
0.0
 10
118.4513400311511
 20
-155.1874267190157
 30
0.0
 10
118.4513400311511
 20
-155.1874267190157
 30
0.0
 10
118.4217122099779
 20
-155.2170545401888
 30
0.0
 10
118.4068982993913
 20
-155.2487494186531
 30
0.0
 10
118.3896728219651
 20
-155.3080050609994
 30
0.0
  0
SPLINE
  5
1BF
330
19A
100
AcDbEntity
  8
_U+30EC_U+30A4_U+30E4_U+30FC 1
370
     0
100
AcDbSpline
210
0.0
220
0.0
230
1.0
 70
    11
 71
     3
 72
    17
 73
    13
 74
     0
 42
0.0000000001
 43
0.0000000001
 12
1.0
 22
0.0
 32
0.0
 13
1.0
 23
0.0
 33
0.0
 40
0.0
 40
0.0
 40
0.0
 40
0.0
 40
1.0
 40
1.0
 40
1.0
 40
2.0
 40
2.0
 40
2.0
 40
3.0
 40
3.0
 40
3.0
 40
4.0
 40
4.0
 40
4.0
 40
4.0
 10
118.5991346274683
 20
-155.108878541952
 30
0.0
 10
118.4723551136111
 20
-155.108878541952
 30
0.0
 10
118.3707247967962
 20
-155.0075927346856
 30
0.0
 10
118.3707247967962
 20
-154.8804687112799
 30
0.0
 10
118.3707247967962
 20
-154.7536891974227
 30
0.0
 10
118.4723551136111
 20
-154.6499918233167
 30
0.0
 10
118.5991346274683
 20
-154.6499918233167
 30
0.0
 10
118.726258650874
 20
-154.6499918233167
 30
0.0
 10
118.82995602498
 20
-154.7536891974227
 30
0.0
 10
118.82995602498
 20
-154.8804687112799
 30
0.0
 10
118.82995602498
 20
-155.0075927346856
 30
0.0
 10
118.726258650874
 20
-155.108878541952
 30
0.0
 10
118.5991346274683
 20
-155.108878541952
 30
0.0
  0
SPLINE
  5
1C0
330
19A
100
AcDbEntity
  8
_U+30EC_U+30A4_U+30E4_U+30FC 1
370
     0
100
AcDbSpline
210
0.0
220
0.0
230
1.0
 70
    11
 71
     3
 72
    17
 73
    13
 74
     0
 42
0.0000000001
 43
0.0000000001
 12
1.0
 22
0.0
 32
0.0
 13
1.0
 23
0.0
 33
0.0
 40
0.0
 40
0.0
 40
0.0
 40
0.0
 40
1.0
 40
1.0
 40
1.0
 40
2.0
 40
2.0
 40
2.0
 40
3.0
 40
3.0
 40
3.0
 40
4.0
 40
4.0
 40
4.0
 40
4.0
 10
118.5970675701771
 20
-154.778838394465
 30
0.0
 10
118.5422905519617
 20
-154.778838394465
 30
0.0
 10
118.4978488202019
 20
-154.8232801262247
 30
0.0
 10
118.4978488202019
 20
-154.8784016539887
 30
0.0
 10
118.4978488202019
 20
-154.9355902390439
 30
0.0
 10
118.5422905519617
 20
-154.9841660853859
 30
0.0
 10
118.6012016847594
 20
-154.9841660853859
 30
0.0
 10
118.6604573271057
 20
-154.9841660853859
 30
0.0
 10
118.7007649442832
 20
-154.9335231817527
 30
0.0
 10
118.7007649442832
 20
-154.8804687112799
 30
0.0
 10
118.7007649442832
 20
-154.8232801262247
 30
0.0
 10
118.6542561552323
 20
-154.778838394465
 30
0.0
 10
118.5970675701771
 20
-154.778838394465
 30
0.0
  0
HATCH
  5
1C1
330
19A
100
AcDbEntity
  8
_U+30EC_U+30A4_U+30E4_U+30FC 1
 62
   179
420
  2234388
100
AcDbHatch
 10
0.0
 20
0.0
 30
0.0
210
0.0
220
0.0
230
1.0
  2
SOLID
 70
     1
 71
     0
 91
        3
 92
        1
 93
        1
 72
     4
 94
        3
 73
     0
 74
     1
 95
       44
 96
       40
 40
0.0
 40
0.0
 40
0.0
 40
0.0
 40
1.0
 40
1.0
 40
1.0
 40
2.0
 40
2.0
 40
2.0
 40
3.0
 40
3.0
 40
3.0
 40
4.0
 40
4.0
 40
4.0
 40
5.0
 40
5.0
 40
5.0
 40
6.0
 40
6.0
 40
6.0
 40
7.0
 40
7.0
 40
7.0
 40
8.0
 40
8.0
 40
8.0
 40
9.0
 40
9.0
 40
9.0
 40
10.0
 40
10.0
 40
10.0
 40
11.0
 40
11.0
 40
11.0
 40
12.0
 40
12.0
 40
12.0
 40
13.0
 40
13.0
 40
13.0
 40
13.0
 10
118.3896728219651
 20
-155.3080050609994
 10
118.2777072186945
 20
-155.6759412588241
 10
118.2270643150613
 20
-155.8347601606941
 10
118.0303493628535
 20
-156.0841850738262
 10
117.8460367543927
 20
-156.3150064713379
 10
117.609358694556
 20
-156.5010416275414
 10
117.3299614507022
 20
-156.5940592056432
 10
117.3299614507022
 20
-156.5940592056432
 10
117.1373806130768
 20
-156.4142252213131
 10
117.1373806130768
 20
-156.4142252213131
 10
117.7785128828818
 20
-156.2619520008651
 10
118.1085530303687
 20
-155.7055690799972
 10
118.1719427872973
 20
-155.2656303865308
 10
118.1719427872973
 20
-155.2656303865308
 10
117.4060980609263
 20
-155.2656303865308
 10
117.4060980609263
 20
-155.2656303865308
 10
117.3130804828245
 20
-155.2656303865308
 10
117.1291123839122
 20
-155.2697645011131
 10
116.9723605393333
 20
-155.288712526282
 10
116.9723605393333
 20
-155.288712526282
 10
116.9723605393333
 20
-155.0689154343231
 10
116.9723605393333
 20
-155.0689154343231
 10
117.0591769455616
 20
-155.0899305167831
 10
117.3110134255334
 20
-155.0899305167831
 10
117.4102321755086
 20
-155.0899305167831
 10
117.4102321755086
 20
-155.0899305167831
 10
117.8419026398104
 20
-155.0899305167831
 10
117.8419026398104
 20
-155.0899305167831
 10
117.8842773142789
 20
-155.0899305167831
 10
118.1188883168245
 20
-155.0878634594919
 10
118.1571288767107
 20
-155.0816622876185
 10
118.1995035511793
 20
-155.0751166061965
 10
118.2015706084704
 20
-155.0730495489053
 10
118.2628933081079
 20
-155.0327419317279
 10
118.2628933081079
 20
-155.0327419317279
 10
118.4513400311511
 20
-155.1874267190157
 10
118.4513400311511
 20
-155.1874267190157
 10
118.4217122099779
 20
-155.2170545401888
 10
118.4068982993913
 20
-155.2487494186531
 10
118.3896728219651
 20
-155.3080050609994
 97
        0
 97
        0
 92
        1
 93
        1
 72
     4
 94
        3
 73
     0
 74
     1
 95
       17
 96
       13
 40
0.0
 40
0.0
 40
0.0
 40
0.0
 40
1.0
 40
1.0
 40
1.0
 40
2.0
 40
2.0
 40
2.0
 40
3.0
 40
3.0
 40
3.0
 40
4.0
 40
4.0
 40
4.0
 40
4.0
 10
118.5991346274683
 20
-155.108878541952
 10
118.4723551136111
 20
-155.108878541952
 10
118.3707247967962
 20
-155.0075927346856
 10
118.3707247967962
 20
-154.8804687112799
 10
118.3707247967962
 20
-154.7536891974227
 10
118.4723551136111
 20
-154.6499918233167
 10
118.5991346274683
 20
-154.6499918233167
 10
118.726258650874
 20
-154.6499918233167
 10
118.82995602498
 20
-154.7536891974227
 10
118.82995602498
 20
-154.8804687112799
 10
118.82995602498
 20
-155.0075927346856
 10
118.726258650874
 20
-155.108878541952
 10
118.5991346274683
 20
-155.108878541952
 97
        0
 97
        0
 92
        1
 93
        1
 72
     4
 94
        3
 73
     0
 74
     1
 95
       17
 96
       13
 40
0.0
 40
0.0
 40
0.0
 40
0.0
 40
1.0
 40
1.0
 40
1.0
 40
2.0
 40
2.0
 40
2.0
 40
3.0
 40
3.0
 40
3.0
 40
4.0
 40
4.0
 40
4.0
 40
4.0
 10
118.5970675701771
 20
-154.778838394465
 10
118.5422905519617
 20
-154.778838394465
 10
118.4978488202019
 20
-154.8232801262247
 10
118.4978488202019
 20
-154.8784016539887
 10
118.4978488202019
 20
-154.9355902390439
 10
118.5422905519617
 20
-154.9841660853859
 10
118.6012016847594
 20
-154.9841660853859
 10
118.6604573271057
 20
-154.9841660853859
 10
118.7007649442832
 20
-154.9335231817527
 10
118.7007649442832
 20
-154.8804687112799
 10
118.7007649442832
 20
-154.8232801262247
 10
118.6542561552323
 20
-154.778838394465
 10
118.5970675701771
 20
-154.778838394465
 97
        0
 97
        0
 75
     2
 76
     1
 98
        0
  0
ENDBLK
  5
19D
330
19A
100
AcDbEntity
  8
0
100
AcDbBlockEnd
  0
ENDSEC
  0
SECTION
  2
ENTITIES
  0
SPLINE
  5
41
330
1F
100
AcDbEntity
  8
_U+30EC_U+30A4_U+30E4_U+30FC 1
 62
   179
420
  2234388
370
     9
100
AcDbSpline
210
0.0
220
0.0
230
1.0
 70
    11
 71
     3
 72
    17
 73
    13
 74
     0
 42
0.0000000001
 43
0.0000000001
 12
1.0
 22
0.0
 32
0.0
 13
1.0
 23
0.0
 33
0.0
 40
0.0
 40
0.0
 40
0.0
 40
0.0
 40
1.0
 40
1.0
 40
1.0
 40
2.0
 40
2.0
 40
2.0
 40
3.0
 40
3.0
 40
3.0
 40
4.0
 40
4.0
 40
4.0
 40
4.0
 10
95.94309935820282
 20
-164.6987539939273
 30
0.0
 10
95.94309935820282
 20
-164.7537893943042
 30
0.0
 10
95.98789636543478
 20
-164.7985971674592
 30
0.0
 10
96.04293176581164
 20
-164.7985971674592
 30
0.0
 10
96.09796716618851
 20
-164.7985971674592
 30
0.0
 10
96.14276417341982
 20
-164.7537893943042
 30
0.0
 10
96.14276417341982
 20
-164.6987539939273
 30
0.0
 10
96.14276417341982
 20
-164.6437401253972
 30
0.0
 10
96.09796716618851
 20
-164.5989323522422
 30
0.0
 10
96.04293176581164
 20
-164.5989323522422
 30
0.0
 10
95.98789636543478
 20
-164.5989323522422
 30
0.0
 10
95.94309935820282
 20
-164.6437401253972
 30
0.0
 10
95.94309935820282
 20
-164.6987539939273
 30
0.0
  0
SPLINE
  5
42
330
1F
100
AcDbEntity
  8
_U+30EC_U+30A4_U+30E4_U+30FC 1
 62
   179
420
  2234388
370
     9
100
AcDbSpline
210
0.0
220
0.0
230
1.0
 70
    11
 71
     3
 72
    17
 73
    13
 74
     0
 42
0.0000000001
 43
0.0000000001
 12
1.0
 22
0.0
 32
0.0
 13
1.0
 23
0.0
 33
0.0
 40
0.0
 40
0.0
 40
0.0
 40
0.0
 40
1.0
 40
1.0
 40
1.0
 40
2.0
 40
2.0
 40
2.0
 40
3.0
 40
3.0
 40
3.0
 40
4.0
 40
4.0
 40
4.0
 40
4.0
 10
89.9431318270154
 20
-164.6987539939273
 30
0.0
 10
89.9431318270154
 20
-164.7537893943042
 30
0.0
 10
89.98792883424673
 20
-164.7985971674592
 30
0.0
 10
90.0429642346236
 20
-164.7985971674592
 30
0.0
 10
90.0986994200209
 20
-164.7985971674592
 30
0.0
 10
90.14350719317594
 20
-164.7537893943042
 30
0.0
 10
90.14350719317594
 20
-164.6987539939273
 30
0.0
 10
90.14350719317594
 20
-164.6437401253972
 30
0.0
 10
90.0986994200209
 20
-164.5989323522422
 30
0.0
 10
90.0429642346236
 20
-164.5989323522422
 30
0.0
 10
89.98792883424673
 20
-164.5989323522422
 30
0.0
 10
89.9431318270154
 20
-164.6437401253972
 30
0.0
 10
89.9431318270154
 20
-164.6987539939273
 30
0.0
  0
POLYLINE
  5
43
330
1F
100
AcDbEntity
  8
_U+30EC_U+30A4_U+30E4_U+30FC 1
 62
   179
420
  2234388
370
     9
100
AcDb2dPolyline
 66
     1
 10
0.0
 20
0.0
 30
0.0
  0
VERTEX
  5
44
330
43
100
AcDbEntity
  8
_U+30EC_U+30A4_U+30E4_U+30FC 1
 62
   179
420
  2234388
370
     9
100
AcDbVertex
100
AcDb2dVertex
 10
90.04303959608765
 20
-147.0429626097236
 30
0.0
  0
VERTEX
  5
45
330
43
100
AcDbEntity
  8
_U+30EC_U+30A4_U+30E4_U+30FC 1
 62
   179
420
  2234388
370
     9
100
AcDbVertex
100
AcDb2dVertex
 10
90.04303959608765
 20
-165.6989298088357
 30
0.0
  0
SEQEND
  5
46
330
43
100
AcDbEntity
  8
_U+30EC_U+30A4_U+30E4_U+30FC 1
 62
   179
420
  2234388
370
     9
  0
POLYLINE
  5
47
330
1F
100
AcDbEntity
  8
_U+30EC_U+30A4_U+30E4_U+30FC 1
 62
   179
420
  2234388
370
     9
100
AcDb2dPolyline
 66
     1
 10
0.0
 20
0.0
 30
0.0
  0
VERTEX
  5
48
330
47
100
AcDbEntity
  8
_U+30EC_U+30A4_U+30E4_U+30FC 1
 62
   179
420
  2234388
370
     9
100
AcDbVertex
100
AcDb2dVertex
 10
90.04303959608765
 20
-164.6987539939273
 30
0.0
  0
VERTEX
  5
49
330
47
100
AcDbEntity
  8
_U+30EC_U+30A4_U+30E4_U+30FC 1
 62
   179
420
  2234388
370
     9
100
AcDbVertex
100
AcDb2dVertex
 10
96.0430824887388
 20
-164.6987539939273
 30
0.0
  0
SEQEND
  5
4A
330
47
100
AcDbEntity
  8
_U+30EC_U+30A4_U+30E4_U+30FC 1
 62
   179
420
  2234388
370
     9
  0
POLYLINE
  5
4B
330
1F
100
AcDbEntity
  8
_U+30EC_U+30A4_U+30E4_U+30FC 1
 62
   179
420
  2234388
370
     9
100
AcDb2dPolyline
 66
     1
 10
0.0
 20
0.0
 30
0.0
  0
VERTEX
  5
4C
330
4B
100
AcDbEntity
  8
_U+30EC_U+30A4_U+30E4_U+30FC 1
 62
   179
420
  2234388
370
     9
100
AcDbVertex
100
AcDb2dVertex
 10
96.04300712727506
 20
-147.0429626097236
 30
0.0
  0
VERTEX
  5
4D
330
4B
100
AcDbEntity
  8
_U+30EC_U+30A4_U+30E4_U+30FC 1
 62
   179
420
  2234388
370
     9
100
AcDbVertex
100
AcDb2dVertex
 10
96.04300712727506
 20
-165.6989298088357
 30
0.0
  0
SEQEND
  5
4E
330
4B
100
AcDbEntity
  8
_U+30EC_U+30A4_U+30E4_U+30FC 1
 62
   179
420
  2234388
370
     9
  0
INSERT
  5
50
330
1F
100
AcDbEntity
  8
_U+30EC_U+30A4_U+30E4_U+30FC 1
100
AcDbBlockReference
  2
block 2
 10
0.0
 20
0.0
 30
0.0
  0
POLYLINE
  5
56
330
1F
100
AcDbEntity
  8
_U+30EC_U+30A4_U+30E4_U+30FC 1
 62
   179
420
  2234388
370
    25
100
AcDb2dPolyline
 66
     1
 10
0.0
 20
0.0
 30
0.0
  0
VERTEX
  5
57
330
56
100
AcDbEntity
  8
_U+30EC_U+30A4_U+30E4_U+30FC 1
 62
   179
420
  2234388
370
    25
100
AcDbVertex
100
AcDb2dVertex
 10
90.24079884286407
 20
-139.6486034468044
 30
0.0
  0
VERTEX
  5
58
330
56
100
AcDbEntity
  8
_U+30EC_U+30A4_U+30E4_U+30FC 1
 62
   179
420
  2234388
370
    25
100
AcDbVertex
100
AcDb2dVertex
 10
90.0280641966499
 20
-140.1326178306353
 30
0.0
  0
VERTEX
  5
59
330
56
100
AcDbEntity
  8
_U+30EC_U+30A4_U+30E4_U+30FC 1
 62
   179
420
  2234388
370
    25
100
AcDbVertex
100
AcDb2dVertex
 10
90.21539126366035
 20
-140.6272258830832
 30
0.0
  0
VERTEX
  5
5A
330
56
100
AcDbEntity
  8
_U+30EC_U+30A4_U+30E4_U+30FC 1
 62
   179
420
  2234388
370
    25
100
AcDbVertex
100
AcDb2dVertex
 10
90.00302265884147
 20
-141.1115847764629
 30
0.0
  0
VERTEX
  5
5B
330
56
100
AcDbEntity
  8
_U+30EC_U+30A4_U+30E4_U+30FC 1
 62
   179
420
  2234388
370
    25
100
AcDbVertex
100
AcDb2dVertex
 10
90.18999445038003
 20
-141.6068818480076
 30
0.0
  0
VERTEX
  5
5C
330
56
100
AcDbEntity
  8
_U+30EC_U+30A4_U+30E4_U+30FC 1
 62
   179
420
  2234388
370
    25
100
AcDbVertex
100
AcDb2dVertex
 10
89.97727057008923
 20
-142.0912407413869
 30
0.0
  0
VERTEX
  5
5D
330
56
100
AcDbEntity
  8
_U+30EC_U+30A4_U+30E4_U+30FC 1
 62
   179
420
  2234388
370
    25
100
AcDbVertex
100
AcDb2dVertex
 10
90.1645976370997
 20
-142.5861933033834
 30
0.0
  0
VERTEX
  5
5E
330
56
100
AcDbEntity
  8
_U+30EC_U+30A4_U+30E4_U+30FC 1
 62
   179
420
  2234388
370
    25
100
AcDbVertex
100
AcDb2dVertex
 10
89.95187375680891
 20
-143.0702076872145
 30
0.0
  0
VERTEX
  5
5F
330
56
100
AcDbEntity
  8
_U+30EC_U+30A4_U+30E4_U+30FC 1
 62
   179
420
  2234388
370
    25
100
AcDbVertex
100
AcDb2dVertex
 10
90.13919005789597
 20
-143.5647942078154
 30
0.0
  0
VERTEX
  5
60
330
56
100
AcDbEntity
  8
_U+30EC_U+30A4_U+30E4_U+30FC 1
 62
   179
420
  2234388
370
    25
100
AcDbVertex
100
AcDb2dVertex
 10
89.92646617760519
 20
-144.0488085916462
 30
0.0
  0
VERTEX
  5
61
330
56
100
AcDbEntity
  8
_U+30EC_U+30A4_U+30E4_U+30FC 1
 62
   179
420
  2234388
370
    25
100
AcDbVertex
100
AcDb2dVertex
 10
90.11379324461565
 20
-144.5433951122474
 30
0.0
  0
VERTEX
  5
62
330
56
100
AcDbEntity
  8
_U+30EC_U+30A4_U+30E4_U+30FC 1
 62
   179
420
  2234388
370
    25
100
AcDbVertex
100
AcDb2dVertex
 10
89.90106936432487
 20
-145.0270649865297
 30
0.0
  0
VERTEX
  5
63
330
56
100
AcDbEntity
  8
_U+30EC_U+30A4_U+30E4_U+30FC 1
 62
   179
420
  2234388
370
    25
100
AcDbVertex
100
AcDb2dVertex
 10
90.08839643133533
 20
-145.5209624880341
 30
0.0
  0
VERTEX
  5
64
330
56
100
AcDbEntity
  8
_U+30EC_U+30A4_U+30E4_U+30FC 1
 62
   179
420
  2234388
370
    25
100
AcDbVertex
100
AcDb2dVertex
 10
89.87567255104454
 20
-146.0053213814132
 30
0.0
  0
VERTEX
  5
65
330
56
100
AcDbEntity
  8
_U+30EC_U+30A4_U+30E4_U+30FC 1
 62
   179
420
  2234388
370
    25
100
AcDbVertex
100
AcDb2dVertex
 10
90.06298885213161
 20
-146.5006184529582
 30
0.0
  0
VERTEX
  5
66
330
56
100
AcDbEntity
  8
_U+30EC_U+30A4_U+30E4_U+30FC 1
 62
   179
420
  2234388
370
    25
100
AcDbVertex
100
AcDb2dVertex
 10
89.85026497184083
 20
-146.9849773463375
 30
0.0
  0
VERTEX
  5
67
330
56
100
AcDbEntity
  8
_U+30EC_U+30A4_U+30E4_U+30FC 1
 62
   179
420
  2234388
370
    25
100
AcDbVertex
100
AcDb2dVertex
 10
90.03723676337937
 20
-147.4795853987858
 30
0.0
  0
VERTEX
  5
68
330
56
100
AcDbEntity
  8
_U+30EC_U+30A4_U+30E4_U+30FC 1
 62
   179
420
  2234388
370
    25
100
AcDbVertex
100
AcDb2dVertex
 10
89.82486815856049
 20
-147.9639442921648
 30
0.0
  0
VERTEX
  5
69
330
56
100
AcDbEntity
  8
_U+30EC_U+30A4_U+30E4_U+30FC 1
 62
   179
420
  2234388
370
    25
100
AcDbVertex
100
AcDb2dVertex
 10
90.01219522557096
 20
-148.4588968541613
 30
0.0
  0
VERTEX
  5
6A
330
56
100
AcDbEntity
  8
_U+30EC_U+30A4_U+30E4_U+30FC 1
 62
   179
420
  2234388
370
    25
100
AcDbVertex
100
AcDb2dVertex
 10
89.7994713452805
 20
-148.9436002570892
 30
0.0
  0
VERTEX
  5
6B
330
56
100
AcDbEntity
  8
_U+30EC_U+30A4_U+30E4_U+30FC 1
 62
   179
420
  2234388
370
    25
100
AcDbVertex
100
AcDb2dVertex
 10
89.98644313681872
 20
-149.4378422681418
 30
0.0
  0
VERTEX
  5
6C
330
56
100
AcDbEntity
  8
_U+30EC_U+30A4_U+30E4_U+30FC 1
 62
   179
420
  2234388
370
    25
100
AcDbVertex
100
AcDb2dVertex
 10
89.77406376607678
 20
-149.9218566519727
 30
0.0
  0
VERTEX
  5
6D
330
56
100
AcDbEntity
  8
_U+30EC_U+30A4_U+30E4_U+30FC 1
 62
   179
420
  2234388
370
    25
100
AcDbVertex
100
AcDb2dVertex
 10
89.96139083308724
 20
-150.4164431725738
 30
0.0
  0
VERTEX
  5
6E
330
56
100
AcDbEntity
  8
_U+30EC_U+30A4_U+30E4_U+30FC 1
 62
   179
420
  2234388
370
    25
100
AcDbVertex
100
AcDb2dVertex
 10
89.74866695279613
 20
-150.9011681073485
 30
0.0
  0
VERTEX
  5
6F
330
56
100
AcDbEntity
  8
_U+30EC_U+30A4_U+30E4_U+30FC 1
 62
   179
420
  2234388
370
    25
100
AcDbVertex
100
AcDb2dVertex
 10
89.935638744335
 20
-151.3964651788935
 30
0.0
  0
VERTEX
  5
70
330
56
100
AcDbEntity
  8
_U+30EC_U+30A4_U+30E4_U+30FC 1
 62
   179
420
  2234388
370
    25
100
AcDbVertex
100
AcDb2dVertex
 10
89.7232701395158
 20
-151.8811901136682
 30
0.0
  0
VERTEX
  5
71
330
56
100
AcDbEntity
  8
_U+30EC_U+30A4_U+30E4_U+30FC 1
 62
   179
420
  2234388
370
    25
100
AcDbVertex
100
AcDb2dVertex
 10
89.91024193105434
 20
-152.3768316947617
 30
0.0
  0
VERTEX
  5
72
330
56
100
AcDbEntity
  8
_U+30EC_U+30A4_U+30E4_U+30FC 1
 62
   179
420
  2234388
370
    25
100
AcDbVertex
100
AcDb2dVertex
 10
89.69751805076356
 20
-152.860501569044
 30
0.0
  0
VERTEX
  5
73
330
56
100
AcDbEntity
  8
_U+30EC_U+30A4_U+30E4_U+30FC 1
 62
   179
420
  2234388
370
    25
100
AcDbVertex
100
AcDb2dVertex
 10
89.88484511777402
 20
-153.3550880896452
 30
0.0
  0
VERTEX
  5
74
330
56
100
AcDbEntity
  8
_U+30EC_U+30A4_U+30E4_U+30FC 1
 62
   179
420
  2234388
370
    25
100
AcDbVertex
100
AcDb2dVertex
 10
89.67246574703175
 20
-153.8401575339684
 30
0.0
  0
VERTEX
  5
75
330
56
100
AcDbEntity
  8
_U+30EC_U+30A4_U+30E4_U+30FC 1
 62
   179
420
  2234388
370
    25
100
AcDbVertex
100
AcDb2dVertex
 10
89.8594375385703
 20
-154.3358206469087
 30
0.0
  0
VERTEX
  5
76
330
56
100
AcDbEntity
  8
_U+30EC_U+30A4_U+30E4_U+30FC 1
 62
   179
420
  2234388
370
    25
100
AcDbVertex
100
AcDb2dVertex
 10
89.64671365827951
 20
-154.8219451517242
 30
0.0
  0
VERTEX
  5
77
330
56
100
AcDbEntity
  8
_U+30EC_U+30A4_U+30E4_U+30FC 1
 62
   179
420
  2234388
370
    25
100
AcDbVertex
100
AcDb2dVertex
 10
89.83368544981806
 20
-155.3182972837616
 30
0.0
  0
VERTEX
  5
78
330
56
100
AcDbEntity
  8
_U+30EC_U+30A4_U+30E4_U+30FC 1
 62
   179
420
  2234388
370
    25
100
AcDbVertex
100
AcDb2dVertex
 10
89.62131684499919
 20
-155.805132339521
 30
0.0
  0
VERTEX
  5
79
330
56
100
AcDbEntity
  8
_U+30EC_U+30A4_U+30E4_U+30FC 1
 62
   179
420
  2234388
370
    25
100
AcDbVertex
100
AcDb2dVertex
 10
89.80828863653774
 20
-156.3025395320507
 30
0.0
  0
VERTEX
  5
7A
330
56
100
AcDbEntity
  8
_U+30EC_U+30A4_U+30E4_U+30FC 1
 62
   179
420
  2234388
370
    25
100
AcDbVertex
100
AcDb2dVertex
 10
89.59556475624694
 20
-156.78937458781
 30
0.0
  0
VERTEX
  5
7B
330
56
100
AcDbEntity
  8
_U+30EC_U+30A4_U+30E4_U+30FC 1
 62
   179
420
  2234388
370
    25
100
AcDbVertex
100
AcDb2dVertex
 10
89.7828918232574
 20
-157.2868033121865
 30
0.0
  0
VERTEX
  5
7C
330
56
100
AcDbEntity
  8
_U+30EC_U+30A4_U+30E4_U+30FC 1
 62
   179
420
  2234388
370
    25
100
AcDbVertex
100
AcDb2dVertex
 10
89.57016794296662
 20
-157.7736383679459
 30
0.0
  0
VERTEX
  5
7D
330
56
100
AcDbEntity
  8
_U+30EC_U+30A4_U+30E4_U+30FC 1
 62
   179
420
  2234388
370
    25
100
AcDbVertex
100
AcDb2dVertex
 10
89.75713973450516
 20
-158.2710455604756
 30
0.0
  0
VERTEX
  5
7E
330
56
100
AcDbEntity
  8
_U+30EC_U+30A4_U+30E4_U+30FC 1
 62
   179
420
  2234388
370
    25
100
AcDbVertex
100
AcDb2dVertex
 10
89.54440508829099
 20
-158.7575361066865
 30
0.0
  0
VERTEX
  5
7F
330
56
100
AcDbEntity
  8
_U+30EC_U+30A4_U+30E4_U+30FC 1
 62
   179
420
  2234388
370
    25
100
AcDbVertex
100
AcDb2dVertex
 10
89.73173215530144
 20
-159.2538882387239
 30
0.0
  0
VERTEX
  5
80
330
56
100
AcDbEntity
  8
_U+30EC_U+30A4_U+30E4_U+30FC 1
 62
   179
420
  2234388
370
    25
100
AcDbVertex
100
AcDb2dVertex
 10
89.51900827501066
 20
-159.7396682339909
 30
0.0
  0
VERTEX
  5
81
330
56
100
AcDbEntity
  8
_U+30EC_U+30A4_U+30E4_U+30FC 1
 62
   179
420
  2234388
370
    25
100
AcDbVertex
100
AcDb2dVertex
 10
89.7059800665492
 20
-160.2345992641406
 30
0.0
  0
VERTEX
  5
82
330
56
100
AcDbEntity
  8
_U+30EC_U+30A4_U+30E4_U+30FC 1
 62
   179
420
  2234388
370
    25
100
AcDbVertex
100
AcDb2dVertex
 10
89.49361146173034
 20
-160.7196687084638
 30
0.0
  0
VERTEX
  5
83
330
56
100
AcDbEntity
  8
_U+30EC_U+30A4_U+30E4_U+30FC 1
 62
   179
420
  2234388
370
    25
100
AcDbVertex
100
AcDb2dVertex
 10
89.68058325326888
 20
-161.2153318214041
 30
0.0
  0
VERTEX
  5
84
330
56
100
AcDbEntity
  8
_U+30EC_U+30A4_U+30E4_U+30FC 1
 62
   179
420
  2234388
370
    25
100
AcDbVertex
100
AcDb2dVertex
 10
89.46821464845
 20
-161.7011118166711
 30
0.0
  0
VERTEX
  5
85
330
56
100
AcDbEntity
  8
_U+30EC_U+30A4_U+30E4_U+30FC 1
 62
   179
420
  2234388
370
    25
100
AcDbVertex
100
AcDb2dVertex
 10
89.65518643998855
 20
-162.1971194391599
 30
0.0
  0
VERTEX
  5
86
330
56
100
AcDbEntity
  8
_U+30EC_U+30A4_U+30E4_U+30FC 1
 62
   179
420
  2234388
370
    25
100
AcDbVertex
100
AcDb2dVertex
 10
89.44280706924629
 20
-162.6818228420878
 30
0.0
  0
VERTEX
  5
87
330
56
100
AcDbEntity
  8
_U+30EC_U+30A4_U+30E4_U+30FC 1
 62
   179
420
  2234388
370
    25
100
AcDbVertex
100
AcDb2dVertex
 10
89.62977886078484
 20
-163.1764308945358
 30
0.0
  0
VERTEX
  5
88
330
56
100
AcDbEntity
  8
_U+30EC_U+30A4_U+30E4_U+30FC 1
 62
   179
420
  2234388
370
    25
100
AcDbVertex
100
AcDb2dVertex
 10
89.41741025596629
 20
-163.6597347274227
 30
0.0
  0
VERTEX
  5
89
330
56
100
AcDbEntity
  8
_U+30EC_U+30A4_U+30E4_U+30FC 1
 62
   179
420
  2234388
370
    25
100
AcDbVertex
100
AcDb2dVertex
 10
89.6043820475045
 20
-164.1525556365877
 30
0.0
  0
VERTEX
  5
8A
330
56
100
AcDbEntity
  8
_U+30EC_U+30A4_U+30E4_U+30FC 1
 62
   179
420
  2234388
370
    25
100
AcDbVertex
100
AcDb2dVertex
 10
89.39201344268564
 20
-164.6348044089824
 30
0.0
  0
SEQEND
  5
8B
330
56
100
AcDbEntity
  8
_U+30EC_U+30A4_U+30E4_U+30FC 1
 62
   179
420
  2234388
370
    25
  0
POLYLINE
  5
8C
330
1F
100
AcDbEntity
  8
_U+30EC_U+30A4_U+30E4_U+30FC 1
 62
   179
420
  2234388
370
    25
100
AcDb2dPolyline
 66
     1
 10
0.0
 20
0.0
 30
0.0
  0
VERTEX
  5
8D
330
8C
100
AcDbEntity
  8
_U+30EC_U+30A4_U+30E4_U+30FC 1
 62
   179
420
  2234388
370
    25
100
AcDbVertex
100
AcDb2dVertex
 10
89.49182431844768
 20
-164.6373666987495
 30
0.0
  0
VERTEX
  5
8E
330
8C
100
AcDbEntity
  8
_U+30EC_U+30A4_U+30E4_U+30FC 1
 62
   179
420
  2234388
370
    25
100
AcDbVertex
100
AcDb2dVertex
 10
89.09141809567451
 20
-164.6267945619792
 30
0.0
  0
SEQEND
  5
8F
330
8C
100
AcDbEntity
  8
_U+30EC_U+30A4_U+30E4_U+30FC 1
 62
   179
420
  2234388
370
    25
  0
POLYLINE
  5
90
330
1F
100
AcDbEntity
  8
_U+30EC_U+30A4_U+30E4_U+30FC 1
 62
   179
420
  2234388
370
    25
100
AcDb2dPolyline
 66
     1
 10
0.0
 20
0.0
 30
0.0
  0
VERTEX
  5
91
330
90
100
AcDbEntity
  8
_U+30EC_U+30A4_U+30E4_U+30FC 1
 62
   179
420
  2234388
370
    25
100
AcDbVertex
100
AcDb2dVertex
 10
89.09152575490812
 20
-164.6267514982856
 30
0.0
  0
VERTEX
  5
92
330
90
100
AcDbEntity
  8
_U+30EC_U+30A4_U+30E4_U+30FC 1
 62
   179
420
  2234388
370
    25
100
AcDbVertex
100
AcDb2dVertex
 10
89.14620587981307
 20
-138.6266804666454
 30
0.0
  0
SEQEND
  5
93
330
90
100
AcDbEntity
  8
_U+30EC_U+30A4_U+30E4_U+30FC 1
 62
   179
420
  2234388
370
    25
  0
POLYLINE
  5
94
330
1F
100
AcDbEntity
  8
_U+30EC_U+30A4_U+30E4_U+30FC 1
 62
   179
420
  2234388
370
    25
100
AcDb2dPolyline
 66
     1
 10
0.0
 20
0.0
 30
0.0
  0
VERTEX
  5
95
330
94
100
AcDbEntity
  8
_U+30EC_U+30A4_U+30E4_U+30FC 1
 62
   179
420
  2234388
370
    25
100
AcDbVertex
100
AcDb2dVertex
 10
96.16327325748045
 20
-145.7858042034627
 30
0.0
  0
VERTEX
  5
96
330
94
100
AcDbEntity
  8
_U+30EC_U+30A4_U+30E4_U+30FC 1
 62
   179
420
  2234388
370
    25
100
AcDbVertex
100
AcDb2dVertex
 10
96.69631565643573
 20
-145.9727867609247
 30
0.0
  0
VERTEX
  5
97
330
94
100
AcDbEntity
  8
_U+30EC_U+30A4_U+30E4_U+30FC 1
 62
   179
420
  2234388
370
    25
100
AcDbVertex
100
AcDb2dVertex
 10
97.22018548866154
 20
-145.7604181561055
 30
0.0
  0
VERTEX
  5
98
330
94
100
AcDbEntity
  8
_U+30EC_U+30A4_U+30E4_U+30FC 1
 62
   179
420
  2234388
370
    25
100
AcDbVertex
100
AcDb2dVertex
 10
97.75359392901245
 20
-145.9473791817209
 30
0.0
  0
VERTEX
  5
99
330
94
100
AcDbEntity
  8
_U+30EC_U+30A4_U+30E4_U+30FC 1
 62
   179
420
  2234388
370
    25
100
AcDbVertex
100
AcDb2dVertex
 10
98.27817431218176
 20
-145.7350105769018
 30
0.0
  0
VERTEX
  5
9A
330
94
100
AcDbEntity
  8
_U+30EC_U+30A4_U+30E4_U+30FC 1
 62
   179
420
  2234388
370
    25
100
AcDbVertex
100
AcDb2dVertex
 10
98.8119272620812
 20
-145.9219931343637
 30
0.0
  0
VERTEX
  5
9B
330
94
100
AcDbEntity
  8
_U+30EC_U+30A4_U+30E4_U+30FC 1
 62
   179
420
  2234388
370
    25
100
AcDbVertex
100
AcDb2dVertex
 10
99.33579709430668
 20
-145.7096245295448
 30
0.0
  0
VERTEX
  5
9C
330
94
100
AcDbEntity
  8
_U+30EC_U+30A4_U+30E4_U+30FC 1
 62
   179
420
  2234388
370
    25
100
AcDbVertex
100
AcDb2dVertex
 10
99.86885025918535
 20
-145.89658555516
 30
0.0
  0
VERTEX
  5
9D
330
94
100
AcDbEntity
  8
_U+30EC_U+30A4_U+30E4_U+30FC 1
 62
   179
420
  2234388
370
    25
100
AcDbVertex
100
AcDb2dVertex
 10
100.3927200914111
 20
-145.6842169503411
 30
0.0
  0
VERTEX
  5
9E
330
94
100
AcDbEntity
  8
_U+30EC_U+30A4_U+30E4_U+30FC 1
 62
   179
420
  2234388
370
    25
100
AcDbVertex
100
AcDb2dVertex
 10
100.9257732562898
 20
-145.8711779759562
 30
0.0
  0
VERTEX
  5
9F
330
94
100
AcDbEntity
  8
_U+30EC_U+30A4_U+30E4_U+30FC 1
 62
   179
420
  2234388
370
    25
100
AcDbVertex
100
AcDb2dVertex
 10
101.4499983639875
 20
-145.6588093711374
 30
0.0
  0
VERTEX
  5
A0
330
94
100
AcDbEntity
  8
_U+30EC_U+30A4_U+30E4_U+30FC 1
 62
   179
420
  2234388
370
    25
100
AcDbVertex
100
AcDb2dVertex
 10
101.9841065893586
 20
-145.8457919285993
 30
0.0
  0
VERTEX
  5
A1
330
94
100
AcDbEntity
  8
_U+30EC_U+30A4_U+30E4_U+30FC 1
 62
   179
420
  2234388
370
    25
100
AcDbVertex
100
AcDb2dVertex
 10
102.5083316970563
 20
-145.6330572823852
 30
0.0
  0
VERTEX
  5
A2
330
94
100
AcDbEntity
  8
_U+30EC_U+30A4_U+30E4_U+30FC 1
 62
   179
420
  2234388
370
    25
100
AcDbVertex
100
AcDb2dVertex
 10
103.0420846469554
 20
-145.8203843493956
 30
0.0
  0
VERTEX
  5
A3
330
94
100
AcDbEntity
  8
_U+30EC_U+30A4_U+30E4_U+30FC 1
 62
   179
420
  2234388
370
    25
100
AcDbVertex
100
AcDb2dVertex
 10
103.5659544791812
 20
-145.6076712350282
 30
0.0
  0
VERTEX
  5
A4
330
94
100
AcDbEntity
  8
_U+30EC_U+30A4_U+30E4_U+30FC 1
 62
   179
420
  2234388
370
    25
100
AcDbVertex
100
AcDb2dVertex
 10
104.0993521536084
 20
-145.7949767701919
 30
0.0
  0
VERTEX
  5
A5
330
94
100
AcDbEntity
  8
_U+30EC_U+30A4_U+30E4_U+30FC 1
 62
   179
420
  2234388
370
    25
100
AcDbVertex
100
AcDb2dVertex
 10
104.6235880272295
 20
-145.5822636558245
 30
0.0
  0
VERTEX
  5
A6
330
94
100
AcDbEntity
  8
_U+30EC_U+30A4_U+30E4_U+30FC 1
 62
   179
420
  2234388
370
    25
100
AcDbVertex
100
AcDb2dVertex
 10
105.1573409771286
 20
-145.7695907228349
 30
0.0
  0
VERTEX
  5
A7
330
94
100
AcDbEntity
  8
_U+30EC_U+30A4_U+30E4_U+30FC 1
 62
   179
420
  2234388
370
    25
100
AcDbVertex
100
AcDb2dVertex
 10
105.6801557488621
 20
-145.5568560766208
 30
0.0
  0
VERTEX
  5
A8
330
94
100
AcDbEntity
  8
_U+30EC_U+30A4_U+30E4_U+30FC 1
 62
   179
420
  2234388
370
    25
100
AcDbVertex
100
AcDb2dVertex
 10
106.2135534232893
 20
-145.7438386340827
 30
0.0
  0
VERTEX
  5
A9
330
94
100
AcDbEntity
  8
_U+30EC_U+30A4_U+30E4_U+30FC 1
 62
   179
420
  2234388
370
    25
100
AcDbVertex
100
AcDb2dVertex
 10
106.7374340214385
 20
-145.5314700292642
 30
0.0
  0
VERTEX
  5
AA
330
94
100
AcDbEntity
  8
_U+30EC_U+30A4_U+30E4_U+30FC 1
 62
   179
420
  2234388
370
    25
100
AcDbVertex
100
AcDb2dVertex
 10
107.2715314808861
 20
-145.7187970962746
 30
0.0
  0
VERTEX
  5
AB
330
94
100
AcDbEntity
  8
_U+30EC_U+30A4_U+30E4_U+30FC 1
 62
   179
420
  2234388
370
    25
100
AcDbVertex
100
AcDb2dVertex
 10
107.7964671395277
 20
-145.5060624500605
 30
0.0
  0
VERTEX
  5
AC
330
94
100
AcDbEntity
  8
_U+30EC_U+30A4_U+30E4_U+30FC 1
 62
   179
420
  2234388
370
    25
100
AcDbVertex
100
AcDb2dVertex
 10
108.3305753648987
 20
-145.6930450075224
 30
0.0
  0
VERTEX
  5
AD
330
94
100
AcDbEntity
  8
_U+30EC_U+30A4_U+30E4_U+30FC 1
 62
   179
420
  2234388
370
    25
100
AcDbVertex
100
AcDb2dVertex
 10
108.8555110235402
 20
-145.4806548708567
 30
0.0
  0
VERTEX
  5
AE
330
94
100
AcDbEntity
  8
_U+30EC_U+30A4_U+30E4_U+30FC 1
 62
   179
420
  2234388
370
    25
100
AcDbVertex
100
AcDb2dVertex
 10
109.3896084829879
 20
-145.6676374283187
 30
0.0
  0
VERTEX
  5
AF
330
94
100
AcDbEntity
  8
_U+30EC_U+30A4_U+30E4_U+30FC 1
 62
   179
420
  2234388
370
    25
100
AcDbVertex
100
AcDb2dVertex
 10
109.9141888661575
 20
-145.4549027821045
 30
0.0
  0
VERTEX
  5
B0
330
94
100
AcDbEntity
  8
_U+30EC_U+30A4_U+30E4_U+30FC 1
 62
   179
420
  2234388
370
    25
100
AcDbVertex
100
AcDb2dVertex
 10
110.4486523670005
 20
-145.642229849115
 30
0.0
  0
VERTEX
  5
B1
330
94
100
AcDbEntity
  8
_U+30EC_U+30A4_U+30E4_U+30FC 1
 62
   179
420
  2234388
370
    25
100
AcDbVertex
100
AcDb2dVertex
 10
110.973588025642
 20
-145.4298612442958
 30
0.0
  0
VERTEX
  5
B2
330
94
100
AcDbEntity
  8
_U+30EC_U+30A4_U+30E4_U+30FC 1
 62
   179
420
  2234388
370
    25
100
AcDbVertex
100
AcDb2dVertex
 10
111.5080407605616
 20
-145.6168438017577
 30
0.0
  0
VERTEX
  5
B3
330
94
100
AcDbEntity
  8
_U+30EC_U+30A4_U+30E4_U+30FC 1
 62
   179
420
  2234388
370
    25
100
AcDbVertex
100
AcDb2dVertex
 10
112.0305110227465
 20
-145.4041091555435
 30
0.0
  0
VERTEX
  5
B4
330
94
100
AcDbEntity
  8
_U+30EC_U+30A4_U+30E4_U+30FC 1
 62
   179
420
  2234388
370
    25
100
AcDbVertex
100
AcDb2dVertex
 10
112.5639086971737
 20
-145.591436222554
 30
0.0
  0
VERTEX
  5
B5
330
94
100
AcDbEntity
  8
_U+30EC_U+30A4_U+30E4_U+30FC 1
 62
   179
420
  2234388
370
    25
100
AcDbVertex
100
AcDb2dVertex
 10
113.0877785293995
 20
-145.3787015763398
 30
0.0
  0
VERTEX
  5
B6
330
94
100
AcDbEntity
  8
_U+30EC_U+30A4_U+30E4_U+30FC 1
 62
   179
420
  2234388
370
    25
100
AcDbVertex
100
AcDb2dVertex
 10
113.6222420302424
 20
-145.5656841338017
 30
0.0
  0
VERTEX
  5
B7
330
94
100
AcDbEntity
  8
_U+30EC_U+30A4_U+30E4_U+30FC 1
 62
   179
420
  2234388
370
    25
100
AcDbVertex
100
AcDb2dVertex
 10
114.1475221984325
 20
-145.3533155289828
 30
0.0
  0
VERTEX
  5
B8
330
94
100
AcDbEntity
  8
_U+30EC_U+30A4_U+30E4_U+30FC 1
 62
   179
420
  2234388
370
    25
100
AcDbVertex
100
AcDb2dVertex
 10
114.6833960352398
 20
-145.540276554598
 30
0.0
  0
VERTEX
  5
B9
330
94
100
AcDbEntity
  8
_U+30EC_U+30A4_U+30E4_U+30FC 1
 62
   179
420
  2234388
370
    25
100
AcDbVertex
100
AcDb2dVertex
 10
115.2093867543737
 20
-145.3279079497791
 30
0.0
  0
VERTEX
  5
BA
330
94
100
AcDbEntity
  8
_U+30EC_U+30A4_U+30E4_U+30FC 1
 62
   179
420
  2234388
370
    25
100
AcDbVertex
100
AcDb2dVertex
 10
115.744905315709
 20
-145.5148905072411
 30
0.0
  0
VERTEX
  5
BB
330
94
100
AcDbEntity
  8
_U+30EC_U+30A4_U+30E4_U+30FC 1
 62
   179
420
  2234388
370
    25
100
AcDbVertex
100
AcDb2dVertex
 10
116.2716065857867
 20
-145.3021558610269
 30
0.0
  0
VERTEX
  5
BC
330
94
100
AcDbEntity
  8
_U+30EC_U+30A4_U+30E4_U+30FC 1
 62
   179
420
  2234388
370
    25
100
AcDbVertex
100
AcDb2dVertex
 10
116.8071143811986
 20
-145.4891384184888
 30
0.0
  0
VERTEX
  5
BD
330
94
100
AcDbEntity
  8
_U+30EC_U+30A4_U+30E4_U+30FC 1
 62
   179
420
  2234388
370
    25
100
AcDbVertex
100
AcDb2dVertex
 10
117.332760590784
 20
-145.2767482818232
 30
0.0
  0
VERTEX
  5
BE
330
94
100
AcDbEntity
  8
_U+30EC_U+30A4_U+30E4_U+30FC 1
 62
   179
420
  2234388
370
    25
100
AcDbVertex
100
AcDb2dVertex
 10
117.8679238766474
 20
-145.4637308392851
 30
0.0
  0
VERTEX
  5
BF
330
94
100
AcDbEntity
  8
_U+30EC_U+30A4_U+30E4_U+30FC 1
 62
   179
420
  2234388
370
    25
100
AcDbVertex
100
AcDb2dVertex
 10
118.392504259817
 20
-145.2513622344663
 30
0.0
  0
VERTEX
  5
C0
330
94
100
AcDbEntity
  8
_U+30EC_U+30A4_U+30E4_U+30FC 1
 62
   179
420
  2234388
370
    25
100
AcDbVertex
100
AcDb2dVertex
 10
118.9269569947366
 20
-145.4383232600814
 30
0.0
  0
VERTEX
  5
C1
330
94
100
AcDbEntity
  8
_U+30EC_U+30A4_U+30E4_U+30FC 1
 62
   179
420
  2234388
370
    25
100
AcDbVertex
100
AcDb2dVertex
 10
119.4522479288501
 20
-145.2259546552625
 30
0.0
  0
VERTEX
  5
C2
330
94
100
AcDbEntity
  8
_U+30EC_U+30A4_U+30E4_U+30FC 1
 62
   179
420
  2234388
370
    25
100
AcDbVertex
100
AcDb2dVertex
 10
119.9881217656573
 20
-145.4129372127245
 30
0.0
  0
VERTEX
  5
C3
330
94
100
AcDbEntity
  8
_U+30EC_U+30A4_U+30E4_U+30FC 1
 62
   179
420
  2234388
370
    25
100
AcDbVertex
100
AcDb2dVertex
 10
120.5137572093193
 20
-145.2002025665103
 30
0.0
  0
VERTEX
  5
C4
330
94
100
AcDbEntity
  8
_U+30EC_U+30A4_U+30E4_U+30FC 1
 62
   179
420
  2234388
370
    25
100
AcDbVertex
100
AcDb2dVertex
 10
121.0478654346903
 20
-145.3875296335208
 30
0.0
  0
VERTEX
  5
C5
330
94
100
AcDbEntity
  8
_U+30EC_U+30A4_U+30E4_U+30FC 1
 62
   179
420
  2234388
370
    25
100
AcDbVertex
100
AcDb2dVertex
 10
121.572090542388
 20
-145.1747949873066
 30
0.0
  0
VERTEX
  5
C6
330
94
100
AcDbEntity
  8
_U+30EC_U+30A4_U+30E4_U+30FC 1
 62
   179
420
  2234388
370
    25
100
AcDbVertex
100
AcDb2dVertex
 10
122.1047884317948
 20
-145.3617775447685
 30
0.0
  0
VERTEX
  5
C7
330
94
100
AcDbEntity
  8
_U+30EC_U+30A4_U+30E4_U+30FC 1
 62
   179
420
  2234388
370
    25
100
AcDbVertex
100
AcDb2dVertex
 10
122.6276032035282
 20
-145.14940893995
 30
0.0
  0
VERTEX
  5
C8
330
94
100
AcDbEntity
  8
_U+30EC_U+30A4_U+30E4_U+30FC 1
 62
   179
420
  2234388
370
    25
100
AcDbVertex
100
AcDb2dVertex
 10
123.1592352665192
 20
-145.3367360069604
 30
0.0
  0
SEQEND
  5
C9
330
94
100
AcDbEntity
  8
_U+30EC_U+30A4_U+30E4_U+30FC 1
 62
   179
420
  2234388
370
    25
  0
POLYLINE
  5
CA
330
1F
100
AcDbEntity
  8
_U+30EC_U+30A4_U+30E4_U+30FC 1
 62
   179
420
  2234388
370
    25
100
AcDb2dPolyline
 66
     1
 10
0.0
 20
0.0
 30
0.0
  0
VERTEX
  5
CB
330
CA
100
AcDbEntity
  8
_U+30EC_U+30A4_U+30E4_U+30FC 1
 62
   179
420
  2234388
370
    25
100
AcDbVertex
100
AcDb2dVertex
 10
123.1568021678328
 20
-145.2367205786539
 30
0.0
  0
VERTEX
  5
CC
330
CA
100
AcDbEntity
  8
_U+30EC_U+30A4_U+30E4_U+30FC 1
 62
   179
420
  2234388
370
    25
100
AcDbVertex
100
AcDb2dVertex
 10
123.1465637746875
 20
-144.8363358877279
 30
0.0
  0
SEQEND
  5
CD
330
CA
100
AcDbEntity
  8
_U+30EC_U+30A4_U+30E4_U+30FC 1
 62
   179
420
  2234388
370
    25
  0
POLYLINE
  5
CE
330
1F
100
AcDbEntity
  8
_U+30EC_U+30A4_U+30E4_U+30FC 1
 62
   179
420
  2234388
370
    25
100
AcDb2dPolyline
 66
     1
 10
0.0
 20
0.0
 30
0.0
  0
VERTEX
  5
CF
330
CE
100
AcDbEntity
  8
_U+30EC_U+30A4_U+30E4_U+30FC 1
 62
   179
420
  2234388
370
    25
100
AcDbVertex
100
AcDb2dVertex
 10
123.146466881377
 20
-144.8363789514211
 30
0.0
  0
VERTEX
  5
D0
330
CE
100
AcDbEntity
  8
_U+30EC_U+30A4_U+30E4_U+30FC 1
 62
   179
420
  2234388
370
    25
100
AcDbVertex
100
AcDb2dVertex
 10
96.19036032073323
 20
-144.8910698422495
 30
0.0
  0
SEQEND
  5
D1
330
CE
100
AcDbEntity
  8
_U+30EC_U+30A4_U+30E4_U+30FC 1
 62
   179
420
  2234388
370
    25
  0
SPLINE
  5
D2
330
1F
100
AcDbEntity
  8
_U+30EC_U+30A4_U+30E4_U+30FC 1
 62
   179
420
  2234388
370
     9
100
AcDbSpline
210
0.0
220
0.0
230
1.0
 70
    11
 71
     3
 72
    17
 73
    13
 74
     0
 42
0.0000000001
 43
0.0000000001
 12
1.0
 22
0.0
 32
0.0
 13
1.0
 23
0.0
 33
0.0
 40
0.0
 40
0.0
 40
0.0
 40
0.0
 40
1.0
 40
1.0
 40
1.0
 40
2.0
 40
2.0
 40
2.0
 40
3.0
 40
3.0
 40
3.0
 40
4.0
 40
4.0
 40
4.0
 40
4.0
 10
97.14614823349883
 20
-134.627161458585
 30
0.0
 10
97.14614823349883
 20
-134.6821968589618
 30
0.0
 10
97.19094524073049
 20
-134.7270046321169
 30
0.0
 10
97.24598064110735
 20
-134.7270046321169
 30
0.0
 10
97.30101604148422
 20
-134.7270046321169
 30
0.0
 10
97.34581304871585
 20
-134.6821968589618
 30
0.0
 10
97.34581304871585
 20
-134.627161458585
 30
0.0
 10
97.34581304871585
 20
-134.5721475900549
 30
0.0
 10
97.30101604148422
 20
-134.5273398168999
 30
0.0
 10
97.24598064110735
 20
-134.5273398168999
 30
0.0
 10
97.19094524073049
 20
-134.5273398168999
 30
0.0
 10
97.14614823349883
 20
-134.5721475900549
 30
0.0
 10
97.14614823349883
 20
-134.627161458585
 30
0.0
  0
SPLINE
  5
D3
330
1F
100
AcDbEntity
  8
_U+30EC_U+30A4_U+30E4_U+30FC 1
 62
   179
420
  2234388
370
     9
100
AcDbSpline
210
0.0
220
0.0
230
1.0
 70
    11
 71
     3
 72
    17
 73
    13
 74
     0
 42
0.0000000001
 43
0.0000000001
 12
1.0
 22
0.0
 32
0.0
 13
1.0
 23
0.0
 33
0.0
 40
0.0
 40
0.0
 40
0.0
 40
0.0
 40
1.0
 40
1.0
 40
1.0
 40
2.0
 40
2.0
 40
2.0
 40
3.0
 40
3.0
 40
3.0
 40
4.0
 40
4.0
 40
4.0
 40
4.0
 10
84.01963464967685
 20
-138.7265236401773
 30
0.0
 10
84.01963464967685
 20
-138.7815590405542
 30
0.0
 10
84.06443165690816
 20
-138.8263668137095
 30
0.0
 10
84.11946705728502
 20
-138.8263668137095
 30
0.0
 10
84.17450245766189
 20
-138.8263668137095
 30
0.0
 10
84.21929946489352
 20
-138.7815590405542
 30
0.0
 10
84.21929946489352
 20
-138.7265236401773
 30
0.0
 10
84.21929946489352
 20
-138.6707992207034
 30
0.0
 10
84.17450245766189
 20
-138.6267019984922
 30
0.0
 10
84.11946705728502
 20
-138.6267019984922
 30
0.0
 10
84.06443165690816
 20
-138.6267019984922
 30
0.0
 10
84.01963464967685
 20
-138.6707992207034
 30
0.0
 10
84.01963464967685
 20
-138.7265236401773
 30
0.0
  0
SPLINE
  5
D4
330
1F
100
AcDbEntity
  8
_U+30EC_U+30A4_U+30E4_U+30FC 1
 62
   179
420
  2234388
370
     9
100
AcDbSpline
210
0.0
220
0.0
230
1.0
 70
    11
 71
     3
 72
    17
 73
    13
 74
     0
 42
0.0000000001
 43
0.0000000001
 12
1.0
 22
0.0
 32
0.0
 13
1.0
 23
0.0
 33
0.0
 40
0.0
 40
0.0
 40
0.0
 40
0.0
 40
1.0
 40
1.0
 40
1.0
 40
2.0
 40
2.0
 40
2.0
 40
3.0
 40
3.0
 40
3.0
 40
4.0
 40
4.0
 40
4.0
 40
4.0
 10
123.1457563304332
 20
-134.627161458585
 30
0.0
 10
123.1457563304332
 20
-134.6821968589618
 30
0.0
 10
123.1905533376648
 20
-134.7270046321169
 30
0.0
 10
123.2455887380417
 20
-134.7270046321169
 30
0.0
 10
123.3006241384186
 20
-134.7270046321169
 30
0.0
 10
123.3454211456502
 20
-134.6821968589618
 30
0.0
 10
123.3454211456502
 20
-134.627161458585
 30
0.0
 10
123.3454211456502
 20
-134.5721475900549
 30
0.0
 10
123.3006241384186
 20
-134.5273398168999
 30
0.0
 10
123.2455887380417
 20
-134.5273398168999
 30
0.0
 10
123.1905533376648
 20
-134.5273398168999
 30
0.0
 10
123.1457563304332
 20
-134.5721475900549
 30
0.0
 10
123.1457563304332
 20
-134.627161458585
 30
0.0
  0
SPLINE
  5
D5
330
1F
100
AcDbEntity
  8
_U+30EC_U+30A4_U+30E4_U+30FC 1
 62
   179
420
  2234388
370
     9
100
AcDbSpline
210
0.0
220
0.0
230
1.0
 70
    11
 71
     3
 72
    17
 73
    13
 74
     0
 42
0.0000000001
 43
0.0000000001
 12
1.0
 22
0.0
 32
0.0
 13
1.0
 23
0.0
 33
0.0
 40
0.0
 40
0.0
 40
0.0
 40
0.0
 40
1.0
 40
1.0
 40
1.0
 40
2.0
 40
2.0
 40
2.0
 40
3.0
 40
3.0
 40
3.0
 40
4.0
 40
4.0
 40
4.0
 40
4.0
 10
84.01963464967685
 20
-164.7263147578093
 30
0.0
 10
84.01963464967685
 20
-164.7813501581862
 30
0.0
 10
84.06443165690816
 20
-164.8261579313412
 30
0.0
 10
84.11946705728502
 20
-164.8261579313412
 30
0.0
 10
84.17450245766189
 20
-164.8261579313412
 30
0.0
 10
84.21929946489352
 20
-164.7813501581862
 30
0.0
 10
84.21929946489352
 20
-164.7263147578093
 30
0.0
 10
84.21929946489352
 20
-164.6713008892792
 30
0.0
 10
84.17450245766189
 20
-164.6264931161242
 30
0.0
 10
84.11946705728502
 20
-164.6264931161242
 30
0.0
 10
84.06443165690816
 20
-164.6264931161242
 30
0.0
 10
84.01963464967685
 20
-164.6713008892792
 30
0.0
 10
84.01963464967685
 20
-164.7263147578093
 30
0.0
  0
POLYLINE
  5
D6
330
1F
100
AcDbEntity
  8
_U+30EC_U+30A4_U+30E4_U+30FC 1
 62
   179
420
  2234388
370
     9
100
AcDb2dPolyline
 66
     1
 10
0.0
 20
0.0
 30
0.0
  0
VERTEX
  5
D7
330
D6
100
AcDbEntity
  8
_U+30EC_U+30A4_U+30E4_U+30FC 1
 62
   179
420
  2234388
370
     9
100
AcDbVertex
100
AcDb2dVertex
 10
123.2456640995054
 20
-134.627161458585
 30
0.0
  0
VERTEX
  5
D8
330
D6
100
AcDbEntity
  8
_U+30EC_U+30A4_U+30E4_U+30FC 1
 62
   179
420
  2234388
370
     9
100
AcDbVertex
100
AcDb2dVertex
 10
97.24593757741378
 20
-134.627161458585
 30
0.0
  0
SEQEND
  5
D9
330
D6
100
AcDbEntity
  8
_U+30EC_U+30A4_U+30E4_U+30FC 1
 62
   179
420
  2234388
370
     9
  0
POLYLINE
  5
DA
330
1F
100
AcDbEntity
  8
_U+30EC_U+30A4_U+30E4_U+30FC 1
 62
   179
420
  2234388
370
     9
100
AcDb2dPolyline
 66
     1
 10
0.0
 20
0.0
 30
0.0
  0
VERTEX
  5
DB
330
DA
100
AcDbEntity
  8
_U+30EC_U+30A4_U+30E4_U+30FC 1
 62
   179
420
  2234388
370
     9
100
AcDbVertex
100
AcDb2dVertex
 10
123.2456640995054
 20
-136.8871656287556
 30
0.0
  0
VERTEX
  5
DC
330
DA
100
AcDbEntity
  8
_U+30EC_U+30A4_U+30E4_U+30FC 1
 62
   179
420
  2234388
370
     9
100
AcDbVertex
100
AcDb2dVertex
 10
123.2456640995054
 20
-133.6275024079994
 30
0.0
  0
SEQEND
  5
DD
330
DA
100
AcDbEntity
  8
_U+30EC_U+30A4_U+30E4_U+30FC 1
 62
   179
420
  2234388
370
     9
  0
POLYLINE
  5
DE
330
1F
100
AcDbEntity
  8
_U+30EC_U+30A4_U+30E4_U+30FC 1
 62
   179
420
  2234388
370
     9
100
AcDb2dPolyline
 66
     1
 10
0.0
 20
0.0
 30
0.0
  0
VERTEX
  5
DF
330
DE
100
AcDbEntity
  8
_U+30EC_U+30A4_U+30E4_U+30FC 1
 62
   179
420
  2234388
370
     9
100
AcDbVertex
100
AcDb2dVertex
 10
97.24605600257108
 20
-136.6873500906111
 30
0.0
  0
VERTEX
  5
E0
330
DE
100
AcDbEntity
  8
_U+30EC_U+30A4_U+30E4_U+30FC 1
 62
   179
420
  2234388
370
     9
100
AcDbVertex
100
AcDb2dVertex
 10
97.24605600257108
 20
-133.627373216919
 30
0.0
  0
SEQEND
  5
E1
330
DE
100
AcDbEntity
  8
_U+30EC_U+30A4_U+30E4_U+30FC 1
 62
   179
420
  2234388
370
     9
  0
INSERT
  5
E3
330
1F
100
AcDbEntity
  8
_U+30EC_U+30A4_U+30E4_U+30FC 1
100
AcDbBlockReference
  2
block 3
 10
0.0
 20
0.0
 30
0.0
  0
SPLINE
  5
EB
330
1F
100
AcDbEntity
  8
_U+30EC_U+30A4_U+30E4_U+30FC 1
 62
   179
420
  2234388
370
     9
100
AcDbSpline
210
0.0
220
0.0
230
1.0
 70
    11
 71
     3
 72
    17
 73
    13
 74
     0
 42
0.0000000001
 43
0.0000000001
 12
1.0
 22
0.0
 32
0.0
 13
1.0
 23
0.0
 33
0.0
 40
0.0
 40
0.0
 40
0.0
 40
0.0
 40
1.0
 40
1.0
 40
1.0
 40
2.0
 40
2.0
 40
2.0
 40
3.0
 40
3.0
 40
3.0
 40
4.0
 40
4.0
 40
4.0
 40
4.0
 10
126.0926910085159
 20
-144.8363789514211
 30
0.0
 10
126.1477156429694
 20
-144.8363789514211
 30
0.0
 10
126.1925234161244
 20
-144.7915927101129
 30
0.0
 10
126.1925234161244
 20
-144.736557309736
 30
0.0
 10
126.1925234161244
 20
-144.6815219093591
 30
0.0
 10
126.1477156429694
 20
-144.6367141362041
 30
0.0
 10
126.0926910085159
 20
-144.6367141362041
 30
0.0
 10
126.037655608139
 20
-144.6367141362041
 30
0.0
 10
125.992847834984
 20
-144.6815219093591
 30
0.0
 10
125.992847834984
 20
-144.736557309736
 30
0.0
 10
125.992847834984
 20
-144.7915927101129
 30
0.0
 10
126.037655608139
 20
-144.8363789514211
 30
0.0
 10
126.0926910085159
 20
-144.8363789514211
 30
0.0
  0
SPLINE
  5
EC
330
1F
100
AcDbEntity
  8
_U+30EC_U+30A4_U+30E4_U+30FC 1
 62
   179
420
  2234388
370
     9
100
AcDbSpline
210
0.0
220
0.0
230
1.0
 70
    11
 71
     3
 72
    17
 73
    13
 74
     0
 42
0.0000000001
 43
0.0000000001
 12
1.0
 22
0.0
 32
0.0
 13
1.0
 23
0.0
 33
0.0
 40
0.0
 40
0.0
 40
0.0
 40
0.0
 40
1.0
 40
1.0
 40
1.0
 40
2.0
 40
2.0
 40
2.0
 40
3.0
 40
3.0
 40
3.0
 40
4.0
 40
4.0
 40
4.0
 40
4.0
 10
126.0926910085159
 20
-138.8367666957053
 30
0.0
 10
126.1477156429694
 20
-138.8367666957053
 30
0.0
 10
126.1925234161244
 20
-138.7919804543971
 30
0.0
 10
126.1925234161244
 20
-138.7365790126249
 30
0.0
 10
126.1925234161244
 20
-138.6815651440948
 30
0.0
 10
126.1477156429694
 20
-138.6367573709398
 30
0.0
 10
126.0926910085159
 20
-138.6367573709398
 30
0.0
 10
126.037655608139
 20
-138.6367573709398
 30
0.0
 10
125.992847834984
 20
-138.6815651440948
 30
0.0
 10
125.992847834984
 20
-138.7365790126249
 30
0.0
 10
125.992847834984
 20
-138.7919804543971
 30
0.0
 10
126.037655608139
 20
-138.8367666957053
 30
0.0
 10
126.0926910085159
 20
-138.8367666957053
 30
0.0
  0
POLYLINE
  5
ED
330
1F
100
AcDbEntity
  8
_U+30EC_U+30A4_U+30E4_U+30FC 1
 62
   179
420
  2234388
370
     9
100
AcDb2dPolyline
 66
     1
 10
0.0
 20
0.0
 30
0.0
  0
VERTEX
  5
EE
330
ED
100
AcDbEntity
  8
_U+30EC_U+30A4_U+30E4_U+30FC 1
 62
   179
420
  2234388
370
     9
100
AcDbVertex
100
AcDb2dVertex
 10
126.0926910085159
 20
-138.7364928852378
 30
0.0
  0
VERTEX
  5
EF
330
ED
100
AcDbEntity
  8
_U+30EC_U+30A4_U+30E4_U+30FC 1
 62
   179
420
  2234388
370
     9
100
AcDbVertex
100
AcDb2dVertex
 10
126.0926910085159
 20
-144.736557309736
 30
0.0
  0
SEQEND
  5
F0
330
ED
100
AcDbEntity
  8
_U+30EC_U+30A4_U+30E4_U+30FC 1
 62
   179
420
  2234388
370
     9
  0
POLYLINE
  5
F1
330
1F
100
AcDbEntity
  8
_U+30EC_U+30A4_U+30E4_U+30FC 1
 62
   179
420
  2234388
370
     9
100
AcDb2dPolyline
 66
     1
 10
0.0
 20
0.0
 30
0.0
  0
VERTEX
  5
F2
330
F1
100
AcDbEntity
  8
_U+30EC_U+30A4_U+30E4_U+30FC 1
 62
   179
420
  2234388
370
     9
100
AcDbVertex
100
AcDb2dVertex
 10
127.086256546462
 20
-138.7364928852378
 30
0.0
  0
VERTEX
  5
F3
330
F1
100
AcDbEntity
  8
_U+30EC_U+30A4_U+30E4_U+30FC 1
 62
   179
420
  2234388
370
     9
100
AcDbVertex
100
AcDb2dVertex
 10
123.8265825597823
 20
-138.7364928852378
 30
0.0
  0
SEQEND
  5
F4
330
F1
100
AcDbEntity
  8
_U+30EC_U+30A4_U+30E4_U+30FC 1
 62
   179
420
  2234388
370
     9
  0
POLYLINE
  5
F5
330
1F
100
AcDbEntity
  8
_U+30EC_U+30A4_U+30E4_U+30FC 1
 62
   179
420
  2234388
370
     9
100
AcDb2dPolyline
 66
     1
 10
0.0
 20
0.0
 30
0.0
  0
VERTEX
  5
F6
330
F5
100
AcDbEntity
  8
_U+30EC_U+30A4_U+30E4_U+30FC 1
 62
   179
420
  2234388
370
     9
100
AcDbVertex
100
AcDb2dVertex
 10
127.086256546462
 20
-144.7364711823489
 30
0.0
  0
VERTEX
  5
F7
330
F5
100
AcDbEntity
  8
_U+30EC_U+30A4_U+30E4_U+30FC 1
 62
   179
420
  2234388
370
     9
100
AcDbVertex
100
AcDb2dVertex
 10
123.8265825597823
 20
-144.7364711823489
 30
0.0
  0
SEQEND
  5
F8
330
F5
100
AcDbEntity
  8
_U+30EC_U+30A4_U+30E4_U+30FC 1
 62
   179
420
  2234388
370
     9
  0
INSERT
  5
FA
330
1F
100
AcDbEntity
  8
_U+30EC_U+30A4_U+30E4_U+30FC 1
100
AcDbBlockReference
  2
block 4
 10
0.0
 20
0.0
 30
0.0
  0
POLYLINE
  5
100
330
1F
100
AcDbEntity
  8
_U+30EC_U+30A4_U+30E4_U+30FC 1
 62
   179
420
  2234388
370
     9
100
AcDb2dPolyline
 66
     1
 10
0.0
 20
0.0
 30
0.0
  0
VERTEX
  5
101
330
100
100
AcDbEntity
  8
_U+30EC_U+30A4_U+30E4_U+30FC 1
 62
   179
420
  2234388
370
     9
100
AcDbVertex
100
AcDb2dVertex
 10
84.11954241874909
 20
-138.7265236401773
 30
0.0
  0
VERTEX
  5
102
330
100
100
AcDbEntity
  8
_U+30EC_U+30A4_U+30E4_U+30FC 1
 62
   179
420
  2234388
370
     9
100
AcDbVertex
100
AcDb2dVertex
 10
84.11954241874909
 20
-164.726250162269
 30
0.0
  0
SEQEND
  5
103
330
100
100
AcDbEntity
  8
_U+30EC_U+30A4_U+30E4_U+30FC 1
 62
   179
420
  2234388
370
     9
  0
POLYLINE
  5
104
330
1F
100
AcDbEntity
  8
_U+30EC_U+30A4_U+30E4_U+30FC 1
 62
   179
420
  2234388
370
     9
100
AcDb2dPolyline
 66
     1
 10
0.0
 20
0.0
 30
0.0
  0
VERTEX
  5
105
330
104
100
AcDbEntity
  8
_U+30EC_U+30A4_U+30E4_U+30FC 1
 62
   179
420
  2234388
370
     9
100
AcDbVertex
100
AcDb2dVertex
 10
82.829720200918
 20
-138.7265236401773
 30
0.0
  0
VERTEX
  5
106
330
104
100
AcDbEntity
  8
_U+30EC_U+30A4_U+30E4_U+30FC 1
 62
   179
420
  2234388
370
     9
100
AcDbVertex
100
AcDb2dVertex
 10
87.18969309004612
 20
-138.7265236401773
 30
0.0
  0
SEQEND
  5
107
330
104
100
AcDbEntity
  8
_U+30EC_U+30A4_U+30E4_U+30FC 1
 62
   179
420
  2234388
370
     9
  0
POLYLINE
  5
108
330
1F
100
AcDbEntity
  8
_U+30EC_U+30A4_U+30E4_U+30FC 1
 62
   179
420
  2234388
370
     9
100
AcDb2dPolyline
 66
     1
 10
0.0
 20
0.0
 30
0.0
  0
VERTEX
  5
109
330
108
100
AcDbEntity
  8
_U+30EC_U+30A4_U+30E4_U+30FC 1
 62
   179
420
  2234388
370
     9
100
AcDbVertex
100
AcDb2dVertex
 10
82.829720200918
 20
-164.7263147578093
 30
0.0
  0
VERTEX
  5
10A
330
108
100
AcDbEntity
  8
_U+30EC_U+30A4_U+30E4_U+30FC 1
 62
   179
420
  2234388
370
     9
100
AcDbVertex
100
AcDb2dVertex
 10
87.18969309004612
 20
-164.7263147578093
 30
0.0
  0
SEQEND
  5
10B
330
108
100
AcDbEntity
  8
_U+30EC_U+30A4_U+30E4_U+30FC 1
 62
   179
420
  2234388
370
     9
  0
INSERT
  5
10D
330
1F
100
AcDbEntity
  8
_U+30EC_U+30A4_U+30E4_U+30FC 1
100
AcDbBlockReference
  2
block 5
 10
0.0
 20
0.0
 30
0.0
  0
POLYLINE
  5
115
330
1F
100
AcDbEntity
  8
_U+30EC_U+30A4_U+30E4_U+30FC 1
 62
   179
420
  2234388
370
    25
100
AcDb2dPolyline
 66
     1
 10
0.0
 20
0.0
 30
0.0
  0
VERTEX
  5
116
330
115
100
AcDbEntity
  8
_U+30EC_U+30A4_U+30E4_U+30FC 1
 62
   179
420
  2234388
370
    25
100
AcDbVertex
100
AcDb2dVertex
 10
90.14089107379182
 20
-139.6459550296505
 30
0.0
  0
VERTEX
  5
117
330
115
100
AcDbEntity
  8
_U+30EC_U+30A4_U+30E4_U+30FC 1
 62
   179
420
  2234388
370
    25
100
AcDbVertex
100
AcDb2dVertex
 10
96.14093396644328
 20
-139.6459550296505
 30
0.0
  0
SEQEND
  5
118
330
115
100
AcDbEntity
  8
_U+30EC_U+30A4_U+30E4_U+30FC 1
 62
   179
420
  2234388
370
    25
  0
POLYLINE
  5
119
330
1F
100
AcDbEntity
  8
_U+30EC_U+30A4_U+30E4_U+30FC 1
 62
   179
420
  2234388
370
    25
100
AcDb2dPolyline
 66
     1
 10
0.0
 20
0.0
 30
0.0
  0
VERTEX
  5
11A
330
119
100
AcDbEntity
  8
_U+30EC_U+30A4_U+30E4_U+30FC 1
 62
   179
420
  2234388
370
    25
100
AcDbVertex
100
AcDb2dVertex
 10
89.1462704753534
 20
-138.6266158711051
 30
0.0
  0
VERTEX
  5
11B
330
119
100
AcDbEntity
  8
_U+30EC_U+30A4_U+30E4_U+30FC 1
 62
   179
420
  2234388
370
    25
100
AcDbVertex
100
AcDb2dVertex
 10
97.1462020631158
 20
-138.6266158711051
 30
0.0
  0
SEQEND
  5
11C
330
119
100
AcDbEntity
  8
_U+30EC_U+30A4_U+30E4_U+30FC 1
 62
   179
420
  2234388
370
    25
  0
POLYLINE
  5
11D
330
1F
100
AcDbEntity
  8
_U+30EC_U+30A4_U+30E4_U+30FC 1
 62
   179
420
  2234388
370
    25
100
AcDb2dPolyline
 66
     1
 10
0.0
 20
0.0
 30
0.0
  0
VERTEX
  5
11E
330
11D
100
AcDbEntity
  8
_U+30EC_U+30A4_U+30E4_U+30FC 1
 62
   179
420
  2234388
370
    25
100
AcDbVertex
100
AcDb2dVertex
 10
97.14614823349883
 20
-144.7633644589806
 30
0.0
  0
VERTEX
  5
11F
330
11D
100
AcDbEntity
  8
_U+30EC_U+30A4_U+30E4_U+30FC 1
 62
   179
420
  2234388
370
    25
100
AcDbVertex
100
AcDb2dVertex
 10
97.14614823349883
 20
-138.7633215663295
 30
0.0
  0
SEQEND
  5
120
330
11D
100
AcDbEntity
  8
_U+30EC_U+30A4_U+30E4_U+30FC 1
 62
   179
420
  2234388
370
    25
  0
POLYLINE
  5
121
330
1F
100
AcDbEntity
  8
_U+30EC_U+30A4_U+30E4_U+30FC 1
 62
   179
420
  2234388
370
    25
100
AcDb2dPolyline
 66
     1
 10
0.0
 20
0.0
 30
0.0
  0
VERTEX
  5
122
330
121
100
AcDbEntity
  8
_U+30EC_U+30A4_U+30E4_U+30FC 1
 62
   179
420
  2234388
370
    25
100
AcDbVertex
100
AcDb2dVertex
 10
96.14086937090293
 20
-145.8237648493405
 30
0.0
  0
VERTEX
  5
123
330
121
100
AcDbEntity
  8
_U+30EC_U+30A4_U+30E4_U+30FC 1
 62
   179
420
  2234388
370
    25
100
AcDbVertex
100
AcDb2dVertex
 10
96.14086937090293
 20
-139.6459334978034
 30
0.0
  0
SEQEND
  5
124
330
121
100
AcDbEntity
  8
_U+30EC_U+30A4_U+30E4_U+30FC 1
 62
   179
420
  2234388
370
    25
  0
POLYLINE
  5
125
330
1F
100
AcDbEntity
  8
_U+30EC_U+30A4_U+30E4_U+30FC 1
 62
   179
420
  2234388
370
     9
100
AcDb2dPolyline
 66
     1
 10
0.0
 20
0.0
 30
0.0
  0
VERTEX
  5
126
330
125
100
AcDbEntity
  8
_U+30EC_U+30A4_U+30E4_U+30FC 1
 62
   179
420
  2234388
370
     9
100
AcDbVertex
100
AcDb2dVertex
 10
89.71922215232063
 20
-137.6561109410634
 30
0.0
  0
VERTEX
  5
127
330
125
100
AcDbEntity
  8
_U+30EC_U+30A4_U+30E4_U+30FC 1
 62
   179
420
  2234388
370
     9
100
AcDbVertex
100
AcDb2dVertex
 10
90.27625102859197
 20
-138.4869172491782
 30
0.0
  0
SEQEND
  5
128
330
125
100
AcDbEntity
  8
_U+30EC_U+30A4_U+30E4_U+30FC 1
 62
   179
420
  2234388
370
     9
  0
POLYLINE
  5
129
330
1F
100
AcDbEntity
  8
_U+30EC_U+30A4_U+30E4_U+30FC 1
 62
   179
420
  2234388
370
     9
100
AcDb2dPolyline
 66
     1
 10
0.0
 20
0.0
 30
0.0
  0
VERTEX
  5
12A
330
129
100
AcDbEntity
  8
_U+30EC_U+30A4_U+30E4_U+30FC 1
 62
   179
420
  2234388
370
     9
100
AcDbVertex
100
AcDb2dVertex
 10
90.20943770802522
 20
-137.4893898514241
 30
0.0
  0
VERTEX
  5
12B
330
129
100
AcDbEntity
  8
_U+30EC_U+30A4_U+30E4_U+30FC 1
 62
   179
420
  2234388
370
     9
100
AcDbVertex
100
AcDb2dVertex
 10
90.27611107158788
 20
-138.4870464402589
 30
0.0
  0
SEQEND
  5
12C
330
129
100
AcDbEntity
  8
_U+30EC_U+30A4_U+30E4_U+30FC 1
 62
   179
420
  2234388
370
     9
  0
POLYLINE
  5
12D
330
1F
100
AcDbEntity
  8
_U+30EC_U+30A4_U+30E4_U+30FC 1
 62
   179
420
  2234388
370
     9
100
AcDb2dPolyline
 66
     1
 10
0.0
 20
0.0
 30
0.0
  0
VERTEX
  5
12E
330
12D
100
AcDbEntity
  8
_U+30EC_U+30A4_U+30E4_U+30FC 1
 62
   179
420
  2234388
370
     9
100
AcDbVertex
100
AcDb2dVertex
 10
89.50042629123709
 20
-136.1268545870078
 30
0.0
  0
VERTEX
  5
12F
330
12D
100
AcDbEntity
  8
_U+30EC_U+30A4_U+30E4_U+30FC 1
 62
   179
420
  2234388
370
     9
100
AcDbVertex
100
AcDb2dVertex
 10
90.27617566712823
 20
-138.4869387810253
 30
0.0
  0
SEQEND
  5
130
330
12D
100
AcDbEntity
  8
_U+30EC_U+30A4_U+30E4_U+30FC 1
 62
   179
420
  2234388
370
     9
  0
INSERT
  5
132
330
1F
100
AcDbEntity
  8
_U+30EC_U+30A4_U+30E4_U+30FC 1
100
AcDbBlockReference
  2
block 6
 10
0.0
 20
0.0
 30
0.0
  0
POLYLINE
  5
18D
330
1F
100
AcDbEntity
  8
_U+30EC_U+30A4_U+30E4_U+30FC 1
 62
   179
420
  2234388
370
    25
100
AcDb2dPolyline
 66
     1
 10
0.0
 20
0.0
 30
0.0
  0
VERTEX
  5
18E
330
18D
100
AcDbEntity
  8
_U+30EC_U+30A4_U+30E4_U+30FC 1
 62
   179
420
  2234388
370
    25
100
AcDbVertex
100
AcDb2dVertex
 10
89.1462704753534
 20
-139.6459550296505
 30
0.0
  0
VERTEX
  5
18F
330
18D
100
AcDbEntity
  8
_U+30EC_U+30A4_U+30E4_U+30FC 1
 62
   179
420
  2234388
370
    25
100
AcDbVertex
100
AcDb2dVertex
 10
90.14074035086435
 20
-139.6459550296505
 30
0.0
  0
SEQEND
  5
190
330
18D
100
AcDbEntity
  8
_U+30EC_U+30A4_U+30E4_U+30FC 1
 62
   179
420
  2234388
370
    25
  0
POLYLINE
  5
191
330
1F
100
AcDbEntity
  8
_U+30EC_U+30A4_U+30E4_U+30FC 1
  6
AI-Linetype-1
 62
   154
420
    23468
370
    25
100
AcDb2dPolyline
 66
     1
 10
0.0
 20
0.0
 30
0.0
  0
VERTEX
  5
192
330
191
100
AcDbEntity
  8
_U+30EC_U+30A4_U+30E4_U+30FC 1
  6
AI-Linetype-1
 62
   154
420
    23468
370
    25
100
AcDbVertex
100
AcDb2dVertex
 10
123.146466881377
 20
-144.3363233417371
 30
0.0
  0
VERTEX
  5
193
330
191
100
AcDbEntity
  8
_U+30EC_U+30A4_U+30E4_U+30FC 1
  6
AI-Linetype-1
 62
   154
420
    23468
370
    25
100
AcDbVertex
100
AcDb2dVertex
 10
108.1467041592969
 20
-144.3363233417371
 30
0.0
  0
SEQEND
  5
195
330
191
100
AcDbEntity
  8
_U+30EC_U+30A4_U+30E4_U+30FC 1
  6
AI-Linetype-1
 62
   154
420
    23468
370
    25
  0
POLYLINE
  5
196
330
1F
100
AcDbEntity
  8
_U+30EC_U+30A4_U+30E4_U+30FC 1
 62
   179
420
  2234388
370
     9
100
AcDb2dPolyline
 66
     1
 10
0.0
 20
0.0
 30
0.0
  0
VERTEX
  5
197
330
196
100
AcDbEntity
  8
_U+30EC_U+30A4_U+30E4_U+30FC 1
 62
   179
420
  2234388
370
     9
100
AcDbVertex
100
AcDb2dVertex
 10
114.0197199218532
 20
-144.417132362713
 30
0.0
  0
VERTEX
  5
198
330
196
100
AcDbEntity
  8
_U+30EC_U+30A4_U+30E4_U+30FC 1
 62
   179
420
  2234388
370
     9
100
AcDbVertex
100
AcDb2dVertex
 10
114.0197199218532
 20
-154.2949101380213
 30
0.0
  0
SEQEND
  5
199
330
196
100
AcDbEntity
  8
_U+30EC_U+30A4_U+30E4_U+30FC 1
 62
   179
420
  2234388
370
     9
  0
INSERT
  5
19B
330
1F
100
AcDbEntity
  8
_U+30EC_U+30A4_U+30E4_U+30FC 1
100
AcDbBlockReference
  2
block 7
 10
0.0
 20
0.0
 30
0.0
  0
POLYLINE
  5
1C2
330
1F
100
AcDbEntity
  8
_U+30EC_U+30A4_U+30E4_U+30FC 1
  6
AI-Linetype-2
 62
   154
420
    23468
370
    25
100
AcDb2dPolyline
 66
     1
 10
0.0
 20
0.0
 30
0.0
  0
VERTEX
  5
1C3
330
1C2
100
AcDbEntity
  8
_U+30EC_U+30A4_U+30E4_U+30FC 1
  6
AI-Linetype-2
 62
   154
420
    23468
370
    25
100
AcDbVertex
100
AcDb2dVertex
 10
88.59128712452645
 20
-164.6267514982856
 30
0.0
  0
VERTEX
  5
1C4
330
1C2
100
AcDbEntity
  8
_U+30EC_U+30A4_U+30E4_U+30FC 1
  6
AI-Linetype-2
 62
   154
420
    23468
370
    25
100
AcDbVertex
100
AcDb2dVertex
 10
88.59128712452645
 20
-149.6266550325803
 30
0.0
  0
SEQEND
  5
1C6
330
1C2
100
AcDbEntity
  8
_U+30EC_U+30A4_U+30E4_U+30FC 1
  6
AI-Linetype-2
 62
   154
420
    23468
370
    25
  0
POLYLINE
  5
1C7
330
1F
100
AcDbEntity
  8
_U+30EC_U+30A4_U+30E4_U+30FC 1
 62
   179
420
  2234388
370
     9
100
AcDb2dPolyline
 66
     1
 10
0.0
 20
0.0
 30
0.0
  0
VERTEX
  5
1C8
330
1C7
100
AcDbEntity
  8
_U+30EC_U+30A4_U+30E4_U+30FC 1
 62
   179
420
  2234388
370
     9
100
AcDbVertex
100
AcDb2dVertex
 10
108.2586482307207
 20
-155.8236497277542
 30
0.0
  0
VERTEX
  5
1C9
330
1C7
100
AcDbEntity
  8
_U+30EC_U+30A4_U+30E4_U+30FC 1
 62
   179
420
  2234388
370
     9
100
AcDbVertex
100
AcDb2dVertex
 10
88.61879405879148
 20
-155.8236497277542
 30
0.0
  0
SEQEND
  5
1CA
330
1C7
100
AcDbEntity
  8
_U+30EC_U+30A4_U+30E4_U+30FC 1
 62
   179
420
  2234388
370
     9
  0
ENDSEC
  0
SECTION
  2
OBJECTS
  0
DICTIONARY
  5
C
330
0
100
AcDbDictionary
281
     1
  3
ACAD_GROUP
350
D
  3
ACAD_LAYOUT
350
1A
  3
ACAD_MATERIAL
350
3B
  3
ACAD_MLEADERSTYLE
350
1CC
  3
ACAD_MLINESTYLE
350
17
  3
ACAD_PLOTSETTINGS
350
19
  3
ACAD_PLOTSTYLENAME
350
E
  3
ACAD_TABLESTYLE
350
1CB
  3
ACAD_VISUALSTYLE
350
2A
  0
SUN
  5
3F
330
29
100
AcDbSun
 90
        1
290
     0
 63
     7
421
 16777215
 40
1.0
291
     1
 91
  2455826
 92
 54000000
292
     0
 70
     2
 71
   256
280
     1
  0
DICTIONARY
  5
D
102
{ACAD_REACTORS
330
C
102
}
330
C
100
AcDbDictionary
281
     1
  0
DICTIONARY
  5
1A
102
{ACAD_REACTORS
330
C
102
}
330
C
100
AcDbDictionary
281
     1
  3
Layout1
350
1E
  3
Layout2
350
26
  3
Model
350
22
  0
DICTIONARY
  5
3B
102
{ACAD_REACTORS
330
C
102
}
330
C
100
AcDbDictionary
281
     1
  3
ByBlock
350
3D
  3
ByLayer
350
3C
  3
Global
350
3E
  0
DICTIONARY
  5
1CC
102
{ACAD_REACTORS
330
C
102
}
330
C
100
AcDbDictionary
281
     1
  0
DICTIONARY
  5
17
102
{ACAD_REACTORS
330
C
102
}
330
C
100
AcDbDictionary
281
     1
  3
Standard
350
18
  0
DICTIONARY
  5
19
102
{ACAD_REACTORS
330
C
102
}
330
C
100
AcDbDictionary
281
     1
  0
ACDBDICTIONARYWDFLT
  5
E
102
{ACAD_REACTORS
330
C
102
}
330
C
100
AcDbDictionary
281
     1
  3
Normal
350
F
100
AcDbDictionaryWithDefault
340
F
  0
DICTIONARY
  5
1CB
102
{ACAD_REACTORS
330
C
102
}
330
C
100
AcDbDictionary
281
     1
  0
DICTIONARY
  5
2A
102
{ACAD_REACTORS
330
C
102
}
330
C
100
AcDbDictionary
281
     1
  3
2dWireframe
350
2F
  3
3D Hidden
350
31
  3
3dWireframe
350
30
  3
Basic
350
32
  3
Brighten
350
36
  3
ColorChange
350
3A
  3
Conceptual
350
34
  3
Dim
350
35
  3
Facepattern
350
39
  3
Flat
350
2B
  3
FlatWithEdges
350
2C
  3
Gouraud
350
2D
  3
GouraudWithEdges
350
2E
  3
Linepattern
350
38
  3
Realistic
350
33
  3
Thicken
350
37
  0
LAYOUT
  5
1E
102
{ACAD_REACTORS
330
1A
102
}
330
1A
100
AcDbPlotSettings
  1

  2
none_device
  4

  6

 40
0.0
 41
0.0
 42
0.0
 43
0.0
 44
0.0
 45
0.0
 46
0.0
 47
0.0
 48
0.0
 49
0.0
140
0.0
141
0.0
142
1.0
143
1.0
 70
   688
 72
     0
 73
     0
 74
     5
  7

 75
    16
 76
     0
 77
     2
 78
   300
147
1.0
148
0.0
149
0.0
100
AcDbLayout
  1
Layout1
 70
     1
 71
     1
 10
0.0
 20
0.0
 11
12.0
 21
9.0
 12
0.0
 22
0.0
 32
0.0
 14
1.000000000000000E+20
 24
1.000000000000000E+20
 34
1.000000000000000E+20
 15
-1.000000000000000E+20
 25
-1.000000000000000E+20
 35
-1.000000000000000E+20
146
0.0
 13
0.0
 23
0.0
 33
0.0
 16
1.0
 26
0.0
 36
0.0
 17
0.0
 27
1.0
 37
0.0
 76
     0
330
1B
  0
LAYOUT
  5
26
102
{ACAD_REACTORS
330
1A
102
}
330
1A
100
AcDbPlotSettings
  1

  2
none_device
  4

  6

 40
0.0
 41
0.0
 42
0.0
 43
0.0
 44
0.0
 45
0.0
 46
0.0
 47
0.0
 48
0.0
 49
0.0
140
0.0
141
0.0
142
1.0
143
1.0
 70
   688
 72
     0
 73
     0
 74
     5
  7

 75
    16
 76
     0
 77
     2
 78
   300
147
1.0
148
0.0
149
0.0
100
AcDbLayout
  1
Layout2
 70
     1
 71
     2
 10
0.0
 20
0.0
 11
0.0
 21
0.0
 12
0.0
 22
0.0
 32
0.0
 14
0.0
 24
0.0
 34
0.0
 15
0.0
 25
0.0
 35
0.0
146
0.0
 13
0.0
 23
0.0
 33
0.0
 16
1.0
 26
0.0
 36
0.0
 17
0.0
 27
1.0
 37
0.0
 76
     0
330
23
  0
LAYOUT
  5
22
102
{ACAD_REACTORS
330
1A
102
}
330
1A
100
AcDbPlotSettings
  1

  2
none_device
  4

  6

 40
0.0
 41
0.0
 42
0.0
 43
0.0
 44
0.0
 45
0.0
 46
0.0
 47
0.0
 48
0.0
 49
0.0
140
0.0
141
0.0
142
1.0
143
1.0
 70
  1712
 72
     0
 73
     0
 74
     0
  7

 75
     0
 76
     0
 77
     2
 78
   300
147
1.0
148
0.0
149
0.0
100
AcDbLayout
  1
Model
 70
     1
 71
     0
 10
0.0
 20
0.0
 11
12.0
 21
9.0
 12
0.0
 22
0.0
 32
0.0
 14
1.000000000000000E+20
 24
1.000000000000000E+20
 34
1.000000000000000E+20
 15
-1.000000000000000E+20
 25
-1.000000000000000E+20
 35
-1.000000000000000E+20
146
0.0
 13
0.0
 23
0.0
 33
0.0
 16
1.0
 26
0.0
 36
0.0
 17
0.0
 27
1.0
 37
0.0
 76
     0
330
1F
331
29
  0
MATERIAL
  5
3D
102
{ACAD_REACTORS
330
3B
102
}
330
3B
100
AcDbMaterial
  1
ByBlock
 72
     1
 94
      127
  0
MATERIAL
  5
3C
102
{ACAD_REACTORS
330
3B
102
}
330
3B
100
AcDbMaterial
  1
ByLayer
 72
     1
 94
      127
  0
MATERIAL
  5
3E
102
{ACAD_REACTORS
330
3B
102
}
330
3B
100
AcDbMaterial
  1
Global
 72
     1
 94
      127
  0
MLINESTYLE
  5
18
102
{ACAD_REACTORS
330
17
102
}
330
17
100
AcDbMlineStyle
  2
Standard
 70
     0
  3

 62
   256
 51
90.0
 52
90.0
 71
     2
 49
0.5
 62
   256
  6
BYLAYER
 49
-0.5
 62
   256
  6
BYLAYER
  0
ACDBPLACEHOLDER
  5
F
102
{ACAD_REACTORS
330
E
102
}
330
E
  0
VISUALSTYLE
  5
2F
102
{ACAD_REACTORS
330
2A
102
}
330
2A
100
AcDbVisualStyle
  2
2dWireframe
 70
     4
177
     2
291
     0
 71
     0
176
     1
 72
     2
176
     1
 73
     0
176
     1
 90
        0
176
     1
 40
-0.6
176
     1
 41
-30.0
176
     1
 62
     5
 63
     7
421
 16777215
176
     1
 74
     1
176
     1
 91
        4
176
     1
 64
     7
176
     1
 65
   257
176
     1
 75
     1
176
     1
175
     1
176
     1
 42
1.0
176
     1
 92
        0
176
     1
 66
   257
176
     1
 43
1.0
176
     1
 76
     1
176
     1
 77
     6
176
     1
 78
     2
176
     1
 67
     7
176
     1
 79
     5
176
     1
170
     0
176
     1
171
     0
176
     1
290
     0
176
     1
 93
        1
176
     1
 44
0.0
176
     1
173
     0
176
     1
  0
VISUALSTYLE
  5
31
102
{ACAD_REACTORS
330
2A
102
}
330
2A
100
AcDbVisualStyle
  2
3D Hidden
 70
     6
177
     2
291
     0
 71
     1
176
     1
 72
     2
176
     1
 73
     2
176
     1
 90
        0
176
     1
 40
-0.6
176
     1
 41
-30.0
176
     1
 62
     5
 63
     7
421
 16777215
176
     1
 74
     2
176
     1
 91
        2
176
     1
 64
     7
176
     1
 65
   257
176
     1
 75
     2
176
     1
175
     1
176
     1
 42
40.0
176
     1
 92
        0
176
     1
 66
   257
176
     1
 43
1.0
176
     1
 76
     1
176
     1
 77
     6
176
     1
 78
     2
176
     1
 67
     7
176
     1
 79
     3
176
     1
170
     0
176
     1
171
     0
176
     1
290
     0
176
     1
 93
        1
176
     1
 44
0.0
176
     1
173
     0
176
     1
  0
VISUALSTYLE
  5
30
102
{ACAD_REACTORS
330
2A
102
}
330
2A
100
AcDbVisualStyle
  2
3dWireframe
 70
     5
177
     2
291
     0
 71
     0
176
     1
 72
     2
176
     1
 73
     0
176
     1
 90
        0
176
     1
 40
-0.6
176
     1
 41
-30.0
176
     1
 62
     5
 63
     7
421
 16777215
176
     1
 74
     1
176
     1
 91
        4
176
     1
 64
     7
176
     1
 65
   257
176
     1
 75
     1
176
     1
175
     1
176
     1
 42
1.0
176
     1
 92
        0
176
     1
 66
   257
176
     1
 43
1.0
176
     1
 76
     1
176
     1
 77
     6
176
     1
 78
     2
176
     1
 67
     7
176
     1
 79
     5
176
     1
170
     0
176
     1
171
     0
176
     1
290
     0
176
     1
 93
        1
176
     1
 44
0.0
176
     1
173
     0
176
     1
  0
VISUALSTYLE
  5
32
102
{ACAD_REACTORS
330
2A
102
}
330
2A
100
AcDbVisualStyle
  2
Basic
 70
     7
177
     2
291
     1
 71
     1
176
     1
 72
     0
176
     1
 73
     1
176
     1
 90
        0
176
     1
 40
-0.6
176
     1
 41
-30.0
176
     1
 62
     5
 63
     7
421
 16777215
176
     1
 74
     0
176
     1
 91
        4
176
     1
 64
     7
176
     1
 65
   257
176
     1
 75
     1
176
     1
175
     1
176
     1
 42
1.0
176
     1
 92
        8
176
     1
 66
     7
176
     1
 43
1.0
176
     1
 76
     1
176
     1
 77
     6
176
     1
 78
     2
176
     1
 67
     7
176
     1
 79
     5
176
     1
170
     0
176
     1
171
     0
176
     1
290
     0
176
     1
 93
        1
176
     1
 44
0.0
176
     1
173
     0
176
     1
  0
VISUALSTYLE
  5
36
102
{ACAD_REACTORS
330
2A
102
}
330
2A
100
AcDbVisualStyle
  2
Brighten
 70
    12
177
     2
291
     1
 71
     2
176
     1
 72
     2
176
     1
 73
     0
176
     1
 90
        0
176
     1
 40
-0.6
176
     1
 41
-30.0
176
     1
 62
     5
 63
     7
421
 16777215
176
     1
 74
     1
176
     1
 91
        4
176
     1
 64
     7
176
     1
 65
   257
176
     1
 75
     1
176
     1
175
     1
176
     1
 42
1.0
176
     1
 92
        8
176
     1
 66
     7
176
     1
 43
1.0
176
     1
 76
     1
176
     1
 77
     6
176
     1
 78
     2
176
     1
 67
     7
176
     1
 79
     5
176
     1
170
     0
176
     1
171
     0
176
     1
290
     0
176
     1
 93
        1
176
     1
 44
50.0
176
     1
173
     0
176
     1
  0
VISUALSTYLE
  5
3A
102
{ACAD_REACTORS
330
2A
102
}
330
2A
100
AcDbVisualStyle
  2
ColorChange
 70
    16
177
     2
291
     1
 71
     2
176
     1
 72
     2
176
     1
 73
     3
176
     1
 90
        0
176
     1
 40
-0.6
176
     1
 41
-30.0
176
     1
 62
     5
 63
     8
421
  8421504
176
     1
 74
     1
176
     1
 91
        4
176
     1
 64
     7
176
     1
 65
   257
176
     1
 75
     1
176
     1
175
     1
176
     1
 42
1.0
176
     1
 92
        8
176
     1
 66
     8
424
  8421504
176
     1
 43
1.0
176
     1
 76
     1
176
     1
 77
     6
176
     1
 78
     2
176
     1
 67
     7
176
     1
 79
     5
176
     1
170
     0
176
     1
171
     0
176
     1
290
     0
176
     1
 93
        1
176
     1
 44
0.0
176
     1
173
     0
176
     1
  0
VISUALSTYLE
  5
34
102
{ACAD_REACTORS
330
2A
102
}
330
2A
100
AcDbVisualStyle
  2
Conceptual
 70
     9
177
     2
291
     0
 71
     3
176
     1
 72
     2
176
     1
 73
     0
176
     1
 90
        0
176
     1
 40
-0.6
176
     1
 41
-30.0
176
     1
 62
     5
 63
     7
421
 16777215
176
     1
 74
     2
176
     1
 91
        2
176
     1
 64
     7
176
     1
 65
   257
176
     1
 75
     1
176
     1
175
     1
176
     1
 42
40.0
176
     1
 92
        8
176
     1
 66
     7
176
     1
 43
1.0
176
     1
 76
     1
176
     1
 77
     6
176
     1
 78
     2
176
     1
 67
     7
176
     1
 79
     3
176
     1
170
     0
176
     1
171
     0
176
     1
290
     0
176
     1
 93
        1
176
     1
 44
0.0
176
     1
173
     0
176
     1
  0
VISUALSTYLE
  5
35
102
{ACAD_REACTORS
330
2A
102
}
330
2A
100
AcDbVisualStyle
  2
Dim
 70
    11
177
     2
291
     1
 71
     2
176
     1
 72
     2
176
     1
 73
     0
176
     1
 90
        0
176
     1
 40
-0.6
176
     1
 41
-30.0
176
     1
 62
     5
 63
     7
421
 16777215
176
     1
 74
     1
176
     1
 91
        4
176
     1
 64
     7
176
     1
 65
   257
176
     1
 75
     1
176
     1
175
     1
176
     1
 42
1.0
176
     1
 92
        8
176
     1
 66
     7
176
     1
 43
1.0
176
     1
 76
     1
176
     1
 77
     6
176
     1
 78
     2
176
     1
 67
     7
176
     1
 79
     5
176
     1
170
     0
176
     1
171
     0
176
     1
290
     0
176
     1
 93
        1
176
     1
 44
-50.0
176
     1
173
     0
176
     1
  0
VISUALSTYLE
  5
39
102
{ACAD_REACTORS
330
2A
102
}
330
2A
100
AcDbVisualStyle
  2
Facepattern
 70
    15
177
     2
291
     1
 71
     2
176
     1
 72
     2
176
     1
 73
     0
176
     1
 90
        0
176
     1
 40
-0.6
176
     1
 41
-30.0
176
     1
 62
     5
 63
     7
421
 16777215
176
     1
 74
     1
176
     1
 91
        4
176
     1
 64
     7
176
     1
 65
   257
176
     1
 75
     1
176
     1
175
     1
176
     1
 42
1.0
176
     1
 92
        8
176
     1
 66
     7
176
     1
 43
1.0
176
     1
 76
     1
176
     1
 77
     6
176
     1
 78
     2
176
     1
 67
     7
176
     1
 79
     5
176
     1
170
     0
176
     1
171
     0
176
     1
290
     0
176
     1
 93
        1
176
     1
 44
0.0
176
     1
173
     0
176
     1
  0
VISUALSTYLE
  5
2B
102
{ACAD_REACTORS
330
2A
102
}
330
2A
100
AcDbVisualStyle
  2
Flat
 70
     0
177
     2
291
     1
 71
     2
176
     1
 72
     1
176
     1
 73
     1
176
     1
 90
        2
176
     1
 40
-0.6
176
     1
 41
30.0
176
     1
 62
     5
 63
     7
421
 16777215
176
     1
 74
     0
176
     1
 91
        4
176
     1
 64
     7
176
     1
 65
   257
176
     1
 75
     1
176
     1
175
     1
176
     1
 42
1.0
176
     1
 92
        8
176
     1
 66
     7
176
     1
 43
1.0
176
     1
 76
     1
176
     1
 77
     6
176
     1
 78
     2
176
     1
 67
     7
176
     1
 79
     5
176
     1
170
     0
176
     1
171
     0
176
     1
290
     0
176
     1
 93
       13
176
     1
 44
0.0
176
     1
173
     0
176
     1
  0
VISUALSTYLE
  5
2C
102
{ACAD_REACTORS
330
2A
102
}
330
2A
100
AcDbVisualStyle
  2
FlatWithEdges
 70
     1
177
     2
291
     1
 71
     2
176
     1
 72
     1
176
     1
 73
     1
176
     1
 90
        2
176
     1
 40
-0.6
176
     1
 41
30.0
176
     1
 62
     5
 63
     7
421
 16777215
176
     1
 74
     1
176
     1
 91
        4
176
     1
 64
     7
176
     1
 65
   257
176
     1
 75
     1
176
     1
175
     1
176
     1
 42
1.0
176
     1
 92
        0
176
     1
 66
   257
176
     1
 43
1.0
176
     1
 76
     1
176
     1
 77
     6
176
     1
 78
     2
176
     1
 67
     7
176
     1
 79
     5
176
     1
170
     0
176
     1
171
     0
176
     1
290
     0
176
     1
 93
       13
176
     1
 44
0.0
176
     1
173
     0
176
     1
  0
VISUALSTYLE
  5
2D
102
{ACAD_REACTORS
330
2A
102
}
330
2A
100
AcDbVisualStyle
  2
Gouraud
 70
     2
177
     2
291
     1
 71
     2
176
     1
 72
     2
176
     1
 73
     1
176
     1
 90
        2
176
     1
 40
-0.6
176
     1
 41
30.0
176
     1
 62
     5
 63
     7
421
 16777215
176
     1
 74
     0
176
     1
 91
        4
176
     1
 64
     7
176
     1
 65
   257
176
     1
 75
     1
176
     1
175
     1
176
     1
 42
1.0
176
     1
 92
        0
176
     1
 66
     7
176
     1
 43
1.0
176
     1
 76
     1
176
     1
 77
     6
176
     1
 78
     2
176
     1
 67
     7
176
     1
 79
     5
176
     1
170
     0
176
     1
171
     0
176
     1
290
     0
176
     1
 93
       13
176
     1
 44
0.0
176
     1
173
     0
176
     1
  0
VISUALSTYLE
  5
2E
102
{ACAD_REACTORS
330
2A
102
}
330
2A
100
AcDbVisualStyle
  2
GouraudWithEdges
 70
     3
177
     2
291
     1
 71
     2
176
     1
 72
     2
176
     1
 73
     1
176
     1
 90
        2
176
     1
 40
-0.6
176
     1
 41
30.0
176
     1
 62
     5
 63
     7
421
 16777215
176
     1
 74
     1
176
     1
 91
        4
176
     1
 64
     7
176
     1
 65
   257
176
     1
 75
     1
176
     1
175
     1
176
     1
 42
1.0
176
     1
 92
        0
176
     1
 66
   257
176
     1
 43
1.0
176
     1
 76
     1
176
     1
 77
     6
176
     1
 78
     2
176
     1
 67
     7
176
     1
 79
     5
176
     1
170
     0
176
     1
171
     0
176
     1
290
     0
176
     1
 93
       13
176
     1
 44
0.0
176
     1
173
     0
176
     1
  0
VISUALSTYLE
  5
38
102
{ACAD_REACTORS
330
2A
102
}
330
2A
100
AcDbVisualStyle
  2
Linepattern
 70
    14
177
     2
291
     1
 71
     2
176
     1
 72
     2
176
     1
 73
     0
176
     1
 90
        0
176
     1
 40
-0.6
176
     1
 41
-30.0
176
     1
 62
     5
 63
     7
421
 16777215
176
     1
 74
     1
176
     1
 91
        4
176
     1
 64
     7
176
     1
 65
   257
176
     1
 75
     7
176
     1
175
     7
176
     1
 42
1.0
176
     1
 92
        8
176
     1
 66
     7
176
     1
 43
1.0
176
     1
 76
     1
176
     1
 77
     6
176
     1
 78
     2
176
     1
 67
     7
176
     1
 79
     5
176
     1
170
     0
176
     1
171
     0
176
     1
290
     0
176
     1
 93
        1
176
     1
 44
0.0
176
     1
173
     0
176
     1
  0
VISUALSTYLE
  5
33
102
{ACAD_REACTORS
330
2A
102
}
330
2A
100
AcDbVisualStyle
  2
Realistic
 70
     8
177
     2
291
     0
 71
     2
176
     1
 72
     2
176
     1
 73
     0
176
     1
 90
        0
176
     1
 40
-0.6
176
     1
 41
-30.0
176
     1
 62
     5
 63
     7
421
 16777215
176
     1
 74
     1
176
     1
 91
        0
176
     1
 64
     7
176
     1
 65
   257
176
     1
 75
     1
176
     1
175
     1
176
     1
 42
1.0
176
     1
 92
        8
176
     1
 66
     8
424
  7895160
176
     1
 43
1.0
176
     1
 76
     1
176
     1
 77
     6
176
     1
 78
     2
176
     1
 67
     7
176
     1
 79
     5
176
     1
170
     0
176
     1
171
     0
176
     1
290
     0
176
     1
 93
       13
176
     1
 44
0.0
176
     1
173
     0
176
     1
  0
VISUALSTYLE
  5
37
102
{ACAD_REACTORS
330
2A
102
}
330
2A
100
AcDbVisualStyle
  2
Thicken
 70
    13
177
     2
291
     1
 71
     2
176
     1
 72
     2
176
     1
 73
     0
176
     1
 90
        0
176
     1
 40
-0.6
176
     1
 41
-30.0
176
     1
 62
     5
 63
     7
421
 16777215
176
     1
 74
     1
176
     1
 91
        4
176
     1
 64
     7
176
     1
 65
   257
176
     1
 75
     1
176
     1
175
     1
176
     1
 42
1.0
176
     1
 92
       12
176
     1
 66
     7
176
     1
 43
1.0
176
     1
 76
     1
176
     1
 77
     6
176
     1
 78
     2
176
     1
 67
     7
176
     1
 79
     5
176
     1
170
     0
176
     1
171
     0
176
     1
290
     0
176
     1
 93
        1
176
     1
 44
0.0
176
     1
173
     0
176
     1
  0
ENDSEC
  0
EOF
