  0
SECTION
  2
HEADER
  9
$ACADVER
  1
AC1024
  9
$ACADMAINTVER
 70
     6
  9
$DWGCODEPAGE
  3
UNDEFINED
  9
$INSBASE
 10
0.0
 20
0.0
 30
0.0
  9
$EXTMIN
 10
1.000000000000000E+20
 20
1.000000000000000E+20
 30
1.000000000000000E+20
  9
$EXTMAX
 10
-1.000000000000000E+20
 20
-1.000000000000000E+20
 30
-1.000000000000000E+20
  9
$LIMMIN
 10
0.0
 20
0.0
  9
$LIMMAX
 10
12.0
 20
9.0
  9
$ORTHOMODE
 70
     0
  9
$REGENMODE
 70
     1
  9
$FILLMODE
 70
     1
  9
$QTEXTMODE
 70
     0
  9
$MIRRTEXT
 70
     1
  9
$LTSCALE
 40
1.0
  9
$ATTMODE
 70
     1
  9
$TEXTSIZE
 40
0.2
  9
$TRACEWID
 40
0.05
  9
$TEXTSTYLE
  7
Standard
  9
$CLAYER
  8
0
  9
$CELTYPE
  6
ByLayer
  9
$CECOLOR
 62
   256
  9
$CELTSCALE
 40
1.0
  9
$DISPSILH
 70
     0
  9
$DIMSCALE
 40
1.0
  9
$DIMASZ
 40
0.18
  9
$DIMEXO
 40
0.0625
  9
$DIMDLI
 40
0.38
  9
$DIMRND
 40
0.0
  9
$DIMDLE
 40
0.0
  9
$DIMEXE
 40
0.18
  9
$DIMTP
 40
0.0
  9
$DIMTM
 40
0.0
  9
$DIMTXT
 40
0.18
  9
$DIMCEN
 40
0.09
  9
$DIMTSZ
 40
0.0
  9
$DIMTOL
 70
     0
  9
$DIMLIM
 70
     0
  9
$DIMTIH
 70
     1
  9
$DIMTOH
 70
     1
  9
$DIMSE1
 70
     0
  9
$DIMSE2
 70
     0
  9
$DIMTAD
 70
     0
  9
$DIMZIN
 70
     0
  9
$DIMBLK
  1

  9
$DIMASO
 70
     1
  9
$DIMSHO
 70
     1
  9
$DIMPOST
  1

  9
$DIMAPOST
  1

  9
$DIMALT
 70
     0
  9
$DIMALTD
 70
     2
  9
$DIMALTF
 40
25.4
  9
$DIMLFAC
 40
1.0
  9
$DIMTOFL
 70
     0
  9
$DIMTVP
 40
0.0
  9
$DIMTIX
 70
     0
  9
$DIMSOXD
 70
     0
  9
$DIMSAH
 70
     0
  9
$DIMBLK1
  1

  9
$DIMBLK2
  1

  9
$DIMSTYLE
  2
Standard
  9
$DIMCLRD
 70
     0
  9
$DIMCLRE
 70
     0
  9
$DIMCLRT
 70
     0
  9
$DIMTFAC
 40
1.0
  9
$DIMGAP
 40
0.09
  9
$DIMJUST
 70
     0
  9
$DIMSD1
 70
     0
  9
$DIMSD2
 70
     0
  9
$DIMTOLJ
 70
     1
  9
$DIMTZIN
 70
     0
  9
$DIMALTZ
 70
     0
  9
$DIMALTTZ
 70
     0
  9
$DIMUPT
 70
     0
  9
$DIMDEC
 70
     4
  9
$DIMTDEC
 70
     4
  9
$DIMALTU
 70
     2
  9
$DIMALTTD
 70
     2
  9
$DIMTXSTY
  7
Standard
  9
$DIMAUNIT
 70
     0
  9
$DIMADEC
 70
     0
  9
$DIMALTRND
 40
0.0
  9
$DIMAZIN
 70
     0
  9
$DIMDSEP
 70
    46
  9
$DIMATFIT
 70
     3
  9
$DIMFRAC
 70
     0
  9
$DIMLDRBLK
  1

  9
$DIMLUNIT
 70
     2
  9
$DIMLWD
 70
    -2
  9
$DIMLWE
 70
    -2
  9
$DIMTMOVE
 70
     0
  9
$DIMFXL
 40
1.0
  9
$DIMFXLON
 70
     0
  9
$DIMJOGANG
 40
0.7853981633974483
  9
$DIMTFILL
 70
     0
  9
$DIMTFILLCLR
 70
     0
  9
$DIMARCSYM
 70
     0
  9
$DIMLTYPE
  6

  9
$DIMLTEX1
  6

  9
$DIMLTEX2
  6

  9
$DIMTXTDIRECTION
 70
     0
  9
$LUNITS
 70
     2
  9
$LUPREC
 70
     4
  9
$SKETCHINC
 40
0.1
  9
$FILLETRAD
 40
0.5
  9
$AUNITS
 70
     0
  9
$AUPREC
 70
     0
  9
$MENU
  1
.
  9
$ELEVATION
 40
0.0
  9
$PELEVATION
 40
0.0
  9
$THICKNESS
 40
0.0
  9
$LIMCHECK
 70
     0
  9
$CHAMFERA
 40
0.5
  9
$CHAMFERB
 40
0.5
  9
$CHAMFERC
 40
1.0
  9
$CHAMFERD
 40
0.0
  9
$SKPOLY
 70
     0
  9
$TDCREATE
 40
2458270.587754618
  9
$TDUCREATE
 40
2458270.21275463
  9
$TDUPDATE
 40
2458270.587754618
  9
$TDUUPDATE
 40
2458270.21275463
  9
$TDINDWG
 40
0.0000000116
  9
$TDUSRTIMER
 40
0.0000000116
  9
$USRTIMER
 70
     1
  9
$ANGBASE
 50
0.0
  9
$ANGDIR
 70
     0
  9
$PDMODE
 70
     0
  9
$PDSIZE
 40
0.0
  9
$PLINEWID
 40
0.0
  9
$SPLFRAME
 70
     0
  9
$SPLINETYPE
 70
     6
  9
$SPLINESEGS
 70
     8
  9
$HANDSEED
  5
1E8
  9
$SURFTAB1
 70
     6
  9
$SURFTAB2
 70
     6
  9
$SURFTYPE
 70
     6
  9
$SURFU
 70
     6
  9
$SURFV
 70
     6
  9
$UCSBASE
  2

  9
$UCSNAME
  2

  9
$UCSORG
 10
0.0
 20
0.0
 30
0.0
  9
$UCSXDIR
 10
1.0
 20
0.0
 30
0.0
  9
$UCSYDIR
 10
0.0
 20
1.0
 30
0.0
  9
$UCSORTHOREF
  2

  9
$UCSORTHOVIEW
 70
     0
  9
$UCSORGTOP
 10
0.0
 20
0.0
 30
0.0
  9
$UCSORGBOTTOM
 10
0.0
 20
0.0
 30
0.0
  9
$UCSORGLEFT
 10
0.0
 20
0.0
 30
0.0
  9
$UCSORGRIGHT
 10
0.0
 20
0.0
 30
0.0
  9
$UCSORGFRONT
 10
0.0
 20
0.0
 30
0.0
  9
$UCSORGBACK
 10
0.0
 20
0.0
 30
0.0
  9
$PUCSBASE
  2

  9
$PUCSNAME
  2

  9
$PUCSORG
 10
0.0
 20
0.0
 30
0.0
  9
$PUCSXDIR
 10
1.0
 20
0.0
 30
0.0
  9
$PUCSYDIR
 10
0.0
 20
1.0
 30
0.0
  9
$PUCSORTHOREF
  2

  9
$PUCSORTHOVIEW
 70
     0
  9
$PUCSORGTOP
 10
0.0
 20
0.0
 30
0.0
  9
$PUCSORGBOTTOM
 10
0.0
 20
0.0
 30
0.0
  9
$PUCSORGLEFT
 10
0.0
 20
0.0
 30
0.0
  9
$PUCSORGRIGHT
 10
0.0
 20
0.0
 30
0.0
  9
$PUCSORGFRONT
 10
0.0
 20
0.0
 30
0.0
  9
$PUCSORGBACK
 10
0.0
 20
0.0
 30
0.0
  9
$USERI1
 70
     0
  9
$USERI2
 70
     0
  9
$USERI3
 70
     0
  9
$USERI4
 70
     0
  9
$USERI5
 70
     0
  9
$USERR1
 40
0.0
  9
$USERR2
 40
0.0
  9
$USERR3
 40
0.0
  9
$USERR4
 40
0.0
  9
$USERR5
 40
0.0
  9
$WORLDVIEW
 70
     1
  9
$SHADEDGE
 70
     3
  9
$SHADEDIF
 70
    70
  9
$TILEMODE
 70
     1
  9
$MAXACTVP
 70
    64
  9
$PINSBASE
 10
0.0
 20
0.0
 30
0.0
  9
$PLIMCHECK
 70
     0
  9
$PEXTMIN
 10
1.000000000000000E+20
 20
1.000000000000000E+20
 30
1.000000000000000E+20
  9
$PEXTMAX
 10
-1.000000000000000E+20
 20
-1.000000000000000E+20
 30
-1.000000000000000E+20
  9
$PLIMMIN
 10
0.0
 20
0.0
  9
$PLIMMAX
 10
12.0
 20
9.0
  9
$UNITMODE
 70
     0
  9
$VISRETAIN
 70
     1
  9
$PLINEGEN
 70
     0
  9
$PSLTSCALE
 70
     1
  9
$TREEDEPTH
 70
  3020
  9
$CMLSTYLE
  2
Standard
  9
$CMLJUST
 70
     0
  9
$CMLSCALE
 40
1.0
  9
$PROXYGRAPHICS
 70
     1
  9
$MEASUREMENT
 70
     0
  9
$CELWEIGHT
370
    -1
  9
$ENDCAPS
280
     0
  9
$JOINSTYLE
280
     0
  9
$LWDISPLAY
290
     1
  9
$INSUNITS
 70
     1
  9
$HYPERLINKBASE
  1

  9
$STYLESHEET
  1

  9
$XEDIT
290
     1
  9
$CEPSNTYPE
380
     0
  9
$PSTYLEMODE
290
     1
  9
$FINGERPRINTGUID
  2
{CB89C0A1-4573-116D-F9C0-82BFC6B76BBE}
  9
$VERSIONGUID
  2
{FAEB1C32-E019-11D5-929B-00C0DF256EC4}
  9
$EXTNAMES
290
     1
  9
$PSVPSCALE
 40
0.0
  9
$OLESTARTUP
290
     0
  9
$SORTENTS
280
   127
  9
$INDEXCTL
280
     0
  9
$HIDETEXT
280
     1
  9
$XCLIPFRAME
280
     2
  9
$HALOGAP
280
     0
  9
$OBSCOLOR
 70
   257
  9
$OBSLTYPE
280
     0
  9
$INTERSECTIONDISPLAY
280
     0
  9
$INTERSECTIONCOLOR
 70
   257
  9
$DIMASSOC
280
     2
  9
$PROJECTNAME
  1

  9
$CAMERADISPLAY
290
     0
  9
$LENSLENGTH
 40
50.0
  9
$CAMERAHEIGHT
 40
0.0
  9
$STEPSPERSEC
 40
2.0
  9
$STEPSIZE
 40
6.0
  9
$3DDWFPREC
 40
2.0
  9
$PSOLWIDTH
 40
0.25
  9
$PSOLHEIGHT
 40
4.0
  9
$LOFTANG1
 40
1.570796326794897
  9
$LOFTANG2
 40
1.570796326794897
  9
$LOFTMAG1
 40
0.0
  9
$LOFTMAG2
 40
0.0
  9
$LOFTPARAM
 70
     7
  9
$LOFTNORMALS
280
     1
  9
$LATITUDE
 40
37.795
  9
$LONGITUDE
 40
-122.394
  9
$NORTHDIRECTION
 40
0.0
  9
$TIMEZONE
 70
 -8000
  9
$LIGHTGLYPHDISPLAY
280
     1
  9
$TILEMODELIGHTSYNCH
280
     1
  9
$CMATERIAL
347
3C
  9
$SOLIDHIST
280
     1
  9
$SHOWHIST
280
     1
  9
$DWFFRAME
280
     2
  9
$DGNFRAME
280
     2
  9
$REALWORLDSCALE
290
     1
  9
$INTERFERECOLOR
 62
   256
  9
$CSHADOW
280
     0
  9
$SHADOWPLANELOCATION
 40
0.0
  0
ENDSEC
  0
SECTION
  2
CLASSES
  0
CLASS
  1
ACDBDICTIONARYWDFLT
  2
AcDbDictionaryWithDefault
  3
ObjectDBX Classes
 90
        0
 91
        4
280
     0
281
     0
  0
CLASS
  1
VISUALSTYLE
  2
AcDbVisualStyle
  3
ObjectDBX Classes
 90
     4095
 91
        4
280
     0
281
     0
  0
CLASS
  1
MATERIAL
  2
AcDbMaterial
  3
ObjectDBX Classes
 90
     1153
 91
        4
280
     0
281
     0
  0
CLASS
  1
SUN
  2
AcDbSun
  3
SCENEOE
 90
     1024
 91
        4
280
     0
281
     0
  0
ENDSEC
  0
SECTION
  2
TABLES
  0
TABLE
  2
VPORT
  5
8
330
0
100
AcDbSymbolTable
 70
     1
  0
VPORT
  5
29
330
8
100
AcDbSymbolTableRecord
100
AcDbViewportTableRecord
  2
*Active
 70
     0
 10
0.0
 20
0.0
 11
1.0
 21
1.0
 12
0.0
 22
0.0
 13
0.0
 23
0.0
 14
0.5
 24
0.5
 15
0.5
 25
0.5
 16
0.0
 26
0.0
 36
1.0
 17
105.0007777515277
 27
-148.5000416295416
 37
0.0
 40
297.0000832590831
 41
0.7070757462376333
 42
50.0
 43
0.0
 44
0.0
 50
0.0
 51
0.0
 71
     0
 72
   100
 73
     1
 74
     3
 75
     0
 76
     0
 77
     0
 78
     0
281
     0
 65
     1
110
0.0
120
0.0
130
0.0
111
1.0
121
0.0
131
0.0
112
0.0
122
1.0
132
0.0
 79
     0
146
0.0
 60
     3
 61
     5
292
     1
282
     1
141
0.0
142
0.0
 63
   250
361
3F
  0
ENDTAB
  0
TABLE
  2
LTYPE
  5
5
330
0
100
AcDbSymbolTable
 70
     1
  0
LTYPE
  5
14
330
5
100
AcDbSymbolTableRecord
100
AcDbLinetypeTableRecord
  2
ByBlock
 70
     0
  3

 72
    65
 73
     0
 40
0.0
  0
LTYPE
  5
15
330
5
100
AcDbSymbolTableRecord
100
AcDbLinetypeTableRecord
  2
ByLayer
 70
     0
  3

 72
    65
 73
     0
 40
0.0
  0
LTYPE
  5
16
330
5
100
AcDbSymbolTableRecord
100
AcDbLinetypeTableRecord
  2
Continuous
 70
     0
  3
Solid line
 72
    65
 73
     0
 40
0.0
  0
ENDTAB
  0
TABLE
  2
LAYER
  5
2
330
0
100
AcDbSymbolTable
 70
     2
  0
LAYER
  5
10
330
2
100
AcDbSymbolTableRecord
100
AcDbLayerTableRecord
  2
0
 70
     0
 62
     7
  6
Continuous
370
    -3
390
F
347
3E
  0
LAYER
  5
40
330
2
100
AcDbSymbolTableRecord
100
AcDbLayerTableRecord
  2
_U+30EC_U+30A4_U+30E4_U+30FC 1
 70
     0
 62
     7
  6
Continuous
370
    -3
390
F
347
3E
  0
ENDTAB
  0
TABLE
  2
STYLE
  5
3
330
0
100
AcDbSymbolTable
 70
     1
  0
STYLE
  5
11
330
3
100
AcDbSymbolTableRecord
100
AcDbTextStyleTableRecord
  2
Standard
 70
     0
 40
0.0
 41
1.0
 50
0.0
 71
     0
 42
0.2
  3
txt
  4

  0
ENDTAB
  0
TABLE
  2
VIEW
  5
6
330
0
100
AcDbSymbolTable
 70
     0
  0
ENDTAB
  0
TABLE
  2
UCS
  5
7
330
0
100
AcDbSymbolTable
 70
     0
  0
ENDTAB
  0
TABLE
  2
APPID
  5
9
330
0
100
AcDbSymbolTable
 70
     1
  0
APPID
  5
12
330
9
100
AcDbSymbolTableRecord
100
AcDbRegAppTableRecord
  2
ACAD
 70
     0
  0
ENDTAB
  0
TABLE
  2
DIMSTYLE
  5
A
330
0
100
AcDbSymbolTable
 70
     1
100
AcDbDimStyleTable
  0
DIMSTYLE
105
27
330
A
100
AcDbSymbolTableRecord
100
AcDbDimStyleTableRecord
  2
Standard
 70
     0
178
     0
340
11
  0
ENDTAB
  0
TABLE
  2
BLOCK_RECORD
  5
1
330
0
100
AcDbSymbolTable
 70
     6
  0
BLOCK_RECORD
  5
1F
330
1
100
AcDbSymbolTableRecord
100
AcDbBlockTableRecord
  2
*Model_Space
340
22
 70
     0
280
     1
281
     0
  0
BLOCK_RECORD
  5
1B
330
1
100
AcDbSymbolTableRecord
100
AcDbBlockTableRecord
  2
*Paper_Space
340
1E
 70
     0
280
     1
281
     0
  0
BLOCK_RECORD
  5
23
330
1
100
AcDbSymbolTableRecord
100
AcDbBlockTableRecord
  2
*Paper_Space0
340
26
 70
     0
280
     1
281
     0
  0
BLOCK_RECORD
  5
4F
330
1
100
AcDbSymbolTableRecord
100
AcDbBlockTableRecord
  2
block 2
340
0
102
{BLKREFS
331
50
102
}
 70
     0
280
     1
281
     0
  0
BLOCK_RECORD
  5
E1
330
1
100
AcDbSymbolTableRecord
100
AcDbBlockTableRecord
  2
block 3
340
0
102
{BLKREFS
331
E2
102
}
 70
     0
280
     1
281
     0
  0
BLOCK_RECORD
  5
F8
330
1
100
AcDbSymbolTableRecord
100
AcDbBlockTableRecord
  2
block 4
340
0
102
{BLKREFS
331
F9
102
}
 70
     0
280
     1
281
     0
  0
BLOCK_RECORD
  5
10B
330
1
100
AcDbSymbolTableRecord
100
AcDbBlockTableRecord
  2
block 5
340
0
102
{BLKREFS
331
10C
102
}
 70
     0
280
     1
281
     0
  0
BLOCK_RECORD
  5
130
330
1
100
AcDbSymbolTableRecord
100
AcDbBlockTableRecord
  2
block 6
340
0
102
{BLKREFS
331
131
102
}
 70
     0
280
     1
281
     0
  0
ENDTAB
  0
ENDSEC
  0
SECTION
  2
BLOCKS
  0
BLOCK
  5
20
330
1F
100
AcDbEntity
  8
0
100
AcDbBlockBegin
  2
*Model_Space
 70
     0
 10
0.0
 20
0.0
 30
0.0
  3
*Model_Space
  1

  0
ENDBLK
  5
21
330
1F
100
AcDbEntity
  8
0
100
AcDbBlockEnd
  0
BLOCK
  5
1C
330
1B
100
AcDbEntity
 67
     1
  8
0
100
AcDbBlockBegin
  2
*Paper_Space
 70
     0
 10
0.0
 20
0.0
 30
0.0
  3
*Paper_Space
  1

  0
ENDBLK
  5
1D
330
1B
100
AcDbEntity
 67
     1
  8
0
100
AcDbBlockEnd
  0
BLOCK
  5
24
330
23
100
AcDbEntity
  8
0
100
AcDbBlockBegin
  2
*Paper_Space0
 70
     0
 10
0.0
 20
0.0
 30
0.0
  3
*Paper_Space0
  1

  0
ENDBLK
  5
25
330
23
100
AcDbEntity
  8
0
100
AcDbBlockEnd
  0
BLOCK
  5
51
330
4F
100
AcDbEntity
  8
0
100
AcDbBlockBegin
  2
block 2
 70
     0
 10
0.0
 20
0.0
 30
0.0
  3
block 2
  1

  0
SPLINE
  5
53
330
4F
100
AcDbEntity
  8
_U+30EC_U+30A4_U+30E4_U+30FC 1
370
     0
100
AcDbSpline
210
0.0
220
0.0
230
1.0
 70
    11
 71
     3
 72
    44
 73
    40
 74
     0
 42
0.0000000001
 43
0.0000000001
 12
1.0
 22
0.0
 32
0.0
 13
1.0
 23
0.0
 33
0.0
 40
0.0
 40
0.0
 40
0.0
 40
0.0
 40
1.0
 40
1.0
 40
1.0
 40
2.0
 40
2.0
 40
2.0
 40
3.0
 40
3.0
 40
3.0
 40
4.0
 40
4.0
 40
4.0
 40
5.0
 40
5.0
 40
5.0
 40
6.0
 40
6.0
 40
6.0
 40
7.0
 40
7.0
 40
7.0
 40
8.0
 40
8.0
 40
8.0
 40
9.0
 40
9.0
 40
9.0
 40
10.0
 40
10.0
 40
10.0
 40
11.0
 40
11.0
 40
11.0
 40
12.0
 40
12.0
 40
12.0
 40
13.0
 40
13.0
 40
13.0
 40
13.0
 10
92.9533270709457
 20
-162.1882052545918
 30
0.0
 10
92.73542478150365
 20
-162.3466796469133
 30
0.0
 10
92.64223494862765
 20
-162.4207491998462
 30
0.0
 10
92.59365910228561
 20
-162.5647541911297
 30
0.0
 10
92.59365910228561
 20
-162.5647541911297
 30
0.0
 10
93.37207842717781
 20
-162.5647541911297
 30
0.0
 10
93.37207842717781
 20
-162.5647541911297
 30
0.0
 10
93.37207842717781
 20
-162.5647541911297
 30
0.0
 10
93.37207842717781
 20
-162.769737372502
 30
0.0
 10
93.37207842717781
 20
-162.769737372502
 30
0.0
 10
93.37207842717781
 20
-162.769737372502
 30
0.0
 10
92.34406193437927
 20
-162.769737372502
 30
0.0
 10
92.34406193437927
 20
-162.769737372502
 30
0.0
 10
92.37575681284356
 20
-162.4121364611331
 30
0.0
 10
92.4412136270633
 20
-162.3339327936179
 30
0.0
 10
92.82637530231425
 20
-162.0355875245953
 30
0.0
 10
93.0823458968683
 20
-161.8368055150964
 30
0.0
 10
93.14780271108805
 20
-161.7692816435855
 30
0.0
 10
93.14780271108805
 20
-161.631822333724
 30
0.0
 10
93.14780271108805
 20
-161.5133110490314
 30
0.0
 10
93.07597247022059
 20
-161.3820529110434
 30
0.0
 10
92.87925751801284
 20
-161.3820529110434
 30
0.0
 10
92.61898055410221
 20
-161.3820529110434
 30
0.0
 10
92.61054007016334
 20
-161.6125297990066
 30
0.0
 10
92.60623370080678
 20
-161.7289740264081
 30
0.0
 10
92.60623370080678
 20
-161.7289740264081
 30
0.0
 10
92.38213023949127
 20
-161.7289740264081
 30
0.0
 10
92.38213023949127
 20
-161.7289740264081
 30
0.0
 10
92.39057072343014
 20
-161.6021945125509
 30
0.0
 10
92.40107826466016
 20
-161.4898843997317
 30
0.0
 10
92.48152124424074
 20
-161.3713731150391
 30
0.0
 10
92.5914197902202
 20
-161.2108316654265
 30
0.0
 10
92.77762720119796
 20
-161.1767252201225
 30
0.0
 10
92.8940714285994
 20
-161.1767252201225
 30
0.0
 10
93.17122936038776
 20
-161.1767252201225
 30
0.0
 10
93.37845185382552
 20
-161.3610378285834
 30
0.0
 10
93.37845185382552
 20
-161.6338893910151
 30
0.0
 10
93.37845185382552
 20
-161.8622992216872
 30
0.0
 10
93.26217988119835
 20
-161.9618624812109
 30
0.0
 10
92.9533270709457
 20
-162.1882052545918
 30
0.0
  0
HATCH
  5
54
330
4F
100
AcDbEntity
  8
_U+30EC_U+30A4_U+30E4_U+30FC 1
 62
   179
420
  2234388
100
AcDbHatch
 10
0.0
 20
0.0
 30
0.0
210
0.0
220
0.0
230
1.0
  2
SOLID
 70
     1
 71
     0
 91
        1
 92
        1
 93
        1
 72
     4
 94
        3
 73
     0
 74
     1
 95
       44
 96
       40
 40
0.0
 40
0.0
 40
0.0
 40
0.0
 40
1.0
 40
1.0
 40
1.0
 40
2.0
 40
2.0
 40
2.0
 40
3.0
 40
3.0
 40
3.0
 40
4.0
 40
4.0
 40
4.0
 40
5.0
 40
5.0
 40
5.0
 40
6.0
 40
6.0
 40
6.0
 40
7.0
 40
7.0
 40
7.0
 40
8.0
 40
8.0
 40
8.0
 40
9.0
 40
9.0
 40
9.0
 40
10.0
 40
10.0
 40
10.0
 40
11.0
 40
11.0
 40
11.0
 40
12.0
 40
12.0
 40
12.0
 40
13.0
 40
13.0
 40
13.0
 40
13.0
 10
92.9533270709457
 20
-162.1882052545918
 10
92.73542478150365
 20
-162.3466796469133
 10
92.64223494862765
 20
-162.4207491998462
 10
92.59365910228561
 20
-162.5647541911297
 10
92.59365910228561
 20
-162.5647541911297
 10
93.37207842717781
 20
-162.5647541911297
 10
93.37207842717781
 20
-162.5647541911297
 10
93.37207842717781
 20
-162.5647541911297
 10
93.37207842717781
 20
-162.769737372502
 10
93.37207842717781
 20
-162.769737372502
 10
93.37207842717781
 20
-162.769737372502
 10
92.34406193437927
 20
-162.769737372502
 10
92.34406193437927
 20
-162.769737372502
 10
92.37575681284356
 20
-162.4121364611331
 10
92.4412136270633
 20
-162.3339327936179
 10
92.82637530231425
 20
-162.0355875245953
 10
93.0823458968683
 20
-161.8368055150964
 10
93.14780271108805
 20
-161.7692816435855
 10
93.14780271108805
 20
-161.631822333724
 10
93.14780271108805
 20
-161.5133110490314
 10
93.07597247022059
 20
-161.3820529110434
 10
92.87925751801284
 20
-161.3820529110434
 10
92.61898055410221
 20
-161.3820529110434
 10
92.61054007016334
 20
-161.6125297990066
 10
92.60623370080678
 20
-161.7289740264081
 10
92.60623370080678
 20
-161.7289740264081
 10
92.38213023949127
 20
-161.7289740264081
 10
92.38213023949127
 20
-161.7289740264081
 10
92.39057072343014
 20
-161.6021945125509
 10
92.40107826466016
 20
-161.4898843997317
 10
92.48152124424074
 20
-161.3713731150391
 10
92.5914197902202
 20
-161.2108316654265
 10
92.77762720119796
 20
-161.1767252201225
 10
92.8940714285994
 20
-161.1767252201225
 10
93.17122936038776
 20
-161.1767252201225
 10
93.37845185382552
 20
-161.3610378285834
 10
93.37845185382552
 20
-161.6338893910151
 10
93.37845185382552
 20
-161.8622992216872
 10
93.26217988119835
 20
-161.9618624812109
 10
92.9533270709457
 20
-162.1882052545918
 97
        0
 97
        0
 75
     2
 76
     1
 98
        0
  0
ENDBLK
  5
52
330
4F
100
AcDbEntity
  8
0
100
AcDbBlockEnd
  0
BLOCK
  5
E3
330
E1
100
AcDbEntity
  8
0
100
AcDbBlockBegin
  2
block 3
 70
     0
 10
0.0
 20
0.0
 30
0.0
  3
block 3
  1

  0
SPLINE
  5
E5
330
E1
100
AcDbEntity
  8
_U+30EC_U+30A4_U+30E4_U+30FC 1
370
     0
100
AcDbSpline
210
0.0
220
0.0
230
1.0
 70
    11
 71
     3
 72
    44
 73
    40
 74
     0
 42
0.0000000001
 43
0.0000000001
 12
1.0
 22
0.0
 32
0.0
 13
1.0
 23
0.0
 33
0.0
 40
0.0
 40
0.0
 40
0.0
 40
0.0
 40
1.0
 40
1.0
 40
1.0
 40
2.0
 40
2.0
 40
2.0
 40
3.0
 40
3.0
 40
3.0
 40
4.0
 40
4.0
 40
4.0
 40
5.0
 40
5.0
 40
5.0
 40
6.0
 40
6.0
 40
6.0
 40
7.0
 40
7.0
 40
7.0
 40
8.0
 40
8.0
 40
8.0
 40
9.0
 40
9.0
 40
9.0
 40
10.0
 40
10.0
 40
10.0
 40
11.0
 40
11.0
 40
11.0
 40
12.0
 40
12.0
 40
12.0
 40
13.0
 40
13.0
 40
13.0
 40
13.0
 10
107.5675943741498
 20
-132.0315619244574
 30
0.0
 10
107.349864339482
 20
-132.1902085715531
 30
0.0
 10
107.2565022518317
 20
-132.264278124486
 30
0.0
 10
107.2079264054897
 20
-132.4081108609952
 30
0.0
 10
107.2079264054897
 20
-132.4081108609952
 30
0.0
 10
107.9865179851562
 20
-132.4081108609952
 30
0.0
 10
107.9865179851562
 20
-132.4081108609952
 30
0.0
 10
107.9865179851562
 20
-132.4081108609952
 30
0.0
 10
107.9865179851562
 20
-132.6132662971418
 30
0.0
 10
107.9865179851562
 20
-132.6132662971418
 30
0.0
 10
107.9865179851562
 20
-132.6132662971418
 30
0.0
 10
106.9585014923576
 20
-132.6132662971418
 30
0.0
 10
106.9585014923576
 20
-132.6132662971418
 30
0.0
 10
106.9901963708219
 20
-132.2556653857729
 30
0.0
 10
107.0556531850416
 20
-132.1774617182577
 30
0.0
 10
107.4408148602926
 20
-131.8791164492351
 30
0.0
 10
107.6964409452981
 20
-131.6803344397362
 30
0.0
 10
107.7618977595179
 20
-131.612638313451
 30
0.0
 10
107.7618977595179
 20
-131.4751790035895
 30
0.0
 10
107.7618977595179
 20
-131.3566677188969
 30
0.0
 10
107.6902397734247
 20
-131.2255818356832
 30
0.0
 10
107.4935248212169
 20
-131.2255818356832
 30
0.0
 10
107.2334201120805
 20
-131.2255818356832
 30
0.0
 10
107.2248073733674
 20
-131.4560587236464
 30
0.0
 10
107.2203287492366
 20
-131.5725029510479
 30
0.0
 10
107.2203287492366
 20
-131.5725029510479
 30
0.0
 10
106.9963975426953
 20
-131.5725029510479
 30
0.0
 10
106.9963975426953
 20
-131.5725029510479
 30
0.0
 10
107.0046657718599
 20
-131.4455511824164
 30
0.0
 10
107.0153455678642
 20
-131.3334133243715
 30
0.0
 10
107.0956162926705
 20
-131.2149020396789
 30
0.0
 10
107.2058593481985
 20
-131.054188335292
 30
0.0
 10
107.391894504402
 20
-131.0202541447623
 30
0.0
 10
107.5083387318035
 20
-131.0202541447623
 30
0.0
 10
107.7853244088176
 20
-131.0202541447623
 30
0.0
 10
107.9927191570296
 20
-131.2043944984489
 30
0.0
 10
107.9927191570296
 20
-131.4772460608807
 30
0.0
 10
107.9927191570296
 20
-131.7056558915528
 30
0.0
 10
107.8762749296282
 20
-131.8052191510765
 30
0.0
 10
107.5675943741498
 20
-132.0315619244574
 30
0.0
  0
HATCH
  5
E6
330
E1
100
AcDbEntity
  8
_U+30EC_U+30A4_U+30E4_U+30FC 1
 62
   179
420
  2234388
100
AcDbHatch
 10
0.0
 20
0.0
 30
0.0
210
0.0
220
0.0
230
1.0
  2
SOLID
 70
     1
 71
     0
 91
        1
 92
        1
 93
        1
 72
     4
 94
        3
 73
     0
 74
     1
 95
       44
 96
       40
 40
0.0
 40
0.0
 40
0.0
 40
0.0
 40
1.0
 40
1.0
 40
1.0
 40
2.0
 40
2.0
 40
2.0
 40
3.0
 40
3.0
 40
3.0
 40
4.0
 40
4.0
 40
4.0
 40
5.0
 40
5.0
 40
5.0
 40
6.0
 40
6.0
 40
6.0
 40
7.0
 40
7.0
 40
7.0
 40
8.0
 40
8.0
 40
8.0
 40
9.0
 40
9.0
 40
9.0
 40
10.0
 40
10.0
 40
10.0
 40
11.0
 40
11.0
 40
11.0
 40
12.0
 40
12.0
 40
12.0
 40
13.0
 40
13.0
 40
13.0
 40
13.0
 10
107.5675943741498
 20
-132.0315619244574
 10
107.349864339482
 20
-132.1902085715531
 10
107.2565022518317
 20
-132.264278124486
 10
107.2079264054897
 20
-132.4081108609952
 10
107.2079264054897
 20
-132.4081108609952
 10
107.9865179851562
 20
-132.4081108609952
 10
107.9865179851562
 20
-132.4081108609952
 10
107.9865179851562
 20
-132.4081108609952
 10
107.9865179851562
 20
-132.6132662971418
 10
107.9865179851562
 20
-132.6132662971418
 10
107.9865179851562
 20
-132.6132662971418
 10
106.9585014923576
 20
-132.6132662971418
 10
106.9585014923576
 20
-132.6132662971418
 10
106.9901963708219
 20
-132.2556653857729
 10
107.0556531850416
 20
-132.1774617182577
 10
107.4408148602926
 20
-131.8791164492351
 10
107.6964409452981
 20
-131.6803344397362
 10
107.7618977595179
 20
-131.612638313451
 10
107.7618977595179
 20
-131.4751790035895
 10
107.7618977595179
 20
-131.3566677188969
 10
107.6902397734247
 20
-131.2255818356832
 10
107.4935248212169
 20
-131.2255818356832
 10
107.2334201120805
 20
-131.2255818356832
 10
107.2248073733674
 20
-131.4560587236464
 10
107.2203287492366
 20
-131.5725029510479
 10
107.2203287492366
 20
-131.5725029510479
 10
106.9963975426953
 20
-131.5725029510479
 10
106.9963975426953
 20
-131.5725029510479
 10
107.0046657718599
 20
-131.4455511824164
 10
107.0153455678642
 20
-131.3334133243715
 10
107.0956162926705
 20
-131.2149020396789
 10
107.2058593481985
 20
-131.054188335292
 10
107.391894504402
 20
-131.0202541447623
 10
107.5083387318035
 20
-131.0202541447623
 10
107.7853244088176
 20
-131.0202541447623
 10
107.9927191570296
 20
-131.2043944984489
 10
107.9927191570296
 20
-131.4772460608807
 10
107.9927191570296
 20
-131.7056558915528
 10
107.8762749296282
 20
-131.8052191510765
 10
107.5675943741498
 20
-132.0315619244574
 97
        0
 97
        0
 75
     2
 76
     1
 98
        0
  0
SPLINE
  5
E7
330
E1
100
AcDbEntity
  8
_U+30EC_U+30A4_U+30E4_U+30FC 1
370
     0
100
AcDbSpline
210
0.0
220
0.0
230
1.0
 70
    11
 71
     3
 72
    32
 73
    28
 74
     0
 42
0.0000000001
 43
0.0000000001
 12
1.0
 22
0.0
 32
0.0
 13
1.0
 23
0.0
 33
0.0
 40
0.0
 40
0.0
 40
0.0
 40
0.0
 40
1.0
 40
1.0
 40
1.0
 40
2.0
 40
2.0
 40
2.0
 40
3.0
 40
3.0
 40
3.0
 40
4.0
 40
4.0
 40
4.0
 40
5.0
 40
5.0
 40
5.0
 40
6.0
 40
6.0
 40
6.0
 40
7.0
 40
7.0
 40
7.0
 40
8.0
 40
8.0
 40
8.0
 40
9.0
 40
9.0
 40
9.0
 40
9.0
 10
108.6555555283917
 20
-132.6640814555493
 30
0.0
 10
108.1394802247012
 20
-132.6640814555493
 30
0.0
 10
108.1308674859881
 20
-132.1097655919726
 30
0.0
 10
108.1308674859881
 20
-131.8961696718871
 30
0.0
 10
108.1308674859881
 20
-131.6655205291496
 30
0.0
 10
108.149815511157
 20
-131.0181870874711
 30
0.0
 10
108.6934515787294
 20
-131.0181870874711
 30
0.0
 10
108.867084391186
 20
-131.0181870874711
 30
0.0
 10
109.1123751897358
 20
-131.0879502710475
 30
0.0
 10
109.1506157496221
 20
-131.4200574758256
 30
0.0
 10
109.1506157496221
 20
-131.4200574758256
 30
0.0
 10
108.9366753199881
 20
-131.4200574758256
 30
0.0
 10
108.9366753199881
 20
-131.4200574758256
 30
0.0
 10
108.9263400335323
 20
-131.3630411455447
 30
0.0
 10
108.894645155068
 20
-131.2149020396789
 30
0.0
 10
108.6913845214383
 20
-131.2149020396789
 30
0.0
 10
108.3995849338376
 20
-131.2149020396789
 30
0.0
 10
108.3592773166602
 20
-131.5428751298747
 30
0.0
 10
108.3468749729133
 20
-131.7480305660213
 30
0.0
 10
108.439892551015
 20
-131.6698268985062
 30
0.0
 10
108.5074164225259
 20
-131.6105712561599
 30
0.0
 10
108.6893174641471
 20
-131.6105712561599
 30
0.0
 10
108.8691514484772
 20
-131.6105712561599
 30
0.0
 10
109.1716308320821
 20
-131.7184027448482
 30
0.0
 10
109.1716308320821
 20
-132.1245795025591
 30
0.0
 10
109.1716308320821
 20
-132.4441121088161
 30
0.0
 10
108.9728488225832
 20
-132.6640814555493
 30
0.0
 10
108.6555555283917
 20
-132.6640814555493
 30
0.0
  0
SPLINE
  5
E8
330
E1
100
AcDbEntity
  8
_U+30EC_U+30A4_U+30E4_U+30FC 1
370
     0
100
AcDbSpline
210
0.0
220
0.0
230
1.0
 70
    11
 71
     3
 72
    17
 73
    13
 74
     0
 42
0.0000000001
 43
0.0000000001
 12
1.0
 22
0.0
 32
0.0
 13
1.0
 23
0.0
 33
0.0
 40
0.0
 40
0.0
 40
0.0
 40
0.0
 40
1.0
 40
1.0
 40
1.0
 40
2.0
 40
2.0
 40
2.0
 40
3.0
 40
3.0
 40
3.0
 40
4.0
 40
4.0
 40
4.0
 40
4.0
 10
108.6724364962694
 20
-131.8052191510765
 30
0.0
 10
108.4102647298419
 20
-131.8052191510765
 30
0.0
 10
108.3720241699556
 20
-132.0167480138708
 30
0.0
 10
108.3720241699556
 20
-132.133019986498
 30
0.0
 10
108.3720241699556
 20
-132.3087198562457
 30
0.0
 10
108.467453314897
 20
-132.4715006179238
 30
0.0
 10
108.6514214138094
 20
-132.4715006179238
 30
0.0
 10
108.7719997557931
 20
-132.4715006179238
 30
0.0
 10
108.9476996255409
 20
-132.4122449755775
 30
0.0
 10
108.9476996255409
 20
-132.1266465598503
 30
0.0
 10
108.9476996255409
 20
-131.9025430985348
 30
0.0
 10
108.8078287488397
 20
-131.8052191510765
 30
0.0
 10
108.6724364962694
 20
-131.8052191510765
 30
0.0
  0
HATCH
  5
E9
330
E1
100
AcDbEntity
  8
_U+30EC_U+30A4_U+30E4_U+30FC 1
 62
   179
420
  2234388
100
AcDbHatch
 10
0.0
 20
0.0
 30
0.0
210
0.0
220
0.0
230
1.0
  2
SOLID
 70
     1
 71
     0
 91
        2
 92
        1
 93
        1
 72
     4
 94
        3
 73
     0
 74
     1
 95
       32
 96
       28
 40
0.0
 40
0.0
 40
0.0
 40
0.0
 40
1.0
 40
1.0
 40
1.0
 40
2.0
 40
2.0
 40
2.0
 40
3.0
 40
3.0
 40
3.0
 40
4.0
 40
4.0
 40
4.0
 40
5.0
 40
5.0
 40
5.0
 40
6.0
 40
6.0
 40
6.0
 40
7.0
 40
7.0
 40
7.0
 40
8.0
 40
8.0
 40
8.0
 40
9.0
 40
9.0
 40
9.0
 40
9.0
 10
108.6555555283917
 20
-132.6640814555493
 10
108.1394802247012
 20
-132.6640814555493
 10
108.1308674859881
 20
-132.1097655919726
 10
108.1308674859881
 20
-131.8961696718871
 10
108.1308674859881
 20
-131.6655205291496
 10
108.149815511157
 20
-131.0181870874711
 10
108.6934515787294
 20
-131.0181870874711
 10
108.867084391186
 20
-131.0181870874711
 10
109.1123751897358
 20
-131.0879502710475
 10
109.1506157496221
 20
-131.4200574758256
 10
109.1506157496221
 20
-131.4200574758256
 10
108.9366753199881
 20
-131.4200574758256
 10
108.9366753199881
 20
-131.4200574758256
 10
108.9263400335323
 20
-131.3630411455447
 10
108.894645155068
 20
-131.2149020396789
 10
108.6913845214383
 20
-131.2149020396789
 10
108.3995849338376
 20
-131.2149020396789
 10
108.3592773166602
 20
-131.5428751298747
 10
108.3468749729133
 20
-131.7480305660213
 10
108.439892551015
 20
-131.6698268985062
 10
108.5074164225259
 20
-131.6105712561599
 10
108.6893174641471
 20
-131.6105712561599
 10
108.8691514484772
 20
-131.6105712561599
 10
109.1716308320821
 20
-131.7184027448482
 10
109.1716308320821
 20
-132.1245795025591
 10
109.1716308320821
 20
-132.4441121088161
 10
108.9728488225832
 20
-132.6640814555493
 10
108.6555555283917
 20
-132.6640814555493
 97
        0
 97
        0
 92
        1
 93
        1
 72
     4
 94
        3
 73
     0
 74
     1
 95
       17
 96
       13
 40
0.0
 40
0.0
 40
0.0
 40
0.0
 40
1.0
 40
1.0
 40
1.0
 40
2.0
 40
2.0
 40
2.0
 40
3.0
 40
3.0
 40
3.0
 40
4.0
 40
4.0
 40
4.0
 40
4.0
 10
108.6724364962694
 20
-131.8052191510765
 10
108.4102647298419
 20
-131.8052191510765
 10
108.3720241699556
 20
-132.0167480138708
 10
108.3720241699556
 20
-132.133019986498
 10
108.3720241699556
 20
-132.3087198562457
 10
108.467453314897
 20
-132.4715006179238
 10
108.6514214138094
 20
-132.4715006179238
 10
108.7719997557931
 20
-132.4715006179238
 10
108.9476996255409
 20
-132.4122449755775
 10
108.9476996255409
 20
-132.1266465598503
 10
108.9476996255409
 20
-131.9025430985348
 10
108.8078287488397
 20
-131.8052191510765
 10
108.6724364962694
 20
-131.8052191510765
 97
        0
 97
        0
 75
     2
 76
     1
 98
        0
  0
ENDBLK
  5
E4
330
E1
100
AcDbEntity
  8
0
100
AcDbBlockEnd
  0
BLOCK
  5
FA
330
F8
100
AcDbEntity
  8
0
100
AcDbBlockBegin
  2
block 4
 70
     0
 10
0.0
 20
0.0
 30
0.0
  3
block 4
  1

  0
SPLINE
  5
FC
330
F8
100
AcDbEntity
  8
_U+30EC_U+30A4_U+30E4_U+30FC 1
370
     0
100
AcDbSpline
210
0.0
220
0.0
230
1.0
 70
    11
 71
     3
 72
    32
 73
    28
 74
     0
 42
0.0000000001
 43
0.0000000001
 12
1.0
 22
0.0
 32
0.0
 13
1.0
 23
0.0
 33
0.0
 40
0.0
 40
0.0
 40
0.0
 40
0.0
 40
1.0
 40
1.0
 40
1.0
 40
2.0
 40
2.0
 40
2.0
 40
3.0
 40
3.0
 40
3.0
 40
4.0
 40
4.0
 40
4.0
 40
5.0
 40
5.0
 40
5.0
 40
6.0
 40
6.0
 40
6.0
 40
7.0
 40
7.0
 40
7.0
 40
8.0
 40
8.0
 40
8.0
 40
9.0
 40
9.0
 40
9.0
 40
9.0
 10
126.2992675465502
 20
-140.4765244874503
 30
0.0
 10
126.2992675465502
 20
-140.992772045915
 30
0.0
 10
125.7449516829735
 20
-141.0012125298539
 30
0.0
 10
125.531355762888
 20
-141.0012125298539
 30
0.0
 10
125.3005343653763
 20
-141.0012125298539
 30
0.0
 10
124.6532009236978
 20
-140.9820922499107
 30
0.0
 10
124.6532009236978
 20
-140.4384561823383
 30
0.0
 10
124.6532009236978
 20
-140.264995624656
 30
0.0
 10
124.7231363620484
 20
-140.0197048261062
 30
0.0
 10
125.0552435668265
 20
-139.9814642662199
 30
0.0
 10
125.0552435668265
 20
-139.9814642662199
 30
0.0
 10
125.0552435668265
 20
-140.1952324410797
 30
0.0
 10
125.0552435668265
 20
-140.1952324410797
 30
0.0
 10
124.9980549817713
 20
-140.2057399823097
 30
0.0
 10
124.8499158759056
 20
-140.237434860774
 30
0.0
 10
124.8499158759056
 20
-140.4405232396295
 30
0.0
 10
124.8499158759056
 20
-140.7324950820044
 30
0.0
 10
125.1778889661014
 20
-140.7728026991818
 30
0.0
 10
125.3832166570223
 20
-140.785377297703
 30
0.0
 10
125.3050129895071
 20
-140.6923597196012
 30
0.0
 10
125.2457573471608
 20
-140.6246635933161
 30
0.0
 10
125.2457573471608
 20
-140.4427625516949
 30
0.0
 10
125.2457573471608
 20
-140.2629285673648
 30
0.0
 10
125.3535888358491
 20
-139.9604491837599
 30
0.0
 10
125.7597655935601
 20
-139.9604491837599
 30
0.0
 10
126.0791259450427
 20
-139.9604491837599
 30
0.0
 10
126.2992675465502
 20
-140.1592311932588
 30
0.0
 10
126.2992675465502
 20
-140.4765244874503
 30
0.0
  0
SPLINE
  5
FD
330
F8
100
AcDbEntity
  8
_U+30EC_U+30A4_U+30E4_U+30FC 1
370
     0
100
AcDbSpline
210
0.0
220
0.0
230
1.0
 70
    11
 71
     3
 72
    17
 73
    13
 74
     0
 42
0.0000000001
 43
0.0000000001
 12
1.0
 22
0.0
 32
0.0
 13
1.0
 23
0.0
 33
0.0
 40
0.0
 40
0.0
 40
0.0
 40
0.0
 40
1.0
 40
1.0
 40
1.0
 40
2.0
 40
2.0
 40
2.0
 40
3.0
 40
3.0
 40
3.0
 40
4.0
 40
4.0
 40
4.0
 40
4.0
 10
125.4404052420774
 20
-140.4596435195726
 30
0.0
 10
125.4404052420774
 20
-140.7219875407744
 30
0.0
 10
125.6519341048717
 20
-140.7600558458864
 30
0.0
 10
125.7680338227247
 20
-140.7600558458864
 30
0.0
 10
125.9437336924724
 20
-140.7600558458864
 30
0.0
 10
126.1066867089247
 20
-140.6647989557192
 30
0.0
 10
126.1066867089247
 20
-140.4808308568069
 30
0.0
 10
126.1066867089247
 20
-140.3602525148231
 30
0.0
 10
126.0474310665784
 20
-140.1845526450754
 30
0.0
 10
125.7618326508512
 20
-140.1845526450754
 30
0.0
 10
125.5375569347615
 20
-140.1845526450754
 30
0.0
 10
125.4404052420774
 20
-140.3242512670023
 30
0.0
 10
125.4404052420774
 20
-140.4596435195726
 30
0.0
  0
HATCH
  5
FE
330
F8
100
AcDbEntity
  8
_U+30EC_U+30A4_U+30E4_U+30FC 1
 62
   179
420
  2234388
100
AcDbHatch
 10
0.0
 20
0.0
 30
0.0
210
0.0
220
0.0
230
1.0
  2
SOLID
 70
     1
 71
     0
 91
        2
 92
        1
 93
        1
 72
     4
 94
        3
 73
     0
 74
     1
 95
       32
 96
       28
 40
0.0
 40
0.0
 40
0.0
 40
0.0
 40
1.0
 40
1.0
 40
1.0
 40
2.0
 40
2.0
 40
2.0
 40
3.0
 40
3.0
 40
3.0
 40
4.0
 40
4.0
 40
4.0
 40
5.0
 40
5.0
 40
5.0
 40
6.0
 40
6.0
 40
6.0
 40
7.0
 40
7.0
 40
7.0
 40
8.0
 40
8.0
 40
8.0
 40
9.0
 40
9.0
 40
9.0
 40
9.0
 10
126.2992675465502
 20
-140.4765244874503
 10
126.2992675465502
 20
-140.992772045915
 10
125.7449516829735
 20
-141.0012125298539
 10
125.531355762888
 20
-141.0012125298539
 10
125.3005343653763
 20
-141.0012125298539
 10
124.6532009236978
 20
-140.9820922499107
 10
124.6532009236978
 20
-140.4384561823383
 10
124.6532009236978
 20
-140.264995624656
 10
124.7231363620484
 20
-140.0197048261062
 10
125.0552435668265
 20
-139.9814642662199
 10
125.0552435668265
 20
-139.9814642662199
 10
125.0552435668265
 20
-140.1952324410797
 10
125.0552435668265
 20
-140.1952324410797
 10
124.9980549817713
 20
-140.2057399823097
 10
124.8499158759056
 20
-140.237434860774
 10
124.8499158759056
 20
-140.4405232396295
 10
124.8499158759056
 20
-140.7324950820044
 10
125.1778889661014
 20
-140.7728026991818
 10
125.3832166570223
 20
-140.785377297703
 10
125.3050129895071
 20
-140.6923597196012
 10
125.2457573471608
 20
-140.6246635933161
 10
125.2457573471608
 20
-140.4427625516949
 10
125.2457573471608
 20
-140.2629285673648
 10
125.3535888358491
 20
-139.9604491837599
 10
125.7597655935601
 20
-139.9604491837599
 10
126.0791259450427
 20
-139.9604491837599
 10
126.2992675465502
 20
-140.1592311932588
 10
126.2992675465502
 20
-140.4765244874503
 97
        0
 97
        0
 92
        1
 93
        1
 72
     4
 94
        3
 73
     0
 74
     1
 95
       17
 96
       13
 40
0.0
 40
0.0
 40
0.0
 40
0.0
 40
1.0
 40
1.0
 40
1.0
 40
2.0
 40
2.0
 40
2.0
 40
3.0
 40
3.0
 40
3.0
 40
4.0
 40
4.0
 40
4.0
 40
4.0
 10
125.4404052420774
 20
-140.4596435195726
 10
125.4404052420774
 20
-140.7219875407744
 10
125.6519341048717
 20
-140.7600558458864
 10
125.7680338227247
 20
-140.7600558458864
 10
125.9437336924724
 20
-140.7600558458864
 10
126.1066867089247
 20
-140.6647989557192
 10
126.1066867089247
 20
-140.4808308568069
 10
126.1066867089247
 20
-140.3602525148231
 10
126.0474310665784
 20
-140.1845526450754
 10
125.7618326508512
 20
-140.1845526450754
 10
125.5375569347615
 20
-140.1845526450754
 10
125.4404052420774
 20
-140.3242512670023
 10
125.4404052420774
 20
-140.4596435195726
 97
        0
 97
        0
 75
     2
 76
     1
 98
        0
  0
ENDBLK
  5
FB
330
F8
100
AcDbEntity
  8
0
100
AcDbBlockEnd
  0
BLOCK
  5
10D
330
10B
100
AcDbEntity
  8
0
100
AcDbBlockBegin
  2
block 5
 70
     0
 10
0.0
 20
0.0
 30
0.0
  3
block 5
  1

  0
SPLINE
  5
10F
330
10B
100
AcDbEntity
  8
_U+30EC_U+30A4_U+30E4_U+30FC 1
370
     0
100
AcDbSpline
210
0.0
220
0.0
230
1.0
 70
    11
 71
     3
 72
    44
 73
    40
 74
     0
 42
0.0000000001
 43
0.0000000001
 12
1.0
 22
0.0
 32
0.0
 13
1.0
 23
0.0
 33
0.0
 40
0.0
 40
0.0
 40
0.0
 40
0.0
 40
1.0
 40
1.0
 40
1.0
 40
2.0
 40
2.0
 40
2.0
 40
3.0
 40
3.0
 40
3.0
 40
4.0
 40
4.0
 40
4.0
 40
5.0
 40
5.0
 40
5.0
 40
6.0
 40
6.0
 40
6.0
 40
7.0
 40
7.0
 40
7.0
 40
8.0
 40
8.0
 40
8.0
 40
9.0
 40
9.0
 40
9.0
 40
10.0
 40
10.0
 40
10.0
 40
11.0
 40
11.0
 40
11.0
 40
12.0
 40
12.0
 40
12.0
 40
13.0
 40
13.0
 40
13.0
 40
13.0
 10
84.61171737251027
 20
-150.9647731827449
 30
0.0
 10
84.77036401960602
 20
-151.1828477269612
 30
0.0
 10
84.84443357253889
 20
-151.2762098146115
 30
0.0
 10
84.98826630904807
 20
-151.324441151405
 30
0.0
 10
84.98826630904807
 20
-151.324441151405
 30
0.0
 10
84.98826630904807
 20
-150.5461940812871
 30
0.0
 10
84.98826630904807
 20
-150.5461940812871
 30
0.0
 10
84.98826630904807
 20
-150.5461940812871
 30
0.0
 10
85.1934217451947
 20
-150.5461940812871
 30
0.0
 10
85.1934217451947
 20
-150.5461940812871
 30
0.0
 10
85.1934217451947
 20
-150.5461940812871
 30
0.0
 10
85.1934217451947
 20
-151.5742105740856
 30
0.0
 10
85.1934217451947
 20
-151.5742105740856
 30
0.0
 10
84.83582083382576
 20
-151.5425156956213
 30
0.0
 10
84.7576171663106
 20
-151.4770588814016
 30
0.0
 10
84.45927189728796
 20
-151.0918972061506
 30
0.0
 10
84.26048988778905
 20
-150.8359266115966
 30
0.0
 10
84.19279376150389
 20
-150.7704697973768
 30
0.0
 10
84.05533445164242
 20
-150.7704697973768
 30
0.0
 10
83.93682316694982
 20
-150.7704697973768
 30
0.0
 10
83.80573728373606
 20
-150.84212778347
 30
0.0
 10
83.80573728373606
 20
-151.0391872452263
 30
0.0
 10
83.80573728373606
 20
-151.2992919543627
 30
0.0
 10
84.03621417169929
 20
-151.3079046930758
 30
0.0
 10
84.15265839910073
 20
-151.3120388076581
 30
0.0
 10
84.15265839910073
 20
-151.3120388076581
 30
0.0
 10
84.15265839910073
 20
-151.5359700141993
 30
0.0
 10
84.15265839910073
 20
-151.5359700141993
 30
0.0
 10
84.02570663046927
 20
-151.5277017850347
 30
0.0
 10
83.91356877242438
 20
-151.517366498579
 30
0.0
 10
83.7950574877318
 20
-151.4367512642241
 30
0.0
 10
83.63434378334489
 20
-151.3268527182447
 30
0.0
 10
83.60040959281518
 20
-151.1404730524927
 30
0.0
 10
83.60040959281518
 20
-151.0240288250912
 30
0.0
 10
83.60040959281518
 20
-150.7470431480771
 30
0.0
 10
83.78454994650178
 20
-150.5396483998651
 30
0.0
 10
84.05740150893357
 20
-150.5396483998651
 30
0.0
 10
84.28581133960563
 20
-150.5396483998651
 30
0.0
 10
84.38537459912935
 20
-150.6560926272665
 30
0.0
 10
84.61171737251027
 20
-150.9647731827449
 30
0.0
  0
HATCH
  5
110
330
10B
100
AcDbEntity
  8
_U+30EC_U+30A4_U+30E4_U+30FC 1
 62
   179
420
  2234388
100
AcDbHatch
 10
0.0
 20
0.0
 30
0.0
210
0.0
220
0.0
230
1.0
  2
SOLID
 70
     1
 71
     0
 91
        1
 92
        1
 93
        1
 72
     4
 94
        3
 73
     0
 74
     1
 95
       44
 96
       40
 40
0.0
 40
0.0
 40
0.0
 40
0.0
 40
1.0
 40
1.0
 40
1.0
 40
2.0
 40
2.0
 40
2.0
 40
3.0
 40
3.0
 40
3.0
 40
4.0
 40
4.0
 40
4.0
 40
5.0
 40
5.0
 40
5.0
 40
6.0
 40
6.0
 40
6.0
 40
7.0
 40
7.0
 40
7.0
 40
8.0
 40
8.0
 40
8.0
 40
9.0
 40
9.0
 40
9.0
 40
10.0
 40
10.0
 40
10.0
 40
11.0
 40
11.0
 40
11.0
 40
12.0
 40
12.0
 40
12.0
 40
13.0
 40
13.0
 40
13.0
 40
13.0
 10
84.61171737251027
 20
-150.9647731827449
 10
84.77036401960602
 20
-151.1828477269612
 10
84.84443357253889
 20
-151.2762098146115
 10
84.98826630904807
 20
-151.324441151405
 10
84.98826630904807
 20
-151.324441151405
 10
84.98826630904807
 20
-150.5461940812871
 10
84.98826630904807
 20
-150.5461940812871
 10
84.98826630904807
 20
-150.5461940812871
 10
85.1934217451947
 20
-150.5461940812871
 10
85.1934217451947
 20
-150.5461940812871
 10
85.1934217451947
 20
-150.5461940812871
 10
85.1934217451947
 20
-151.5742105740856
 10
85.1934217451947
 20
-151.5742105740856
 10
84.83582083382576
 20
-151.5425156956213
 10
84.7576171663106
 20
-151.4770588814016
 10
84.45927189728796
 20
-151.0918972061506
 10
84.26048988778905
 20
-150.8359266115966
 10
84.19279376150389
 20
-150.7704697973768
 10
84.05533445164242
 20
-150.7704697973768
 10
83.93682316694982
 20
-150.7704697973768
 10
83.80573728373606
 20
-150.84212778347
 10
83.80573728373606
 20
-151.0391872452263
 10
83.80573728373606
 20
-151.2992919543627
 10
84.03621417169929
 20
-151.3079046930758
 10
84.15265839910073
 20
-151.3120388076581
 10
84.15265839910073
 20
-151.3120388076581
 10
84.15265839910073
 20
-151.5359700141993
 10
84.15265839910073
 20
-151.5359700141993
 10
84.02570663046927
 20
-151.5277017850347
 10
83.91356877242438
 20
-151.517366498579
 10
83.7950574877318
 20
-151.4367512642241
 10
83.63434378334489
 20
-151.3268527182447
 10
83.60040959281518
 20
-151.1404730524927
 10
83.60040959281518
 20
-151.0240288250912
 10
83.60040959281518
 20
-150.7470431480771
 10
83.78454994650178
 20
-150.5396483998651
 10
84.05740150893357
 20
-150.5396483998651
 10
84.28581133960563
 20
-150.5396483998651
 10
84.38537459912935
 20
-150.6560926272665
 10
84.61171737251027
 20
-150.9647731827449
 97
        0
 97
        0
 75
     2
 76
     1
 98
        0
  0
SPLINE
  5
111
330
10B
100
AcDbEntity
  8
_U+30EC_U+30A4_U+30E4_U+30FC 1
370
     0
100
AcDbSpline
210
0.0
220
0.0
230
1.0
 70
    11
 71
     3
 72
    32
 73
    28
 74
     0
 42
0.0000000001
 43
0.0000000001
 12
1.0
 22
0.0
 32
0.0
 13
1.0
 23
0.0
 33
0.0
 40
0.0
 40
0.0
 40
0.0
 40
0.0
 40
1.0
 40
1.0
 40
1.0
 40
2.0
 40
2.0
 40
2.0
 40
3.0
 40
3.0
 40
3.0
 40
4.0
 40
4.0
 40
4.0
 40
5.0
 40
5.0
 40
5.0
 40
6.0
 40
6.0
 40
6.0
 40
7.0
 40
7.0
 40
7.0
 40
8.0
 40
8.0
 40
8.0
 40
9.0
 40
9.0
 40
9.0
 40
9.0
 10
85.24423690360214
 20
-149.876812028503
 30
0.0
 10
85.24423690360214
 20
-150.393231841742
 30
0.0
 10
84.68992104002544
 20
-150.4018445804551
 30
0.0
 10
84.47632511993994
 20
-150.4018445804551
 30
0.0
 10
84.24567597720247
 20
-150.4018445804551
 30
0.0
 10
83.59834253552403
 20
-150.3825520457377
 30
0.0
 10
83.59834253552403
 20
-149.8389159781653
 30
0.0
 10
83.59834253552403
 20
-149.6652831657087
 30
0.0
 10
83.66810571910034
 20
-149.4199923671589
 30
0.0
 10
84.00021292387842
 20
-149.3820963168212
 30
0.0
 10
84.00021292387842
 20
-149.3820963168212
 30
0.0
 10
84.00021292387842
 20
-149.5956922369066
 30
0.0
 10
84.00021292387842
 20
-149.5956922369066
 30
0.0
 10
83.94319659359753
 20
-149.6060275233624
 30
0.0
 10
83.7950574877318
 20
-149.6377224018267
 30
0.0
 10
83.7950574877318
 20
-149.8409830354564
 30
0.0
 10
83.7950574877318
 20
-150.1331271326056
 30
0.0
 10
84.12303057792758
 20
-150.1730902402345
 30
0.0
 10
84.3281860140742
 20
-150.1858370935299
 30
0.0
 10
84.24998234655904
 20
-150.0928195154282
 30
0.0
 10
84.19072670421274
 20
-150.0249511343688
 30
0.0
 10
84.19072670421274
 20
-149.8430500927476
 30
0.0
 10
84.19072670421274
 20
-149.6632161084175
 30
0.0
 10
84.29855819290106
 20
-149.3607367248126
 30
0.0
 10
84.70473495061202
 20
-149.3607367248126
 30
0.0
 10
85.02426755686894
 20
-149.3607367248126
 30
0.0
 10
85.24423690360214
 20
-149.55986324386
 30
0.0
 10
85.24423690360214
 20
-149.876812028503
 30
0.0
  0
SPLINE
  5
112
330
10B
100
AcDbEntity
  8
_U+30EC_U+30A4_U+30E4_U+30FC 1
370
     0
100
AcDbSpline
210
0.0
220
0.0
230
1.0
 70
    11
 71
     3
 72
    17
 73
    13
 74
     0
 42
0.0000000001
 43
0.0000000001
 12
1.0
 22
0.0
 32
0.0
 13
1.0
 23
0.0
 33
0.0
 40
0.0
 40
0.0
 40
0.0
 40
0.0
 40
1.0
 40
1.0
 40
1.0
 40
2.0
 40
2.0
 40
2.0
 40
3.0
 40
3.0
 40
3.0
 40
4.0
 40
4.0
 40
4.0
 40
4.0
 10
84.38537459912935
 20
-149.8602755701738
 30
0.0
 10
84.38537459912935
 20
-150.1224473366013
 30
0.0
 10
84.59690346192369
 20
-150.1606878964876
 30
0.0
 10
84.71317543455088
 20
-150.1606878964876
 30
0.0
 10
84.88887530429862
 20
-150.1606878964876
 30
0.0
 10
85.05165606597667
 20
-150.0652587515462
 30
0.0
 10
85.05165606597667
 20
-149.8812906526339
 30
0.0
 10
85.05165606597667
 20
-149.7607123106501
 30
0.0
 10
84.99240042363037
 20
-149.5850124409024
 30
0.0
 10
84.70680200790316
 20
-149.5850124409024
 30
0.0
 10
84.48269854658766
 20
-149.5850124409024
 30
0.0
 10
84.38537459912935
 20
-149.724538808055
 30
0.0
 10
84.38537459912935
 20
-149.8602755701738
 30
0.0
  0
HATCH
  5
113
330
10B
100
AcDbEntity
  8
_U+30EC_U+30A4_U+30E4_U+30FC 1
 62
   179
420
  2234388
100
AcDbHatch
 10
0.0
 20
0.0
 30
0.0
210
0.0
220
0.0
230
1.0
  2
SOLID
 70
     1
 71
     0
 91
        2
 92
        1
 93
        1
 72
     4
 94
        3
 73
     0
 74
     1
 95
       32
 96
       28
 40
0.0
 40
0.0
 40
0.0
 40
0.0
 40
1.0
 40
1.0
 40
1.0
 40
2.0
 40
2.0
 40
2.0
 40
3.0
 40
3.0
 40
3.0
 40
4.0
 40
4.0
 40
4.0
 40
5.0
 40
5.0
 40
5.0
 40
6.0
 40
6.0
 40
6.0
 40
7.0
 40
7.0
 40
7.0
 40
8.0
 40
8.0
 40
8.0
 40
9.0
 40
9.0
 40
9.0
 40
9.0
 10
85.24423690360214
 20
-149.876812028503
 10
85.24423690360214
 20
-150.393231841742
 10
84.68992104002544
 20
-150.4018445804551
 10
84.47632511993994
 20
-150.4018445804551
 10
84.24567597720247
 20
-150.4018445804551
 10
83.59834253552403
 20
-150.3825520457377
 10
83.59834253552403
 20
-149.8389159781653
 10
83.59834253552403
 20
-149.6652831657087
 10
83.66810571910034
 20
-149.4199923671589
 10
84.00021292387842
 20
-149.3820963168212
 10
84.00021292387842
 20
-149.3820963168212
 10
84.00021292387842
 20
-149.5956922369066
 10
84.00021292387842
 20
-149.5956922369066
 10
83.94319659359753
 20
-149.6060275233624
 10
83.7950574877318
 20
-149.6377224018267
 10
83.7950574877318
 20
-149.8409830354564
 10
83.7950574877318
 20
-150.1331271326056
 10
84.12303057792758
 20
-150.1730902402345
 10
84.3281860140742
 20
-150.1858370935299
 10
84.24998234655904
 20
-150.0928195154282
 10
84.19072670421274
 20
-150.0249511343688
 10
84.19072670421274
 20
-149.8430500927476
 10
84.19072670421274
 20
-149.6632161084175
 10
84.29855819290106
 20
-149.3607367248126
 10
84.70473495061202
 20
-149.3607367248126
 10
85.02426755686894
 20
-149.3607367248126
 10
85.24423690360214
 20
-149.55986324386
 10
85.24423690360214
 20
-149.876812028503
 97
        0
 97
        0
 92
        1
 93
        1
 72
     4
 94
        3
 73
     0
 74
     1
 95
       17
 96
       13
 40
0.0
 40
0.0
 40
0.0
 40
0.0
 40
1.0
 40
1.0
 40
1.0
 40
2.0
 40
2.0
 40
2.0
 40
3.0
 40
3.0
 40
3.0
 40
4.0
 40
4.0
 40
4.0
 40
4.0
 10
84.38537459912935
 20
-149.8602755701738
 10
84.38537459912935
 20
-150.1224473366013
 10
84.59690346192369
 20
-150.1606878964876
 10
84.71317543455088
 20
-150.1606878964876
 10
84.88887530429862
 20
-150.1606878964876
 10
85.05165606597667
 20
-150.0652587515462
 10
85.05165606597667
 20
-149.8812906526339
 10
85.05165606597667
 20
-149.7607123106501
 10
84.99240042363037
 20
-149.5850124409024
 10
84.70680200790316
 20
-149.5850124409024
 10
84.48269854658766
 20
-149.5850124409024
 10
84.38537459912935
 20
-149.724538808055
 10
84.38537459912935
 20
-149.8602755701738
 97
        0
 97
        0
 75
     2
 76
     1
 98
        0
  0
ENDBLK
  5
10E
330
10B
100
AcDbEntity
  8
0
100
AcDbBlockEnd
  0
BLOCK
  5
132
330
130
100
AcDbEntity
  8
0
100
AcDbBlockBegin
  2
block 6
 70
     0
 10
0.0
 20
0.0
 30
0.0
  3
block 6
  1

  0
POLYLINE
  5
134
330
130
100
AcDbEntity
  8
_U+30EC_U+30A4_U+30E4_U+30FC 1
370
     0
100
AcDb2dPolyline
 66
     1
 10
0.0
 20
0.0
 30
0.0
  0
VERTEX
  5
135
330
134
100
AcDbEntity
  8
_U+30EC_U+30A4_U+30E4_U+30FC 1
370
     0
100
AcDbVertex
100
AcDb2dVertex
 10
89.2067857307365
 20
-132.6473727424458
 30
0.0
  0
VERTEX
  5
136
330
134
100
AcDbEntity
  8
_U+30EC_U+30A4_U+30E4_U+30FC 1
370
     0
100
AcDbVertex
100
AcDb2dVertex
 10
89.2067857307365
 20
-132.4866590380589
 30
0.0
  0
VERTEX
  5
137
330
134
100
AcDbEntity
  8
_U+30EC_U+30A4_U+30E4_U+30FC 1
370
     0
100
AcDbVertex
100
AcDb2dVertex
 10
89.3611260084757
 20
-132.4866590380589
 30
0.0
  0
VERTEX
  5
138
330
134
100
AcDbEntity
  8
_U+30EC_U+30A4_U+30E4_U+30FC 1
370
     0
100
AcDbVertex
100
AcDb2dVertex
 10
89.3611260084757
 20
-132.6473727424458
 30
0.0
  0
VERTEX
  5
139
330
134
100
AcDbEntity
  8
_U+30EC_U+30A4_U+30E4_U+30FC 1
370
     0
100
AcDbVertex
100
AcDb2dVertex
 10
89.75472816766549
 20
-132.6473727424458
 30
0.0
  0
VERTEX
  5
13A
330
134
100
AcDbEntity
  8
_U+30EC_U+30A4_U+30E4_U+30FC 1
370
     0
100
AcDbVertex
100
AcDb2dVertex
 10
89.75472816766549
 20
-132.8018852749593
 30
0.0
  0
VERTEX
  5
13B
330
134
100
AcDbEntity
  8
_U+30EC_U+30A4_U+30E4_U+30FC 1
370
     0
100
AcDbVertex
100
AcDb2dVertex
 10
89.3611260084757
 20
-132.8018852749593
 30
0.0
  0
VERTEX
  5
13C
330
134
100
AcDbEntity
  8
_U+30EC_U+30A4_U+30E4_U+30FC 1
370
     0
100
AcDbVertex
100
AcDb2dVertex
 10
89.3611260084757
 20
-132.9562255526984
 30
0.0
  0
VERTEX
  5
13D
330
134
100
AcDbEntity
  8
_U+30EC_U+30A4_U+30E4_U+30FC 1
370
     0
100
AcDbVertex
100
AcDb2dVertex
 10
89.71648760777921
 20
-132.9562255526984
 30
0.0
  0
VERTEX
  5
13E
330
134
100
AcDbEntity
  8
_U+30EC_U+30A4_U+30E4_U+30FC 1
370
     0
100
AcDbVertex
100
AcDb2dVertex
 10
89.71648760777921
 20
-133.7685790681204
 30
0.0
  0
VERTEX
  5
13F
330
134
100
AcDbEntity
  8
_U+30EC_U+30A4_U+30E4_U+30FC 1
370
     0
100
AcDbVertex
100
AcDb2dVertex
 10
89.3611260084757
 20
-133.7685790681204
 30
0.0
  0
VERTEX
  5
140
330
134
100
AcDbEntity
  8
_U+30EC_U+30A4_U+30E4_U+30FC 1
370
     0
100
AcDbVertex
100
AcDb2dVertex
 10
89.3611260084757
 20
-133.9379055112204
 30
0.0
  0
VERTEX
  5
141
330
134
100
AcDbEntity
  8
_U+30EC_U+30A4_U+30E4_U+30FC 1
370
     0
100
AcDbVertex
100
AcDb2dVertex
 10
89.76954207825206
 20
-133.9379055112204
 30
0.0
  0
VERTEX
  5
142
330
134
100
AcDbEntity
  8
_U+30EC_U+30A4_U+30E4_U+30FC 1
370
     0
100
AcDbVertex
100
AcDb2dVertex
 10
89.76954207825206
 20
-134.0922457889596
 30
0.0
  0
VERTEX
  5
143
330
134
100
AcDbEntity
  8
_U+30EC_U+30A4_U+30E4_U+30FC 1
370
     0
100
AcDbVertex
100
AcDb2dVertex
 10
89.3611260084757
 20
-134.0922457889596
 30
0.0
  0
VERTEX
  5
144
330
134
100
AcDbEntity
  8
_U+30EC_U+30A4_U+30E4_U+30FC 1
370
     0
100
AcDbVertex
100
AcDb2dVertex
 10
89.3611260084757
 20
-134.445540330972
 30
0.0
  0
VERTEX
  5
145
330
134
100
AcDbEntity
  8
_U+30EC_U+30A4_U+30E4_U+30FC 1
370
     0
100
AcDbVertex
100
AcDb2dVertex
 10
89.2067857307365
 20
-134.445540330972
 30
0.0
  0
VERTEX
  5
146
330
134
100
AcDbEntity
  8
_U+30EC_U+30A4_U+30E4_U+30FC 1
370
     0
100
AcDbVertex
100
AcDb2dVertex
 10
89.2067857307365
 20
-134.0922457889596
 30
0.0
  0
VERTEX
  5
147
330
134
100
AcDbEntity
  8
_U+30EC_U+30A4_U+30E4_U+30FC 1
370
     0
100
AcDbVertex
100
AcDb2dVertex
 10
88.79630260366898
 20
-134.0922457889596
 30
0.0
  0
VERTEX
  5
148
330
134
100
AcDbEntity
  8
_U+30EC_U+30A4_U+30E4_U+30FC 1
370
     0
100
AcDbVertex
100
AcDb2dVertex
 10
88.79630260366898
 20
-133.9379055112204
 30
0.0
  0
VERTEX
  5
149
330
134
100
AcDbEntity
  8
_U+30EC_U+30A4_U+30E4_U+30FC 1
370
     0
100
AcDbVertex
100
AcDb2dVertex
 10
89.2067857307365
 20
-133.9379055112204
 30
0.0
  0
VERTEX
  5
14A
330
134
100
AcDbEntity
  8
_U+30EC_U+30A4_U+30E4_U+30FC 1
370
     0
100
AcDbVertex
100
AcDb2dVertex
 10
89.2067857307365
 20
-133.7685790681204
 30
0.0
  0
VERTEX
  5
14B
330
134
100
AcDbEntity
  8
_U+30EC_U+30A4_U+30E4_U+30FC 1
370
     0
100
AcDbVertex
100
AcDb2dVertex
 10
88.85762530330643
 20
-133.7685790681204
 30
0.0
  0
VERTEX
  5
14C
330
134
100
AcDbEntity
  8
_U+30EC_U+30A4_U+30E4_U+30FC 1
370
     0
100
AcDbVertex
100
AcDb2dVertex
 10
88.85762530330643
 20
-132.9562255526984
 30
0.0
  0
VERTEX
  5
14D
330
134
100
AcDbEntity
  8
_U+30EC_U+30A4_U+30E4_U+30FC 1
370
     0
100
AcDbVertex
100
AcDb2dVertex
 10
89.2067857307365
 20
-132.9562255526984
 30
0.0
  0
VERTEX
  5
14E
330
134
100
AcDbEntity
  8
_U+30EC_U+30A4_U+30E4_U+30FC 1
370
     0
100
AcDbVertex
100
AcDb2dVertex
 10
89.2067857307365
 20
-132.8018852749593
 30
0.0
  0
VERTEX
  5
14F
330
134
100
AcDbEntity
  8
_U+30EC_U+30A4_U+30E4_U+30FC 1
370
     0
100
AcDbVertex
100
AcDb2dVertex
 10
88.81748994090327
 20
-132.8018852749593
 30
0.0
  0
VERTEX
  5
150
330
134
100
AcDbEntity
  8
_U+30EC_U+30A4_U+30E4_U+30FC 1
370
     0
100
AcDbVertex
100
AcDb2dVertex
 10
88.81748994090327
 20
-132.6473727424458
 30
0.0
  0
VERTEX
  5
151
330
134
100
AcDbEntity
  8
_U+30EC_U+30A4_U+30E4_U+30FC 1
370
     0
100
AcDbVertex
100
AcDb2dVertex
 10
89.2067857307365
 20
-132.6473727424458
 30
0.0
  0
SEQEND
  5
152
330
134
100
AcDbEntity
  8
_U+30EC_U+30A4_U+30E4_U+30FC 1
370
     0
  0
POLYLINE
  5
153
330
130
100
AcDbEntity
  8
_U+30EC_U+30A4_U+30E4_U+30FC 1
370
     0
100
AcDb2dPolyline
 66
     1
 10
0.0
 20
0.0
 30
0.0
  0
VERTEX
  5
154
330
153
100
AcDbEntity
  8
_U+30EC_U+30A4_U+30E4_U+30FC 1
370
     0
100
AcDbVertex
100
AcDb2dVertex
 10
89.2067857307365
 20
-133.0959241746253
 30
0.0
  0
VERTEX
  5
155
330
153
100
AcDbEntity
  8
_U+30EC_U+30A4_U+30E4_U+30FC 1
370
     0
100
AcDbVertex
100
AcDb2dVertex
 10
88.99939098252446
 20
-133.0959241746253
 30
0.0
  0
VERTEX
  5
156
330
153
100
AcDbEntity
  8
_U+30EC_U+30A4_U+30E4_U+30FC 1
370
     0
100
AcDbVertex
100
AcDb2dVertex
 10
88.99939098252446
 20
-133.2990125534808
 30
0.0
  0
VERTEX
  5
157
330
153
100
AcDbEntity
  8
_U+30EC_U+30A4_U+30E4_U+30FC 1
370
     0
100
AcDbVertex
100
AcDb2dVertex
 10
89.2067857307365
 20
-133.2990125534808
 30
0.0
  0
VERTEX
  5
158
330
153
100
AcDbEntity
  8
_U+30EC_U+30A4_U+30E4_U+30FC 1
370
     0
100
AcDbVertex
100
AcDb2dVertex
 10
89.2067857307365
 20
-133.0959241746253
 30
0.0
  0
SEQEND
  5
159
330
153
100
AcDbEntity
  8
_U+30EC_U+30A4_U+30E4_U+30FC 1
370
     0
  0
POLYLINE
  5
15A
330
130
100
AcDbEntity
  8
_U+30EC_U+30A4_U+30E4_U+30FC 1
370
     0
100
AcDb2dPolyline
 66
     1
 10
0.0
 20
0.0
 30
0.0
  0
VERTEX
  5
15B
330
15A
100
AcDbEntity
  8
_U+30EC_U+30A4_U+30E4_U+30FC 1
370
     0
100
AcDbVertex
100
AcDb2dVertex
 10
89.2067857307365
 20
-133.4216579527557
 30
0.0
  0
VERTEX
  5
15C
330
15A
100
AcDbEntity
  8
_U+30EC_U+30A4_U+30E4_U+30FC 1
370
     0
100
AcDbVertex
100
AcDb2dVertex
 10
88.99939098252446
 20
-133.4216579527557
 30
0.0
  0
VERTEX
  5
15D
330
15A
100
AcDbEntity
  8
_U+30EC_U+30A4_U+30E4_U+30FC 1
370
     0
100
AcDbVertex
100
AcDb2dVertex
 10
88.99939098252446
 20
-133.6290527009677
 30
0.0
  0
VERTEX
  5
15E
330
15A
100
AcDbEntity
  8
_U+30EC_U+30A4_U+30E4_U+30FC 1
370
     0
100
AcDbVertex
100
AcDb2dVertex
 10
89.2067857307365
 20
-133.6290527009677
 30
0.0
  0
VERTEX
  5
15F
330
15A
100
AcDbEntity
  8
_U+30EC_U+30A4_U+30E4_U+30FC 1
370
     0
100
AcDbVertex
100
AcDb2dVertex
 10
89.2067857307365
 20
-133.4216579527557
 30
0.0
  0
SEQEND
  5
160
330
15A
100
AcDbEntity
  8
_U+30EC_U+30A4_U+30E4_U+30FC 1
370
     0
  0
POLYLINE
  5
161
330
130
100
AcDbEntity
  8
_U+30EC_U+30A4_U+30E4_U+30FC 1
370
     0
100
AcDb2dPolyline
 66
     1
 10
0.0
 20
0.0
 30
0.0
  0
VERTEX
  5
162
330
161
100
AcDbEntity
  8
_U+30EC_U+30A4_U+30E4_U+30FC 1
370
     0
100
AcDbVertex
100
AcDb2dVertex
 10
89.57265487127003
 20
-133.0959241746253
 30
0.0
  0
VERTEX
  5
163
330
161
100
AcDbEntity
  8
_U+30EC_U+30A4_U+30E4_U+30FC 1
370
     0
100
AcDbVertex
100
AcDb2dVertex
 10
89.3611260084757
 20
-133.0959241746253
 30
0.0
  0
VERTEX
  5
164
330
161
100
AcDbEntity
  8
_U+30EC_U+30A4_U+30E4_U+30FC 1
370
     0
100
AcDbVertex
100
AcDb2dVertex
 10
89.3611260084757
 20
-133.2990125534808
 30
0.0
  0
VERTEX
  5
165
330
161
100
AcDbEntity
  8
_U+30EC_U+30A4_U+30E4_U+30FC 1
370
     0
100
AcDbVertex
100
AcDb2dVertex
 10
89.57265487127003
 20
-133.2990125534808
 30
0.0
  0
VERTEX
  5
166
330
161
100
AcDbEntity
  8
_U+30EC_U+30A4_U+30E4_U+30FC 1
370
     0
100
AcDbVertex
100
AcDb2dVertex
 10
89.57265487127003
 20
-133.0959241746253
 30
0.0
  0
SEQEND
  5
167
330
161
100
AcDbEntity
  8
_U+30EC_U+30A4_U+30E4_U+30FC 1
370
     0
  0
POLYLINE
  5
168
330
130
100
AcDbEntity
  8
_U+30EC_U+30A4_U+30E4_U+30FC 1
370
     0
100
AcDb2dPolyline
 66
     1
 10
0.0
 20
0.0
 30
0.0
  0
VERTEX
  5
169
330
168
100
AcDbEntity
  8
_U+30EC_U+30A4_U+30E4_U+30FC 1
370
     0
100
AcDbVertex
100
AcDb2dVertex
 10
89.57265487127003
 20
-133.4216579527557
 30
0.0
  0
VERTEX
  5
16A
330
168
100
AcDbEntity
  8
_U+30EC_U+30A4_U+30E4_U+30FC 1
370
     0
100
AcDbVertex
100
AcDb2dVertex
 10
89.3611260084757
 20
-133.4216579527557
 30
0.0
  0
VERTEX
  5
16B
330
168
100
AcDbEntity
  8
_U+30EC_U+30A4_U+30E4_U+30FC 1
370
     0
100
AcDbVertex
100
AcDb2dVertex
 10
89.3611260084757
 20
-133.6290527009677
 30
0.0
  0
VERTEX
  5
16C
330
168
100
AcDbEntity
  8
_U+30EC_U+30A4_U+30E4_U+30FC 1
370
     0
100
AcDbVertex
100
AcDb2dVertex
 10
89.57265487127003
 20
-133.6290527009677
 30
0.0
  0
VERTEX
  5
16D
330
168
100
AcDbEntity
  8
_U+30EC_U+30A4_U+30E4_U+30FC 1
370
     0
100
AcDbVertex
100
AcDb2dVertex
 10
89.57265487127003
 20
-133.4216579527557
 30
0.0
  0
SEQEND
  5
16E
330
168
100
AcDbEntity
  8
_U+30EC_U+30A4_U+30E4_U+30FC 1
370
     0
  0
SPLINE
  5
16F
330
130
100
AcDbEntity
  8
_U+30EC_U+30A4_U+30E4_U+30FC 1
370
     0
100
AcDbSpline
210
0.0
220
0.0
230
1.0
 70
    11
 71
     3
 72
    38
 73
    34
 74
     0
 42
0.0000000001
 43
0.0000000001
 12
1.0
 22
0.0
 32
0.0
 13
1.0
 23
0.0
 33
0.0
 40
0.0
 40
0.0
 40
0.0
 40
0.0
 40
1.0
 40
1.0
 40
1.0
 40
2.0
 40
2.0
 40
2.0
 40
3.0
 40
3.0
 40
3.0
 40
4.0
 40
4.0
 40
4.0
 40
5.0
 40
5.0
 40
5.0
 40
6.0
 40
6.0
 40
6.0
 40
7.0
 40
7.0
 40
7.0
 40
8.0
 40
8.0
 40
8.0
 40
9.0
 40
9.0
 40
9.0
 40
10.0
 40
10.0
 40
10.0
 40
11.0
 40
11.0
 40
11.0
 40
11.0
 10
89.61502954573861
 20
-134.3101480784016
 30
0.0
 10
89.69753958261035
 20
-134.2572658627031
 30
0.0
 10
89.86255965635381
 20
-134.1494343740147
 30
0.0
 10
89.96832408775097
 20
-133.9420396258027
 30
0.0
 10
90.11646319361672
 20
-133.650240038202
 30
0.0
 10
90.11646319361672
 20
-133.4238972648211
 30
0.0
 10
90.11646319361672
 20
-133.339147915884
 30
0.0
 10
90.11646319361672
 20
-133.339147915884
 30
0.0
 10
90.11646319361672
 20
-133.1043646585642
 30
0.0
 10
90.11646319361672
 20
-133.1043646585642
 30
0.0
 10
90.11646319361672
 20
-133.1043646585642
 30
0.0
 10
90.28148326736019
 20
-133.1043646585642
 30
0.0
 10
90.28148326736019
 20
-133.1043646585642
 30
0.0
 10
90.28148326736019
 20
-133.1043646585642
 30
0.0
 10
90.28148326736019
 20
-133.3307074319451
 30
0.0
 10
90.28148326736019
 20
-133.3307074319451
 30
0.0
 10
90.28148326736019
 20
-133.5296616962183
 30
0.0
 10
90.34694008157993
 20
-133.7665120108292
 30
0.0
 10
90.4485703983948
 20
-133.9399725685115
 30
0.0
 10
90.56484237102198
 20
-134.1389268327847
 30
0.0
 10
90.6938611969446
 20
-134.2383178375342
 30
0.0
 10
90.77861054588175
 20
-134.2996405371716
 30
0.0
 10
90.77861054588175
 20
-134.2996405371716
 30
0.0
 10
90.67060680241916
 20
-134.4498467003285
 30
0.0
 10
90.67060680241916
 20
-134.4498467003285
 30
0.0
 10
90.49301213015453
 20
-134.3208278744059
 30
0.0
 10
90.29405786588136
 20
-134.0817382477296
 30
0.0
 10
90.21585419836617
 20
-133.7284437057172
 30
0.0
 10
90.15022512937217
 20
-133.9675333323935
 30
0.0
 10
90.04876706733157
 20
-134.236250780243
 30
0.0
 10
89.73991425707891
 20
-134.445540330972
 30
0.0
 10
89.73991425707891
 20
-134.445540330972
 30
0.0
 10
89.61502954573861
 20
-134.3101480784016
 30
0.0
 10
89.61502954573861
 20
-134.3101480784016
 30
0.0
  0
SPLINE
  5
170
330
130
100
AcDbEntity
  8
_U+30EC_U+30A4_U+30E4_U+30FC 1
370
     0
100
AcDbSpline
210
0.0
220
0.0
230
1.0
 70
    11
 71
     3
 72
    38
 73
    34
 74
     0
 42
0.0000000001
 43
0.0000000001
 12
1.0
 22
0.0
 32
0.0
 13
1.0
 23
0.0
 33
0.0
 40
0.0
 40
0.0
 40
0.0
 40
0.0
 40
1.0
 40
1.0
 40
1.0
 40
2.0
 40
2.0
 40
2.0
 40
3.0
 40
3.0
 40
3.0
 40
4.0
 40
4.0
 40
4.0
 40
5.0
 40
5.0
 40
5.0
 40
6.0
 40
6.0
 40
6.0
 40
7.0
 40
7.0
 40
7.0
 40
8.0
 40
8.0
 40
8.0
 40
9.0
 40
9.0
 40
9.0
 40
10.0
 40
10.0
 40
10.0
 40
11.0
 40
11.0
 40
11.0
 40
11.0
 10
89.72923446107464
 20
-133.2376898538434
 30
0.0
 10
89.82242429395065
 20
-133.1148721997942
 30
0.0
 10
89.94713675051669
 20
-132.9352104702384
 30
0.0
 10
90.04239364068385
 20
-132.4866590380589
 30
0.0
 10
90.04239364068385
 20
-132.4866590380589
 30
0.0
 10
90.20948077171846
 20
-132.5056070632278
 30
0.0
 10
90.20948077171846
 20
-132.5056070632278
 30
0.0
 10
90.18415931990188
 20
-132.6261854052115
 30
0.0
 10
90.16090492537644
 20
-132.7173081807964
 30
0.0
 10
90.12266436549017
 20
-132.8251396694847
 30
0.0
 10
90.12266436549017
 20
-132.8251396694847
 30
0.0
 10
90.75104978199974
 20
-132.8251396694847
 30
0.0
 10
90.75104978199974
 20
-132.8251396694847
 30
0.0
 10
90.75104978199974
 20
-132.8251396694847
 30
0.0
 10
90.75104978199974
 20
-132.9774128899327
 30
0.0
 10
90.75104978199974
 20
-132.9774128899327
 30
0.0
 10
90.71728784624429
 20
-133.1191785691508
 30
0.0
 10
90.62203095607714
 20
-133.377216220996
 30
0.0
 10
90.54796140314427
 20
-133.4957275056886
 30
0.0
 10
90.54796140314427
 20
-133.4957275056886
 30
0.0
 10
90.39568818269622
 20
-133.4175238381734
 30
0.0
 10
90.39568818269622
 20
-133.4175238381734
 30
0.0
 10
90.49077281808911
 20
-133.2821315856031
 30
0.0
 10
90.55640188708313
 20
-133.0938571173342
 30
0.0
 10
90.58396265096512
 20
-132.9837863165804
 30
0.0
 10
90.58396265096512
 20
-132.9837863165804
 30
0.0
 10
90.06564803520929
 20
-132.9837863165804
 30
0.0
 10
90.06564803520929
 20
-132.9837863165804
 30
0.0
 10
89.96625703045983
 20
-133.2249430005479
 30
0.0
 10
89.89218747752696
 20
-133.3138264640674
 30
0.0
 10
89.85411917241494
 20
-133.3582681958271
 30
0.0
 10
89.85411917241494
 20
-133.3582681958271
 30
0.0
 10
89.72923446107464
 20
-133.2376898538434
 30
0.0
 10
89.72923446107464
 20
-133.2376898538434
 30
0.0
  0
HATCH
  5
171
330
130
100
AcDbEntity
  8
_U+30EC_U+30A4_U+30E4_U+30FC 1
 62
    12
420
 15007761
100
AcDbHatch
 10
0.0
 20
0.0
 30
0.0
210
0.0
220
0.0
230
1.0
  2
SOLID
 70
     1
 71
     0
 91
        7
 92
        1
 93
       28
 72
     1
 10
89.2067857307365
 20
-132.6473727424458
 11
89.2067857307365
 21
-132.4866590380589
 72
     1
 10
89.2067857307365
 20
-132.4866590380589
 11
89.3611260084757
 21
-132.4866590380589
 72
     1
 10
89.3611260084757
 20
-132.4866590380589
 11
89.3611260084757
 21
-132.6473727424458
 72
     1
 10
89.3611260084757
 20
-132.6473727424458
 11
89.75472816766549
 21
-132.6473727424458
 72
     1
 10
89.75472816766549
 20
-132.6473727424458
 11
89.75472816766549
 21
-132.8018852749593
 72
     1
 10
89.75472816766549
 20
-132.8018852749593
 11
89.3611260084757
 21
-132.8018852749593
 72
     1
 10
89.3611260084757
 20
-132.8018852749593
 11
89.3611260084757
 21
-132.9562255526984
 72
     1
 10
89.3611260084757
 20
-132.9562255526984
 11
89.71648760777921
 21
-132.9562255526984
 72
     1
 10
89.71648760777921
 20
-132.9562255526984
 11
89.71648760777921
 21
-133.7685790681204
 72
     1
 10
89.71648760777921
 20
-133.7685790681204
 11
89.3611260084757
 21
-133.7685790681204
 72
     1
 10
89.3611260084757
 20
-133.7685790681204
 11
89.3611260084757
 21
-133.9379055112204
 72
     1
 10
89.3611260084757
 20
-133.9379055112204
 11
89.76954207825206
 21
-133.9379055112204
 72
     1
 10
89.76954207825206
 20
-133.9379055112204
 11
89.76954207825206
 21
-134.0922457889596
 72
     1
 10
89.76954207825206
 20
-134.0922457889596
 11
89.3611260084757
 21
-134.0922457889596
 72
     1
 10
89.3611260084757
 20
-134.0922457889596
 11
89.3611260084757
 21
-134.445540330972
 72
     1
 10
89.3611260084757
 20
-134.445540330972
 11
89.2067857307365
 21
-134.445540330972
 72
     1
 10
89.2067857307365
 20
-134.445540330972
 11
89.2067857307365
 21
-134.0922457889596
 72
     1
 10
89.2067857307365
 20
-134.0922457889596
 11
88.79630260366898
 21
-134.0922457889596
 72
     1
 10
88.79630260366898
 20
-134.0922457889596
 11
88.79630260366898
 21
-133.9379055112204
 72
     1
 10
88.79630260366898
 20
-133.9379055112204
 11
89.2067857307365
 21
-133.9379055112204
 72
     1
 10
89.2067857307365
 20
-133.9379055112204
 11
89.2067857307365
 21
-133.7685790681204
 72
     1
 10
89.2067857307365
 20
-133.7685790681204
 11
88.85762530330643
 21
-133.7685790681204
 72
     1
 10
88.85762530330643
 20
-133.7685790681204
 11
88.85762530330643
 21
-132.9562255526984
 72
     1
 10
88.85762530330643
 20
-132.9562255526984
 11
89.2067857307365
 21
-132.9562255526984
 72
     1
 10
89.2067857307365
 20
-132.9562255526984
 11
89.2067857307365
 21
-132.8018852749593
 72
     1
 10
89.2067857307365
 20
-132.8018852749593
 11
88.81748994090327
 21
-132.8018852749593
 72
     1
 10
88.81748994090327
 20
-132.8018852749593
 11
88.81748994090327
 21
-132.6473727424458
 72
     1
 10
88.81748994090327
 20
-132.6473727424458
 11
89.2067857307365
 21
-132.6473727424458
 97
        0
 92
        1
 93
        4
 72
     1
 10
89.2067857307365
 20
-133.0959241746253
 11
88.99939098252446
 21
-133.0959241746253
 72
     1
 10
88.99939098252446
 20
-133.0959241746253
 11
88.99939098252446
 21
-133.2990125534808
 72
     1
 10
88.99939098252446
 20
-133.2990125534808
 11
89.2067857307365
 21
-133.2990125534808
 72
     1
 10
89.2067857307365
 20
-133.2990125534808
 11
89.2067857307365
 21
-133.0959241746253
 97
        0
 92
        1
 93
        4
 72
     1
 10
89.2067857307365
 20
-133.4216579527557
 11
88.99939098252446
 21
-133.4216579527557
 72
     1
 10
88.99939098252446
 20
-133.4216579527557
 11
88.99939098252446
 21
-133.6290527009677
 72
     1
 10
88.99939098252446
 20
-133.6290527009677
 11
89.2067857307365
 21
-133.6290527009677
 72
     1
 10
89.2067857307365
 20
-133.6290527009677
 11
89.2067857307365
 21
-133.4216579527557
 97
        0
 92
        1
 93
        4
 72
     1
 10
89.57265487127003
 20
-133.0959241746253
 11
89.3611260084757
 21
-133.0959241746253
 72
     1
 10
89.3611260084757
 20
-133.0959241746253
 11
89.3611260084757
 21
-133.2990125534808
 72
     1
 10
89.3611260084757
 20
-133.2990125534808
 11
89.57265487127003
 21
-133.2990125534808
 72
     1
 10
89.57265487127003
 20
-133.2990125534808
 11
89.57265487127003
 21
-133.0959241746253
 97
        0
 92
        1
 93
        4
 72
     1
 10
89.57265487127003
 20
-133.4216579527557
 11
89.3611260084757
 21
-133.4216579527557
 72
     1
 10
89.3611260084757
 20
-133.4216579527557
 11
89.3611260084757
 21
-133.6290527009677
 72
     1
 10
89.3611260084757
 20
-133.6290527009677
 11
89.57265487127003
 21
-133.6290527009677
 72
     1
 10
89.57265487127003
 20
-133.6290527009677
 11
89.57265487127003
 21
-133.4216579527557
 97
        0
 92
        1
 93
        1
 72
     4
 94
        3
 73
     0
 74
     1
 95
       38
 96
       34
 40
0.0
 40
0.0
 40
0.0
 40
0.0
 40
1.0
 40
1.0
 40
1.0
 40
2.0
 40
2.0
 40
2.0
 40
3.0
 40
3.0
 40
3.0
 40
4.0
 40
4.0
 40
4.0
 40
5.0
 40
5.0
 40
5.0
 40
6.0
 40
6.0
 40
6.0
 40
7.0
 40
7.0
 40
7.0
 40
8.0
 40
8.0
 40
8.0
 40
9.0
 40
9.0
 40
9.0
 40
10.0
 40
10.0
 40
10.0
 40
11.0
 40
11.0
 40
11.0
 40
11.0
 10
89.61502954573861
 20
-134.3101480784016
 10
89.69753958261035
 20
-134.2572658627031
 10
89.86255965635381
 20
-134.1494343740147
 10
89.96832408775097
 20
-133.9420396258027
 10
90.11646319361672
 20
-133.650240038202
 10
90.11646319361672
 20
-133.4238972648211
 10
90.11646319361672
 20
-133.339147915884
 10
90.11646319361672
 20
-133.339147915884
 10
90.11646319361672
 20
-133.1043646585642
 10
90.11646319361672
 20
-133.1043646585642
 10
90.11646319361672
 20
-133.1043646585642
 10
90.28148326736019
 20
-133.1043646585642
 10
90.28148326736019
 20
-133.1043646585642
 10
90.28148326736019
 20
-133.1043646585642
 10
90.28148326736019
 20
-133.3307074319451
 10
90.28148326736019
 20
-133.3307074319451
 10
90.28148326736019
 20
-133.5296616962183
 10
90.34694008157993
 20
-133.7665120108292
 10
90.4485703983948
 20
-133.9399725685115
 10
90.56484237102198
 20
-134.1389268327847
 10
90.6938611969446
 20
-134.2383178375342
 10
90.77861054588175
 20
-134.2996405371716
 10
90.77861054588175
 20
-134.2996405371716
 10
90.67060680241916
 20
-134.4498467003285
 10
90.67060680241916
 20
-134.4498467003285
 10
90.49301213015453
 20
-134.3208278744059
 10
90.29405786588136
 20
-134.0817382477296
 10
90.21585419836617
 20
-133.7284437057172
 10
90.15022512937217
 20
-133.9675333323935
 10
90.04876706733157
 20
-134.236250780243
 10
89.73991425707891
 20
-134.445540330972
 10
89.73991425707891
 20
-134.445540330972
 10
89.61502954573861
 20
-134.3101480784016
 10
89.61502954573861
 20
-134.3101480784016
 97
        0
 97
        0
 92
        1
 93
        1
 72
     4
 94
        3
 73
     0
 74
     1
 95
       38
 96
       34
 40
0.0
 40
0.0
 40
0.0
 40
0.0
 40
1.0
 40
1.0
 40
1.0
 40
2.0
 40
2.0
 40
2.0
 40
3.0
 40
3.0
 40
3.0
 40
4.0
 40
4.0
 40
4.0
 40
5.0
 40
5.0
 40
5.0
 40
6.0
 40
6.0
 40
6.0
 40
7.0
 40
7.0
 40
7.0
 40
8.0
 40
8.0
 40
8.0
 40
9.0
 40
9.0
 40
9.0
 40
10.0
 40
10.0
 40
10.0
 40
11.0
 40
11.0
 40
11.0
 40
11.0
 10
89.72923446107464
 20
-133.2376898538434
 10
89.82242429395065
 20
-133.1148721997942
 10
89.94713675051669
 20
-132.9352104702384
 10
90.04239364068385
 20
-132.4866590380589
 10
90.04239364068385
 20
-132.4866590380589
 10
90.20948077171846
 20
-132.5056070632278
 10
90.20948077171846
 20
-132.5056070632278
 10
90.18415931990188
 20
-132.6261854052115
 10
90.16090492537644
 20
-132.7173081807964
 10
90.12266436549017
 20
-132.8251396694847
 10
90.12266436549017
 20
-132.8251396694847
 10
90.75104978199974
 20
-132.8251396694847
 10
90.75104978199974
 20
-132.8251396694847
 10
90.75104978199974
 20
-132.8251396694847
 10
90.75104978199974
 20
-132.9774128899327
 10
90.75104978199974
 20
-132.9774128899327
 10
90.71728784624429
 20
-133.1191785691508
 10
90.62203095607714
 20
-133.377216220996
 10
90.54796140314427
 20
-133.4957275056886
 10
90.54796140314427
 20
-133.4957275056886
 10
90.39568818269622
 20
-133.4175238381734
 10
90.39568818269622
 20
-133.4175238381734
 10
90.49077281808911
 20
-133.2821315856031
 10
90.55640188708313
 20
-133.0938571173342
 10
90.58396265096512
 20
-132.9837863165804
 10
90.58396265096512
 20
-132.9837863165804
 10
90.06564803520929
 20
-132.9837863165804
 10
90.06564803520929
 20
-132.9837863165804
 10
89.96625703045983
 20
-133.2249430005479
 10
89.89218747752696
 20
-133.3138264640674
 10
89.85411917241494
 20
-133.3582681958271
 10
89.85411917241494
 20
-133.3582681958271
 10
89.72923446107464
 20
-133.2376898538434
 10
89.72923446107464
 20
-133.2376898538434
 97
        0
 97
        0
 75
     2
 76
     1
 98
        0
  0
SPLINE
  5
172
330
130
100
AcDbEntity
  8
_U+30EC_U+30A4_U+30E4_U+30FC 1
370
     0
100
AcDbSpline
210
0.0
220
0.0
230
1.0
 70
    11
 71
     3
 72
    50
 73
    46
 74
     0
 42
0.0000000001
 43
0.0000000001
 12
1.0
 22
0.0
 32
0.0
 13
1.0
 23
0.0
 33
0.0
 40
0.0
 40
0.0
 40
0.0
 40
0.0
 40
1.0
 40
1.0
 40
1.0
 40
2.0
 40
2.0
 40
2.0
 40
3.0
 40
3.0
 40
3.0
 40
4.0
 40
4.0
 40
4.0
 40
5.0
 40
5.0
 40
5.0
 40
6.0
 40
6.0
 40
6.0
 40
7.0
 40
7.0
 40
7.0
 40
8.0
 40
8.0
 40
8.0
 40
9.0
 40
9.0
 40
9.0
 40
10.0
 40
10.0
 40
10.0
 40
11.0
 40
11.0
 40
11.0
 40
12.0
 40
12.0
 40
12.0
 40
13.0
 40
13.0
 40
13.0
 40
14.0
 40
14.0
 40
14.0
 40
15.0
 40
15.0
 40
15.0
 40
15.0
 10
91.22388913735028
 20
-132.7850043070815
 30
0.0
 10
91.22388913735028
 20
-132.7850043070815
 30
0.0
 10
91.8755289483853
 20
-132.7850043070815
 30
0.0
 10
91.8755289483853
 20
-132.7850043070815
 30
0.0
 10
91.8755289483853
 20
-132.7850043070815
 30
0.0
 10
91.8755289483853
 20
-132.9097167636476
 30
0.0
 10
91.8755289483853
 20
-132.9097167636476
 30
0.0
 10
91.8755289483853
 20
-132.9097167636476
 30
0.0
 10
91.59837101659694
 20
-132.9097167636476
 30
0.0
 10
91.59837101659694
 20
-132.9097167636476
 30
0.0
 10
91.59837101659694
 20
-132.9097167636476
 30
0.0
 10
91.59837101659694
 20
-133.1848076381448
 30
0.0
 10
91.59837101659694
 20
-133.1848076381448
 30
0.0
 10
91.59837101659694
 20
-133.1848076381448
 30
0.0
 10
91.43765731221004
 20
-133.1848076381448
 30
0.0
 10
91.43765731221004
 20
-133.1848076381448
 30
0.0
 10
91.43765731221004
 20
-133.1848076381448
 30
0.0
 10
91.43765731221004
 20
-132.9097167636476
 30
0.0
 10
91.43765731221004
 20
-132.9097167636476
 30
0.0
 10
91.43765731221004
 20
-132.9097167636476
 30
0.0
 10
91.21768796547683
 20
-132.9097167636476
 30
0.0
 10
91.21768796547683
 20
-132.9097167636476
 30
0.0
 10
91.20700816947256
 20
-132.9794799472239
 30
0.0
 10
91.18168671765598
 20
-133.1741278421405
 30
0.0
 10
91.02717418514251
 20
-133.3243340052974
 30
0.0
 10
91.02717418514251
 20
-133.3243340052974
 30
0.0
 10
90.90452878586763
 20
-133.2144354593179
 30
0.0
 10
90.90452878586763
 20
-133.2144354593179
 30
0.0
 10
91.02510712785137
 20
-133.1148721997942
 30
0.0
 10
91.06748180231993
 20
-132.9097167636476
 30
0.0
 10
91.06748180231993
 20
-132.8272067267758
 30
0.0
 10
91.06748180231993
 20
-132.8272067267758
 30
0.0
 10
91.06748180231993
 20
-132.5416083110486
 30
0.0
 10
91.06748180231993
 20
-132.5416083110486
 30
0.0
 10
91.55186222754607
 20
-132.5416083110486
 30
0.0
 10
91.70637476005952
 20
-132.4950995219978
 30
0.0
 10
91.80145939545241
 20
-132.4675387581158
 30
0.0
 10
91.80145939545241
 20
-132.4675387581158
 30
0.0
 10
91.854341611151
 20
-132.6072373800426
 30
0.0
 10
91.854341611151
 20
-132.6072373800426
 30
0.0
 10
91.64487980564782
 20
-132.6558132263847
 30
0.0
 10
91.48209904396975
 20
-132.6664930223889
 30
0.0
 10
91.22388913735028
 20
-132.6706271369712
 30
0.0
 10
91.22388913735028
 20
-132.6706271369712
 30
0.0
 10
91.22388913735028
 20
-132.7850043070815
 30
0.0
 10
91.22388913735028
 20
-132.7850043070815
 30
0.0
  0
SPLINE
  5
173
330
130
100
AcDbEntity
  8
_U+30EC_U+30A4_U+30E4_U+30FC 1
370
     0
100
AcDbSpline
210
0.0
220
0.0
230
1.0
 70
    11
 71
     3
 72
    32
 73
    28
 74
     0
 42
0.0000000001
 43
0.0000000001
 12
1.0
 22
0.0
 32
0.0
 13
1.0
 23
0.0
 33
0.0
 40
0.0
 40
0.0
 40
0.0
 40
0.0
 40
1.0
 40
1.0
 40
1.0
 40
2.0
 40
2.0
 40
2.0
 40
3.0
 40
3.0
 40
3.0
 40
4.0
 40
4.0
 40
4.0
 40
5.0
 40
5.0
 40
5.0
 40
6.0
 40
6.0
 40
6.0
 40
7.0
 40
7.0
 40
7.0
 40
8.0
 40
8.0
 40
8.0
 40
9.0
 40
9.0
 40
9.0
 40
9.0
 10
91.1393120431874
 20
-134.1303140940716
 30
0.0
 10
91.1393120431874
 20
-134.1303140940716
 30
0.0
 10
91.1393120431874
 20
-133.2313164271957
 30
0.0
 10
91.1393120431874
 20
-133.2313164271957
 30
0.0
 10
91.1393120431874
 20
-133.2313164271957
 30
0.0
 10
92.63706730539977
 20
-133.2313164271957
 30
0.0
 10
92.63706730539977
 20
-133.2313164271957
 30
0.0
 10
92.63706730539977
 20
-133.2313164271957
 30
0.0
 10
92.63706730539977
 20
-134.1303140940716
 30
0.0
 10
92.63706730539977
 20
-134.1303140940716
 30
0.0
 10
92.63706730539977
 20
-134.1303140940716
 30
0.0
 10
91.49260658519977
 20
-134.1303140940716
 30
0.0
 10
91.49260658519977
 20
-134.1303140940716
 30
0.0
 10
91.49260658519977
 20
-134.1303140940716
 30
0.0
 10
91.59837101659694
 20
-134.2403848948253
 30
0.0
 10
91.59837101659694
 20
-134.2403848948253
 30
0.0
 10
91.43335094285347
 20
-134.3356417849925
 30
0.0
 10
91.26833086911
 20
-134.3969644846299
 30
0.0
 10
90.97222491215278
 20
-134.4477796430374
 30
0.0
 10
90.97222491215278
 20
-134.4477796430374
 30
0.0
 10
90.90659584315877
 20
-134.2953341678151
 30
0.0
 10
90.90659584315877
 20
-134.2953341678151
 30
0.0
 10
91.285384091762
 20
-134.2424519521165
 30
0.0
 10
91.40802949103688
 20
-134.1747558258313
 30
0.0
 10
91.48847247061747
 20
-134.1303140940716
 30
0.0
 10
91.48847247061747
 20
-134.1303140940716
 30
0.0
 10
91.1393120431874
 20
-134.1303140940716
 30
0.0
 10
91.1393120431874
 20
-134.1303140940716
 30
0.0
  0
POLYLINE
  5
174
330
130
100
AcDbEntity
  8
_U+30EC_U+30A4_U+30E4_U+30FC 1
370
     0
100
AcDb2dPolyline
 66
     1
 10
0.0
 20
0.0
 30
0.0
  0
VERTEX
  5
175
330
174
100
AcDbEntity
  8
_U+30EC_U+30A4_U+30E4_U+30FC 1
370
     0
100
AcDbVertex
100
AcDb2dVertex
 10
92.467913117074
 20
-133.3646416224748
 30
0.0
  0
VERTEX
  5
176
330
174
100
AcDbEntity
  8
_U+30EC_U+30A4_U+30E4_U+30FC 1
370
     0
100
AcDbVertex
100
AcDb2dVertex
 10
91.30863848628742
 20
-133.3646416224748
 30
0.0
  0
VERTEX
  5
177
330
174
100
AcDbEntity
  8
_U+30EC_U+30A4_U+30E4_U+30FC 1
370
     0
100
AcDbVertex
100
AcDb2dVertex
 10
91.30863848628742
 20
-133.4936604483974
 30
0.0
  0
VERTEX
  5
178
330
174
100
AcDbEntity
  8
_U+30EC_U+30A4_U+30E4_U+30FC 1
370
     0
100
AcDbVertex
100
AcDb2dVertex
 10
92.467913117074
 20
-133.4936604483974
 30
0.0
  0
VERTEX
  5
179
330
174
100
AcDbEntity
  8
_U+30EC_U+30A4_U+30E4_U+30FC 1
370
     0
100
AcDbVertex
100
AcDb2dVertex
 10
92.467913117074
 20
-133.3646416224748
 30
0.0
  0
SEQEND
  5
17A
330
174
100
AcDbEntity
  8
_U+30EC_U+30A4_U+30E4_U+30FC 1
370
     0
  0
POLYLINE
  5
17B
330
130
100
AcDbEntity
  8
_U+30EC_U+30A4_U+30E4_U+30FC 1
370
     0
100
AcDb2dPolyline
 66
     1
 10
0.0
 20
0.0
 30
0.0
  0
VERTEX
  5
17C
330
17B
100
AcDbEntity
  8
_U+30EC_U+30A4_U+30E4_U+30FC 1
370
     0
100
AcDbVertex
100
AcDb2dVertex
 10
92.467913117074
 20
-133.6035589943769
 30
0.0
  0
VERTEX
  5
17D
330
17B
100
AcDbEntity
  8
_U+30EC_U+30A4_U+30E4_U+30FC 1
370
     0
100
AcDbVertex
100
AcDb2dVertex
 10
91.30863848628742
 20
-133.6035589943769
 30
0.0
  0
VERTEX
  5
17E
330
17B
100
AcDbEntity
  8
_U+30EC_U+30A4_U+30E4_U+30FC 1
370
     0
100
AcDbVertex
100
AcDb2dVertex
 10
91.30863848628742
 20
-133.7453246735949
 30
0.0
  0
VERTEX
  5
17F
330
17B
100
AcDbEntity
  8
_U+30EC_U+30A4_U+30E4_U+30FC 1
370
     0
100
AcDbVertex
100
AcDb2dVertex
 10
92.467913117074
 20
-133.7453246735949
 30
0.0
  0
VERTEX
  5
180
330
17B
100
AcDbEntity
  8
_U+30EC_U+30A4_U+30E4_U+30FC 1
370
     0
100
AcDbVertex
100
AcDb2dVertex
 10
92.467913117074
 20
-133.6035589943769
 30
0.0
  0
SEQEND
  5
181
330
17B
100
AcDbEntity
  8
_U+30EC_U+30A4_U+30E4_U+30FC 1
370
     0
  0
POLYLINE
  5
182
330
130
100
AcDbEntity
  8
_U+30EC_U+30A4_U+30E4_U+30FC 1
370
     0
100
AcDb2dPolyline
 66
     1
 10
0.0
 20
0.0
 30
0.0
  0
VERTEX
  5
183
330
182
100
AcDbEntity
  8
_U+30EC_U+30A4_U+30E4_U+30FC 1
370
     0
100
AcDbVertex
100
AcDb2dVertex
 10
92.467913117074
 20
-133.8553954743487
 30
0.0
  0
VERTEX
  5
184
330
182
100
AcDbEntity
  8
_U+30EC_U+30A4_U+30E4_U+30FC 1
370
     0
100
AcDbVertex
100
AcDb2dVertex
 10
91.30863848628742
 20
-133.8553954743487
 30
0.0
  0
VERTEX
  5
185
330
182
100
AcDbEntity
  8
_U+30EC_U+30A4_U+30E4_U+30FC 1
370
     0
100
AcDbVertex
100
AcDb2dVertex
 10
91.30863848628742
 20
-133.9949218415013
 30
0.0
  0
VERTEX
  5
186
330
182
100
AcDbEntity
  8
_U+30EC_U+30A4_U+30E4_U+30FC 1
370
     0
100
AcDbVertex
100
AcDb2dVertex
 10
92.467913117074
 20
-133.9949218415013
 30
0.0
  0
VERTEX
  5
187
330
182
100
AcDbEntity
  8
_U+30EC_U+30A4_U+30E4_U+30FC 1
370
     0
100
AcDbVertex
100
AcDb2dVertex
 10
92.467913117074
 20
-133.8553954743487
 30
0.0
  0
SEQEND
  5
188
330
182
100
AcDbEntity
  8
_U+30EC_U+30A4_U+30E4_U+30FC 1
370
     0
  0
SPLINE
  5
189
330
130
100
AcDbEntity
  8
_U+30EC_U+30A4_U+30E4_U+30FC 1
370
     0
100
AcDbSpline
210
0.0
220
0.0
230
1.0
 70
    11
 71
     3
 72
    50
 73
    46
 74
     0
 42
0.0000000001
 43
0.0000000001
 12
1.0
 22
0.0
 32
0.0
 13
1.0
 23
0.0
 33
0.0
 40
0.0
 40
0.0
 40
0.0
 40
0.0
 40
1.0
 40
1.0
 40
1.0
 40
2.0
 40
2.0
 40
2.0
 40
3.0
 40
3.0
 40
3.0
 40
4.0
 40
4.0
 40
4.0
 40
5.0
 40
5.0
 40
5.0
 40
6.0
 40
6.0
 40
6.0
 40
7.0
 40
7.0
 40
7.0
 40
8.0
 40
8.0
 40
8.0
 40
9.0
 40
9.0
 40
9.0
 40
10.0
 40
10.0
 40
10.0
 40
11.0
 40
11.0
 40
11.0
 40
12.0
 40
12.0
 40
12.0
 40
13.0
 40
13.0
 40
13.0
 40
14.0
 40
14.0
 40
14.0
 40
15.0
 40
15.0
 40
15.0
 40
15.0
 10
92.13149954293935
 20
-132.7850043070815
 30
0.0
 10
92.13149954293935
 20
-132.7850043070815
 30
0.0
 10
92.86771644813724
 20
-132.7850043070815
 30
0.0
 10
92.86771644813724
 20
-132.7850043070815
 30
0.0
 10
92.86771644813724
 20
-132.7850043070815
 30
0.0
 10
92.86771644813724
 20
-132.9097167636476
 30
0.0
 10
92.86771644813724
 20
-132.9097167636476
 30
0.0
 10
92.86771644813724
 20
-132.9097167636476
 30
0.0
 10
92.5376763006503
 20
-132.9097167636476
 30
0.0
 10
92.5376763006503
 20
-132.9097167636476
 30
0.0
 10
92.5376763006503
 20
-132.9097167636476
 30
0.0
 10
92.5376763006503
 20
-133.1848076381448
 30
0.0
 10
92.5376763006503
 20
-133.1848076381448
 30
0.0
 10
92.5376763006503
 20
-133.1848076381448
 30
0.0
 10
92.3810967108457
 20
-133.1848076381448
 30
0.0
 10
92.3810967108457
 20
-133.1848076381448
 30
0.0
 10
92.3810967108457
 20
-133.1848076381448
 30
0.0
 10
92.3810967108457
 20
-132.9097167636476
 30
0.0
 10
92.3810967108457
 20
-132.9097167636476
 30
0.0
 10
92.3810967108457
 20
-132.9097167636476
 30
0.0
 10
92.11668563235278
 20
-132.9097167636476
 30
0.0
 10
92.11668563235278
 20
-132.9097167636476
 30
0.0
 10
92.09136418053619
 20
-133.0387355895702
 30
0.0
 10
92.04054902212876
 20
-133.1296861103808
 30
0.0
 10
91.94322507467045
 20
-133.2121961472525
 30
0.0
 10
91.94322507467045
 20
-133.2121961472525
 30
0.0
 10
91.82057967539555
 20
-133.1043646585642
 30
0.0
 10
91.82057967539555
 20
-133.1043646585642
 30
0.0
 10
91.95597192796588
 20
-132.9942938578104
 30
0.0
 10
91.97922632249131
 20
-132.856834547949
 30
0.0
 10
91.97922632249131
 20
-132.7827649950161
 30
0.0
 10
91.97922632249131
 20
-132.7827649950161
 30
0.0
 10
91.97922632249131
 20
-132.5395412537575
 30
0.0
 10
91.97922632249131
 20
-132.5395412537575
 30
0.0
 10
92.44879283713087
 20
-132.5395412537575
 30
0.0
 10
92.61605222293974
 20
-132.4994058913543
 30
0.0
 10
92.75988495944893
 20
-132.4570312168858
 30
0.0
 10
92.75988495944893
 20
-132.4570312168858
 30
0.0
 10
92.81914060179523
 20
-132.5944905267472
 30
0.0
 10
92.81914060179523
 20
-132.5944905267472
 30
0.0
 10
92.54835609665459
 20
-132.6644259650978
 30
0.0
 10
92.23312985975423
 20
-132.6685600796801
 30
0.0
 10
92.13149954293935
 20
-132.6685600796801
 30
0.0
 10
92.13149954293935
 20
-132.6685600796801
 30
0.0
 10
92.13149954293935
 20
-132.7850043070815
 30
0.0
 10
92.13149954293935
 20
-132.7850043070815
 30
0.0
  0
SPLINE
  5
18A
330
130
100
AcDbEntity
  8
_U+30EC_U+30A4_U+30E4_U+30FC 1
370
     0
100
AcDbSpline
210
0.0
220
0.0
230
1.0
 70
    11
 71
     3
 72
    17
 73
    13
 74
     0
 42
0.0000000001
 43
0.0000000001
 12
1.0
 22
0.0
 32
0.0
 13
1.0
 23
0.0
 33
0.0
 40
0.0
 40
0.0
 40
0.0
 40
0.0
 40
1.0
 40
1.0
 40
1.0
 40
2.0
 40
2.0
 40
2.0
 40
3.0
 40
3.0
 40
3.0
 40
4.0
 40
4.0
 40
4.0
 40
4.0
 10
92.24363740098423
 20
-134.1366875207193
 30
0.0
 10
92.46360674771744
 20
-134.2488253787642
 30
0.0
 10
92.73025713827577
 20
-134.2868936838762
 30
0.0
 10
92.85927596419837
 20
-134.2975734798805
 30
0.0
 10
92.85927596419837
 20
-134.2975734798805
 30
0.0
 10
92.78951278062208
 20
-134.4519137576197
 30
0.0
 10
92.78951278062208
 20
-134.4519137576197
 30
0.0
 10
92.66893443863833
 20
-134.4370998470331
 30
0.0
 10
92.40659041743655
 20
-134.3969644846299
 30
0.0
 10
92.14217933894362
 20
-134.2508924360554
 30
0.0
 10
92.14217933894362
 20
-134.2508924360554
 30
0.0
 10
92.24363740098423
 20
-134.1366875207193
 30
0.0
 10
92.24363740098423
 20
-134.1366875207193
 30
0.0
  0
HATCH
  5
18B
330
130
100
AcDbEntity
  8
_U+30EC_U+30A4_U+30E4_U+30FC 1
 62
    12
420
 15007761
100
AcDbHatch
 10
0.0
 20
0.0
 30
0.0
210
0.0
220
0.0
230
1.0
  2
SOLID
 70
     1
 71
     0
 91
        7
 92
        1
 93
        1
 72
     4
 94
        3
 73
     0
 74
     1
 95
       50
 96
       46
 40
0.0
 40
0.0
 40
0.0
 40
0.0
 40
1.0
 40
1.0
 40
1.0
 40
2.0
 40
2.0
 40
2.0
 40
3.0
 40
3.0
 40
3.0
 40
4.0
 40
4.0
 40
4.0
 40
5.0
 40
5.0
 40
5.0
 40
6.0
 40
6.0
 40
6.0
 40
7.0
 40
7.0
 40
7.0
 40
8.0
 40
8.0
 40
8.0
 40
9.0
 40
9.0
 40
9.0
 40
10.0
 40
10.0
 40
10.0
 40
11.0
 40
11.0
 40
11.0
 40
12.0
 40
12.0
 40
12.0
 40
13.0
 40
13.0
 40
13.0
 40
14.0
 40
14.0
 40
14.0
 40
15.0
 40
15.0
 40
15.0
 40
15.0
 10
91.22388913735028
 20
-132.7850043070815
 10
91.22388913735028
 20
-132.7850043070815
 10
91.8755289483853
 20
-132.7850043070815
 10
91.8755289483853
 20
-132.7850043070815
 10
91.8755289483853
 20
-132.7850043070815
 10
91.8755289483853
 20
-132.9097167636476
 10
91.8755289483853
 20
-132.9097167636476
 10
91.8755289483853
 20
-132.9097167636476
 10
91.59837101659694
 20
-132.9097167636476
 10
91.59837101659694
 20
-132.9097167636476
 10
91.59837101659694
 20
-132.9097167636476
 10
91.59837101659694
 20
-133.1848076381448
 10
91.59837101659694
 20
-133.1848076381448
 10
91.59837101659694
 20
-133.1848076381448
 10
91.43765731221004
 20
-133.1848076381448
 10
91.43765731221004
 20
-133.1848076381448
 10
91.43765731221004
 20
-133.1848076381448
 10
91.43765731221004
 20
-132.9097167636476
 10
91.43765731221004
 20
-132.9097167636476
 10
91.43765731221004
 20
-132.9097167636476
 10
91.21768796547683
 20
-132.9097167636476
 10
91.21768796547683
 20
-132.9097167636476
 10
91.20700816947256
 20
-132.9794799472239
 10
91.18168671765598
 20
-133.1741278421405
 10
91.02717418514251
 20
-133.3243340052974
 10
91.02717418514251
 20
-133.3243340052974
 10
90.90452878586763
 20
-133.2144354593179
 10
90.90452878586763
 20
-133.2144354593179
 10
91.02510712785137
 20
-133.1148721997942
 10
91.06748180231993
 20
-132.9097167636476
 10
91.06748180231993
 20
-132.8272067267758
 10
91.06748180231993
 20
-132.8272067267758
 10
91.06748180231993
 20
-132.5416083110486
 10
91.06748180231993
 20
-132.5416083110486
 10
91.55186222754607
 20
-132.5416083110486
 10
91.70637476005952
 20
-132.4950995219978
 10
91.80145939545241
 20
-132.4675387581158
 10
91.80145939545241
 20
-132.4675387581158
 10
91.854341611151
 20
-132.6072373800426
 10
91.854341611151
 20
-132.6072373800426
 10
91.64487980564782
 20
-132.6558132263847
 10
91.48209904396975
 20
-132.6664930223889
 10
91.22388913735028
 20
-132.6706271369712
 10
91.22388913735028
 20
-132.6706271369712
 10
91.22388913735028
 20
-132.7850043070815
 10
91.22388913735028
 20
-132.7850043070815
 97
        0
 97
        0
 92
        1
 93
        1
 72
     4
 94
        3
 73
     0
 74
     1
 95
       32
 96
       28
 40
0.0
 40
0.0
 40
0.0
 40
0.0
 40
1.0
 40
1.0
 40
1.0
 40
2.0
 40
2.0
 40
2.0
 40
3.0
 40
3.0
 40
3.0
 40
4.0
 40
4.0
 40
4.0
 40
5.0
 40
5.0
 40
5.0
 40
6.0
 40
6.0
 40
6.0
 40
7.0
 40
7.0
 40
7.0
 40
8.0
 40
8.0
 40
8.0
 40
9.0
 40
9.0
 40
9.0
 40
9.0
 10
91.1393120431874
 20
-134.1303140940716
 10
91.1393120431874
 20
-134.1303140940716
 10
91.1393120431874
 20
-133.2313164271957
 10
91.1393120431874
 20
-133.2313164271957
 10
91.1393120431874
 20
-133.2313164271957
 10
92.63706730539977
 20
-133.2313164271957
 10
92.63706730539977
 20
-133.2313164271957
 10
92.63706730539977
 20
-133.2313164271957
 10
92.63706730539977
 20
-134.1303140940716
 10
92.63706730539977
 20
-134.1303140940716
 10
92.63706730539977
 20
-134.1303140940716
 10
91.49260658519977
 20
-134.1303140940716
 10
91.49260658519977
 20
-134.1303140940716
 10
91.49260658519977
 20
-134.1303140940716
 10
91.59837101659694
 20
-134.2403848948253
 10
91.59837101659694
 20
-134.2403848948253
 10
91.43335094285347
 20
-134.3356417849925
 10
91.26833086911
 20
-134.3969644846299
 10
90.97222491215278
 20
-134.4477796430374
 10
90.97222491215278
 20
-134.4477796430374
 10
90.90659584315877
 20
-134.2953341678151
 10
90.90659584315877
 20
-134.2953341678151
 10
91.285384091762
 20
-134.2424519521165
 10
91.40802949103688
 20
-134.1747558258313
 10
91.48847247061747
 20
-134.1303140940716
 10
91.48847247061747
 20
-134.1303140940716
 10
91.1393120431874
 20
-134.1303140940716
 10
91.1393120431874
 20
-134.1303140940716
 97
        0
 97
        0
 92
        1
 93
        4
 72
     1
 10
92.467913117074
 20
-133.3646416224748
 11
91.30863848628742
 21
-133.3646416224748
 72
     1
 10
91.30863848628742
 20
-133.3646416224748
 11
91.30863848628742
 21
-133.4936604483974
 72
     1
 10
91.30863848628742
 20
-133.4936604483974
 11
92.467913117074
 21
-133.4936604483974
 72
     1
 10
92.467913117074
 20
-133.4936604483974
 11
92.467913117074
 21
-133.3646416224748
 97
        0
 92
        1
 93
        4
 72
     1
 10
92.467913117074
 20
-133.6035589943769
 11
91.30863848628742
 21
-133.6035589943769
 72
     1
 10
91.30863848628742
 20
-133.6035589943769
 11
91.30863848628742
 21
-133.7453246735949
 72
     1
 10
91.30863848628742
 20
-133.7453246735949
 11
92.467913117074
 21
-133.7453246735949
 72
     1
 10
92.467913117074
 20
-133.7453246735949
 11
92.467913117074
 21
-133.6035589943769
 97
        0
 92
        1
 93
        4
 72
     1
 10
92.467913117074
 20
-133.8553954743487
 11
91.30863848628742
 21
-133.8553954743487
 72
     1
 10
91.30863848628742
 20
-133.8553954743487
 11
91.30863848628742
 21
-133.9949218415013
 72
     1
 10
91.30863848628742
 20
-133.9949218415013
 11
92.467913117074
 21
-133.9949218415013
 72
     1
 10
92.467913117074
 20
-133.9949218415013
 11
92.467913117074
 21
-133.8553954743487
 97
        0
 92
        1
 93
        1
 72
     4
 94
        3
 73
     0
 74
     1
 95
       50
 96
       46
 40
0.0
 40
0.0
 40
0.0
 40
0.0
 40
1.0
 40
1.0
 40
1.0
 40
2.0
 40
2.0
 40
2.0
 40
3.0
 40
3.0
 40
3.0
 40
4.0
 40
4.0
 40
4.0
 40
5.0
 40
5.0
 40
5.0
 40
6.0
 40
6.0
 40
6.0
 40
7.0
 40
7.0
 40
7.0
 40
8.0
 40
8.0
 40
8.0
 40
9.0
 40
9.0
 40
9.0
 40
10.0
 40
10.0
 40
10.0
 40
11.0
 40
11.0
 40
11.0
 40
12.0
 40
12.0
 40
12.0
 40
13.0
 40
13.0
 40
13.0
 40
14.0
 40
14.0
 40
14.0
 40
15.0
 40
15.0
 40
15.0
 40
15.0
 10
92.13149954293935
 20
-132.7850043070815
 10
92.13149954293935
 20
-132.7850043070815
 10
92.86771644813724
 20
-132.7850043070815
 10
92.86771644813724
 20
-132.7850043070815
 10
92.86771644813724
 20
-132.7850043070815
 10
92.86771644813724
 20
-132.9097167636476
 10
92.86771644813724
 20
-132.9097167636476
 10
92.86771644813724
 20
-132.9097167636476
 10
92.5376763006503
 20
-132.9097167636476
 10
92.5376763006503
 20
-132.9097167636476
 10
92.5376763006503
 20
-132.9097167636476
 10
92.5376763006503
 20
-133.1848076381448
 10
92.5376763006503
 20
-133.1848076381448
 10
92.5376763006503
 20
-133.1848076381448
 10
92.3810967108457
 20
-133.1848076381448
 10
92.3810967108457
 20
-133.1848076381448
 10
92.3810967108457
 20
-133.1848076381448
 10
92.3810967108457
 20
-132.9097167636476
 10
92.3810967108457
 20
-132.9097167636476
 10
92.3810967108457
 20
-132.9097167636476
 10
92.11668563235278
 20
-132.9097167636476
 10
92.11668563235278
 20
-132.9097167636476
 10
92.09136418053619
 20
-133.0387355895702
 10
92.04054902212876
 20
-133.1296861103808
 10
91.94322507467045
 20
-133.2121961472525
 10
91.94322507467045
 20
-133.2121961472525
 10
91.82057967539555
 20
-133.1043646585642
 10
91.82057967539555
 20
-133.1043646585642
 10
91.95597192796588
 20
-132.9942938578104
 10
91.97922632249131
 20
-132.856834547949
 10
91.97922632249131
 20
-132.7827649950161
 10
91.97922632249131
 20
-132.7827649950161
 10
91.97922632249131
 20
-132.5395412537575
 10
91.97922632249131
 20
-132.5395412537575
 10
92.44879283713087
 20
-132.5395412537575
 10
92.61605222293974
 20
-132.4994058913543
 10
92.75988495944893
 20
-132.4570312168858
 10
92.75988495944893
 20
-132.4570312168858
 10
92.81914060179523
 20
-132.5944905267472
 10
92.81914060179523
 20
-132.5944905267472
 10
92.54835609665459
 20
-132.6644259650978
 10
92.23312985975423
 20
-132.6685600796801
 10
92.13149954293935
 20
-132.6685600796801
 10
92.13149954293935
 20
-132.6685600796801
 10
92.13149954293935
 20
-132.7850043070815
 10
92.13149954293935
 20
-132.7850043070815
 97
        0
 97
        0
 92
        1
 93
        1
 72
     4
 94
        3
 73
     0
 74
     1
 95
       17
 96
       13
 40
0.0
 40
0.0
 40
0.0
 40
0.0
 40
1.0
 40
1.0
 40
1.0
 40
2.0
 40
2.0
 40
2.0
 40
3.0
 40
3.0
 40
3.0
 40
4.0
 40
4.0
 40
4.0
 40
4.0
 10
92.24363740098423
 20
-134.1366875207193
 10
92.46360674771744
 20
-134.2488253787642
 10
92.73025713827577
 20
-134.2868936838762
 10
92.85927596419837
 20
-134.2975734798805
 10
92.85927596419837
 20
-134.2975734798805
 10
92.78951278062208
 20
-134.4519137576197
 10
92.78951278062208
 20
-134.4519137576197
 10
92.66893443863833
 20
-134.4370998470331
 10
92.40659041743655
 20
-134.3969644846299
 10
92.14217933894362
 20
-134.2508924360554
 10
92.14217933894362
 20
-134.2508924360554
 10
92.24363740098423
 20
-134.1366875207193
 10
92.24363740098423
 20
-134.1366875207193
 97
        0
 97
        0
 75
     2
 76
     1
 98
        0
  0
ENDBLK
  5
133
330
130
100
AcDbEntity
  8
0
100
AcDbBlockEnd
  0
ENDSEC
  0
SECTION
  2
ENTITIES
  0
SPLINE
  5
41
330
1F
100
AcDbEntity
  8
_U+30EC_U+30A4_U+30E4_U+30FC 1
 62
   179
420
  2234388
370
     9
100
AcDbSpline
210
0.0
220
0.0
230
1.0
 70
    11
 71
     3
 72
    17
 73
    13
 74
     0
 42
0.0000000001
 43
0.0000000001
 12
1.0
 22
0.0
 32
0.0
 13
1.0
 23
0.0
 33
0.0
 40
0.0
 40
0.0
 40
0.0
 40
0.0
 40
1.0
 40
1.0
 40
1.0
 40
2.0
 40
2.0
 40
2.0
 40
3.0
 40
3.0
 40
3.0
 40
4.0
 40
4.0
 40
4.0
 40
4.0
 10
93.7604321987143
 20
-163.4415955876661
 30
0.0
 10
93.7604321987143
 20
-163.4966309880429
 30
0.0
 10
93.80523458890764
 20
-163.541438761198
 30
0.0
 10
93.86026729780366
 20
-163.541438761198
 30
0.0
 10
93.91530000669967
 20
-163.541438761198
 30
0.0
 10
93.960102396893
 20
-163.4966309880429
 30
0.0
 10
93.960102396893
 20
-163.4415955876661
 30
0.0
 10
93.960102396893
 20
-163.386581719136
 30
0.0
 10
93.91530000669967
 20
-163.341773945981
 30
0.0
 10
93.86026729780366
 20
-163.341773945981
 30
0.0
 10
93.80523458890764
 20
-163.341773945981
 30
0.0
 10
93.7604321987143
 20
-163.386581719136
 30
0.0
 10
93.7604321987143
 20
-163.4415955876661
 30
0.0
  0
SPLINE
  5
42
330
1F
100
AcDbEntity
  8
_U+30EC_U+30A4_U+30E4_U+30FC 1
 62
   179
420
  2234388
370
     9
100
AcDbSpline
210
0.0
220
0.0
230
1.0
 70
    11
 71
     3
 72
    17
 73
    13
 74
     0
 42
0.0000000001
 43
0.0000000001
 12
1.0
 22
0.0
 32
0.0
 13
1.0
 23
0.0
 33
0.0
 40
0.0
 40
0.0
 40
0.0
 40
0.0
 40
1.0
 40
1.0
 40
1.0
 40
2.0
 40
2.0
 40
2.0
 40
3.0
 40
3.0
 40
3.0
 40
4.0
 40
4.0
 40
4.0
 40
4.0
 10
91.76057041841186
 20
-163.4415955876661
 30
0.0
 10
91.76057041841186
 20
-163.4966309880429
 30
0.0
 10
91.8053728086052
 20
-163.541438761198
 30
0.0
 10
91.8604055175012
 20
-163.541438761198
 30
0.0
 10
91.91614339437936
 20
-163.541438761198
 30
0.0
 10
91.9609457845727
 20
-163.4966309880429
 30
0.0
 10
91.9609457845727
 20
-163.4415955876661
 30
0.0
 10
91.9609457845727
 20
-163.386581719136
 30
0.0
 10
91.91614339437936
 20
-163.341773945981
 30
0.0
 10
91.8604055175012
 20
-163.341773945981
 30
0.0
 10
91.8053728086052
 20
-163.341773945981
 30
0.0
 10
91.76057041841186
 20
-163.386581719136
 30
0.0
 10
91.76057041841186
 20
-163.4415955876661
 30
0.0
  0
POLYLINE
  5
43
330
1F
100
AcDbEntity
  8
_U+30EC_U+30A4_U+30E4_U+30FC 1
 62
   179
420
  2234388
370
     9
100
AcDb2dPolyline
 66
     1
 10
0.0
 20
0.0
 30
0.0
  0
VERTEX
  5
44
330
43
100
AcDbEntity
  8
_U+30EC_U+30A4_U+30E4_U+30FC 1
 62
   179
420
  2234388
370
     9
100
AcDbVertex
100
AcDb2dVertex
 10
91.86051048525428
 20
-145.7858042034627
 30
0.0
  0
VERTEX
  5
45
330
43
100
AcDbEntity
  8
_U+30EC_U+30A4_U+30E4_U+30FC 1
 62
   179
420
  2234388
370
     9
100
AcDbVertex
100
AcDb2dVertex
 10
91.86051048525428
 20
-164.4417714025745
 30
0.0
  0
SEQEND
  5
46
330
43
100
AcDbEntity
  8
_U+30EC_U+30A4_U+30E4_U+30FC 1
 62
   179
420
  2234388
370
     9
  0
POLYLINE
  5
47
330
1F
100
AcDbEntity
  8
_U+30EC_U+30A4_U+30E4_U+30FC 1
 62
   179
420
  2234388
370
     9
100
AcDb2dPolyline
 66
     1
 10
0.0
 20
0.0
 30
0.0
  0
VERTEX
  5
48
330
47
100
AcDbEntity
  8
_U+30EC_U+30A4_U+30E4_U+30FC 1
 62
   179
420
  2234388
370
     9
100
AcDbVertex
100
AcDb2dVertex
 10
91.86051048525428
 20
-163.4415955876661
 30
0.0
  0
VERTEX
  5
49
330
47
100
AcDbEntity
  8
_U+30EC_U+30A4_U+30E4_U+30FC 1
 62
   179
420
  2234388
370
     9
100
AcDbVertex
100
AcDb2dVertex
 10
93.86040725480774
 20
-163.4415955876661
 30
0.0
  0
SEQEND
  5
4A
330
47
100
AcDbEntity
  8
_U+30EC_U+30A4_U+30E4_U+30FC 1
 62
   179
420
  2234388
370
     9
  0
POLYLINE
  5
4B
330
1F
100
AcDbEntity
  8
_U+30EC_U+30A4_U+30E4_U+30FC 1
 62
   179
420
  2234388
370
     9
100
AcDb2dPolyline
 66
     1
 10
0.0
 20
0.0
 30
0.0
  0
VERTEX
  5
4C
330
4B
100
AcDbEntity
  8
_U+30EC_U+30A4_U+30E4_U+30FC 1
 62
   179
420
  2234388
370
     9
100
AcDbVertex
100
AcDb2dVertex
 10
93.86037226555672
 20
-145.7858042034627
 30
0.0
  0
VERTEX
  5
4D
330
4B
100
AcDbEntity
  8
_U+30EC_U+30A4_U+30E4_U+30FC 1
 62
   179
420
  2234388
370
     9
100
AcDbVertex
100
AcDb2dVertex
 10
93.86037226555672
 20
-164.4417714025745
 30
0.0
  0
SEQEND
  5
4E
330
4B
100
AcDbEntity
  8
_U+30EC_U+30A4_U+30E4_U+30FC 1
 62
   179
420
  2234388
370
     9
  0
INSERT
  5
50
330
1F
100
AcDbEntity
  8
_U+30EC_U+30A4_U+30E4_U+30FC 1
100
AcDbBlockReference
  2
block 2
 10
0.0
 20
0.0
 30
0.0
  0
POLYLINE
  5
55
330
1F
100
AcDbEntity
  8
_U+30EC_U+30A4_U+30E4_U+30FC 1
 62
   179
420
  2234388
370
    25
100
AcDb2dPolyline
 66
     1
 10
0.0
 20
0.0
 30
0.0
  0
VERTEX
  5
56
330
55
100
AcDbEntity
  8
_U+30EC_U+30A4_U+30E4_U+30FC 1
 62
   179
420
  2234388
370
    25
100
AcDbVertex
100
AcDb2dVertex
 10
92.05824281722253
 20
-138.3914450405432
 30
0.0
  0
VERTEX
  5
57
330
55
100
AcDbEntity
  8
_U+30EC_U+30A4_U+30E4_U+30FC 1
 62
   179
420
  2234388
370
    25
100
AcDbVertex
100
AcDb2dVertex
 10
91.8455162454509
 20
-138.8754594243744
 30
0.0
  0
VERTEX
  5
58
330
55
100
AcDbEntity
  8
_U+30EC_U+30A4_U+30E4_U+30FC 1
 62
   179
420
  2234388
370
    25
100
AcDbVertex
100
AcDb2dVertex
 10
92.03284062098083
 20
-139.3697014354267
 30
0.0
  0
VERTEX
  5
59
330
55
100
AcDbEntity
  8
_U+30EC_U+30A4_U+30E4_U+30FC 1
 62
   179
420
  2234388
370
    25
100
AcDbVertex
100
AcDb2dVertex
 10
91.82046932468079
 20
-139.8544263702013
 30
0.0
  0
VERTEX
  5
5A
330
55
100
AcDbEntity
  8
_U+30EC_U+30A4_U+30E4_U+30FC 1
 62
   179
420
  2234388
370
    25
100
AcDbVertex
100
AcDb2dVertex
 10
92.00744111621934
 20
-140.3497234417463
 30
0.0
  0
VERTEX
  5
5B
330
55
100
AcDbEntity
  8
_U+30EC_U+30A4_U+30E4_U+30FC 1
 62
   179
420
  2234388
370
    25
100
AcDbVertex
100
AcDb2dVertex
 10
91.79471723592854
 20
-140.834082335126
 30
0.0
  0
VERTEX
  5
5C
330
55
100
AcDbEntity
  8
_U+30EC_U+30A4_U+30E4_U+30FC 1
 62
   179
420
  2234388
370
    25
100
AcDbVertex
100
AcDb2dVertex
 10
91.98204161145816
 20
-141.3290348971222
 30
0.0
  0
VERTEX
  5
5D
330
55
100
AcDbEntity
  8
_U+30EC_U+30A4_U+30E4_U+30FC 1
 62
   179
420
  2234388
370
    25
100
AcDbVertex
100
AcDb2dVertex
 10
91.76931773116738
 20
-141.813049280953
 30
0.0
  0
VERTEX
  5
5E
330
55
100
AcDbEntity
  8
_U+30EC_U+30A4_U+30E4_U+30FC 1
 62
   179
420
  2234388
370
    25
100
AcDbVertex
100
AcDb2dVertex
 10
91.95664210669699
 20
-142.3076358015545
 30
0.0
  0
VERTEX
  5
5F
330
55
100
AcDbEntity
  8
_U+30EC_U+30A4_U+30E4_U+30FC 1
 62
   179
420
  2234388
370
    25
100
AcDbVertex
100
AcDb2dVertex
 10
91.74391553492535
 20
-142.791650185385
 30
0.0
  0
VERTEX
  5
60
330
55
100
AcDbEntity
  8
_U+30EC_U+30A4_U+30E4_U+30FC 1
 62
   179
420
  2234388
370
    25
100
AcDbVertex
100
AcDb2dVertex
 10
91.9312426019358
 20
-143.2862367059862
 30
0.0
  0
VERTEX
  5
61
330
55
100
AcDbEntity
  8
_U+30EC_U+30A4_U+30E4_U+30FC 1
 62
   179
420
  2234388
370
    25
100
AcDbVertex
100
AcDb2dVertex
 10
91.71851603016418
 20
-143.7713061503094
 30
0.0
  0
VERTEX
  5
62
330
55
100
AcDbEntity
  8
_U+30EC_U+30A4_U+30E4_U+30FC 1
 62
   179
420
  2234388
370
    25
100
AcDbVertex
100
AcDb2dVertex
 10
91.90548782170272
 20
-144.2662587123062
 30
0.0
  0
VERTEX
  5
63
330
55
100
AcDbEntity
  8
_U+30EC_U+30A4_U+30E4_U+30FC 1
 62
   179
420
  2234388
370
    25
100
AcDbVertex
100
AcDb2dVertex
 10
91.693116525403
 20
-144.7509836470808
 30
0.0
  0
VERTEX
  5
64
330
55
100
AcDbEntity
  8
_U+30EC_U+30A4_U+30E4_U+30FC 1
 62
   179
420
  2234388
370
    25
100
AcDbVertex
100
AcDb2dVertex
 10
91.88044090093261
 20
-145.2455701676817
 30
0.0
  0
VERTEX
  5
65
330
55
100
AcDbEntity
  8
_U+30EC_U+30A4_U+30E4_U+30FC 1
 62
   179
420
  2234388
370
    25
100
AcDbVertex
100
AcDb2dVertex
 10
91.66771702064183
 20
-145.729929061061
 30
0.0
  0
VERTEX
  5
66
330
55
100
AcDbEntity
  8
_U+30EC_U+30A4_U+30E4_U+30FC 1
 62
   179
420
  2234388
370
    25
100
AcDbVertex
100
AcDb2dVertex
 10
91.85468881218037
 20
-146.2231160116213
 30
0.0
  0
VERTEX
  5
67
330
55
100
AcDbEntity
  8
_U+30EC_U+30A4_U+30E4_U+30FC 1
 62
   179
420
  2234388
370
    25
100
AcDbVertex
100
AcDb2dVertex
 10
91.64231751588066
 20
-146.7053647840159
 30
0.0
  0
VERTEX
  5
68
330
55
100
AcDbEntity
  8
_U+30EC_U+30A4_U+30E4_U+30FC 1
 62
   179
420
  2234388
370
    25
100
AcDbVertex
100
AcDb2dVertex
 10
91.82964189141028
 20
-147.1985517345766
 30
0.0
  0
VERTEX
  5
69
330
55
100
AcDbEntity
  8
_U+30EC_U+30A4_U+30E4_U+30FC 1
 62
   179
420
  2234388
370
    25
100
AcDbVertex
100
AcDb2dVertex
 10
91.61691531963864
 20
-147.6818555674632
 30
0.0
  0
VERTEX
  5
6A
330
55
100
AcDbEntity
  8
_U+30EC_U+30A4_U+30E4_U+30FC 1
 62
   179
420
  2234388
370
    25
100
AcDbVertex
100
AcDb2dVertex
 10
91.8042423866491
 20
-148.1757530689677
 30
0.0
  0
VERTEX
  5
6B
330
55
100
AcDbEntity
  8
_U+30EC_U+30A4_U+30E4_U+30FC 1
 62
   179
420
  2234388
370
    25
100
AcDbVertex
100
AcDb2dVertex
 10
91.59151581487747
 20
-148.6601119623467
 30
0.0
  0
VERTEX
  5
6C
330
55
100
AcDbEntity
  8
_U+30EC_U+30A4_U+30E4_U+30FC 1
 62
   179
420
  2234388
370
    25
100
AcDbVertex
100
AcDb2dVertex
 10
91.77884019040707
 20
-149.1561195848356
 30
0.0
  0
VERTEX
  5
6D
330
55
100
AcDbEntity
  8
_U+30EC_U+30A4_U+30E4_U+30FC 1
 62
   179
420
  2234388
370
    25
100
AcDbVertex
100
AcDb2dVertex
 10
91.56611631011661
 20
-149.6404784782149
 30
0.0
  0
VERTEX
  5
6E
330
55
100
AcDbEntity
  8
_U+30EC_U+30A4_U+30E4_U+30FC 1
 62
   179
420
  2234388
370
    25
100
AcDbVertex
100
AcDb2dVertex
 10
91.75308810165482
 20
-150.1350649988161
 30
0.0
  0
VERTEX
  5
6F
330
55
100
AcDbEntity
  8
_U+30EC_U+30A4_U+30E4_U+30FC 1
 62
   179
420
  2234388
370
    25
100
AcDbVertex
100
AcDb2dVertex
 10
91.54071680535512
 20
-150.6187348730984
 30
0.0
  0
VERTEX
  5
70
330
55
100
AcDbEntity
  8
_U+30EC_U+30A4_U+30E4_U+30FC 1
 62
   179
420
  2234388
370
    25
100
AcDbVertex
100
AcDb2dVertex
 10
91.72768859689366
 20
-151.112976884151
 30
0.0
  0
VERTEX
  5
71
330
55
100
AcDbEntity
  8
_U+30EC_U+30A4_U+30E4_U+30FC 1
 62
   179
420
  2234388
370
    25
100
AcDbVertex
100
AcDb2dVertex
 10
91.51531730059394
 20
-151.5969912679818
 30
0.0
  0
VERTEX
  5
72
330
55
100
AcDbEntity
  8
_U+30EC_U+30A4_U+30E4_U+30FC 1
 62
   179
420
  2234388
370
    25
100
AcDbVertex
100
AcDb2dVertex
 10
91.70228909213249
 20
-152.0922883395268
 30
0.0
  0
VERTEX
  5
73
330
55
100
AcDbEntity
  8
_U+30EC_U+30A4_U+30E4_U+30FC 1
 62
   179
420
  2234388
370
    25
100
AcDbVertex
100
AcDb2dVertex
 10
91.48991779583277
 20
-152.57735778385
 30
0.0
  0
VERTEX
  5
74
330
55
100
AcDbEntity
  8
_U+30EC_U+30A4_U+30E4_U+30FC 1
 62
   179
420
  2234388
370
    25
100
AcDbVertex
100
AcDb2dVertex
 10
91.6768895873713
 20
-153.0733654063389
 30
0.0
  0
VERTEX
  5
75
330
55
100
AcDbEntity
  8
_U+30EC_U+30A4_U+30E4_U+30FC 1
 62
   179
420
  2234388
370
    25
100
AcDbVertex
100
AcDb2dVertex
 10
91.46451559959074
 20
-153.5570137487744
 30
0.0
  0
VERTEX
  5
76
330
55
100
AcDbEntity
  8
_U+30EC_U+30A4_U+30E4_U+30FC 1
 62
   179
420
  2234388
370
    25
100
AcDbVertex
100
AcDb2dVertex
 10
91.6514873911293
 20
-154.0519663107709
 30
0.0
  0
VERTEX
  5
77
330
55
100
AcDbEntity
  8
_U+30EC_U+30A4_U+30E4_U+30FC 1
 62
   179
420
  2234388
370
    25
100
AcDbVertex
100
AcDb2dVertex
 10
91.43911609482957
 20
-154.5366912455455
 30
0.0
  0
VERTEX
  5
78
330
55
100
AcDbEntity
  8
_U+30EC_U+30A4_U+30E4_U+30FC 1
 62
   179
420
  2234388
370
    25
100
AcDbVertex
100
AcDb2dVertex
 10
91.62608788636811
 20
-155.0319883170905
 30
0.0
  0
VERTEX
  5
79
330
55
100
AcDbEntity
  8
_U+30EC_U+30A4_U+30E4_U+30FC 1
 62
   179
420
  2234388
370
    25
100
AcDbVertex
100
AcDb2dVertex
 10
91.41336400607733
 20
-155.5174022709622
 30
0.0
  0
VERTEX
  5
7A
330
55
100
AcDbEntity
  8
_U+30EC_U+30A4_U+30E4_U+30FC 1
 62
   179
420
  2234388
370
    25
100
AcDbVertex
100
AcDb2dVertex
 10
91.60068838160694
 20
-156.0123548329587
 30
0.0
  0
VERTEX
  5
7B
330
55
100
AcDbEntity
  8
_U+30EC_U+30A4_U+30E4_U+30FC 1
 62
   179
420
  2234388
370
    25
100
AcDbVertex
100
AcDb2dVertex
 10
91.38796450131615
 20
-156.4977687868304
 30
0.0
  0
VERTEX
  5
7C
330
55
100
AcDbEntity
  8
_U+30EC_U+30A4_U+30E4_U+30FC 1
 62
   179
420
  2234388
370
    25
100
AcDbVertex
100
AcDb2dVertex
 10
91.5749362928547
 20
-156.9934318997707
 30
0.0
  0
VERTEX
  5
7D
330
55
100
AcDbEntity
  8
_U+30EC_U+30A4_U+30E4_U+30FC 1
 62
   179
420
  2234388
370
    25
100
AcDbVertex
100
AcDb2dVertex
 10
91.36256499655498
 20
-157.4809559746272
 30
0.0
  0
VERTEX
  5
7E
330
55
100
AcDbEntity
  8
_U+30EC_U+30A4_U+30E4_U+30FC 1
 62
   179
420
  2234388
370
    25
100
AcDbVertex
100
AcDb2dVertex
 10
91.54953678809352
 20
-157.9780401894552
 30
0.0
  0
VERTEX
  5
7F
330
55
100
AcDbEntity
  8
_U+30EC_U+30A4_U+30E4_U+30FC 1
 62
   179
420
  2234388
370
    25
100
AcDbVertex
100
AcDb2dVertex
 10
91.33716280031295
 20
-158.4641646942707
 30
0.0
  0
VERTEX
  5
80
330
55
100
AcDbEntity
  8
_U+30EC_U+30A4_U+30E4_U+30FC 1
 62
   179
420
  2234388
370
    25
100
AcDbVertex
100
AcDb2dVertex
 10
91.5241345918515
 20
-158.9608613358566
 30
0.0
  0
VERTEX
  5
81
330
55
100
AcDbEntity
  8
_U+30EC_U+30A4_U+30E4_U+30FC 1
 62
   179
420
  2234388
370
    25
100
AcDbVertex
100
AcDb2dVertex
 10
91.31141071156071
 20
-159.4476963916159
 30
0.0
  0
VERTEX
  5
82
330
55
100
AcDbEntity
  8
_U+30EC_U+30A4_U+30E4_U+30FC 1
 62
   179
420
  2234388
370
    25
100
AcDbVertex
100
AcDb2dVertex
 10
91.49838250309926
 20
-159.9451251159925
 30
0.0
  0
VERTEX
  5
83
330
55
100
AcDbEntity
  8
_U+30EC_U+30A4_U+30E4_U+30FC 1
 62
   179
420
  2234388
370
    25
100
AcDbVertex
100
AcDb2dVertex
 10
91.28601120679954
 20
-160.4326491908489
 30
0.0
  0
VERTEX
  5
84
330
55
100
AcDbEntity
  8
_U+30EC_U+30A4_U+30E4_U+30FC 1
 62
   179
420
  2234388
370
    25
100
AcDbVertex
100
AcDb2dVertex
 10
91.47298299833808
 20
-160.9300779152254
 30
0.0
  0
VERTEX
  5
85
330
55
100
AcDbEntity
  8
_U+30EC_U+30A4_U+30E4_U+30FC 1
 62
   179
420
  2234388
370
    25
100
AcDbVertex
100
AcDb2dVertex
 10
91.2602591180473
 20
-161.4162024200409
 30
0.0
  0
VERTEX
  5
86
330
55
100
AcDbEntity
  8
_U+30EC_U+30A4_U+30E4_U+30FC 1
 62
   179
420
  2234388
370
    25
100
AcDbVertex
100
AcDb2dVertex
 10
91.44758349357691
 20
-161.9129205934736
 30
0.0
  0
VERTEX
  5
87
330
55
100
AcDbEntity
  8
_U+30EC_U+30A4_U+30E4_U+30FC 1
 62
   179
420
  2234388
370
    25
100
AcDbVertex
100
AcDb2dVertex
 10
91.23485692180527
 20
-162.3983345473453
 30
0.0
  0
VERTEX
  5
88
330
55
100
AcDbEntity
  8
_U+30EC_U+30A4_U+30E4_U+30FC 1
 62
   179
420
  2234388
370
    25
100
AcDbVertex
100
AcDb2dVertex
 10
91.42183140482467
 20
-162.8932871093418
 30
0.0
  0
VERTEX
  5
89
330
55
100
AcDbEntity
  8
_U+30EC_U+30A4_U+30E4_U+30FC 1
 62
   179
420
  2234388
370
    25
100
AcDbVertex
100
AcDb2dVertex
 10
91.2094574170441
 20
-163.3776460027211
 30
0.0
  0
SEQEND
  5
8A
330
55
100
AcDbEntity
  8
_U+30EC_U+30A4_U+30E4_U+30FC 1
 62
   179
420
  2234388
370
    25
  0
POLYLINE
  5
8B
330
1F
100
AcDbEntity
  8
_U+30EC_U+30A4_U+30E4_U+30FC 1
 62
   179
420
  2234388
370
    25
100
AcDb2dPolyline
 66
     1
 10
0.0
 20
0.0
 30
0.0
  0
VERTEX
  5
8C
330
8B
100
AcDbEntity
  8
_U+30EC_U+30A4_U+30E4_U+30FC 1
 62
   179
420
  2234388
370
    25
100
AcDbVertex
100
AcDb2dVertex
 10
91.3092952076143
 20
-163.3802944198754
 30
0.0
  0
VERTEX
  5
8D
330
8B
100
AcDbEntity
  8
_U+30EC_U+30A4_U+30E4_U+30FC 1
 62
   179
420
  2234388
370
    25
100
AcDbVertex
100
AcDb2dVertex
 10
90.90889167632199
 20
-163.3697222831051
 30
0.0
  0
SEQEND
  5
8E
330
8B
100
AcDbEntity
  8
_U+30EC_U+30A4_U+30E4_U+30FC 1
 62
   179
420
  2234388
370
    25
  0
POLYLINE
  5
8F
330
1F
100
AcDbEntity
  8
_U+30EC_U+30A4_U+30E4_U+30FC 1
 62
   179
420
  2234388
370
    25
100
AcDb2dPolyline
 66
     1
 10
0.0
 20
0.0
 30
0.0
  0
VERTEX
  5
90
330
8F
100
AcDbEntity
  8
_U+30EC_U+30A4_U+30E4_U+30FC 1
 62
   179
420
  2234388
370
    25
100
AcDbVertex
100
AcDb2dVertex
 10
90.9089643463052
 20
-163.3695930920244
 30
0.0
  0
VERTEX
  5
91
330
8F
100
AcDbEntity
  8
_U+30EC_U+30A4_U+30E4_U+30FC 1
 62
   179
420
  2234388
370
    25
100
AcDbVertex
100
AcDb2dVertex
 10
90.96364447120983
 20
-137.3695220603845
 30
0.0
  0
SEQEND
  5
92
330
8F
100
AcDbEntity
  8
_U+30EC_U+30A4_U+30E4_U+30FC 1
 62
   179
420
  2234388
370
    25
  0
POLYLINE
  5
93
330
1F
100
AcDbEntity
  8
_U+30EC_U+30A4_U+30E4_U+30FC 1
 62
   179
420
  2234388
370
    25
100
AcDb2dPolyline
 66
     1
 10
0.0
 20
0.0
 30
0.0
  0
VERTEX
  5
94
330
93
100
AcDbEntity
  8
_U+30EC_U+30A4_U+30E4_U+30FC 1
 62
   179
420
  2234388
370
    25
100
AcDbVertex
100
AcDb2dVertex
 10
93.98060071503025
 20
-144.5287534564351
 30
0.0
  0
VERTEX
  5
95
330
93
100
AcDbEntity
  8
_U+30EC_U+30A4_U+30E4_U+30FC 1
 62
   179
420
  2234388
370
    25
100
AcDbVertex
100
AcDb2dVertex
 10
94.51364580546637
 20
-144.715736013897
 30
0.0
  0
VERTEX
  5
96
330
93
100
AcDbEntity
  8
_U+30EC_U+30A4_U+30E4_U+30FC 1
 62
   179
420
  2234388
370
    25
100
AcDbVertex
100
AcDb2dVertex
 10
95.03752102065387
 20
-144.5033674090785
 30
0.0
  0
VERTEX
  5
97
330
93
100
AcDbEntity
  8
_U+30EC_U+30A4_U+30E4_U+30FC 1
 62
   179
420
  2234388
370
    25
100
AcDbVertex
100
AcDb2dVertex
 10
95.57092138656192
 20
-144.6903284346933
 30
0.0
  0
VERTEX
  5
98
330
93
100
AcDbEntity
  8
_U+30EC_U+30A4_U+30E4_U+30FC 1
 62
   179
420
  2234388
370
    25
100
AcDbVertex
100
AcDb2dVertex
 10
96.09550176973156
 20
-144.4779598298747
 30
0.0
  0
VERTEX
  5
99
330
93
100
AcDbEntity
  8
_U+30EC_U+30A4_U+30E4_U+30FC 1
 62
   179
420
  2234388
370
    25
100
AcDbVertex
100
AcDb2dVertex
 10
96.62925471963067
 20
-144.6649423873367
 30
0.0
  0
VERTEX
  5
9A
330
93
100
AcDbEntity
  8
_U+30EC_U+30A4_U+30E4_U+30FC 1
 62
   179
420
  2234388
370
    25
100
AcDbVertex
100
AcDb2dVertex
 10
97.15312993481817
 20
-144.4525737825175
 30
0.0
  0
VERTEX
  5
9B
330
93
100
AcDbEntity
  8
_U+30EC_U+30A4_U+30E4_U+30FC 1
 62
   179
420
  2234388
370
    25
100
AcDbVertex
100
AcDb2dVertex
 10
97.68617771673514
 20
-144.639534808133
 30
0.0
  0
VERTEX
  5
9C
330
93
100
AcDbEntity
  8
_U+30EC_U+30A4_U+30E4_U+30FC 1
 62
   179
420
  2234388
370
    25
100
AcDbVertex
100
AcDb2dVertex
 10
98.21005293192265
 20
-144.4271662033138
 30
0.0
  0
VERTEX
  5
9D
330
93
100
AcDbEntity
  8
_U+30EC_U+30A4_U+30E4_U+30FC 1
 62
   179
420
  2234388
370
    25
100
AcDbVertex
100
AcDb2dVertex
 10
98.74345060634984
 20
-144.6141272289292
 30
0.0
  0
VERTEX
  5
9E
330
93
100
AcDbEntity
  8
_U+30EC_U+30A4_U+30E4_U+30FC 1
 62
   179
420
  2234388
370
    25
100
AcDbVertex
100
AcDb2dVertex
 10
99.26732582153734
 20
-144.4017586241101
 30
0.0
  0
VERTEX
  5
9F
330
93
100
AcDbEntity
  8
_U+30EC_U+30A4_U+30E4_U+30FC 1
 62
   179
420
  2234388
370
    25
100
AcDbVertex
100
AcDb2dVertex
 10
99.80143404690837
 20
-144.588741181572
 30
0.0
  0
VERTEX
  5
A0
330
93
100
AcDbEntity
  8
_U+30EC_U+30A4_U+30E4_U+30FC 1
 62
   179
420
  2234388
370
    25
100
AcDbVertex
100
AcDb2dVertex
 10
100.3256591546061
 20
-144.3760065353578
 30
0.0
  0
VERTEX
  5
A1
330
93
100
AcDbEntity
  8
_U+30EC_U+30A4_U+30E4_U+30FC 1
 62
   179
420
  2234388
370
    25
100
AcDbVertex
100
AcDb2dVertex
 10
100.8594121045052
 20
-144.5633336023683
 30
0.0
  0
VERTEX
  5
A2
330
93
100
AcDbEntity
  8
_U+30EC_U+30A4_U+30E4_U+30FC 1
 62
   179
420
  2234388
370
    25
100
AcDbVertex
100
AcDb2dVertex
 10
101.3832873196927
 20
-144.3509649975494
 30
0.0
  0
VERTEX
  5
A3
330
93
100
AcDbEntity
  8
_U+30EC_U+30A4_U+30E4_U+30FC 1
 62
   179
420
  2234388
370
    25
100
AcDbVertex
100
AcDb2dVertex
 10
101.9166849941199
 20
-144.5379260231646
 30
0.0
  0
VERTEX
  5
A4
330
93
100
AcDbEntity
  8
_U+30EC_U+30A4_U+30E4_U+30FC 1
 62
   179
420
  2234388
370
    25
100
AcDbVertex
100
AcDb2dVertex
 10
102.4409154847793
 20
-144.3252129087972
 30
0.0
  0
VERTEX
  5
A5
330
93
100
AcDbEntity
  8
_U+30EC_U+30A4_U+30E4_U+30FC 1
 62
   179
420
  2234388
370
    25
100
AcDbVertex
100
AcDb2dVertex
 10
102.9750183271886
 20
-144.5125399758076
 30
0.0
  0
VERTEX
  5
A6
330
93
100
AcDbEntity
  8
_U+30EC_U+30A4_U+30E4_U+30FC 1
 62
   179
420
  2234388
370
    25
100
AcDbVertex
100
AcDb2dVertex
 10
103.4971333139017
 20
-144.2998053295935
 30
0.0
  0
VERTEX
  5
A7
330
93
100
AcDbEntity
  8
_U+30EC_U+30A4_U+30E4_U+30FC 1
 62
   179
420
  2234388
370
    25
100
AcDbVertex
100
AcDb2dVertex
 10
104.0291206523646
 20
-144.4871323966039
 30
0.0
  0
VERTEX
  5
A8
330
93
100
AcDbEntity
  8
_U+30EC_U+30A4_U+30E4_U+30FC 1
 62
   179
420
  2234388
370
    25
100
AcDbVertex
100
AcDb2dVertex
 10
104.551935424098
 20
-144.2744192822365
 30
0.0
  0
VERTEX
  5
A9
330
93
100
AcDbEntity
  8
_U+30EC_U+30A4_U+30E4_U+30FC 1
 62
   179
420
  2234388
370
    25
100
AcDbVertex
100
AcDb2dVertex
 10
105.0856883739971
 20
-144.461746349247
 30
0.0
  0
VERTEX
  5
AA
330
93
100
AcDbEntity
  8
_U+30EC_U+30A4_U+30E4_U+30FC 1
 62
   179
420
  2234388
370
    25
100
AcDbVertex
100
AcDb2dVertex
 10
105.6102687571668
 20
-144.2490117030328
 30
0.0
  0
VERTEX
  5
AB
330
93
100
AcDbEntity
  8
_U+30EC_U+30A4_U+30E4_U+30FC 1
 62
   179
420
  2234388
370
    25
100
AcDbVertex
100
AcDb2dVertex
 10
106.1440217070659
 20
-144.4359942604947
 30
0.0
  0
VERTEX
  5
AC
330
93
100
AcDbEntity
  8
_U+30EC_U+30A4_U+30E4_U+30FC 1
 62
   179
420
  2234388
370
    25
100
AcDbVertex
100
AcDb2dVertex
 10
106.6671917542712
 20
-144.2236041238291
 30
0.0
  0
VERTEX
  5
AD
330
93
100
AcDbEntity
  8
_U+30EC_U+30A4_U+30E4_U+30FC 1
 62
   179
420
  2234388
370
    25
100
AcDbVertex
100
AcDb2dVertex
 10
107.2002395361882
 20
-144.4109311908395
 30
0.0
  0
VERTEX
  5
AE
330
93
100
AcDbEntity
  8
_U+30EC_U+30A4_U+30E4_U+30FC 1
 62
   179
420
  2234388
370
    25
100
AcDbVertex
100
AcDb2dVertex
 10
107.7234095833936
 20
-144.1982180764725
 30
0.0
  0
VERTEX
  5
AF
330
93
100
AcDbEntity
  8
_U+30EC_U+30A4_U+30E4_U+30FC 1
 62
   179
420
  2234388
370
    25
100
AcDbVertex
100
AcDb2dVertex
 10
108.2564573653106
 20
-144.3855451434829
 30
0.0
  0
VERTEX
  5
B0
330
93
100
AcDbEntity
  8
_U+30EC_U+30A4_U+30E4_U+30FC 1
 62
   179
420
  2234388
370
    25
100
AcDbVertex
100
AcDb2dVertex
 10
108.7806824730083
 20
-144.1728104972688
 30
0.0
  0
VERTEX
  5
B1
330
93
100
AcDbEntity
  8
_U+30EC_U+30A4_U+30E4_U+30FC 1
 62
   179
420
  2234388
370
    25
100
AcDbVertex
100
AcDb2dVertex
 10
109.3154958663614
 20
-144.3597930547307
 30
0.0
  0
VERTEX
  5
B2
330
93
100
AcDbEntity
  8
_U+30EC_U+30A4_U+30E4_U+30FC 1
 62
   179
420
  2234388
370
    25
100
AcDbVertex
100
AcDb2dVertex
 10
109.8397263570209
 20
-144.147402918065
 30
0.0
  0
VERTEX
  5
B3
330
93
100
AcDbEntity
  8
_U+30EC_U+30A4_U+30E4_U+30FC 1
 62
   179
420
  2234388
370
    25
100
AcDbVertex
100
AcDb2dVertex
 10
110.3731240314481
 20
-144.334385475527
 30
0.0
  0
VERTEX
  5
B4
330
93
100
AcDbEntity
  8
_U+30EC_U+30A4_U+30E4_U+30FC 1
 62
   179
420
  2234388
370
    25
100
AcDbVertex
100
AcDb2dVertex
 10
110.8969992466356
 20
-144.1220168707078
 30
0.0
  0
VERTEX
  5
B5
330
93
100
AcDbEntity
  8
_U+30EC_U+30A4_U+30E4_U+30FC 1
 62
   179
420
  2234388
370
    25
100
AcDbVertex
100
AcDb2dVertex
 10
111.4314573645168
 20
-144.3089778963233
 30
0.0
  0
VERTEX
  5
B6
330
93
100
AcDbEntity
  8
_U+30EC_U+30A4_U+30E4_U+30FC 1
 62
   179
420
  2234388
370
    25
100
AcDbVertex
100
AcDb2dVertex
 10
111.9563930231584
 20
-144.0962647819555
 30
0.0
  0
VERTEX
  5
B7
330
93
100
AcDbEntity
  8
_U+30EC_U+30A4_U+30E4_U+30FC 1
 62
   179
420
  2234388
370
    25
100
AcDbVertex
100
AcDb2dVertex
 10
112.4904958655677
 20
-144.283591848966
 30
0.0
  0
VERTEX
  5
B8
330
93
100
AcDbEntity
  8
_U+30EC_U+30A4_U+30E4_U+30FC 1
 62
   179
420
  2234388
370
    25
100
AcDbVertex
100
AcDb2dVertex
 10
113.0154315242092
 20
-144.0712017123003
 30
0.0
  0
VERTEX
  5
B9
330
93
100
AcDbEntity
  8
_U+30EC_U+30A4_U+30E4_U+30FC 1
 62
   179
420
  2234388
370
    25
100
AcDbVertex
100
AcDb2dVertex
 10
113.5502395346007
 20
-144.2581842697623
 30
0.0
  0
VERTEX
  5
BA
330
93
100
AcDbEntity
  8
_U+30EC_U+30A4_U+30E4_U+30FC 1
 62
   179
420
  2234388
370
    25
100
AcDbVertex
100
AcDb2dVertex
 10
114.0748199177704
 20
-144.0454496235481
 30
0.0
  0
VERTEX
  5
BB
330
93
100
AcDbEntity
  8
_U+30EC_U+30A4_U+30E4_U+30FC 1
 62
   179
420
  2234388
370
    25
100
AcDbVertex
100
AcDb2dVertex
 10
114.6099832036337
 20
-144.2327766905586
 30
0.0
  0
VERTEX
  5
BC
330
93
100
AcDbEntity
  8
_U+30EC_U+30A4_U+30E4_U+30FC 1
 62
   179
420
  2234388
370
    25
100
AcDbVertex
100
AcDb2dVertex
 10
115.1349188622753
 20
-144.0200635761912
 30
0.0
  0
VERTEX
  5
BD
330
93
100
AcDbEntity
  8
_U+30EC_U+30A4_U+30E4_U+30FC 1
 62
   179
420
  2234388
370
    25
100
AcDbVertex
100
AcDb2dVertex
 10
115.6700821481387
 20
-144.2070246018063
 30
0.0
  0
VERTEX
  5
BE
330
93
100
AcDbEntity
  8
_U+30EC_U+30A4_U+30E4_U+30FC 1
 62
   179
420
  2234388
370
    25
100
AcDbVertex
100
AcDb2dVertex
 10
116.1943072558364
 20
-143.9946559969875
 30
0.0
  0
VERTEX
  5
BF
330
93
100
AcDbEntity
  8
_U+30EC_U+30A4_U+30E4_U+30FC 1
 62
   179
420
  2234388
370
    25
100
AcDbVertex
100
AcDb2dVertex
 10
116.7280655886972
 20
-144.1816385544494
 30
0.0
  0
VERTEX
  5
C0
330
93
100
AcDbEntity
  8
_U+30EC_U+30A4_U+30E4_U+30FC 1
 62
   179
420
  2234388
370
    25
100
AcDbVertex
100
AcDb2dVertex
 10
117.2540563078311
 20
-143.9692484177837
 30
0.0
  0
VERTEX
  5
C1
330
93
100
AcDbEntity
  8
_U+30EC_U+30A4_U+30E4_U+30FC 1
 62
   179
420
  2234388
370
    25
100
AcDbVertex
100
AcDb2dVertex
 10
117.7885144257124
 20
-144.1562309752457
 30
0.0
  0
VERTEX
  5
C2
330
93
100
AcDbEntity
  8
_U+30EC_U+30A4_U+30E4_U+30FC 1
 62
   179
420
  2234388
370
    25
100
AcDbVertex
100
AcDb2dVertex
 10
118.3141498693744
 20
-143.9434963290315
 30
0.0
  0
VERTEX
  5
C3
330
93
100
AcDbEntity
  8
_U+30EC_U+30A4_U+30E4_U+30FC 1
 62
   179
420
  2234388
370
    25
100
AcDbVertex
100
AcDb2dVertex
 10
118.8500237061816
 20
-144.130823396042
 30
0.0
  0
VERTEX
  5
C4
330
93
100
AcDbEntity
  8
_U+30EC_U+30A4_U+30E4_U+30FC 1
 62
   179
420
  2234388
370
    25
100
AcDbVertex
100
AcDb2dVertex
 10
119.3756591498436
 20
-143.9181102816746
 30
0.0
  0
VERTEX
  5
C5
330
93
100
AcDbEntity
  8
_U+30EC_U+30A4_U+30E4_U+30FC 1
 62
   179
420
  2234388
370
    25
100
AcDbVertex
100
AcDb2dVertex
 10
119.911882879161
 20
-144.1050713072897
 30
0.0
  0
VERTEX
  5
C6
330
93
100
AcDbEntity
  8
_U+30EC_U+30A4_U+30E4_U+30FC 1
 62
   179
420
  2234388
370
    25
100
AcDbVertex
100
AcDb2dVertex
 10
120.4396392097311
 20
-143.8923581929223
 30
0.0
  0
VERTEX
  5
C7
330
93
100
AcDbEntity
  8
_U+30EC_U+30A4_U+30E4_U+30FC 1
 62
   179
420
  2234388
370
    25
100
AcDbVertex
100
AcDb2dVertex
 10
120.9769179995409
 20
-144.0796852599328
 30
0.0
  0
SEQEND
  5
C8
330
93
100
AcDbEntity
  8
_U+30EC_U+30A4_U+30E4_U+30FC 1
 62
   179
420
  2234388
370
    25
  0
POLYLINE
  5
C9
330
1F
100
AcDbEntity
  8
_U+30EC_U+30A4_U+30E4_U+30FC 1
 62
   179
420
  2234388
370
    25
100
AcDb2dPolyline
 66
     1
 10
0.0
 20
0.0
 30
0.0
  0
VERTEX
  5
CA
330
C9
100
AcDbEntity
  8
_U+30EC_U+30A4_U+30E4_U+30FC 1
 62
   179
420
  2234388
370
    25
100
AcDbVertex
100
AcDb2dVertex
 10
120.9744849008545
 20
-143.9795837042395
 30
0.0
  0
VERTEX
  5
CB
330
C9
100
AcDbEntity
  8
_U+30EC_U+30A4_U+30E4_U+30FC 1
 62
   179
420
  2234388
370
    25
100
AcDbVertex
100
AcDb2dVertex
 10
120.9642518906709
 20
-143.5791990133131
 30
0.0
  0
SEQEND
  5
CC
330
C9
100
AcDbEntity
  8
_U+30EC_U+30A4_U+30E4_U+30FC 1
 62
   179
420
  2234388
370
    25
  0
POLYLINE
  5
CD
330
1F
100
AcDbEntity
  8
_U+30EC_U+30A4_U+30E4_U+30FC 1
 62
   179
420
  2234388
370
    25
100
AcDb2dPolyline
 66
     1
 10
0.0
 20
0.0
 30
0.0
  0
VERTEX
  5
CE
330
CD
100
AcDbEntity
  8
_U+30EC_U+30A4_U+30E4_U+30FC 1
 62
   179
420
  2234388
370
    25
100
AcDbVertex
100
AcDb2dVertex
 10
120.9641496143987
 20
-143.5792851407003
 30
0.0
  0
VERTEX
  5
CF
330
CD
100
AcDbEntity
  8
_U+30EC_U+30A4_U+30E4_U+30FC 1
 62
   179
420
  2234388
370
    25
100
AcDbVertex
100
AcDb2dVertex
 10
94.00769316124472
 20
-143.6339760315286
 30
0.0
  0
SEQEND
  5
D0
330
CD
100
AcDbEntity
  8
_U+30EC_U+30A4_U+30E4_U+30FC 1
 62
   179
420
  2234388
370
    25
  0
SPLINE
  5
D1
330
1F
100
AcDbEntity
  8
_U+30EC_U+30A4_U+30E4_U+30FC 1
 62
   179
420
  2234388
370
     9
100
AcDbSpline
210
0.0
220
0.0
230
1.0
 70
    11
 71
     3
 72
    17
 73
    13
 74
     0
 42
0.0000000001
 43
0.0000000001
 12
1.0
 22
0.0
 32
0.0
 13
1.0
 23
0.0
 33
0.0
 40
0.0
 40
0.0
 40
0.0
 40
0.0
 40
1.0
 40
1.0
 40
1.0
 40
2.0
 40
2.0
 40
2.0
 40
3.0
 40
3.0
 40
3.0
 40
4.0
 40
4.0
 40
4.0
 40
4.0
 10
94.9635079888188
 20
-133.3700891797109
 30
0.0
 10
94.9635079888188
 20
-133.4251245800877
 30
0.0
 10
95.00831037901214
 20
-133.4699323532431
 30
0.0
 10
95.06334308790817
 20
-133.4699323532431
 30
0.0
 10
95.11837579680417
 20
-133.4699323532431
 30
0.0
 10
95.16317818699751
 20
-133.4251245800877
 30
0.0
 10
95.16317818699751
 20
-133.3700891797109
 30
0.0
 10
95.16317818699751
 20
-133.3150753111811
 30
0.0
 10
95.11837579680417
 20
-133.2702675380258
 30
0.0
 10
95.06334308790817
 20
-133.2702675380258
 30
0.0
 10
95.00831037901214
 20
-133.2702675380258
 30
0.0
 10
94.9635079888188
 20
-133.3150753111811
 30
0.0
 10
94.9635079888188
 20
-133.3700891797109
 30
0.0
  0
SPLINE
  5
D2
330
1F
100
AcDbEntity
  8
_U+30EC_U+30A4_U+30E4_U+30FC 1
 62
   179
420
  2234388
370
     9
100
AcDbSpline
210
0.0
220
0.0
230
1.0
 70
    11
 71
     3
 72
    17
 73
    13
 74
     0
 42
0.0000000001
 43
0.0000000001
 12
1.0
 22
0.0
 32
0.0
 13
1.0
 23
0.0
 33
0.0
 40
0.0
 40
0.0
 40
0.0
 40
0.0
 40
1.0
 40
1.0
 40
1.0
 40
2.0
 40
2.0
 40
2.0
 40
3.0
 40
3.0
 40
3.0
 40
4.0
 40
4.0
 40
4.0
 40
4.0
 10
85.83707862403499
 20
-137.4693867657629
 30
0.0
 10
85.83707862403499
 20
-137.5244221661397
 30
0.0
 10
85.88188101422864
 20
-137.5692299392948
 30
0.0
 10
85.93691372312433
 20
-137.5692299392948
 30
0.0
 10
85.99194643202036
 20
-137.5692299392948
 30
0.0
 10
86.0367488222137
 20
-137.5244221661397
 30
0.0
 10
86.0367488222137
 20
-137.4693867657629
 30
0.0
 10
86.0367488222137
 20
-137.413662346289
 30
0.0
 10
85.99194643202036
 20
-137.3695651240778
 30
0.0
 10
85.93691372312433
 20
-137.3695651240778
 30
0.0
 10
85.88188101422864
 20
-137.3695651240778
 30
0.0
 10
85.83707862403499
 20
-137.413662346289
 30
0.0
 10
85.83707862403499
 20
-137.4693867657629
 30
0.0
  0
SPLINE
  5
D3
330
1F
100
AcDbEntity
  8
_U+30EC_U+30A4_U+30E4_U+30FC 1
 62
   179
420
  2234388
370
     9
100
AcDbSpline
210
0.0
220
0.0
230
1.0
 70
    11
 71
     3
 72
    17
 73
    13
 74
     0
 42
0.0000000001
 43
0.0000000001
 12
1.0
 22
0.0
 32
0.0
 13
1.0
 23
0.0
 33
0.0
 40
0.0
 40
0.0
 40
0.0
 40
0.0
 40
1.0
 40
1.0
 40
1.0
 40
2.0
 40
2.0
 40
2.0
 40
3.0
 40
3.0
 40
3.0
 40
4.0
 40
4.0
 40
4.0
 40
4.0
 10
120.9634444464166
 20
-133.3700891797109
 30
0.0
 10
120.9634444464166
 20
-133.4251245800877
 30
0.0
 10
121.0082468366099
 20
-133.4699323532431
 30
0.0
 10
121.0632768540251
 20
-133.4699323532431
 30
0.0
 10
121.118312254402
 20
-133.4699323532431
 30
0.0
 10
121.1631146445953
 20
-133.4251245800877
 30
0.0
 10
121.1631146445953
 20
-133.3700891797109
 30
0.0
 10
121.1631146445953
 20
-133.3150753111811
 30
0.0
 10
121.118312254402
 20
-133.2702675380258
 30
0.0
 10
121.0632768540251
 20
-133.2702675380258
 30
0.0
 10
121.0082468366099
 20
-133.2702675380258
 30
0.0
 10
120.9634444464166
 20
-133.3150753111811
 30
0.0
 10
120.9634444464166
 20
-133.3700891797109
 30
0.0
  0
SPLINE
  5
D4
330
1F
100
AcDbEntity
  8
_U+30EC_U+30A4_U+30E4_U+30FC 1
 62
   179
420
  2234388
370
     9
100
AcDbSpline
210
0.0
220
0.0
230
1.0
 70
    11
 71
     3
 72
    17
 73
    13
 74
     0
 42
0.0000000001
 43
0.0000000001
 12
1.0
 22
0.0
 32
0.0
 13
1.0
 23
0.0
 33
0.0
 40
0.0
 40
0.0
 40
0.0
 40
0.0
 40
1.0
 40
1.0
 40
1.0
 40
2.0
 40
2.0
 40
2.0
 40
3.0
 40
3.0
 40
3.0
 40
4.0
 40
4.0
 40
4.0
 40
4.0
 10
85.83707862403499
 20
-163.4691778833949
 30
0.0
 10
85.83707862403499
 20
-163.5242132837717
 30
0.0
 10
85.88188101422864
 20
-163.5690210569268
 30
0.0
 10
85.93691372312433
 20
-163.5690210569268
 30
0.0
 10
85.99194643202036
 20
-163.5690210569268
 30
0.0
 10
86.0367488222137
 20
-163.5242132837717
 30
0.0
 10
86.0367488222137
 20
-163.4691778833949
 30
0.0
 10
86.0367488222137
 20
-163.4141640148648
 30
0.0
 10
85.99194643202036
 20
-163.3693562417097
 30
0.0
 10
85.93691372312433
 20
-163.3693562417097
 30
0.0
 10
85.88188101422864
 20
-163.3693562417097
 30
0.0
 10
85.83707862403499
 20
-163.4141640148648
 30
0.0
 10
85.83707862403499
 20
-163.4691778833949
 30
0.0
  0
POLYLINE
  5
D5
330
1F
100
AcDbEntity
  8
_U+30EC_U+30A4_U+30E4_U+30FC 1
 62
   179
420
  2234388
370
     9
100
AcDb2dPolyline
 66
     1
 10
0.0
 20
0.0
 30
0.0
  0
VERTEX
  5
D6
330
D5
100
AcDbEntity
  8
_U+30EC_U+30A4_U+30E4_U+30FC 1
 62
   179
420
  2234388
370
     9
100
AcDbVertex
100
AcDb2dVertex
 10
121.063384513259
 20
-133.3700891797109
 30
0.0
  0
VERTEX
  5
D7
330
D5
100
AcDbEntity
  8
_U+30EC_U+30A4_U+30E4_U+30FC 1
 62
   179
420
  2234388
370
     9
100
AcDbVertex
100
AcDb2dVertex
 10
95.06331079013799
 20
-133.3700891797109
 30
0.0
  0
SEQEND
  5
D8
330
D5
100
AcDbEntity
  8
_U+30EC_U+30A4_U+30E4_U+30FC 1
 62
   179
420
  2234388
370
     9
  0
POLYLINE
  5
D9
330
1F
100
AcDbEntity
  8
_U+30EC_U+30A4_U+30E4_U+30FC 1
 62
   179
420
  2234388
370
     9
100
AcDb2dPolyline
 66
     1
 10
0.0
 20
0.0
 30
0.0
  0
VERTEX
  5
DA
330
D9
100
AcDbEntity
  8
_U+30EC_U+30A4_U+30E4_U+30FC 1
 62
   179
420
  2234388
370
     9
100
AcDbVertex
100
AcDb2dVertex
 10
121.063384513259
 20
-135.630050286188
 30
0.0
  0
VERTEX
  5
DB
330
D9
100
AcDbEntity
  8
_U+30EC_U+30A4_U+30E4_U+30FC 1
 62
   179
420
  2234388
370
     9
100
AcDbVertex
100
AcDb2dVertex
 10
121.063384513259
 20
-132.3703870654317
 30
0.0
  0
SEQEND
  5
DC
330
D9
100
AcDbEntity
  8
_U+30EC_U+30A4_U+30E4_U+30FC 1
 62
   179
420
  2234388
370
     9
  0
POLYLINE
  5
DD
330
1F
100
AcDbEntity
  8
_U+30EC_U+30A4_U+30E4_U+30FC 1
 62
   179
420
  2234388
370
     9
100
AcDb2dPolyline
 66
     1
 10
0.0
 20
0.0
 30
0.0
  0
VERTEX
  5
DE
330
DD
100
AcDbEntity
  8
_U+30EC_U+30A4_U+30E4_U+30FC 1
 62
   179
420
  2234388
370
     9
100
AcDbVertex
100
AcDb2dVertex
 10
95.06341575789105
 20
-135.4301916843502
 30
0.0
  0
VERTEX
  5
DF
330
DD
100
AcDbEntity
  8
_U+30EC_U+30A4_U+30E4_U+30FC 1
 62
   179
420
  2234388
370
     9
100
AcDbVertex
100
AcDb2dVertex
 10
95.06341575789105
 20
-132.3702148106574
 30
0.0
  0
SEQEND
  5
E0
330
DD
100
AcDbEntity
  8
_U+30EC_U+30A4_U+30E4_U+30FC 1
 62
   179
420
  2234388
370
     9
  0
INSERT
  5
E2
330
1F
100
AcDbEntity
  8
_U+30EC_U+30A4_U+30E4_U+30FC 1
100
AcDbBlockReference
  2
block 3
 10
0.0
 20
0.0
 30
0.0
  0
SPLINE
  5
EA
330
1F
100
AcDbEntity
  8
_U+30EC_U+30A4_U+30E4_U+30FC 1
 62
   179
420
  2234388
370
     9
100
AcDbSpline
210
0.0
220
0.0
230
1.0
 70
    11
 71
     3
 72
    17
 73
    13
 74
     0
 42
0.0000000001
 43
0.0000000001
 12
1.0
 22
0.0
 32
0.0
 13
1.0
 23
0.0
 33
0.0
 40
0.0
 40
0.0
 40
0.0
 40
0.0
 40
1.0
 40
1.0
 40
1.0
 40
2.0
 40
2.0
 40
2.0
 40
3.0
 40
3.0
 40
3.0
 40
4.0
 40
4.0
 40
4.0
 40
4.0
 10
123.9104060393078
 20
-143.5792851407003
 30
0.0
 10
123.965436056723
 20
-143.5792851407003
 30
0.0
 10
124.0102384469163
 20
-143.534498899392
 30
0.0
 10
124.0102384469163
 20
-143.4794634990151
 30
0.0
 10
124.0102384469163
 20
-143.4244280986383
 30
0.0
 10
123.965436056723
 20
-143.3796203254832
 30
0.0
 10
123.9104060393078
 20
-143.3796203254832
 30
0.0
 10
123.8553706389309
 20
-143.3796203254832
 30
0.0
 10
123.8105682487376
 20
-143.4244280986383
 30
0.0
 10
123.8105682487376
 20
-143.4794634990151
 30
0.0
 10
123.8105682487376
 20
-143.534498899392
 30
0.0
 10
123.8553706389309
 20
-143.5792851407003
 30
0.0
 10
123.9104060393078
 20
-143.5792851407003
 30
0.0
  0
SPLINE
  5
EB
330
1F
100
AcDbEntity
  8
_U+30EC_U+30A4_U+30E4_U+30FC 1
 62
   179
420
  2234388
370
     9
100
AcDbSpline
210
0.0
220
0.0
230
1.0
 70
    11
 71
     3
 72
    17
 73
    13
 74
     0
 42
0.0000000001
 43
0.0000000001
 12
1.0
 22
0.0
 32
0.0
 13
1.0
 23
0.0
 33
0.0
 40
0.0
 40
0.0
 40
0.0
 40
0.0
 40
1.0
 40
1.0
 40
1.0
 40
2.0
 40
2.0
 40
2.0
 40
3.0
 40
3.0
 40
3.0
 40
4.0
 40
4.0
 40
4.0
 40
4.0
 10
123.9104060393078
 20
-137.5796298212909
 30
0.0
 10
123.965436056723
 20
-137.5796298212909
 30
0.0
 10
124.0102384469163
 20
-137.5348435799826
 30
0.0
 10
124.0102384469163
 20
-137.4794421382104
 30
0.0
 10
124.0102384469163
 20
-137.4244282696804
 30
0.0
 10
123.965436056723
 20
-137.3796204965253
 30
0.0
 10
123.9104060393078
 20
-137.3796204965253
 30
0.0
 10
123.8553706389309
 20
-137.3796204965253
 30
0.0
 10
123.8105682487376
 20
-137.4244282696804
 30
0.0
 10
123.8105682487376
 20
-137.4794421382104
 30
0.0
 10
123.8105682487376
 20
-137.5348435799826
 30
0.0
 10
123.8553706389309
 20
-137.5796298212909
 30
0.0
 10
123.9104060393078
 20
-137.5796298212909
 30
0.0
  0
POLYLINE
  5
EC
330
1F
100
AcDbEntity
  8
_U+30EC_U+30A4_U+30E4_U+30FC 1
 62
   179
420
  2234388
370
     9
100
AcDb2dPolyline
 66
     1
 10
0.0
 20
0.0
 30
0.0
  0
VERTEX
  5
ED
330
EC
100
AcDbEntity
  8
_U+30EC_U+30A4_U+30E4_U+30FC 1
 62
   179
420
  2234388
370
     9
100
AcDbVertex
100
AcDb2dVertex
 10
123.9104060393078
 20
-137.4793344789769
 30
0.0
  0
VERTEX
  5
EE
330
EC
100
AcDbEntity
  8
_U+30EC_U+30A4_U+30E4_U+30FC 1
 62
   179
420
  2234388
370
     9
100
AcDbVertex
100
AcDb2dVertex
 10
123.9104060393078
 20
-143.4793989034751
 30
0.0
  0
SEQEND
  5
EF
330
EC
100
AcDbEntity
  8
_U+30EC_U+30A4_U+30E4_U+30FC 1
 62
   179
420
  2234388
370
     9
  0
POLYLINE
  5
F0
330
1F
100
AcDbEntity
  8
_U+30EC_U+30A4_U+30E4_U+30FC 1
 62
   179
420
  2234388
370
     9
100
AcDb2dPolyline
 66
     1
 10
0.0
 20
0.0
 30
0.0
  0
VERTEX
  5
F1
330
F0
100
AcDbEntity
  8
_U+30EC_U+30A4_U+30E4_U+30FC 1
 62
   179
420
  2234388
370
     9
100
AcDbVertex
100
AcDb2dVertex
 10
124.9037939395179
 20
-137.4793344789769
 30
0.0
  0
VERTEX
  5
F2
330
F0
100
AcDbEntity
  8
_U+30EC_U+30A4_U+30E4_U+30FC 1
 62
   179
420
  2234388
370
     9
100
AcDbVertex
100
AcDb2dVertex
 10
121.6441253357999
 20
-137.4793344789769
 30
0.0
  0
SEQEND
  5
F3
330
F0
100
AcDbEntity
  8
_U+30EC_U+30A4_U+30E4_U+30FC 1
 62
   179
420
  2234388
370
     9
  0
POLYLINE
  5
F4
330
1F
100
AcDbEntity
  8
_U+30EC_U+30A4_U+30E4_U+30FC 1
 62
   179
420
  2234388
370
     9
100
AcDb2dPolyline
 66
     1
 10
0.0
 20
0.0
 30
0.0
  0
VERTEX
  5
F5
330
F4
100
AcDbEntity
  8
_U+30EC_U+30A4_U+30E4_U+30FC 1
 62
   179
420
  2234388
370
     9
100
AcDbVertex
100
AcDb2dVertex
 10
124.9037939395179
 20
-143.4793558397812
 30
0.0
  0
VERTEX
  5
F6
330
F4
100
AcDbEntity
  8
_U+30EC_U+30A4_U+30E4_U+30FC 1
 62
   179
420
  2234388
370
     9
100
AcDbVertex
100
AcDb2dVertex
 10
121.6441253357999
 20
-143.4793558397812
 30
0.0
  0
SEQEND
  5
F7
330
F4
100
AcDbEntity
  8
_U+30EC_U+30A4_U+30E4_U+30FC 1
 62
   179
420
  2234388
370
     9
  0
INSERT
  5
F9
330
1F
100
AcDbEntity
  8
_U+30EC_U+30A4_U+30E4_U+30FC 1
100
AcDbBlockReference
  2
block 4
 10
0.0
 20
0.0
 30
0.0
  0
POLYLINE
  5
FF
330
1F
100
AcDbEntity
  8
_U+30EC_U+30A4_U+30E4_U+30FC 1
 62
   179
420
  2234388
370
     9
100
AcDb2dPolyline
 66
     1
 10
0.0
 20
0.0
 30
0.0
  0
VERTEX
  5
100
330
FF
100
AcDbEntity
  8
_U+30EC_U+30A4_U+30E4_U+30FC 1
 62
   179
420
  2234388
370
     9
100
AcDbVertex
100
AcDb2dVertex
 10
85.93701869087741
 20
-137.4693867657629
 30
0.0
  0
VERTEX
  5
101
330
FF
100
AcDbEntity
  8
_U+30EC_U+30A4_U+30E4_U+30FC 1
 62
   179
420
  2234388
370
     9
100
AcDbVertex
100
AcDb2dVertex
 10
85.93701869087741
 20
-163.4691132878545
 30
0.0
  0
SEQEND
  5
102
330
FF
100
AcDbEntity
  8
_U+30EC_U+30A4_U+30E4_U+30FC 1
 62
   179
420
  2234388
370
     9
  0
POLYLINE
  5
103
330
1F
100
AcDbEntity
  8
_U+30EC_U+30A4_U+30E4_U+30FC 1
 62
   179
420
  2234388
370
     9
100
AcDb2dPolyline
 66
     1
 10
0.0
 20
0.0
 30
0.0
  0
VERTEX
  5
104
330
103
100
AcDbEntity
  8
_U+30EC_U+30A4_U+30E4_U+30FC 1
 62
   179
420
  2234388
370
     9
100
AcDbVertex
100
AcDb2dVertex
 10
84.6471587923151
 20
-137.4693867657629
 30
0.0
  0
VERTEX
  5
105
330
103
100
AcDbEntity
  8
_U+30EC_U+30A4_U+30E4_U+30FC 1
 62
   179
420
  2234388
370
     9
100
AcDbVertex
100
AcDb2dVertex
 10
89.00713706440457
 20
-137.4693867657629
 30
0.0
  0
SEQEND
  5
106
330
103
100
AcDbEntity
  8
_U+30EC_U+30A4_U+30E4_U+30FC 1
 62
   179
420
  2234388
370
     9
  0
POLYLINE
  5
107
330
1F
100
AcDbEntity
  8
_U+30EC_U+30A4_U+30E4_U+30FC 1
 62
   179
420
  2234388
370
     9
100
AcDb2dPolyline
 66
     1
 10
0.0
 20
0.0
 30
0.0
  0
VERTEX
  5
108
330
107
100
AcDbEntity
  8
_U+30EC_U+30A4_U+30E4_U+30FC 1
 62
   179
420
  2234388
370
     9
100
AcDbVertex
100
AcDb2dVertex
 10
84.6471587923151
 20
-163.4691778833949
 30
0.0
  0
VERTEX
  5
109
330
107
100
AcDbEntity
  8
_U+30EC_U+30A4_U+30E4_U+30FC 1
 62
   179
420
  2234388
370
     9
100
AcDbVertex
100
AcDb2dVertex
 10
89.00713706440457
 20
-163.4691778833949
 30
0.0
  0
SEQEND
  5
10A
330
107
100
AcDbEntity
  8
_U+30EC_U+30A4_U+30E4_U+30FC 1
 62
   179
420
  2234388
370
     9
  0
INSERT
  5
10C
330
1F
100
AcDbEntity
  8
_U+30EC_U+30A4_U+30E4_U+30FC 1
100
AcDbBlockReference
  2
block 5
 10
0.0
 20
0.0
 30
0.0
  0
POLYLINE
  5
114
330
1F
100
AcDbEntity
  8
_U+30EC_U+30A4_U+30E4_U+30FC 1
 62
   179
420
  2234388
370
    25
100
AcDb2dPolyline
 66
     1
 10
0.0
 20
0.0
 30
0.0
  0
VERTEX
  5
115
330
114
100
AcDbEntity
  8
_U+30EC_U+30A4_U+30E4_U+30FC 1
 62
   179
420
  2234388
370
    25
100
AcDbVertex
100
AcDb2dVertex
 10
91.95833504815029
 20
-138.3889042826228
 30
0.0
  0
VERTEX
  5
116
330
114
100
AcDbEntity
  8
_U+30EC_U+30A4_U+30E4_U+30FC 1
 62
   179
420
  2234388
370
    25
100
AcDbVertex
100
AcDb2dVertex
 10
93.95823181770375
 20
-138.3889042826228
 30
0.0
  0
SEQEND
  5
117
330
114
100
AcDbEntity
  8
_U+30EC_U+30A4_U+30E4_U+30FC 1
 62
   179
420
  2234388
370
    25
  0
POLYLINE
  5
118
330
1F
100
AcDbEntity
  8
_U+30EC_U+30A4_U+30E4_U+30FC 1
 62
   179
420
  2234388
370
    25
100
AcDb2dPolyline
 66
     1
 10
0.0
 20
0.0
 30
0.0
  0
VERTEX
  5
119
330
118
100
AcDbEntity
  8
_U+30EC_U+30A4_U+30E4_U+30FC 1
 62
   179
420
  2234388
370
    25
100
AcDbVertex
100
AcDb2dVertex
 10
90.96374943896289
 20
-137.3694789966906
 30
0.0
  0
VERTEX
  5
11A
330
118
100
AcDbEntity
  8
_U+30EC_U+30A4_U+30E4_U+30FC 1
 62
   179
420
  2234388
370
    25
100
AcDbVertex
100
AcDb2dVertex
 10
94.96354297806982
 20
-137.3694789966906
 30
0.0
  0
SEQEND
  5
11B
330
118
100
AcDbEntity
  8
_U+30EC_U+30A4_U+30E4_U+30FC 1
 62
   179
420
  2234388
370
    25
  0
POLYLINE
  5
11C
330
1F
100
AcDbEntity
  8
_U+30EC_U+30A4_U+30E4_U+30FC 1
 62
   179
420
  2234388
370
    25
100
AcDb2dPolyline
 66
     1
 10
0.0
 20
0.0
 30
0.0
  0
VERTEX
  5
11D
330
11C
100
AcDbEntity
  8
_U+30EC_U+30A4_U+30E4_U+30FC 1
 62
   179
420
  2234388
370
    25
100
AcDbVertex
100
AcDb2dVertex
 10
94.9635079888188
 20
-143.5062275845661
 30
0.0
  0
VERTEX
  5
11E
330
11C
100
AcDbEntity
  8
_U+30EC_U+30A4_U+30E4_U+30FC 1
 62
   179
420
  2234388
370
    25
100
AcDbVertex
100
AcDb2dVertex
 10
94.9635079888188
 20
-137.5061846919147
 30
0.0
  0
SEQEND
  5
11F
330
11C
100
AcDbEntity
  8
_U+30EC_U+30A4_U+30E4_U+30FC 1
 62
   179
420
  2234388
370
    25
  0
POLYLINE
  5
120
330
1F
100
AcDbEntity
  8
_U+30EC_U+30A4_U+30E4_U+30FC 1
 62
   179
420
  2234388
370
    25
100
AcDb2dPolyline
 66
     1
 10
0.0
 20
0.0
 30
0.0
  0
VERTEX
  5
121
330
120
100
AcDbEntity
  8
_U+30EC_U+30A4_U+30E4_U+30FC 1
 62
   179
420
  2234388
370
    25
100
AcDbVertex
100
AcDb2dVertex
 10
93.95823450918459
 20
-144.5666064430793
 30
0.0
  0
VERTEX
  5
122
330
120
100
AcDbEntity
  8
_U+30EC_U+30A4_U+30E4_U+30FC 1
 62
   179
420
  2234388
370
    25
100
AcDbVertex
100
AcDb2dVertex
 10
93.95823450918459
 20
-138.3887750915421
 30
0.0
  0
SEQEND
  5
123
330
120
100
AcDbEntity
  8
_U+30EC_U+30A4_U+30E4_U+30FC 1
 62
   179
420
  2234388
370
    25
  0
POLYLINE
  5
124
330
1F
100
AcDbEntity
  8
_U+30EC_U+30A4_U+30E4_U+30FC 1
 62
   179
420
  2234388
370
     9
100
AcDb2dPolyline
 66
     1
 10
0.0
 20
0.0
 30
0.0
  0
VERTEX
  5
125
330
124
100
AcDbEntity
  8
_U+30EC_U+30A4_U+30E4_U+30FC 1
 62
   179
420
  2234388
370
     9
100
AcDbVertex
100
AcDb2dVertex
 10
91.53666074371772
 20
-136.3989525348025
 30
0.0
  0
VERTEX
  5
126
330
124
100
AcDbEntity
  8
_U+30EC_U+30A4_U+30E4_U+30FC 1
 62
   179
420
  2234388
370
     9
100
AcDbVertex
100
AcDb2dVertex
 10
92.09369500295043
 20
-137.229758842917
 30
0.0
  0
SEQEND
  5
127
330
124
100
AcDbEntity
  8
_U+30EC_U+30A4_U+30E4_U+30FC 1
 62
   179
420
  2234388
370
     9
  0
POLYLINE
  5
128
330
1F
100
AcDbEntity
  8
_U+30EC_U+30A4_U+30E4_U+30FC 1
 62
   179
420
  2234388
370
     9
100
AcDb2dPolyline
 66
     1
 10
0.0
 20
0.0
 30
0.0
  0
VERTEX
  5
129
330
128
100
AcDbEntity
  8
_U+30EC_U+30A4_U+30E4_U+30FC 1
 62
   179
420
  2234388
370
     9
100
AcDbVertex
100
AcDb2dVertex
 10
92.02691667163438
 20
-136.2322314451629
 30
0.0
  0
VERTEX
  5
12A
330
128
100
AcDbEntity
  8
_U+30EC_U+30A4_U+30E4_U+30FC 1
 62
   179
420
  2234388
370
     9
100
AcDbVertex
100
AcDb2dVertex
 10
92.09359003519737
 20
-137.2298880339977
 30
0.0
  0
SEQEND
  5
12B
330
128
100
AcDbEntity
  8
_U+30EC_U+30A4_U+30E4_U+30FC 1
 62
   179
420
  2234388
370
     9
  0
POLYLINE
  5
12C
330
1F
100
AcDbEntity
  8
_U+30EC_U+30A4_U+30E4_U+30FC 1
 62
   179
420
  2234388
370
     9
100
AcDb2dPolyline
 66
     1
 10
0.0
 20
0.0
 30
0.0
  0
VERTEX
  5
12D
330
12C
100
AcDbEntity
  8
_U+30EC_U+30A4_U+30E4_U+30FC 1
 62
   179
420
  2234388
370
     9
100
AcDbVertex
100
AcDb2dVertex
 10
91.31790256336573
 20
-134.8696961807466
 30
0.0
  0
VERTEX
  5
12E
330
12C
100
AcDbEntity
  8
_U+30EC_U+30A4_U+30E4_U+30FC 1
 62
   179
420
  2234388
370
     9
100
AcDbVertex
100
AcDb2dVertex
 10
92.0936600136994
 20
-137.2297803747637
 30
0.0
  0
SEQEND
  5
12F
330
12C
100
AcDbEntity
  8
_U+30EC_U+30A4_U+30E4_U+30FC 1
 62
   179
420
  2234388
370
     9
  0
INSERT
  5
131
330
1F
100
AcDbEntity
  8
_U+30EC_U+30A4_U+30E4_U+30FC 1
100
AcDbBlockReference
  2
block 6
 10
0.0
 20
0.0
 30
0.0
  0
POLYLINE
  5
18C
330
1F
100
AcDbEntity
  8
_U+30EC_U+30A4_U+30E4_U+30FC 1
 62
   179
420
  2234388
370
    25
100
AcDb2dPolyline
 66
     1
 10
0.0
 20
0.0
 30
0.0
  0
VERTEX
  5
18D
330
18C
100
AcDbEntity
  8
_U+30EC_U+30A4_U+30E4_U+30FC 1
 62
   179
420
  2234388
370
    25
100
AcDbVertex
100
AcDb2dVertex
 10
90.96374943896289
 20
-138.3889042826228
 30
0.0
  0
VERTEX
  5
18E
330
18C
100
AcDbEntity
  8
_U+30EC_U+30A4_U+30E4_U+30FC 1
 62
   179
420
  2234388
370
    25
100
AcDbVertex
100
AcDb2dVertex
 10
91.95822738891637
 20
-138.3889042826228
 30
0.0
  0
SEQEND
  5
18F
330
18C
100
AcDbEntity
  8
_U+30EC_U+30A4_U+30E4_U+30FC 1
 62
   179
420
  2234388
370
    25
  0
POLYLINE
  5
190
330
1F
100
AcDbEntity
  8
_U+30EC_U+30A4_U+30E4_U+30FC 1
 62
   179
420
  2234388
370
     9
100
AcDb2dPolyline
 66
     1
 10
0.0
 20
0.0
 30
0.0
  0
VERTEX
  5
191
330
190
100
AcDbEntity
  8
_U+30EC_U+30A4_U+30E4_U+30FC 1
 62
   179
420
  2234388
370
     9
100
AcDbVertex
100
AcDb2dVertex
 10
105.6666821957377
 20
-151.3474156319223
 30
0.0
  0
VERTEX
  5
192
330
190
100
AcDbEntity
  8
_U+30EC_U+30A4_U+30E4_U+30FC 1
 62
   179
420
  2234388
370
     9
100
AcDbVertex
100
AcDb2dVertex
 10
105.3276578851807
 20
-159.0467949363668
 30
0.0
  0
VERTEX
  5
193
330
190
100
AcDbEntity
  8
_U+30EC_U+30A4_U+30E4_U+30FC 1
 62
   179
420
  2234388
370
     9
100
AcDbVertex
100
AcDb2dVertex
 10
105.1389258651676
 20
-159.1537005556434
 30
0.0
  0
VERTEX
  5
194
330
190
100
AcDbEntity
  8
_U+30EC_U+30A4_U+30E4_U+30FC 1
 62
   179
420
  2234388
370
     9
100
AcDbVertex
100
AcDb2dVertex
 10
105.3393012313285
 20
-151.2366558120715
 30
0.0
  0
VERTEX
  5
195
330
190
100
AcDbEntity
  8
_U+30EC_U+30A4_U+30E4_U+30FC 1
 62
   179
420
  2234388
370
     9
100
AcDbVertex
100
AcDb2dVertex
 10
106.9677225057423
 20
-150.3779872942197
 30
0.0
  0
VERTEX
  5
196
330
190
100
AcDbEntity
  8
_U+30EC_U+30A4_U+30E4_U+30FC 1
 62
   179
420
  2234388
370
     9
100
AcDbVertex
100
AcDb2dVertex
 10
106.9193942756383
 20
-152.2815748045946
 30
0.0
  0
SEQEND
  5
197
330
190
100
AcDbEntity
  8
_U+30EC_U+30A4_U+30E4_U+30FC 1
 62
   179
420
  2234388
370
     9
  0
POLYLINE
  5
198
330
1F
100
AcDbEntity
  8
_U+30EC_U+30A4_U+30E4_U+30FC 1
 62
   179
420
  2234388
370
     9
100
AcDb2dPolyline
 66
     1
 10
0.0
 20
0.0
 30
0.0
  0
VERTEX
  5
199
330
198
100
AcDbEntity
  8
_U+30EC_U+30A4_U+30E4_U+30FC 1
 62
   179
420
  2234388
370
     9
100
AcDbVertex
100
AcDb2dVertex
 10
114.2009050295688
 20
-148.1934091833296
 30
0.0
  0
VERTEX
  5
19A
330
198
100
AcDbEntity
  8
_U+30EC_U+30A4_U+30E4_U+30FC 1
 62
   179
420
  2234388
370
     9
100
AcDbVertex
100
AcDb2dVertex
 10
114.1966686387143
 20
-148.3281770123429
 30
0.0
  0
VERTEX
  5
19B
330
198
100
AcDbEntity
  8
_U+30EC_U+30A4_U+30E4_U+30FC 1
 62
   179
420
  2234388
370
     9
100
AcDbVertex
100
AcDb2dVertex
 10
106.5759613194525
 20
-152.7964658567119
 30
0.0
  0
VERTEX
  5
19C
330
198
100
AcDbEntity
  8
_U+30EC_U+30A4_U+30E4_U+30FC 1
 62
   179
420
  2234388
370
     9
100
AcDbVertex
100
AcDb2dVertex
 10
106.6253499930105
 20
-150.8540779584345
 30
0.0
  0
SEQEND
  5
19D
330
198
100
AcDbEntity
  8
_U+30EC_U+30A4_U+30E4_U+30FC 1
 62
   179
420
  2234388
370
     9
  0
POLYLINE
  5
19E
330
1F
100
AcDbEntity
  8
_U+30EC_U+30A4_U+30E4_U+30FC 1
 62
   179
420
  2234388
370
     9
100
AcDb2dPolyline
 66
     1
 10
0.0
 20
0.0
 30
0.0
  0
VERTEX
  5
19F
330
19E
100
AcDbEntity
  8
_U+30EC_U+30A4_U+30E4_U+30FC 1
 62
   179
420
  2234388
370
     9
100
AcDbVertex
100
AcDb2dVertex
 10
106.6254953329763
 20
-150.8540564265877
 30
0.0
  0
VERTEX
  5
1A0
330
19E
100
AcDbEntity
  8
_U+30EC_U+30A4_U+30E4_U+30FC 1
 62
   179
420
  2234388
370
     9
100
AcDbVertex
100
AcDb2dVertex
 10
105.3523172327087
 20
-151.4936599352711
 30
0.0
  0
SEQEND
  5
1A1
330
19E
100
AcDbEntity
  8
_U+30EC_U+30A4_U+30E4_U+30FC 1
 62
   179
420
  2234388
370
     9
  0
POLYLINE
  5
1A2
330
1F
100
AcDbEntity
  8
_U+30EC_U+30A4_U+30E4_U+30FC 1
 62
   179
420
  2234388
370
     9
100
AcDb2dPolyline
 66
     1
 10
0.0
 20
0.0
 30
0.0
  0
VERTEX
  5
1A3
330
1A2
100
AcDbEntity
  8
_U+30EC_U+30A4_U+30E4_U+30FC 1
 62
   179
420
  2234388
370
     9
100
AcDbVertex
100
AcDb2dVertex
 10
106.5942741551413
 20
-152.4784620115766
 30
0.0
  0
VERTEX
  5
1A4
330
1A2
100
AcDbEntity
  8
_U+30EC_U+30A4_U+30E4_U+30FC 1
 62
   179
420
  2234388
370
     9
100
AcDbVertex
100
AcDb2dVertex
 10
114.2008673488369
 20
-148.1936245017971
 30
0.0
  0
SEQEND
  5
1A5
330
1A2
100
AcDbEntity
  8
_U+30EC_U+30A4_U+30E4_U+30FC 1
 62
   179
420
  2234388
370
     9
  0
POLYLINE
  5
1A6
330
1F
100
AcDbEntity
  8
_U+30EC_U+30A4_U+30E4_U+30FC 1
 62
   179
420
  2234388
370
     9
100
AcDb2dPolyline
 66
     1
 10
0.0
 20
0.0
 30
0.0
  0
VERTEX
  5
1A7
330
1A6
100
AcDbEntity
  8
_U+30EC_U+30A4_U+30E4_U+30FC 1
 62
   179
420
  2234388
370
     9
100
AcDbVertex
100
AcDb2dVertex
 10
127.1248469988584
 20
-155.9917703874343
 30
0.0
  0
VERTEX
  5
1A8
330
1A6
100
AcDbEntity
  8
_U+30EC_U+30A4_U+30E4_U+30FC 1
 62
   179
420
  2234388
370
     9
100
AcDbVertex
100
AcDb2dVertex
 10
114.1969485527225
 20
-148.3280262894157
 30
0.0
  0
VERTEX
  5
1A9
330
1A6
100
AcDbEntity
  8
_U+30EC_U+30A4_U+30E4_U+30FC 1
 62
   179
420
  2234388
370
     9
100
AcDbVertex
100
AcDb2dVertex
 10
114.2008296681051
 20
-148.1936245017971
 30
0.0
  0
VERTEX
  5
1AA
330
1A6
100
AcDbEntity
  8
_U+30EC_U+30A4_U+30E4_U+30FC 1
 62
   179
420
  2234388
370
     9
100
AcDbVertex
100
AcDb2dVertex
 10
127.1389557414629
 20
-155.8474854821427
 30
0.0
  0
SEQEND
  5
1AB
330
1A6
100
AcDbEntity
  8
_U+30EC_U+30A4_U+30E4_U+30FC 1
 62
   179
420
  2234388
370
     9
  0
POLYLINE
  5
1AC
330
1F
100
AcDbEntity
  8
_U+30EC_U+30A4_U+30E4_U+30FC 1
 62
   179
420
  2234388
370
     9
100
AcDb2dPolyline
 66
     1
 10
0.0
 20
0.0
 30
0.0
  0
VERTEX
  5
1AD
330
1AC
100
AcDbEntity
  8
_U+30EC_U+30A4_U+30E4_U+30FC 1
 62
   179
420
  2234388
370
     9
100
AcDbVertex
100
AcDb2dVertex
 10
118.0669965660779
 20
-166.8172939307349
 30
0.0
  0
VERTEX
  5
1AE
330
1AC
100
AcDbEntity
  8
_U+30EC_U+30A4_U+30E4_U+30FC 1
 62
   179
420
  2234388
370
     9
100
AcDbVertex
100
AcDb2dVertex
 10
105.1390981199419
 20
-159.153549832716
 30
0.0
  0
VERTEX
  5
1AF
330
1AC
100
AcDbEntity
  8
_U+30EC_U+30A4_U+30E4_U+30FC 1
 62
   179
420
  2234388
370
     9
100
AcDbVertex
100
AcDb2dVertex
 10
105.3278355229166
 20
-159.0470317866814
 30
0.0
  0
VERTEX
  5
1B0
330
1AC
100
AcDbEntity
  8
_U+30EC_U+30A4_U+30E4_U+30FC 1
 62
   179
420
  2234388
370
     9
100
AcDbVertex
100
AcDb2dVertex
 10
118.312529597904
 20
-166.6747746368795
 30
0.0
  0
SEQEND
  5
1B1
330
1AC
100
AcDbEntity
  8
_U+30EC_U+30A4_U+30E4_U+30FC 1
 62
   179
420
  2234388
370
     9
  0
POLYLINE
  5
1B2
330
1F
100
AcDbEntity
  8
_U+30EC_U+30A4_U+30E4_U+30FC 1
 62
   179
420
  2234388
370
     9
100
AcDb2dPolyline
 66
     1
 10
0.0
 20
0.0
 30
0.0
  0
VERTEX
  5
1B3
330
1B2
100
AcDbEntity
  8
_U+30EC_U+30A4_U+30E4_U+30FC 1
 62
   179
420
  2234388
370
     9
100
AcDbVertex
100
AcDb2dVertex
 10
106.5758967239121
 20
-152.7964658567119
 30
0.0
  0
VERTEX
  5
1B4
330
1B2
100
AcDbEntity
  8
_U+30EC_U+30A4_U+30E4_U+30FC 1
 62
   179
420
  2234388
370
     9
100
AcDbVertex
100
AcDb2dVertex
 10
119.5789305493967
 20
-160.4898593077508
 30
0.0
  0
SEQEND
  5
1B5
330
1B2
100
AcDbEntity
  8
_U+30EC_U+30A4_U+30E4_U+30FC 1
 62
   179
420
  2234388
370
     9
  0
POLYLINE
  5
1B6
330
1F
100
AcDbEntity
  8
_U+30EC_U+30A4_U+30E4_U+30FC 1
 62
   179
420
  2234388
370
     9
100
AcDb2dPolyline
 66
     1
 10
0.0
 20
0.0
 30
0.0
  0
VERTEX
  5
1B7
330
1B6
100
AcDbEntity
  8
_U+30EC_U+30A4_U+30E4_U+30FC 1
 62
   179
420
  2234388
370
     9
100
AcDbVertex
100
AcDb2dVertex
 10
106.9679378242102
 20
-150.3779872942197
 30
0.0
  0
VERTEX
  5
1B8
330
1B6
100
AcDbEntity
  8
_U+30EC_U+30A4_U+30E4_U+30FC 1
 62
   179
420
  2234388
370
     9
100
AcDbVertex
100
AcDb2dVertex
 10
108.5896573113129
 20
-151.3439059408967
 30
0.0
  0
SEQEND
  5
1B9
330
1B6
100
AcDbEntity
  8
_U+30EC_U+30A4_U+30E4_U+30FC 1
 62
   179
420
  2234388
370
     9
  0
POLYLINE
  5
1BA
330
1F
100
AcDbEntity
  8
_U+30EC_U+30A4_U+30E4_U+30FC 1
 62
   179
420
  2234388
370
     9
100
AcDb2dPolyline
 66
     1
 10
0.0
 20
0.0
 30
0.0
  0
VERTEX
  5
1BB
330
1BA
100
AcDbEntity
  8
_U+30EC_U+30A4_U+30E4_U+30FC 1
 62
   179
420
  2234388
370
     9
100
AcDbVertex
100
AcDb2dVertex
 10
105.6666821957377
 20
-151.3474156319223
 30
0.0
  0
VERTEX
  5
1BC
330
1BA
100
AcDbEntity
  8
_U+30EC_U+30A4_U+30E4_U+30FC 1
 62
   179
420
  2234388
370
     9
100
AcDbVertex
100
AcDb2dVertex
 10
106.5987204815019
 20
-151.910451893446
 30
0.0
  0
SEQEND
  5
1BD
330
1BA
100
AcDbEntity
  8
_U+30EC_U+30A4_U+30E4_U+30FC 1
 62
   179
420
  2234388
370
     9
  0
SPLINE
  5
1BE
330
1F
100
AcDbEntity
  8
_U+30EC_U+30A4_U+30E4_U+30FC 1
 62
   179
420
  2234388
370
     9
100
AcDbSpline
210
0.0
220
0.0
230
1.0
 70
     8
 71
     3
 72
    11
 73
     7
 74
     0
 42
0.0000000001
 43
0.0000000001
 12
1.0
 22
0.0
 32
0.0
 13
1.0
 23
0.0
 33
0.0
 40
0.0
 40
0.0
 40
0.0
 40
0.0
 40
1.0
 40
1.0
 40
1.0
 40
2.0
 40
2.0
 40
2.0
 40
2.0
 10
107.3989246523766
 20
-155.9866242760533
 30
0.0
 10
107.498051892003
 20
-155.7746217126297
 30
0.0
 10
107.4645375724855
 20
-155.4405335779476
 30
0.0
 10
107.2909693555693
 20
-155.1251566181197
 30
0.0
 10
107.0655470686384
 20
-154.7141567267294
 30
0.0
 10
106.6859567587425
 20
-154.4859191508316
 30
0.0
 10
106.4238442048936
 20
-154.5956239101901
 30
0.0
  0
SPLINE
  5
1BF
330
1F
100
AcDbEntity
  8
_U+30EC_U+30A4_U+30E4_U+30FC 1
 62
   179
420
  2234388
370
     9
100
AcDbSpline
210
0.0
220
0.0
230
1.0
 70
    11
 71
     3
 72
    17
 73
    13
 74
     0
 42
0.0000000001
 43
0.0000000001
 12
1.0
 22
0.0
 32
0.0
 13
1.0
 23
0.0
 33
0.0
 40
0.0
 40
0.0
 40
0.0
 40
0.0
 40
1.0
 40
1.0
 40
1.0
 40
2.0
 40
2.0
 40
2.0
 40
3.0
 40
3.0
 40
3.0
 40
4.0
 40
4.0
 40
4.0
 40
4.0
 10
107.4316638254099
 20
-155.9720902794749
 30
0.0
 10
107.1699011640712
 20
-156.1156861656694
 30
0.0
 10
106.7670295448414
 20
-155.8853169369401
 30
0.0
 10
106.5320794157091
 20
-155.4573930139785
 30
0.0
 10
106.2967740111048
 20
-155.0287800719199
 30
0.0
 10
106.3186449844745
 20
-154.5655654520813
 30
0.0
 10
106.579702477831
 20
-154.421646588185
 30
0.0
 10
106.8414651391696
 20
-154.2777061924419
 30
0.0
 10
107.2443367583994
 20
-154.508785972115
 30
0.0
 10
107.479636780042
 20
-154.9363438536813
 30
0.0
 10
107.7145869091743
 20
-155.3646122861914
 30
0.0
 10
107.6930712112766
 20
-155.8281714155786
 30
0.0
 10
107.4316638254099
 20
-155.9720902794749
 30
0.0
  0
SPLINE
  5
1C0
330
1F
100
AcDbEntity
  8
_U+30EC_U+30A4_U+30E4_U+30FC 1
 62
   179
420
  2234388
370
     9
100
AcDbSpline
210
0.0
220
0.0
230
1.0
 70
     8
 71
     3
 72
    11
 73
     7
 74
     0
 42
0.0000000001
 43
0.0000000001
 12
1.0
 22
0.0
 32
0.0
 13
1.0
 23
0.0
 33
0.0
 40
0.0
 40
0.0
 40
0.0
 40
0.0
 40
1.0
 40
1.0
 40
1.0
 40
2.0
 40
2.0
 40
2.0
 40
2.0
 10
107.3989246523766
 20
-159.1478438933185
 30
0.0
 10
107.498051892003
 20
-158.9358413298949
 30
0.0
 10
107.4645375724855
 20
-158.6017531952128
 30
0.0
 10
107.2909693555693
 20
-158.286376235385
 30
0.0
 10
107.0655470686384
 20
-157.8753763439947
 30
0.0
 10
106.6859567587425
 20
-157.6471387680969
 30
0.0
 10
106.4238442048936
 20
-157.7568435274553
 30
0.0
  0
SPLINE
  5
1C1
330
1F
100
AcDbEntity
  8
_U+30EC_U+30A4_U+30E4_U+30FC 1
 62
   179
420
  2234388
370
     9
100
AcDbSpline
210
0.0
220
0.0
230
1.0
 70
    11
 71
     3
 72
    17
 73
    13
 74
     0
 42
0.0000000001
 43
0.0000000001
 12
1.0
 22
0.0
 32
0.0
 13
1.0
 23
0.0
 33
0.0
 40
0.0
 40
0.0
 40
0.0
 40
0.0
 40
1.0
 40
1.0
 40
1.0
 40
2.0
 40
2.0
 40
2.0
 40
3.0
 40
3.0
 40
3.0
 40
4.0
 40
4.0
 40
4.0
 40
4.0
 10
107.4316638254099
 20
-159.1333314285869
 30
0.0
 10
107.1699011640712
 20
-159.2769273147815
 30
0.0
 10
106.7670295448414
 20
-159.0462135765036
 30
0.0
 10
106.5320794157091
 20
-158.618289653542
 30
0.0
 10
106.2967740111048
 20
-158.1900212210319
 30
0.0
 10
106.3186449844745
 20
-157.7264620916448
 30
0.0
 10
106.579702477831
 20
-157.582887737297
 30
0.0
 10
106.8414651391696
 20
-157.4389473415539
 30
0.0
 10
107.2443367583994
 20
-157.670027121227
 30
0.0
 10
107.479636780042
 20
-158.0975850027933
 30
0.0
 10
107.7145869091743
 20
-158.5258534353034
 30
0.0
 10
107.6930712112766
 20
-158.9897570742391
 30
0.0
 10
107.4316638254099
 20
-159.1333314285869
 30
0.0
  0
SPLINE
  5
1C2
330
1F
100
AcDbEntity
  8
_U+30EC_U+30A4_U+30E4_U+30FC 1
 62
   179
420
  2234388
370
     9
100
AcDbSpline
210
0.0
220
0.0
230
1.0
 70
     8
 71
     3
 72
    11
 73
     7
 74
     0
 42
0.0000000001
 43
0.0000000001
 12
1.0
 22
0.0
 32
0.0
 13
1.0
 23
0.0
 33
0.0
 40
0.0
 40
0.0
 40
0.0
 40
0.0
 40
1.0
 40
1.0
 40
1.0
 40
2.0
 40
2.0
 40
2.0
 40
2.0
 10
111.2319271233422
 20
-158.2631433727064
 30
0.0
 10
111.3303491949864
 20
-158.0514853188313
 30
0.0
 10
111.2975400434511
 20
-157.7173971841492
 30
0.0
 10
111.1236219340247
 20
-157.4020202243214
 30
0.0
 10
110.898194264132
 20
-156.9906758233826
 30
0.0
 10
110.5182540617259
 20
-156.7627827570333
 30
0.0
 10
110.2568466758592
 20
-156.8725090482385
 30
0.0
  0
SPLINE
  5
1C3
330
1F
100
AcDbEntity
  8
_U+30EC_U+30A4_U+30E4_U+30FC 1
 62
   179
420
  2234388
370
     9
100
AcDbSpline
210
0.0
220
0.0
230
1.0
 70
    11
 71
     3
 72
    17
 73
    13
 74
     0
 42
0.0000000001
 43
0.0000000001
 12
1.0
 22
0.0
 32
0.0
 13
1.0
 23
0.0
 33
0.0
 40
0.0
 40
0.0
 40
0.0
 40
0.0
 40
1.0
 40
1.0
 40
1.0
 40
2.0
 40
2.0
 40
2.0
 40
3.0
 40
3.0
 40
3.0
 40
4.0
 40
4.0
 40
4.0
 40
4.0
 10
111.2643110209035
 20
-158.2489969493701
 30
0.0
 10
111.0025483595649
 20
-158.3925928355646
 30
0.0
 10
110.6000266328453
 20
-158.1618790972868
 30
0.0
 10
110.3647266112028
 20
-157.7339551743252
 30
0.0
 10
110.1294212065985
 20
-157.3056867418151
 30
0.0
 10
110.1509422874579
 20
-156.8421276124279
 30
0.0
 10
110.4127049487966
 20
-156.6981872166848
 30
0.0
 10
110.6744622271735
 20
-156.5546128623371
 30
0.0
 10
111.0769839538931
 20
-156.7853266006149
 30
0.0
 10
111.3122839755356
 20
-157.2129060140279
 30
0.0
 10
111.5475893801399
 20
-157.6415189560866
 30
0.0
 10
111.5260682992805
 20
-158.1050780854737
 30
0.0
 10
111.2643110209035
 20
-158.2489969493701
 30
0.0
  0
SPLINE
  5
1C4
330
1F
100
AcDbEntity
  8
_U+30EC_U+30A4_U+30E4_U+30FC 1
 62
   179
420
  2234388
370
     9
100
AcDbSpline
210
0.0
220
0.0
230
1.0
 70
     8
 71
     3
 72
    11
 73
     7
 74
     0
 42
0.0000000001
 43
0.0000000001
 12
1.0
 22
0.0
 32
0.0
 13
1.0
 23
0.0
 33
0.0
 40
0.0
 40
0.0
 40
0.0
 40
0.0
 40
1.0
 40
1.0
 40
1.0
 40
2.0
 40
2.0
 40
2.0
 40
2.0
 10
111.2319271233422
 20
-161.4243414581248
 30
0.0
 10
111.3303491949864
 20
-161.2126834042498
 30
0.0
 10
111.2975400434511
 20
-160.8785952695677
 30
0.0
 10
111.1236219340247
 20
-160.5628738001913
 30
0.0
 10
110.898194264132
 20
-160.151873908801
 30
0.0
 10
110.5182540617259
 20
-159.9239808424517
 30
0.0
 10
110.2568466758592
 20
-160.0337071336569
 30
0.0
  0
SPLINE
  5
1C5
330
1F
100
AcDbEntity
  8
_U+30EC_U+30A4_U+30E4_U+30FC 1
 62
   179
420
  2234388
370
     9
100
AcDbSpline
210
0.0
220
0.0
230
1.0
 70
    11
 71
     3
 72
    17
 73
    13
 74
     0
 42
0.0000000001
 43
0.0000000001
 12
1.0
 22
0.0
 32
0.0
 13
1.0
 23
0.0
 33
0.0
 40
0.0
 40
0.0
 40
0.0
 40
0.0
 40
1.0
 40
1.0
 40
1.0
 40
2.0
 40
2.0
 40
2.0
 40
3.0
 40
3.0
 40
3.0
 40
4.0
 40
4.0
 40
4.0
 40
4.0
 10
111.2643110209035
 20
-161.4101950347885
 30
0.0
 10
111.0025483595649
 20
-161.5537909209831
 30
0.0
 10
110.6000266328453
 20
-161.3230771827053
 30
0.0
 10
110.3647266112028
 20
-160.8951532597437
 30
0.0
 10
110.1294212065985
 20
-160.4668848272335
 30
0.0
 10
110.1509422874579
 20
-160.0033256978464
 30
0.0
 10
110.4127049487966
 20
-159.8593853021033
 30
0.0
 10
110.6744622271735
 20
-159.7158109477555
 30
0.0
 10
111.0769839538931
 20
-159.9465246860333
 30
0.0
 10
111.3122839755356
 20
-160.3744486089949
 30
0.0
 10
111.5475893801399
 20
-160.802717041505
 30
0.0
 10
111.5260682992805
 20
-161.2662761708922
 30
0.0
 10
111.2643110209035
 20
-161.4101950347885
 30
0.0
  0
SPLINE
  5
1C6
330
1F
100
AcDbEntity
  8
_U+30EC_U+30A4_U+30E4_U+30FC 1
 62
   179
420
  2234388
370
     9
100
AcDbSpline
210
0.0
220
0.0
230
1.0
 70
     8
 71
     3
 72
    11
 73
     7
 74
     0
 42
0.0000000001
 43
0.0000000001
 12
1.0
 22
0.0
 32
0.0
 13
1.0
 23
0.0
 33
0.0
 40
0.0
 40
0.0
 40
0.0
 40
0.0
 40
1.0
 40
1.0
 40
1.0
 40
2.0
 40
2.0
 40
2.0
 40
2.0
 10
109.3481650608927
 20
-158.738545017824
 30
0.0
 10
109.4469424080088
 20
-158.5265424544005
 30
0.0
 10
109.4137779810016
 20
-158.1921098101699
 30
0.0
 10
109.2398598715751
 20
-157.8767113184952
 30
0.0
 10
109.0147874771544
 20
-157.4660774685002
 30
0.0
 10
108.6348472747483
 20
-157.2378398926024
 30
0.0
 10
108.3730846134097
 20
-157.3475446519609
 30
0.0
  0
SPLINE
  5
1C7
330
1F
100
AcDbEntity
  8
_U+30EC_U+30A4_U+30E4_U+30FC 1
 62
   179
420
  2234388
370
     9
100
AcDbSpline
210
0.0
220
0.0
230
1.0
 70
    11
 71
     3
 72
    17
 73
    13
 74
     0
 42
0.0000000001
 43
0.0000000001
 12
1.0
 22
0.0
 32
0.0
 13
1.0
 23
0.0
 33
0.0
 40
0.0
 40
0.0
 40
0.0
 40
0.0
 40
1.0
 40
1.0
 40
1.0
 40
2.0
 40
2.0
 40
2.0
 40
3.0
 40
3.0
 40
3.0
 40
4.0
 40
4.0
 40
4.0
 40
4.0
 10
109.380548958454
 20
-158.724075616786
 30
0.0
 10
109.1191361896256
 20
-158.8676715029806
 30
0.0
 10
108.7162645703958
 20
-158.6369577647027
 30
0.0
 10
108.4813144412635
 20
-158.2086678003458
 30
0.0
 10
108.2460144196209
 20
-157.780765409231
 30
0.0
 10
108.2675301175186
 20
-157.3172062798439
 30
0.0
 10
108.528942886347
 20
-157.1732658841008
 30
0.0
 10
108.790700164724
 20
-157.029691529753
 30
0.0
 10
109.1932218914436
 20
-157.2604052680308
 30
0.0
 10
109.428877188558
 20
-157.6883291909924
 30
0.0
 10
109.6638273176904
 20
-158.1165976235025
 30
0.0
 10
109.642306236831
 20
-158.5801567528897
 30
0.0
 10
109.380548958454
 20
-158.724075616786
 30
0.0
  0
SPLINE
  5
1C8
330
1F
100
AcDbEntity
  8
_U+30EC_U+30A4_U+30E4_U+30FC 1
 62
   179
420
  2234388
370
     9
100
AcDbSpline
210
0.0
220
0.0
230
1.0
 70
     8
 71
     3
 72
    11
 73
     7
 74
     0
 42
0.0000000001
 43
0.0000000001
 12
1.0
 22
0.0
 32
0.0
 13
1.0
 23
0.0
 33
0.0
 40
0.0
 40
0.0
 40
0.0
 40
0.0
 40
1.0
 40
1.0
 40
1.0
 40
2.0
 40
2.0
 40
2.0
 40
2.0
 10
114.9009215173631
 20
-160.4497239453476
 30
0.0
 10
114.9993435890073
 20
-160.2380658914726
 30
0.0
 10
114.9661845449618
 20
-159.9039777567905
 30
0.0
 10
114.7926163280456
 20
-159.5886007969627
 30
0.0
 10
114.5668387656427
 20
-159.1776224374191
 30
0.0
 10
114.1872484557468
 20
-158.9493633296746
 30
0.0
 10
113.9254857944082
 20
-159.0590896208798
 30
0.0
  0
SPLINE
  5
1C9
330
1F
100
AcDbEntity
  8
_U+30EC_U+30A4_U+30E4_U+30FC 1
 62
   179
420
  2234388
370
     9
100
AcDbSpline
210
0.0
220
0.0
230
1.0
 70
    11
 71
     3
 72
    17
 73
    13
 74
     0
 42
0.0000000001
 43
0.0000000001
 12
1.0
 22
0.0
 32
0.0
 13
1.0
 23
0.0
 33
0.0
 40
0.0
 40
0.0
 40
0.0
 40
0.0
 40
1.0
 40
1.0
 40
1.0
 40
2.0
 40
2.0
 40
2.0
 40
3.0
 40
3.0
 40
3.0
 40
4.0
 40
4.0
 40
4.0
 40
4.0
 10
114.9333430956563
 20
-160.4356205857049
 30
0.0
 10
114.6715804343177
 20
-160.5792164718995
 30
0.0
 10
114.2687088150879
 20
-160.3485027336216
 30
0.0
 10
114.0334034104836
 20
-159.9205788106601
 30
0.0
 10
113.7984532813513
 20
-159.4923103781499
 30
0.0
 10
113.8199743622107
 20
-159.0287512487628
 30
0.0
 10
114.0817370235493
 20
-158.8848108530197
 30
0.0
 10
114.3431444094161
 20
-158.7412364986719
 30
0.0
 10
114.7460160286459
 20
-158.9719502369497
 30
0.0
 10
114.9813160502884
 20
-159.3998741599113
 30
0.0
 10
115.2166214548927
 20
-159.8281425924214
 30
0.0
 10
115.1951003740333
 20
-160.2917017218086
 30
0.0
 10
114.9333430956563
 20
-160.4356205857049
 30
0.0
  0
SPLINE
  5
1CA
330
1F
100
AcDbEntity
  8
_U+30EC_U+30A4_U+30E4_U+30FC 1
 62
   179
420
  2234388
370
     9
100
AcDbSpline
210
0.0
220
0.0
230
1.0
 70
     8
 71
     3
 72
    11
 73
     7
 74
     0
 42
0.0000000001
 43
0.0000000001
 12
1.0
 22
0.0
 32
0.0
 13
1.0
 23
0.0
 33
0.0
 40
0.0
 40
0.0
 40
0.0
 40
0.0
 40
1.0
 40
1.0
 40
1.0
 40
2.0
 40
2.0
 40
2.0
 40
2.0
 10
114.9009215173631
 20
-163.6109435626129
 30
0.0
 10
114.9993435890073
 20
-163.3992855087378
 30
0.0
 10
114.9661845449618
 20
-163.0651973740558
 30
0.0
 10
114.7926163280456
 20
-162.7498204142279
 30
0.0
 10
114.5668387656427
 20
-162.3384760132891
 30
0.0
 10
114.1872484557468
 20
-162.1105829469398
 30
0.0
 10
113.9254857944082
 20
-162.220309238145
 30
0.0
  0
SPLINE
  5
1CB
330
1F
100
AcDbEntity
  8
_U+30EC_U+30A4_U+30E4_U+30FC 1
 62
   179
420
  2234388
370
     9
100
AcDbSpline
210
0.0
220
0.0
230
1.0
 70
    11
 71
     3
 72
    17
 73
    13
 74
     0
 42
0.0000000001
 43
0.0000000001
 12
1.0
 22
0.0
 32
0.0
 13
1.0
 23
0.0
 33
0.0
 40
0.0
 40
0.0
 40
0.0
 40
0.0
 40
1.0
 40
1.0
 40
1.0
 40
2.0
 40
2.0
 40
2.0
 40
3.0
 40
3.0
 40
3.0
 40
4.0
 40
4.0
 40
4.0
 40
4.0
 10
114.9333430956563
 20
-163.5968186711234
 30
0.0
 10
114.6715804343177
 20
-163.7404145573179
 30
0.0
 10
114.2687088150879
 20
-163.5097008190401
 30
0.0
 10
114.0334034104836
 20
-163.0817768960785
 30
0.0
 10
113.7984532813513
 20
-162.6535084635684
 30
0.0
 10
113.8199743622107
 20
-162.1899493341813
 30
0.0
 10
114.0817370235493
 20
-162.0460089384381
 30
0.0
 10
114.3431444094161
 20
-161.9024345840904
 30
0.0
 10
114.7460160286459
 20
-162.1331483223682
 30
0.0
 10
114.9813160502884
 20
-162.5610722453298
 30
0.0
 10
115.2166214548927
 20
-162.9893406778399
 30
0.0
 10
115.1951003740333
 20
-163.4528998072271
 30
0.0
 10
114.9333430956563
 20
-163.5968186711234
 30
0.0
  0
SPLINE
  5
1CC
330
1F
100
AcDbEntity
  8
_U+30EC_U+30A4_U+30E4_U+30FC 1
 62
   179
420
  2234388
370
     9
100
AcDbSpline
210
0.0
220
0.0
230
1.0
 70
     8
 71
     3
 72
    11
 73
     7
 74
     0
 42
0.0000000001
 43
0.0000000001
 12
1.0
 22
0.0
 32
0.0
 13
1.0
 23
0.0
 33
0.0
 40
0.0
 40
0.0
 40
0.0
 40
0.0
 40
1.0
 40
1.0
 40
1.0
 40
2.0
 40
2.0
 40
2.0
 40
2.0
 10
113.0171594549136
 20
-160.9251255904653
 30
0.0
 10
113.1159368020297
 20
-160.7131230270418
 30
0.0
 10
113.0827723750225
 20
-160.3790348923597
 30
0.0
 10
112.908854265596
 20
-160.0632918911365
 30
0.0
 10
112.6834265957034
 20
-159.6526580411415
 30
0.0
 10
112.3038416687692
 20
-159.4244204652437
 30
0.0
 10
112.0420790074306
 20
-159.5341252246021
 30
0.0
  0
SPLINE
  5
1CD
330
1F
100
AcDbEntity
  8
_U+30EC_U+30A4_U+30E4_U+30FC 1
 62
   179
420
  2234388
370
     9
100
AcDbSpline
210
0.0
220
0.0
230
1.0
 70
    11
 71
     3
 72
    17
 73
    13
 74
     0
 42
0.0000000001
 43
0.0000000001
 12
1.0
 22
0.0
 32
0.0
 13
1.0
 23
0.0
 33
0.0
 40
0.0
 40
0.0
 40
0.0
 40
0.0
 40
1.0
 40
1.0
 40
1.0
 40
2.0
 40
2.0
 40
2.0
 40
3.0
 40
3.0
 40
3.0
 40
4.0
 40
4.0
 40
4.0
 40
4.0
 10
113.0495433524749
 20
-160.9106561894273
 30
0.0
 10
112.7877806911363
 20
-161.0542520756219
 30
0.0
 10
112.3852589644167
 20
-160.823538337344
 30
0.0
 10
112.1499589427741
 20
-160.3956144143824
 30
0.0
 10
111.9146535381699
 20
-159.9673459818723
 30
0.0
 10
111.9361746190293
 20
-159.5037868524852
 30
0.0
 10
112.197937280368
 20
-159.3598464567421
 30
0.0
 10
112.4596945587449
 20
-159.2162721023943
 30
0.0
 10
112.8625661779747
 20
-159.4473518820674
 30
0.0
 10
113.0978715825789
 20
-159.8749097636337
 30
0.0
 10
113.3328217117113
 20
-160.3031781961438
 30
0.0
 10
113.3113006308519
 20
-160.766737325531
 30
0.0
 10
113.0495433524749
 20
-160.9106561894273
 30
0.0
  0
SPLINE
  5
1CE
330
1F
100
AcDbEntity
  8
_U+30EC_U+30A4_U+30E4_U+30FC 1
 62
   179
420
  2234388
370
     9
100
AcDbSpline
210
0.0
220
0.0
230
1.0
 70
     8
 71
     3
 72
    11
 73
     7
 74
     0
 42
0.0000000001
 43
0.0000000001
 12
1.0
 22
0.0
 32
0.0
 13
1.0
 23
0.0
 33
0.0
 40
0.0
 40
0.0
 40
0.0
 40
0.0
 40
1.0
 40
1.0
 40
1.0
 40
2.0
 40
2.0
 40
2.0
 40
2.0
 10
118.6027250629193
 20
-162.5629455159999
 30
0.0
 10
118.7011471345635
 20
-162.3509429525763
 30
0.0
 10
118.667988090518
 20
-162.0165103083457
 30
0.0
 10
118.4944198736018
 20
-161.7014778580664
 30
0.0
 10
118.2686423111989
 20
-161.2904779666761
 30
0.0
 10
117.889052001303
 20
-161.0622403907783
 30
0.0
 10
117.6272893399644
 20
-161.1719451501367
 30
0.0
  0
SPLINE
  5
1CF
330
1F
100
AcDbEntity
  8
_U+30EC_U+30A4_U+30E4_U+30FC 1
 62
   179
420
  2234388
370
     9
100
AcDbSpline
210
0.0
220
0.0
230
1.0
 70
    11
 71
     3
 72
    17
 73
    13
 74
     0
 42
0.0000000001
 43
0.0000000001
 12
1.0
 22
0.0
 32
0.0
 13
1.0
 23
0.0
 33
0.0
 40
0.0
 40
0.0
 40
0.0
 40
0.0
 40
1.0
 40
1.0
 40
1.0
 40
2.0
 40
2.0
 40
2.0
 40
3.0
 40
3.0
 40
3.0
 40
4.0
 40
4.0
 40
4.0
 40
4.0
 10
118.6351089604807
 20
-162.5484761149619
 30
0.0
 10
118.373346299142
 20
-162.6924165107049
 30
0.0
 10
117.9704746799122
 20
-162.4617027724271
 30
0.0
 10
117.7355245507799
 20
-162.033434339917
 30
0.0
 10
117.5002191461756
 20
-161.6055104169554
 30
0.0
 10
117.5213849515631
 20
-161.1419512875682
 30
0.0
 10
117.7831476129018
 20
-160.9980324236719
 30
0.0
 10
118.0449102742404
 20
-160.8544580693242
 30
0.0
 10
118.4477818934702
 20
-161.0848057662067
 30
0.0
 10
118.6827320226025
 20
-161.5127296891683
 30
0.0
 10
118.9180320442451
 20
-161.9409981216784
 30
0.0
 10
118.8965163463474
 20
-162.4049017606141
 30
0.0
 10
118.6351089604807
 20
-162.5484761149619
 30
0.0
  0
SPLINE
  5
1D0
330
1F
100
AcDbEntity
  8
_U+30EC_U+30A4_U+30E4_U+30FC 1
 62
   179
420
  2234388
370
     9
100
AcDbSpline
210
0.0
220
0.0
230
1.0
 70
     8
 71
     3
 72
    11
 73
     7
 74
     0
 42
0.0000000001
 43
0.0000000001
 12
1.0
 22
0.0
 32
0.0
 13
1.0
 23
0.0
 33
0.0
 40
0.0
 40
0.0
 40
0.0
 40
0.0
 40
1.0
 40
1.0
 40
1.0
 40
2.0
 40
2.0
 40
2.0
 40
2.0
 10
118.6027250629193
 20
-165.7241866651119
 30
0.0
 10
118.7011471345635
 20
-165.5121841016884
 30
0.0
 10
118.667988090518
 20
-165.1777514574577
 30
0.0
 10
118.4944198736018
 20
-164.8627190071784
 30
0.0
 10
118.2686423111989
 20
-164.4517191157881
 30
0.0
 10
117.889052001303
 20
-164.2234815398903
 30
0.0
 10
117.6272893399644
 20
-164.3331862992488
 30
0.0
  0
SPLINE
  5
1D1
330
1F
100
AcDbEntity
  8
_U+30EC_U+30A4_U+30E4_U+30FC 1
 62
   179
420
  2234388
370
     9
100
AcDbSpline
210
0.0
220
0.0
230
1.0
 70
    11
 71
     3
 72
    17
 73
    13
 74
     0
 42
0.0000000001
 43
0.0000000001
 12
1.0
 22
0.0
 32
0.0
 13
1.0
 23
0.0
 33
0.0
 40
0.0
 40
0.0
 40
0.0
 40
0.0
 40
1.0
 40
1.0
 40
1.0
 40
2.0
 40
2.0
 40
2.0
 40
3.0
 40
3.0
 40
3.0
 40
4.0
 40
4.0
 40
4.0
 40
4.0
 10
118.6351089604807
 20
-165.7096742003803
 30
0.0
 10
118.373346299142
 20
-165.8532700865749
 30
0.0
 10
117.9704746799122
 20
-165.6229008578456
 30
0.0
 10
117.7355245507799
 20
-165.1946324253355
 30
0.0
 10
117.5002191461756
 20
-164.7667085023739
 30
0.0
 10
117.5213849515631
 20
-164.3028048634382
 30
0.0
 10
117.7831476129018
 20
-164.1592305090904
 30
0.0
 10
118.0449102742404
 20
-164.0152901133473
 30
0.0
 10
118.4477818934702
 20
-164.2460038516251
 30
0.0
 10
118.6827320226025
 20
-164.6739277745867
 30
0.0
 10
118.9180320442451
 20
-165.1021962070969
 30
0.0
 10
118.8965163463474
 20
-165.565755336484
 30
0.0
 10
118.6351089604807
 20
-165.7096742003803
 30
0.0
  0
SPLINE
  5
1D2
330
1F
100
AcDbEntity
  8
_U+30EC_U+30A4_U+30E4_U+30FC 1
 62
   179
420
  2234388
370
     9
100
AcDbSpline
210
0.0
220
0.0
230
1.0
 70
     8
 71
     3
 72
    11
 73
     7
 74
     0
 42
0.0000000001
 43
0.0000000001
 12
1.0
 22
0.0
 32
0.0
 13
1.0
 23
0.0
 33
0.0
 40
0.0
 40
0.0
 40
0.0
 40
0.0
 40
1.0
 40
1.0
 40
1.0
 40
2.0
 40
2.0
 40
2.0
 40
2.0
 10
116.7189253197379
 20
-163.0376796738673
 30
0.0
 10
116.8173473913821
 20
-162.8260216199923
 30
0.0
 10
116.7845382398468
 20
-162.4919334853102
 30
0.0
 10
116.6109700229306
 20
-162.1765565254823
 30
0.0
 10
116.3851924605277
 20
-161.7652121245435
 30
0.0
 10
116.0056075335935
 20
-161.5373190581942
 30
0.0
 10
115.743489596783
 20
-161.6470453493994
 30
0.0
  0
SPLINE
  5
1D3
330
1F
100
AcDbEntity
  8
_U+30EC_U+30A4_U+30E4_U+30FC 1
 62
   179
420
  2234388
370
     9
100
AcDbSpline
210
0.0
220
0.0
230
1.0
 70
    11
 71
     3
 72
    17
 73
    13
 74
     0
 42
0.0000000001
 43
0.0000000001
 12
1.0
 22
0.0
 32
0.0
 13
1.0
 23
0.0
 33
0.0
 40
0.0
 40
0.0
 40
0.0
 40
0.0
 40
1.0
 40
1.0
 40
1.0
 40
2.0
 40
2.0
 40
2.0
 40
3.0
 40
3.0
 40
3.0
 40
4.0
 40
4.0
 40
4.0
 40
4.0
 10
116.7512769195291
 20
-163.023231804676
 30
0.0
 10
116.4898641507007
 20
-163.1671722004191
 30
0.0
 10
116.0866426389607
 20
-162.9364584621413
 30
0.0
 10
115.8516925098283
 20
-162.5085345391797
 30
0.0
 10
115.616387105224
 20
-162.0802661066696
 30
0.0
 10
115.6382580785937
 20
-161.6167069772825
 30
0.0
 10
115.8996708474221
 20
-161.4727881133861
 30
0.0
 10
116.1610782332888
 20
-161.3292137590384
 30
0.0
 10
116.5642997450288
 20
-161.5599274973162
 30
0.0
 10
116.7992498741612
 20
-161.987829888431
 30
0.0
 10
117.0345552787655
 20
-162.4161198527879
 30
0.0
 10
117.013034197906
 20
-162.8796574503283
 30
0.0
 10
116.7512769195291
 20
-163.023231804676
 30
0.0
  0
SPLINE
  5
1D4
330
1F
100
AcDbEntity
  8
_U+30EC_U+30A4_U+30E4_U+30FC 1
 62
   179
420
  2234388
370
     9
100
AcDbSpline
210
0.0
220
0.0
230
1.0
 70
     8
 71
     3
 72
    11
 73
     7
 74
     0
 42
0.0000000001
 43
0.0000000001
 12
1.0
 22
0.0
 32
0.0
 13
1.0
 23
0.0
 33
0.0
 40
0.0
 40
0.0
 40
0.0
 40
0.0
 40
1.0
 40
1.0
 40
1.0
 40
2.0
 40
2.0
 40
2.0
 40
2.0
 10
110.4743721579825
 20
-151.9169114474809
 30
0.0
 10
110.5724443371166
 20
-152.1501013481387
 30
0.0
 10
110.9178097765512
 20
-152.3222699950141
 30
0.0
 10
111.3298539625104
 20
-152.3222699950141
 30
0.0
 10
111.7418981484697
 20
-152.3222699950141
 30
0.0
 10
112.0869190783558
 20
-152.1501013481387
 30
0.0
 10
112.1856964254719
 20
-151.9169114474809
 30
0.0
  0
SPLINE
  5
1D5
330
1F
100
AcDbEntity
  8
_U+30EC_U+30A4_U+30E4_U+30FC 1
 62
   179
420
  2234388
370
     9
100
AcDbSpline
210
0.0
220
0.0
230
1.0
 70
    11
 71
     3
 72
    17
 73
    13
 74
     0
 42
0.0000000001
 43
0.0000000001
 12
1.0
 22
0.0
 32
0.0
 13
1.0
 23
0.0
 33
0.0
 40
0.0
 40
0.0
 40
0.0
 40
0.0
 40
1.0
 40
1.0
 40
1.0
 40
2.0
 40
2.0
 40
2.0
 40
3.0
 40
3.0
 40
3.0
 40
4.0
 40
4.0
 40
4.0
 40
4.0
 10
112.2144845046205
 20
-152.0523037000512
 30
0.0
 10
112.2144845046205
 20
-152.3507566283077
 30
0.0
 10
111.8183146727019
 20
-152.5924085447512
 30
0.0
 10
111.3297140055063
 20
-152.5924085447512
 30
0.0
 10
110.8411187212725
 20
-152.5924085447512
 30
0.0
 10
110.4449488893538
 20
-152.3507566283077
 30
0.0
 10
110.4449488893538
 20
-152.0523037000512
 30
0.0
 10
110.4449488893538
 20
-151.7535062622461
 30
0.0
 10
110.8411187212725
 20
-151.5115098362541
 30
0.0
 10
111.3297140055063
 20
-151.5115098362541
 30
0.0
 10
111.8183146727019
 20
-151.5115098362541
 30
0.0
 10
112.2144845046205
 20
-151.7535062622461
 30
0.0
 10
112.2144845046205
 20
-152.0523037000512
 30
0.0
  0
SPLINE
  5
1D6
330
1F
100
AcDbEntity
  8
_U+30EC_U+30A4_U+30E4_U+30FC 1
 62
   179
420
  2234388
370
     9
100
AcDbSpline
210
0.0
220
0.0
230
1.0
 70
     8
 71
     3
 72
    11
 73
     7
 74
     0
 42
0.0000000001
 43
0.0000000001
 12
1.0
 22
0.0
 32
0.0
 13
1.0
 23
0.0
 33
0.0
 40
0.0
 40
0.0
 40
0.0
 40
0.0
 40
1.0
 40
1.0
 40
1.0
 40
2.0
 40
2.0
 40
2.0
 40
2.0
 10
114.2904398314534
 20
-152.4085050413792
 30
0.0
 10
114.3888619030977
 20
-152.6413504324885
 30
0.0
 10
114.734232725494
 20
-152.8134975475171
 30
0.0
 10
115.1462769114532
 20
-152.8134975475171
 30
0.0
 10
115.5583210974125
 20
-152.8134975475171
 30
0.0
 10
115.9033366443369
 20
-152.6413504324885
 30
0.0
 10
116.0017640989428
 20
-152.4085050413792
 30
0.0
  0
SPLINE
  5
1D7
330
1F
100
AcDbEntity
  8
_U+30EC_U+30A4_U+30E4_U+30FC 1
 62
   179
420
  2234388
370
     9
100
AcDbSpline
210
0.0
220
0.0
230
1.0
 70
    11
 71
     3
 72
    17
 73
    13
 74
     0
 42
0.0000000001
 43
0.0000000001
 12
1.0
 22
0.0
 32
0.0
 13
1.0
 23
0.0
 33
0.0
 40
0.0
 40
0.0
 40
0.0
 40
0.0
 40
1.0
 40
1.0
 40
1.0
 40
2.0
 40
2.0
 40
2.0
 40
3.0
 40
3.0
 40
3.0
 40
4.0
 40
4.0
 40
4.0
 40
4.0
 10
116.0306221565935
 20
-152.5435958480946
 30
0.0
 10
116.0306221565935
 20
-152.8420487763511
 30
0.0
 10
115.6348022171851
 20
-153.0840667341899
 30
0.0
 10
115.1462069329512
 20
-153.0840667341899
 30
0.0
 10
114.6576062657556
 20
-153.0840667341899
 30
0.0
 10
114.261436433837
 20
-152.8420487763511
 30
0.0
 10
114.261436433837
 20
-152.5435958480946
 30
0.0
 10
114.261436433837
 20
-152.2447984102895
 30
0.0
 10
114.6576062657556
 20
-152.0028019842975
 30
0.0
 10
115.1462069329512
 20
-152.0028019842975
 30
0.0
 10
115.6348022171851
 20
-152.0028019842975
 30
0.0
 10
116.0306221565935
 20
-152.2447984102895
 30
0.0
 10
116.0306221565935
 20
-152.5435958480946
 30
0.0
  0
SPLINE
  5
1D8
330
1F
100
AcDbEntity
  8
_U+30EC_U+30A4_U+30E4_U+30FC 1
 62
   179
420
  2234388
370
     9
100
AcDbSpline
210
0.0
220
0.0
230
1.0
 70
     8
 71
     3
 72
    11
 73
     7
 74
     0
 42
0.0000000001
 43
0.0000000001
 12
1.0
 22
0.0
 32
0.0
 13
1.0
 23
0.0
 33
0.0
 40
0.0
 40
0.0
 40
0.0
 40
0.0
 40
1.0
 40
1.0
 40
1.0
 40
2.0
 40
2.0
 40
2.0
 40
2.0
 10
122.9714183499945
 20
-157.4859082993872
 30
0.0
 10
123.0698404216387
 20
-157.7187536904965
 30
0.0
 10
123.415211244035
 20
-157.8909008055251
 30
0.0
 10
123.8272554299943
 20
-157.8909008055251
 30
0.0
 10
124.2392996159535
 20
-157.8909008055251
 30
0.0
 10
124.5843151628779
 20
-157.7187536904965
 30
0.0
 10
124.6830925099941
 20
-157.4859082993872
 30
0.0
  0
SPLINE
  5
1D9
330
1F
100
AcDbEntity
  8
_U+30EC_U+30A4_U+30E4_U+30FC 1
 62
   179
420
  2234388
370
     9
100
AcDbSpline
210
0.0
220
0.0
230
1.0
 70
    11
 71
     3
 72
    17
 73
    13
 74
     0
 42
0.0000000001
 43
0.0000000001
 12
1.0
 22
0.0
 32
0.0
 13
1.0
 23
0.0
 33
0.0
 40
0.0
 40
0.0
 40
0.0
 40
0.0
 40
1.0
 40
1.0
 40
1.0
 40
2.0
 40
2.0
 40
2.0
 40
3.0
 40
3.0
 40
3.0
 40
4.0
 40
4.0
 40
4.0
 40
4.0
 10
124.7115306966325
 20
-157.6209345105622
 30
0.0
 10
124.7115306966325
 20
-157.9197534802141
 30
0.0
 10
124.315710757224
 20
-158.1614053966576
 30
0.0
 10
123.8271154729902
 20
-158.1614053966576
 30
0.0
 10
123.3385148057946
 20
-158.1614053966576
 30
0.0
 10
122.9427002493479
 20
-157.9197534802141
 30
0.0
 10
122.9427002493479
 20
-157.6209345105622
 30
0.0
 10
122.9427002493479
 20
-157.3225031141525
 30
0.0
 10
123.3385148057946
 20
-157.080851197709
 30
0.0
 10
123.8271154729902
 20
-157.080851197709
 30
0.0
 10
124.315710757224
 20
-157.080851197709
 30
0.0
 10
124.7115306966325
 20
-157.3225031141525
 30
0.0
 10
124.7115306966325
 20
-157.6209345105622
 30
0.0
  0
SPLINE
  5
1DA
330
1F
100
AcDbEntity
  8
_U+30EC_U+30A4_U+30E4_U+30FC 1
 62
   179
420
  2234388
370
     9
100
AcDbSpline
210
0.0
220
0.0
230
1.0
 70
     8
 71
     3
 72
    11
 73
     7
 74
     0
 42
0.0000000001
 43
0.0000000001
 12
1.0
 22
0.0
 32
0.0
 13
1.0
 23
0.0
 33
0.0
 40
0.0
 40
0.0
 40
0.0
 40
0.0
 40
1.0
 40
1.0
 40
1.0
 40
2.0
 40
2.0
 40
2.0
 40
2.0
 10
113.4718905271198
 20
-150.1726811351456
 30
0.0
 10
113.5699627062538
 20
-150.405526526255
 30
0.0
 10
113.9153281456884
 20
-150.5780396826788
 30
0.0
 10
114.3270224391374
 20
-150.5780396826788
 30
0.0
 10
114.7390666250967
 20
-150.5780396826788
 30
0.0
 10
115.0840821720211
 20
-150.405526526255
 30
0.0
 10
115.1828595191372
 20
-150.1726811351456
 30
0.0
  0
SPLINE
  5
1DB
330
1F
100
AcDbEntity
  8
_U+30EC_U+30A4_U+30E4_U+30FC 1
 62
   179
420
  2234388
370
     9
100
AcDbSpline
210
0.0
220
0.0
230
1.0
 70
    11
 71
     3
 72
    17
 73
    13
 74
     0
 42
0.0000000001
 43
0.0000000001
 12
1.0
 22
0.0
 32
0.0
 13
1.0
 23
0.0
 33
0.0
 40
0.0
 40
0.0
 40
0.0
 40
0.0
 40
1.0
 40
1.0
 40
1.0
 40
2.0
 40
2.0
 40
2.0
 40
3.0
 40
3.0
 40
3.0
 40
4.0
 40
4.0
 40
4.0
 40
4.0
 10
115.2117175767879
 20
-150.3077288781674
 30
0.0
 10
115.2117175767879
 20
-150.606181806424
 30
0.0
 10
114.8158976373795
 20
-150.8481997642628
 30
0.0
 10
114.3269470776737
 20
-150.8481997642628
 30
0.0
 10
113.8387016859501
 20
-150.8481997642628
 30
0.0
 10
113.4428871295033
 20
-150.606181806424
 30
0.0
 10
113.4428871295033
 20
-150.3077288781674
 30
0.0
 10
113.4428871295033
 20
-150.0092974817577
 30
0.0
 10
113.8387016859501
 20
-149.7672795239189
 30
0.0
 10
114.3269470776737
 20
-149.7672795239189
 30
0.0
 10
114.8158976373795
 20
-149.7672795239189
 30
0.0
 10
115.2117175767879
 20
-150.0092974817577
 30
0.0
 10
115.2117175767879
 20
-150.3077288781674
 30
0.0
  0
SPLINE
  5
1DC
330
1F
100
AcDbEntity
  8
_U+30EC_U+30A4_U+30E4_U+30FC 1
 62
   179
420
  2234388
370
     9
100
AcDbSpline
210
0.0
220
0.0
230
1.0
 70
     8
 71
     3
 72
    11
 73
     7
 74
     0
 42
0.0000000001
 43
0.0000000001
 12
1.0
 22
0.0
 32
0.0
 13
1.0
 23
0.0
 33
0.0
 40
0.0
 40
0.0
 40
0.0
 40
0.0
 40
1.0
 40
1.0
 40
1.0
 40
2.0
 40
2.0
 40
2.0
 40
2.0
 10
114.9949726241104
 20
-154.5868819803962
 30
0.0
 10
115.0930448032444
 20
-154.8197273715056
 30
0.0
 10
115.438410242679
 20
-154.9922405279295
 30
0.0
 10
115.8504544286383
 20
-154.9922405279295
 30
0.0
 10
116.2624986145976
 20
-154.9922405279295
 30
0.0
 10
116.6075195444837
 20
-154.8197273715056
 30
0.0
 10
116.7059416161279
 20
-154.5868819803962
 30
0.0
  0
SPLINE
  5
1DD
330
1F
100
AcDbEntity
  8
_U+30EC_U+30A4_U+30E4_U+30FC 1
 62
   179
420
  2234388
370
     9
100
AcDbSpline
210
0.0
220
0.0
230
1.0
 70
    11
 71
     3
 72
    17
 73
    13
 74
     0
 42
0.0000000001
 43
0.0000000001
 12
1.0
 22
0.0
 32
0.0
 13
1.0
 23
0.0
 33
0.0
 40
0.0
 40
0.0
 40
0.0
 40
0.0
 40
1.0
 40
1.0
 40
1.0
 40
2.0
 40
2.0
 40
2.0
 40
3.0
 40
3.0
 40
3.0
 40
4.0
 40
4.0
 40
4.0
 40
4.0
 10
116.7347673760084
 20
-154.721929723418
 30
0.0
 10
116.7347673760084
 20
-155.0207486930699
 30
0.0
 10
116.3389474366
 20
-155.2624006095134
 30
0.0
 10
115.8503521523661
 20
-155.2624006095134
 30
0.0
 10
115.3617514851705
 20
-155.2624006095134
 30
0.0
 10
114.9655816532519
 20
-155.0207486930699
 30
0.0
 10
114.9655816532519
 20
-154.721929723418
 30
0.0
 10
114.9655816532519
 20
-154.423132285613
 30
0.0
 10
115.3617514851705
 20
-154.1814803691695
 30
0.0
 10
115.8503521523661
 20
-154.1814803691695
 30
0.0
 10
116.3389474366
 20
-154.1814803691695
 30
0.0
 10
116.7347673760084
 20
-154.423132285613
 30
0.0
 10
116.7347673760084
 20
-154.721929723418
 30
0.0
  0
SPLINE
  5
1DE
330
1F
100
AcDbEntity
  8
_U+30EC_U+30A4_U+30E4_U+30FC 1
 62
   179
420
  2234388
370
     9
100
AcDbSpline
210
0.0
220
0.0
230
1.0
 70
     8
 71
     3
 72
    11
 73
     7
 74
     0
 42
0.0000000001
 43
0.0000000001
 12
1.0
 22
0.0
 32
0.0
 13
1.0
 23
0.0
 33
0.0
 40
0.0
 40
0.0
 40
0.0
 40
0.0
 40
1.0
 40
1.0
 40
1.0
 40
2.0
 40
2.0
 40
2.0
 40
2.0
 10
117.9922433770096
 20
-152.8426301362143
 30
0.0
 10
118.0903155561437
 20
-153.0754755273236
 30
0.0
 10
118.4356809955783
 20
-153.2476226423522
 30
0.0
 10
118.8480804570094
 20
-153.2476226423522
 30
0.0
 10
119.2601246429687
 20
-153.2476226423522
 30
0.0
 10
119.6051401898931
 20
-153.0754755273236
 30
0.0
 10
119.703567644499
 20
-152.8426301362143
 30
0.0
  0
SPLINE
  5
1DF
330
1F
100
AcDbEntity
  8
_U+30EC_U+30A4_U+30E4_U+30FC 1
 62
   179
420
  2234388
370
     9
100
AcDbSpline
210
0.0
220
0.0
230
1.0
 70
    11
 71
     3
 72
    17
 73
    13
 74
     0
 42
0.0000000001
 43
0.0000000001
 12
1.0
 22
0.0
 32
0.0
 13
1.0
 23
0.0
 33
0.0
 40
0.0
 40
0.0
 40
0.0
 40
0.0
 40
1.0
 40
1.0
 40
1.0
 40
2.0
 40
2.0
 40
2.0
 40
3.0
 40
3.0
 40
3.0
 40
4.0
 40
4.0
 40
4.0
 40
4.0
 10
119.7323557236476
 20
-152.9776778792361
 30
0.0
 10
119.7323557236476
 20
-153.2761308074926
 30
0.0
 10
119.336185891729
 20
-153.5177827239361
 30
0.0
 10
118.8479405000054
 20
-153.5177827239361
 30
0.0
 10
118.3593398328098
 20
-153.5177827239361
 30
0.0
 10
117.9635252763631
 20
-153.2761308074926
 30
0.0
 10
117.9635252763631
 20
-152.9776778792361
 30
0.0
 10
117.9635252763631
 20
-152.678880441431
 30
0.0
 10
118.3593398328098
 20
-152.4372285249875
 30
0.0
 10
118.8479405000054
 20
-152.4372285249875
 30
0.0
 10
119.336185891729
 20
-152.4372285249875
 30
0.0
 10
119.7323557236476
 20
-152.678880441431
 30
0.0
 10
119.7323557236476
 20
-152.9776778792361
 30
0.0
  0
SPLINE
  5
1E0
330
1F
100
AcDbEntity
  8
_U+30EC_U+30A4_U+30E4_U+30FC 1
 62
   179
420
  2234388
370
     9
100
AcDbSpline
210
0.0
220
0.0
230
1.0
 70
     8
 71
     3
 72
    11
 73
     7
 74
     0
 42
0.0000000001
 43
0.0000000001
 12
1.0
 22
0.0
 32
0.0
 13
1.0
 23
0.0
 33
0.0
 40
0.0
 40
0.0
 40
0.0
 40
0.0
 40
1.0
 40
1.0
 40
1.0
 40
2.0
 40
2.0
 40
2.0
 40
2.0
 10
118.6636494233913
 20
-155.0047720627571
 30
0.0
 10
118.7620714950355
 20
-155.2376174538664
 30
0.0
 10
119.1074423174318
 20
-155.409764568895
 30
0.0
 10
119.5194865033911
 20
-155.409764568895
 30
0.0
 10
119.9315306893504
 20
-155.409764568895
 30
0.0
 10
120.2765462362747
 20
-155.2376174538664
 30
0.0
 10
120.3749736908807
 20
-155.0047720627571
 30
0.0
  0
SPLINE
  5
1E1
330
1F
100
AcDbEntity
  8
_U+30EC_U+30A4_U+30E4_U+30FC 1
 62
   179
420
  2234388
370
     9
100
AcDbSpline
210
0.0
220
0.0
230
1.0
 70
    11
 71
     3
 72
    17
 73
    13
 74
     0
 42
0.0000000001
 43
0.0000000001
 12
1.0
 22
0.0
 32
0.0
 13
1.0
 23
0.0
 33
0.0
 40
0.0
 40
0.0
 40
0.0
 40
0.0
 40
1.0
 40
1.0
 40
1.0
 40
2.0
 40
2.0
 40
2.0
 40
3.0
 40
3.0
 40
3.0
 40
4.0
 40
4.0
 40
4.0
 40
4.0
 10
120.4037617700293
 20
-155.1397767420853
 30
0.0
 10
120.4037617700293
 20
-155.4382296703418
 30
0.0
 10
120.0079418306209
 20
-155.6798815867853
 30
0.0
 10
119.519346546387
 20
-155.6798815867853
 30
0.0
 10
119.0307458791914
 20
-155.6798815867853
 30
0.0
 10
118.6349313227447
 20
-155.4382296703418
 30
0.0
 10
118.6349313227447
 20
-155.1397767420853
 30
0.0
 10
118.6349313227447
 20
-154.8409793042802
 30
0.0
 10
119.0307458791914
 20
-154.5989828782882
 30
0.0
 10
119.519346546387
 20
-154.5989828782882
 30
0.0
 10
120.0079418306209
 20
-154.5989828782882
 30
0.0
 10
120.4037617700293
 20
-154.8409793042802
 30
0.0
 10
120.4037617700293
 20
-155.1397767420853
 30
0.0
  0
SPLINE
  5
1E2
330
1F
100
AcDbEntity
  8
_U+30EC_U+30A4_U+30E4_U+30FC 1
 62
   179
420
  2234388
370
     9
100
AcDbSpline
210
0.0
220
0.0
230
1.0
 70
     8
 71
     3
 72
    11
 73
     7
 74
     0
 42
0.0000000001
 43
0.0000000001
 12
1.0
 22
0.0
 32
0.0
 13
1.0
 23
0.0
 33
0.0
 40
0.0
 40
0.0
 40
0.0
 40
0.0
 40
1.0
 40
1.0
 40
1.0
 40
2.0
 40
2.0
 40
2.0
 40
2.0
 10
119.3681822160483
 20
-157.182761428532
 30
0.0
 10
119.4662543951823
 20
-157.4156068196413
 30
0.0
 10
119.8116198346169
 20
-157.5881199760652
 30
0.0
 10
120.2236640205761
 20
-157.5881199760652
 30
0.0
 10
120.6357082065354
 20
-157.5881199760652
 30
0.0
 10
120.9807260801912
 20
-157.4156068196413
 30
0.0
 10
121.0791512080657
 20
-157.182761428532
 30
0.0
  0
SPLINE
  5
1E3
330
1F
100
AcDbEntity
  8
_U+30EC_U+30A4_U+30E4_U+30FC 1
 62
   179
420
  2234388
370
     9
100
AcDbSpline
210
0.0
220
0.0
230
1.0
 70
    11
 71
     3
 72
    17
 73
    13
 74
     0
 42
0.0000000001
 43
0.0000000001
 12
1.0
 22
0.0
 32
0.0
 13
1.0
 23
0.0
 33
0.0
 40
0.0
 40
0.0
 40
0.0
 40
0.0
 40
1.0
 40
1.0
 40
1.0
 40
2.0
 40
2.0
 40
2.0
 40
3.0
 40
3.0
 40
3.0
 40
4.0
 40
4.0
 40
4.0
 40
4.0
 10
121.1079769679462
 20
-157.3178091715538
 30
0.0
 10
121.1079769679462
 20
-157.6166281412057
 30
0.0
 10
120.7121570285378
 20
-157.8586245671977
 30
0.0
 10
120.2235617443039
 20
-157.8586245671977
 30
0.0
 10
119.7353163525803
 20
-157.8586245671977
 30
0.0
 10
119.3391465206616
 20
-157.6166281412057
 30
0.0
 10
119.3391465206616
 20
-157.3178091715538
 30
0.0
 10
119.3391465206616
 20
-157.019377775144
 30
0.0
 10
119.7353163525803
 20
-156.7777258587005
 30
0.0
 10
120.2235617443039
 20
-156.7777258587005
 30
0.0
 10
120.7121570285378
 20
-156.7777258587005
 30
0.0
 10
121.1079769679462
 20
-157.019377775144
 30
0.0
 10
121.1079769679462
 20
-157.3178091715538
 30
0.0
  0
SPLINE
  5
1E4
330
1F
100
AcDbEntity
  8
_U+30EC_U+30A4_U+30E4_U+30FC 1
 62
   179
420
  2234388
370
     9
100
AcDbSpline
210
0.0
220
0.0
230
1.0
 70
     8
 71
     3
 72
    11
 73
     7
 74
     0
 42
0.0000000001
 43
0.0000000001
 12
1.0
 22
0.0
 32
0.0
 13
1.0
 23
0.0
 33
0.0
 40
0.0
 40
0.0
 40
0.0
 40
0.0
 40
1.0
 40
1.0
 40
1.0
 40
2.0
 40
2.0
 40
2.0
 40
2.0
 10
122.3654529689475
 20
-155.4388325620517
 30
0.0
 10
122.4638750405917
 20
-155.6716779531611
 30
0.0
 10
122.8088905875161
 20
-155.8438250681897
 30
0.0
 10
123.2212900489473
 20
-155.8438250681897
 30
0.0
 10
123.6333342349066
 20
-155.8438250681897
 30
0.0
 10
123.9783497818309
 20
-155.6716779531611
 30
0.0
 10
124.0767772364369
 20
-155.4388325620517
 30
0.0
  0
SPLINE
  5
1E5
330
1F
100
AcDbEntity
  8
_U+30EC_U+30A4_U+30E4_U+30FC 1
 62
   179
420
  2234388
370
     9
100
AcDbSpline
210
0.0
220
0.0
230
1.0
 70
    11
 71
     3
 72
    17
 73
    13
 74
     0
 42
0.0000000001
 43
0.0000000001
 12
1.0
 22
0.0
 32
0.0
 13
1.0
 23
0.0
 33
0.0
 40
0.0
 40
0.0
 40
0.0
 40
0.0
 40
1.0
 40
1.0
 40
1.0
 40
2.0
 40
2.0
 40
2.0
 40
3.0
 40
3.0
 40
3.0
 40
4.0
 40
4.0
 40
4.0
 40
4.0
 10
124.1055653155855
 20
-155.57383724138
 30
0.0
 10
124.1055653155855
 20
-155.8722901696365
 30
0.0
 10
123.7093954836668
 20
-156.11394208608
 30
0.0
 10
123.2211500919432
 20
-156.11394208608
 30
0.0
 10
122.7325494247476
 20
-156.11394208608
 30
0.0
 10
122.3367348683009
 20
-155.8722901696365
 30
0.0
 10
122.3367348683009
 20
-155.57383724138
 30
0.0
 10
122.3367348683009
 20
-155.2750398035749
 30
0.0
 10
122.7325494247476
 20
-155.0330433775829
 30
0.0
 10
123.2211500919432
 20
-155.0330433775829
 30
0.0
 10
123.7093954836668
 20
-155.0330433775829
 30
0.0
 10
124.1055653155855
 20
-155.2750398035749
 30
0.0
 10
124.1055653155855
 20
-155.57383724138
 30
0.0
  0
ENDSEC
  0
SECTION
  2
OBJECTS
  0
DICTIONARY
  5
C
330
0
100
AcDbDictionary
281
     1
  3
ACAD_GROUP
350
D
  3
ACAD_LAYOUT
350
1A
  3
ACAD_MATERIAL
350
3B
  3
ACAD_MLEADERSTYLE
350
1E7
  3
ACAD_MLINESTYLE
350
17
  3
ACAD_PLOTSETTINGS
350
19
  3
ACAD_PLOTSTYLENAME
350
E
  3
ACAD_TABLESTYLE
350
1E6
  3
ACAD_VISUALSTYLE
350
2A
  0
SUN
  5
3F
330
29
100
AcDbSun
 90
        1
290
     0
 63
     7
421
 16777215
 40
1.0
291
     1
 91
  2455826
 92
 54000000
292
     0
 70
     2
 71
   256
280
     1
  0
DICTIONARY
  5
D
102
{ACAD_REACTORS
330
C
102
}
330
C
100
AcDbDictionary
281
     1
  0
DICTIONARY
  5
1A
102
{ACAD_REACTORS
330
C
102
}
330
C
100
AcDbDictionary
281
     1
  3
Layout1
350
1E
  3
Layout2
350
26
  3
Model
350
22
  0
DICTIONARY
  5
3B
102
{ACAD_REACTORS
330
C
102
}
330
C
100
AcDbDictionary
281
     1
  3
ByBlock
350
3D
  3
ByLayer
350
3C
  3
Global
350
3E
  0
DICTIONARY
  5
1E7
102
{ACAD_REACTORS
330
C
102
}
330
C
100
AcDbDictionary
281
     1
  0
DICTIONARY
  5
17
102
{ACAD_REACTORS
330
C
102
}
330
C
100
AcDbDictionary
281
     1
  3
Standard
350
18
  0
DICTIONARY
  5
19
102
{ACAD_REACTORS
330
C
102
}
330
C
100
AcDbDictionary
281
     1
  0
ACDBDICTIONARYWDFLT
  5
E
102
{ACAD_REACTORS
330
C
102
}
330
C
100
AcDbDictionary
281
     1
  3
Normal
350
F
100
AcDbDictionaryWithDefault
340
F
  0
DICTIONARY
  5
1E6
102
{ACAD_REACTORS
330
C
102
}
330
C
100
AcDbDictionary
281
     1
  0
DICTIONARY
  5
2A
102
{ACAD_REACTORS
330
C
102
}
330
C
100
AcDbDictionary
281
     1
  3
2dWireframe
350
2F
  3
3D Hidden
350
31
  3
3dWireframe
350
30
  3
Basic
350
32
  3
Brighten
350
36
  3
ColorChange
350
3A
  3
Conceptual
350
34
  3
Dim
350
35
  3
Facepattern
350
39
  3
Flat
350
2B
  3
FlatWithEdges
350
2C
  3
Gouraud
350
2D
  3
GouraudWithEdges
350
2E
  3
Linepattern
350
38
  3
Realistic
350
33
  3
Thicken
350
37
  0
LAYOUT
  5
1E
102
{ACAD_REACTORS
330
1A
102
}
330
1A
100
AcDbPlotSettings
  1

  2
none_device
  4

  6

 40
0.0
 41
0.0
 42
0.0
 43
0.0
 44
0.0
 45
0.0
 46
0.0
 47
0.0
 48
0.0
 49
0.0
140
0.0
141
0.0
142
1.0
143
1.0
 70
   688
 72
     0
 73
     0
 74
     5
  7

 75
    16
 76
     0
 77
     2
 78
   300
147
1.0
148
0.0
149
0.0
100
AcDbLayout
  1
Layout1
 70
     1
 71
     1
 10
0.0
 20
0.0
 11
12.0
 21
9.0
 12
0.0
 22
0.0
 32
0.0
 14
1.000000000000000E+20
 24
1.000000000000000E+20
 34
1.000000000000000E+20
 15
-1.000000000000000E+20
 25
-1.000000000000000E+20
 35
-1.000000000000000E+20
146
0.0
 13
0.0
 23
0.0
 33
0.0
 16
1.0
 26
0.0
 36
0.0
 17
0.0
 27
1.0
 37
0.0
 76
     0
330
1B
  0
LAYOUT
  5
26
102
{ACAD_REACTORS
330
1A
102
}
330
1A
100
AcDbPlotSettings
  1

  2
none_device
  4

  6

 40
0.0
 41
0.0
 42
0.0
 43
0.0
 44
0.0
 45
0.0
 46
0.0
 47
0.0
 48
0.0
 49
0.0
140
0.0
141
0.0
142
1.0
143
1.0
 70
   688
 72
     0
 73
     0
 74
     5
  7

 75
    16
 76
     0
 77
     2
 78
   300
147
1.0
148
0.0
149
0.0
100
AcDbLayout
  1
Layout2
 70
     1
 71
     2
 10
0.0
 20
0.0
 11
0.0
 21
0.0
 12
0.0
 22
0.0
 32
0.0
 14
0.0
 24
0.0
 34
0.0
 15
0.0
 25
0.0
 35
0.0
146
0.0
 13
0.0
 23
0.0
 33
0.0
 16
1.0
 26
0.0
 36
0.0
 17
0.0
 27
1.0
 37
0.0
 76
     0
330
23
  0
LAYOUT
  5
22
102
{ACAD_REACTORS
330
1A
102
}
330
1A
100
AcDbPlotSettings
  1

  2
none_device
  4

  6

 40
0.0
 41
0.0
 42
0.0
 43
0.0
 44
0.0
 45
0.0
 46
0.0
 47
0.0
 48
0.0
 49
0.0
140
0.0
141
0.0
142
1.0
143
1.0
 70
  1712
 72
     0
 73
     0
 74
     0
  7

 75
     0
 76
     0
 77
     2
 78
   300
147
1.0
148
0.0
149
0.0
100
AcDbLayout
  1
Model
 70
     1
 71
     0
 10
0.0
 20
0.0
 11
12.0
 21
9.0
 12
0.0
 22
0.0
 32
0.0
 14
1.000000000000000E+20
 24
1.000000000000000E+20
 34
1.000000000000000E+20
 15
-1.000000000000000E+20
 25
-1.000000000000000E+20
 35
-1.000000000000000E+20
146
0.0
 13
0.0
 23
0.0
 33
0.0
 16
1.0
 26
0.0
 36
0.0
 17
0.0
 27
1.0
 37
0.0
 76
     0
330
1F
331
29
  0
MATERIAL
  5
3D
102
{ACAD_REACTORS
330
3B
102
}
330
3B
100
AcDbMaterial
  1
ByBlock
 72
     1
 94
      127
  0
MATERIAL
  5
3C
102
{ACAD_REACTORS
330
3B
102
}
330
3B
100
AcDbMaterial
  1
ByLayer
 72
     1
 94
      127
  0
MATERIAL
  5
3E
102
{ACAD_REACTORS
330
3B
102
}
330
3B
100
AcDbMaterial
  1
Global
 72
     1
 94
      127
  0
MLINESTYLE
  5
18
102
{ACAD_REACTORS
330
17
102
}
330
17
100
AcDbMlineStyle
  2
Standard
 70
     0
  3

 62
   256
 51
90.0
 52
90.0
 71
     2
 49
0.5
 62
   256
  6
BYLAYER
 49
-0.5
 62
   256
  6
BYLAYER
  0
ACDBPLACEHOLDER
  5
F
102
{ACAD_REACTORS
330
E
102
}
330
E
  0
VISUALSTYLE
  5
2F
102
{ACAD_REACTORS
330
2A
102
}
330
2A
100
AcDbVisualStyle
  2
2dWireframe
 70
     4
177
     2
291
     0
 71
     0
176
     1
 72
     2
176
     1
 73
     0
176
     1
 90
        0
176
     1
 40
-0.6
176
     1
 41
-30.0
176
     1
 62
     5
 63
     7
421
 16777215
176
     1
 74
     1
176
     1
 91
        4
176
     1
 64
     7
176
     1
 65
   257
176
     1
 75
     1
176
     1
175
     1
176
     1
 42
1.0
176
     1
 92
        0
176
     1
 66
   257
176
     1
 43
1.0
176
     1
 76
     1
176
     1
 77
     6
176
     1
 78
     2
176
     1
 67
     7
176
     1
 79
     5
176
     1
170
     0
176
     1
171
     0
176
     1
290
     0
176
     1
 93
        1
176
     1
 44
0.0
176
     1
173
     0
176
     1
  0
VISUALSTYLE
  5
31
102
{ACAD_REACTORS
330
2A
102
}
330
2A
100
AcDbVisualStyle
  2
3D Hidden
 70
     6
177
     2
291
     0
 71
     1
176
     1
 72
     2
176
     1
 73
     2
176
     1
 90
        0
176
     1
 40
-0.6
176
     1
 41
-30.0
176
     1
 62
     5
 63
     7
421
 16777215
176
     1
 74
     2
176
     1
 91
        2
176
     1
 64
     7
176
     1
 65
   257
176
     1
 75
     2
176
     1
175
     1
176
     1
 42
40.0
176
     1
 92
        0
176
     1
 66
   257
176
     1
 43
1.0
176
     1
 76
     1
176
     1
 77
     6
176
     1
 78
     2
176
     1
 67
     7
176
     1
 79
     3
176
     1
170
     0
176
     1
171
     0
176
     1
290
     0
176
     1
 93
        1
176
     1
 44
0.0
176
     1
173
     0
176
     1
  0
VISUALSTYLE
  5
30
102
{ACAD_REACTORS
330
2A
102
}
330
2A
100
AcDbVisualStyle
  2
3dWireframe
 70
     5
177
     2
291
     0
 71
     0
176
     1
 72
     2
176
     1
 73
     0
176
     1
 90
        0
176
     1
 40
-0.6
176
     1
 41
-30.0
176
     1
 62
     5
 63
     7
421
 16777215
176
     1
 74
     1
176
     1
 91
        4
176
     1
 64
     7
176
     1
 65
   257
176
     1
 75
     1
176
     1
175
     1
176
     1
 42
1.0
176
     1
 92
        0
176
     1
 66
   257
176
     1
 43
1.0
176
     1
 76
     1
176
     1
 77
     6
176
     1
 78
     2
176
     1
 67
     7
176
     1
 79
     5
176
     1
170
     0
176
     1
171
     0
176
     1
290
     0
176
     1
 93
        1
176
     1
 44
0.0
176
     1
173
     0
176
     1
  0
VISUALSTYLE
  5
32
102
{ACAD_REACTORS
330
2A
102
}
330
2A
100
AcDbVisualStyle
  2
Basic
 70
     7
177
     2
291
     1
 71
     1
176
     1
 72
     0
176
     1
 73
     1
176
     1
 90
        0
176
     1
 40
-0.6
176
     1
 41
-30.0
176
     1
 62
     5
 63
     7
421
 16777215
176
     1
 74
     0
176
     1
 91
        4
176
     1
 64
     7
176
     1
 65
   257
176
     1
 75
     1
176
     1
175
     1
176
     1
 42
1.0
176
     1
 92
        8
176
     1
 66
     7
176
     1
 43
1.0
176
     1
 76
     1
176
     1
 77
     6
176
     1
 78
     2
176
     1
 67
     7
176
     1
 79
     5
176
     1
170
     0
176
     1
171
     0
176
     1
290
     0
176
     1
 93
        1
176
     1
 44
0.0
176
     1
173
     0
176
     1
  0
VISUALSTYLE
  5
36
102
{ACAD_REACTORS
330
2A
102
}
330
2A
100
AcDbVisualStyle
  2
Brighten
 70
    12
177
     2
291
     1
 71
     2
176
     1
 72
     2
176
     1
 73
     0
176
     1
 90
        0
176
     1
 40
-0.6
176
     1
 41
-30.0
176
     1
 62
     5
 63
     7
421
 16777215
176
     1
 74
     1
176
     1
 91
        4
176
     1
 64
     7
176
     1
 65
   257
176
     1
 75
     1
176
     1
175
     1
176
     1
 42
1.0
176
     1
 92
        8
176
     1
 66
     7
176
     1
 43
1.0
176
     1
 76
     1
176
     1
 77
     6
176
     1
 78
     2
176
     1
 67
     7
176
     1
 79
     5
176
     1
170
     0
176
     1
171
     0
176
     1
290
     0
176
     1
 93
        1
176
     1
 44
50.0
176
     1
173
     0
176
     1
  0
VISUALSTYLE
  5
3A
102
{ACAD_REACTORS
330
2A
102
}
330
2A
100
AcDbVisualStyle
  2
ColorChange
 70
    16
177
     2
291
     1
 71
     2
176
     1
 72
     2
176
     1
 73
     3
176
     1
 90
        0
176
     1
 40
-0.6
176
     1
 41
-30.0
176
     1
 62
     5
 63
     8
421
  8421504
176
     1
 74
     1
176
     1
 91
        4
176
     1
 64
     7
176
     1
 65
   257
176
     1
 75
     1
176
     1
175
     1
176
     1
 42
1.0
176
     1
 92
        8
176
     1
 66
     8
424
  8421504
176
     1
 43
1.0
176
     1
 76
     1
176
     1
 77
     6
176
     1
 78
     2
176
     1
 67
     7
176
     1
 79
     5
176
     1
170
     0
176
     1
171
     0
176
     1
290
     0
176
     1
 93
        1
176
     1
 44
0.0
176
     1
173
     0
176
     1
  0
VISUALSTYLE
  5
34
102
{ACAD_REACTORS
330
2A
102
}
330
2A
100
AcDbVisualStyle
  2
Conceptual
 70
     9
177
     2
291
     0
 71
     3
176
     1
 72
     2
176
     1
 73
     0
176
     1
 90
        0
176
     1
 40
-0.6
176
     1
 41
-30.0
176
     1
 62
     5
 63
     7
421
 16777215
176
     1
 74
     2
176
     1
 91
        2
176
     1
 64
     7
176
     1
 65
   257
176
     1
 75
     1
176
     1
175
     1
176
     1
 42
40.0
176
     1
 92
        8
176
     1
 66
     7
176
     1
 43
1.0
176
     1
 76
     1
176
     1
 77
     6
176
     1
 78
     2
176
     1
 67
     7
176
     1
 79
     3
176
     1
170
     0
176
     1
171
     0
176
     1
290
     0
176
     1
 93
        1
176
     1
 44
0.0
176
     1
173
     0
176
     1
  0
VISUALSTYLE
  5
35
102
{ACAD_REACTORS
330
2A
102
}
330
2A
100
AcDbVisualStyle
  2
Dim
 70
    11
177
     2
291
     1
 71
     2
176
     1
 72
     2
176
     1
 73
     0
176
     1
 90
        0
176
     1
 40
-0.6
176
     1
 41
-30.0
176
     1
 62
     5
 63
     7
421
 16777215
176
     1
 74
     1
176
     1
 91
        4
176
     1
 64
     7
176
     1
 65
   257
176
     1
 75
     1
176
     1
175
     1
176
     1
 42
1.0
176
     1
 92
        8
176
     1
 66
     7
176
     1
 43
1.0
176
     1
 76
     1
176
     1
 77
     6
176
     1
 78
     2
176
     1
 67
     7
176
     1
 79
     5
176
     1
170
     0
176
     1
171
     0
176
     1
290
     0
176
     1
 93
        1
176
     1
 44
-50.0
176
     1
173
     0
176
     1
  0
VISUALSTYLE
  5
39
102
{ACAD_REACTORS
330
2A
102
}
330
2A
100
AcDbVisualStyle
  2
Facepattern
 70
    15
177
     2
291
     1
 71
     2
176
     1
 72
     2
176
     1
 73
     0
176
     1
 90
        0
176
     1
 40
-0.6
176
     1
 41
-30.0
176
     1
 62
     5
 63
     7
421
 16777215
176
     1
 74
     1
176
     1
 91
        4
176
     1
 64
     7
176
     1
 65
   257
176
     1
 75
     1
176
     1
175
     1
176
     1
 42
1.0
176
     1
 92
        8
176
     1
 66
     7
176
     1
 43
1.0
176
     1
 76
     1
176
     1
 77
     6
176
     1
 78
     2
176
     1
 67
     7
176
     1
 79
     5
176
     1
170
     0
176
     1
171
     0
176
     1
290
     0
176
     1
 93
        1
176
     1
 44
0.0
176
     1
173
     0
176
     1
  0
VISUALSTYLE
  5
2B
102
{ACAD_REACTORS
330
2A
102
}
330
2A
100
AcDbVisualStyle
  2
Flat
 70
     0
177
     2
291
     1
 71
     2
176
     1
 72
     1
176
     1
 73
     1
176
     1
 90
        2
176
     1
 40
-0.6
176
     1
 41
30.0
176
     1
 62
     5
 63
     7
421
 16777215
176
     1
 74
     0
176
     1
 91
        4
176
     1
 64
     7
176
     1
 65
   257
176
     1
 75
     1
176
     1
175
     1
176
     1
 42
1.0
176
     1
 92
        8
176
     1
 66
     7
176
     1
 43
1.0
176
     1
 76
     1
176
     1
 77
     6
176
     1
 78
     2
176
     1
 67
     7
176
     1
 79
     5
176
     1
170
     0
176
     1
171
     0
176
     1
290
     0
176
     1
 93
       13
176
     1
 44
0.0
176
     1
173
     0
176
     1
  0
VISUALSTYLE
  5
2C
102
{ACAD_REACTORS
330
2A
102
}
330
2A
100
AcDbVisualStyle
  2
FlatWithEdges
 70
     1
177
     2
291
     1
 71
     2
176
     1
 72
     1
176
     1
 73
     1
176
     1
 90
        2
176
     1
 40
-0.6
176
     1
 41
30.0
176
     1
 62
     5
 63
     7
421
 16777215
176
     1
 74
     1
176
     1
 91
        4
176
     1
 64
     7
176
     1
 65
   257
176
     1
 75
     1
176
     1
175
     1
176
     1
 42
1.0
176
     1
 92
        0
176
     1
 66
   257
176
     1
 43
1.0
176
     1
 76
     1
176
     1
 77
     6
176
     1
 78
     2
176
     1
 67
     7
176
     1
 79
     5
176
     1
170
     0
176
     1
171
     0
176
     1
290
     0
176
     1
 93
       13
176
     1
 44
0.0
176
     1
173
     0
176
     1
  0
VISUALSTYLE
  5
2D
102
{ACAD_REACTORS
330
2A
102
}
330
2A
100
AcDbVisualStyle
  2
Gouraud
 70
     2
177
     2
291
     1
 71
     2
176
     1
 72
     2
176
     1
 73
     1
176
     1
 90
        2
176
     1
 40
-0.6
176
     1
 41
30.0
176
     1
 62
     5
 63
     7
421
 16777215
176
     1
 74
     0
176
     1
 91
        4
176
     1
 64
     7
176
     1
 65
   257
176
     1
 75
     1
176
     1
175
     1
176
     1
 42
1.0
176
     1
 92
        0
176
     1
 66
     7
176
     1
 43
1.0
176
     1
 76
     1
176
     1
 77
     6
176
     1
 78
     2
176
     1
 67
     7
176
     1
 79
     5
176
     1
170
     0
176
     1
171
     0
176
     1
290
     0
176
     1
 93
       13
176
     1
 44
0.0
176
     1
173
     0
176
     1
  0
VISUALSTYLE
  5
2E
102
{ACAD_REACTORS
330
2A
102
}
330
2A
100
AcDbVisualStyle
  2
GouraudWithEdges
 70
     3
177
     2
291
     1
 71
     2
176
     1
 72
     2
176
     1
 73
     1
176
     1
 90
        2
176
     1
 40
-0.6
176
     1
 41
30.0
176
     1
 62
     5
 63
     7
421
 16777215
176
     1
 74
     1
176
     1
 91
        4
176
     1
 64
     7
176
     1
 65
   257
176
     1
 75
     1
176
     1
175
     1
176
     1
 42
1.0
176
     1
 92
        0
176
     1
 66
   257
176
     1
 43
1.0
176
     1
 76
     1
176
     1
 77
     6
176
     1
 78
     2
176
     1
 67
     7
176
     1
 79
     5
176
     1
170
     0
176
     1
171
     0
176
     1
290
     0
176
     1
 93
       13
176
     1
 44
0.0
176
     1
173
     0
176
     1
  0
VISUALSTYLE
  5
38
102
{ACAD_REACTORS
330
2A
102
}
330
2A
100
AcDbVisualStyle
  2
Linepattern
 70
    14
177
     2
291
     1
 71
     2
176
     1
 72
     2
176
     1
 73
     0
176
     1
 90
        0
176
     1
 40
-0.6
176
     1
 41
-30.0
176
     1
 62
     5
 63
     7
421
 16777215
176
     1
 74
     1
176
     1
 91
        4
176
     1
 64
     7
176
     1
 65
   257
176
     1
 75
     7
176
     1
175
     7
176
     1
 42
1.0
176
     1
 92
        8
176
     1
 66
     7
176
     1
 43
1.0
176
     1
 76
     1
176
     1
 77
     6
176
     1
 78
     2
176
     1
 67
     7
176
     1
 79
     5
176
     1
170
     0
176
     1
171
     0
176
     1
290
     0
176
     1
 93
        1
176
     1
 44
0.0
176
     1
173
     0
176
     1
  0
VISUALSTYLE
  5
33
102
{ACAD_REACTORS
330
2A
102
}
330
2A
100
AcDbVisualStyle
  2
Realistic
 70
     8
177
     2
291
     0
 71
     2
176
     1
 72
     2
176
     1
 73
     0
176
     1
 90
        0
176
     1
 40
-0.6
176
     1
 41
-30.0
176
     1
 62
     5
 63
     7
421
 16777215
176
     1
 74
     1
176
     1
 91
        0
176
     1
 64
     7
176
     1
 65
   257
176
     1
 75
     1
176
     1
175
     1
176
     1
 42
1.0
176
     1
 92
        8
176
     1
 66
     8
424
  7895160
176
     1
 43
1.0
176
     1
 76
     1
176
     1
 77
     6
176
     1
 78
     2
176
     1
 67
     7
176
     1
 79
     5
176
     1
170
     0
176
     1
171
     0
176
     1
290
     0
176
     1
 93
       13
176
     1
 44
0.0
176
     1
173
     0
176
     1
  0
VISUALSTYLE
  5
37
102
{ACAD_REACTORS
330
2A
102
}
330
2A
100
AcDbVisualStyle
  2
Thicken
 70
    13
177
     2
291
     1
 71
     2
176
     1
 72
     2
176
     1
 73
     0
176
     1
 90
        0
176
     1
 40
-0.6
176
     1
 41
-30.0
176
     1
 62
     5
 63
     7
421
 16777215
176
     1
 74
     1
176
     1
 91
        4
176
     1
 64
     7
176
     1
 65
   257
176
     1
 75
     1
176
     1
175
     1
176
     1
 42
1.0
176
     1
 92
       12
176
     1
 66
     7
176
     1
 43
1.0
176
     1
 76
     1
176
     1
 77
     6
176
     1
 78
     2
176
     1
 67
     7
176
     1
 79
     5
176
     1
170
     0
176
     1
171
     0
176
     1
290
     0
176
     1
 93
        1
176
     1
 44
0.0
176
     1
173
     0
176
     1
  0
ENDSEC
  0
EOF
