  0
SECTION
  2
HEADER
  9
$ACADVER
  1
AC1024
  9
$ACADMAINTVER
 70
     6
  9
$DWGCODEPAGE
  3
UNDEFINED
  9
$INSBASE
 10
0.0
 20
0.0
 30
0.0
  9
$EXTMIN
 10
1.000000000000000E+20
 20
1.000000000000000E+20
 30
1.000000000000000E+20
  9
$EXTMAX
 10
-1.000000000000000E+20
 20
-1.000000000000000E+20
 30
-1.000000000000000E+20
  9
$LIMMIN
 10
0.0
 20
0.0
  9
$LIMMAX
 10
12.0
 20
9.0
  9
$ORTHOMODE
 70
     0
  9
$REGENMODE
 70
     1
  9
$FILLMODE
 70
     1
  9
$QTEXTMODE
 70
     0
  9
$MIRRTEXT
 70
     1
  9
$LTSCALE
 40
1.0
  9
$ATTMODE
 70
     1
  9
$TEXTSIZE
 40
0.2
  9
$TRACEWID
 40
0.05
  9
$TEXTSTYLE
  7
Standard
  9
$CLAYER
  8
0
  9
$CELTYPE
  6
ByLayer
  9
$CECOLOR
 62
   256
  9
$CELTSCALE
 40
1.0
  9
$DISPSILH
 70
     0
  9
$DIMSCALE
 40
1.0
  9
$DIMASZ
 40
0.18
  9
$DIMEXO
 40
0.0625
  9
$DIMDLI
 40
0.38
  9
$DIMRND
 40
0.0
  9
$DIMDLE
 40
0.0
  9
$DIMEXE
 40
0.18
  9
$DIMTP
 40
0.0
  9
$DIMTM
 40
0.0
  9
$DIMTXT
 40
0.18
  9
$DIMCEN
 40
0.09
  9
$DIMTSZ
 40
0.0
  9
$DIMTOL
 70
     0
  9
$DIMLIM
 70
     0
  9
$DIMTIH
 70
     1
  9
$DIMTOH
 70
     1
  9
$DIMSE1
 70
     0
  9
$DIMSE2
 70
     0
  9
$DIMTAD
 70
     0
  9
$DIMZIN
 70
     0
  9
$DIMBLK
  1

  9
$DIMASO
 70
     1
  9
$DIMSHO
 70
     1
  9
$DIMPOST
  1

  9
$DIMAPOST
  1

  9
$DIMALT
 70
     0
  9
$DIMALTD
 70
     2
  9
$DIMALTF
 40
25.4
  9
$DIMLFAC
 40
1.0
  9
$DIMTOFL
 70
     0
  9
$DIMTVP
 40
0.0
  9
$DIMTIX
 70
     0
  9
$DIMSOXD
 70
     0
  9
$DIMSAH
 70
     0
  9
$DIMBLK1
  1

  9
$DIMBLK2
  1

  9
$DIMSTYLE
  2
Standard
  9
$DIMCLRD
 70
     0
  9
$DIMCLRE
 70
     0
  9
$DIMCLRT
 70
     0
  9
$DIMTFAC
 40
1.0
  9
$DIMGAP
 40
0.09
  9
$DIMJUST
 70
     0
  9
$DIMSD1
 70
     0
  9
$DIMSD2
 70
     0
  9
$DIMTOLJ
 70
     1
  9
$DIMTZIN
 70
     0
  9
$DIMALTZ
 70
     0
  9
$DIMALTTZ
 70
     0
  9
$DIMUPT
 70
     0
  9
$DIMDEC
 70
     4
  9
$DIMTDEC
 70
     4
  9
$DIMALTU
 70
     2
  9
$DIMALTTD
 70
     2
  9
$DIMTXSTY
  7
Standard
  9
$DIMAUNIT
 70
     0
  9
$DIMADEC
 70
     0
  9
$DIMALTRND
 40
0.0
  9
$DIMAZIN
 70
     0
  9
$DIMDSEP
 70
    46
  9
$DIMATFIT
 70
     3
  9
$DIMFRAC
 70
     0
  9
$DIMLDRBLK
  1

  9
$DIMLUNIT
 70
     2
  9
$DIMLWD
 70
    -2
  9
$DIMLWE
 70
    -2
  9
$DIMTMOVE
 70
     0
  9
$DIMFXL
 40
1.0
  9
$DIMFXLON
 70
     0
  9
$DIMJOGANG
 40
0.7853981633974483
  9
$DIMTFILL
 70
     0
  9
$DIMTFILLCLR
 70
     0
  9
$DIMARCSYM
 70
     0
  9
$DIMLTYPE
  6

  9
$DIMLTEX1
  6

  9
$DIMLTEX2
  6

  9
$DIMTXTDIRECTION
 70
     0
  9
$LUNITS
 70
     2
  9
$LUPREC
 70
     4
  9
$SKETCHINC
 40
0.1
  9
$FILLETRAD
 40
0.5
  9
$AUNITS
 70
     0
  9
$AUPREC
 70
     0
  9
$MENU
  1
.
  9
$ELEVATION
 40
0.0
  9
$PELEVATION
 40
0.0
  9
$THICKNESS
 40
0.0
  9
$LIMCHECK
 70
     0
  9
$CHAMFERA
 40
0.5
  9
$CHAMFERB
 40
0.5
  9
$CHAMFERC
 40
1.0
  9
$CHAMFERD
 40
0.0
  9
$SKPOLY
 70
     0
  9
$TDCREATE
 40
2458263.578391192
  9
$TDUCREATE
 40
2458263.203391204
  9
$TDUPDATE
 40
2458263.578391192
  9
$TDUUPDATE
 40
2458263.203391204
  9
$TDINDWG
 40
0.0000000116
  9
$TDUSRTIMER
 40
0.0000000116
  9
$USRTIMER
 70
     1
  9
$ANGBASE
 50
0.0
  9
$ANGDIR
 70
     0
  9
$PDMODE
 70
     0
  9
$PDSIZE
 40
0.0
  9
$PLINEWID
 40
0.0
  9
$SPLFRAME
 70
     0
  9
$SPLINETYPE
 70
     6
  9
$SPLINESEGS
 70
     8
  9
$HANDSEED
  5
149
  9
$SURFTAB1
 70
     6
  9
$SURFTAB2
 70
     6
  9
$SURFTYPE
 70
     6
  9
$SURFU
 70
     6
  9
$SURFV
 70
     6
  9
$UCSBASE
  2

  9
$UCSNAME
  2

  9
$UCSORG
 10
0.0
 20
0.0
 30
0.0
  9
$UCSXDIR
 10
1.0
 20
0.0
 30
0.0
  9
$UCSYDIR
 10
0.0
 20
1.0
 30
0.0
  9
$UCSORTHOREF
  2

  9
$UCSORTHOVIEW
 70
     0
  9
$UCSORGTOP
 10
0.0
 20
0.0
 30
0.0
  9
$UCSORGBOTTOM
 10
0.0
 20
0.0
 30
0.0
  9
$UCSORGLEFT
 10
0.0
 20
0.0
 30
0.0
  9
$UCSORGRIGHT
 10
0.0
 20
0.0
 30
0.0
  9
$UCSORGFRONT
 10
0.0
 20
0.0
 30
0.0
  9
$UCSORGBACK
 10
0.0
 20
0.0
 30
0.0
  9
$PUCSBASE
  2

  9
$PUCSNAME
  2

  9
$PUCSORG
 10
0.0
 20
0.0
 30
0.0
  9
$PUCSXDIR
 10
1.0
 20
0.0
 30
0.0
  9
$PUCSYDIR
 10
0.0
 20
1.0
 30
0.0
  9
$PUCSORTHOREF
  2

  9
$PUCSORTHOVIEW
 70
     0
  9
$PUCSORGTOP
 10
0.0
 20
0.0
 30
0.0
  9
$PUCSORGBOTTOM
 10
0.0
 20
0.0
 30
0.0
  9
$PUCSORGLEFT
 10
0.0
 20
0.0
 30
0.0
  9
$PUCSORGRIGHT
 10
0.0
 20
0.0
 30
0.0
  9
$PUCSORGFRONT
 10
0.0
 20
0.0
 30
0.0
  9
$PUCSORGBACK
 10
0.0
 20
0.0
 30
0.0
  9
$USERI1
 70
     0
  9
$USERI2
 70
     0
  9
$USERI3
 70
     0
  9
$USERI4
 70
     0
  9
$USERI5
 70
     0
  9
$USERR1
 40
0.0
  9
$USERR2
 40
0.0
  9
$USERR3
 40
0.0
  9
$USERR4
 40
0.0
  9
$USERR5
 40
0.0
  9
$WORLDVIEW
 70
     1
  9
$SHADEDGE
 70
     3
  9
$SHADEDIF
 70
    70
  9
$TILEMODE
 70
     1
  9
$MAXACTVP
 70
    64
  9
$PINSBASE
 10
0.0
 20
0.0
 30
0.0
  9
$PLIMCHECK
 70
     0
  9
$PEXTMIN
 10
1.000000000000000E+20
 20
1.000000000000000E+20
 30
1.000000000000000E+20
  9
$PEXTMAX
 10
-1.000000000000000E+20
 20
-1.000000000000000E+20
 30
-1.000000000000000E+20
  9
$PLIMMIN
 10
0.0
 20
0.0
  9
$PLIMMAX
 10
12.0
 20
9.0
  9
$UNITMODE
 70
     0
  9
$VISRETAIN
 70
     1
  9
$PLINEGEN
 70
     0
  9
$PSLTSCALE
 70
     1
  9
$TREEDEPTH
 70
  3020
  9
$CMLSTYLE
  2
Standard
  9
$CMLJUST
 70
     0
  9
$CMLSCALE
 40
1.0
  9
$PROXYGRAPHICS
 70
     1
  9
$MEASUREMENT
 70
     0
  9
$CELWEIGHT
370
    -1
  9
$ENDCAPS
280
     0
  9
$JOINSTYLE
280
     0
  9
$LWDISPLAY
290
     1
  9
$INSUNITS
 70
     1
  9
$HYPERLINKBASE
  1

  9
$STYLESHEET
  1

  9
$XEDIT
290
     1
  9
$CEPSNTYPE
380
     0
  9
$PSTYLEMODE
290
     1
  9
$FINGERPRINTGUID
  2
{7CD6FB25-06FD-1FBE-E708-A09DFD895CF5}
  9
$VERSIONGUID
  2
{FAEB1C32-E019-11D5-929B-00C0DF256EC4}
  9
$EXTNAMES
290
     1
  9
$PSVPSCALE
 40
0.0
  9
$OLESTARTUP
290
     0
  9
$SORTENTS
280
   127
  9
$INDEXCTL
280
     0
  9
$HIDETEXT
280
     1
  9
$XCLIPFRAME
280
     2
  9
$HALOGAP
280
     0
  9
$OBSCOLOR
 70
   257
  9
$OBSLTYPE
280
     0
  9
$INTERSECTIONDISPLAY
280
     0
  9
$INTERSECTIONCOLOR
 70
   257
  9
$DIMASSOC
280
     2
  9
$PROJECTNAME
  1

  9
$CAMERADISPLAY
290
     0
  9
$LENSLENGTH
 40
50.0
  9
$CAMERAHEIGHT
 40
0.0
  9
$STEPSPERSEC
 40
2.0
  9
$STEPSIZE
 40
6.0
  9
$3DDWFPREC
 40
2.0
  9
$PSOLWIDTH
 40
0.25
  9
$PSOLHEIGHT
 40
4.0
  9
$LOFTANG1
 40
1.570796326794897
  9
$LOFTANG2
 40
1.570796326794897
  9
$LOFTMAG1
 40
0.0
  9
$LOFTMAG2
 40
0.0
  9
$LOFTPARAM
 70
     7
  9
$LOFTNORMALS
280
     1
  9
$LATITUDE
 40
37.795
  9
$LONGITUDE
 40
-122.394
  9
$NORTHDIRECTION
 40
0.0
  9
$TIMEZONE
 70
 -8000
  9
$LIGHTGLYPHDISPLAY
280
     1
  9
$TILEMODELIGHTSYNCH
280
     1
  9
$CMATERIAL
347
3C
  9
$SOLIDHIST
280
     1
  9
$SHOWHIST
280
     1
  9
$DWFFRAME
280
     2
  9
$DGNFRAME
280
     2
  9
$REALWORLDSCALE
290
     1
  9
$INTERFERECOLOR
 62
   256
  9
$CSHADOW
280
     0
  9
$SHADOWPLANELOCATION
 40
0.0
  0
ENDSEC
  0
SECTION
  2
CLASSES
  0
CLASS
  1
ACDBDICTIONARYWDFLT
  2
AcDbDictionaryWithDefault
  3
ObjectDBX Classes
 90
        0
 91
        4
280
     0
281
     0
  0
CLASS
  1
VISUALSTYLE
  2
AcDbVisualStyle
  3
ObjectDBX Classes
 90
     4095
 91
        4
280
     0
281
     0
  0
CLASS
  1
MATERIAL
  2
AcDbMaterial
  3
ObjectDBX Classes
 90
     1153
 91
        4
280
     0
281
     0
  0
CLASS
  1
SUN
  2
AcDbSun
  3
SCENEOE
 90
     1024
 91
        4
280
     0
281
     0
  0
ENDSEC
  0
SECTION
  2
TABLES
  0
TABLE
  2
VPORT
  5
8
330
0
100
AcDbSymbolTable
 70
     1
  0
VPORT
  5
29
330
8
100
AcDbSymbolTableRecord
100
AcDbViewportTableRecord
  2
*Active
 70
     0
 10
0.0
 20
0.0
 11
1.0
 21
1.0
 12
0.0
 22
0.0
 13
0.0
 23
0.0
 14
0.5
 24
0.5
 15
0.5
 25
0.5
 16
0.0
 26
0.0
 36
1.0
 17
105.0007777515277
 27
-148.5000416295416
 37
0.0
 40
297.0000832590831
 41
0.7070757462376333
 42
50.0
 43
0.0
 44
0.0
 50
0.0
 51
0.0
 71
     0
 72
   100
 73
     1
 74
     3
 75
     0
 76
     0
 77
     0
 78
     0
281
     0
 65
     1
110
0.0
120
0.0
130
0.0
111
1.0
121
0.0
131
0.0
112
0.0
122
1.0
132
0.0
 79
     0
146
0.0
 60
     3
 61
     5
292
     1
282
     1
141
0.0
142
0.0
 63
   250
361
3F
  0
ENDTAB
  0
TABLE
  2
LTYPE
  5
5
330
0
100
AcDbSymbolTable
 70
     1
  0
LTYPE
  5
14
330
5
100
AcDbSymbolTableRecord
100
AcDbLinetypeTableRecord
  2
ByBlock
 70
     0
  3

 72
    65
 73
     0
 40
0.0
  0
LTYPE
  5
15
330
5
100
AcDbSymbolTableRecord
100
AcDbLinetypeTableRecord
  2
ByLayer
 70
     0
  3

 72
    65
 73
     0
 40
0.0
  0
LTYPE
  5
16
330
5
100
AcDbSymbolTableRecord
100
AcDbLinetypeTableRecord
  2
Continuous
 70
     0
  3
Solid line
 72
    65
 73
     0
 40
0.0
  0
ENDTAB
  0
TABLE
  2
LAYER
  5
2
330
0
100
AcDbSymbolTable
 70
     2
  0
LAYER
  5
10
330
2
100
AcDbSymbolTableRecord
100
AcDbLayerTableRecord
  2
0
 70
     0
 62
     7
  6
Continuous
370
    -3
390
F
347
3E
  0
LAYER
  5
40
330
2
100
AcDbSymbolTableRecord
100
AcDbLayerTableRecord
  2
_U+30EC_U+30A4_U+30E4_U+30FC 1
 70
     0
 62
     7
  6
Continuous
370
    -3
390
F
347
3E
  0
ENDTAB
  0
TABLE
  2
STYLE
  5
3
330
0
100
AcDbSymbolTable
 70
     1
  0
STYLE
  5
11
330
3
100
AcDbSymbolTableRecord
100
AcDbTextStyleTableRecord
  2
Standard
 70
     0
 40
0.0
 41
1.0
 50
0.0
 71
     0
 42
0.2
  3
txt
  4

  0
ENDTAB
  0
TABLE
  2
VIEW
  5
6
330
0
100
AcDbSymbolTable
 70
     0
  0
ENDTAB
  0
TABLE
  2
UCS
  5
7
330
0
100
AcDbSymbolTable
 70
     0
  0
ENDTAB
  0
TABLE
  2
APPID
  5
9
330
0
100
AcDbSymbolTable
 70
     1
  0
APPID
  5
12
330
9
100
AcDbSymbolTableRecord
100
AcDbRegAppTableRecord
  2
ACAD
 70
     0
  0
ENDTAB
  0
TABLE
  2
DIMSTYLE
  5
A
330
0
100
AcDbSymbolTable
 70
     1
100
AcDbDimStyleTable
  0
DIMSTYLE
105
27
330
A
100
AcDbSymbolTableRecord
100
AcDbDimStyleTableRecord
  2
Standard
 70
     0
178
     0
340
11
  0
ENDTAB
  0
TABLE
  2
BLOCK_RECORD
  5
1
330
0
100
AcDbSymbolTable
 70
     4
  0
BLOCK_RECORD
  5
1F
330
1
100
AcDbSymbolTableRecord
100
AcDbBlockTableRecord
  2
*Model_Space
340
22
 70
     0
280
     1
281
     0
  0
BLOCK_RECORD
  5
1B
330
1
100
AcDbSymbolTableRecord
100
AcDbBlockTableRecord
  2
*Paper_Space
340
1E
 70
     0
280
     1
281
     0
  0
BLOCK_RECORD
  5
23
330
1
100
AcDbSymbolTableRecord
100
AcDbBlockTableRecord
  2
*Paper_Space0
340
26
 70
     0
280
     1
281
     0
  0
BLOCK_RECORD
  5
41
330
1
100
AcDbSymbolTableRecord
100
AcDbBlockTableRecord
  2
block 2
340
0
102
{BLKREFS
331
42
102
}
 70
     0
280
     1
281
     0
  0
BLOCK_RECORD
  5
85
330
1
100
AcDbSymbolTableRecord
100
AcDbBlockTableRecord
  2
block 3
340
0
102
{BLKREFS
331
86
102
}
 70
     0
280
     1
281
     0
  0
BLOCK_RECORD
  5
B2
330
1
100
AcDbSymbolTableRecord
100
AcDbBlockTableRecord
  2
block 4
340
0
102
{BLKREFS
331
B3
102
}
 70
     0
280
     1
281
     0
  0
ENDTAB
  0
ENDSEC
  0
SECTION
  2
BLOCKS
  0
BLOCK
  5
20
330
1F
100
AcDbEntity
  8
0
100
AcDbBlockBegin
  2
*Model_Space
 70
     0
 10
0.0
 20
0.0
 30
0.0
  3
*Model_Space
  1

  0
ENDBLK
  5
21
330
1F
100
AcDbEntity
  8
0
100
AcDbBlockEnd
  0
BLOCK
  5
1C
330
1B
100
AcDbEntity
 67
     1
  8
0
100
AcDbBlockBegin
  2
*Paper_Space
 70
     0
 10
0.0
 20
0.0
 30
0.0
  3
*Paper_Space
  1

  0
ENDBLK
  5
1D
330
1B
100
AcDbEntity
 67
     1
  8
0
100
AcDbBlockEnd
  0
BLOCK
  5
24
330
23
100
AcDbEntity
  8
0
100
AcDbBlockBegin
  2
*Paper_Space0
 70
     0
 10
0.0
 20
0.0
 30
0.0
  3
*Paper_Space0
  1

  0
ENDBLK
  5
25
330
23
100
AcDbEntity
  8
0
100
AcDbBlockEnd
  0
BLOCK
  5
43
330
41
100
AcDbEntity
  8
0
100
AcDbBlockBegin
  2
block 2
 70
     0
 10
0.0
 20
0.0
 30
0.0
  3
block 2
  1

  0
SPLINE
  5
45
330
41
100
AcDbEntity
  8
_U+30EC_U+30A4_U+30E4_U+30FC 1
370
     0
100
AcDbSpline
210
0.0
220
0.0
230
1.0
 70
    11
 71
     3
 72
    38
 73
    34
 74
     0
 42
0.0000000001
 43
0.0000000001
 12
1.0
 22
0.0
 32
0.0
 13
1.0
 23
0.0
 33
0.0
 40
0.0
 40
0.0
 40
0.0
 40
0.0
 40
1.0
 40
1.0
 40
1.0
 40
2.0
 40
2.0
 40
2.0
 40
3.0
 40
3.0
 40
3.0
 40
4.0
 40
4.0
 40
4.0
 40
5.0
 40
5.0
 40
5.0
 40
6.0
 40
6.0
 40
6.0
 40
7.0
 40
7.0
 40
7.0
 40
8.0
 40
8.0
 40
8.0
 40
9.0
 40
9.0
 40
9.0
 40
10.0
 40
10.0
 40
10.0
 40
11.0
 40
11.0
 40
11.0
 40
11.0
 10
107.3557210018069
 20
-137.7731580601748
 30
0.0
 10
107.3557210018069
 20
-137.3077256601175
 30
0.0
 10
107.7195230850493
 20
-137.0328070403946
 30
0.0
 10
108.1890895996888
 20
-137.0328070403946
 30
0.0
 10
108.7137776420924
 20
-137.0328070403946
 30
0.0
 10
108.9993760578196
 20
-137.375594041177
 30
0.0
 10
108.9993760578196
 20
-137.783837856179
 30
0.0
 10
108.9993760578196
 20
-138.1286919142526
 30
0.0
 10
108.8109293347764
 20
-138.4056775912667
 30
0.0
 10
108.4936360405849
 20
-138.4270371832752
 30
0.0
 10
108.4936360405849
 20
-138.4270371832752
 30
0.0
 10
108.4936360405849
 20
-138.196560295312
 30
0.0
 10
108.4936360405849
 20
-138.196560295312
 30
0.0
 10
108.701030788797
 20
-138.1583197354257
 30
0.0
 10
108.783713080443
 20
-137.9381781339182
 30
0.0
 10
108.783713080443
 20
-137.7776366843056
 30
0.0
 10
108.783713080443
 20
-137.6739393101996
 30
0.0
 10
108.7516736924301
 20
-137.5574950827981
 30
0.0
 10
108.6755370822061
 20
-137.4644775046964
 30
0.0
 10
108.5487575683489
 20
-137.3035915455352
 30
0.0
 10
108.3330945909723
 20
-137.2739637243621
 30
0.0
 10
108.1742756891023
 20
-137.2739637243621
 30
0.0
 10
107.7343369956359
 20
-137.2739637243621
 30
0.0
 10
107.5734510364747
 20
-137.5533609682158
 30
0.0
 10
107.5734510364747
 20
-137.7690239455925
 30
0.0
 10
107.5734510364747
 20
-137.9064832554539
 30
0.0
 10
107.653721761281
 20
-138.1772677605946
 30
0.0
 10
107.9713595650211
 20
-138.2089626390589
 30
0.0
 10
107.9713595650211
 20
-138.2089626390589
 30
0.0
 10
107.9713595650211
 20
-138.4397840365706
 30
0.0
 10
107.9713595650211
 20
-138.4397840365706
 30
0.0
 10
107.8359673124507
 20
-138.4270371832752
 30
0.0
 10
107.3557210018069
 20
-138.3784613369332
 30
0.0
 10
107.3557210018069
 20
-137.7731580601748
 30
0.0
  0
HATCH
  5
46
330
41
100
AcDbEntity
  8
_U+30EC_U+30A4_U+30E4_U+30FC 1
 62
   179
420
  2234388
100
AcDbHatch
 10
0.0
 20
0.0
 30
0.0
210
0.0
220
0.0
230
1.0
  2
SOLID
 70
     1
 71
     0
 91
        1
 92
        1
 93
        1
 72
     4
 94
        3
 73
     0
 74
     1
 95
       38
 96
       34
 40
0.0
 40
0.0
 40
0.0
 40
0.0
 40
1.0
 40
1.0
 40
1.0
 40
2.0
 40
2.0
 40
2.0
 40
3.0
 40
3.0
 40
3.0
 40
4.0
 40
4.0
 40
4.0
 40
5.0
 40
5.0
 40
5.0
 40
6.0
 40
6.0
 40
6.0
 40
7.0
 40
7.0
 40
7.0
 40
8.0
 40
8.0
 40
8.0
 40
9.0
 40
9.0
 40
9.0
 40
10.0
 40
10.0
 40
10.0
 40
11.0
 40
11.0
 40
11.0
 40
11.0
 10
107.3557210018069
 20
-137.7731580601748
 10
107.3557210018069
 20
-137.3077256601175
 10
107.7195230850493
 20
-137.0328070403946
 10
108.1890895996888
 20
-137.0328070403946
 10
108.7137776420924
 20
-137.0328070403946
 10
108.9993760578196
 20
-137.375594041177
 10
108.9993760578196
 20
-137.783837856179
 10
108.9993760578196
 20
-138.1286919142526
 10
108.8109293347764
 20
-138.4056775912667
 10
108.4936360405849
 20
-138.4270371832752
 10
108.4936360405849
 20
-138.4270371832752
 10
108.4936360405849
 20
-138.196560295312
 10
108.4936360405849
 20
-138.196560295312
 10
108.701030788797
 20
-138.1583197354257
 10
108.783713080443
 20
-137.9381781339182
 10
108.783713080443
 20
-137.7776366843056
 10
108.783713080443
 20
-137.6739393101996
 10
108.7516736924301
 20
-137.5574950827981
 10
108.6755370822061
 20
-137.4644775046964
 10
108.5487575683489
 20
-137.3035915455352
 10
108.3330945909723
 20
-137.2739637243621
 10
108.1742756891023
 20
-137.2739637243621
 10
107.7343369956359
 20
-137.2739637243621
 10
107.5734510364747
 20
-137.5533609682158
 10
107.5734510364747
 20
-137.7690239455925
 10
107.5734510364747
 20
-137.9064832554539
 10
107.653721761281
 20
-138.1772677605946
 10
107.9713595650211
 20
-138.2089626390589
 10
107.9713595650211
 20
-138.2089626390589
 10
107.9713595650211
 20
-138.4397840365706
 10
107.9713595650211
 20
-138.4397840365706
 10
107.8359673124507
 20
-138.4270371832752
 10
107.3557210018069
 20
-138.3784613369332
 10
107.3557210018069
 20
-137.7731580601748
 97
        0
 97
        0
 75
     2
 76
     1
 98
        0
  0
SPLINE
  5
47
330
41
100
AcDbEntity
  8
_U+30EC_U+30A4_U+30E4_U+30FC 1
370
     0
100
AcDbSpline
210
0.0
220
0.0
230
1.0
 70
    11
 71
     3
 72
    44
 73
    40
 74
     0
 42
0.0000000001
 43
0.0000000001
 12
1.0
 22
0.0
 32
0.0
 13
1.0
 23
0.0
 33
0.0
 40
0.0
 40
0.0
 40
0.0
 40
0.0
 40
1.0
 40
1.0
 40
1.0
 40
2.0
 40
2.0
 40
2.0
 40
3.0
 40
3.0
 40
3.0
 40
4.0
 40
4.0
 40
4.0
 40
5.0
 40
5.0
 40
5.0
 40
6.0
 40
6.0
 40
6.0
 40
7.0
 40
7.0
 40
7.0
 40
8.0
 40
8.0
 40
8.0
 40
9.0
 40
9.0
 40
9.0
 40
10.0
 40
10.0
 40
10.0
 40
11.0
 40
11.0
 40
11.0
 40
12.0
 40
12.0
 40
12.0
 40
13.0
 40
13.0
 40
13.0
 40
13.0
 10
107.4063639054401
 20
-139.6483235327963
 30
0.0
 10
107.4508056371998
 20
-139.6252413930451
 30
0.0
 10
107.5035155981241
 20
-139.6038818010365
 30
0.0
 10
107.7343369956359
 20
-139.6018147437454
 30
0.0
 10
107.9775607368945
 20
-139.5976806291631
 30
0.0
 10
108.0474961752451
 20
-139.5384249868168
 30
0.0
 10
108.0474961752451
 20
-139.3606580597779
 30
0.0
 10
108.0474961752451
 20
-139.3606580597779
 30
0.0
 10
108.0474961752451
 20
-138.9524142447758
 30
0.0
 10
108.0474961752451
 20
-138.9524142447758
 30
0.0
 10
108.0474961752451
 20
-138.9524142447758
 30
0.0
 10
107.4063639054401
 20
-138.9524142447758
 30
0.0
 10
107.4063639054401
 20
-138.9524142447758
 30
0.0
 10
107.4063639054401
 20
-138.9524142447758
 30
0.0
 10
107.4063639054401
 20
-138.7174587326818
 30
0.0
 10
107.4063639054401
 20
-138.7174587326818
 30
0.0
 10
107.4063639054401
 20
-138.7174587326818
 30
0.0
 10
108.9508002114776
 20
-138.7174587326818
 30
0.0
 10
108.9508002114776
 20
-138.7174587326818
 30
0.0
 10
108.9508002114776
 20
-138.7174587326818
 30
0.0
 10
108.9508002114776
 20
-139.3923529382422
 30
0.0
 10
108.9508002114776
 20
-139.3923529382422
 30
0.0
 10
108.9508002114776
 20
-139.699310945978
 30
0.0
 10
108.7792344563121
 20
-139.8663980770126
 30
0.0
 10
108.5232638617581
 20
-139.8663980770126
 30
0.0
 10
108.4726209581249
 20
-139.8663980770126
 30
0.0
 10
108.3899386664789
 20
-139.8577853382994
 30
0.0
 10
108.3096679416726
 20
-139.8133436065397
 30
0.0
 10
108.2059705675666
 20
-139.7540879641934
 30
0.0
 10
108.1870225423977
 20
-139.6886311499737
 30
0.0
 10
108.17014157452
 20
-139.6273084503362
 30
0.0
 10
108.1277669000514
 20
-139.7647677601977
 30
0.0
 10
108.0791910537094
 20
-139.8322916317086
 30
0.0
 10
107.763964816809
 20
-139.8367702558394
 30
0.0
 10
107.4931803116684
 20
-139.8409043704217
 30
0.0
 10
107.4614854332041
 20
-139.8767333634683
 30
0.0
 10
107.4063639054401
 20
-139.9446017445277
 30
0.0
 10
107.4063639054401
 20
-139.9446017445277
 30
0.0
 10
107.4063639054401
 20
-139.6483235327963
 30
0.0
 10
107.4063639054401
 20
-139.6483235327963
 30
0.0
  0
SPLINE
  5
48
330
41
100
AcDbEntity
  8
_U+30EC_U+30A4_U+30E4_U+30FC 1
370
     0
100
AcDbSpline
210
0.0
220
0.0
230
1.0
 70
    11
 71
     3
 72
    20
 73
    16
 74
     0
 42
0.0000000001
 43
0.0000000001
 12
1.0
 22
0.0
 32
0.0
 13
1.0
 23
0.0
 33
0.0
 40
0.0
 40
0.0
 40
0.0
 40
0.0
 40
1.0
 40
1.0
 40
1.0
 40
2.0
 40
2.0
 40
2.0
 40
3.0
 40
3.0
 40
3.0
 40
4.0
 40
4.0
 40
4.0
 40
5.0
 40
5.0
 40
5.0
 40
5.0
 10
108.7392713486832
 20
-139.396831562373
 30
0.0
 10
108.7392713486832
 20
-139.396831562373
 30
0.0
 10
108.7392713486832
 20
-138.9524142447758
 30
0.0
 10
108.7392713486832
 20
-138.9524142447758
 30
0.0
 10
108.7392713486832
 20
-138.9524142447758
 30
0.0
 10
108.2590250380394
 20
-138.9524142447758
 30
0.0
 10
108.2590250380394
 20
-138.9524142447758
 30
0.0
 10
108.2590250380394
 20
-138.9524142447758
 30
0.0
 10
108.2590250380394
 20
-139.3944199955334
 30
0.0
 10
108.2590250380394
 20
-139.3944199955334
 30
0.0
 10
108.2590250380394
 20
-139.4939832550571
 30
0.0
 10
108.3351616482634
 20
-139.6293755076274
 30
0.0
 10
108.5063828938804
 20
-139.6293755076274
 30
0.0
 10
108.5845865613955
 20
-139.6293755076274
 30
0.0
 10
108.7392713486832
 20
-139.5956135718719
 30
0.0
 10
108.7392713486832
 20
-139.396831562373
 30
0.0
  0
HATCH
  5
49
330
41
100
AcDbEntity
  8
_U+30EC_U+30A4_U+30E4_U+30FC 1
 62
   179
420
  2234388
100
AcDbHatch
 10
0.0
 20
0.0
 30
0.0
210
0.0
220
0.0
230
1.0
  2
SOLID
 70
     1
 71
     0
 91
        2
 92
        1
 93
        1
 72
     4
 94
        3
 73
     0
 74
     1
 95
       44
 96
       40
 40
0.0
 40
0.0
 40
0.0
 40
0.0
 40
1.0
 40
1.0
 40
1.0
 40
2.0
 40
2.0
 40
2.0
 40
3.0
 40
3.0
 40
3.0
 40
4.0
 40
4.0
 40
4.0
 40
5.0
 40
5.0
 40
5.0
 40
6.0
 40
6.0
 40
6.0
 40
7.0
 40
7.0
 40
7.0
 40
8.0
 40
8.0
 40
8.0
 40
9.0
 40
9.0
 40
9.0
 40
10.0
 40
10.0
 40
10.0
 40
11.0
 40
11.0
 40
11.0
 40
12.0
 40
12.0
 40
12.0
 40
13.0
 40
13.0
 40
13.0
 40
13.0
 10
107.4063639054401
 20
-139.6483235327963
 10
107.4508056371998
 20
-139.6252413930451
 10
107.5035155981241
 20
-139.6038818010365
 10
107.7343369956359
 20
-139.6018147437454
 10
107.9775607368945
 20
-139.5976806291631
 10
108.0474961752451
 20
-139.5384249868168
 10
108.0474961752451
 20
-139.3606580597779
 10
108.0474961752451
 20
-139.3606580597779
 10
108.0474961752451
 20
-138.9524142447758
 10
108.0474961752451
 20
-138.9524142447758
 10
108.0474961752451
 20
-138.9524142447758
 10
107.4063639054401
 20
-138.9524142447758
 10
107.4063639054401
 20
-138.9524142447758
 10
107.4063639054401
 20
-138.9524142447758
 10
107.4063639054401
 20
-138.7174587326818
 10
107.4063639054401
 20
-138.7174587326818
 10
107.4063639054401
 20
-138.7174587326818
 10
108.9508002114776
 20
-138.7174587326818
 10
108.9508002114776
 20
-138.7174587326818
 10
108.9508002114776
 20
-138.7174587326818
 10
108.9508002114776
 20
-139.3923529382422
 10
108.9508002114776
 20
-139.3923529382422
 10
108.9508002114776
 20
-139.699310945978
 10
108.7792344563121
 20
-139.8663980770126
 10
108.5232638617581
 20
-139.8663980770126
 10
108.4726209581249
 20
-139.8663980770126
 10
108.3899386664789
 20
-139.8577853382994
 10
108.3096679416726
 20
-139.8133436065397
 10
108.2059705675666
 20
-139.7540879641934
 10
108.1870225423977
 20
-139.6886311499737
 10
108.17014157452
 20
-139.6273084503362
 10
108.1277669000514
 20
-139.7647677601977
 10
108.0791910537094
 20
-139.8322916317086
 10
107.763964816809
 20
-139.8367702558394
 10
107.4931803116684
 20
-139.8409043704217
 10
107.4614854332041
 20
-139.8767333634683
 10
107.4063639054401
 20
-139.9446017445277
 10
107.4063639054401
 20
-139.9446017445277
 10
107.4063639054401
 20
-139.6483235327963
 10
107.4063639054401
 20
-139.6483235327963
 97
        0
 97
        0
 92
        1
 93
        1
 72
     4
 94
        3
 73
     0
 74
     1
 95
       20
 96
       16
 40
0.0
 40
0.0
 40
0.0
 40
0.0
 40
1.0
 40
1.0
 40
1.0
 40
2.0
 40
2.0
 40
2.0
 40
3.0
 40
3.0
 40
3.0
 40
4.0
 40
4.0
 40
4.0
 40
5.0
 40
5.0
 40
5.0
 40
5.0
 10
108.7392713486832
 20
-139.396831562373
 10
108.7392713486832
 20
-139.396831562373
 10
108.7392713486832
 20
-138.9524142447758
 10
108.7392713486832
 20
-138.9524142447758
 10
108.7392713486832
 20
-138.9524142447758
 10
108.2590250380394
 20
-138.9524142447758
 10
108.2590250380394
 20
-138.9524142447758
 10
108.2590250380394
 20
-138.9524142447758
 10
108.2590250380394
 20
-139.3944199955334
 10
108.2590250380394
 20
-139.3944199955334
 10
108.2590250380394
 20
-139.4939832550571
 10
108.3351616482634
 20
-139.6293755076274
 10
108.5063828938804
 20
-139.6293755076274
 10
108.5845865613955
 20
-139.6293755076274
 10
108.7392713486832
 20
-139.5956135718719
 10
108.7392713486832
 20
-139.396831562373
 97
        0
 97
        0
 75
     2
 76
     1
 98
        0
  0
SPLINE
  5
4A
330
41
100
AcDbEntity
  8
_U+30EC_U+30A4_U+30E4_U+30FC 1
370
     0
100
AcDbSpline
210
0.0
220
0.0
230
1.0
 70
    11
 71
     3
 72
    26
 73
    22
 74
     0
 42
0.0000000001
 43
0.0000000001
 12
1.0
 22
0.0
 32
0.0
 13
1.0
 23
0.0
 33
0.0
 40
0.0
 40
0.0
 40
0.0
 40
0.0
 40
1.0
 40
1.0
 40
1.0
 40
2.0
 40
2.0
 40
2.0
 40
3.0
 40
3.0
 40
3.0
 40
4.0
 40
4.0
 40
4.0
 40
5.0
 40
5.0
 40
5.0
 40
6.0
 40
6.0
 40
6.0
 40
7.0
 40
7.0
 40
7.0
 40
7.0
 10
108.0368163792408
 20
-140.8616861627013
 30
0.0
 10
108.0368163792408
 20
-140.8616861627013
 30
0.0
 10
108.0368163792408
 20
-140.4086561063909
 30
0.0
 10
108.0368163792408
 20
-140.4086561063909
 30
0.0
 10
108.0368163792408
 20
-140.4086561063909
 30
0.0
 10
107.4063639054401
 20
-140.4086561063909
 30
0.0
 10
107.4063639054401
 20
-140.4086561063909
 30
0.0
 10
107.4063639054401
 20
-140.4086561063909
 30
0.0
 10
107.4063639054401
 20
-140.1740451038454
 30
0.0
 10
107.4063639054401
 20
-140.1740451038454
 30
0.0
 10
107.4063639054401
 20
-140.1740451038454
 30
0.0
 10
108.9508002114776
 20
-140.1740451038454
 30
0.0
 10
108.9508002114776
 20
-140.1740451038454
 30
0.0
 10
108.9508002114776
 20
-140.1740451038454
 30
0.0
 10
108.9508002114776
 20
-140.8616861627013
 30
0.0
 10
108.9508002114776
 20
-140.8616861627013
 30
0.0
 10
108.9508002114776
 20
-141.1493516357196
 30
0.0
 10
108.7878471950253
 20
-141.354334817092
 30
0.0
 10
108.4895019260026
 20
-141.354334817092
 30
0.0
 10
108.2421440701617
 20
-141.354334817092
 30
0.0
 10
108.0368163792408
 20
-141.1937933674793
 30
0.0
 10
108.0368163792408
 20
-140.8616861627013
 30
0.0
  0
SPLINE
  5
4B
330
41
100
AcDbEntity
  8
_U+30EC_U+30A4_U+30E4_U+30FC 1
370
     0
100
AcDbSpline
210
0.0
220
0.0
230
1.0
 70
    11
 71
     3
 72
    20
 73
    16
 74
     0
 42
0.0000000001
 43
0.0000000001
 12
1.0
 22
0.0
 32
0.0
 13
1.0
 23
0.0
 33
0.0
 40
0.0
 40
0.0
 40
0.0
 40
0.0
 40
1.0
 40
1.0
 40
1.0
 40
2.0
 40
2.0
 40
2.0
 40
3.0
 40
3.0
 40
3.0
 40
4.0
 40
4.0
 40
4.0
 40
5.0
 40
5.0
 40
5.0
 40
5.0
 10
108.7392713486832
 20
-140.8530734239881
 30
0.0
 10
108.7392713486832
 20
-140.8530734239881
 30
0.0
 10
108.7392713486832
 20
-140.4086561063909
 30
0.0
 10
108.7392713486832
 20
-140.4086561063909
 30
0.0
 10
108.7392713486832
 20
-140.4086561063909
 30
0.0
 10
108.2483452420351
 20
-140.4086561063909
 30
0.0
 10
108.2483452420351
 20
-140.4086561063909
 30
0.0
 10
108.2483452420351
 20
-140.4086561063909
 30
0.0
 10
108.2483452420351
 20
-140.8530734239881
 30
0.0
 10
108.2483452420351
 20
-140.8530734239881
 30
0.0
 10
108.2483452420351
 20
-141.0201605550228
 30
0.0
 10
108.3541096734323
 20
-141.1090440185422
 30
0.0
 10
108.4936360405849
 20
-141.1090440185422
 30
0.0
 10
108.6080132106952
 20
-141.1090440185422
 30
0.0
 10
108.7392713486832
 20
-141.0411756374828
 30
0.0
 10
108.7392713486832
 20
-140.8530734239881
 30
0.0
  0
HATCH
  5
4C
330
41
100
AcDbEntity
  8
_U+30EC_U+30A4_U+30E4_U+30FC 1
 62
   179
420
  2234388
100
AcDbHatch
 10
0.0
 20
0.0
 30
0.0
210
0.0
220
0.0
230
1.0
  2
SOLID
 70
     1
 71
     0
 91
        2
 92
        1
 93
        1
 72
     4
 94
        3
 73
     0
 74
     1
 95
       26
 96
       22
 40
0.0
 40
0.0
 40
0.0
 40
0.0
 40
1.0
 40
1.0
 40
1.0
 40
2.0
 40
2.0
 40
2.0
 40
3.0
 40
3.0
 40
3.0
 40
4.0
 40
4.0
 40
4.0
 40
5.0
 40
5.0
 40
5.0
 40
6.0
 40
6.0
 40
6.0
 40
7.0
 40
7.0
 40
7.0
 40
7.0
 10
108.0368163792408
 20
-140.8616861627013
 10
108.0368163792408
 20
-140.8616861627013
 10
108.0368163792408
 20
-140.4086561063909
 10
108.0368163792408
 20
-140.4086561063909
 10
108.0368163792408
 20
-140.4086561063909
 10
107.4063639054401
 20
-140.4086561063909
 10
107.4063639054401
 20
-140.4086561063909
 10
107.4063639054401
 20
-140.4086561063909
 10
107.4063639054401
 20
-140.1740451038454
 10
107.4063639054401
 20
-140.1740451038454
 10
107.4063639054401
 20
-140.1740451038454
 10
108.9508002114776
 20
-140.1740451038454
 10
108.9508002114776
 20
-140.1740451038454
 10
108.9508002114776
 20
-140.1740451038454
 10
108.9508002114776
 20
-140.8616861627013
 10
108.9508002114776
 20
-140.8616861627013
 10
108.9508002114776
 20
-141.1493516357196
 10
108.7878471950253
 20
-141.354334817092
 10
108.4895019260026
 20
-141.354334817092
 10
108.2421440701617
 20
-141.354334817092
 10
108.0368163792408
 20
-141.1937933674793
 10
108.0368163792408
 20
-140.8616861627013
 97
        0
 97
        0
 92
        1
 93
        1
 72
     4
 94
        3
 73
     0
 74
     1
 95
       20
 96
       16
 40
0.0
 40
0.0
 40
0.0
 40
0.0
 40
1.0
 40
1.0
 40
1.0
 40
2.0
 40
2.0
 40
2.0
 40
3.0
 40
3.0
 40
3.0
 40
4.0
 40
4.0
 40
4.0
 40
5.0
 40
5.0
 40
5.0
 40
5.0
 10
108.7392713486832
 20
-140.8530734239881
 10
108.7392713486832
 20
-140.8530734239881
 10
108.7392713486832
 20
-140.4086561063909
 10
108.7392713486832
 20
-140.4086561063909
 10
108.7392713486832
 20
-140.4086561063909
 10
108.2483452420351
 20
-140.4086561063909
 10
108.2483452420351
 20
-140.4086561063909
 10
108.2483452420351
 20
-140.4086561063909
 10
108.2483452420351
 20
-140.8530734239881
 10
108.2483452420351
 20
-140.8530734239881
 10
108.2483452420351
 20
-141.0201605550228
 10
108.3541096734323
 20
-141.1090440185422
 10
108.4936360405849
 20
-141.1090440185422
 10
108.6080132106952
 20
-141.1090440185422
 10
108.7392713486832
 20
-141.0411756374828
 10
108.7392713486832
 20
-140.8530734239881
 97
        0
 97
        0
 75
     2
 76
     1
 98
        0
  0
POLYLINE
  5
4D
330
41
100
AcDbEntity
  8
_U+30EC_U+30A4_U+30E4_U+30FC 1
370
     0
100
AcDb2dPolyline
 66
     1
 10
0.0
 20
0.0
 30
0.0
  0
VERTEX
  5
4E
330
4D
100
AcDbEntity
  8
_U+30EC_U+30A4_U+30E4_U+30FC 1
370
     0
100
AcDbVertex
100
AcDb2dVertex
 10
107.8528482803285
 20
-141.486281974177
 30
0.0
  0
VERTEX
  5
4F
330
4D
100
AcDbEntity
  8
_U+30EC_U+30A4_U+30E4_U+30FC 1
370
     0
100
AcDbVertex
100
AcDb2dVertex
 10
108.0685112577051
 20
-141.486281974177
 30
0.0
  0
VERTEX
  5
50
330
4D
100
AcDbEntity
  8
_U+30EC_U+30A4_U+30E4_U+30FC 1
370
     0
100
AcDbVertex
100
AcDb2dVertex
 10
108.0685112577051
 20
-142.072292716218
 30
0.0
  0
VERTEX
  5
51
330
4D
100
AcDbEntity
  8
_U+30EC_U+30A4_U+30E4_U+30FC 1
370
     0
100
AcDbVertex
100
AcDb2dVertex
 10
107.8528482803285
 20
-142.072292716218
 30
0.0
  0
VERTEX
  5
52
330
4D
100
AcDbEntity
  8
_U+30EC_U+30A4_U+30E4_U+30FC 1
370
     0
100
AcDbVertex
100
AcDb2dVertex
 10
107.8528482803285
 20
-141.486281974177
 30
0.0
  0
SEQEND
  5
53
330
4D
100
AcDbEntity
  8
_U+30EC_U+30A4_U+30E4_U+30FC 1
370
     0
  0
HATCH
  5
54
330
41
100
AcDbEntity
  8
_U+30EC_U+30A4_U+30E4_U+30FC 1
 62
   179
420
  2234388
100
AcDbHatch
 10
0.0
 20
0.0
 30
0.0
210
0.0
220
0.0
230
1.0
  2
SOLID
 70
     1
 71
     0
 91
        1
 92
        1
 93
        4
 72
     1
 10
107.8528482803285
 20
-141.486281974177
 11
108.0685112577051
 21
-141.486281974177
 72
     1
 10
108.0685112577051
 20
-141.486281974177
 11
108.0685112577051
 21
-142.072292716218
 72
     1
 10
108.0685112577051
 20
-142.072292716218
 11
107.8528482803285
 21
-142.072292716218
 72
     1
 10
107.8528482803285
 20
-142.072292716218
 11
107.8528482803285
 21
-141.486281974177
 97
        0
 75
     2
 76
     1
 98
        0
  0
SPLINE
  5
55
330
41
100
AcDbEntity
  8
_U+30EC_U+30A4_U+30E4_U+30FC 1
370
     0
100
AcDbSpline
210
0.0
220
0.0
230
1.0
 70
    11
 71
     3
 72
    62
 73
    58
 74
     0
 42
0.0000000001
 43
0.0000000001
 12
1.0
 22
0.0
 32
0.0
 13
1.0
 23
0.0
 33
0.0
 40
0.0
 40
0.0
 40
0.0
 40
0.0
 40
1.0
 40
1.0
 40
1.0
 40
2.0
 40
2.0
 40
2.0
 40
3.0
 40
3.0
 40
3.0
 40
4.0
 40
4.0
 40
4.0
 40
5.0
 40
5.0
 40
5.0
 40
6.0
 40
6.0
 40
6.0
 40
7.0
 40
7.0
 40
7.0
 40
8.0
 40
8.0
 40
8.0
 40
9.0
 40
9.0
 40
9.0
 40
10.0
 40
10.0
 40
10.0
 40
11.0
 40
11.0
 40
11.0
 40
12.0
 40
12.0
 40
12.0
 40
13.0
 40
13.0
 40
13.0
 40
14.0
 40
14.0
 40
14.0
 40
15.0
 40
15.0
 40
15.0
 40
16.0
 40
16.0
 40
16.0
 40
17.0
 40
17.0
 40
17.0
 40
18.0
 40
18.0
 40
18.0
 40
19.0
 40
19.0
 40
19.0
 40
19.0
 10
107.3557210018069
 20
-142.6927544131115
 30
0.0
 10
107.3557210018069
 20
-142.5973252681701
 30
0.0
 10
107.3767360842669
 20
-142.3795952335023
 30
0.0
 10
107.5627712404704
 20
-142.2545382673878
 30
0.0
 10
107.6750813532896
 20
-142.1804687144549
 30
0.0
 10
107.7743001032648
 20
-142.1763345998726
 30
0.0
 10
107.8590494522019
 20
-142.1722004852903
 30
0.0
 10
107.8590494522019
 20
-142.1722004852903
 30
0.0
 10
107.8590494522019
 20
-142.3923420867978
 30
0.0
 10
107.8590494522019
 20
-142.3923420867978
 30
0.0
 10
107.784979899269
 20
-142.3944091440889
 30
0.0
 10
107.5503688967235
 20
-142.4047444305447
 30
0.0
 10
107.5503688967235
 20
-142.6882757889807
 30
0.0
 10
107.5503688967235
 20
-142.8257350988422
 30
0.0
 10
107.6199598255256
 20
-142.9783528288388
 30
0.0
 10
107.8483696561976
 20
-142.9783528288388
 30
0.0
 10
107.9648138835991
 20
-142.9783528288388
 30
0.0
 10
108.0133897299411
 20
-142.9401122689525
 30
0.0
 10
108.0450846084054
 20
-142.9084173904882
 30
0.0
 10
108.1191541613383
 20
-142.8343478375553
 30
0.0
 10
108.1319010146337
 20
-142.7179036101539
 30
0.0
 10
108.1319010146337
 20
-142.6631265919384
 30
0.0
 10
108.1319010146337
 20
-142.643834057221
 30
0.0
 10
108.1298339573425
 20
-142.6080050641744
 30
0.0
 10
108.1256998427602
 20
-142.5804443002924
 30
0.0
 10
108.1256998427602
 20
-142.5804443002924
 30
0.0
 10
108.3203477376769
 20
-142.5804443002924
 30
0.0
 10
108.3203477376769
 20
-142.5804443002924
 30
0.0
 10
108.3138020562549
 20
-142.6186848601787
 30
0.0
 10
108.3117349989637
 20
-142.6607150250987
 30
0.0
 10
108.3117349989637
 20
-142.6672607065207
 30
0.0
 10
108.3117349989637
 20
-142.7327175207404
 30
0.0
 10
108.3330945909723
 20
-142.9314995302394
 30
0.0
 10
108.569772650809
 20
-142.9314995302394
 30
0.0
 10
108.7475395778478
 20
-142.9314995302394
 30
0.0
 10
108.8026611056118
 20
-142.8005859017998
 30
0.0
 10
108.8026611056118
 20
-142.6903428462719
 30
0.0
 10
108.8026611056118
 20
-142.4261040225532
 30
0.0
 10
108.569772650809
 20
-142.4174912838401
 30
0.0
 10
108.4981146647158
 20
-142.4133571692578
 30
0.0
 10
108.4981146647158
 20
-142.4133571692578
 30
0.0
 10
108.4981146647158
 20
-142.210096535628
 30
0.0
 10
108.4981146647158
 20
-142.210096535628
 30
0.0
 10
108.6228271212818
 20
-142.2187092743412
 30
0.0
 10
108.9993760578196
 20
-142.2462700382232
 30
0.0
 10
108.9993760578196
 20
-142.7030896995673
 30
0.0
 10
108.9993760578196
 20
-142.9273654156571
 30
0.0
 10
108.8722520344139
 20
-143.1685220996245
 30
0.0
 10
108.5763183322309
 20
-143.1685220996245
 30
0.0
 10
108.3899386664789
 20
-143.1685220996245
 30
0.0
 10
108.3076008843814
 20
-143.0734374642317
 30
0.0
 10
108.246278184744
 20
-142.9738742047079
 30
0.0
 10
108.218717420862
 20
-143.0351969043454
 30
0.0
 10
108.1384466960557
 20
-143.2170979459666
 30
0.0
 10
107.8611165094931
 20
-143.2170979459666
 30
0.0
 10
107.5228081328415
 20
-143.2170979459666
 30
0.0
 10
107.3557210018069
 20
-142.9697400901256
 30
0.0
 10
107.3557210018069
 20
-142.6927544131115
 30
0.0
  0
HATCH
  5
56
330
41
100
AcDbEntity
  8
_U+30EC_U+30A4_U+30E4_U+30FC 1
 62
   179
420
  2234388
100
AcDbHatch
 10
0.0
 20
0.0
 30
0.0
210
0.0
220
0.0
230
1.0
  2
SOLID
 70
     1
 71
     0
 91
        1
 92
        1
 93
        1
 72
     4
 94
        3
 73
     0
 74
     1
 95
       62
 96
       58
 40
0.0
 40
0.0
 40
0.0
 40
0.0
 40
1.0
 40
1.0
 40
1.0
 40
2.0
 40
2.0
 40
2.0
 40
3.0
 40
3.0
 40
3.0
 40
4.0
 40
4.0
 40
4.0
 40
5.0
 40
5.0
 40
5.0
 40
6.0
 40
6.0
 40
6.0
 40
7.0
 40
7.0
 40
7.0
 40
8.0
 40
8.0
 40
8.0
 40
9.0
 40
9.0
 40
9.0
 40
10.0
 40
10.0
 40
10.0
 40
11.0
 40
11.0
 40
11.0
 40
12.0
 40
12.0
 40
12.0
 40
13.0
 40
13.0
 40
13.0
 40
14.0
 40
14.0
 40
14.0
 40
15.0
 40
15.0
 40
15.0
 40
16.0
 40
16.0
 40
16.0
 40
17.0
 40
17.0
 40
17.0
 40
18.0
 40
18.0
 40
18.0
 40
19.0
 40
19.0
 40
19.0
 40
19.0
 10
107.3557210018069
 20
-142.6927544131115
 10
107.3557210018069
 20
-142.5973252681701
 10
107.3767360842669
 20
-142.3795952335023
 10
107.5627712404704
 20
-142.2545382673878
 10
107.6750813532896
 20
-142.1804687144549
 10
107.7743001032648
 20
-142.1763345998726
 10
107.8590494522019
 20
-142.1722004852903
 10
107.8590494522019
 20
-142.1722004852903
 10
107.8590494522019
 20
-142.3923420867978
 10
107.8590494522019
 20
-142.3923420867978
 10
107.784979899269
 20
-142.3944091440889
 10
107.5503688967235
 20
-142.4047444305447
 10
107.5503688967235
 20
-142.6882757889807
 10
107.5503688967235
 20
-142.8257350988422
 10
107.6199598255256
 20
-142.9783528288388
 10
107.8483696561976
 20
-142.9783528288388
 10
107.9648138835991
 20
-142.9783528288388
 10
108.0133897299411
 20
-142.9401122689525
 10
108.0450846084054
 20
-142.9084173904882
 10
108.1191541613383
 20
-142.8343478375553
 10
108.1319010146337
 20
-142.7179036101539
 10
108.1319010146337
 20
-142.6631265919384
 10
108.1319010146337
 20
-142.643834057221
 10
108.1298339573425
 20
-142.6080050641744
 10
108.1256998427602
 20
-142.5804443002924
 10
108.1256998427602
 20
-142.5804443002924
 10
108.3203477376769
 20
-142.5804443002924
 10
108.3203477376769
 20
-142.5804443002924
 10
108.3138020562549
 20
-142.6186848601787
 10
108.3117349989637
 20
-142.6607150250987
 10
108.3117349989637
 20
-142.6672607065207
 10
108.3117349989637
 20
-142.7327175207404
 10
108.3330945909723
 20
-142.9314995302394
 10
108.569772650809
 20
-142.9314995302394
 10
108.7475395778478
 20
-142.9314995302394
 10
108.8026611056118
 20
-142.8005859017998
 10
108.8026611056118
 20
-142.6903428462719
 10
108.8026611056118
 20
-142.4261040225532
 10
108.569772650809
 20
-142.4174912838401
 10
108.4981146647158
 20
-142.4133571692578
 10
108.4981146647158
 20
-142.4133571692578
 10
108.4981146647158
 20
-142.210096535628
 10
108.4981146647158
 20
-142.210096535628
 10
108.6228271212818
 20
-142.2187092743412
 10
108.9993760578196
 20
-142.2462700382232
 10
108.9993760578196
 20
-142.7030896995673
 10
108.9993760578196
 20
-142.9273654156571
 10
108.8722520344139
 20
-143.1685220996245
 10
108.5763183322309
 20
-143.1685220996245
 10
108.3899386664789
 20
-143.1685220996245
 10
108.3076008843814
 20
-143.0734374642317
 10
108.246278184744
 20
-142.9738742047079
 10
108.218717420862
 20
-143.0351969043454
 10
108.1384466960557
 20
-143.2170979459666
 10
107.8611165094931
 20
-143.2170979459666
 10
107.5228081328415
 20
-143.2170979459666
 10
107.3557210018069
 20
-142.9697400901256
 10
107.3557210018069
 20
-142.6927544131115
 97
        0
 97
        0
 75
     2
 76
     1
 98
        0
  0
SPLINE
  5
57
330
41
100
AcDbEntity
  8
_U+30EC_U+30A4_U+30E4_U+30FC 1
370
     0
100
AcDbSpline
210
0.0
220
0.0
230
1.0
 70
    11
 71
     3
 72
    29
 73
    25
 74
     0
 42
0.0000000001
 43
0.0000000001
 12
1.0
 22
0.0
 32
0.0
 13
1.0
 23
0.0
 33
0.0
 40
0.0
 40
0.0
 40
0.0
 40
0.0
 40
1.0
 40
1.0
 40
1.0
 40
2.0
 40
2.0
 40
2.0
 40
3.0
 40
3.0
 40
3.0
 40
4.0
 40
4.0
 40
4.0
 40
5.0
 40
5.0
 40
5.0
 40
6.0
 40
6.0
 40
6.0
 40
7.0
 40
7.0
 40
7.0
 40
8.0
 40
8.0
 40
8.0
 40
8.0
 10
107.584130832479
 20
-144.2757757885838
 30
0.0
 10
107.3746690269758
 20
-144.167599790347
 30
0.0
 10
107.3557210018069
 20
-143.9943114874389
 30
0.0
 10
107.3557210018069
 20
-143.8778672600375
 30
0.0
 10
107.3557210018069
 20
-143.7169813008763
 30
0.0
 10
107.4022297908578
 20
-143.5753878764326
 30
0.0
 10
107.584130832479
 20
-143.4803032410396
 30
0.0
 10
107.7787787273956
 20
-143.3766058669336
 30
0.0
 10
108.0154567872323
 20
-143.3573133322162
 30
0.0
 10
108.1784098036846
 20
-143.3573133322162
 30
0.0
 10
108.322414794968
 20
-143.3573133322162
 30
0.0
 10
108.5742512749398
 20
-143.3745388096425
 30
0.0
 10
108.7730332844387
 20
-143.4803032410396
 30
0.0
 10
108.9759494085199
 20
-143.588134729728
 30
0.0
 10
108.9993760578196
 20
-143.7490206888891
 30
0.0
 10
108.9993760578196
 20
-143.8778672600375
 30
0.0
 10
108.9993760578196
 20
-144.0366861619075
 30
0.0
 10
108.9549343260599
 20
-144.1803466436424
 30
0.0
 10
108.7730332844387
 20
-144.2757757885838
 30
0.0
 10
108.5804524468132
 20
-144.374994538559
 30
0.0
 10
108.3520426161412
 20
-144.3984211878587
 30
0.0
 10
108.1784098036846
 20
-144.3984211878587
 30
0.0
 10
108.0071885580677
 20
-144.3984211878587
 30
0.0
 10
107.7767116701044
 20
-144.3770615958502
 30
0.0
 10
107.584130832479
 20
-144.2757757885838
 30
0.0
  0
SPLINE
  5
58
330
41
100
AcDbEntity
  8
_U+30EC_U+30A4_U+30E4_U+30FC 1
370
     0
100
AcDbSpline
210
0.0
220
0.0
230
1.0
 70
    11
 71
     3
 72
    17
 73
    13
 74
     0
 42
0.0000000001
 43
0.0000000001
 12
1.0
 22
0.0
 32
0.0
 13
1.0
 23
0.0
 33
0.0
 40
0.0
 40
0.0
 40
0.0
 40
0.0
 40
1.0
 40
1.0
 40
1.0
 40
2.0
 40
2.0
 40
2.0
 40
3.0
 40
3.0
 40
3.0
 40
4.0
 40
4.0
 40
4.0
 40
4.0
 10
108.8067952201941
 20
-143.8778672600375
 30
0.0
 10
108.8067952201941
 20
-143.6280978373569
 30
0.0
 10
108.5232638617581
 20
-143.581589048306
 30
0.0
 10
108.1784098036846
 20
-143.581589048306
 30
0.0
 10
107.8590494522019
 20
-143.581589048306
 30
0.0
 10
107.5503688967235
 20
-143.6177625509011
 30
0.0
 10
107.5503688967235
 20
-143.8778672600375
 30
0.0
 10
107.5503688967235
 20
-144.1255696254269
 30
0.0
 10
107.8314886883199
 20
-144.174145471769
 30
0.0
 10
108.1784098036846
 20
-144.174145471769
 30
0.0
 10
108.4981146647158
 20
-144.174145471769
 30
0.0
 10
108.8067952201941
 20
-144.1359049118827
 30
0.0
 10
108.8067952201941
 20
-143.8778672600375
 30
0.0
  0
HATCH
  5
59
330
41
100
AcDbEntity
  8
_U+30EC_U+30A4_U+30E4_U+30FC 1
 62
   179
420
  2234388
100
AcDbHatch
 10
0.0
 20
0.0
 30
0.0
210
0.0
220
0.0
230
1.0
  2
SOLID
 70
     1
 71
     0
 91
        2
 92
        1
 93
        1
 72
     4
 94
        3
 73
     0
 74
     1
 95
       29
 96
       25
 40
0.0
 40
0.0
 40
0.0
 40
0.0
 40
1.0
 40
1.0
 40
1.0
 40
2.0
 40
2.0
 40
2.0
 40
3.0
 40
3.0
 40
3.0
 40
4.0
 40
4.0
 40
4.0
 40
5.0
 40
5.0
 40
5.0
 40
6.0
 40
6.0
 40
6.0
 40
7.0
 40
7.0
 40
7.0
 40
8.0
 40
8.0
 40
8.0
 40
8.0
 10
107.584130832479
 20
-144.2757757885838
 10
107.3746690269758
 20
-144.167599790347
 10
107.3557210018069
 20
-143.9943114874389
 10
107.3557210018069
 20
-143.8778672600375
 10
107.3557210018069
 20
-143.7169813008763
 10
107.4022297908578
 20
-143.5753878764326
 10
107.584130832479
 20
-143.4803032410396
 10
107.7787787273956
 20
-143.3766058669336
 10
108.0154567872323
 20
-143.3573133322162
 10
108.1784098036846
 20
-143.3573133322162
 10
108.322414794968
 20
-143.3573133322162
 10
108.5742512749398
 20
-143.3745388096425
 10
108.7730332844387
 20
-143.4803032410396
 10
108.9759494085199
 20
-143.588134729728
 10
108.9993760578196
 20
-143.7490206888891
 10
108.9993760578196
 20
-143.8778672600375
 10
108.9993760578196
 20
-144.0366861619075
 10
108.9549343260599
 20
-144.1803466436424
 10
108.7730332844387
 20
-144.2757757885838
 10
108.5804524468132
 20
-144.374994538559
 10
108.3520426161412
 20
-144.3984211878587
 10
108.1784098036846
 20
-144.3984211878587
 10
108.0071885580677
 20
-144.3984211878587
 10
107.7767116701044
 20
-144.3770615958502
 10
107.584130832479
 20
-144.2757757885838
 97
        0
 97
        0
 92
        1
 93
        1
 72
     4
 94
        3
 73
     0
 74
     1
 95
       17
 96
       13
 40
0.0
 40
0.0
 40
0.0
 40
0.0
 40
1.0
 40
1.0
 40
1.0
 40
2.0
 40
2.0
 40
2.0
 40
3.0
 40
3.0
 40
3.0
 40
4.0
 40
4.0
 40
4.0
 40
4.0
 10
108.8067952201941
 20
-143.8778672600375
 10
108.8067952201941
 20
-143.6280978373569
 10
108.5232638617581
 20
-143.581589048306
 10
108.1784098036846
 20
-143.581589048306
 10
107.8590494522019
 20
-143.581589048306
 10
107.5503688967235
 20
-143.6177625509011
 10
107.5503688967235
 20
-143.8778672600375
 10
107.5503688967235
 20
-144.1255696254269
 10
107.8314886883199
 20
-144.174145471769
 10
108.1784098036846
 20
-144.174145471769
 10
108.4981146647158
 20
-144.174145471769
 10
108.8067952201941
 20
-144.1359049118827
 10
108.8067952201941
 20
-143.8778672600375
 97
        0
 97
        0
 75
     2
 76
     1
 98
        0
  0
SPLINE
  5
5A
330
41
100
AcDbEntity
  8
_U+30EC_U+30A4_U+30E4_U+30FC 1
370
     0
100
AcDbSpline
210
0.0
220
0.0
230
1.0
 70
    11
 71
     3
 72
    20
 73
    16
 74
     0
 42
0.0000000001
 43
0.0000000001
 12
1.0
 22
0.0
 32
0.0
 13
1.0
 23
0.0
 33
0.0
 40
0.0
 40
0.0
 40
0.0
 40
0.0
 40
1.0
 40
1.0
 40
1.0
 40
2.0
 40
2.0
 40
2.0
 40
3.0
 40
3.0
 40
3.0
 40
4.0
 40
4.0
 40
4.0
 40
5.0
 40
5.0
 40
5.0
 40
5.0
 10
107.4063639054401
 20
-145.2896673898929
 30
0.0
 10
107.4063639054401
 20
-145.2896673898929
 30
0.0
 10
107.4063639054401
 20
-144.6719617693876
 30
0.0
 10
107.4063639054401
 20
-144.6719617693876
 30
0.0
 10
107.4063639054401
 20
-144.6719617693876
 30
0.0
 10
108.9508002114776
 20
-144.6719617693876
 30
0.0
 10
108.9508002114776
 20
-144.6719617693876
 30
0.0
 10
108.9508002114776
 20
-144.6719617693876
 30
0.0
 10
108.9508002114776
 20
-145.2896673898929
 30
0.0
 10
108.9508002114776
 20
-145.2896673898929
 30
0.0
 10
108.9508002114776
 20
-145.753032732659
 30
0.0
 10
108.5804524468132
 20
-145.9600829713225
 30
0.0
 10
108.1722086318111
 20
-145.9600829713225
 30
0.0
 10
107.8211534018642
 20
-145.9600829713225
 30
0.0
 10
107.4063639054401
 20
-145.7823160442836
 30
0.0
 10
107.4063639054401
 20
-145.2896673898929
 30
0.0
  0
SPLINE
  5
5B
330
41
100
AcDbEntity
  8
_U+30EC_U+30A4_U+30E4_U+30FC 1
370
     0
100
AcDbSpline
210
0.0
220
0.0
230
1.0
 70
    11
 71
     3
 72
    20
 73
    16
 74
     0
 42
0.0000000001
 43
0.0000000001
 12
1.0
 22
0.0
 32
0.0
 13
1.0
 23
0.0
 33
0.0
 40
0.0
 40
0.0
 40
0.0
 40
0.0
 40
1.0
 40
1.0
 40
1.0
 40
2.0
 40
2.0
 40
2.0
 40
3.0
 40
3.0
 40
3.0
 40
4.0
 40
4.0
 40
4.0
 40
5.0
 40
5.0
 40
5.0
 40
5.0
 10
108.7392713486832
 20
-145.291734447184
 30
0.0
 10
108.7392713486832
 20
-145.291734447184
 30
0.0
 10
108.7392713486832
 20
-144.9065727719331
 30
0.0
 10
108.7392713486832
 20
-144.9065727719331
 30
0.0
 10
108.7392713486832
 20
-144.9065727719331
 30
0.0
 10
107.6178927682344
 20
-144.9065727719331
 30
0.0
 10
107.6178927682344
 20
-144.9065727719331
 30
0.0
 10
107.6178927682344
 20
-144.9065727719331
 30
0.0
 10
107.6178927682344
 20
-145.291734447184
 30
0.0
 10
107.6178927682344
 20
-145.291734447184
 30
0.0
 10
107.6178927682344
 20
-145.6596706450087
 30
0.0
 10
107.9627468263079
 20
-145.7209933446462
 30
0.0
 10
108.1849554851065
 20
-145.7209933446462
 30
0.0
 10
108.3944172906097
 20
-145.7209933446462
 30
0.0
 10
108.7392713486832
 20
-145.6576035877175
 30
0.0
 10
108.7392713486832
 20
-145.291734447184
 30
0.0
  0
HATCH
  5
5C
330
41
100
AcDbEntity
  8
_U+30EC_U+30A4_U+30E4_U+30FC 1
 62
   179
420
  2234388
100
AcDbHatch
 10
0.0
 20
0.0
 30
0.0
210
0.0
220
0.0
230
1.0
  2
SOLID
 70
     1
 71
     0
 91
        2
 92
        1
 93
        1
 72
     4
 94
        3
 73
     0
 74
     1
 95
       20
 96
       16
 40
0.0
 40
0.0
 40
0.0
 40
0.0
 40
1.0
 40
1.0
 40
1.0
 40
2.0
 40
2.0
 40
2.0
 40
3.0
 40
3.0
 40
3.0
 40
4.0
 40
4.0
 40
4.0
 40
5.0
 40
5.0
 40
5.0
 40
5.0
 10
107.4063639054401
 20
-145.2896673898929
 10
107.4063639054401
 20
-145.2896673898929
 10
107.4063639054401
 20
-144.6719617693876
 10
107.4063639054401
 20
-144.6719617693876
 10
107.4063639054401
 20
-144.6719617693876
 10
108.9508002114776
 20
-144.6719617693876
 10
108.9508002114776
 20
-144.6719617693876
 10
108.9508002114776
 20
-144.6719617693876
 10
108.9508002114776
 20
-145.2896673898929
 10
108.9508002114776
 20
-145.2896673898929
 10
108.9508002114776
 20
-145.753032732659
 10
108.5804524468132
 20
-145.9600829713225
 10
108.1722086318111
 20
-145.9600829713225
 10
107.8211534018642
 20
-145.9600829713225
 10
107.4063639054401
 20
-145.7823160442836
 10
107.4063639054401
 20
-145.2896673898929
 97
        0
 97
        0
 92
        1
 93
        1
 72
     4
 94
        3
 73
     0
 74
     1
 95
       20
 96
       16
 40
0.0
 40
0.0
 40
0.0
 40
0.0
 40
1.0
 40
1.0
 40
1.0
 40
2.0
 40
2.0
 40
2.0
 40
3.0
 40
3.0
 40
3.0
 40
4.0
 40
4.0
 40
4.0
 40
5.0
 40
5.0
 40
5.0
 40
5.0
 10
108.7392713486832
 20
-145.291734447184
 10
108.7392713486832
 20
-145.291734447184
 10
108.7392713486832
 20
-144.9065727719331
 10
108.7392713486832
 20
-144.9065727719331
 10
108.7392713486832
 20
-144.9065727719331
 10
107.6178927682344
 20
-144.9065727719331
 10
107.6178927682344
 20
-144.9065727719331
 10
107.6178927682344
 20
-144.9065727719331
 10
107.6178927682344
 20
-145.291734447184
 10
107.6178927682344
 20
-145.291734447184
 10
107.6178927682344
 20
-145.6596706450087
 10
107.9627468263079
 20
-145.7209933446462
 10
108.1849554851065
 20
-145.7209933446462
 10
108.3944172906097
 20
-145.7209933446462
 10
108.7392713486832
 20
-145.6576035877175
 10
108.7392713486832
 20
-145.291734447184
 97
        0
 97
        0
 75
     2
 76
     1
 98
        0
  0
POLYLINE
  5
5D
330
41
100
AcDbEntity
  8
_U+30EC_U+30A4_U+30E4_U+30FC 1
370
     0
100
AcDb2dPolyline
 66
     1
 10
0.0
 20
0.0
 30
0.0
  0
VERTEX
  5
5E
330
5D
100
AcDbEntity
  8
_U+30EC_U+30A4_U+30E4_U+30FC 1
370
     0
100
AcDbVertex
100
AcDb2dVertex
 10
107.4063639054401
 20
-147.5031412391659
 30
0.0
  0
VERTEX
  5
5F
330
5D
100
AcDbEntity
  8
_U+30EC_U+30A4_U+30E4_U+30FC 1
370
     0
100
AcDbVertex
100
AcDb2dVertex
 10
108.474688015416
 20
-147.5031412391659
 30
0.0
  0
VERTEX
  5
60
330
5D
100
AcDbEntity
  8
_U+30EC_U+30A4_U+30E4_U+30FC 1
370
     0
100
AcDbVertex
100
AcDb2dVertex
 10
108.6376410318684
 20
-147.5093424110393
 30
0.0
  0
VERTEX
  5
61
330
5D
100
AcDbEntity
  8
_U+30EC_U+30A4_U+30E4_U+30FC 1
370
     0
100
AcDbVertex
100
AcDb2dVertex
 10
108.4833007541292
 20
-147.4735134179927
 30
0.0
  0
VERTEX
  5
62
330
5D
100
AcDbEntity
  8
_U+30EC_U+30A4_U+30E4_U+30FC 1
370
     0
100
AcDbVertex
100
AcDb2dVertex
 10
107.4063639054401
 20
-147.1286593599192
 30
0.0
  0
VERTEX
  5
63
330
5D
100
AcDbEntity
  8
_U+30EC_U+30A4_U+30E4_U+30FC 1
370
     0
100
AcDbVertex
100
AcDb2dVertex
 10
107.4063639054401
 20
-146.8578748547786
 30
0.0
  0
VERTEX
  5
64
330
5D
100
AcDbEntity
  8
_U+30EC_U+30A4_U+30E4_U+30FC 1
370
     0
100
AcDbVertex
100
AcDb2dVertex
 10
108.4833007541292
 20
-146.5150878539962
 30
0.0
  0
VERTEX
  5
65
330
5D
100
AcDbEntity
  8
_U+30EC_U+30A4_U+30E4_U+30FC 1
370
     0
100
AcDbVertex
100
AcDb2dVertex
 10
108.6376410318684
 20
-146.4792588609496
 30
0.0
  0
VERTEX
  5
66
330
5D
100
AcDbEntity
  8
_U+30EC_U+30A4_U+30E4_U+30FC 1
370
     0
100
AcDbVertex
100
AcDb2dVertex
 10
108.474688015416
 20
-146.4833929755319
 30
0.0
  0
VERTEX
  5
67
330
5D
100
AcDbEntity
  8
_U+30EC_U+30A4_U+30E4_U+30FC 1
370
     0
100
AcDbVertex
100
AcDb2dVertex
 10
107.4063639054401
 20
-146.4833929755319
 30
0.0
  0
VERTEX
  5
68
330
5D
100
AcDbEntity
  8
_U+30EC_U+30A4_U+30E4_U+30FC 1
370
     0
100
AcDbVertex
100
AcDb2dVertex
 10
107.4063639054401
 20
-146.2656629408642
 30
0.0
  0
VERTEX
  5
69
330
5D
100
AcDbEntity
  8
_U+30EC_U+30A4_U+30E4_U+30FC 1
370
     0
100
AcDbVertex
100
AcDb2dVertex
 10
108.9508002114776
 20
-146.2656629408642
 30
0.0
  0
VERTEX
  5
6A
330
5D
100
AcDbEntity
  8
_U+30EC_U+30A4_U+30E4_U+30FC 1
370
     0
100
AcDbVertex
100
AcDb2dVertex
 10
108.9508002114776
 20
-146.5850232923468
 30
0.0
  0
VERTEX
  5
6B
330
5D
100
AcDbEntity
  8
_U+30EC_U+30A4_U+30E4_U+30FC 1
370
     0
100
AcDbVertex
100
AcDb2dVertex
 10
107.8018608671468
 20
-146.9553710570112
 30
0.0
  0
VERTEX
  5
6C
330
5D
100
AcDbEntity
  8
_U+30EC_U+30A4_U+30E4_U+30FC 1
370
     0
100
AcDbVertex
100
AcDb2dVertex
 10
107.660267442703
 20
-146.9932671073489
 30
0.0
  0
VERTEX
  5
6D
330
5D
100
AcDbEntity
  8
_U+30EC_U+30A4_U+30E4_U+30FC 1
370
     0
100
AcDbVertex
100
AcDb2dVertex
 10
107.8018608671468
 20
-147.0315076672352
 30
0.0
  0
VERTEX
  5
6E
330
5D
100
AcDbEntity
  8
_U+30EC_U+30A4_U+30E4_U+30FC 1
370
     0
100
AcDbVertex
100
AcDb2dVertex
 10
108.9508002114776
 20
-147.4035779796422
 30
0.0
  0
VERTEX
  5
6F
330
5D
100
AcDbEntity
  8
_U+30EC_U+30A4_U+30E4_U+30FC 1
370
     0
100
AcDbVertex
100
AcDb2dVertex
 10
108.9508002114776
 20
-147.7212157833822
 30
0.0
  0
VERTEX
  5
70
330
5D
100
AcDbEntity
  8
_U+30EC_U+30A4_U+30E4_U+30FC 1
370
     0
100
AcDbVertex
100
AcDb2dVertex
 10
107.4063639054401
 20
-147.7212157833822
 30
0.0
  0
VERTEX
  5
71
330
5D
100
AcDbEntity
  8
_U+30EC_U+30A4_U+30E4_U+30FC 1
370
     0
100
AcDbVertex
100
AcDb2dVertex
 10
107.4063639054401
 20
-147.5031412391659
 30
0.0
  0
SEQEND
  5
72
330
5D
100
AcDbEntity
  8
_U+30EC_U+30A4_U+30E4_U+30FC 1
370
     0
  0
HATCH
  5
73
330
41
100
AcDbEntity
  8
_U+30EC_U+30A4_U+30E4_U+30FC 1
 62
   179
420
  2234388
100
AcDbHatch
 10
0.0
 20
0.0
 30
0.0
210
0.0
220
0.0
230
1.0
  2
SOLID
 70
     1
 71
     0
 91
        1
 92
        1
 93
       19
 72
     1
 10
107.4063639054401
 20
-147.5031412391659
 11
108.474688015416
 21
-147.5031412391659
 72
     1
 10
108.474688015416
 20
-147.5031412391659
 11
108.6376410318684
 21
-147.5093424110393
 72
     1
 10
108.6376410318684
 20
-147.5093424110393
 11
108.4833007541292
 21
-147.4735134179927
 72
     1
 10
108.4833007541292
 20
-147.4735134179927
 11
107.4063639054401
 21
-147.1286593599192
 72
     1
 10
107.4063639054401
 20
-147.1286593599192
 11
107.4063639054401
 21
-146.8578748547786
 72
     1
 10
107.4063639054401
 20
-146.8578748547786
 11
108.4833007541292
 21
-146.5150878539962
 72
     1
 10
108.4833007541292
 20
-146.5150878539962
 11
108.6376410318684
 21
-146.4792588609496
 72
     1
 10
108.6376410318684
 20
-146.4792588609496
 11
108.474688015416
 21
-146.4833929755319
 72
     1
 10
108.474688015416
 20
-146.4833929755319
 11
107.4063639054401
 21
-146.4833929755319
 72
     1
 10
107.4063639054401
 20
-146.4833929755319
 11
107.4063639054401
 21
-146.2656629408642
 72
     1
 10
107.4063639054401
 20
-146.2656629408642
 11
108.9508002114776
 21
-146.2656629408642
 72
     1
 10
108.9508002114776
 20
-146.2656629408642
 11
108.9508002114776
 21
-146.5850232923468
 72
     1
 10
108.9508002114776
 20
-146.5850232923468
 11
107.8018608671468
 21
-146.9553710570112
 72
     1
 10
107.8018608671468
 20
-146.9553710570112
 11
107.660267442703
 21
-146.9932671073489
 72
     1
 10
107.660267442703
 20
-146.9932671073489
 11
107.8018608671468
 21
-147.0315076672352
 72
     1
 10
107.8018608671468
 20
-147.0315076672352
 11
108.9508002114776
 21
-147.4035779796422
 72
     1
 10
108.9508002114776
 20
-147.4035779796422
 11
108.9508002114776
 21
-147.7212157833822
 72
     1
 10
108.9508002114776
 20
-147.7212157833822
 11
107.4063639054401
 21
-147.7212157833822
 72
     1
 10
107.4063639054401
 20
-147.7212157833822
 11
107.4063639054401
 21
-147.5031412391659
 97
        0
 75
     2
 76
     1
 98
        0
  0
SPLINE
  5
74
330
41
100
AcDbEntity
  8
_U+30EC_U+30A4_U+30E4_U+30FC 1
370
     0
100
AcDbSpline
210
0.0
220
0.0
230
1.0
 70
    11
 71
     3
 72
    47
 73
    43
 74
     0
 42
0.0000000001
 43
0.0000000001
 12
1.0
 22
0.0
 32
0.0
 13
1.0
 23
0.0
 33
0.0
 40
0.0
 40
0.0
 40
0.0
 40
0.0
 40
1.0
 40
1.0
 40
1.0
 40
2.0
 40
2.0
 40
2.0
 40
3.0
 40
3.0
 40
3.0
 40
4.0
 40
4.0
 40
4.0
 40
5.0
 40
5.0
 40
5.0
 40
6.0
 40
6.0
 40
6.0
 40
7.0
 40
7.0
 40
7.0
 40
8.0
 40
8.0
 40
8.0
 40
9.0
 40
9.0
 40
9.0
 40
10.0
 40
10.0
 40
10.0
 40
11.0
 40
11.0
 40
11.0
 40
12.0
 40
12.0
 40
12.0
 40
13.0
 40
13.0
 40
13.0
 40
14.0
 40
14.0
 40
14.0
 40
14.0
 10
109.0648328720393
 20
-149.8544189078489
 30
0.0
 10
108.935986300891
 20
-149.8502847932666
 30
0.0
 10
108.8364230413673
 20
-149.8458061691358
 30
0.0
 10
108.7265244953878
 20
-149.8458061691358
 30
0.0
 10
108.7265244953878
 20
-149.8458061691358
 30
0.0
 10
108.0051215007765
 20
-149.8458061691358
 30
0.0
 10
108.0051215007765
 20
-149.8458061691358
 30
0.0
 10
107.9754936796034
 20
-149.8458061691358
 30
0.0
 10
107.9499999730125
 20
-149.8502847932666
 30
0.0
 10
107.7215901423404
 20
-149.8544189078489
 30
0.0
 10
107.7215901423404
 20
-149.8544189078489
 30
0.0
 10
107.5121283368373
 20
-149.8585530224312
 30
0.0
 10
107.5121283368373
 20
-149.8585530224312
 30
0.0
 10
107.3450412058026
 20
-149.863031646562
 30
0.0
 10
107.2623589141566
 20
-149.8227240293846
 30
0.0
 10
107.2623589141566
 20
-149.5922471414214
 30
0.0
 10
107.2623589141566
 20
-149.5540065815351
 30
0.0
 10
107.2623589141566
 20
-149.5285128749443
 30
0.0
 10
107.2647704809963
 20
-149.4947509391888
 30
0.0
 10
107.2647704809963
 20
-149.4947509391888
 30
0.0
 10
107.4973144262507
 20
-149.3741725972051
 30
0.0
 10
107.4973144262507
 20
-149.3741725972051
 30
0.0
 10
107.4866346302464
 20
-149.4503092074291
 30
0.0
 10
107.480433458373
 20
-149.5478054096617
 30
0.0
 10
107.480433458373
 20
-149.5963812560037
 30
0.0
 10
107.480433458373
 20
-149.6511582742192
 30
0.0
 10
107.4931803116684
 20
-149.6511582742192
 30
0.0
 10
107.5861978897701
 20
-149.6511582742192
 30
0.0
 10
107.5861978897701
 20
-149.6511582742192
 30
0.0
 10
108.7051649033793
 20
-149.6511582742192
 30
0.0
 10
108.7051649033793
 20
-149.6511582742192
 30
0.0
 10
108.8574381238273
 20
-149.6511582742192
 30
0.0
 10
109.0076442869842
 20
-149.6470241596369
 30
0.0
 10
109.1602620169808
 20
-149.6408229877634
 30
0.0
 10
109.1602620169808
 20
-149.6408229877634
 30
0.0
 10
109.1389024249722
 20
-149.8458061691358
 30
0.0
 10
109.1389024249722
 20
-149.8458061691358
 30
0.0
 10
109.1347683103899
 20
-149.8819796717309
 30
0.0
 10
109.1327012530988
 20
-149.8947265250263
 30
0.0
 10
109.1134087183814
 20
-149.8947265250263
 30
0.0
 10
109.1010063746345
 20
-149.8947265250263
 30
0.0
 10
109.0841254067568
 20
-149.8754339903089
 30
0.0
 10
109.0648328720393
 20
-149.8544189078489
 30
0.0
  0
SPLINE
  5
75
330
41
100
AcDbEntity
  8
_U+30EC_U+30A4_U+30E4_U+30FC 1
370
     0
100
AcDbSpline
210
0.0
220
0.0
230
1.0
 70
    11
 71
     3
 72
    83
 73
    79
 74
     0
 42
0.0000000001
 43
0.0000000001
 12
1.0
 22
0.0
 32
0.0
 13
1.0
 23
0.0
 33
0.0
 40
0.0
 40
0.0
 40
0.0
 40
0.0
 40
1.0
 40
1.0
 40
1.0
 40
2.0
 40
2.0
 40
2.0
 40
3.0
 40
3.0
 40
3.0
 40
4.0
 40
4.0
 40
4.0
 40
5.0
 40
5.0
 40
5.0
 40
6.0
 40
6.0
 40
6.0
 40
7.0
 40
7.0
 40
7.0
 40
8.0
 40
8.0
 40
8.0
 40
9.0
 40
9.0
 40
9.0
 40
10.0
 40
10.0
 40
10.0
 40
11.0
 40
11.0
 40
11.0
 40
12.0
 40
12.0
 40
12.0
 40
13.0
 40
13.0
 40
13.0
 40
14.0
 40
14.0
 40
14.0
 40
15.0
 40
15.0
 40
15.0
 40
16.0
 40
16.0
 40
16.0
 40
17.0
 40
17.0
 40
17.0
 40
18.0
 40
18.0
 40
18.0
 40
19.0
 40
19.0
 40
19.0
 40
20.0
 40
20.0
 40
20.0
 40
21.0
 40
21.0
 40
21.0
 40
22.0
 40
22.0
 40
22.0
 40
23.0
 40
23.0
 40
23.0
 40
24.0
 40
24.0
 40
24.0
 40
25.0
 40
25.0
 40
25.0
 40
26.0
 40
26.0
 40
26.0
 40
26.0
 10
108.4240451117829
 20
-148.7013454489358
 30
0.0
 10
108.4240451117829
 20
-148.7013454489358
 30
0.0
 10
108.4240451117829
 20
-148.5852457310829
 30
0.0
 10
108.4240451117829
 20
-148.5852457310829
 30
0.0
 10
108.3351616482634
 20
-148.5828341642432
 30
0.0
 10
108.2717718913348
 20
-148.5745659350786
 30
0.0
 10
108.2145833062797
 20
-148.5680202536566
 30
0.0
 10
108.2145833062797
 20
-148.5680202536566
 30
0.0
 10
108.2145833062797
 20
-149.0062363993804
 30
0.0
 10
108.2145833062797
 20
-149.0062363993804
 30
0.0
 10
108.0623100858317
 20
-148.9996907179584
 30
0.0
 10
107.6771484105807
 20
-148.9848768073718
 30
0.0
 10
107.4549397517821
 20
-148.8959933438524
 30
0.0
 10
107.3343614097984
 20
-148.8494845548015
 30
0.0
 10
107.2878526207475
 20
-148.7860947978729
 30
0.0
 10
107.2878526207475
 20
-148.6021266989606
 30
0.0
 10
107.2878526207475
 20
-148.55320634307
 30
0.0
 10
107.2899196780386
 20
-148.5342583179012
 30
0.0
 10
107.2943983021695
 20
-148.5091091208589
 30
0.0
 10
107.2943983021695
 20
-148.5091091208589
 30
0.0
 10
107.5269422474238
 20
-148.4305609437951
 30
0.0
 10
107.5269422474238
 20
-148.4305609437951
 30
0.0
 10
107.5269422474238
 20
-148.4371066252171
 30
0.0
 10
107.5248751901327
 20
-148.4433077970906
 30
0.0
 10
107.507994222255
 20
-148.51117617815
 30
0.0
 10
107.4973144262507
 20
-148.55320634307
 30
0.0
 10
107.4931803116684
 20
-148.587312788374
 30
0.0
 10
107.4931803116684
 20
-148.6021266989606
 30
0.0
 10
107.4931803116684
 20
-148.6782633091846
 30
0.0
 10
107.5376220434281
 20
-148.7034125062269
 30
0.0
 10
107.5713839791836
 20
-148.7206379836532
 30
0.0
 10
107.5882649470613
 20
-148.7289062128178
 30
0.0
 10
107.7215901423404
 20
-148.7840277405818
 30
0.0
 10
108.0430175511142
 20
-148.8009087084595
 30
0.0
 10
108.0430175511142
 20
-148.8009087084595
 30
0.0
 10
108.0430175511142
 20
-148.5363253751923
 30
0.0
 10
108.0430175511142
 20
-148.5363253751923
 30
0.0
 10
107.6730142959984
 20
-148.4539875930948
 30
0.0
 10
107.4170437014444
 20
-148.2824218379294
 30
0.0
 10
107.3005994740429
 20
-148.1132676496036
 30
0.0
 10
107.3005994740429
 20
-148.1132676496036
 30
0.0
 10
107.4594183759129
 20
-147.9547932572821
 30
0.0
 10
107.4594183759129
 20
-147.9547932572821
 30
0.0
 10
107.6750813532896
 20
-148.2910345766425
 30
0.0
 10
108.0685112577051
 20
-148.3819850974531
 30
0.0
 10
108.4240451117829
 20
-148.3905978361663
 30
0.0
 10
108.4240451117829
 20
-148.3375433656934
 30
0.0
 10
108.4240451117829
 20
-148.3292751365288
 30
0.0
 10
108.4154323730698
 20
-148.0646918032616
 30
0.0
 10
108.4767550727072
 20
-148.0688259178439
 30
0.0
 10
108.5742512749398
 20
-148.0733045419747
 30
0.0
 10
108.6693359103327
 20
-148.0733045419747
 30
0.0
 10
108.6693359103327
 20
-148.0733045419747
 30
0.0
 10
108.8746636012536
 20
-148.0733045419747
 30
0.0
 10
108.8746636012536
 20
-148.0733045419747
 30
0.0
 10
108.901879855587
 20
-148.0733045419747
 30
0.0
 10
109.0248697644105
 20
-148.0708929751351
 30
0.0
 10
109.0841254067568
 20
-148.0646918032616
 30
0.0
 10
109.0755126680436
 20
-148.1408284134856
 30
0.0
 10
109.0713785534613
 20
-148.276220666056
 30
0.0
 10
109.0713785534613
 20
-148.358902957702
 30
0.0
 10
109.0713785534613
 20
-148.358902957702
 30
0.0
 10
109.0713785534613
 20
-148.6823974237669
 30
0.0
 10
109.0713785534613
 20
-148.6823974237669
 30
0.0
 10
109.0713785534613
 20
-148.8305365296326
 30
0.0
 10
109.0734456107525
 20
-148.8791123759747
 30
0.0
 10
109.0841254067568
 20
-149.0103705139627
 30
0.0
 10
109.0100558538239
 20
-149.0017577752496
 30
0.0
 10
108.9104925943002
 20
-149.0017577752496
 30
0.0
 10
108.8660508625404
 20
-149.0017577752496
 30
0.0
 10
108.8660508625404
 20
-149.0017577752496
 30
0.0
 10
108.6714029676238
 20
-149.0017577752496
 30
0.0
 10
108.6714029676238
 20
-149.0017577752496
 30
0.0
 10
108.5508246256401
 20
-149.0017577752496
 30
0.0
 10
108.5277424858889
 20
-149.0017577752496
 30
0.0
 10
108.4154323730698
 20
-149.0103705139627
 30
0.0
 10
108.4240451117829
 20
-148.8856580573967
 30
0.0
 10
108.4240451117829
 20
-148.8453504402192
 30
0.0
 10
108.4240451117829
 20
-148.7013454489358
 30
0.0
  0
SPLINE
  5
76
330
41
100
AcDbEntity
  8
_U+30EC_U+30A4_U+30E4_U+30FC 1
370
     0
100
AcDbSpline
210
0.0
220
0.0
230
1.0
 70
    11
 71
     3
 72
    41
 73
    37
 74
     0
 42
0.0000000001
 43
0.0000000001
 12
1.0
 22
0.0
 32
0.0
 13
1.0
 23
0.0
 33
0.0
 40
0.0
 40
0.0
 40
0.0
 40
0.0
 40
1.0
 40
1.0
 40
1.0
 40
2.0
 40
2.0
 40
2.0
 40
3.0
 40
3.0
 40
3.0
 40
4.0
 40
4.0
 40
4.0
 40
5.0
 40
5.0
 40
5.0
 40
6.0
 40
6.0
 40
6.0
 40
7.0
 40
7.0
 40
7.0
 40
8.0
 40
8.0
 40
8.0
 40
9.0
 40
9.0
 40
9.0
 40
10.0
 40
10.0
 40
10.0
 40
11.0
 40
11.0
 40
11.0
 40
12.0
 40
12.0
 40
12.0
 40
12.0
 10
108.8471028373716
 20
-149.4144802143825
 30
0.0
 10
108.7392713486832
 20
-149.4124131570914
 30
0.0
 10
108.6248941785729
 20
-149.4124131570914
 30
0.0
 10
108.5170626898846
 20
-149.4124131570914
 30
0.0
 10
108.5170626898846
 20
-149.4124131570914
 30
0.0
 10
108.2207844781531
 20
-149.4124131570914
 30
0.0
 10
108.2207844781531
 20
-149.4124131570914
 30
0.0
 10
108.1022731934605
 20
-149.4124131570914
 30
0.0
 10
107.8928113879574
 20
-149.4165472716736
 30
0.0
 10
107.7767116701044
 20
-149.4334282395514
 30
0.0
 10
107.7767116701044
 20
-149.4334282395514
 30
0.0
 10
107.7767116701044
 20
-149.1815917595796
 30
0.0
 10
107.7767116701044
 20
-149.1815917595796
 30
0.0
 10
107.8655951336239
 20
-149.1922715555839
 30
0.0
 10
108.1339680719248
 20
-149.2091525234616
 30
0.0
 10
108.2207844781531
 20
-149.2091525234616
 30
0.0
 10
108.2207844781531
 20
-149.2091525234616
 30
0.0
 10
108.5508246256401
 20
-149.2091525234616
 30
0.0
 10
108.5508246256401
 20
-149.2091525234616
 30
0.0
 10
108.5508246256401
 20
-149.2091525234616
 30
0.0
 10
108.5845865613955
 20
-149.2091525234616
 30
0.0
 10
108.5845865613955
 20
-149.2091525234616
 30
0.0
 10
108.5845865613955
 20
-149.2091525234616
 30
0.0
 10
108.7664876030167
 20
-149.2091525234616
 30
0.0
 10
108.7664876030167
 20
-149.2091525234616
 30
0.0
 10
108.8067952201941
 20
-149.2091525234616
 30
0.0
 10
108.8701849771227
 20
-149.2070854661705
 30
0.0
 10
108.9549343260599
 20
-149.2050184088793
 30
0.0
 10
108.9549343260599
 20
-149.2050184088793
 30
0.0
 10
108.9401204154733
 20
-149.4124131570914
 30
0.0
 10
108.9401204154733
 20
-149.4124131570914
 30
0.0
 10
108.9401204154733
 20
-149.4248155008382
 30
0.0
 10
108.9380533581822
 20
-149.4651231180157
 30
0.0
 10
108.908425537009
 20
-149.4651231180157
 30
0.0
 10
108.8915445691313
 20
-149.4651231180157
 30
0.0
 10
108.8722520344139
 20
-149.4441080355556
 30
0.0
 10
108.8471028373716
 20
-149.4144802143825
 30
0.0
  0
POLYLINE
  5
77
330
41
100
AcDbEntity
  8
_U+30EC_U+30A4_U+30E4_U+30FC 1
370
     0
100
AcDb2dPolyline
 66
     1
 10
0.0
 20
0.0
 30
0.0
  0
VERTEX
  5
78
330
77
100
AcDbEntity
  8
_U+30EC_U+30A4_U+30E4_U+30FC 1
370
     0
100
AcDbVertex
100
AcDb2dVertex
 10
108.908425537009
 20
-148.8009087084595
 30
0.0
  0
VERTEX
  5
79
330
77
100
AcDbEntity
  8
_U+30EC_U+30A4_U+30E4_U+30FC 1
370
     0
100
AcDbVertex
100
AcDb2dVertex
 10
108.908425537009
 20
-148.2593396981782
 30
0.0
  0
VERTEX
  5
7A
330
77
100
AcDbEntity
  8
_U+30EC_U+30A4_U+30E4_U+30FC 1
370
     0
100
AcDbVertex
100
AcDb2dVertex
 10
108.5845865613955
 20
-148.2593396981782
 30
0.0
  0
VERTEX
  5
7B
330
77
100
AcDbEntity
  8
_U+30EC_U+30A4_U+30E4_U+30FC 1
370
     0
100
AcDbVertex
100
AcDb2dVertex
 10
108.5845865613955
 20
-148.8009087084595
 30
0.0
  0
VERTEX
  5
7C
330
77
100
AcDbEntity
  8
_U+30EC_U+30A4_U+30E4_U+30FC 1
370
     0
100
AcDbVertex
100
AcDb2dVertex
 10
108.908425537009
 20
-148.8009087084595
 30
0.0
  0
SEQEND
  5
7D
330
77
100
AcDbEntity
  8
_U+30EC_U+30A4_U+30E4_U+30FC 1
370
     0
  0
HATCH
  5
7E
330
41
100
AcDbEntity
  8
_U+30EC_U+30A4_U+30E4_U+30FC 1
 62
   179
420
  2234388
100
AcDbHatch
 10
0.0
 20
0.0
 30
0.0
210
0.0
220
0.0
230
1.0
  2
SOLID
 70
     1
 71
     0
 91
        4
 92
        1
 93
        1
 72
     4
 94
        3
 73
     0
 74
     1
 95
       47
 96
       43
 40
0.0
 40
0.0
 40
0.0
 40
0.0
 40
1.0
 40
1.0
 40
1.0
 40
2.0
 40
2.0
 40
2.0
 40
3.0
 40
3.0
 40
3.0
 40
4.0
 40
4.0
 40
4.0
 40
5.0
 40
5.0
 40
5.0
 40
6.0
 40
6.0
 40
6.0
 40
7.0
 40
7.0
 40
7.0
 40
8.0
 40
8.0
 40
8.0
 40
9.0
 40
9.0
 40
9.0
 40
10.0
 40
10.0
 40
10.0
 40
11.0
 40
11.0
 40
11.0
 40
12.0
 40
12.0
 40
12.0
 40
13.0
 40
13.0
 40
13.0
 40
14.0
 40
14.0
 40
14.0
 40
14.0
 10
109.0648328720393
 20
-149.8544189078489
 10
108.935986300891
 20
-149.8502847932666
 10
108.8364230413673
 20
-149.8458061691358
 10
108.7265244953878
 20
-149.8458061691358
 10
108.7265244953878
 20
-149.8458061691358
 10
108.0051215007765
 20
-149.8458061691358
 10
108.0051215007765
 20
-149.8458061691358
 10
107.9754936796034
 20
-149.8458061691358
 10
107.9499999730125
 20
-149.8502847932666
 10
107.7215901423404
 20
-149.8544189078489
 10
107.7215901423404
 20
-149.8544189078489
 10
107.5121283368373
 20
-149.8585530224312
 10
107.5121283368373
 20
-149.8585530224312
 10
107.3450412058026
 20
-149.863031646562
 10
107.2623589141566
 20
-149.8227240293846
 10
107.2623589141566
 20
-149.5922471414214
 10
107.2623589141566
 20
-149.5540065815351
 10
107.2623589141566
 20
-149.5285128749443
 10
107.2647704809963
 20
-149.4947509391888
 10
107.2647704809963
 20
-149.4947509391888
 10
107.4973144262507
 20
-149.3741725972051
 10
107.4973144262507
 20
-149.3741725972051
 10
107.4866346302464
 20
-149.4503092074291
 10
107.480433458373
 20
-149.5478054096617
 10
107.480433458373
 20
-149.5963812560037
 10
107.480433458373
 20
-149.6511582742192
 10
107.4931803116684
 20
-149.6511582742192
 10
107.5861978897701
 20
-149.6511582742192
 10
107.5861978897701
 20
-149.6511582742192
 10
108.7051649033793
 20
-149.6511582742192
 10
108.7051649033793
 20
-149.6511582742192
 10
108.8574381238273
 20
-149.6511582742192
 10
109.0076442869842
 20
-149.6470241596369
 10
109.1602620169808
 20
-149.6408229877634
 10
109.1602620169808
 20
-149.6408229877634
 10
109.1389024249722
 20
-149.8458061691358
 10
109.1389024249722
 20
-149.8458061691358
 10
109.1347683103899
 20
-149.8819796717309
 10
109.1327012530988
 20
-149.8947265250263
 10
109.1134087183814
 20
-149.8947265250263
 10
109.1010063746345
 20
-149.8947265250263
 10
109.0841254067568
 20
-149.8754339903089
 10
109.0648328720393
 20
-149.8544189078489
 97
        0
 97
        0
 92
        1
 93
        1
 72
     4
 94
        3
 73
     0
 74
     1
 95
       83
 96
       79
 40
0.0
 40
0.0
 40
0.0
 40
0.0
 40
1.0
 40
1.0
 40
1.0
 40
2.0
 40
2.0
 40
2.0
 40
3.0
 40
3.0
 40
3.0
 40
4.0
 40
4.0
 40
4.0
 40
5.0
 40
5.0
 40
5.0
 40
6.0
 40
6.0
 40
6.0
 40
7.0
 40
7.0
 40
7.0
 40
8.0
 40
8.0
 40
8.0
 40
9.0
 40
9.0
 40
9.0
 40
10.0
 40
10.0
 40
10.0
 40
11.0
 40
11.0
 40
11.0
 40
12.0
 40
12.0
 40
12.0
 40
13.0
 40
13.0
 40
13.0
 40
14.0
 40
14.0
 40
14.0
 40
15.0
 40
15.0
 40
15.0
 40
16.0
 40
16.0
 40
16.0
 40
17.0
 40
17.0
 40
17.0
 40
18.0
 40
18.0
 40
18.0
 40
19.0
 40
19.0
 40
19.0
 40
20.0
 40
20.0
 40
20.0
 40
21.0
 40
21.0
 40
21.0
 40
22.0
 40
22.0
 40
22.0
 40
23.0
 40
23.0
 40
23.0
 40
24.0
 40
24.0
 40
24.0
 40
25.0
 40
25.0
 40
25.0
 40
26.0
 40
26.0
 40
26.0
 40
26.0
 10
108.4240451117829
 20
-148.7013454489358
 10
108.4240451117829
 20
-148.7013454489358
 10
108.4240451117829
 20
-148.5852457310829
 10
108.4240451117829
 20
-148.5852457310829
 10
108.3351616482634
 20
-148.5828341642432
 10
108.2717718913348
 20
-148.5745659350786
 10
108.2145833062797
 20
-148.5680202536566
 10
108.2145833062797
 20
-148.5680202536566
 10
108.2145833062797
 20
-149.0062363993804
 10
108.2145833062797
 20
-149.0062363993804
 10
108.0623100858317
 20
-148.9996907179584
 10
107.6771484105807
 20
-148.9848768073718
 10
107.4549397517821
 20
-148.8959933438524
 10
107.3343614097984
 20
-148.8494845548015
 10
107.2878526207475
 20
-148.7860947978729
 10
107.2878526207475
 20
-148.6021266989606
 10
107.2878526207475
 20
-148.55320634307
 10
107.2899196780386
 20
-148.5342583179012
 10
107.2943983021695
 20
-148.5091091208589
 10
107.2943983021695
 20
-148.5091091208589
 10
107.5269422474238
 20
-148.4305609437951
 10
107.5269422474238
 20
-148.4305609437951
 10
107.5269422474238
 20
-148.4371066252171
 10
107.5248751901327
 20
-148.4433077970906
 10
107.507994222255
 20
-148.51117617815
 10
107.4973144262507
 20
-148.55320634307
 10
107.4931803116684
 20
-148.587312788374
 10
107.4931803116684
 20
-148.6021266989606
 10
107.4931803116684
 20
-148.6782633091846
 10
107.5376220434281
 20
-148.7034125062269
 10
107.5713839791836
 20
-148.7206379836532
 10
107.5882649470613
 20
-148.7289062128178
 10
107.7215901423404
 20
-148.7840277405818
 10
108.0430175511142
 20
-148.8009087084595
 10
108.0430175511142
 20
-148.8009087084595
 10
108.0430175511142
 20
-148.5363253751923
 10
108.0430175511142
 20
-148.5363253751923
 10
107.6730142959984
 20
-148.4539875930948
 10
107.4170437014444
 20
-148.2824218379294
 10
107.3005994740429
 20
-148.1132676496036
 10
107.3005994740429
 20
-148.1132676496036
 10
107.4594183759129
 20
-147.9547932572821
 10
107.4594183759129
 20
-147.9547932572821
 10
107.6750813532896
 20
-148.2910345766425
 10
108.0685112577051
 20
-148.3819850974531
 10
108.4240451117829
 20
-148.3905978361663
 10
108.4240451117829
 20
-148.3375433656934
 10
108.4240451117829
 20
-148.3292751365288
 10
108.4154323730698
 20
-148.0646918032616
 10
108.4767550727072
 20
-148.0688259178439
 10
108.5742512749398
 20
-148.0733045419747
 10
108.6693359103327
 20
-148.0733045419747
 10
108.6693359103327
 20
-148.0733045419747
 10
108.8746636012536
 20
-148.0733045419747
 10
108.8746636012536
 20
-148.0733045419747
 10
108.901879855587
 20
-148.0733045419747
 10
109.0248697644105
 20
-148.0708929751351
 10
109.0841254067568
 20
-148.0646918032616
 10
109.0755126680436
 20
-148.1408284134856
 10
109.0713785534613
 20
-148.276220666056
 10
109.0713785534613
 20
-148.358902957702
 10
109.0713785534613
 20
-148.358902957702
 10
109.0713785534613
 20
-148.6823974237669
 10
109.0713785534613
 20
-148.6823974237669
 10
109.0713785534613
 20
-148.8305365296326
 10
109.0734456107525
 20
-148.8791123759747
 10
109.0841254067568
 20
-149.0103705139627
 10
109.0100558538239
 20
-149.0017577752496
 10
108.9104925943002
 20
-149.0017577752496
 10
108.8660508625404
 20
-149.0017577752496
 10
108.8660508625404
 20
-149.0017577752496
 10
108.6714029676238
 20
-149.0017577752496
 10
108.6714029676238
 20
-149.0017577752496
 10
108.5508246256401
 20
-149.0017577752496
 10
108.5277424858889
 20
-149.0017577752496
 10
108.4154323730698
 20
-149.0103705139627
 10
108.4240451117829
 20
-148.8856580573967
 10
108.4240451117829
 20
-148.8453504402192
 10
108.4240451117829
 20
-148.7013454489358
 97
        0
 97
        0
 92
        1
 93
        1
 72
     4
 94
        3
 73
     0
 74
     1
 95
       41
 96
       37
 40
0.0
 40
0.0
 40
0.0
 40
0.0
 40
1.0
 40
1.0
 40
1.0
 40
2.0
 40
2.0
 40
2.0
 40
3.0
 40
3.0
 40
3.0
 40
4.0
 40
4.0
 40
4.0
 40
5.0
 40
5.0
 40
5.0
 40
6.0
 40
6.0
 40
6.0
 40
7.0
 40
7.0
 40
7.0
 40
8.0
 40
8.0
 40
8.0
 40
9.0
 40
9.0
 40
9.0
 40
10.0
 40
10.0
 40
10.0
 40
11.0
 40
11.0
 40
11.0
 40
12.0
 40
12.0
 40
12.0
 40
12.0
 10
108.8471028373716
 20
-149.4144802143825
 10
108.7392713486832
 20
-149.4124131570914
 10
108.6248941785729
 20
-149.4124131570914
 10
108.5170626898846
 20
-149.4124131570914
 10
108.5170626898846
 20
-149.4124131570914
 10
108.2207844781531
 20
-149.4124131570914
 10
108.2207844781531
 20
-149.4124131570914
 10
108.1022731934605
 20
-149.4124131570914
 10
107.8928113879574
 20
-149.4165472716736
 10
107.7767116701044
 20
-149.4334282395514
 10
107.7767116701044
 20
-149.4334282395514
 10
107.7767116701044
 20
-149.1815917595796
 10
107.7767116701044
 20
-149.1815917595796
 10
107.8655951336239
 20
-149.1922715555839
 10
108.1339680719248
 20
-149.2091525234616
 10
108.2207844781531
 20
-149.2091525234616
 10
108.2207844781531
 20
-149.2091525234616
 10
108.5508246256401
 20
-149.2091525234616
 10
108.5508246256401
 20
-149.2091525234616
 10
108.5508246256401
 20
-149.2091525234616
 10
108.5845865613955
 20
-149.2091525234616
 10
108.5845865613955
 20
-149.2091525234616
 10
108.5845865613955
 20
-149.2091525234616
 10
108.7664876030167
 20
-149.2091525234616
 10
108.7664876030167
 20
-149.2091525234616
 10
108.8067952201941
 20
-149.2091525234616
 10
108.8701849771227
 20
-149.2070854661705
 10
108.9549343260599
 20
-149.2050184088793
 10
108.9549343260599
 20
-149.2050184088793
 10
108.9401204154733
 20
-149.4124131570914
 10
108.9401204154733
 20
-149.4124131570914
 10
108.9401204154733
 20
-149.4248155008382
 10
108.9380533581822
 20
-149.4651231180157
 10
108.908425537009
 20
-149.4651231180157
 10
108.8915445691313
 20
-149.4651231180157
 10
108.8722520344139
 20
-149.4441080355556
 10
108.8471028373716
 20
-149.4144802143825
 97
        0
 97
        0
 92
        1
 93
        4
 72
     1
 10
108.908425537009
 20
-148.8009087084595
 11
108.908425537009
 21
-148.2593396981782
 72
     1
 10
108.908425537009
 20
-148.2593396981782
 11
108.5845865613955
 21
-148.2593396981782
 72
     1
 10
108.5845865613955
 20
-148.2593396981782
 11
108.5845865613955
 21
-148.8009087084595
 72
     1
 10
108.5845865613955
 20
-148.8009087084595
 11
108.908425537009
 21
-148.8009087084595
 97
        0
 75
     2
 76
     1
 98
        0
  0
SPLINE
  5
7F
330
41
100
AcDbEntity
  8
_U+30EC_U+30A4_U+30E4_U+30FC 1
370
     0
100
AcDbSpline
210
0.0
220
0.0
230
1.0
 70
    11
 71
     3
 72
    71
 73
    67
 74
     0
 42
0.0000000001
 43
0.0000000001
 12
1.0
 22
0.0
 32
0.0
 13
1.0
 23
0.0
 33
0.0
 40
0.0
 40
0.0
 40
0.0
 40
0.0
 40
1.0
 40
1.0
 40
1.0
 40
2.0
 40
2.0
 40
2.0
 40
3.0
 40
3.0
 40
3.0
 40
4.0
 40
4.0
 40
4.0
 40
5.0
 40
5.0
 40
5.0
 40
6.0
 40
6.0
 40
6.0
 40
7.0
 40
7.0
 40
7.0
 40
8.0
 40
8.0
 40
8.0
 40
9.0
 40
9.0
 40
9.0
 40
10.0
 40
10.0
 40
10.0
 40
11.0
 40
11.0
 40
11.0
 40
12.0
 40
12.0
 40
12.0
 40
13.0
 40
13.0
 40
13.0
 40
14.0
 40
14.0
 40
14.0
 40
15.0
 40
15.0
 40
15.0
 40
16.0
 40
16.0
 40
16.0
 40
17.0
 40
17.0
 40
17.0
 40
18.0
 40
18.0
 40
18.0
 40
19.0
 40
19.0
 40
19.0
 40
20.0
 40
20.0
 40
20.0
 40
21.0
 40
21.0
 40
21.0
 40
22.0
 40
22.0
 40
22.0
 40
22.0
 10
107.3195474992118
 20
-152.0048475097419
 30
0.0
 10
107.3154133846295
 20
-151.9455918673956
 30
0.0
 10
107.3112792700472
 20
-151.8611870280069
 30
0.0
 10
107.3112792700472
 20
-151.6517252225037
 30
0.0
 10
107.3112792700472
 20
-151.5607747016931
 30
0.0
 10
107.3154133846295
 20
-151.1566650012734
 30
0.0
 10
107.3154133846295
 20
-151.0739827096274
 30
0.0
 10
107.3154133846295
 20
-150.8307589683687
 30
0.0
 10
107.3154133846295
 20
-150.7735703833136
 30
0.0
 10
107.3533094349672
 20
-150.6764186906295
 30
0.0
 10
107.397751166727
 20
-150.5579074059369
 30
0.0
 10
107.4656195477864
 20
-150.5093315595949
 30
0.0
 10
107.5162624514195
 20
-150.4731580569998
 30
0.0
 10
107.4911132543772
 20
-150.4435302358266
 30
0.0
 10
107.3829372561404
 20
-150.3081379832563
 30
0.0
 10
107.3619221736804
 20
-150.2809217289228
 30
0.0
 10
107.309212212756
 20
-150.276443104792
 30
0.0
 10
107.281651448874
 20
-150.2723089902097
 30
0.0
 10
107.281651448874
 20
-150.2447482263277
 30
0.0
 10
107.281651448874
 20
-150.2258002011588
 30
0.0
 10
107.3047335886252
 20
-150.2130533478634
 30
0.0
 10
107.3174804419206
 20
-150.20685217599
 30
0.0
 10
107.3174804419206
 20
-150.20685217599
 30
0.0
 10
107.5183295087107
 20
-150.1200357697617
 30
0.0
 10
107.5183295087107
 20
-150.1200357697617
 30
0.0
 10
107.5355549861369
 20
-150.1854925839814
 30
0.0
 10
107.605145914939
 20
-150.3274305179737
 30
0.0
 10
107.6495876466987
 20
-150.3887532176111
 30
0.0
 10
107.6495876466987
 20
-150.3887532176111
 30
0.0
 10
108.1108859321737
 20
-150.3887532176111
 30
0.0
 10
108.1108859321737
 20
-150.3887532176111
 30
0.0
 10
108.1108859321737
 20
-150.3887532176111
 30
0.0
 10
108.1108859321737
 20
-150.2743760475009
 30
0.0
 10
108.1108859321737
 20
-150.2743760475009
 30
0.0
 10
108.1108859321737
 20
-150.2723089902097
 30
0.0
 10
108.1022731934605
 20
-150.1603433869391
 30
0.0
 10
108.1022731934605
 20
-150.151730648226
 30
0.0
 10
108.1022731934605
 20
-150.151730648226
 30
0.0
 10
108.2927869737949
 20
-150.151730648226
 30
0.0
 10
108.2927869737949
 20
-150.151730648226
 30
0.0
 10
108.2907199165037
 20
-150.2216660865765
 30
0.0
 10
108.2886528592126
 20
-150.2299343157411
 30
0.0
 10
108.2886528592126
 20
-150.2891899580874
 30
0.0
 10
108.2886528592126
 20
-150.2891899580874
 30
0.0
 10
108.2886528592126
 20
-150.40770124278
 30
0.0
 10
108.2886528592126
 20
-150.40770124278
 30
0.0
 10
108.2886528592126
 20
-150.435262006662
 30
0.0
 10
108.2927869737949
 20
-150.5262125274726
 30
0.0
 10
108.2969210883772
 20
-150.5875352271101
 30
0.0
 10
108.2228515354443
 20
-150.578922488397
 30
0.0
 10
108.1615288358068
 20
-150.5768554311058
 30
0.0
 10
108.1511935493511
 20
-150.5768554311058
 30
0.0
 10
108.1511935493511
 20
-150.5768554311058
 30
0.0
 10
107.7446722820916
 20
-150.5768554311058
 30
0.0
 10
107.7446722820916
 20
-150.5768554311058
 30
0.0
 10
107.653721761281
 20
-150.5768554311058
 30
0.0
 10
107.584130832479
 20
-150.6402451880344
 30
0.0
 10
107.5672498646013
 20
-150.6595377227518
 30
0.0
 10
107.4762993437907
 20
-150.7694362687313
 30
0.0
 10
107.4635524904952
 20
-150.7904513511913
 30
0.0
 10
107.4635524904952
 20
-151.1501193198514
 30
0.0
 10
107.4635524904952
 20
-151.2369357260797
 30
0.0
 10
107.473887776951
 20
-151.8060655002429
 30
0.0
 10
107.5121283368373
 20
-152.0727158908013
 30
0.0
 10
107.5121283368373
 20
-152.0727158908013
 30
0.0
 10
107.3195474992118
 20
-152.0048475097419
 30
0.0
 10
107.3195474992118
 20
-152.0048475097419
 30
0.0
  0
SPLINE
  5
80
330
41
100
AcDbEntity
  8
_U+30EC_U+30A4_U+30E4_U+30FC 1
370
     0
100
AcDbSpline
210
0.0
220
0.0
230
1.0
 70
    11
 71
     3
 72
   122
 73
   118
 74
     0
 42
0.0000000001
 43
0.0000000001
 12
1.0
 22
0.0
 32
0.0
 13
1.0
 23
0.0
 33
0.0
 40
0.0
 40
0.0
 40
0.0
 40
0.0
 40
1.0
 40
1.0
 40
1.0
 40
2.0
 40
2.0
 40
2.0
 40
3.0
 40
3.0
 40
3.0
 40
4.0
 40
4.0
 40
4.0
 40
5.0
 40
5.0
 40
5.0
 40
6.0
 40
6.0
 40
6.0
 40
7.0
 40
7.0
 40
7.0
 40
8.0
 40
8.0
 40
8.0
 40
9.0
 40
9.0
 40
9.0
 40
10.0
 40
10.0
 40
10.0
 40
11.0
 40
11.0
 40
11.0
 40
12.0
 40
12.0
 40
12.0
 40
13.0
 40
13.0
 40
13.0
 40
14.0
 40
14.0
 40
14.0
 40
15.0
 40
15.0
 40
15.0
 40
16.0
 40
16.0
 40
16.0
 40
17.0
 40
17.0
 40
17.0
 40
18.0
 40
18.0
 40
18.0
 40
19.0
 40
19.0
 40
19.0
 40
20.0
 40
20.0
 40
20.0
 40
21.0
 40
21.0
 40
21.0
 40
22.0
 40
22.0
 40
22.0
 40
23.0
 40
23.0
 40
23.0
 40
24.0
 40
24.0
 40
24.0
 40
25.0
 40
25.0
 40
25.0
 40
26.0
 40
26.0
 40
26.0
 40
27.0
 40
27.0
 40
27.0
 40
28.0
 40
28.0
 40
28.0
 40
29.0
 40
29.0
 40
29.0
 40
30.0
 40
30.0
 40
30.0
 40
31.0
 40
31.0
 40
31.0
 40
32.0
 40
32.0
 40
32.0
 40
33.0
 40
33.0
 40
33.0
 40
34.0
 40
34.0
 40
34.0
 40
35.0
 40
35.0
 40
35.0
 40
36.0
 40
36.0
 40
36.0
 40
37.0
 40
37.0
 40
37.0
 40
38.0
 40
38.0
 40
38.0
 40
39.0
 40
39.0
 40
39.0
 40
39.0
 10
108.4833007541292
 20
-151.930777956809
 30
0.0
 10
108.4957030978761
 20
-151.8884032823404
 30
0.0
 10
108.5063828938804
 20
-151.8418944932895
 30
0.0
 10
108.5570257975135
 20
-151.7340630046012
 30
0.0
 10
108.5570257975135
 20
-151.7340630046012
 30
0.0
 10
108.4302462836563
 20
-151.7340630046012
 30
0.0
 10
108.4302462836563
 20
-151.7340630046012
 30
0.0
 10
108.4364474555298
 20
-151.6389783692083
 30
0.0
 10
108.4409260796606
 20
-151.4867051487603
 30
0.0
 10
108.4409260796606
 20
-151.4253824491228
 30
0.0
 10
108.4409260796606
 20
-151.4253824491228
 30
0.0
 10
108.4409260796606
 20
-151.3661268067765
 30
0.0
 10
108.4409260796606
 20
-151.3661268067765
 30
0.0
 10
108.4409260796606
 20
-151.3661268067765
 30
0.0
 10
108.2907199165037
 20
-151.3661268067765
 30
0.0
 10
108.2907199165037
 20
-151.3661268067765
 30
0.0
 10
108.2907199165037
 20
-151.3661268067765
 30
0.0
 10
108.2907199165037
 20
-151.4822265246295
 30
0.0
 10
108.2907199165037
 20
-151.4822265246295
 30
0.0
 10
108.2907199165037
 20
-151.6155517199086
 30
0.0
 10
108.2907199165037
 20
-151.7702365071963
 30
0.0
 10
108.3010552029595
 20
-151.8990830783447
 30
0.0
 10
108.3010552029595
 20
-151.8990830783447
 30
0.0
 10
108.1298339573425
 20
-151.8990830783447
 30
0.0
 10
108.1298339573425
 20
-151.8990830783447
 30
0.0
 10
108.1319010146337
 20
-151.7871174750741
 30
0.0
 10
108.142580810638
 20
-151.579722726862
 30
0.0
 10
108.142580810638
 20
-151.4822265246295
 30
0.0
 10
108.142580810638
 20
-151.4822265246295
 30
0.0
 10
108.142580810638
 20
-151.3661268067765
 30
0.0
 10
108.142580810638
 20
-151.3661268067765
 30
0.0
 10
108.142580810638
 20
-151.3661268067765
 30
0.0
 10
107.8528482803285
 20
-151.3661268067765
 30
0.0
 10
107.8528482803285
 20
-151.3661268067765
 30
0.0
 10
107.8335557456111
 20
-151.3661268067765
 30
0.0
 10
107.7446722820916
 20
-151.3702609213588
 30
0.0
 10
107.7257242569227
 20
-151.3702609213588
 30
0.0
 10
107.5396891007192
 20
-151.3702609213588
 30
0.0
 10
107.5396891007192
 20
-151.3110052790125
 30
0.0
 10
107.5376220434281
 20
-151.0509005698762
 30
0.0
 10
107.5376220434281
 20
-151.0509005698762
 30
0.0
 10
107.7532850208047
 20
-150.9702853355213
 30
0.0
 10
107.7532850208047
 20
-150.9702853355213
 30
0.0
 10
107.7343369956359
 20
-151.0360866592896
 30
0.0
 10
107.7236571996316
 20
-151.1291042373913
 30
0.0
 10
107.7236571996316
 20
-151.1332383519736
 30
0.0
 10
107.7236571996316
 20
-151.1797471410245
 30
0.0
 10
107.7512179635136
 20
-151.1797471410245
 30
0.0
 10
107.8463025989065
 20
-151.1797471410245
 30
0.0
 10
107.8463025989065
 20
-151.1797471410245
 30
0.0
 10
108.142580810638
 20
-151.1797471410245
 30
0.0
 10
108.142580810638
 20
-151.1797471410245
 30
0.0
 10
108.142580810638
 20
-151.1797471410245
 30
0.0
 10
108.142580810638
 20
-151.0591687990408
 30
0.0
 10
108.142580810638
 20
-151.0591687990408
 30
0.0
 10
108.142580810638
 20
-150.9217094891793
 30
0.0
 10
108.1363796387645
 20
-150.7842501793178
 30
0.0
 10
108.1298339573425
 20
-150.6467908694564
 30
0.0
 10
108.1298339573425
 20
-150.6467908694564
 30
0.0
 10
108.3010552029595
 20
-150.6467908694564
 30
0.0
 10
108.3010552029595
 20
-150.6467908694564
 30
0.0
 10
108.2907199165037
 20
-150.7735703833136
 30
0.0
 10
108.2907199165037
 20
-150.9258436037616
 30
0.0
 10
108.2907199165037
 20
-151.0591687990408
 30
0.0
 10
108.2907199165037
 20
-151.0591687990408
 30
0.0
 10
108.2907199165037
 20
-151.1797471410245
 30
0.0
 10
108.2907199165037
 20
-151.1797471410245
 30
0.0
 10
108.2907199165037
 20
-151.1797471410245
 30
0.0
 10
108.4409260796606
 20
-151.1797471410245
 30
0.0
 10
108.4409260796606
 20
-151.1797471410245
 30
0.0
 10
108.4409260796606
 20
-151.1797471410245
 30
0.0
 10
108.4409260796606
 20
-151.1142903268048
 30
0.0
 10
108.4409260796606
 20
-151.1142903268048
 30
0.0
 10
108.4409260796606
 20
-151.0591687990408
 30
0.0
 10
108.4364474555298
 20
-150.911029693175
 30
0.0
 10
108.4302462836563
 20
-150.8052652617779
 30
0.0
 10
108.4302462836563
 20
-150.8052652617779
 30
0.0
 10
108.5360107150535
 20
-150.8052652617779
 30
0.0
 10
108.5360107150535
 20
-150.8052652617779
 30
0.0
 10
108.5043158365892
 20
-150.7525553008535
 30
0.0
 10
108.4853678114203
 20
-150.7122476836761
 30
0.0
 10
108.4660752767029
 20
-150.6657388946252
 30
0.0
 10
108.4660752767029
 20
-150.6657388946252
 30
0.0
 10
108.6186930066995
 20
-150.5368923234769
 30
0.0
 10
108.6186930066995
 20
-150.5368923234769
 30
0.0
 10
108.6186930066995
 20
-150.5368923234769
 30
0.0
 10
108.4957030978761
 20
-150.352579715016
 30
0.0
 10
108.4957030978761
 20
-150.352579715016
 30
0.0
 10
108.6968966742147
 20
-150.310549550096
 30
0.0
 10
108.832288926785
 20
-150.2195990292854
 30
0.0
 10
108.9487331541864
 20
-150.1114230310485
 30
0.0
 10
108.9487331541864
 20
-150.1114230310485
 30
0.0
 10
109.0586317001659
 20
-150.255428022332
 30
0.0
 10
109.0586317001659
 20
-150.255428022332
 30
0.0
 10
108.9273735621779
 20
-150.4056341854889
 30
0.0
 10
108.7158446993835
 20
-150.5007188208818
 30
0.0
 10
108.6376410318684
 20
-150.5344807566372
 30
0.0
 10
108.6672688530415
 20
-150.655059098621
 30
0.0
 10
108.7199788139658
 20
-150.7546223581447
 30
0.0
 10
108.8236761880719
 20
-150.8793348147107
 30
0.0
 10
108.957001383351
 20
-151.0381537165808
 30
0.0
 10
109.0627658147482
 20
-151.1015434735093
 30
0.0
 10
109.1854112140231
 20
-151.1628661731468
 30
0.0
 10
109.1854112140231
 20
-151.1628661731468
 30
0.0
 10
109.1051404892168
 20
-151.3957546279497
 30
0.0
 10
109.1051404892168
 20
-151.3957546279497
 30
0.0
 10
109.0944606932125
 20
-151.4253824491228
 30
0.0
 10
109.0903265786302
 20
-151.4401963597094
 30
0.0
 10
109.0668999293305
 20
-151.4401963597094
 30
0.0
 10
109.0520860187439
 20
-151.4401963597094
 30
0.0
 10
109.0438177895793
 20
-151.4315836209963
 30
0.0
 10
109.0331379935751
 20
-151.4188367677009
 30
0.0
 10
108.8216091307807
 20
-151.5904025228663
 30
0.0
 10
108.7347927245524
 20
-151.7089138075589
 30
0.0
 10
108.6503878851638
 20
-152.062036094797
 30
0.0
 10
108.6503878851638
 20
-152.062036094797
 30
0.0
 10
108.4833007541292
 20
-151.930777956809
 30
0.0
 10
108.4833007541292
 20
-151.930777956809
 30
0.0
  0
SPLINE
  5
81
330
41
100
AcDbEntity
  8
_U+30EC_U+30A4_U+30E4_U+30FC 1
370
     0
100
AcDbSpline
210
0.0
220
0.0
230
1.0
 70
    11
 71
     3
 72
    17
 73
    13
 74
     0
 42
0.0000000001
 43
0.0000000001
 12
1.0
 22
0.0
 32
0.0
 13
1.0
 23
0.0
 33
0.0
 40
0.0
 40
0.0
 40
0.0
 40
0.0
 40
1.0
 40
1.0
 40
1.0
 40
2.0
 40
2.0
 40
2.0
 40
3.0
 40
3.0
 40
3.0
 40
4.0
 40
4.0
 40
4.0
 40
4.0
 10
107.6495876466987
 20
-151.7743706217786
 30
0.0
 10
107.7829128419779
 20
-151.6599934516684
 30
0.0
 10
107.8528482803285
 20
-151.5669758735666
 30
0.0
 10
107.9096923558351
 20
-151.4698241808825
 30
0.0
 10
107.9096923558351
 20
-151.4698241808825
 30
0.0
 10
108.0623100858317
 20
-151.6007378093221
 30
0.0
 10
108.0623100858317
 20
-151.6007378093221
 30
0.0
 10
107.9627468263079
 20
-151.7657578830655
 30
0.0
 10
107.8697292482062
 20
-151.8591199707158
 30
0.0
 10
107.7997938098556
 20
-151.9225097276444
 30
0.0
 10
107.7997938098556
 20
-151.9225097276444
 30
0.0
 10
107.6495876466987
 20
-151.7743706217786
 30
0.0
 10
107.6495876466987
 20
-151.7743706217786
 30
0.0
  0
SPLINE
  5
82
330
41
100
AcDbEntity
  8
_U+30EC_U+30A4_U+30E4_U+30FC 1
370
     0
100
AcDbSpline
210
0.0
220
0.0
230
1.0
 70
    11
 71
     3
 72
    26
 73
    22
 74
     0
 42
0.0000000001
 43
0.0000000001
 12
1.0
 22
0.0
 32
0.0
 13
1.0
 23
0.0
 33
0.0
 40
0.0
 40
0.0
 40
0.0
 40
0.0
 40
1.0
 40
1.0
 40
1.0
 40
2.0
 40
2.0
 40
2.0
 40
3.0
 40
3.0
 40
3.0
 40
4.0
 40
4.0
 40
4.0
 40
5.0
 40
5.0
 40
5.0
 40
6.0
 40
6.0
 40
6.0
 40
7.0
 40
7.0
 40
7.0
 40
7.0
 10
107.9034911839616
 20
-151.0719156523362
 30
0.0
 10
107.9034911839616
 20
-151.0636474231716
 30
0.0
 10
107.9055582412528
 20
-151.0340196019984
 30
0.0
 10
107.9055582412528
 20
-151.0274739205765
 30
0.0
 10
107.8483696561976
 20
-150.9850992461079
 30
0.0
 10
107.7660318741002
 20
-150.9217094891793
 30
0.0
 10
107.6644015572853
 20
-150.7969970326133
 30
0.0
 10
107.6644015572853
 20
-150.7969970326133
 30
0.0
 10
107.784979899269
 20
-150.6361110734521
 30
0.0
 10
107.784979899269
 20
-150.6361110734521
 30
0.0
 10
107.8084065485687
 20
-150.6870984866338
 30
0.0
 10
107.9203721518394
 20
-150.834893082951
 30
0.0
 10
108.0771239964182
 20
-150.9134412600147
 30
0.0
 10
108.0771239964182
 20
-150.9134412600147
 30
0.0
 10
107.9734266223122
 20
-151.0719156523362
 30
0.0
 10
107.9734266223122
 20
-151.0719156523362
 30
0.0
 10
107.9565456544345
 20
-151.0974093589271
 30
0.0
 10
107.9458658584302
 20
-151.1036105308005
 30
0.0
 10
107.9351860624259
 20
-151.1036105308005
 30
0.0
 10
107.9224392091305
 20
-151.1036105308005
 30
0.0
 10
107.9034911839616
 20
-151.0932752443447
 30
0.0
 10
107.9034911839616
 20
-151.0719156523362
 30
0.0
  0
SPLINE
  5
83
330
41
100
AcDbEntity
  8
_U+30EC_U+30A4_U+30E4_U+30FC 1
370
     0
100
AcDbSpline
210
0.0
220
0.0
230
1.0
 70
    11
 71
     3
 72
    20
 73
    16
 74
     0
 42
0.0000000001
 43
0.0000000001
 12
1.0
 22
0.0
 32
0.0
 13
1.0
 23
0.0
 33
0.0
 40
0.0
 40
0.0
 40
0.0
 40
0.0
 40
1.0
 40
1.0
 40
1.0
 40
2.0
 40
2.0
 40
2.0
 40
3.0
 40
3.0
 40
3.0
 40
4.0
 40
4.0
 40
4.0
 40
5.0
 40
5.0
 40
5.0
 40
5.0
 10
108.9528672687687
 20
-151.2558837512485
 30
0.0
 10
108.7792344563121
 20
-151.1291042373913
 30
0.0
 10
108.6607231716196
 20
-150.9895778702387
 30
0.0
 10
108.6014675292733
 20
-150.9068955785927
 30
0.0
 10
108.597333414691
 20
-151.0233398059942
 30
0.0
 10
108.5952663573998
 20
-151.0591687990408
 30
0.0
 10
108.5952663573998
 20
-151.1142903268048
 30
0.0
 10
108.5952663573998
 20
-151.1142903268048
 30
0.0
 10
108.5952663573998
 20
-151.4253824491228
 30
0.0
 10
108.5952663573998
 20
-151.4253824491228
 30
0.0
 10
108.5952663573998
 20
-151.4718912381737
 30
0.0
 10
108.597333414691
 20
-151.4929063206337
 30
0.0
 10
108.6014675292733
 20
-151.6451795410818
 30
0.0
 10
108.7030978460881
 20
-151.4612114421694
 30
0.0
 10
108.8384900986584
 20
-151.3406331001857
 30
0.0
 10
108.9528672687687
 20
-151.2558837512485
 30
0.0
  0
HATCH
  5
84
330
41
100
AcDbEntity
  8
_U+30EC_U+30A4_U+30E4_U+30FC 1
 62
   179
420
  2234388
100
AcDbHatch
 10
0.0
 20
0.0
 30
0.0
210
0.0
220
0.0
230
1.0
  2
SOLID
 70
     1
 71
     0
 91
        5
 92
        1
 93
        1
 72
     4
 94
        3
 73
     0
 74
     1
 95
       71
 96
       67
 40
0.0
 40
0.0
 40
0.0
 40
0.0
 40
1.0
 40
1.0
 40
1.0
 40
2.0
 40
2.0
 40
2.0
 40
3.0
 40
3.0
 40
3.0
 40
4.0
 40
4.0
 40
4.0
 40
5.0
 40
5.0
 40
5.0
 40
6.0
 40
6.0
 40
6.0
 40
7.0
 40
7.0
 40
7.0
 40
8.0
 40
8.0
 40
8.0
 40
9.0
 40
9.0
 40
9.0
 40
10.0
 40
10.0
 40
10.0
 40
11.0
 40
11.0
 40
11.0
 40
12.0
 40
12.0
 40
12.0
 40
13.0
 40
13.0
 40
13.0
 40
14.0
 40
14.0
 40
14.0
 40
15.0
 40
15.0
 40
15.0
 40
16.0
 40
16.0
 40
16.0
 40
17.0
 40
17.0
 40
17.0
 40
18.0
 40
18.0
 40
18.0
 40
19.0
 40
19.0
 40
19.0
 40
20.0
 40
20.0
 40
20.0
 40
21.0
 40
21.0
 40
21.0
 40
22.0
 40
22.0
 40
22.0
 40
22.0
 10
107.3195474992118
 20
-152.0048475097419
 10
107.3154133846295
 20
-151.9455918673956
 10
107.3112792700472
 20
-151.8611870280069
 10
107.3112792700472
 20
-151.6517252225037
 10
107.3112792700472
 20
-151.5607747016931
 10
107.3154133846295
 20
-151.1566650012734
 10
107.3154133846295
 20
-151.0739827096274
 10
107.3154133846295
 20
-150.8307589683687
 10
107.3154133846295
 20
-150.7735703833136
 10
107.3533094349672
 20
-150.6764186906295
 10
107.397751166727
 20
-150.5579074059369
 10
107.4656195477864
 20
-150.5093315595949
 10
107.5162624514195
 20
-150.4731580569998
 10
107.4911132543772
 20
-150.4435302358266
 10
107.3829372561404
 20
-150.3081379832563
 10
107.3619221736804
 20
-150.2809217289228
 10
107.309212212756
 20
-150.276443104792
 10
107.281651448874
 20
-150.2723089902097
 10
107.281651448874
 20
-150.2447482263277
 10
107.281651448874
 20
-150.2258002011588
 10
107.3047335886252
 20
-150.2130533478634
 10
107.3174804419206
 20
-150.20685217599
 10
107.3174804419206
 20
-150.20685217599
 10
107.5183295087107
 20
-150.1200357697617
 10
107.5183295087107
 20
-150.1200357697617
 10
107.5355549861369
 20
-150.1854925839814
 10
107.605145914939
 20
-150.3274305179737
 10
107.6495876466987
 20
-150.3887532176111
 10
107.6495876466987
 20
-150.3887532176111
 10
108.1108859321737
 20
-150.3887532176111
 10
108.1108859321737
 20
-150.3887532176111
 10
108.1108859321737
 20
-150.3887532176111
 10
108.1108859321737
 20
-150.2743760475009
 10
108.1108859321737
 20
-150.2743760475009
 10
108.1108859321737
 20
-150.2723089902097
 10
108.1022731934605
 20
-150.1603433869391
 10
108.1022731934605
 20
-150.151730648226
 10
108.1022731934605
 20
-150.151730648226
 10
108.2927869737949
 20
-150.151730648226
 10
108.2927869737949
 20
-150.151730648226
 10
108.2907199165037
 20
-150.2216660865765
 10
108.2886528592126
 20
-150.2299343157411
 10
108.2886528592126
 20
-150.2891899580874
 10
108.2886528592126
 20
-150.2891899580874
 10
108.2886528592126
 20
-150.40770124278
 10
108.2886528592126
 20
-150.40770124278
 10
108.2886528592126
 20
-150.435262006662
 10
108.2927869737949
 20
-150.5262125274726
 10
108.2969210883772
 20
-150.5875352271101
 10
108.2228515354443
 20
-150.578922488397
 10
108.1615288358068
 20
-150.5768554311058
 10
108.1511935493511
 20
-150.5768554311058
 10
108.1511935493511
 20
-150.5768554311058
 10
107.7446722820916
 20
-150.5768554311058
 10
107.7446722820916
 20
-150.5768554311058
 10
107.653721761281
 20
-150.5768554311058
 10
107.584130832479
 20
-150.6402451880344
 10
107.5672498646013
 20
-150.6595377227518
 10
107.4762993437907
 20
-150.7694362687313
 10
107.4635524904952
 20
-150.7904513511913
 10
107.4635524904952
 20
-151.1501193198514
 10
107.4635524904952
 20
-151.2369357260797
 10
107.473887776951
 20
-151.8060655002429
 10
107.5121283368373
 20
-152.0727158908013
 10
107.5121283368373
 20
-152.0727158908013
 10
107.3195474992118
 20
-152.0048475097419
 10
107.3195474992118
 20
-152.0048475097419
 97
        0
 97
        0
 92
        1
 93
        1
 72
     4
 94
        3
 73
     0
 74
     1
 95
      122
 96
      118
 40
0.0
 40
0.0
 40
0.0
 40
0.0
 40
1.0
 40
1.0
 40
1.0
 40
2.0
 40
2.0
 40
2.0
 40
3.0
 40
3.0
 40
3.0
 40
4.0
 40
4.0
 40
4.0
 40
5.0
 40
5.0
 40
5.0
 40
6.0
 40
6.0
 40
6.0
 40
7.0
 40
7.0
 40
7.0
 40
8.0
 40
8.0
 40
8.0
 40
9.0
 40
9.0
 40
9.0
 40
10.0
 40
10.0
 40
10.0
 40
11.0
 40
11.0
 40
11.0
 40
12.0
 40
12.0
 40
12.0
 40
13.0
 40
13.0
 40
13.0
 40
14.0
 40
14.0
 40
14.0
 40
15.0
 40
15.0
 40
15.0
 40
16.0
 40
16.0
 40
16.0
 40
17.0
 40
17.0
 40
17.0
 40
18.0
 40
18.0
 40
18.0
 40
19.0
 40
19.0
 40
19.0
 40
20.0
 40
20.0
 40
20.0
 40
21.0
 40
21.0
 40
21.0
 40
22.0
 40
22.0
 40
22.0
 40
23.0
 40
23.0
 40
23.0
 40
24.0
 40
24.0
 40
24.0
 40
25.0
 40
25.0
 40
25.0
 40
26.0
 40
26.0
 40
26.0
 40
27.0
 40
27.0
 40
27.0
 40
28.0
 40
28.0
 40
28.0
 40
29.0
 40
29.0
 40
29.0
 40
30.0
 40
30.0
 40
30.0
 40
31.0
 40
31.0
 40
31.0
 40
32.0
 40
32.0
 40
32.0
 40
33.0
 40
33.0
 40
33.0
 40
34.0
 40
34.0
 40
34.0
 40
35.0
 40
35.0
 40
35.0
 40
36.0
 40
36.0
 40
36.0
 40
37.0
 40
37.0
 40
37.0
 40
38.0
 40
38.0
 40
38.0
 40
39.0
 40
39.0
 40
39.0
 40
39.0
 10
108.4833007541292
 20
-151.930777956809
 10
108.4957030978761
 20
-151.8884032823404
 10
108.5063828938804
 20
-151.8418944932895
 10
108.5570257975135
 20
-151.7340630046012
 10
108.5570257975135
 20
-151.7340630046012
 10
108.4302462836563
 20
-151.7340630046012
 10
108.4302462836563
 20
-151.7340630046012
 10
108.4364474555298
 20
-151.6389783692083
 10
108.4409260796606
 20
-151.4867051487603
 10
108.4409260796606
 20
-151.4253824491228
 10
108.4409260796606
 20
-151.4253824491228
 10
108.4409260796606
 20
-151.3661268067765
 10
108.4409260796606
 20
-151.3661268067765
 10
108.4409260796606
 20
-151.3661268067765
 10
108.2907199165037
 20
-151.3661268067765
 10
108.2907199165037
 20
-151.3661268067765
 10
108.2907199165037
 20
-151.3661268067765
 10
108.2907199165037
 20
-151.4822265246295
 10
108.2907199165037
 20
-151.4822265246295
 10
108.2907199165037
 20
-151.6155517199086
 10
108.2907199165037
 20
-151.7702365071963
 10
108.3010552029595
 20
-151.8990830783447
 10
108.3010552029595
 20
-151.8990830783447
 10
108.1298339573425
 20
-151.8990830783447
 10
108.1298339573425
 20
-151.8990830783447
 10
108.1319010146337
 20
-151.7871174750741
 10
108.142580810638
 20
-151.579722726862
 10
108.142580810638
 20
-151.4822265246295
 10
108.142580810638
 20
-151.4822265246295
 10
108.142580810638
 20
-151.3661268067765
 10
108.142580810638
 20
-151.3661268067765
 10
108.142580810638
 20
-151.3661268067765
 10
107.8528482803285
 20
-151.3661268067765
 10
107.8528482803285
 20
-151.3661268067765
 10
107.8335557456111
 20
-151.3661268067765
 10
107.7446722820916
 20
-151.3702609213588
 10
107.7257242569227
 20
-151.3702609213588
 10
107.5396891007192
 20
-151.3702609213588
 10
107.5396891007192
 20
-151.3110052790125
 10
107.5376220434281
 20
-151.0509005698762
 10
107.5376220434281
 20
-151.0509005698762
 10
107.7532850208047
 20
-150.9702853355213
 10
107.7532850208047
 20
-150.9702853355213
 10
107.7343369956359
 20
-151.0360866592896
 10
107.7236571996316
 20
-151.1291042373913
 10
107.7236571996316
 20
-151.1332383519736
 10
107.7236571996316
 20
-151.1797471410245
 10
107.7512179635136
 20
-151.1797471410245
 10
107.8463025989065
 20
-151.1797471410245
 10
107.8463025989065
 20
-151.1797471410245
 10
108.142580810638
 20
-151.1797471410245
 10
108.142580810638
 20
-151.1797471410245
 10
108.142580810638
 20
-151.1797471410245
 10
108.142580810638
 20
-151.0591687990408
 10
108.142580810638
 20
-151.0591687990408
 10
108.142580810638
 20
-150.9217094891793
 10
108.1363796387645
 20
-150.7842501793178
 10
108.1298339573425
 20
-150.6467908694564
 10
108.1298339573425
 20
-150.6467908694564
 10
108.3010552029595
 20
-150.6467908694564
 10
108.3010552029595
 20
-150.6467908694564
 10
108.2907199165037
 20
-150.7735703833136
 10
108.2907199165037
 20
-150.9258436037616
 10
108.2907199165037
 20
-151.0591687990408
 10
108.2907199165037
 20
-151.0591687990408
 10
108.2907199165037
 20
-151.1797471410245
 10
108.2907199165037
 20
-151.1797471410245
 10
108.2907199165037
 20
-151.1797471410245
 10
108.4409260796606
 20
-151.1797471410245
 10
108.4409260796606
 20
-151.1797471410245
 10
108.4409260796606
 20
-151.1797471410245
 10
108.4409260796606
 20
-151.1142903268048
 10
108.4409260796606
 20
-151.1142903268048
 10
108.4409260796606
 20
-151.0591687990408
 10
108.4364474555298
 20
-150.911029693175
 10
108.4302462836563
 20
-150.8052652617779
 10
108.4302462836563
 20
-150.8052652617779
 10
108.5360107150535
 20
-150.8052652617779
 10
108.5360107150535
 20
-150.8052652617779
 10
108.5043158365892
 20
-150.7525553008535
 10
108.4853678114203
 20
-150.7122476836761
 10
108.4660752767029
 20
-150.6657388946252
 10
108.4660752767029
 20
-150.6657388946252
 10
108.6186930066995
 20
-150.5368923234769
 10
108.6186930066995
 20
-150.5368923234769
 10
108.6186930066995
 20
-150.5368923234769
 10
108.4957030978761
 20
-150.352579715016
 10
108.4957030978761
 20
-150.352579715016
 10
108.6968966742147
 20
-150.310549550096
 10
108.832288926785
 20
-150.2195990292854
 10
108.9487331541864
 20
-150.1114230310485
 10
108.9487331541864
 20
-150.1114230310485
 10
109.0586317001659
 20
-150.255428022332
 10
109.0586317001659
 20
-150.255428022332
 10
108.9273735621779
 20
-150.4056341854889
 10
108.7158446993835
 20
-150.5007188208818
 10
108.6376410318684
 20
-150.5344807566372
 10
108.6672688530415
 20
-150.655059098621
 10
108.7199788139658
 20
-150.7546223581447
 10
108.8236761880719
 20
-150.8793348147107
 10
108.957001383351
 20
-151.0381537165808
 10
109.0627658147482
 20
-151.1015434735093
 10
109.1854112140231
 20
-151.1628661731468
 10
109.1854112140231
 20
-151.1628661731468
 10
109.1051404892168
 20
-151.3957546279497
 10
109.1051404892168
 20
-151.3957546279497
 10
109.0944606932125
 20
-151.4253824491228
 10
109.0903265786302
 20
-151.4401963597094
 10
109.0668999293305
 20
-151.4401963597094
 10
109.0520860187439
 20
-151.4401963597094
 10
109.0438177895793
 20
-151.4315836209963
 10
109.0331379935751
 20
-151.4188367677009
 10
108.8216091307807
 20
-151.5904025228663
 10
108.7347927245524
 20
-151.7089138075589
 10
108.6503878851638
 20
-152.062036094797
 10
108.6503878851638
 20
-152.062036094797
 10
108.4833007541292
 20
-151.930777956809
 10
108.4833007541292
 20
-151.930777956809
 97
        0
 97
        0
 92
        1
 93
        1
 72
     4
 94
        3
 73
     0
 74
     1
 95
       17
 96
       13
 40
0.0
 40
0.0
 40
0.0
 40
0.0
 40
1.0
 40
1.0
 40
1.0
 40
2.0
 40
2.0
 40
2.0
 40
3.0
 40
3.0
 40
3.0
 40
4.0
 40
4.0
 40
4.0
 40
4.0
 10
107.6495876466987
 20
-151.7743706217786
 10
107.7829128419779
 20
-151.6599934516684
 10
107.8528482803285
 20
-151.5669758735666
 10
107.9096923558351
 20
-151.4698241808825
 10
107.9096923558351
 20
-151.4698241808825
 10
108.0623100858317
 20
-151.6007378093221
 10
108.0623100858317
 20
-151.6007378093221
 10
107.9627468263079
 20
-151.7657578830655
 10
107.8697292482062
 20
-151.8591199707158
 10
107.7997938098556
 20
-151.9225097276444
 10
107.7997938098556
 20
-151.9225097276444
 10
107.6495876466987
 20
-151.7743706217786
 10
107.6495876466987
 20
-151.7743706217786
 97
        0
 97
        0
 92
        1
 93
        1
 72
     4
 94
        3
 73
     0
 74
     1
 95
       26
 96
       22
 40
0.0
 40
0.0
 40
0.0
 40
0.0
 40
1.0
 40
1.0
 40
1.0
 40
2.0
 40
2.0
 40
2.0
 40
3.0
 40
3.0
 40
3.0
 40
4.0
 40
4.0
 40
4.0
 40
5.0
 40
5.0
 40
5.0
 40
6.0
 40
6.0
 40
6.0
 40
7.0
 40
7.0
 40
7.0
 40
7.0
 10
107.9034911839616
 20
-151.0719156523362
 10
107.9034911839616
 20
-151.0636474231716
 10
107.9055582412528
 20
-151.0340196019984
 10
107.9055582412528
 20
-151.0274739205765
 10
107.8483696561976
 20
-150.9850992461079
 10
107.7660318741002
 20
-150.9217094891793
 10
107.6644015572853
 20
-150.7969970326133
 10
107.6644015572853
 20
-150.7969970326133
 10
107.784979899269
 20
-150.6361110734521
 10
107.784979899269
 20
-150.6361110734521
 10
107.8084065485687
 20
-150.6870984866338
 10
107.9203721518394
 20
-150.834893082951
 10
108.0771239964182
 20
-150.9134412600147
 10
108.0771239964182
 20
-150.9134412600147
 10
107.9734266223122
 20
-151.0719156523362
 10
107.9734266223122
 20
-151.0719156523362
 10
107.9565456544345
 20
-151.0974093589271
 10
107.9458658584302
 20
-151.1036105308005
 10
107.9351860624259
 20
-151.1036105308005
 10
107.9224392091305
 20
-151.1036105308005
 10
107.9034911839616
 20
-151.0932752443447
 10
107.9034911839616
 20
-151.0719156523362
 97
        0
 97
        0
 92
        1
 93
        1
 72
     4
 94
        3
 73
     0
 74
     1
 95
       20
 96
       16
 40
0.0
 40
0.0
 40
0.0
 40
0.0
 40
1.0
 40
1.0
 40
1.0
 40
2.0
 40
2.0
 40
2.0
 40
3.0
 40
3.0
 40
3.0
 40
4.0
 40
4.0
 40
4.0
 40
5.0
 40
5.0
 40
5.0
 40
5.0
 10
108.9528672687687
 20
-151.2558837512485
 10
108.7792344563121
 20
-151.1291042373913
 10
108.6607231716196
 20
-150.9895778702387
 10
108.6014675292733
 20
-150.9068955785927
 10
108.597333414691
 20
-151.0233398059942
 10
108.5952663573998
 20
-151.0591687990408
 10
108.5952663573998
 20
-151.1142903268048
 10
108.5952663573998
 20
-151.1142903268048
 10
108.5952663573998
 20
-151.4253824491228
 10
108.5952663573998
 20
-151.4253824491228
 10
108.5952663573998
 20
-151.4718912381737
 10
108.597333414691
 20
-151.4929063206337
 10
108.6014675292733
 20
-151.6451795410818
 10
108.7030978460881
 20
-151.4612114421694
 10
108.8384900986584
 20
-151.3406331001857
 10
108.9528672687687
 20
-151.2558837512485
 97
        0
 97
        0
 75
     2
 76
     1
 98
        0
  0
ENDBLK
  5
44
330
41
100
AcDbEntity
  8
0
100
AcDbBlockEnd
  0
BLOCK
  5
87
330
85
100
AcDbEntity
  8
0
100
AcDbBlockBegin
  2
block 3
 70
     0
 10
0.0
 20
0.0
 30
0.0
  3
block 3
  1

  0
SPLINE
  5
89
330
85
100
AcDbEntity
  8
_U+30EC_U+30A4_U+30E4_U+30FC 1
370
     0
100
AcDbSpline
210
0.0
220
0.0
230
1.0
 70
    11
 71
     3
 72
    38
 73
    34
 74
     0
 42
0.0000000001
 43
0.0000000001
 12
1.0
 22
0.0
 32
0.0
 13
1.0
 23
0.0
 33
0.0
 40
0.0
 40
0.0
 40
0.0
 40
0.0
 40
1.0
 40
1.0
 40
1.0
 40
2.0
 40
2.0
 40
2.0
 40
3.0
 40
3.0
 40
3.0
 40
4.0
 40
4.0
 40
4.0
 40
5.0
 40
5.0
 40
5.0
 40
6.0
 40
6.0
 40
6.0
 40
7.0
 40
7.0
 40
7.0
 40
8.0
 40
8.0
 40
8.0
 40
9.0
 40
9.0
 40
9.0
 40
10.0
 40
10.0
 40
10.0
 40
11.0
 40
11.0
 40
11.0
 40
11.0
 10
110.8466362570106
 20
-160.2768662793752
 30
0.0
 10
110.4290906841983
 20
-160.4825384798447
 30
0.0
 10
110.0218803978418
 20
-160.2775552984723
 30
0.0
 10
109.8141411400812
 20
-159.8565646301747
 30
0.0
 10
109.5822862139239
 20
-159.3859645868896
 30
0.0
 10
109.763498236448
 20
-158.9784097909846
 30
0.0
 10
110.1293673769815
 20
-158.7978867875575
 30
0.0
 10
110.438736951557
 20
-158.6452690575609
 30
0.0
 10
110.7704996467865
 20
-158.6917778466118
 30
0.0
 10
110.9300075677536
 20
-158.9670409758832
 30
0.0
 10
110.9300075677536
 20
-158.9670409758832
 30
0.0
 10
110.7233018386386
 20
-159.0690158022466
 30
0.0
 10
110.7233018386386
 20
-159.0690158022466
 30
0.0
 10
110.5972113438785
 20
-158.8995171043723
 30
0.0
 10
110.36328936043
 20
-158.9229437536721
 30
0.0
 10
110.2192843691466
 20
-158.9939127206682
 30
0.0
 10
110.1262667910448
 20
-159.0400770001706
 30
0.0
 10
110.0360052893313
 20
-159.1200032154283
 30
0.0
 10
109.9863959143437
 20
-159.2295572518593
 30
0.0
 10
109.8978569603728
 20
-159.4142143698687
 30
0.0
 10
109.9667588700778
 20
-159.6209200989837
 30
0.0
 10
110.0370388179768
 20
-159.763547052073
 30
0.0
 10
110.2316867128935
 20
-160.1576659755856
 30
0.0
 10
110.5531141216673
 20
-160.1786810580456
 30
0.0
 10
110.7467284879383
 20
-160.0832519131042
 30
0.0
 10
110.8700629063103
 20
-160.0222737230153
 30
0.0
 10
111.0774576545223
 20
-159.8307264140354
 30
0.0
 10
110.9654920512517
 20
-159.5316921259157
 30
0.0
 10
110.9654920512517
 20
-159.5316921259157
 30
0.0
 10
111.1725422899152
 20
-159.4297172995523
 30
0.0
 10
111.1725422899152
 20
-159.4297172995523
 30
0.0
 10
111.2207736267087
 20
-159.556841322958
 30
0.0
 10
111.3895833054859
 20
-160.0088378506228
 30
0.0
 10
110.8466362570106
 20
-160.2768662793752
 30
0.0
  0
HATCH
  5
8A
330
85
100
AcDbEntity
  8
_U+30EC_U+30A4_U+30E4_U+30FC 1
 62
   179
420
  2234388
100
AcDbHatch
 10
0.0
 20
0.0
 30
0.0
210
0.0
220
0.0
230
1.0
  2
SOLID
 70
     1
 71
     0
 91
        1
 92
        1
 93
        1
 72
     4
 94
        3
 73
     0
 74
     1
 95
       38
 96
       34
 40
0.0
 40
0.0
 40
0.0
 40
0.0
 40
1.0
 40
1.0
 40
1.0
 40
2.0
 40
2.0
 40
2.0
 40
3.0
 40
3.0
 40
3.0
 40
4.0
 40
4.0
 40
4.0
 40
5.0
 40
5.0
 40
5.0
 40
6.0
 40
6.0
 40
6.0
 40
7.0
 40
7.0
 40
7.0
 40
8.0
 40
8.0
 40
8.0
 40
9.0
 40
9.0
 40
9.0
 40
10.0
 40
10.0
 40
10.0
 40
11.0
 40
11.0
 40
11.0
 40
11.0
 10
110.8466362570106
 20
-160.2768662793752
 10
110.4290906841983
 20
-160.4825384798447
 10
110.0218803978418
 20
-160.2775552984723
 10
109.8141411400812
 20
-159.8565646301747
 10
109.5822862139239
 20
-159.3859645868896
 10
109.763498236448
 20
-158.9784097909846
 10
110.1293673769815
 20
-158.7978867875575
 10
110.438736951557
 20
-158.6452690575609
 10
110.7704996467865
 20
-158.6917778466118
 10
110.9300075677536
 20
-158.9670409758832
 10
110.9300075677536
 20
-158.9670409758832
 10
110.7233018386386
 20
-159.0690158022466
 10
110.7233018386386
 20
-159.0690158022466
 10
110.5972113438785
 20
-158.8995171043723
 10
110.36328936043
 20
-158.9229437536721
 10
110.2192843691466
 20
-158.9939127206682
 10
110.1262667910448
 20
-159.0400770001706
 10
110.0360052893313
 20
-159.1200032154283
 10
109.9863959143437
 20
-159.2295572518593
 10
109.8978569603728
 20
-159.4142143698687
 10
109.9667588700778
 20
-159.6209200989837
 10
110.0370388179768
 20
-159.763547052073
 10
110.2316867128935
 20
-160.1576659755856
 10
110.5531141216673
 20
-160.1786810580456
 10
110.7467284879383
 20
-160.0832519131042
 10
110.8700629063103
 20
-160.0222737230153
 10
111.0774576545223
 20
-159.8307264140354
 10
110.9654920512517
 20
-159.5316921259157
 10
110.9654920512517
 20
-159.5316921259157
 10
111.1725422899152
 20
-159.4297172995523
 10
111.1725422899152
 20
-159.4297172995523
 10
111.2207736267087
 20
-159.556841322958
 10
111.3895833054859
 20
-160.0088378506228
 10
110.8466362570106
 20
-160.2768662793752
 97
        0
 97
        0
 75
     2
 76
     1
 98
        0
  0
SPLINE
  5
8B
330
85
100
AcDbEntity
  8
_U+30EC_U+30A4_U+30E4_U+30FC 1
370
     0
100
AcDbSpline
210
0.0
220
0.0
230
1.0
 70
    11
 71
     3
 72
    44
 73
    40
 74
     0
 42
0.0000000001
 43
0.0000000001
 12
1.0
 22
0.0
 32
0.0
 13
1.0
 23
0.0
 33
0.0
 40
0.0
 40
0.0
 40
0.0
 40
0.0
 40
1.0
 40
1.0
 40
1.0
 40
2.0
 40
2.0
 40
2.0
 40
3.0
 40
3.0
 40
3.0
 40
4.0
 40
4.0
 40
4.0
 40
5.0
 40
5.0
 40
5.0
 40
6.0
 40
6.0
 40
6.0
 40
7.0
 40
7.0
 40
7.0
 40
8.0
 40
8.0
 40
8.0
 40
9.0
 40
9.0
 40
9.0
 40
10.0
 40
10.0
 40
10.0
 40
11.0
 40
11.0
 40
11.0
 40
12.0
 40
12.0
 40
12.0
 40
13.0
 40
13.0
 40
13.0
 40
13.0
 10
112.5061387522554
 20
-159.4018120261218
 30
0.0
 10
112.465831135078
 20
-159.3721842049486
 30
0.0
 10
112.4234564606094
 20
-159.3342881546109
 30
0.0
 10
112.3194145769549
 20
-159.1282714445929
 30
0.0
 10
112.2081379927813
 20
-158.9119194481192
 30
0.0
 10
112.1240776629412
 20
-158.8754014359756
 30
0.0
 10
111.9645697419741
 20
-158.9539496130393
 30
0.0
 10
111.9645697419741
 20
-158.9539496130393
 30
0.0
 10
111.5983560918921
 20
-159.1344726164664
 30
0.0
 10
111.5983560918921
 20
-159.1344726164664
 30
0.0
 10
111.5983560918921
 20
-159.1344726164664
 30
0.0
 10
111.8822319598767
 20
-159.7098035625031
 30
0.0
 10
111.8822319598767
 20
-159.7098035625031
 30
0.0
 10
111.8822319598767
 20
-159.7098035625031
 30
0.0
 10
111.6713921161794
 20
-159.8135009366091
 30
0.0
 10
111.6713921161794
 20
-159.8135009366091
 30
0.0
 10
111.6713921161794
 20
-159.8135009366091
 30
0.0
 10
110.9882296814543
 20
-158.4285725515387
 30
0.0
 10
110.9882296814543
 20
-158.4285725515387
 30
0.0
 10
110.9882296814543
 20
-158.4285725515387
 30
0.0
 10
111.5935329582127
 20
-158.1298827729675
 30
0.0
 10
111.5935329582127
 20
-158.1298827729675
 30
0.0
 10
111.8687960874842
 20
-157.9941460108487
 30
0.0
 10
112.0944498417681
 20
-158.0740722261065
 30
0.0
 10
112.2077934832328
 20
-158.3038600949727
 30
0.0
 10
112.2301866038869
 20
-158.3489908458294
 30
0.0
 10
112.259125405963
 20
-158.4271945133446
 30
0.0
 10
112.2546467818322
 20
-158.5188340532522
 30
0.0
 10
112.2474120813132
 20
-158.6380343570419
 30
0.0
 10
112.1971136872285
 20
-158.6838541269957
 30
0.0
 10
112.1495713695321
 20
-158.7258842919157
 30
0.0
 10
112.2915093035244
 20
-158.7034911712616
 30
0.0
 10
112.3735025760733
 20
-158.7169270436541
 30
0.0
 10
112.5168185482597
 20
-158.997702325702
 30
0.0
 10
112.6404974761802
 20
-159.2388590096695
 30
0.0
 10
112.6866617556825
 20
-159.2516058629649
 30
0.0
 10
112.7717556141682
 20
-159.2708983976823
 30
0.0
 10
112.7717556141682
 20
-159.2708983976823
 30
0.0
 10
112.5061387522554
 20
-159.4018120261218
 30
0.0
 10
112.5061387522554
 20
-159.4018120261218
 30
0.0
  0
SPLINE
  5
8C
330
85
100
AcDbEntity
  8
_U+30EC_U+30A4_U+30E4_U+30FC 1
370
     0
100
AcDbSpline
210
0.0
220
0.0
230
1.0
 70
    11
 71
     3
 72
    20
 73
    16
 74
     0
 42
0.0000000001
 43
0.0000000001
 12
1.0
 22
0.0
 32
0.0
 13
1.0
 23
0.0
 33
0.0
 40
0.0
 40
0.0
 40
0.0
 40
0.0
 40
1.0
 40
1.0
 40
1.0
 40
2.0
 40
2.0
 40
2.0
 40
3.0
 40
3.0
 40
3.0
 40
4.0
 40
4.0
 40
4.0
 40
5.0
 40
5.0
 40
5.0
 40
5.0
 10
111.6910291604453
 20
-158.3176404769137
 30
0.0
 10
111.6910291604453
 20
-158.3176404769137
 30
0.0
 10
111.2924316128019
 20
-158.5143554291214
 30
0.0
 10
111.2924316128019
 20
-158.5143554291214
 30
0.0
 10
111.2924316128019
 20
-158.5143554291214
 30
0.0
 10
111.5049940042418
 20
-158.9449923647776
 30
0.0
 10
111.5049940042418
 20
-158.9449923647776
 30
0.0
 10
111.5049940042418
 20
-158.9449923647776
 30
0.0
 10
111.9015244945941
 20
-158.7493109412155
 30
0.0
 10
111.9015244945941
 20
-158.7493109412155
 30
0.0
 10
111.9904079581135
 20
-158.7052137190043
 30
0.0
 10
112.0782578929874
 20
-158.577056166953
 30
0.0
 10
112.0024657923119
 20
-158.4237494178593
 30
0.0
 10
111.9680148374594
 20
-158.3534694699603
 30
0.0
 10
111.8694851065813
 20
-158.2297905420398
 30
0.0
 10
111.6910291604453
 20
-158.3176404769137
 30
0.0
  0
HATCH
  5
8D
330
85
100
AcDbEntity
  8
_U+30EC_U+30A4_U+30E4_U+30FC 1
 62
   179
420
  2234388
100
AcDbHatch
 10
0.0
 20
0.0
 30
0.0
210
0.0
220
0.0
230
1.0
  2
SOLID
 70
     1
 71
     0
 91
        2
 92
        1
 93
        1
 72
     4
 94
        3
 73
     0
 74
     1
 95
       44
 96
       40
 40
0.0
 40
0.0
 40
0.0
 40
0.0
 40
1.0
 40
1.0
 40
1.0
 40
2.0
 40
2.0
 40
2.0
 40
3.0
 40
3.0
 40
3.0
 40
4.0
 40
4.0
 40
4.0
 40
5.0
 40
5.0
 40
5.0
 40
6.0
 40
6.0
 40
6.0
 40
7.0
 40
7.0
 40
7.0
 40
8.0
 40
8.0
 40
8.0
 40
9.0
 40
9.0
 40
9.0
 40
10.0
 40
10.0
 40
10.0
 40
11.0
 40
11.0
 40
11.0
 40
12.0
 40
12.0
 40
12.0
 40
13.0
 40
13.0
 40
13.0
 40
13.0
 10
112.5061387522554
 20
-159.4018120261218
 10
112.465831135078
 20
-159.3721842049486
 10
112.4234564606094
 20
-159.3342881546109
 10
112.3194145769549
 20
-159.1282714445929
 10
112.2081379927813
 20
-158.9119194481192
 10
112.1240776629412
 20
-158.8754014359756
 10
111.9645697419741
 20
-158.9539496130393
 10
111.9645697419741
 20
-158.9539496130393
 10
111.5983560918921
 20
-159.1344726164664
 10
111.5983560918921
 20
-159.1344726164664
 10
111.5983560918921
 20
-159.1344726164664
 10
111.8822319598767
 20
-159.7098035625031
 10
111.8822319598767
 20
-159.7098035625031
 10
111.8822319598767
 20
-159.7098035625031
 10
111.6713921161794
 20
-159.8135009366091
 10
111.6713921161794
 20
-159.8135009366091
 10
111.6713921161794
 20
-159.8135009366091
 10
110.9882296814543
 20
-158.4285725515387
 10
110.9882296814543
 20
-158.4285725515387
 10
110.9882296814543
 20
-158.4285725515387
 10
111.5935329582127
 20
-158.1298827729675
 10
111.5935329582127
 20
-158.1298827729675
 10
111.8687960874842
 20
-157.9941460108487
 10
112.0944498417681
 20
-158.0740722261065
 10
112.2077934832328
 20
-158.3038600949727
 10
112.2301866038869
 20
-158.3489908458294
 10
112.259125405963
 20
-158.4271945133446
 10
112.2546467818322
 20
-158.5188340532522
 10
112.2474120813132
 20
-158.6380343570419
 10
112.1971136872285
 20
-158.6838541269957
 10
112.1495713695321
 20
-158.7258842919157
 10
112.2915093035244
 20
-158.7034911712616
 10
112.3735025760733
 20
-158.7169270436541
 10
112.5168185482597
 20
-158.997702325702
 10
112.6404974761802
 20
-159.2388590096695
 10
112.6866617556825
 20
-159.2516058629649
 10
112.7717556141682
 20
-159.2708983976823
 10
112.7717556141682
 20
-159.2708983976823
 10
112.5061387522554
 20
-159.4018120261218
 10
112.5061387522554
 20
-159.4018120261218
 97
        0
 97
        0
 92
        1
 93
        1
 72
     4
 94
        3
 73
     0
 74
     1
 95
       20
 96
       16
 40
0.0
 40
0.0
 40
0.0
 40
0.0
 40
1.0
 40
1.0
 40
1.0
 40
2.0
 40
2.0
 40
2.0
 40
3.0
 40
3.0
 40
3.0
 40
4.0
 40
4.0
 40
4.0
 40
5.0
 40
5.0
 40
5.0
 40
5.0
 10
111.6910291604453
 20
-158.3176404769137
 10
111.6910291604453
 20
-158.3176404769137
 10
111.2924316128019
 20
-158.5143554291214
 10
111.2924316128019
 20
-158.5143554291214
 10
111.2924316128019
 20
-158.5143554291214
 10
111.5049940042418
 20
-158.9449923647776
 10
111.5049940042418
 20
-158.9449923647776
 10
111.5049940042418
 20
-158.9449923647776
 10
111.9015244945941
 20
-158.7493109412155
 10
111.9015244945941
 20
-158.7493109412155
 10
111.9904079581135
 20
-158.7052137190043
 10
112.0782578929874
 20
-158.577056166953
 10
112.0024657923119
 20
-158.4237494178593
 10
111.9680148374594
 20
-158.3534694699603
 10
111.8694851065813
 20
-158.2297905420398
 10
111.6910291604453
 20
-158.3176404769137
 97
        0
 97
        0
 75
     2
 76
     1
 98
        0
  0
SPLINE
  5
8E
330
85
100
AcDbEntity
  8
_U+30EC_U+30A4_U+30E4_U+30FC 1
370
     0
100
AcDbSpline
210
0.0
220
0.0
230
1.0
 70
    11
 71
     3
 72
    26
 73
    22
 74
     0
 42
0.0000000001
 43
0.0000000001
 12
1.0
 22
0.0
 32
0.0
 13
1.0
 23
0.0
 33
0.0
 40
0.0
 40
0.0
 40
0.0
 40
0.0
 40
1.0
 40
1.0
 40
1.0
 40
2.0
 40
2.0
 40
2.0
 40
3.0
 40
3.0
 40
3.0
 40
4.0
 40
4.0
 40
4.0
 40
5.0
 40
5.0
 40
5.0
 40
6.0
 40
6.0
 40
6.0
 40
7.0
 40
7.0
 40
7.0
 40
7.0
 10
113.3157361912891
 20
-158.2997259803903
 30
0.0
 10
113.3157361912891
 20
-158.2997259803903
 30
0.0
 10
112.9092149240296
 20
-158.4998860280834
 30
0.0
 10
112.9092149240296
 20
-158.4998860280834
 30
0.0
 10
112.9092149240296
 20
-158.4998860280834
 30
0.0
 10
113.1879231487864
 20
-159.0655707067614
 30
0.0
 10
113.1879231487864
 20
-159.0655707067614
 30
0.0
 10
113.1879231487864
 20
-159.0655707067614
 30
0.0
 10
112.9777723241861
 20
-159.1692680808674
 30
0.0
 10
112.9777723241861
 20
-159.1692680808674
 30
0.0
 10
112.9777723241861
 20
-159.1692680808674
 30
0.0
 10
112.2946098894611
 20
-157.784339695797
 30
0.0
 10
112.2946098894611
 20
-157.784339695797
 30
0.0
 10
112.2946098894611
 20
-157.784339695797
 30
0.0
 10
112.9112819813208
 20
-157.4801377644494
 30
0.0
 10
112.9112819813208
 20
-157.4801377644494
 30
0.0
 10
113.169319633166
 20
-157.3526692314952
 30
0.0
 10
113.4252902277201
 20
-157.4084797783562
 30
0.0
 10
113.5572373848051
 20
-157.6758191880116
 30
0.0
 10
113.6667914212361
 20
-157.8976833372617
 30
0.0
 10
113.6133924412147
 20
-158.1526204031702
 30
0.0
 10
113.3157361912891
 20
-158.2997259803903
 30
0.0
  0
SPLINE
  5
8F
330
85
100
AcDbEntity
  8
_U+30EC_U+30A4_U+30E4_U+30FC 1
370
     0
100
AcDbSpline
210
0.0
220
0.0
230
1.0
 70
    11
 71
     3
 72
    20
 73
    16
 74
     0
 42
0.0000000001
 43
0.0000000001
 12
1.0
 22
0.0
 32
0.0
 13
1.0
 23
0.0
 33
0.0
 40
0.0
 40
0.0
 40
0.0
 40
0.0
 40
1.0
 40
1.0
 40
1.0
 40
2.0
 40
2.0
 40
2.0
 40
3.0
 40
3.0
 40
3.0
 40
4.0
 40
4.0
 40
4.0
 40
5.0
 40
5.0
 40
5.0
 40
5.0
 10
112.9970648589035
 20
-157.6737521307205
 30
0.0
 10
112.9970648589035
 20
-157.6737521307205
 30
0.0
 10
112.5984673112601
 20
-157.8701225733797
 30
0.0
 10
112.5984673112601
 20
-157.8701225733797
 30
0.0
 10
112.5984673112601
 20
-157.8701225733797
 30
0.0
 10
112.8158528363794
 20
-158.3104057763946
 30
0.0
 10
112.8158528363794
 20
-158.3104057763946
 30
0.0
 10
112.8158528363794
 20
-158.3104057763946
 30
0.0
 10
113.2144503840228
 20
-158.1140353337354
 30
0.0
 10
113.2144503840228
 20
-158.1140353337354
 30
0.0
 10
113.3643120376312
 20
-158.0399657808025
 30
0.0
 10
113.397040444741
 20
-157.9056070568778
 30
0.0
 10
113.3353732355551
 20
-157.7805500907632
 30
0.0
 10
113.2850748414704
 20
-157.6778862453027
 30
0.0
 10
113.1658745376808
 20
-157.5903808199774
 30
0.0
 10
112.9970648589035
 20
-157.6737521307205
 30
0.0
  0
HATCH
  5
90
330
85
100
AcDbEntity
  8
_U+30EC_U+30A4_U+30E4_U+30FC 1
 62
   179
420
  2234388
100
AcDbHatch
 10
0.0
 20
0.0
 30
0.0
210
0.0
220
0.0
230
1.0
  2
SOLID
 70
     1
 71
     0
 91
        2
 92
        1
 93
        1
 72
     4
 94
        3
 73
     0
 74
     1
 95
       26
 96
       22
 40
0.0
 40
0.0
 40
0.0
 40
0.0
 40
1.0
 40
1.0
 40
1.0
 40
2.0
 40
2.0
 40
2.0
 40
3.0
 40
3.0
 40
3.0
 40
4.0
 40
4.0
 40
4.0
 40
5.0
 40
5.0
 40
5.0
 40
6.0
 40
6.0
 40
6.0
 40
7.0
 40
7.0
 40
7.0
 40
7.0
 10
113.3157361912891
 20
-158.2997259803903
 10
113.3157361912891
 20
-158.2997259803903
 10
112.9092149240296
 20
-158.4998860280834
 10
112.9092149240296
 20
-158.4998860280834
 10
112.9092149240296
 20
-158.4998860280834
 10
113.1879231487864
 20
-159.0655707067614
 10
113.1879231487864
 20
-159.0655707067614
 10
113.1879231487864
 20
-159.0655707067614
 10
112.9777723241861
 20
-159.1692680808674
 10
112.9777723241861
 20
-159.1692680808674
 10
112.9777723241861
 20
-159.1692680808674
 10
112.2946098894611
 20
-157.784339695797
 10
112.2946098894611
 20
-157.784339695797
 10
112.2946098894611
 20
-157.784339695797
 10
112.9112819813208
 20
-157.4801377644494
 10
112.9112819813208
 20
-157.4801377644494
 10
113.169319633166
 20
-157.3526692314952
 10
113.4252902277201
 20
-157.4084797783562
 10
113.5572373848051
 20
-157.6758191880116
 10
113.6667914212361
 20
-157.8976833372617
 10
113.6133924412147
 20
-158.1526204031702
 10
113.3157361912891
 20
-158.2997259803903
 97
        0
 97
        0
 92
        1
 93
        1
 72
     4
 94
        3
 73
     0
 74
     1
 95
       20
 96
       16
 40
0.0
 40
0.0
 40
0.0
 40
0.0
 40
1.0
 40
1.0
 40
1.0
 40
2.0
 40
2.0
 40
2.0
 40
3.0
 40
3.0
 40
3.0
 40
4.0
 40
4.0
 40
4.0
 40
5.0
 40
5.0
 40
5.0
 40
5.0
 10
112.9970648589035
 20
-157.6737521307205
 10
112.9970648589035
 20
-157.6737521307205
 10
112.5984673112601
 20
-157.8701225733797
 10
112.5984673112601
 20
-157.8701225733797
 10
112.5984673112601
 20
-157.8701225733797
 10
112.8158528363794
 20
-158.3104057763946
 10
112.8158528363794
 20
-158.3104057763946
 10
112.8158528363794
 20
-158.3104057763946
 10
113.2144503840228
 20
-158.1140353337354
 10
113.2144503840228
 20
-158.1140353337354
 10
113.3643120376312
 20
-158.0399657808025
 10
113.397040444741
 20
-157.9056070568778
 10
113.3353732355551
 20
-157.7805500907632
 10
113.2850748414704
 20
-157.6778862453027
 10
113.1658745376808
 20
-157.5903808199774
 10
112.9970648589035
 20
-157.6737521307205
 97
        0
 97
        0
 75
     2
 76
     1
 98
        0
  0
POLYLINE
  5
91
330
85
100
AcDbEntity
  8
_U+30EC_U+30A4_U+30E4_U+30FC 1
370
     0
100
AcDb2dPolyline
 66
     1
 10
0.0
 20
0.0
 30
0.0
  0
VERTEX
  5
92
330
91
100
AcDbEntity
  8
_U+30EC_U+30A4_U+30E4_U+30FC 1
370
     0
100
AcDbVertex
100
AcDb2dVertex
 10
113.9572129706426
 20
-158.1884493962168
 30
0.0
  0
VERTEX
  5
93
330
91
100
AcDbEntity
  8
_U+30EC_U+30A4_U+30E4_U+30FC 1
370
     0
100
AcDbVertex
100
AcDb2dVertex
 10
113.8617838257012
 20
-157.9948350299457
 30
0.0
  0
VERTEX
  5
94
330
91
100
AcDbEntity
  8
_U+30EC_U+30A4_U+30E4_U+30FC 1
370
     0
100
AcDbVertex
100
AcDb2dVertex
 10
114.3875053967504
 20
-157.735763849455
 30
0.0
  0
VERTEX
  5
95
330
91
100
AcDbEntity
  8
_U+30EC_U+30A4_U+30E4_U+30FC 1
370
     0
100
AcDbVertex
100
AcDb2dVertex
 10
114.4825900321432
 20
-157.929378215726
 30
0.0
  0
VERTEX
  5
96
330
91
100
AcDbEntity
  8
_U+30EC_U+30A4_U+30E4_U+30FC 1
370
     0
100
AcDbVertex
100
AcDb2dVertex
 10
113.9572129706426
 20
-158.1884493962168
 30
0.0
  0
SEQEND
  5
97
330
91
100
AcDbEntity
  8
_U+30EC_U+30A4_U+30E4_U+30FC 1
370
     0
  0
HATCH
  5
98
330
85
100
AcDbEntity
  8
_U+30EC_U+30A4_U+30E4_U+30FC 1
 62
   179
420
  2234388
100
AcDbHatch
 10
0.0
 20
0.0
 30
0.0
210
0.0
220
0.0
230
1.0
  2
SOLID
 70
     1
 71
     0
 91
        1
 92
        1
 93
        4
 72
     1
 10
113.9572129706426
 20
-158.1884493962168
 11
113.8617838257012
 21
-157.9948350299457
 72
     1
 10
113.8617838257012
 20
-157.9948350299457
 11
114.3875053967504
 21
-157.735763849455
 72
     1
 10
114.3875053967504
 20
-157.735763849455
 11
114.4825900321432
 21
-157.929378215726
 72
     1
 10
114.4825900321432
 20
-157.929378215726
 11
113.9572129706426
 21
-158.1884493962168
 97
        0
 75
     2
 76
     1
 98
        0
  0
SPLINE
  5
99
330
85
100
AcDbEntity
  8
_U+30EC_U+30A4_U+30E4_U+30FC 1
370
     0
100
AcDbSpline
210
0.0
220
0.0
230
1.0
 70
    11
 71
     3
 72
    62
 73
    58
 74
     0
 42
0.0000000001
 43
0.0000000001
 12
1.0
 22
0.0
 32
0.0
 13
1.0
 23
0.0
 33
0.0
 40
0.0
 40
0.0
 40
0.0
 40
0.0
 40
1.0
 40
1.0
 40
1.0
 40
2.0
 40
2.0
 40
2.0
 40
3.0
 40
3.0
 40
3.0
 40
4.0
 40
4.0
 40
4.0
 40
5.0
 40
5.0
 40
5.0
 40
6.0
 40
6.0
 40
6.0
 40
7.0
 40
7.0
 40
7.0
 40
8.0
 40
8.0
 40
8.0
 40
9.0
 40
9.0
 40
9.0
 40
10.0
 40
10.0
 40
10.0
 40
11.0
 40
11.0
 40
11.0
 40
12.0
 40
12.0
 40
12.0
 40
13.0
 40
13.0
 40
13.0
 40
14.0
 40
14.0
 40
14.0
 40
15.0
 40
15.0
 40
15.0
 40
16.0
 40
16.0
 40
16.0
 40
17.0
 40
17.0
 40
17.0
 40
18.0
 40
18.0
 40
18.0
 40
19.0
 40
19.0
 40
19.0
 40
19.0
 10
115.2591145545186
 20
-158.1009439708914
 30
0.0
 10
115.1733316769358
 20
-158.1429741358115
 30
0.0
 10
114.9690375146605
 20
-158.2204887842296
 30
0.0
 10
114.7743896197439
 20
-158.1088676905075
 30
0.0
 10
114.658289901891
 20
-158.0409993094481
 30
0.0
 10
114.6107475841945
 20
-157.9534938841227
 30
0.0
 10
114.5694064383715
 20
-157.8797688407384
 30
0.0
 10
114.5694064383715
 20
-157.8797688407384
 30
0.0
 10
114.7671549192249
 20
-157.7822726385058
 30
0.0
 10
114.7671549192249
 20
-157.7822726385058
 30
0.0
 10
114.8016058740774
 20
-157.8477294527256
 30
0.0
 10
114.9146050059936
 20
-158.053401653195
 30
0.0
 10
115.168853052805
 20
-157.9280001775319
 30
0.0
 10
115.292187471177
 20
-157.8673664969915
 30
0.0
 10
115.3982964121226
 20
-157.7374863971976
 30
0.0
 10
115.2970106048563
 20
-157.5325032158252
 30
0.0
 10
115.2456786821261
 20
-157.4281168226221
 30
0.0
 10
115.189868135265
 20
-157.4015895873857
 30
0.0
 10
115.1474934607965
 20
-157.3871201863477
 30
0.0
 10
115.0482747108213
 20
-157.3533582505922
 30
0.0
 10
114.9380316552933
 20
-157.3933213582211
 30
0.0
 10
114.8891112994027
 20
-157.4177815361664
 30
0.0
 10
114.8718858219765
 20
-157.4263942748795
 30
0.0
 10
114.8405354530607
 20
-157.4439642618543
 30
0.0
 10
114.8177978228581
 20
-157.4598117010864
 30
0.0
 10
114.8177978228581
 20
-157.4598117010864
 30
0.0
 10
114.7316704357268
 20
-157.2851453599843
 30
0.0
 10
114.7316704357268
 20
-157.2851453599843
 30
0.0
 10
114.7688774669675
 20
-157.2741210544315
 30
0.0
 10
114.8074625364023
 20
-157.2575845961023
 30
0.0
 10
114.8133191987272
 20
-157.2544840101656
 30
0.0
 10
114.8718858219765
 20
-157.2255452080894
 30
0.0
 10
115.0406955007537
 20
-157.1184027384982
 30
0.0
 10
114.9359645980021
 20
-156.9061848566068
 30
0.0
 10
114.8574164209384
 20
-156.7470214451882
 30
0.0
 10
114.7158229964947
 20
-156.7552896743528
 30
0.0
 10
114.616948756068
 20
-156.8042100302434
 30
0.0
 10
114.3799261866828
 20
-156.9209987671934
 30
0.0
 10
114.4750108220757
 20
-157.1335611586333
 30
0.0
 10
114.5032606050547
 20
-157.1997069919501
 30
0.0
 10
114.5032606050547
 20
-157.1997069919501
 30
0.0
 10
114.3206705443365
 20
-157.2896239841151
 30
0.0
 10
114.3206705443365
 20
-157.2896239841151
 30
0.0
 10
114.2734727361886
 20
-157.1738687758107
 30
0.0
 10
114.1318793117448
 20
-156.8241915840578
 30
0.0
 10
114.5411566553925
 20
-156.6219644790737
 30
0.0
 10
114.7423502317311
 20
-156.523090238647
 30
0.0
 10
115.0152017941629
 20
-156.530324939166
 30
0.0
 10
115.1461154226024
 20
-156.7955972915303
 30
0.0
 10
115.2284532046998
 20
-156.9626844225649
 30
0.0
 10
115.1791883392608
 20
-157.0787841404178
 30
0.0
 10
115.1171766205263
 20
-157.1776583808445
 30
0.0
 10
115.1843559824886
 20
-157.1752468140048
 30
0.0
 10
115.3831379919876
 20
-157.1666340752917
 30
0.0
 10
115.5057833912625
 20
-157.4153699693267
 30
0.0
 10
115.6553005353223
 20
-157.7192273911258
 30
0.0
 10
115.5075059390051
 20
-157.9782985716165
 30
0.0
 10
115.2591145545186
 20
-158.1009439708914
 30
0.0
  0
HATCH
  5
9A
330
85
100
AcDbEntity
  8
_U+30EC_U+30A4_U+30E4_U+30FC 1
 62
   179
420
  2234388
100
AcDbHatch
 10
0.0
 20
0.0
 30
0.0
210
0.0
220
0.0
230
1.0
  2
SOLID
 70
     1
 71
     0
 91
        1
 92
        1
 93
        1
 72
     4
 94
        3
 73
     0
 74
     1
 95
       62
 96
       58
 40
0.0
 40
0.0
 40
0.0
 40
0.0
 40
1.0
 40
1.0
 40
1.0
 40
2.0
 40
2.0
 40
2.0
 40
3.0
 40
3.0
 40
3.0
 40
4.0
 40
4.0
 40
4.0
 40
5.0
 40
5.0
 40
5.0
 40
6.0
 40
6.0
 40
6.0
 40
7.0
 40
7.0
 40
7.0
 40
8.0
 40
8.0
 40
8.0
 40
9.0
 40
9.0
 40
9.0
 40
10.0
 40
10.0
 40
10.0
 40
11.0
 40
11.0
 40
11.0
 40
12.0
 40
12.0
 40
12.0
 40
13.0
 40
13.0
 40
13.0
 40
14.0
 40
14.0
 40
14.0
 40
15.0
 40
15.0
 40
15.0
 40
16.0
 40
16.0
 40
16.0
 40
17.0
 40
17.0
 40
17.0
 40
18.0
 40
18.0
 40
18.0
 40
19.0
 40
19.0
 40
19.0
 40
19.0
 10
115.2591145545186
 20
-158.1009439708914
 10
115.1733316769358
 20
-158.1429741358115
 10
114.9690375146605
 20
-158.2204887842296
 10
114.7743896197439
 20
-158.1088676905075
 10
114.658289901891
 20
-158.0409993094481
 10
114.6107475841945
 20
-157.9534938841227
 10
114.5694064383715
 20
-157.8797688407384
 10
114.5694064383715
 20
-157.8797688407384
 10
114.7671549192249
 20
-157.7822726385058
 10
114.7671549192249
 20
-157.7822726385058
 10
114.8016058740774
 20
-157.8477294527256
 10
114.9146050059936
 20
-158.053401653195
 10
115.168853052805
 20
-157.9280001775319
 10
115.292187471177
 20
-157.8673664969915
 10
115.3982964121226
 20
-157.7374863971976
 10
115.2970106048563
 20
-157.5325032158252
 10
115.2456786821261
 20
-157.4281168226221
 10
115.189868135265
 20
-157.4015895873857
 10
115.1474934607965
 20
-157.3871201863477
 10
115.0482747108213
 20
-157.3533582505922
 10
114.9380316552933
 20
-157.3933213582211
 10
114.8891112994027
 20
-157.4177815361664
 10
114.8718858219765
 20
-157.4263942748795
 10
114.8405354530607
 20
-157.4439642618543
 10
114.8177978228581
 20
-157.4598117010864
 10
114.8177978228581
 20
-157.4598117010864
 10
114.7316704357268
 20
-157.2851453599843
 10
114.7316704357268
 20
-157.2851453599843
 10
114.7688774669675
 20
-157.2741210544315
 10
114.8074625364023
 20
-157.2575845961023
 10
114.8133191987272
 20
-157.2544840101656
 10
114.8718858219765
 20
-157.2255452080894
 10
115.0406955007537
 20
-157.1184027384982
 10
114.9359645980021
 20
-156.9061848566068
 10
114.8574164209384
 20
-156.7470214451882
 10
114.7158229964947
 20
-156.7552896743528
 10
114.616948756068
 20
-156.8042100302434
 10
114.3799261866828
 20
-156.9209987671934
 10
114.4750108220757
 20
-157.1335611586333
 10
114.5032606050547
 20
-157.1997069919501
 10
114.5032606050547
 20
-157.1997069919501
 10
114.3206705443365
 20
-157.2896239841151
 10
114.3206705443365
 20
-157.2896239841151
 10
114.2734727361886
 20
-157.1738687758107
 10
114.1318793117448
 20
-156.8241915840578
 10
114.5411566553925
 20
-156.6219644790737
 10
114.7423502317311
 20
-156.523090238647
 10
115.0152017941629
 20
-156.530324939166
 10
115.1461154226024
 20
-156.7955972915303
 10
115.2284532046998
 20
-156.9626844225649
 10
115.1791883392608
 20
-157.0787841404178
 10
115.1171766205263
 20
-157.1776583808445
 10
115.1843559824886
 20
-157.1752468140048
 10
115.3831379919876
 20
-157.1666340752917
 10
115.5057833912625
 20
-157.4153699693267
 10
115.6553005353223
 20
-157.7192273911258
 10
115.5075059390051
 20
-157.9782985716165
 10
115.2591145545186
 20
-158.1009439708914
 97
        0
 97
        0
 75
     2
 76
     1
 98
        0
  0
SPLINE
  5
9B
330
85
100
AcDbEntity
  8
_U+30EC_U+30A4_U+30E4_U+30FC 1
370
     0
100
AcDbSpline
210
0.0
220
0.0
230
1.0
 70
    11
 71
     3
 72
    29
 73
    25
 74
     0
 42
0.0000000001
 43
0.0000000001
 12
1.0
 22
0.0
 32
0.0
 13
1.0
 23
0.0
 33
0.0
 40
0.0
 40
0.0
 40
0.0
 40
0.0
 40
1.0
 40
1.0
 40
1.0
 40
2.0
 40
2.0
 40
2.0
 40
3.0
 40
3.0
 40
3.0
 40
4.0
 40
4.0
 40
4.0
 40
5.0
 40
5.0
 40
5.0
 40
6.0
 40
6.0
 40
6.0
 40
7.0
 40
7.0
 40
7.0
 40
8.0
 40
8.0
 40
8.0
 40
8.0
 10
116.5778971062722
 20
-157.1955728773678
 30
0.0
 10
116.5734184821414
 20
-157.4315619181074
 30
0.0
 10
116.4263129049212
 20
-157.5252685153062
 30
0.0
 10
116.3219265117181
 20
-157.5766004380364
 30
0.0
 10
116.1775770108862
 20
-157.6479139145811
 30
0.0
 10
116.0301269241175
 20
-157.6685844874926
 30
0.0
 10
115.864417831277
 20
-157.5476616359603
 30
0.0
 10
115.685272866044
 20
-157.418815064812
 30
0.0
 10
115.5629719763176
 20
-157.2152099216337
 30
0.0
 10
115.4913139902244
 20
-157.0687933635106
 30
0.0
 10
115.4272352141987
 20
-156.9399467923622
 30
0.0
 10
115.3314615597088
 20
-156.7063693184623
 30
0.0
 10
115.3383517506793
 20
-156.481060073727
 30
0.0
 10
115.3452419416498
 20
-156.2516167144093
 30
0.0
 10
115.4796006655746
 20
-156.1592881554046
 30
0.0
 10
115.5950113643304
 20
-156.102444079898
 30
0.0
 10
115.7372938078712
 20
-156.0321641319989
 30
0.0
 10
115.886121932834
 20
-156.0083929731507
 30
0.0
 10
116.0521755352231
 20
-156.1293158246829
 30
0.0
 10
116.2261528572282
 20
-156.2585069053798
 30
0.0
 10
116.348109237406
 20
-156.4528102907479
 30
0.0
 10
116.4249348667271
 20
-156.6085286066812
 30
0.0
 10
116.5007269674026
 20
-156.7621798653234
 30
0.0
 10
116.5834092590486
 20
-156.9781873522485
 30
0.0
 10
116.5778971062722
 20
-157.1955728773678
 30
0.0
  0
SPLINE
  5
9C
330
85
100
AcDbEntity
  8
_U+30EC_U+30A4_U+30E4_U+30FC 1
370
     0
100
AcDbSpline
210
0.0
220
0.0
230
1.0
 70
    11
 71
     3
 72
    17
 73
    13
 74
     0
 42
0.0000000001
 43
0.0000000001
 12
1.0
 22
0.0
 32
0.0
 13
1.0
 23
0.0
 33
0.0
 40
0.0
 40
0.0
 40
0.0
 40
0.0
 40
1.0
 40
1.0
 40
1.0
 40
2.0
 40
2.0
 40
2.0
 40
3.0
 40
3.0
 40
3.0
 40
4.0
 40
4.0
 40
4.0
 40
4.0
 10
115.6801052228161
 20
-156.275043363709
 30
0.0
 10
115.4561740162749
 20
-156.3856309287855
 30
0.0
 10
115.5398898365664
 20
-156.6605495485085
 30
0.0
 10
115.692507566563
 20
-156.9695746135354
 30
0.0
 10
115.8337564814582
 20
-157.2562065579082
 30
0.0
 10
116.0025661602355
 20
-157.5170002861416
 30
0.0
 10
116.2357991245869
 20
-157.4019340969342
 30
0.0
 10
116.4580077833855
 20
-157.2923800605033
 30
0.0
 10
116.3770480394821
 20
-157.0188394789745
 30
0.0
 10
116.2237412903885
 20
-156.7077473566564
 30
0.0
 10
116.0824923754933
 20
-156.4211154122836
 30
0.0
 10
115.9116156394249
 20
-156.1610107031472
 30
0.0
 10
115.6801052228161
 20
-156.275043363709
 30
0.0
  0
HATCH
  5
9D
330
85
100
AcDbEntity
  8
_U+30EC_U+30A4_U+30E4_U+30FC 1
 62
   179
420
  2234388
100
AcDbHatch
 10
0.0
 20
0.0
 30
0.0
210
0.0
220
0.0
230
1.0
  2
SOLID
 70
     1
 71
     0
 91
        2
 92
        1
 93
        1
 72
     4
 94
        3
 73
     0
 74
     1
 95
       29
 96
       25
 40
0.0
 40
0.0
 40
0.0
 40
0.0
 40
1.0
 40
1.0
 40
1.0
 40
2.0
 40
2.0
 40
2.0
 40
3.0
 40
3.0
 40
3.0
 40
4.0
 40
4.0
 40
4.0
 40
5.0
 40
5.0
 40
5.0
 40
6.0
 40
6.0
 40
6.0
 40
7.0
 40
7.0
 40
7.0
 40
8.0
 40
8.0
 40
8.0
 40
8.0
 10
116.5778971062722
 20
-157.1955728773678
 10
116.5734184821414
 20
-157.4315619181074
 10
116.4263129049212
 20
-157.5252685153062
 10
116.3219265117181
 20
-157.5766004380364
 10
116.1775770108862
 20
-157.6479139145811
 10
116.0301269241175
 20
-157.6685844874926
 10
115.864417831277
 20
-157.5476616359603
 10
115.685272866044
 20
-157.418815064812
 10
115.5629719763176
 20
-157.2152099216337
 10
115.4913139902244
 20
-157.0687933635106
 10
115.4272352141987
 20
-156.9399467923622
 10
115.3314615597088
 20
-156.7063693184623
 10
115.3383517506793
 20
-156.481060073727
 10
115.3452419416498
 20
-156.2516167144093
 10
115.4796006655746
 20
-156.1592881554046
 10
115.5950113643304
 20
-156.102444079898
 10
115.7372938078712
 20
-156.0321641319989
 10
115.886121932834
 20
-156.0083929731507
 10
116.0521755352231
 20
-156.1293158246829
 10
116.2261528572282
 20
-156.2585069053798
 10
116.348109237406
 20
-156.4528102907479
 10
116.4249348667271
 20
-156.6085286066812
 10
116.5007269674026
 20
-156.7621798653234
 10
116.5834092590486
 20
-156.9781873522485
 10
116.5778971062722
 20
-157.1955728773678
 97
        0
 97
        0
 92
        1
 93
        1
 72
     4
 94
        3
 73
     0
 74
     1
 95
       17
 96
       13
 40
0.0
 40
0.0
 40
0.0
 40
0.0
 40
1.0
 40
1.0
 40
1.0
 40
2.0
 40
2.0
 40
2.0
 40
3.0
 40
3.0
 40
3.0
 40
4.0
 40
4.0
 40
4.0
 40
4.0
 10
115.6801052228161
 20
-156.275043363709
 10
115.4561740162749
 20
-156.3856309287855
 10
115.5398898365664
 20
-156.6605495485085
 10
115.692507566563
 20
-156.9695746135354
 10
115.8337564814582
 20
-157.2562065579082
 10
116.0025661602355
 20
-157.5170002861416
 10
116.2357991245869
 20
-157.4019340969342
 10
116.4580077833855
 20
-157.2923800605033
 10
116.3770480394821
 20
-157.0188394789745
 10
116.2237412903885
 20
-156.7077473566564
 10
116.0824923754933
 20
-156.4211154122836
 10
115.9116156394249
 20
-156.1610107031472
 10
115.6801052228161
 20
-156.275043363709
 97
        0
 97
        0
 75
     2
 76
     1
 98
        0
  0
POLYLINE
  5
9E
330
85
100
AcDbEntity
  8
_U+30EC_U+30A4_U+30E4_U+30FC 1
370
     0
100
AcDb2dPolyline
 66
     1
 10
0.0
 20
0.0
 30
0.0
  0
VERTEX
  5
9F
330
9E
100
AcDbEntity
  8
_U+30EC_U+30A4_U+30E4_U+30FC 1
370
     0
100
AcDbVertex
100
AcDb2dVertex
 10
117.8842773142789
 20
-156.7497775215764
 30
0.0
  0
VERTEX
  5
A0
330
9E
100
AcDbEntity
  8
_U+30EC_U+30A4_U+30E4_U+30FC 1
370
     0
100
AcDbVertex
100
AcDb2dVertex
 10
117.5728406824123
 20
-156.1179470095816
 30
0.0
  0
VERTEX
  5
A1
330
9E
100
AcDbEntity
  8
_U+30EC_U+30A4_U+30E4_U+30FC 1
370
     0
100
AcDbVertex
100
AcDb2dVertex
 10
116.9010470627886
 20
-156.4490206857141
 30
0.0
  0
VERTEX
  5
A2
330
9E
100
AcDbEntity
  8
_U+30EC_U+30A4_U+30E4_U+30FC 1
370
     0
100
AcDbVertex
100
AcDb2dVertex
 10
117.2128282042037
 20
-157.080851197709
 30
0.0
  0
VERTEX
  5
A3
330
9E
100
AcDbEntity
  8
_U+30EC_U+30A4_U+30E4_U+30FC 1
370
     0
100
AcDbVertex
100
AcDb2dVertex
 10
117.002332870055
 20
-157.184548571815
 30
0.0
  0
VERTEX
  5
A4
330
9E
100
AcDbEntity
  8
_U+30EC_U+30A4_U+30E4_U+30FC 1
370
     0
100
AcDbVertex
100
AcDb2dVertex
 10
116.3191704353299
 20
-155.7996201867445
 30
0.0
  0
VERTEX
  5
A5
330
9E
100
AcDbEntity
  8
_U+30EC_U+30A4_U+30E4_U+30FC 1
370
     0
100
AcDbVertex
100
AcDb2dVertex
 10
116.5296657694787
 20
-155.69557830309
 30
0.0
  0
VERTEX
  5
A6
330
9E
100
AcDbEntity
  8
_U+30EC_U+30A4_U+30E4_U+30FC 1
370
     0
100
AcDbVertex
100
AcDb2dVertex
 10
116.8076849751384
 20
-156.2591959244769
 30
0.0
  0
VERTEX
  5
A7
330
9E
100
AcDbEntity
  8
_U+30EC_U+30A4_U+30E4_U+30FC 1
370
     0
100
AcDbVertex
100
AcDb2dVertex
 10
117.4791340852136
 20
-155.9281222483444
 30
0.0
  0
VERTEX
  5
A8
330
9E
100
AcDbEntity
  8
_U+30EC_U+30A4_U+30E4_U+30FC 1
370
     0
100
AcDbVertex
100
AcDb2dVertex
 10
117.2011148795539
 20
-155.3645046269575
 30
0.0
  0
VERTEX
  5
A9
330
9E
100
AcDbEntity
  8
_U+30EC_U+30A4_U+30E4_U+30FC 1
370
     0
100
AcDbVertex
100
AcDb2dVertex
 10
117.4119547232512
 20
-155.2608072528515
 30
0.0
  0
VERTEX
  5
AA
330
9E
100
AcDbEntity
  8
_U+30EC_U+30A4_U+30E4_U+30FC 1
370
     0
100
AcDbVertex
100
AcDb2dVertex
 10
118.0951171579762
 20
-156.6457356379219
 30
0.0
  0
VERTEX
  5
AB
330
9E
100
AcDbEntity
  8
_U+30EC_U+30A4_U+30E4_U+30FC 1
370
     0
100
AcDbVertex
100
AcDb2dVertex
 10
117.8842773142789
 20
-156.7497775215764
 30
0.0
  0
SEQEND
  5
AC
330
9E
100
AcDbEntity
  8
_U+30EC_U+30A4_U+30E4_U+30FC 1
370
     0
  0
HATCH
  5
AD
330
85
100
AcDbEntity
  8
_U+30EC_U+30A4_U+30E4_U+30FC 1
 62
   179
420
  2234388
100
AcDbHatch
 10
0.0
 20
0.0
 30
0.0
210
0.0
220
0.0
230
1.0
  2
SOLID
 70
     1
 71
     0
 91
        1
 92
        1
 93
       12
 72
     1
 10
117.8842773142789
 20
-156.7497775215764
 11
117.5728406824123
 21
-156.1179470095816
 72
     1
 10
117.5728406824123
 20
-156.1179470095816
 11
116.9010470627886
 21
-156.4490206857141
 72
     1
 10
116.9010470627886
 20
-156.4490206857141
 11
117.2128282042037
 21
-157.080851197709
 72
     1
 10
117.2128282042037
 20
-157.080851197709
 11
117.002332870055
 21
-157.184548571815
 72
     1
 10
117.002332870055
 20
-157.184548571815
 11
116.3191704353299
 21
-155.7996201867445
 72
     1
 10
116.3191704353299
 20
-155.7996201867445
 11
116.5296657694787
 21
-155.69557830309
 72
     1
 10
116.5296657694787
 20
-155.69557830309
 11
116.8076849751384
 21
-156.2591959244769
 72
     1
 10
116.8076849751384
 20
-156.2591959244769
 11
117.4791340852136
 21
-155.9281222483444
 72
     1
 10
117.4791340852136
 20
-155.9281222483444
 11
117.2011148795539
 21
-155.3645046269575
 72
     1
 10
117.2011148795539
 20
-155.3645046269575
 11
117.4119547232512
 21
-155.2608072528515
 72
     1
 10
117.4119547232512
 20
-155.2608072528515
 11
118.0951171579762
 21
-156.6457356379219
 72
     1
 10
118.0951171579762
 20
-156.6457356379219
 11
117.8842773142789
 21
-156.7497775215764
 97
        0
 75
     2
 76
     1
 98
        0
  0
SPLINE
  5
AE
330
85
100
AcDbEntity
  8
_U+30EC_U+30A4_U+30E4_U+30FC 1
370
     0
100
AcDbSpline
210
0.0
220
0.0
230
1.0
 70
    11
 71
     3
 72
    26
 73
    22
 74
     0
 42
0.0000000001
 43
0.0000000001
 12
1.0
 22
0.0
 32
0.0
 13
1.0
 23
0.0
 33
0.0
 40
0.0
 40
0.0
 40
0.0
 40
0.0
 40
1.0
 40
1.0
 40
1.0
 40
2.0
 40
2.0
 40
2.0
 40
3.0
 40
3.0
 40
3.0
 40
4.0
 40
4.0
 40
4.0
 40
5.0
 40
5.0
 40
5.0
 40
6.0
 40
6.0
 40
6.0
 40
7.0
 40
7.0
 40
7.0
 40
7.0
 10
119.0535427219727
 20
-156.1730685373456
 30
0.0
 10
119.0535427219727
 20
-156.1730685373456
 30
0.0
 10
118.4430718019865
 20
-156.4741698827565
 30
0.0
 10
118.4430718019865
 20
-156.4741698827565
 30
0.0
 10
118.4430718019865
 20
-156.4741698827565
 30
0.0
 10
117.7599093672614
 20
-155.089241497686
 30
0.0
 10
117.7599093672614
 20
-155.089241497686
 30
0.0
 10
117.7599093672614
 20
-155.089241497686
 30
0.0
 10
118.3593559816949
 20
-154.7936523050516
 30
0.0
 10
118.3593559816949
 20
-154.7936523050516
 30
0.0
 10
118.5512478002233
 20
-154.6989121792072
 30
0.0
 10
118.7913709555452
 20
-154.703390803338
 30
0.0
 10
118.9102267497863
 20
-154.944202977757
 30
0.0
 10
119.0149576525379
 20
-155.1564208596484
 30
0.0
 10
118.9005804824276
 20
-155.2931911504128
 30
0.0
 10
118.8530381647312
 20
-155.3496907163709
 30
0.0
 10
118.9229736030818
 20
-155.3338432771388
 30
0.0
 10
119.154139510142
 20
-155.2859564498938
 30
0.0
 10
119.2888427436153
 20
-155.5591525218741
 30
0.0
 10
119.3908175699787
 20
-155.7662027605376
 30
0.0
 10
119.3443087809278
 20
-156.0297525651592
 30
0.0
 10
119.0535427219727
 20
-156.1730685373456
 30
0.0
  0
SPLINE
  5
AF
330
85
100
AcDbEntity
  8
_U+30EC_U+30A4_U+30E4_U+30FC 1
370
     0
100
AcDbSpline
210
0.0
220
0.0
230
1.0
 70
    11
 71
     3
 72
    20
 73
    16
 74
     0
 42
0.0000000001
 43
0.0000000001
 12
1.0
 22
0.0
 32
0.0
 13
1.0
 23
0.0
 33
0.0
 40
0.0
 40
0.0
 40
0.0
 40
0.0
 40
1.0
 40
1.0
 40
1.0
 40
2.0
 40
2.0
 40
2.0
 40
3.0
 40
3.0
 40
3.0
 40
4.0
 40
4.0
 40
4.0
 40
5.0
 40
5.0
 40
5.0
 40
5.0
 10
118.3903618410621
 20
-155.013793906559
 30
0.0
 10
118.3903618410621
 20
-155.013793906559
 30
0.0
 10
118.064111298609
 20
-155.1746798657202
 30
0.0
 10
118.064111298609
 20
-155.1746798657202
 30
0.0
 10
118.064111298609
 20
-155.1746798657202
 30
0.0
 10
118.2484239070698
 20
-155.5484727258698
 30
0.0
 10
118.2484239070698
 20
-155.5484727258698
 30
0.0
 10
118.2484239070698
 20
-155.5484727258698
 30
0.0
 10
118.574674449523
 20
-155.3875867667087
 30
0.0
 10
118.574674449523
 20
-155.3875867667087
 30
0.0
 10
118.7000759251861
 20
-155.3259195575227
 30
0.0
 10
118.7758680258616
 20
-155.227045317096
 30
0.0
 10
118.7076551352536
 20
-155.088552478589
 30
0.0
 10
118.6339300918693
 20
-154.9390353345291
 30
0.0
 10
118.4944037247167
 20
-154.9624619838288
 30
0.0
 10
118.3903618410621
 20
-155.013793906559
 30
0.0
  0
SPLINE
  5
B0
330
85
100
AcDbEntity
  8
_U+30EC_U+30A4_U+30E4_U+30FC 1
370
     0
100
AcDbSpline
210
0.0
220
0.0
230
1.0
 70
    11
 71
     3
 72
    20
 73
    16
 74
     0
 42
0.0000000001
 43
0.0000000001
 12
1.0
 22
0.0
 32
0.0
 13
1.0
 23
0.0
 33
0.0
 40
0.0
 40
0.0
 40
0.0
 40
0.0
 40
1.0
 40
1.0
 40
1.0
 40
2.0
 40
2.0
 40
2.0
 40
3.0
 40
3.0
 40
3.0
 40
4.0
 40
4.0
 40
4.0
 40
5.0
 40
5.0
 40
5.0
 40
5.0
 10
118.7155788548697
 20
-155.5543293881948
 30
0.0
 10
118.7155788548697
 20
-155.5543293881948
 30
0.0
 10
118.3417859947201
 20
-155.7382974871071
 30
0.0
 10
118.3417859947201
 20
-155.7382974871071
 30
0.0
 10
118.3417859947201
 20
-155.7382974871071
 30
0.0
 10
118.560205048485
 20
-156.1806477474132
 30
0.0
 10
118.560205048485
 20
-156.1806477474132
 30
0.0
 10
118.560205048485
 20
-156.1806477474132
 30
0.0
 10
118.933653399086
 20
-155.9963351389523
 30
0.0
 10
118.933653399086
 20
-155.9963351389523
 30
0.0
 10
119.0762803521754
 20
-155.9260551910532
 30
0.0
 10
119.1345024658761
 20
-155.7958305817108
 30
0.0
 10
119.064222517977
 20
-155.65354813817
 30
0.0
 10
119.0032443278881
 20
-155.530213719798
 30
0.0
 10
118.871297170803
 20
-155.4775037588737
 30
0.0
 10
118.7155788548697
 20
-155.5543293881948
 30
0.0
  0
HATCH
  5
B1
330
85
100
AcDbEntity
  8
_U+30EC_U+30A4_U+30E4_U+30FC 1
 62
   179
420
  2234388
100
AcDbHatch
 10
0.0
 20
0.0
 30
0.0
210
0.0
220
0.0
230
1.0
  2
SOLID
 70
     1
 71
     0
 91
        3
 92
        1
 93
        1
 72
     4
 94
        3
 73
     0
 74
     1
 95
       26
 96
       22
 40
0.0
 40
0.0
 40
0.0
 40
0.0
 40
1.0
 40
1.0
 40
1.0
 40
2.0
 40
2.0
 40
2.0
 40
3.0
 40
3.0
 40
3.0
 40
4.0
 40
4.0
 40
4.0
 40
5.0
 40
5.0
 40
5.0
 40
6.0
 40
6.0
 40
6.0
 40
7.0
 40
7.0
 40
7.0
 40
7.0
 10
119.0535427219727
 20
-156.1730685373456
 10
119.0535427219727
 20
-156.1730685373456
 10
118.4430718019865
 20
-156.4741698827565
 10
118.4430718019865
 20
-156.4741698827565
 10
118.4430718019865
 20
-156.4741698827565
 10
117.7599093672614
 20
-155.089241497686
 10
117.7599093672614
 20
-155.089241497686
 10
117.7599093672614
 20
-155.089241497686
 10
118.3593559816949
 20
-154.7936523050516
 10
118.3593559816949
 20
-154.7936523050516
 10
118.5512478002233
 20
-154.6989121792072
 10
118.7913709555452
 20
-154.703390803338
 10
118.9102267497863
 20
-154.944202977757
 10
119.0149576525379
 20
-155.1564208596484
 10
118.9005804824276
 20
-155.2931911504128
 10
118.8530381647312
 20
-155.3496907163709
 10
118.9229736030818
 20
-155.3338432771388
 10
119.154139510142
 20
-155.2859564498938
 10
119.2888427436153
 20
-155.5591525218741
 10
119.3908175699787
 20
-155.7662027605376
 10
119.3443087809278
 20
-156.0297525651592
 10
119.0535427219727
 20
-156.1730685373456
 97
        0
 97
        0
 92
        1
 93
        1
 72
     4
 94
        3
 73
     0
 74
     1
 95
       20
 96
       16
 40
0.0
 40
0.0
 40
0.0
 40
0.0
 40
1.0
 40
1.0
 40
1.0
 40
2.0
 40
2.0
 40
2.0
 40
3.0
 40
3.0
 40
3.0
 40
4.0
 40
4.0
 40
4.0
 40
5.0
 40
5.0
 40
5.0
 40
5.0
 10
118.3903618410621
 20
-155.013793906559
 10
118.3903618410621
 20
-155.013793906559
 10
118.064111298609
 20
-155.1746798657202
 10
118.064111298609
 20
-155.1746798657202
 10
118.064111298609
 20
-155.1746798657202
 10
118.2484239070698
 20
-155.5484727258698
 10
118.2484239070698
 20
-155.5484727258698
 10
118.2484239070698
 20
-155.5484727258698
 10
118.574674449523
 20
-155.3875867667087
 10
118.574674449523
 20
-155.3875867667087
 10
118.7000759251861
 20
-155.3259195575227
 10
118.7758680258616
 20
-155.227045317096
 10
118.7076551352536
 20
-155.088552478589
 10
118.6339300918693
 20
-154.9390353345291
 10
118.4944037247167
 20
-154.9624619838288
 10
118.3903618410621
 20
-155.013793906559
 97
        0
 97
        0
 92
        1
 93
        1
 72
     4
 94
        3
 73
     0
 74
     1
 95
       20
 96
       16
 40
0.0
 40
0.0
 40
0.0
 40
0.0
 40
1.0
 40
1.0
 40
1.0
 40
2.0
 40
2.0
 40
2.0
 40
3.0
 40
3.0
 40
3.0
 40
4.0
 40
4.0
 40
4.0
 40
5.0
 40
5.0
 40
5.0
 40
5.0
 10
118.7155788548697
 20
-155.5543293881948
 10
118.7155788548697
 20
-155.5543293881948
 10
118.3417859947201
 20
-155.7382974871071
 10
118.3417859947201
 20
-155.7382974871071
 10
118.3417859947201
 20
-155.7382974871071
 10
118.560205048485
 20
-156.1806477474132
 10
118.560205048485
 20
-156.1806477474132
 10
118.560205048485
 20
-156.1806477474132
 10
118.933653399086
 20
-155.9963351389523
 10
118.933653399086
 20
-155.9963351389523
 10
119.0762803521754
 20
-155.9260551910532
 10
119.1345024658761
 20
-155.7958305817108
 10
119.064222517977
 20
-155.65354813817
 10
119.0032443278881
 20
-155.530213719798
 10
118.871297170803
 20
-155.4775037588737
 10
118.7155788548697
 20
-155.5543293881948
 97
        0
 97
        0
 75
     2
 76
     1
 98
        0
  0
ENDBLK
  5
88
330
85
100
AcDbEntity
  8
0
100
AcDbBlockEnd
  0
BLOCK
  5
B4
330
B2
100
AcDbEntity
  8
0
100
AcDbBlockBegin
  2
block 4
 70
     0
 10
0.0
 20
0.0
 30
0.0
  3
block 4
  1

  0
SPLINE
  5
B6
330
B2
100
AcDbEntity
  8
_U+30EC_U+30A4_U+30E4_U+30FC 1
370
     0
100
AcDbSpline
210
0.0
220
0.0
230
1.0
 70
    11
 71
     3
 72
    38
 73
    34
 74
     0
 42
0.0000000001
 43
0.0000000001
 12
1.0
 22
0.0
 32
0.0
 13
1.0
 23
0.0
 33
0.0
 40
0.0
 40
0.0
 40
0.0
 40
0.0
 40
1.0
 40
1.0
 40
1.0
 40
2.0
 40
2.0
 40
2.0
 40
3.0
 40
3.0
 40
3.0
 40
4.0
 40
4.0
 40
4.0
 40
5.0
 40
5.0
 40
5.0
 40
6.0
 40
6.0
 40
6.0
 40
7.0
 40
7.0
 40
7.0
 40
8.0
 40
8.0
 40
8.0
 40
9.0
 40
9.0
 40
9.0
 40
10.0
 40
10.0
 40
10.0
 40
11.0
 40
11.0
 40
11.0
 40
11.0
 10
90.93381209749225
 20
-156.3594482030977
 30
0.0
 10
90.51626652467996
 20
-156.1534314930797
 30
0.0
 10
90.4306559018715
 20
-155.7055690799972
 30
0.0
 10
90.63839515963207
 20
-155.2842339021512
 30
0.0
 10
90.87042234056365
 20
-154.8139783684146
 30
0.0
 10
91.30433211693087
 20
-154.709247465663
 30
0.0
 10
91.6702012574644
 20
-154.8897704690901
 30
0.0
 10
91.97957083203984
 20
-155.0423881990866
 30
0.0
 10
92.1445909057833
 20
-155.3338432771388
 30
0.0
 10
92.02349579947676
 20
-155.6277099220306
 30
0.0
 10
92.02349579947676
 20
-155.6277099220306
 30
0.0
 10
91.81679007036178
 20
-155.5257350956672
 30
0.0
 10
91.81679007036178
 20
-155.5257350956672
 30
0.0
 10
91.87415091019119
 20
-155.3231634811345
 30
0.0
 10
91.71326495103003
 20
-155.1512532164205
 30
0.0
 10
91.56925995974657
 20
-155.0802842494244
 30
0.0
 10
91.47624238164484
 20
-155.0344644794706
 30
0.0
 10
91.35773109695224
 20
-155.0117268492679
 30
0.0
 10
91.24059785045374
 20
-155.0389431036014
 30
0.0
 10
91.04043780276074
 20
-155.0816622876185
 30
0.0
 10
90.91813691303436
 20
-155.2618407814971
 30
0.0
 10
90.84802921990952
 20
-155.4044677345864
 30
0.0
 10
90.65355357976718
 20
-155.798586658099
 30
0.0
 10
90.83287079977443
 20
-156.0666150868514
 30
0.0
 10
91.0263129112712
 20
-156.1620442317928
 30
0.0
 10
91.14964732964314
 20
-156.2230224218818
 30
0.0
 10
91.42801104485133
 20
-156.2705647395782
 30
0.0
 10
91.59699297840284
 20
-155.9997802344376
 30
0.0
 10
91.59699297840284
 20
-155.9997802344376
 30
0.0
 10
91.80404321706635
 20
-156.101755060801
 30
0.0
 10
91.80404321706635
 20
-156.101755060801
 30
0.0
 10
91.73255748574742
 20
-156.2175102691054
 30
0.0
 10
91.47658689119336
 20
-156.626787612753
 30
0.0
 10
90.93381209749225
 20
-156.3594482030977
 30
0.0
  0
HATCH
  5
B7
330
B2
100
AcDbEntity
  8
_U+30EC_U+30A4_U+30E4_U+30FC 1
 62
   179
420
  2234388
100
AcDbHatch
 10
0.0
 20
0.0
 30
0.0
210
0.0
220
0.0
230
1.0
  2
SOLID
 70
     1
 71
     0
 91
        1
 92
        1
 93
        1
 72
     4
 94
        3
 73
     0
 74
     1
 95
       38
 96
       34
 40
0.0
 40
0.0
 40
0.0
 40
0.0
 40
1.0
 40
1.0
 40
1.0
 40
2.0
 40
2.0
 40
2.0
 40
3.0
 40
3.0
 40
3.0
 40
4.0
 40
4.0
 40
4.0
 40
5.0
 40
5.0
 40
5.0
 40
6.0
 40
6.0
 40
6.0
 40
7.0
 40
7.0
 40
7.0
 40
8.0
 40
8.0
 40
8.0
 40
9.0
 40
9.0
 40
9.0
 40
10.0
 40
10.0
 40
10.0
 40
11.0
 40
11.0
 40
11.0
 40
11.0
 10
90.93381209749225
 20
-156.3594482030977
 10
90.51626652467996
 20
-156.1534314930797
 10
90.4306559018715
 20
-155.7055690799972
 10
90.63839515963207
 20
-155.2842339021512
 10
90.87042234056365
 20
-154.8139783684146
 10
91.30433211693087
 20
-154.709247465663
 10
91.6702012574644
 20
-154.8897704690901
 10
91.97957083203984
 20
-155.0423881990866
 10
92.1445909057833
 20
-155.3338432771388
 10
92.02349579947676
 20
-155.6277099220306
 10
92.02349579947676
 20
-155.6277099220306
 10
91.81679007036178
 20
-155.5257350956672
 10
91.81679007036178
 20
-155.5257350956672
 10
91.87415091019119
 20
-155.3231634811345
 10
91.71326495103003
 20
-155.1512532164205
 10
91.56925995974657
 20
-155.0802842494244
 10
91.47624238164484
 20
-155.0344644794706
 10
91.35773109695224
 20
-155.0117268492679
 10
91.24059785045374
 20
-155.0389431036014
 10
91.04043780276074
 20
-155.0816622876185
 10
90.91813691303436
 20
-155.2618407814971
 10
90.84802921990952
 20
-155.4044677345864
 10
90.65355357976718
 20
-155.798586658099
 10
90.83287079977443
 20
-156.0666150868514
 10
91.0263129112712
 20
-156.1620442317928
 10
91.14964732964314
 20
-156.2230224218818
 10
91.42801104485133
 20
-156.2705647395782
 10
91.59699297840284
 20
-155.9997802344376
 10
91.59699297840284
 20
-155.9997802344376
 10
91.80404321706635
 20
-156.101755060801
 10
91.80404321706635
 20
-156.101755060801
 10
91.73255748574742
 20
-156.2175102691054
 10
91.47658689119336
 20
-156.626787612753
 10
90.93381209749225
 20
-156.3594482030977
 97
        0
 97
        0
 75
     2
 76
     1
 98
        0
  0
SPLINE
  5
B8
330
B2
100
AcDbEntity
  8
_U+30EC_U+30A4_U+30E4_U+30FC 1
370
     0
100
AcDbSpline
210
0.0
220
0.0
230
1.0
 70
    11
 71
     3
 72
    44
 73
    40
 74
     0
 42
0.0000000001
 43
0.0000000001
 12
1.0
 22
0.0
 32
0.0
 13
1.0
 23
0.0
 33
0.0
 40
0.0
 40
0.0
 40
0.0
 40
0.0
 40
1.0
 40
1.0
 40
1.0
 40
2.0
 40
2.0
 40
2.0
 40
3.0
 40
3.0
 40
3.0
 40
4.0
 40
4.0
 40
4.0
 40
5.0
 40
5.0
 40
5.0
 40
6.0
 40
6.0
 40
6.0
 40
7.0
 40
7.0
 40
7.0
 40
8.0
 40
8.0
 40
8.0
 40
9.0
 40
9.0
 40
9.0
 40
10.0
 40
10.0
 40
10.0
 40
11.0
 40
11.0
 40
11.0
 40
12.0
 40
12.0
 40
12.0
 40
13.0
 40
13.0
 40
13.0
 40
13.0
 10
92.63792857927108
 20
-157.143207425992
 30
0.0
 10
92.6368950506255
 20
-157.0929090319073
 30
0.0
 10
92.6410291652078
 20
-157.0364094659492
 30
0.0
 10
92.74128144382857
 20
-156.8283256986402
 30
0.0
 10
92.84515107270886
 20
-156.6085286066812
 30
0.0
 10
92.822930206829
 20
-156.5196451431618
 30
0.0
 10
92.66342228586193
 20
-156.4407524565495
 30
0.0
 10
92.66342228586193
 20
-156.4407524565495
 30
0.0
 10
92.2975531453284
 20
-156.2602294531225
 30
0.0
 10
92.2975531453284
 20
-156.2602294531225
 30
0.0
 10
92.2975531453284
 20
-156.2602294531225
 30
0.0
 10
92.01384953211807
 20
-156.8355603991592
 30
0.0
 10
92.01384953211807
 20
-156.8355603991592
 30
0.0
 10
92.01384953211807
 20
-156.8355603991592
 30
0.0
 10
91.80300968842079
 20
-156.7315185155046
 30
0.0
 10
91.80300968842079
 20
-156.7315185155046
 30
0.0
 10
91.80300968842079
 20
-156.7315185155046
 30
0.0
 10
92.48599986837156
 20
-155.3462456208857
 30
0.0
 10
92.48599986837156
 20
-155.3462456208857
 30
0.0
 10
92.48599986837156
 20
-155.3462456208857
 30
0.0
 10
93.09130314512996
 20
-155.6449353994568
 30
0.0
 10
93.09130314512996
 20
-155.6449353994568
 30
0.0
 10
93.36656627440142
 20
-155.7806721615757
 30
0.0
 10
93.44063582733429
 20
-156.0083929731507
 30
0.0
 10
93.32746444064384
 20
-156.2378363324683
 30
0.0
 10
93.30507131998971
 20
-156.2833115928736
 30
0.0
 10
93.26080184300424
 20
-156.3535915407727
 30
0.0
 10
93.18535425187727
 20
-156.4059569921485
 30
0.0
 10
93.0864800114506
 20
-156.4727918445624
 30
0.0
 10
93.01930064948823
 20
-156.460734010364
 30
0.0
 10
92.95694442120521
 20
-156.4490206857141
 30
0.0
 10
93.06133081440828
 20
-156.5475504165923
 30
0.0
 10
93.10060490294013
 20
-156.6212754599766
 30
0.0
 10
92.9652126503698
 20
-156.9058403470583
 30
0.0
 10
92.84911293251689
 20
-157.150442126511
 30
0.0
 10
92.86702742904019
 20
-157.1945393487222
 30
0.0
 10
92.90371769595811
 20
-157.2741210544315
 30
0.0
 10
92.90371769595811
 20
-157.2741210544315
 30
0.0
 10
92.63792857927108
 20
-157.143207425992
 30
0.0
 10
92.63792857927108
 20
-157.143207425992
 30
0.0
  0
SPLINE
  5
B9
330
B2
100
AcDbEntity
  8
_U+30EC_U+30A4_U+30E4_U+30FC 1
370
     0
100
AcDbSpline
210
0.0
220
0.0
230
1.0
 70
    11
 71
     3
 72
    20
 73
    16
 74
     0
 42
0.0000000001
 43
0.0000000001
 12
1.0
 22
0.0
 32
0.0
 13
1.0
 23
0.0
 33
0.0
 40
0.0
 40
0.0
 40
0.0
 40
0.0
 40
1.0
 40
1.0
 40
1.0
 40
2.0
 40
2.0
 40
2.0
 40
3.0
 40
3.0
 40
3.0
 40
4.0
 40
4.0
 40
4.0
 40
5.0
 40
5.0
 40
5.0
 40
5.0
 10
93.00207517206198
 20
-155.8364827084367
 30
0.0
 10
93.00207517206198
 20
-155.8364827084367
 30
0.0
 10
92.60347762441857
 20
-155.6401122657775
 30
0.0
 10
92.60347762441857
 20
-155.6401122657775
 30
0.0
 10
92.60347762441857
 20
-155.6401122657775
 30
0.0
 10
92.39091523297867
 20
-156.0707492014337
 30
0.0
 10
92.39091523297867
 20
-156.0707492014337
 30
0.0
 10
92.39091523297867
 20
-156.0707492014337
 30
0.0
 10
92.78744572333092
 20
-156.2660861154474
 30
0.0
 10
92.78744572333092
 20
-156.2660861154474
 30
0.0
 10
92.8766736963989
 20
-156.3101833376586
 30
0.0
 10
93.03170299323513
 20
-156.3015705989455
 30
0.0
 10
93.10749509391063
 20
-156.1479193403033
 30
0.0
 10
93.14194604876313
 20
-156.0779839019527
 30
0.0
 10
93.18018660864941
 20
-155.9243326433106
 30
0.0
 10
93.00207517206198
 20
-155.8364827084367
 30
0.0
  0
HATCH
  5
BA
330
B2
100
AcDbEntity
  8
_U+30EC_U+30A4_U+30E4_U+30FC 1
 62
   179
420
  2234388
100
AcDbHatch
 10
0.0
 20
0.0
 30
0.0
210
0.0
220
0.0
230
1.0
  2
SOLID
 70
     1
 71
     0
 91
        2
 92
        1
 93
        1
 72
     4
 94
        3
 73
     0
 74
     1
 95
       44
 96
       40
 40
0.0
 40
0.0
 40
0.0
 40
0.0
 40
1.0
 40
1.0
 40
1.0
 40
2.0
 40
2.0
 40
2.0
 40
3.0
 40
3.0
 40
3.0
 40
4.0
 40
4.0
 40
4.0
 40
5.0
 40
5.0
 40
5.0
 40
6.0
 40
6.0
 40
6.0
 40
7.0
 40
7.0
 40
7.0
 40
8.0
 40
8.0
 40
8.0
 40
9.0
 40
9.0
 40
9.0
 40
10.0
 40
10.0
 40
10.0
 40
11.0
 40
11.0
 40
11.0
 40
12.0
 40
12.0
 40
12.0
 40
13.0
 40
13.0
 40
13.0
 40
13.0
 10
92.63792857927108
 20
-157.143207425992
 10
92.6368950506255
 20
-157.0929090319073
 10
92.6410291652078
 20
-157.0364094659492
 10
92.74128144382857
 20
-156.8283256986402
 10
92.84515107270886
 20
-156.6085286066812
 10
92.822930206829
 20
-156.5196451431618
 10
92.66342228586193
 20
-156.4407524565495
 10
92.66342228586193
 20
-156.4407524565495
 10
92.2975531453284
 20
-156.2602294531225
 10
92.2975531453284
 20
-156.2602294531225
 10
92.2975531453284
 20
-156.2602294531225
 10
92.01384953211807
 20
-156.8355603991592
 10
92.01384953211807
 20
-156.8355603991592
 10
92.01384953211807
 20
-156.8355603991592
 10
91.80300968842079
 20
-156.7315185155046
 10
91.80300968842079
 20
-156.7315185155046
 10
91.80300968842079
 20
-156.7315185155046
 10
92.48599986837156
 20
-155.3462456208857
 10
92.48599986837156
 20
-155.3462456208857
 10
92.48599986837156
 20
-155.3462456208857
 10
93.09130314512996
 20
-155.6449353994568
 10
93.09130314512996
 20
-155.6449353994568
 10
93.36656627440142
 20
-155.7806721615757
 10
93.44063582733429
 20
-156.0083929731507
 10
93.32746444064384
 20
-156.2378363324683
 10
93.30507131998971
 20
-156.2833115928736
 10
93.26080184300424
 20
-156.3535915407727
 10
93.18535425187727
 20
-156.4059569921485
 10
93.0864800114506
 20
-156.4727918445624
 10
93.01930064948823
 20
-156.460734010364
 10
92.95694442120521
 20
-156.4490206857141
 10
93.06133081440828
 20
-156.5475504165923
 10
93.10060490294013
 20
-156.6212754599766
 10
92.9652126503698
 20
-156.9058403470583
 10
92.84911293251689
 20
-157.150442126511
 10
92.86702742904019
 20
-157.1945393487222
 10
92.90371769595811
 20
-157.2741210544315
 10
92.90371769595811
 20
-157.2741210544315
 10
92.63792857927108
 20
-157.143207425992
 10
92.63792857927108
 20
-157.143207425992
 97
        0
 97
        0
 92
        1
 93
        1
 72
     4
 94
        3
 73
     0
 74
     1
 95
       20
 96
       16
 40
0.0
 40
0.0
 40
0.0
 40
0.0
 40
1.0
 40
1.0
 40
1.0
 40
2.0
 40
2.0
 40
2.0
 40
3.0
 40
3.0
 40
3.0
 40
4.0
 40
4.0
 40
4.0
 40
5.0
 40
5.0
 40
5.0
 40
5.0
 10
93.00207517206198
 20
-155.8364827084367
 10
93.00207517206198
 20
-155.8364827084367
 10
92.60347762441857
 20
-155.6401122657775
 10
92.60347762441857
 20
-155.6401122657775
 10
92.60347762441857
 20
-155.6401122657775
 10
92.39091523297867
 20
-156.0707492014337
 10
92.39091523297867
 20
-156.0707492014337
 10
92.39091523297867
 20
-156.0707492014337
 10
92.78744572333092
 20
-156.2660861154474
 10
92.78744572333092
 20
-156.2660861154474
 10
92.8766736963989
 20
-156.3101833376586
 10
93.03170299323513
 20
-156.3015705989455
 10
93.10749509391063
 20
-156.1479193403033
 10
93.14194604876313
 20
-156.0779839019527
 10
93.18018660864941
 20
-155.9243326433106
 10
93.00207517206198
 20
-155.8364827084367
 97
        0
 97
        0
 75
     2
 76
     1
 98
        0
  0
SPLINE
  5
BB
330
B2
100
AcDbEntity
  8
_U+30EC_U+30A4_U+30E4_U+30FC 1
370
     0
100
AcDbSpline
210
0.0
220
0.0
230
1.0
 70
    11
 71
     3
 72
    26
 73
    22
 74
     0
 42
0.0000000001
 43
0.0000000001
 12
1.0
 22
0.0
 32
0.0
 13
1.0
 23
0.0
 33
0.0
 40
0.0
 40
0.0
 40
0.0
 40
0.0
 40
1.0
 40
1.0
 40
1.0
 40
2.0
 40
2.0
 40
2.0
 40
3.0
 40
3.0
 40
3.0
 40
4.0
 40
4.0
 40
4.0
 40
5.0
 40
5.0
 40
5.0
 40
6.0
 40
6.0
 40
6.0
 40
7.0
 40
7.0
 40
7.0
 40
7.0
 10
94.00511472259248
 20
-157.1142686239159
 30
0.0
 10
94.00511472259248
 20
-157.1142686239159
 30
0.0
 10
93.59876571010726
 20
-156.9141085762229
 30
0.0
 10
93.59876571010726
 20
-156.9141085762229
 30
0.0
 10
93.59876571010726
 20
-156.9141085762229
 30
0.0
 10
93.31988523057629
 20
-157.4794487453524
 30
0.0
 10
93.31988523057629
 20
-157.4794487453524
 30
0.0
 10
93.31988523057629
 20
-157.4794487453524
 30
0.0
 10
93.10938989642752
 20
-157.3757513712463
 30
0.0
 10
93.10938989642752
 20
-157.3757513712463
 30
0.0
 10
93.10938989642752
 20
-157.3757513712463
 30
0.0
 10
93.7923800763783
 20
-155.9904784766274
 30
0.0
 10
93.7923800763783
 20
-155.9904784766274
 30
0.0
 10
93.7923800763783
 20
-155.9904784766274
 30
0.0
 10
94.40939667778655
 20
-156.2946804079749
 30
0.0
 10
94.40939667778655
 20
-156.2946804079749
 30
0.0
 10
94.66708982008323
 20
-156.4221489409292
 30
0.0
 10
94.77905542335385
 20
-156.6584824912173
 30
0.0
 10
94.64710826626879
 20
-156.9261664104212
 30
0.0
 10
94.5377264846121
 20
-157.1480305596713
 30
0.0
 10
94.30294322729232
 20
-157.2613742011361
 30
0.0
 10
94.00511472259248
 20
-157.1142686239159
 30
0.0
  0
SPLINE
  5
BC
330
B2
100
AcDbEntity
  8
_U+30EC_U+30A4_U+30E4_U+30FC 1
370
     0
100
AcDbSpline
210
0.0
220
0.0
230
1.0
 70
    11
 71
     3
 72
    20
 73
    16
 74
     0
 42
0.0000000001
 43
0.0000000001
 12
1.0
 22
0.0
 32
0.0
 13
1.0
 23
0.0
 33
0.0
 40
0.0
 40
0.0
 40
0.0
 40
0.0
 40
1.0
 40
1.0
 40
1.0
 40
2.0
 40
2.0
 40
2.0
 40
3.0
 40
3.0
 40
3.0
 40
4.0
 40
4.0
 40
4.0
 40
5.0
 40
5.0
 40
5.0
 40
5.0
 10
94.3081108705202
 20
-156.4807155641784
 30
0.0
 10
94.3081108705202
 20
-156.4807155641784
 30
0.0
 10
93.90951332287679
 20
-156.2840006119707
 30
0.0
 10
93.90951332287679
 20
-156.2840006119707
 30
0.0
 10
93.90951332287679
 20
-156.2840006119707
 30
0.0
 10
93.69230005253179
 20
-156.7242838149856
 30
0.0
 10
93.69230005253179
 20
-156.7242838149856
 30
0.0
 10
93.69230005253179
 20
-156.7242838149856
 30
0.0
 10
94.0908976001752
 20
-156.9209987671934
 30
0.0
 10
94.0908976001752
 20
-156.9209987671934
 30
0.0
 10
94.24075925378357
 20
-156.9947238105777
 30
0.0
 10
94.36702200331797
 20
-156.9392577732652
 30
0.0
 10
94.42886146727821
 20
-156.8142008071506
 30
0.0
 10
94.47933211613712
 20
-156.7115369616902
 30
0.0
 10
94.47657603974892
 20
-156.563742365373
 30
0.0
 10
94.3081108705202
 20
-156.4807155641784
 30
0.0
  0
HATCH
  5
BD
330
B2
100
AcDbEntity
  8
_U+30EC_U+30A4_U+30E4_U+30FC 1
 62
   179
420
  2234388
100
AcDbHatch
 10
0.0
 20
0.0
 30
0.0
210
0.0
220
0.0
230
1.0
  2
SOLID
 70
     1
 71
     0
 91
        2
 92
        1
 93
        1
 72
     4
 94
        3
 73
     0
 74
     1
 95
       26
 96
       22
 40
0.0
 40
0.0
 40
0.0
 40
0.0
 40
1.0
 40
1.0
 40
1.0
 40
2.0
 40
2.0
 40
2.0
 40
3.0
 40
3.0
 40
3.0
 40
4.0
 40
4.0
 40
4.0
 40
5.0
 40
5.0
 40
5.0
 40
6.0
 40
6.0
 40
6.0
 40
7.0
 40
7.0
 40
7.0
 40
7.0
 10
94.00511472259248
 20
-157.1142686239159
 10
94.00511472259248
 20
-157.1142686239159
 10
93.59876571010726
 20
-156.9141085762229
 10
93.59876571010726
 20
-156.9141085762229
 10
93.59876571010726
 20
-156.9141085762229
 10
93.31988523057629
 20
-157.4794487453524
 10
93.31988523057629
 20
-157.4794487453524
 10
93.31988523057629
 20
-157.4794487453524
 10
93.10938989642752
 20
-157.3757513712463
 10
93.10938989642752
 20
-157.3757513712463
 10
93.10938989642752
 20
-157.3757513712463
 10
93.7923800763783
 20
-155.9904784766274
 10
93.7923800763783
 20
-155.9904784766274
 10
93.7923800763783
 20
-155.9904784766274
 10
94.40939667778655
 20
-156.2946804079749
 10
94.40939667778655
 20
-156.2946804079749
 10
94.66708982008323
 20
-156.4221489409292
 10
94.77905542335385
 20
-156.6584824912173
 10
94.64710826626879
 20
-156.9261664104212
 10
94.5377264846121
 20
-157.1480305596713
 10
94.30294322729232
 20
-157.2613742011361
 10
94.00511472259248
 20
-157.1142686239159
 97
        0
 97
        0
 92
        1
 93
        1
 72
     4
 94
        3
 73
     0
 74
     1
 95
       20
 96
       16
 40
0.0
 40
0.0
 40
0.0
 40
0.0
 40
1.0
 40
1.0
 40
1.0
 40
2.0
 40
2.0
 40
2.0
 40
3.0
 40
3.0
 40
3.0
 40
4.0
 40
4.0
 40
4.0
 40
5.0
 40
5.0
 40
5.0
 40
5.0
 10
94.3081108705202
 20
-156.4807155641784
 10
94.3081108705202
 20
-156.4807155641784
 10
93.90951332287679
 20
-156.2840006119707
 10
93.90951332287679
 20
-156.2840006119707
 10
93.90951332287679
 20
-156.2840006119707
 10
93.69230005253179
 20
-156.7242838149856
 10
93.69230005253179
 20
-156.7242838149856
 10
93.69230005253179
 20
-156.7242838149856
 10
94.0908976001752
 20
-156.9209987671934
 10
94.0908976001752
 20
-156.9209987671934
 10
94.24075925378357
 20
-156.9947238105777
 10
94.36702200331797
 20
-156.9392577732652
 10
94.42886146727821
 20
-156.8142008071506
 10
94.47933211613712
 20
-156.7115369616902
 10
94.47657603974892
 20
-156.563742365373
 10
94.3081108705202
 20
-156.4807155641784
 97
        0
 97
        0
 75
     2
 76
     1
 98
        0
  0
POLYLINE
  5
BE
330
B2
100
AcDbEntity
  8
_U+30EC_U+30A4_U+30E4_U+30FC 1
370
     0
100
AcDb2dPolyline
 66
     1
 10
0.0
 20
0.0
 30
0.0
  0
VERTEX
  5
BF
330
BE
100
AcDbEntity
  8
_U+30EC_U+30A4_U+30E4_U+30FC 1
370
     0
100
AcDbVertex
100
AcDb2dVertex
 10
94.48381074026794
 20
-157.5555853555764
 30
0.0
  0
VERTEX
  5
C0
330
BE
100
AcDbEntity
  8
_U+30EC_U+30A4_U+30E4_U+30FC 1
370
     0
100
AcDbVertex
100
AcDb2dVertex
 10
94.57923988520936
 20
-157.3619709893053
 30
0.0
  0
VERTEX
  5
C1
330
BE
100
AcDbEntity
  8
_U+30EC_U+30A4_U+30E4_U+30FC 1
370
     0
100
AcDbVertex
100
AcDb2dVertex
 10
95.10496145625848
 20
-157.6213866793447
 30
0.0
  0
VERTEX
  5
C2
330
BE
100
AcDbEntity
  8
_U+30EC_U+30A4_U+30E4_U+30FC 1
370
     0
100
AcDbVertex
100
AcDb2dVertex
 10
95.00953231131706
 20
-157.8146565360672
 30
0.0
  0
VERTEX
  5
C3
330
BE
100
AcDbEntity
  8
_U+30EC_U+30A4_U+30E4_U+30FC 1
370
     0
100
AcDbVertex
100
AcDb2dVertex
 10
94.48381074026794
 20
-157.5555853555764
 30
0.0
  0
SEQEND
  5
C4
330
BE
100
AcDbEntity
  8
_U+30EC_U+30A4_U+30E4_U+30FC 1
370
     0
  0
HATCH
  5
C5
330
B2
100
AcDbEntity
  8
_U+30EC_U+30A4_U+30E4_U+30FC 1
 62
   179
420
  2234388
100
AcDbHatch
 10
0.0
 20
0.0
 30
0.0
210
0.0
220
0.0
230
1.0
  2
SOLID
 70
     1
 71
     0
 91
        1
 92
        1
 93
        4
 72
     1
 10
94.48381074026794
 20
-157.5555853555764
 11
94.57923988520936
 21
-157.3619709893053
 72
     1
 10
94.57923988520936
 20
-157.3619709893053
 11
95.10496145625848
 21
-157.6213866793447
 72
     1
 10
95.10496145625848
 20
-157.6213866793447
 11
95.00953231131706
 21
-157.8146565360672
 72
     1
 10
95.00953231131706
 20
-157.8146565360672
 11
94.48381074026794
 21
-157.5555853555764
 97
        0
 75
     2
 76
     1
 98
        0
  0
SPLINE
  5
C6
330
B2
100
AcDbEntity
  8
_U+30EC_U+30A4_U+30E4_U+30FC 1
370
     0
100
AcDbSpline
210
0.0
220
0.0
230
1.0
 70
    11
 71
     3
 72
    62
 73
    58
 74
     0
 42
0.0000000001
 43
0.0000000001
 12
1.0
 22
0.0
 32
0.0
 13
1.0
 23
0.0
 33
0.0
 40
0.0
 40
0.0
 40
0.0
 40
0.0
 40
1.0
 40
1.0
 40
1.0
 40
2.0
 40
2.0
 40
2.0
 40
3.0
 40
3.0
 40
3.0
 40
4.0
 40
4.0
 40
4.0
 40
5.0
 40
5.0
 40
5.0
 40
6.0
 40
6.0
 40
6.0
 40
7.0
 40
7.0
 40
7.0
 40
8.0
 40
8.0
 40
8.0
 40
9.0
 40
9.0
 40
9.0
 40
10.0
 40
10.0
 40
10.0
 40
11.0
 40
11.0
 40
11.0
 40
12.0
 40
12.0
 40
12.0
 40
13.0
 40
13.0
 40
13.0
 40
14.0
 40
14.0
 40
14.0
 40
15.0
 40
15.0
 40
15.0
 40
16.0
 40
16.0
 40
16.0
 40
17.0
 40
17.0
 40
17.0
 40
18.0
 40
18.0
 40
18.0
 40
19.0
 40
19.0
 40
19.0
 40
19.0
 10
95.34594588545171
 20
-158.5353705115814
 30
0.0
 10
95.26033526264325
 20
-158.4929958371129
 30
0.0
 10
95.07447236121402
 20
-158.377585138357
 30
0.0
 10
95.04467228526661
 20
-158.1557209891069
 30
0.0
 10
95.02779131738889
 20
-158.0220512842792
 30
0.0
 10
95.06792667979205
 20
-157.9311007634686
 30
0.0
 10
95.10186087032176
 20
-157.853241605502
 30
0.0
 10
95.10186087032176
 20
-157.853241605502
 30
0.0
 10
95.29926484162658
 20
-157.9507378077346
 30
0.0
 10
95.29926484162658
 20
-157.9507378077346
 30
0.0
 10
95.26825898225933
 20
-158.0182616792455
 30
0.0
 10
95.17386336596348
 20
-158.233235637525
 30
0.0
 10
95.42811141277492
 20
-158.3586371131881
 30
0.0
 10
95.55144583114686
 20
-158.4192707937285
 30
0.0
 10
95.71887747173001
 20
-158.4244384369564
 30
0.0
 10
95.81999102422209
 20
-158.2197997651326
 30
0.0
 10
95.87149520172657
 20
-158.115068862381
 30
0.0
 10
95.85874834843115
 20
-158.0544351818406
 30
0.0
 10
95.84427894739311
 20
-158.012060507372
 30
0.0
 10
95.81051701163766
 20
-157.9131862669453
 30
0.0
 10
95.71181502598525
 20
-157.8501410195653
 30
0.0
 10
95.66272241532043
 20
-157.82568084162
 30
0.0
 10
95.64549693789418
 20
-157.8174126124554
 30
0.0
 10
95.61242402123578
 20
-157.8032877209658
 30
0.0
 10
95.5857245312251
 20
-157.7950194918012
 30
0.0
 10
95.5857245312251
 20
-157.7950194918012
 30
0.0
 10
95.67185191835635
 20
-157.6203531506991
 30
0.0
 10
95.67185191835635
 20
-157.6203531506991
 30
0.0
 10
95.70337454204638
 20
-157.6430907809017
 30
0.0
 10
95.74006480896429
 20
-157.6634168442647
 30
0.0
 10
95.74592147128922
 20
-157.6665174302014
 30
0.0
 10
95.80466034931273
 20
-157.6954562322775
 30
0.0
 10
95.99241805325885
 20
-157.7643581419825
 30
0.0
 10
96.09714895601044
 20
-157.5517957505426
 30
0.0
 10
96.17569713307414
 20
-157.3922878295755
 30
0.0
 10
96.08267955497239
 20
-157.2851453599843
 30
0.0
 10
95.98380531454572
 20
-157.2362250040937
 30
0.0
 10
95.74678274516053
 20
-157.1194362671438
 30
0.0
 10
95.63619518008402
 20
-157.3244194485161
 30
0.0
 10
95.60071069658594
 20
-157.3871201863477
 30
0.0
 10
95.60071069658594
 20
-157.3871201863477
 30
0.0
 10
95.41846514541622
 20
-157.2972031941827
 30
0.0
 10
95.41846514541622
 20
-157.2972031941827
 30
0.0
 10
95.48116588324777
 20
-157.1890271959458
 30
0.0
 10
95.67271319222766
 20
-156.8634656725897
 30
0.0
 10
96.08233504542386
 20
-157.0656927775739
 30
0.0
 10
96.28352862176246
 20
-157.1649115275491
 30
0.0
 10
96.44338105227804
 20
-157.385397638605
 30
0.0
 10
96.31246742383856
 20
-157.6506699909693
 30
0.0
 10
96.23012964174109
 20
-157.8181016315524
 30
0.0
 10
96.10834551633751
 20
-157.8497965100167
 30
0.0
 10
95.99207354371032
 20
-157.8608208155695
 30
0.0
 10
96.03479272772742
 20
-157.9124972478483
 30
0.0
 10
96.16243351545593
 20
-158.0647704682963
 30
0.0
 10
96.03978811618103
 20
-158.3135063623314
 30
0.0
 10
95.89009871734693
 20
-158.6173637841304
 30
0.0
 10
95.59433726993822
 20
-158.6576714013078
 30
0.0
 10
95.34594588545171
 20
-158.5353705115814
 30
0.0
  0
HATCH
  5
C7
330
B2
100
AcDbEntity
  8
_U+30EC_U+30A4_U+30E4_U+30FC 1
 62
   179
420
  2234388
100
AcDbHatch
 10
0.0
 20
0.0
 30
0.0
210
0.0
220
0.0
230
1.0
  2
SOLID
 70
     1
 71
     0
 91
        1
 92
        1
 93
        1
 72
     4
 94
        3
 73
     0
 74
     1
 95
       62
 96
       58
 40
0.0
 40
0.0
 40
0.0
 40
0.0
 40
1.0
 40
1.0
 40
1.0
 40
2.0
 40
2.0
 40
2.0
 40
3.0
 40
3.0
 40
3.0
 40
4.0
 40
4.0
 40
4.0
 40
5.0
 40
5.0
 40
5.0
 40
6.0
 40
6.0
 40
6.0
 40
7.0
 40
7.0
 40
7.0
 40
8.0
 40
8.0
 40
8.0
 40
9.0
 40
9.0
 40
9.0
 40
10.0
 40
10.0
 40
10.0
 40
11.0
 40
11.0
 40
11.0
 40
12.0
 40
12.0
 40
12.0
 40
13.0
 40
13.0
 40
13.0
 40
14.0
 40
14.0
 40
14.0
 40
15.0
 40
15.0
 40
15.0
 40
16.0
 40
16.0
 40
16.0
 40
17.0
 40
17.0
 40
17.0
 40
18.0
 40
18.0
 40
18.0
 40
19.0
 40
19.0
 40
19.0
 40
19.0
 10
95.34594588545171
 20
-158.5353705115814
 10
95.26033526264325
 20
-158.4929958371129
 10
95.07447236121402
 20
-158.377585138357
 10
95.04467228526661
 20
-158.1557209891069
 10
95.02779131738889
 20
-158.0220512842792
 10
95.06792667979205
 20
-157.9311007634686
 10
95.10186087032176
 20
-157.853241605502
 10
95.10186087032176
 20
-157.853241605502
 10
95.29926484162658
 20
-157.9507378077346
 10
95.29926484162658
 20
-157.9507378077346
 10
95.26825898225933
 20
-158.0182616792455
 10
95.17386336596348
 20
-158.233235637525
 10
95.42811141277492
 20
-158.3586371131881
 10
95.55144583114686
 20
-158.4192707937285
 10
95.71887747173001
 20
-158.4244384369564
 10
95.81999102422209
 20
-158.2197997651326
 10
95.87149520172657
 20
-158.115068862381
 10
95.85874834843115
 20
-158.0544351818406
 10
95.84427894739311
 20
-158.012060507372
 10
95.81051701163766
 20
-157.9131862669453
 10
95.71181502598525
 20
-157.8501410195653
 10
95.66272241532043
 20
-157.82568084162
 10
95.64549693789418
 20
-157.8174126124554
 10
95.61242402123578
 20
-157.8032877209658
 10
95.5857245312251
 20
-157.7950194918012
 10
95.5857245312251
 20
-157.7950194918012
 10
95.67185191835635
 20
-157.6203531506991
 10
95.67185191835635
 20
-157.6203531506991
 10
95.70337454204638
 20
-157.6430907809017
 10
95.74006480896429
 20
-157.6634168442647
 10
95.74592147128922
 20
-157.6665174302014
 10
95.80466034931273
 20
-157.6954562322775
 10
95.99241805325885
 20
-157.7643581419825
 10
96.09714895601044
 20
-157.5517957505426
 10
96.17569713307414
 20
-157.3922878295755
 10
96.08267955497239
 20
-157.2851453599843
 10
95.98380531454572
 20
-157.2362250040937
 10
95.74678274516053
 20
-157.1194362671438
 10
95.63619518008402
 20
-157.3244194485161
 10
95.60071069658594
 20
-157.3871201863477
 10
95.60071069658594
 20
-157.3871201863477
 10
95.41846514541622
 20
-157.2972031941827
 10
95.41846514541622
 20
-157.2972031941827
 10
95.48116588324777
 20
-157.1890271959458
 10
95.67271319222766
 20
-156.8634656725897
 10
96.08233504542386
 20
-157.0656927775739
 10
96.28352862176246
 20
-157.1649115275491
 10
96.44338105227804
 20
-157.385397638605
 10
96.31246742383856
 20
-157.6506699909693
 10
96.23012964174109
 20
-157.8181016315524
 10
96.10834551633751
 20
-157.8497965100167
 10
95.99207354371032
 20
-157.8608208155695
 10
96.03479272772742
 20
-157.9124972478483
 10
96.16243351545593
 20
-158.0647704682963
 10
96.03978811618103
 20
-158.3135063623314
 10
95.89009871734693
 20
-158.6173637841304
 10
95.59433726993822
 20
-158.6576714013078
 10
95.34594588545171
 20
-158.5353705115814
 97
        0
 97
        0
 75
     2
 76
     1
 98
        0
  0
SPLINE
  5
C8
330
B2
100
AcDbEntity
  8
_U+30EC_U+30A4_U+30E4_U+30FC 1
370
     0
100
AcDbSpline
210
0.0
220
0.0
230
1.0
 70
    11
 71
     3
 72
    29
 73
    25
 74
     0
 42
0.0000000001
 43
0.0000000001
 12
1.0
 22
0.0
 32
0.0
 13
1.0
 23
0.0
 33
0.0
 40
0.0
 40
0.0
 40
0.0
 40
0.0
 40
1.0
 40
1.0
 40
1.0
 40
2.0
 40
2.0
 40
2.0
 40
3.0
 40
3.0
 40
3.0
 40
4.0
 40
4.0
 40
4.0
 40
5.0
 40
5.0
 40
5.0
 40
6.0
 40
6.0
 40
6.0
 40
7.0
 40
7.0
 40
7.0
 40
8.0
 40
8.0
 40
8.0
 40
8.0
 10
96.86678328741526
 20
-159.0304307328119
 30
0.0
 10
96.67713078095225
 20
-159.170301609513
 30
0.0
 10
96.51331649062863
 20
-159.1107014576182
 30
0.0
 10
96.40893009742555
 20
-159.0593695348879
 30
0.0
 10
96.26458059659358
 20
-158.9880560583433
 30
0.0
 10
96.15812714609936
 20
-158.8836696651402
 30
0.0
 10
96.15330401242001
 20
-158.6786864837678
 30
0.0
 10
96.14641382144951
 20
-158.4582003727118
 30
0.0
 10
96.23391924677486
 20
-158.2370252425588
 30
0.0
 10
96.30592174241659
 20
-158.0909531939842
 30
0.0
 10
96.3696560088937
 20
-157.9621066228359
 30
0.0
 10
96.4964355227509
 20
-157.743687569071
 30
0.0
 10
96.67937009301767
 20
-157.6120849215345
 30
0.0
 10
96.86574975876968
 20
-157.4780707071583
 30
0.0
 10
97.0204345460574
 20
-157.5280245916944
 30
0.0
 10
97.13584524481327
 20
-157.5852131767495
 30
0.0
 10
97.2784721979026
 20
-157.6554931246486
 30
0.0
 10
97.38768172478503
 20
-157.7588459892061
 30
0.0
 10
97.39250485846438
 20
-157.964173680127
 30
0.0
 10
97.39646671827242
 20
-158.1805256766007
 30
0.0
 10
97.31636824824035
 20
-158.3958441444288
 30
0.0
 10
97.23954261891929
 20
-158.5515624603621
 30
0.0
 10
97.16392277301806
 20
-158.7052137190043
 30
0.0
 10
97.04282766671152
 20
-158.9026176903091
 30
0.0
 10
96.86678328741526
 20
-159.0304307328119
 30
0.0
  0
SPLINE
  5
C9
330
B2
100
AcDbEntity
  8
_U+30EC_U+30A4_U+30E4_U+30FC 1
370
     0
100
AcDbSpline
210
0.0
220
0.0
230
1.0
 70
    11
 71
     3
 72
    17
 73
    13
 74
     0
 42
0.0000000001
 43
0.0000000001
 12
1.0
 22
0.0
 32
0.0
 13
1.0
 23
0.0
 33
0.0
 40
0.0
 40
0.0
 40
0.0
 40
0.0
 40
1.0
 40
1.0
 40
1.0
 40
2.0
 40
2.0
 40
2.0
 40
3.0
 40
3.0
 40
3.0
 40
4.0
 40
4.0
 40
4.0
 40
4.0
 10
97.05075138632759
 20
-157.7578124605606
 30
0.0
 10
96.8266479250121
 20
-157.647224895484
 30
0.0
 10
96.65956079397748
 20
-157.8811468789325
 30
0.0
 10
96.50711531875517
 20
-158.1901719439594
 30
0.0
 10
96.36586640385993
 20
-158.4768038883322
 30
0.0
 10
96.26165226543112
 20
-158.7696370045784
 30
0.0
 10
96.4950574845568
 20
-158.8847031937858
 30
0.0
 10
96.71709388858115
 20
-158.9942572302167
 30
0.0
 10
96.88504229348707
 20
-158.763435832705
 30
0.0
 10
97.03834904258069
 20
-158.4523437103869
 30
0.0
 10
97.17994246702446
 20
-158.1657117660141
 30
0.0
 10
97.28208954816212
 20
-157.8718451211223
 30
0.0
 10
97.05075138632759
 20
-157.7578124605606
 30
0.0
  0
HATCH
  5
CA
330
B2
100
AcDbEntity
  8
_U+30EC_U+30A4_U+30E4_U+30FC 1
 62
   179
420
  2234388
100
AcDbHatch
 10
0.0
 20
0.0
 30
0.0
210
0.0
220
0.0
230
1.0
  2
SOLID
 70
     1
 71
     0
 91
        2
 92
        1
 93
        1
 72
     4
 94
        3
 73
     0
 74
     1
 95
       29
 96
       25
 40
0.0
 40
0.0
 40
0.0
 40
0.0
 40
1.0
 40
1.0
 40
1.0
 40
2.0
 40
2.0
 40
2.0
 40
3.0
 40
3.0
 40
3.0
 40
4.0
 40
4.0
 40
4.0
 40
5.0
 40
5.0
 40
5.0
 40
6.0
 40
6.0
 40
6.0
 40
7.0
 40
7.0
 40
7.0
 40
8.0
 40
8.0
 40
8.0
 40
8.0
 10
96.86678328741526
 20
-159.0304307328119
 10
96.67713078095225
 20
-159.170301609513
 10
96.51331649062863
 20
-159.1107014576182
 10
96.40893009742555
 20
-159.0593695348879
 10
96.26458059659358
 20
-158.9880560583433
 10
96.15812714609936
 20
-158.8836696651402
 10
96.15330401242001
 20
-158.6786864837678
 10
96.14641382144951
 20
-158.4582003727118
 10
96.23391924677486
 20
-158.2370252425588
 10
96.30592174241659
 20
-158.0909531939842
 10
96.3696560088937
 20
-157.9621066228359
 10
96.4964355227509
 20
-157.743687569071
 10
96.67937009301767
 20
-157.6120849215345
 10
96.86574975876968
 20
-157.4780707071583
 10
97.0204345460574
 20
-157.5280245916944
 10
97.13584524481327
 20
-157.5852131767495
 10
97.2784721979026
 20
-157.6554931246486
 10
97.38768172478503
 20
-157.7588459892061
 10
97.39250485846438
 20
-157.964173680127
 10
97.39646671827242
 20
-158.1805256766007
 10
97.31636824824035
 20
-158.3958441444288
 10
97.23954261891929
 20
-158.5515624603621
 10
97.16392277301806
 20
-158.7052137190043
 10
97.04282766671152
 20
-158.9026176903091
 10
96.86678328741526
 20
-159.0304307328119
 97
        0
 97
        0
 92
        1
 93
        1
 72
     4
 94
        3
 73
     0
 74
     1
 95
       17
 96
       13
 40
0.0
 40
0.0
 40
0.0
 40
0.0
 40
1.0
 40
1.0
 40
1.0
 40
2.0
 40
2.0
 40
2.0
 40
3.0
 40
3.0
 40
3.0
 40
4.0
 40
4.0
 40
4.0
 40
4.0
 10
97.05075138632759
 20
-157.7578124605606
 10
96.8266479250121
 20
-157.647224895484
 10
96.65956079397748
 20
-157.8811468789325
 10
96.50711531875517
 20
-158.1901719439594
 10
96.36586640385993
 20
-158.4768038883322
 10
96.26165226543112
 20
-158.7696370045784
 10
96.4950574845568
 20
-158.8847031937858
 10
96.71709388858115
 20
-158.9942572302167
 10
96.88504229348707
 20
-158.763435832705
 10
97.03834904258069
 20
-158.4523437103869
 10
97.17994246702446
 20
-158.1657117660141
 10
97.28208954816212
 20
-157.8718451211223
 10
97.05075138632759
 20
-157.7578124605606
 97
        0
 97
        0
 75
     2
 76
     1
 98
        0
  0
POLYLINE
  5
CB
330
B2
100
AcDbEntity
  8
_U+30EC_U+30A4_U+30E4_U+30FC 1
370
     0
100
AcDb2dPolyline
 66
     1
 10
0.0
 20
0.0
 30
0.0
  0
VERTEX
  5
CC
330
CB
100
AcDbEntity
  8
_U+30EC_U+30A4_U+30E4_U+30FC 1
370
     0
100
AcDbVertex
100
AcDb2dVertex
 10
98.0160671412946
 20
-159.7955864400858
 30
0.0
  0
VERTEX
  5
CD
330
CB
100
AcDbEntity
  8
_U+30EC_U+30A4_U+30E4_U+30FC 1
370
     0
100
AcDbVertex
100
AcDb2dVertex
 10
98.32767602793545
 20
-159.163755928091
 30
0.0
  0
VERTEX
  5
CE
330
CB
100
AcDbEntity
  8
_U+30EC_U+30A4_U+30E4_U+30FC 1
370
     0
100
AcDbVertex
100
AcDb2dVertex
 10
97.65622691786025
 20
-158.83233774241
 30
0.0
  0
VERTEX
  5
CF
330
CB
100
AcDbEntity
  8
_U+30EC_U+30A4_U+30E4_U+30FC 1
370
     0
100
AcDbVertex
100
AcDb2dVertex
 10
97.34461803121941
 20
-159.4641682544048
 30
0.0
  0
VERTEX
  5
D0
330
CB
100
AcDbEntity
  8
_U+30EC_U+30A4_U+30E4_U+30FC 1
370
     0
100
AcDbVertex
100
AcDb2dVertex
 10
97.13395044229638
 20
-159.3604708802988
 30
0.0
  0
VERTEX
  5
D1
330
CB
100
AcDbEntity
  8
_U+30EC_U+30A4_U+30E4_U+30FC 1
370
     0
100
AcDbVertex
100
AcDb2dVertex
 10
97.81694062224716
 20
-157.9751979856798
 30
0.0
  0
VERTEX
  5
D2
330
CB
100
AcDbEntity
  8
_U+30EC_U+30A4_U+30E4_U+30FC 1
370
     0
100
AcDbVertex
100
AcDb2dVertex
 10
98.02778046594445
 20
-158.0792398693344
 30
0.0
  0
VERTEX
  5
D3
330
CB
100
AcDbEntity
  8
_U+30EC_U+30A4_U+30E4_U+30FC 1
370
     0
100
AcDbVertex
100
AcDb2dVertex
 10
97.74976126028479
 20
-158.6425129811727
 30
0.0
  0
VERTEX
  5
D4
330
CB
100
AcDbEntity
  8
_U+30EC_U+30A4_U+30E4_U+30FC 1
370
     0
100
AcDbVertex
100
AcDb2dVertex
 10
98.42121037035999
 20
-158.9735866573052
 30
0.0
  0
VERTEX
  5
D5
330
CB
100
AcDbEntity
  8
_U+30EC_U+30A4_U+30E4_U+30FC 1
370
     0
100
AcDbVertex
100
AcDb2dVertex
 10
98.69922957601965
 20
-158.4103135454669
 30
0.0
  0
VERTEX
  5
D6
330
CB
100
AcDbEntity
  8
_U+30EC_U+30A4_U+30E4_U+30FC 1
370
     0
100
AcDbVertex
100
AcDb2dVertex
 10
98.9097249101684
 20
-158.5140109195729
 30
0.0
  0
VERTEX
  5
D7
330
CB
100
AcDbEntity
  8
_U+30EC_U+30A4_U+30E4_U+30FC 1
370
     0
100
AcDbVertex
100
AcDb2dVertex
 10
98.22673473021763
 20
-159.8992838141918
 30
0.0
  0
VERTEX
  5
D8
330
CB
100
AcDbEntity
  8
_U+30EC_U+30A4_U+30E4_U+30FC 1
370
     0
100
AcDbVertex
100
AcDb2dVertex
 10
98.0160671412946
 20
-159.7955864400858
 30
0.0
  0
SEQEND
  5
D9
330
CB
100
AcDbEntity
  8
_U+30EC_U+30A4_U+30E4_U+30FC 1
370
     0
  0
HATCH
  5
DA
330
B2
100
AcDbEntity
  8
_U+30EC_U+30A4_U+30E4_U+30FC 1
 62
   179
420
  2234388
100
AcDbHatch
 10
0.0
 20
0.0
 30
0.0
210
0.0
220
0.0
230
1.0
  2
SOLID
 70
     1
 71
     0
 91
        1
 92
        1
 93
       12
 72
     1
 10
98.0160671412946
 20
-159.7955864400858
 11
98.32767602793545
 21
-159.163755928091
 72
     1
 10
98.32767602793545
 20
-159.163755928091
 11
97.65622691786025
 21
-158.83233774241
 72
     1
 10
97.65622691786025
 20
-158.83233774241
 11
97.34461803121941
 21
-159.4641682544048
 72
     1
 10
97.34461803121941
 20
-159.4641682544048
 11
97.13395044229638
 21
-159.3604708802988
 72
     1
 10
97.13395044229638
 20
-159.3604708802988
 11
97.81694062224716
 21
-157.9751979856798
 72
     1
 10
97.81694062224716
 20
-157.9751979856798
 11
98.02778046594445
 21
-158.0792398693344
 72
     1
 10
98.02778046594445
 20
-158.0792398693344
 11
97.74976126028479
 21
-158.6425129811727
 72
     1
 10
97.74976126028479
 20
-158.6425129811727
 11
98.42121037035999
 21
-158.9735866573052
 72
     1
 10
98.42121037035999
 20
-158.9735866573052
 11
98.69922957601965
 21
-158.4103135454669
 72
     1
 10
98.69922957601965
 20
-158.4103135454669
 11
98.9097249101684
 21
-158.5140109195729
 72
     1
 10
98.9097249101684
 20
-158.5140109195729
 11
98.22673473021763
 21
-159.8992838141918
 72
     1
 10
98.22673473021763
 20
-159.8992838141918
 11
98.0160671412946
 21
-159.7955864400858
 97
        0
 75
     2
 76
     1
 98
        0
  0
SPLINE
  5
DB
330
B2
100
AcDbEntity
  8
_U+30EC_U+30A4_U+30E4_U+30FC 1
370
     0
100
AcDbSpline
210
0.0
220
0.0
230
1.0
 70
    11
 71
     3
 72
    26
 73
    22
 74
     0
 42
0.0000000001
 43
0.0000000001
 12
1.0
 22
0.0
 32
0.0
 13
1.0
 23
0.0
 33
0.0
 40
0.0
 40
0.0
 40
0.0
 40
0.0
 40
1.0
 40
1.0
 40
1.0
 40
2.0
 40
2.0
 40
2.0
 40
3.0
 40
3.0
 40
3.0
 40
4.0
 40
4.0
 40
4.0
 40
5.0
 40
5.0
 40
5.0
 40
6.0
 40
6.0
 40
6.0
 40
7.0
 40
7.0
 40
7.0
 40
7.0
 10
99.18550480376265
 20
-160.3722954243167
 30
0.0
 10
99.18550480376265
 20
-160.3722954243167
 30
0.0
 10
98.57468937422786
 20
-160.0708495693573
 30
0.0
 10
98.57468937422786
 20
-160.0708495693573
 30
0.0
 10
98.57468937422786
 20
-160.0708495693573
 30
0.0
 10
99.25767955417864
 20
-158.6855766747383
 30
0.0
 10
99.25767955417864
 20
-158.6855766747383
 30
0.0
 10
99.25767955417864
 20
-158.6855766747383
 30
0.0
 10
99.85712616861211
 20
-158.9811658673728
 30
0.0
 10
99.85712616861211
 20
-158.9811658673728
 30
0.0
 10
100.0490179871405
 20
-159.0759059932171
 30
0.0
 10
100.1919894497784
 20
-159.2691758499397
 30
0.0
 10
100.0731336555373
 20
-159.5103325339072
 30
0.0
 10
99.96840275278568
 20
-159.7225504157985
 30
0.0
 10
99.79029131619826
 20
-159.714971205731
 30
0.0
 10
99.71639401803965
 20
-159.7115261102457
 30
0.0
 10
99.77168780057792
 20
-159.7576903897481
 30
0.0
 10
99.95014374671386
 20
-159.9120306674873
 30
0.0
 10
99.81544051324059
 20
-160.1848822299191
 30
0.0
 10
99.7134656868772
 20
-160.3919324685826
 30
0.0
 10
99.47592635316921
 20
-160.5152668869545
 30
0.0
 10
99.18550480376265
 20
-160.3722954243167
 30
0.0
  0
SPLINE
  5
DC
330
B2
100
AcDbEntity
  8
_U+30EC_U+30A4_U+30E4_U+30FC 1
370
     0
100
AcDbSpline
210
0.0
220
0.0
230
1.0
 70
    11
 71
     3
 72
    20
 73
    16
 74
     0
 42
0.0000000001
 43
0.0000000001
 12
1.0
 22
0.0
 32
0.0
 13
1.0
 23
0.0
 33
0.0
 40
0.0
 40
0.0
 40
0.0
 40
0.0
 40
1.0
 40
1.0
 40
1.0
 40
2.0
 40
2.0
 40
2.0
 40
3.0
 40
3.0
 40
3.0
 40
4.0
 40
4.0
 40
4.0
 40
5.0
 40
5.0
 40
5.0
 40
5.0
 10
99.47058645516708
 20
-159.7273735494779
 30
0.0
 10
99.47058645516708
 20
-159.7273735494779
 30
0.0
 10
99.09696584979173
 20
-159.543060941017
 30
0.0
 10
99.09696584979173
 20
-159.543060941017
 30
0.0
 10
99.09696584979173
 20
-159.543060941017
 30
0.0
 10
98.87906356034968
 20
-159.9850666917746
 30
0.0
 10
98.87906356034968
 20
-159.9850666917746
 30
0.0
 10
98.87906356034968
 20
-159.9850666917746
 30
0.0
 10
99.25251191095076
 20
-160.1693793002354
 30
0.0
 10
99.25251191095076
 20
-160.1693793002354
 30
0.0
 10
99.3951388640401
 20
-160.2396592481345
 30
0.0
 10
99.53380395732141
 20
-160.2065863314761
 30
0.0
 10
99.60391165044625
 20
-160.0643038879353
 30
0.0
 10
99.66488984053517
 20
-159.9409694695634
 30
0.0
 10
99.62630477110038
 20
-159.8038546692504
 30
0.0
 10
99.47058645516708
 20
-159.7273735494779
 30
0.0
  0
SPLINE
  5
DD
330
B2
100
AcDbEntity
  8
_U+30EC_U+30A4_U+30E4_U+30FC 1
370
     0
100
AcDbSpline
210
0.0
220
0.0
230
1.0
 70
    11
 71
     3
 72
    20
 73
    16
 74
     0
 42
0.0000000001
 43
0.0000000001
 12
1.0
 22
0.0
 32
0.0
 13
1.0
 23
0.0
 33
0.0
 40
0.0
 40
0.0
 40
0.0
 40
0.0
 40
1.0
 40
1.0
 40
1.0
 40
2.0
 40
2.0
 40
2.0
 40
3.0
 40
3.0
 40
3.0
 40
4.0
 40
4.0
 40
4.0
 40
5.0
 40
5.0
 40
5.0
 40
5.0
 10
99.7010633431303
 20
-159.1403292787913
 30
0.0
 10
99.7010633431303
 20
-159.1403292787913
 30
0.0
 10
99.37481280067713
 20
-158.9794433196301
 30
0.0
 10
99.37481280067713
 20
-158.9794433196301
 30
0.0
 10
99.37481280067713
 20
-158.9794433196301
 30
0.0
 10
99.19050019221626
 20
-159.3532361797797
 30
0.0
 10
99.19050019221626
 20
-159.3532361797797
 30
0.0
 10
99.19050019221626
 20
-159.3532361797797
 30
0.0
 10
99.51675073466943
 20
-159.5141221389409
 30
0.0
 10
99.51675073466943
 20
-159.5141221389409
 30
0.0
 10
99.64215221033253
 20
-159.5757893481269
 30
0.0
 10
99.76686466689857
 20
-159.5757893481269
 30
0.0
 10
99.83507755750651
 20
-159.4372965096198
 30
0.0
 10
99.90897485566512
 20
-159.28777936556
 30
0.0
 10
99.80544973633336
 20
-159.1916612015215
 30
0.0
 10
99.7010633431303
 20
-159.1403292787913
 30
0.0
  0
HATCH
  5
DE
330
B2
100
AcDbEntity
  8
_U+30EC_U+30A4_U+30E4_U+30FC 1
 62
   179
420
  2234388
100
AcDbHatch
 10
0.0
 20
0.0
 30
0.0
210
0.0
220
0.0
230
1.0
  2
SOLID
 70
     1
 71
     0
 91
        3
 92
        1
 93
        1
 72
     4
 94
        3
 73
     0
 74
     1
 95
       26
 96
       22
 40
0.0
 40
0.0
 40
0.0
 40
0.0
 40
1.0
 40
1.0
 40
1.0
 40
2.0
 40
2.0
 40
2.0
 40
3.0
 40
3.0
 40
3.0
 40
4.0
 40
4.0
 40
4.0
 40
5.0
 40
5.0
 40
5.0
 40
6.0
 40
6.0
 40
6.0
 40
7.0
 40
7.0
 40
7.0
 40
7.0
 10
99.18550480376265
 20
-160.3722954243167
 10
99.18550480376265
 20
-160.3722954243167
 10
98.57468937422786
 20
-160.0708495693573
 10
98.57468937422786
 20
-160.0708495693573
 10
98.57468937422786
 20
-160.0708495693573
 10
99.25767955417864
 20
-158.6855766747383
 10
99.25767955417864
 20
-158.6855766747383
 10
99.25767955417864
 20
-158.6855766747383
 10
99.85712616861211
 20
-158.9811658673728
 10
99.85712616861211
 20
-158.9811658673728
 10
100.0490179871405
 20
-159.0759059932171
 10
100.1919894497784
 20
-159.2691758499397
 10
100.0731336555373
 20
-159.5103325339072
 10
99.96840275278568
 20
-159.7225504157985
 10
99.79029131619826
 20
-159.714971205731
 10
99.71639401803965
 20
-159.7115261102457
 10
99.77168780057792
 20
-159.7576903897481
 10
99.95014374671386
 20
-159.9120306674873
 10
99.81544051324059
 20
-160.1848822299191
 10
99.7134656868772
 20
-160.3919324685826
 10
99.47592635316921
 20
-160.5152668869545
 10
99.18550480376265
 20
-160.3722954243167
 97
        0
 97
        0
 92
        1
 93
        1
 72
     4
 94
        3
 73
     0
 74
     1
 95
       20
 96
       16
 40
0.0
 40
0.0
 40
0.0
 40
0.0
 40
1.0
 40
1.0
 40
1.0
 40
2.0
 40
2.0
 40
2.0
 40
3.0
 40
3.0
 40
3.0
 40
4.0
 40
4.0
 40
4.0
 40
5.0
 40
5.0
 40
5.0
 40
5.0
 10
99.47058645516708
 20
-159.7273735494779
 10
99.47058645516708
 20
-159.7273735494779
 10
99.09696584979173
 20
-159.543060941017
 10
99.09696584979173
 20
-159.543060941017
 10
99.09696584979173
 20
-159.543060941017
 10
98.87906356034968
 20
-159.9850666917746
 10
98.87906356034968
 20
-159.9850666917746
 10
98.87906356034968
 20
-159.9850666917746
 10
99.25251191095076
 20
-160.1693793002354
 10
99.25251191095076
 20
-160.1693793002354
 10
99.3951388640401
 20
-160.2396592481345
 10
99.53380395732141
 20
-160.2065863314761
 10
99.60391165044625
 20
-160.0643038879353
 10
99.66488984053517
 20
-159.9409694695634
 10
99.62630477110038
 20
-159.8038546692504
 10
99.47058645516708
 20
-159.7273735494779
 97
        0
 97
        0
 92
        1
 93
        1
 72
     4
 94
        3
 73
     0
 74
     1
 95
       20
 96
       16
 40
0.0
 40
0.0
 40
0.0
 40
0.0
 40
1.0
 40
1.0
 40
1.0
 40
2.0
 40
2.0
 40
2.0
 40
3.0
 40
3.0
 40
3.0
 40
4.0
 40
4.0
 40
4.0
 40
5.0
 40
5.0
 40
5.0
 40
5.0
 10
99.7010633431303
 20
-159.1403292787913
 10
99.7010633431303
 20
-159.1403292787913
 10
99.37481280067713
 20
-158.9794433196301
 10
99.37481280067713
 20
-158.9794433196301
 10
99.37481280067713
 20
-158.9794433196301
 10
99.19050019221626
 20
-159.3532361797797
 10
99.19050019221626
 20
-159.3532361797797
 10
99.19050019221626
 20
-159.3532361797797
 10
99.51675073466943
 20
-159.5141221389409
 10
99.51675073466943
 20
-159.5141221389409
 10
99.64215221033253
 20
-159.5757893481269
 10
99.76686466689857
 20
-159.5757893481269
 10
99.83507755750651
 20
-159.4372965096198
 10
99.90897485566512
 20
-159.28777936556
 10
99.80544973633336
 20
-159.1916612015215
 10
99.7010633431303
 20
-159.1403292787913
 97
        0
 97
        0
 75
     2
 76
     1
 98
        0
  0
ENDBLK
  5
B5
330
B2
100
AcDbEntity
  8
0
100
AcDbBlockEnd
  0
ENDSEC
  0
SECTION
  2
ENTITIES
  0
INSERT
  5
42
330
1F
100
AcDbEntity
  8
_U+30EC_U+30A4_U+30E4_U+30FC 1
100
AcDbBlockReference
  2
block 2
 10
0.0
 20
0.0
 30
0.0
  0
INSERT
  5
86
330
1F
100
AcDbEntity
  8
_U+30EC_U+30A4_U+30E4_U+30FC 1
100
AcDbBlockReference
  2
block 3
 10
0.0
 20
0.0
 30
0.0
  0
INSERT
  5
B3
330
1F
100
AcDbEntity
  8
_U+30EC_U+30A4_U+30E4_U+30FC 1
100
AcDbBlockReference
  2
block 4
 10
0.0
 20
0.0
 30
0.0
  0
SPLINE
  5
DF
330
1F
100
AcDbEntity
  8
_U+30EC_U+30A4_U+30E4_U+30FC 1
 62
   179
420
  2234388
370
    15
100
AcDbSpline
210
0.0
220
0.0
230
1.0
 70
     8
 71
     3
 72
     8
 73
     4
 74
     0
 42
0.0000000001
 43
0.0000000001
 12
1.0
 22
0.0
 32
0.0
 13
1.0
 23
0.0
 33
0.0
 40
0.0
 40
0.0
 40
0.0
 40
0.0
 40
1.0
 40
1.0
 40
1.0
 40
1.0
 10
89.55024021876913
 20
-152.2836310959623
 30
0.0
 10
90.63220475368202
 20
-152.1273529520126
 30
0.0
 10
91.41960285868265
 20
-150.6844931331731
 30
0.0
 10
91.33070862923981
 20
-149.2003567640508
 30
0.0
  0
SPLINE
  5
E0
330
1F
100
AcDbEntity
  8
_U+30EC_U+30A4_U+30E4_U+30FC 1
 62
   179
420
  2234388
370
    15
100
AcDbSpline
210
0.0
220
0.0
230
1.0
 70
     8
 71
     3
 72
     8
 73
     4
 74
     0
 42
0.0000000001
 43
0.0000000001
 12
1.0
 22
0.0
 32
0.0
 13
1.0
 23
0.0
 33
0.0
 40
0.0
 40
0.0
 40
0.0
 40
0.0
 40
1.0
 40
1.0
 40
1.0
 40
1.0
 10
102.68877933902
 20
-158.7735342688461
 30
0.0
 10
103.4236074401
 20
-158.3237447554766
 30
0.0
 10
103.7040705103696
 20
-157.0145869392348
 30
0.0
 10
103.2616879522933
 20
-155.0933648463449
 30
0.0
  0
POLYLINE
  5
E1
330
1F
100
AcDbEntity
  8
_U+30EC_U+30A4_U+30E4_U+30FC 1
 62
   179
420
  2234388
370
    15
100
AcDb2dPolyline
 66
     1
 10
0.0
 20
0.0
 30
0.0
  0
VERTEX
  5
E2
330
E1
100
AcDbEntity
  8
_U+30EC_U+30A4_U+30E4_U+30FC 1
 62
   179
420
  2234388
370
    15
100
AcDbVertex
100
AcDb2dVertex
 10
102.3831993694783
 20
-159.3027009353805
 30
0.0
  0
VERTEX
  5
E3
330
E1
100
AcDbEntity
  8
_U+30EC_U+30A4_U+30E4_U+30FC 1
 62
   179
420
  2234388
370
    15
100
AcDbVertex
100
AcDb2dVertex
 10
89.24504782246956
 20
-152.8130023150411
 30
0.0
  0
VERTEX
  5
E4
330
E1
100
AcDbEntity
  8
_U+30EC_U+30A4_U+30E4_U+30FC 1
 62
   179
420
  2234388
370
    15
100
AcDbVertex
100
AcDb2dVertex
 10
89.55019715507557
 20
-152.2838356485067
 30
0.0
  0
SEQEND
  5
E5
330
E1
100
AcDbEntity
  8
_U+30EC_U+30A4_U+30E4_U+30FC 1
 62
   179
420
  2234388
370
    15
  0
POLYLINE
  5
E6
330
1F
100
AcDbEntity
  8
_U+30EC_U+30A4_U+30E4_U+30FC 1
 62
   179
420
  2234388
370
    15
100
AcDb2dPolyline
 66
     1
 10
0.0
 20
0.0
 30
0.0
  0
VERTEX
  5
E7
330
E6
100
AcDbEntity
  8
_U+30EC_U+30A4_U+30E4_U+30FC 1
 62
   179
420
  2234388
370
    15
100
AcDbVertex
100
AcDb2dVertex
 10
89.55024021876913
 20
-152.2836310959623
 30
0.0
  0
VERTEX
  5
E8
330
E6
100
AcDbEntity
  8
_U+30EC_U+30A4_U+30E4_U+30FC 1
 62
   179
420
  2234388
370
    15
100
AcDbVertex
100
AcDb2dVertex
 10
102.6887362753261
 20
-158.7733404822251
 30
0.0
  0
SEQEND
  5
E9
330
E6
100
AcDbEntity
  8
_U+30EC_U+30A4_U+30E4_U+30FC 1
 62
   179
420
  2234388
370
    15
  0
POLYLINE
  5
EA
330
1F
100
AcDbEntity
  8
_U+30EC_U+30A4_U+30E4_U+30FC 1
 62
   179
420
  2234388
370
    15
100
AcDb2dPolyline
 66
     1
 10
0.0
 20
0.0
 30
0.0
  0
VERTEX
  5
EB
330
EA
100
AcDbEntity
  8
_U+30EC_U+30A4_U+30E4_U+30FC 1
 62
   179
420
  2234388
370
    15
100
AcDbVertex
100
AcDb2dVertex
 10
103.2616879522933
 20
-154.414056612194
 30
0.0
  0
VERTEX
  5
EC
330
EA
100
AcDbEntity
  8
_U+30EC_U+30A4_U+30E4_U+30FC 1
 62
   179
420
  2234388
370
    15
100
AcDbVertex
100
AcDb2dVertex
 10
91.63589025961599
 20
-148.6711900975164
 30
0.0
  0
VERTEX
  5
ED
330
EA
100
AcDbEntity
  8
_U+30EC_U+30A4_U+30E4_U+30FC 1
 62
   179
420
  2234388
370
    15
100
AcDbVertex
100
AcDb2dVertex
 10
91.33074092700998
 20
-149.2003567640508
 30
0.0
  0
SEQEND
  5
EE
330
EA
100
AcDbEntity
  8
_U+30EC_U+30A4_U+30E4_U+30FC 1
 62
   179
420
  2234388
370
    15
  0
POLYLINE
  5
EF
330
1F
100
AcDbEntity
  8
_U+30EC_U+30A4_U+30E4_U+30FC 1
 62
   179
420
  2234388
370
    15
100
AcDb2dPolyline
 66
     1
 10
0.0
 20
0.0
 30
0.0
  0
VERTEX
  5
F0
330
EF
100
AcDbEntity
  8
_U+30EC_U+30A4_U+30E4_U+30FC 1
 62
   179
420
  2234388
370
    15
100
AcDbVertex
100
AcDb2dVertex
 10
91.33064403369978
 20
-149.2002383388935
 30
0.0
  0
VERTEX
  5
F1
330
EF
100
AcDbEntity
  8
_U+30EC_U+30A4_U+30E4_U+30FC 1
 62
   179
420
  2234388
370
    15
100
AcDbVertex
100
AcDb2dVertex
 10
103.2615802930594
 20
-155.0933971441151
 30
0.0
  0
SEQEND
  5
F2
330
EF
100
AcDbEntity
  8
_U+30EC_U+30A4_U+30E4_U+30FC 1
 62
   179
420
  2234388
370
    15
  0
POLYLINE
  5
F3
330
1F
100
AcDbEntity
  8
_U+30EC_U+30A4_U+30E4_U+30FC 1
 62
   179
420
  2234388
370
    15
100
AcDb2dPolyline
 66
     1
 10
0.0
 20
0.0
 30
0.0
  0
VERTEX
  5
F4
330
F3
100
AcDbEntity
  8
_U+30EC_U+30A4_U+30E4_U+30FC 1
 62
   179
420
  2234388
370
    15
100
AcDbVertex
100
AcDb2dVertex
 10
90.12762745617361
 20
-152.0597214212679
 30
0.0
  0
VERTEX
  5
F5
330
F3
100
AcDbEntity
  8
_U+30EC_U+30A4_U+30E4_U+30FC 1
 62
   179
420
  2234388
370
    15
100
AcDbVertex
100
AcDb2dVertex
 10
89.01602433416419
 20
-151.5097442248179
 30
0.0
  0
VERTEX
  5
F6
330
F3
100
AcDbEntity
  8
_U+30EC_U+30A4_U+30E4_U+30FC 1
 62
   179
420
  2234388
370
    15
100
AcDbVertex
100
AcDb2dVertex
 10
89.24497246100582
 20
-152.8129054217306
 30
0.0
  0
SEQEND
  5
F7
330
F3
100
AcDbEntity
  8
_U+30EC_U+30A4_U+30E4_U+30FC 1
 62
   179
420
  2234388
370
    15
  0
POLYLINE
  5
F8
330
1F
100
AcDbEntity
  8
_U+30EC_U+30A4_U+30E4_U+30FC 1
 62
   179
420
  2234388
370
    15
100
AcDb2dPolyline
 66
     1
 10
0.0
 20
0.0
 30
0.0
  0
VERTEX
  5
F9
330
F8
100
AcDbEntity
  8
_U+30EC_U+30A4_U+30E4_U+30FC 1
 62
   179
420
  2234388
370
    15
100
AcDbVertex
100
AcDb2dVertex
 10
91.63590102553938
 20
-148.6710716723595
 30
0.0
  0
VERTEX
  5
FA
330
F8
100
AcDbEntity
  8
_U+30EC_U+30A4_U+30E4_U+30FC 1
 62
   179
420
  2234388
370
    15
100
AcDbVertex
100
AcDb2dVertex
 10
90.33767062153994
 20
-149.2196492987682
 30
0.0
  0
VERTEX
  5
FB
330
F8
100
AcDbEntity
  8
_U+30EC_U+30A4_U+30E4_U+30FC 1
 62
   179
420
  2234388
370
    15
100
AcDbVertex
100
AcDb2dVertex
 10
91.31628229189532
 20
-149.7004877351986
 30
0.0
  0
SEQEND
  5
FC
330
F8
100
AcDbEntity
  8
_U+30EC_U+30A4_U+30E4_U+30FC 1
 62
   179
420
  2234388
370
    15
  0
SPLINE
  5
FD
330
1F
100
AcDbEntity
  8
_U+30EC_U+30A4_U+30E4_U+30FC 1
 62
   179
420
  2234388
370
    15
100
AcDbSpline
210
0.0
220
0.0
230
1.0
 70
     8
 71
     3
 72
     8
 73
     4
 74
     0
 42
0.0000000001
 43
0.0000000001
 12
1.0
 22
0.0
 32
0.0
 13
1.0
 23
0.0
 33
0.0
 40
0.0
 40
0.0
 40
0.0
 40
0.0
 40
1.0
 40
1.0
 40
1.0
 40
1.0
 10
120.2656457388409
 20
-152.2836310959623
 30
0.0
 10
119.1836704380047
 20
-152.1266531669922
 30
0.0
 10
118.396272333004
 20
-150.6837933481526
 30
0.0
 10
118.4851665624468
 20
-149.2003567640508
 30
0.0
  0
SPLINE
  5
FE
330
1F
100
AcDbEntity
  8
_U+30EC_U+30A4_U+30E4_U+30FC 1
 62
   179
420
  2234388
370
    15
100
AcDbSpline
210
0.0
220
0.0
230
1.0
 70
     8
 71
     3
 72
     8
 73
     4
 74
     0
 42
0.0000000001
 43
0.0000000001
 12
1.0
 22
0.0
 32
0.0
 13
1.0
 23
0.0
 33
0.0
 40
0.0
 40
0.0
 40
0.0
 40
0.0
 40
1.0
 40
1.0
 40
1.0
 40
1.0
 10
107.1271066185904
 20
-158.7728344838257
 30
0.0
 10
106.3922677515866
 20
-158.3237555214
 30
0.0
 10
106.1118046813171
 20
-157.0145977051583
 30
0.0
 10
106.5541872393934
 20
-155.0933648463449
 30
0.0
  0
POLYLINE
  5
FF
330
1F
100
AcDbEntity
  8
_U+30EC_U+30A4_U+30E4_U+30FC 1
 62
   179
420
  2234388
370
    15
100
AcDb2dPolyline
 66
     1
 10
0.0
 20
0.0
 30
0.0
  0
VERTEX
  5
100
330
FF
100
AcDbEntity
  8
_U+30EC_U+30A4_U+30E4_U+30FC 1
 62
   179
420
  2234388
370
    15
100
AcDbVertex
100
AcDb2dVertex
 10
107.4326865881321
 20
-159.3027009353805
 30
0.0
  0
VERTEX
  5
101
330
FF
100
AcDbEntity
  8
_U+30EC_U+30A4_U+30E4_U+30FC 1
 62
   179
420
  2234388
370
    15
100
AcDbVertex
100
AcDb2dVertex
 10
120.5708273692171
 20
-152.8123025300207
 30
0.0
  0
VERTEX
  5
102
330
FF
100
AcDbEntity
  8
_U+30EC_U+30A4_U+30E4_U+30FC 1
 62
   179
420
  2234388
370
    15
100
AcDbVertex
100
AcDb2dVertex
 10
120.2656780366111
 20
-152.2838356485067
 30
0.0
  0
SEQEND
  5
103
330
FF
100
AcDbEntity
  8
_U+30EC_U+30A4_U+30E4_U+30FC 1
 62
   179
420
  2234388
370
    15
  0
POLYLINE
  5
104
330
1F
100
AcDbEntity
  8
_U+30EC_U+30A4_U+30E4_U+30FC 1
 62
   179
420
  2234388
370
    15
100
AcDb2dPolyline
 66
     1
 10
0.0
 20
0.0
 30
0.0
  0
VERTEX
  5
105
330
104
100
AcDbEntity
  8
_U+30EC_U+30A4_U+30E4_U+30FC 1
 62
   179
420
  2234388
370
    15
100
AcDbVertex
100
AcDb2dVertex
 10
120.2656457388409
 20
-152.2836310959623
 30
0.0
  0
VERTEX
  5
106
330
104
100
AcDbEntity
  8
_U+30EC_U+30A4_U+30E4_U+30FC 1
 62
   179
420
  2234388
370
    15
100
AcDbVertex
100
AcDb2dVertex
 10
107.1271389163606
 20
-158.7729852067532
 30
0.0
  0
SEQEND
  5
107
330
104
100
AcDbEntity
  8
_U+30EC_U+30A4_U+30E4_U+30FC 1
 62
   179
420
  2234388
370
    15
  0
POLYLINE
  5
108
330
1F
100
AcDbEntity
  8
_U+30EC_U+30A4_U+30E4_U+30FC 1
 62
   179
420
  2234388
370
    15
100
AcDb2dPolyline
 66
     1
 10
0.0
 20
0.0
 30
0.0
  0
VERTEX
  5
109
330
108
100
AcDbEntity
  8
_U+30EC_U+30A4_U+30E4_U+30FC 1
 62
   179
420
  2234388
370
    15
100
AcDbVertex
100
AcDb2dVertex
 10
106.5541980053167
 20
-154.4134214227139
 30
0.0
  0
VERTEX
  5
10A
330
108
100
AcDbEntity
  8
_U+30EC_U+30A4_U+30E4_U+30FC 1
 62
   179
420
  2234388
370
    15
100
AcDbVertex
100
AcDb2dVertex
 10
118.1799849320707
 20
-148.6712654589802
 30
0.0
  0
VERTEX
  5
10B
330
108
100
AcDbEntity
  8
_U+30EC_U+30A4_U+30E4_U+30FC 1
 62
   179
420
  2234388
370
    15
100
AcDbVertex
100
AcDb2dVertex
 10
118.4851342646767
 20
-149.2004321255146
 30
0.0
  0
SEQEND
  5
10C
330
108
100
AcDbEntity
  8
_U+30EC_U+30A4_U+30E4_U+30FC 1
 62
   179
420
  2234388
370
    15
  0
POLYLINE
  5
10D
330
1F
100
AcDbEntity
  8
_U+30EC_U+30A4_U+30E4_U+30FC 1
 62
   179
420
  2234388
370
    15
100
AcDb2dPolyline
 66
     1
 10
0.0
 20
0.0
 30
0.0
  0
VERTEX
  5
10E
330
10D
100
AcDbEntity
  8
_U+30EC_U+30A4_U+30E4_U+30FC 1
 62
   179
420
  2234388
370
    15
100
AcDbVertex
100
AcDb2dVertex
 10
118.485252689834
 20
-149.2002383388935
 30
0.0
  0
VERTEX
  5
10F
330
10D
100
AcDbEntity
  8
_U+30EC_U+30A4_U+30E4_U+30FC 1
 62
   179
420
  2234388
370
    15
100
AcDbVertex
100
AcDb2dVertex
 10
106.5543056645507
 20
-155.0933971441151
 30
0.0
  0
SEQEND
  5
110
330
10D
100
AcDbEntity
  8
_U+30EC_U+30A4_U+30E4_U+30FC 1
 62
   179
420
  2234388
370
    15
  0
POLYLINE
  5
111
330
1F
100
AcDbEntity
  8
_U+30EC_U+30A4_U+30E4_U+30FC 1
 62
   179
420
  2234388
370
    15
100
AcDb2dPolyline
 66
     1
 10
0.0
 20
0.0
 30
0.0
  0
VERTEX
  5
112
330
111
100
AcDbEntity
  8
_U+30EC_U+30A4_U+30E4_U+30FC 1
 62
   179
420
  2234388
370
    15
100
AcDbVertex
100
AcDb2dVertex
 10
119.6882585014365
 20
-152.0590431680942
 30
0.0
  0
VERTEX
  5
113
330
111
100
AcDbEntity
  8
_U+30EC_U+30A4_U+30E4_U+30FC 1
 62
   179
420
  2234388
370
    15
100
AcDbVertex
100
AcDb2dVertex
 10
120.7998508575225
 20
-151.5090659716442
 30
0.0
  0
VERTEX
  5
114
330
111
100
AcDbEntity
  8
_U+30EC_U+30A4_U+30E4_U+30FC 1
 62
   179
420
  2234388
370
    15
100
AcDbVertex
100
AcDb2dVertex
 10
120.5709027306808
 20
-152.8122271685569
 30
0.0
  0
SEQEND
  5
115
330
111
100
AcDbEntity
  8
_U+30EC_U+30A4_U+30E4_U+30FC 1
 62
   179
420
  2234388
370
    15
  0
POLYLINE
  5
116
330
1F
100
AcDbEntity
  8
_U+30EC_U+30A4_U+30E4_U+30FC 1
 62
   179
420
  2234388
370
    15
100
AcDb2dPolyline
 66
     1
 10
0.0
 20
0.0
 30
0.0
  0
VERTEX
  5
117
330
116
100
AcDbEntity
  8
_U+30EC_U+30A4_U+30E4_U+30FC 1
 62
   179
420
  2234388
370
    15
100
AcDbVertex
100
AcDb2dVertex
 10
118.1799956979941
 20
-148.6710716723595
 30
0.0
  0
VERTEX
  5
118
330
116
100
AcDbEntity
  8
_U+30EC_U+30A4_U+30E4_U+30FC 1
 62
   179
420
  2234388
370
    15
100
AcDbVertex
100
AcDb2dVertex
 10
119.4782153360701
 20
-149.2196492987682
 30
0.0
  0
VERTEX
  5
119
330
116
100
AcDbEntity
  8
_U+30EC_U+30A4_U+30E4_U+30FC 1
 62
   179
420
  2234388
370
    15
100
AcDbVertex
100
AcDb2dVertex
 10
118.4996036657147
 20
-149.6997771842547
 30
0.0
  0
SEQEND
  5
11A
330
116
100
AcDbEntity
  8
_U+30EC_U+30A4_U+30E4_U+30FC 1
 62
   179
420
  2234388
370
    15
  0
POLYLINE
  5
11B
330
1F
100
AcDbEntity
  8
_U+30EC_U+30A4_U+30E4_U+30FC 1
 62
   179
420
  2234388
370
    15
100
AcDb2dPolyline
 66
     1
 10
0.0
 20
0.0
 30
0.0
  0
VERTEX
  5
11C
330
11B
100
AcDbEntity
  8
_U+30EC_U+30A4_U+30E4_U+30FC 1
 62
   179
420
  2234388
370
    15
100
AcDbVertex
100
AcDb2dVertex
 10
103.2616879522933
 20
-155.0934617396555
 30
0.0
  0
VERTEX
  5
11D
330
11B
100
AcDbEntity
  8
_U+30EC_U+30A4_U+30E4_U+30FC 1
 62
   179
420
  2234388
370
    15
100
AcDbVertex
100
AcDb2dVertex
 10
103.2616879522933
 20
-135.8303933545787
 30
0.0
  0
VERTEX
  5
11E
330
11B
100
AcDbEntity
  8
_U+30EC_U+30A4_U+30E4_U+30FC 1
 62
   179
420
  2234388
370
    15
100
AcDbVertex
100
AcDb2dVertex
 10
103.5618957260627
 20
-136.2745307581677
 30
0.0
  0
VERTEX
  5
11F
330
11B
100
AcDbEntity
  8
_U+30EC_U+30A4_U+30E4_U+30FC 1
 62
   179
420
  2234388
370
    15
100
AcDbVertex
100
AcDb2dVertex
 10
106.2539471678538
 20
-136.2745307581677
 30
0.0
  0
VERTEX
  5
120
330
11B
100
AcDbEntity
  8
_U+30EC_U+30A4_U+30E4_U+30FC 1
 62
   179
420
  2234388
370
    15
100
AcDbVertex
100
AcDb2dVertex
 10
106.5541549416232
 20
-135.8487384880376
 30
0.0
  0
VERTEX
  5
121
330
11B
100
AcDbEntity
  8
_U+30EC_U+30A4_U+30E4_U+30FC 1
 62
   179
420
  2234388
370
    15
100
AcDbVertex
100
AcDb2dVertex
 10
106.5541549416232
 20
-155.0934617396555
 30
0.0
  0
SEQEND
  5
122
330
11B
100
AcDbEntity
  8
_U+30EC_U+30A4_U+30E4_U+30FC 1
 62
   179
420
  2234388
370
    15
  0
POLYLINE
  5
123
330
1F
100
AcDbEntity
  8
_U+30EC_U+30A4_U+30E4_U+30FC 1
 62
   179
420
  2234388
370
    15
100
AcDb2dPolyline
 66
     1
 10
0.0
 20
0.0
 30
0.0
  0
VERTEX
  5
124
330
123
100
AcDbEntity
  8
_U+30EC_U+30A4_U+30E4_U+30FC 1
 62
   179
420
  2234388
370
    15
100
AcDbVertex
100
AcDb2dVertex
 10
103.5617665349823
 20
-136.2746384174016
 30
0.0
  0
VERTEX
  5
125
330
123
100
AcDbEntity
  8
_U+30EC_U+30A4_U+30E4_U+30FC 1
 62
   179
420
  2234388
370
    15
100
AcDbVertex
100
AcDb2dVertex
 10
103.5617665349823
 20
-155.44282671963
 30
0.0
  0
SEQEND
  5
126
330
123
100
AcDbEntity
  8
_U+30EC_U+30A4_U+30E4_U+30FC 1
 62
   179
420
  2234388
370
    15
  0
POLYLINE
  5
127
330
1F
100
AcDbEntity
  8
_U+30EC_U+30A4_U+30E4_U+30FC 1
 62
   179
420
  2234388
370
    15
100
AcDb2dPolyline
 66
     1
 10
0.0
 20
0.0
 30
0.0
  0
VERTEX
  5
128
330
127
100
AcDbEntity
  8
_U+30EC_U+30A4_U+30E4_U+30FC 1
 62
   179
420
  2234388
370
    15
100
AcDbVertex
100
AcDb2dVertex
 10
106.2541301885515
 20
-136.2746384174016
 30
0.0
  0
VERTEX
  5
129
330
127
100
AcDbEntity
  8
_U+30EC_U+30A4_U+30E4_U+30FC 1
 62
   179
420
  2234388
370
    15
100
AcDbVertex
100
AcDb2dVertex
 10
106.2541301885515
 20
-155.44282671963
 30
0.0
  0
SEQEND
  5
12A
330
127
100
AcDbEntity
  8
_U+30EC_U+30A4_U+30E4_U+30FC 1
 62
   179
420
  2234388
370
    15
  0
POLYLINE
  5
12B
330
1F
100
AcDbEntity
  8
_U+30EC_U+30A4_U+30E4_U+30FC 1
 62
   179
420
  2234388
370
    15
100
AcDb2dPolyline
 66
     1
 10
0.0
 20
0.0
 30
0.0
  0
VERTEX
  5
12C
330
12B
100
AcDbEntity
  8
_U+30EC_U+30A4_U+30E4_U+30FC 1
 62
   179
420
  2234388
370
    15
100
AcDbVertex
100
AcDb2dVertex
 10
102.3831993694783
 20
-159.3027009353805
 30
0.0
  0
VERTEX
  5
12D
330
12B
100
AcDbEntity
  8
_U+30EC_U+30A4_U+30E4_U+30FC 1
 62
   179
420
  2234388
370
    15
100
AcDbVertex
100
AcDb2dVertex
 10
107.4325035674344
 20
-159.3027009353805
 30
0.0
  0
SEQEND
  5
12E
330
12B
100
AcDbEntity
  8
_U+30EC_U+30A4_U+30E4_U+30FC 1
 62
   179
420
  2234388
370
    15
  0
POLYLINE
  5
12F
330
1F
100
AcDbEntity
  8
_U+30EC_U+30A4_U+30E4_U+30FC 1
 62
   179
420
  2234388
370
    15
100
AcDb2dPolyline
 66
     1
 10
0.0
 20
0.0
 30
0.0
  0
VERTEX
  5
130
330
12F
100
AcDbEntity
  8
_U+30EC_U+30A4_U+30E4_U+30FC 1
 62
   179
420
  2234388
370
    15
100
AcDbVertex
100
AcDb2dVertex
 10
102.68877933902
 20
-158.7735342688461
 30
0.0
  0
VERTEX
  5
131
330
12F
100
AcDbEntity
  8
_U+30EC_U+30A4_U+30E4_U+30FC 1
 62
   179
420
  2234388
370
    15
100
AcDbVertex
100
AcDb2dVertex
 10
107.1270743208202
 20
-158.7735342688461
 30
0.0
  0
SEQEND
  5
132
330
12F
100
AcDbEntity
  8
_U+30EC_U+30A4_U+30E4_U+30FC 1
 62
   179
420
  2234388
370
    15
  0
POLYLINE
  5
133
330
1F
100
AcDbEntity
  8
_U+30EC_U+30A4_U+30E4_U+30FC 1
 62
   179
420
  2234388
370
    15
100
AcDb2dPolyline
 66
     1
 10
0.0
 20
0.0
 30
0.0
  0
VERTEX
  5
134
330
133
100
AcDbEntity
  8
_U+30EC_U+30A4_U+30E4_U+30FC 1
 62
   179
420
  2234388
370
    15
100
AcDbVertex
100
AcDb2dVertex
 10
103.345436070355
 20
-155.4758781044416
 30
0.0
  0
VERTEX
  5
135
330
133
100
AcDbEntity
  8
_U+30EC_U+30A4_U+30E4_U+30FC 1
 62
   179
420
  2234388
370
    15
100
AcDbVertex
100
AcDb2dVertex
 10
106.4699869525492
 20
-155.4758781044416
 30
0.0
  0
SEQEND
  5
136
330
133
100
AcDbEntity
  8
_U+30EC_U+30A4_U+30E4_U+30FC 1
 62
   179
420
  2234388
370
    15
  0
POLYLINE
  5
137
330
1F
100
AcDbEntity
  8
_U+30EC_U+30A4_U+30E4_U+30FC 1
 62
   179
420
  2234388
370
    15
100
AcDb2dPolyline
 66
     1
 10
0.0
 20
0.0
 30
0.0
  0
VERTEX
  5
138
330
137
100
AcDbEntity
  8
_U+30EC_U+30A4_U+30E4_U+30FC 1
 62
   179
420
  2234388
370
    15
100
AcDbVertex
100
AcDb2dVertex
 10
102.3831993694783
 20
-159.3027009353805
 30
0.0
  0
VERTEX
  5
139
330
137
100
AcDbEntity
  8
_U+30EC_U+30A4_U+30E4_U+30FC 1
 62
   179
420
  2234388
370
    15
100
AcDbVertex
100
AcDb2dVertex
 10
102.6887039775559
 20
-158.7735342688461
 30
0.0
  0
SEQEND
  5
13A
330
137
100
AcDbEntity
  8
_U+30EC_U+30A4_U+30E4_U+30FC 1
 62
   179
420
  2234388
370
    15
  0
POLYLINE
  5
13B
330
1F
100
AcDbEntity
  8
_U+30EC_U+30A4_U+30E4_U+30FC 1
 62
   179
420
  2234388
370
    15
100
AcDb2dPolyline
 66
     1
 10
0.0
 20
0.0
 30
0.0
  0
VERTEX
  5
13C
330
13B
100
AcDbEntity
  8
_U+30EC_U+30A4_U+30E4_U+30FC 1
 62
   179
420
  2234388
370
    15
100
AcDbVertex
100
AcDb2dVertex
 10
107.4326865881321
 20
-159.3027009353805
 30
0.0
  0
VERTEX
  5
13D
330
13B
100
AcDbEntity
  8
_U+30EC_U+30A4_U+30E4_U+30FC 1
 62
   179
420
  2234388
370
    15
100
AcDbVertex
100
AcDb2dVertex
 10
107.1271712141308
 20
-158.7728344838257
 30
0.0
  0
SEQEND
  5
13E
330
13B
100
AcDbEntity
  8
_U+30EC_U+30A4_U+30E4_U+30FC 1
 62
   179
420
  2234388
370
    15
  0
POLYLINE
  5
13F
330
1F
100
AcDbEntity
  8
_U+30EC_U+30A4_U+30E4_U+30FC 1
 62
   179
420
  2234388
370
    15
100
AcDb2dPolyline
 66
     1
 10
0.0
 20
0.0
 30
0.0
  0
VERTEX
  5
140
330
13F
100
AcDbEntity
  8
_U+30EC_U+30A4_U+30E4_U+30FC 1
 62
   179
420
  2234388
370
    15
100
AcDbVertex
100
AcDb2dVertex
 10
105.7090837850148
 20
-136.2746384174016
 30
0.0
  0
VERTEX
  5
141
330
13F
100
AcDbEntity
  8
_U+30EC_U+30A4_U+30E4_U+30FC 1
 62
   179
420
  2234388
370
    15
100
AcDbVertex
100
AcDb2dVertex
 10
106.5543379623208
 20
-135.8488461472715
 30
0.0
  0
SEQEND
  5
142
330
13F
100
AcDbEntity
  8
_U+30EC_U+30A4_U+30E4_U+30FC 1
 62
   179
420
  2234388
370
    15
  0
POLYLINE
  5
143
330
1F
100
AcDbEntity
  8
_U+30EC_U+30A4_U+30E4_U+30FC 1
 62
   179
420
  2234388
370
    15
100
AcDb2dPolyline
 66
     1
 10
0.0
 20
0.0
 30
0.0
  0
VERTEX
  5
144
330
143
100
AcDbEntity
  8
_U+30EC_U+30A4_U+30E4_U+30FC 1
 62
   179
420
  2234388
370
    15
100
AcDbVertex
100
AcDb2dVertex
 10
104.1068021725953
 20
-136.2746384174016
 30
0.0
  0
VERTEX
  5
145
330
143
100
AcDbEntity
  8
_U+30EC_U+30A4_U+30E4_U+30FC 1
 62
   179
420
  2234388
370
    15
100
AcDbVertex
100
AcDb2dVertex
 10
103.2615372293658
 20
-135.8488461472715
 30
0.0
  0
SEQEND
  5
146
330
143
100
AcDbEntity
  8
_U+30EC_U+30A4_U+30E4_U+30FC 1
 62
   179
420
  2234388
370
    15
  0
ENDSEC
  0
SECTION
  2
OBJECTS
  0
DICTIONARY
  5
C
330
0
100
AcDbDictionary
281
     1
  3
ACAD_GROUP
350
D
  3
ACAD_LAYOUT
350
1A
  3
ACAD_MATERIAL
350
3B
  3
ACAD_MLEADERSTYLE
350
148
  3
ACAD_MLINESTYLE
350
17
  3
ACAD_PLOTSETTINGS
350
19
  3
ACAD_PLOTSTYLENAME
350
E
  3
ACAD_TABLESTYLE
350
147
  3
ACAD_VISUALSTYLE
350
2A
  0
SUN
  5
3F
330
29
100
AcDbSun
 90
        1
290
     0
 63
     7
421
 16777215
 40
1.0
291
     1
 91
  2455826
 92
 54000000
292
     0
 70
     2
 71
   256
280
     1
  0
DICTIONARY
  5
D
102
{ACAD_REACTORS
330
C
102
}
330
C
100
AcDbDictionary
281
     1
  0
DICTIONARY
  5
1A
102
{ACAD_REACTORS
330
C
102
}
330
C
100
AcDbDictionary
281
     1
  3
Layout1
350
1E
  3
Layout2
350
26
  3
Model
350
22
  0
DICTIONARY
  5
3B
102
{ACAD_REACTORS
330
C
102
}
330
C
100
AcDbDictionary
281
     1
  3
ByBlock
350
3D
  3
ByLayer
350
3C
  3
Global
350
3E
  0
DICTIONARY
  5
148
102
{ACAD_REACTORS
330
C
102
}
330
C
100
AcDbDictionary
281
     1
  0
DICTIONARY
  5
17
102
{ACAD_REACTORS
330
C
102
}
330
C
100
AcDbDictionary
281
     1
  3
Standard
350
18
  0
DICTIONARY
  5
19
102
{ACAD_REACTORS
330
C
102
}
330
C
100
AcDbDictionary
281
     1
  0
ACDBDICTIONARYWDFLT
  5
E
102
{ACAD_REACTORS
330
C
102
}
330
C
100
AcDbDictionary
281
     1
  3
Normal
350
F
100
AcDbDictionaryWithDefault
340
F
  0
DICTIONARY
  5
147
102
{ACAD_REACTORS
330
C
102
}
330
C
100
AcDbDictionary
281
     1
  0
DICTIONARY
  5
2A
102
{ACAD_REACTORS
330
C
102
}
330
C
100
AcDbDictionary
281
     1
  3
2dWireframe
350
2F
  3
3D Hidden
350
31
  3
3dWireframe
350
30
  3
Basic
350
32
  3
Brighten
350
36
  3
ColorChange
350
3A
  3
Conceptual
350
34
  3
Dim
350
35
  3
Facepattern
350
39
  3
Flat
350
2B
  3
FlatWithEdges
350
2C
  3
Gouraud
350
2D
  3
GouraudWithEdges
350
2E
  3
Linepattern
350
38
  3
Realistic
350
33
  3
Thicken
350
37
  0
LAYOUT
  5
1E
102
{ACAD_REACTORS
330
1A
102
}
330
1A
100
AcDbPlotSettings
  1

  2
none_device
  4

  6

 40
0.0
 41
0.0
 42
0.0
 43
0.0
 44
0.0
 45
0.0
 46
0.0
 47
0.0
 48
0.0
 49
0.0
140
0.0
141
0.0
142
1.0
143
1.0
 70
   688
 72
     0
 73
     0
 74
     5
  7

 75
    16
 76
     0
 77
     2
 78
   300
147
1.0
148
0.0
149
0.0
100
AcDbLayout
  1
Layout1
 70
     1
 71
     1
 10
0.0
 20
0.0
 11
12.0
 21
9.0
 12
0.0
 22
0.0
 32
0.0
 14
1.000000000000000E+20
 24
1.000000000000000E+20
 34
1.000000000000000E+20
 15
-1.000000000000000E+20
 25
-1.000000000000000E+20
 35
-1.000000000000000E+20
146
0.0
 13
0.0
 23
0.0
 33
0.0
 16
1.0
 26
0.0
 36
0.0
 17
0.0
 27
1.0
 37
0.0
 76
     0
330
1B
  0
LAYOUT
  5
26
102
{ACAD_REACTORS
330
1A
102
}
330
1A
100
AcDbPlotSettings
  1

  2
none_device
  4

  6

 40
0.0
 41
0.0
 42
0.0
 43
0.0
 44
0.0
 45
0.0
 46
0.0
 47
0.0
 48
0.0
 49
0.0
140
0.0
141
0.0
142
1.0
143
1.0
 70
   688
 72
     0
 73
     0
 74
     5
  7

 75
    16
 76
     0
 77
     2
 78
   300
147
1.0
148
0.0
149
0.0
100
AcDbLayout
  1
Layout2
 70
     1
 71
     2
 10
0.0
 20
0.0
 11
0.0
 21
0.0
 12
0.0
 22
0.0
 32
0.0
 14
0.0
 24
0.0
 34
0.0
 15
0.0
 25
0.0
 35
0.0
146
0.0
 13
0.0
 23
0.0
 33
0.0
 16
1.0
 26
0.0
 36
0.0
 17
0.0
 27
1.0
 37
0.0
 76
     0
330
23
  0
LAYOUT
  5
22
102
{ACAD_REACTORS
330
1A
102
}
330
1A
100
AcDbPlotSettings
  1

  2
none_device
  4

  6

 40
0.0
 41
0.0
 42
0.0
 43
0.0
 44
0.0
 45
0.0
 46
0.0
 47
0.0
 48
0.0
 49
0.0
140
0.0
141
0.0
142
1.0
143
1.0
 70
  1712
 72
     0
 73
     0
 74
     0
  7

 75
     0
 76
     0
 77
     2
 78
   300
147
1.0
148
0.0
149
0.0
100
AcDbLayout
  1
Model
 70
     1
 71
     0
 10
0.0
 20
0.0
 11
12.0
 21
9.0
 12
0.0
 22
0.0
 32
0.0
 14
1.000000000000000E+20
 24
1.000000000000000E+20
 34
1.000000000000000E+20
 15
-1.000000000000000E+20
 25
-1.000000000000000E+20
 35
-1.000000000000000E+20
146
0.0
 13
0.0
 23
0.0
 33
0.0
 16
1.0
 26
0.0
 36
0.0
 17
0.0
 27
1.0
 37
0.0
 76
     0
330
1F
331
29
  0
MATERIAL
  5
3D
102
{ACAD_REACTORS
330
3B
102
}
330
3B
100
AcDbMaterial
  1
ByBlock
 72
     1
 94
      127
  0
MATERIAL
  5
3C
102
{ACAD_REACTORS
330
3B
102
}
330
3B
100
AcDbMaterial
  1
ByLayer
 72
     1
 94
      127
  0
MATERIAL
  5
3E
102
{ACAD_REACTORS
330
3B
102
}
330
3B
100
AcDbMaterial
  1
Global
 72
     1
 94
      127
  0
MLINESTYLE
  5
18
102
{ACAD_REACTORS
330
17
102
}
330
17
100
AcDbMlineStyle
  2
Standard
 70
     0
  3

 62
   256
 51
90.0
 52
90.0
 71
     2
 49
0.5
 62
   256
  6
BYLAYER
 49
-0.5
 62
   256
  6
BYLAYER
  0
ACDBPLACEHOLDER
  5
F
102
{ACAD_REACTORS
330
E
102
}
330
E
  0
VISUALSTYLE
  5
2F
102
{ACAD_REACTORS
330
2A
102
}
330
2A
100
AcDbVisualStyle
  2
2dWireframe
 70
     4
177
     2
291
     0
 71
     0
176
     1
 72
     2
176
     1
 73
     0
176
     1
 90
        0
176
     1
 40
-0.6
176
     1
 41
-30.0
176
     1
 62
     5
 63
     7
421
 16777215
176
     1
 74
     1
176
     1
 91
        4
176
     1
 64
     7
176
     1
 65
   257
176
     1
 75
     1
176
     1
175
     1
176
     1
 42
1.0
176
     1
 92
        0
176
     1
 66
   257
176
     1
 43
1.0
176
     1
 76
     1
176
     1
 77
     6
176
     1
 78
     2
176
     1
 67
     7
176
     1
 79
     5
176
     1
170
     0
176
     1
171
     0
176
     1
290
     0
176
     1
 93
        1
176
     1
 44
0.0
176
     1
173
     0
176
     1
  0
VISUALSTYLE
  5
31
102
{ACAD_REACTORS
330
2A
102
}
330
2A
100
AcDbVisualStyle
  2
3D Hidden
 70
     6
177
     2
291
     0
 71
     1
176
     1
 72
     2
176
     1
 73
     2
176
     1
 90
        0
176
     1
 40
-0.6
176
     1
 41
-30.0
176
     1
 62
     5
 63
     7
421
 16777215
176
     1
 74
     2
176
     1
 91
        2
176
     1
 64
     7
176
     1
 65
   257
176
     1
 75
     2
176
     1
175
     1
176
     1
 42
40.0
176
     1
 92
        0
176
     1
 66
   257
176
     1
 43
1.0
176
     1
 76
     1
176
     1
 77
     6
176
     1
 78
     2
176
     1
 67
     7
176
     1
 79
     3
176
     1
170
     0
176
     1
171
     0
176
     1
290
     0
176
     1
 93
        1
176
     1
 44
0.0
176
     1
173
     0
176
     1
  0
VISUALSTYLE
  5
30
102
{ACAD_REACTORS
330
2A
102
}
330
2A
100
AcDbVisualStyle
  2
3dWireframe
 70
     5
177
     2
291
     0
 71
     0
176
     1
 72
     2
176
     1
 73
     0
176
     1
 90
        0
176
     1
 40
-0.6
176
     1
 41
-30.0
176
     1
 62
     5
 63
     7
421
 16777215
176
     1
 74
     1
176
     1
 91
        4
176
     1
 64
     7
176
     1
 65
   257
176
     1
 75
     1
176
     1
175
     1
176
     1
 42
1.0
176
     1
 92
        0
176
     1
 66
   257
176
     1
 43
1.0
176
     1
 76
     1
176
     1
 77
     6
176
     1
 78
     2
176
     1
 67
     7
176
     1
 79
     5
176
     1
170
     0
176
     1
171
     0
176
     1
290
     0
176
     1
 93
        1
176
     1
 44
0.0
176
     1
173
     0
176
     1
  0
VISUALSTYLE
  5
32
102
{ACAD_REACTORS
330
2A
102
}
330
2A
100
AcDbVisualStyle
  2
Basic
 70
     7
177
     2
291
     1
 71
     1
176
     1
 72
     0
176
     1
 73
     1
176
     1
 90
        0
176
     1
 40
-0.6
176
     1
 41
-30.0
176
     1
 62
     5
 63
     7
421
 16777215
176
     1
 74
     0
176
     1
 91
        4
176
     1
 64
     7
176
     1
 65
   257
176
     1
 75
     1
176
     1
175
     1
176
     1
 42
1.0
176
     1
 92
        8
176
     1
 66
     7
176
     1
 43
1.0
176
     1
 76
     1
176
     1
 77
     6
176
     1
 78
     2
176
     1
 67
     7
176
     1
 79
     5
176
     1
170
     0
176
     1
171
     0
176
     1
290
     0
176
     1
 93
        1
176
     1
 44
0.0
176
     1
173
     0
176
     1
  0
VISUALSTYLE
  5
36
102
{ACAD_REACTORS
330
2A
102
}
330
2A
100
AcDbVisualStyle
  2
Brighten
 70
    12
177
     2
291
     1
 71
     2
176
     1
 72
     2
176
     1
 73
     0
176
     1
 90
        0
176
     1
 40
-0.6
176
     1
 41
-30.0
176
     1
 62
     5
 63
     7
421
 16777215
176
     1
 74
     1
176
     1
 91
        4
176
     1
 64
     7
176
     1
 65
   257
176
     1
 75
     1
176
     1
175
     1
176
     1
 42
1.0
176
     1
 92
        8
176
     1
 66
     7
176
     1
 43
1.0
176
     1
 76
     1
176
     1
 77
     6
176
     1
 78
     2
176
     1
 67
     7
176
     1
 79
     5
176
     1
170
     0
176
     1
171
     0
176
     1
290
     0
176
     1
 93
        1
176
     1
 44
50.0
176
     1
173
     0
176
     1
  0
VISUALSTYLE
  5
3A
102
{ACAD_REACTORS
330
2A
102
}
330
2A
100
AcDbVisualStyle
  2
ColorChange
 70
    16
177
     2
291
     1
 71
     2
176
     1
 72
     2
176
     1
 73
     3
176
     1
 90
        0
176
     1
 40
-0.6
176
     1
 41
-30.0
176
     1
 62
     5
 63
     8
421
  8421504
176
     1
 74
     1
176
     1
 91
        4
176
     1
 64
     7
176
     1
 65
   257
176
     1
 75
     1
176
     1
175
     1
176
     1
 42
1.0
176
     1
 92
        8
176
     1
 66
     8
424
  8421504
176
     1
 43
1.0
176
     1
 76
     1
176
     1
 77
     6
176
     1
 78
     2
176
     1
 67
     7
176
     1
 79
     5
176
     1
170
     0
176
     1
171
     0
176
     1
290
     0
176
     1
 93
        1
176
     1
 44
0.0
176
     1
173
     0
176
     1
  0
VISUALSTYLE
  5
34
102
{ACAD_REACTORS
330
2A
102
}
330
2A
100
AcDbVisualStyle
  2
Conceptual
 70
     9
177
     2
291
     0
 71
     3
176
     1
 72
     2
176
     1
 73
     0
176
     1
 90
        0
176
     1
 40
-0.6
176
     1
 41
-30.0
176
     1
 62
     5
 63
     7
421
 16777215
176
     1
 74
     2
176
     1
 91
        2
176
     1
 64
     7
176
     1
 65
   257
176
     1
 75
     1
176
     1
175
     1
176
     1
 42
40.0
176
     1
 92
        8
176
     1
 66
     7
176
     1
 43
1.0
176
     1
 76
     1
176
     1
 77
     6
176
     1
 78
     2
176
     1
 67
     7
176
     1
 79
     3
176
     1
170
     0
176
     1
171
     0
176
     1
290
     0
176
     1
 93
        1
176
     1
 44
0.0
176
     1
173
     0
176
     1
  0
VISUALSTYLE
  5
35
102
{ACAD_REACTORS
330
2A
102
}
330
2A
100
AcDbVisualStyle
  2
Dim
 70
    11
177
     2
291
     1
 71
     2
176
     1
 72
     2
176
     1
 73
     0
176
     1
 90
        0
176
     1
 40
-0.6
176
     1
 41
-30.0
176
     1
 62
     5
 63
     7
421
 16777215
176
     1
 74
     1
176
     1
 91
        4
176
     1
 64
     7
176
     1
 65
   257
176
     1
 75
     1
176
     1
175
     1
176
     1
 42
1.0
176
     1
 92
        8
176
     1
 66
     7
176
     1
 43
1.0
176
     1
 76
     1
176
     1
 77
     6
176
     1
 78
     2
176
     1
 67
     7
176
     1
 79
     5
176
     1
170
     0
176
     1
171
     0
176
     1
290
     0
176
     1
 93
        1
176
     1
 44
-50.0
176
     1
173
     0
176
     1
  0
VISUALSTYLE
  5
39
102
{ACAD_REACTORS
330
2A
102
}
330
2A
100
AcDbVisualStyle
  2
Facepattern
 70
    15
177
     2
291
     1
 71
     2
176
     1
 72
     2
176
     1
 73
     0
176
     1
 90
        0
176
     1
 40
-0.6
176
     1
 41
-30.0
176
     1
 62
     5
 63
     7
421
 16777215
176
     1
 74
     1
176
     1
 91
        4
176
     1
 64
     7
176
     1
 65
   257
176
     1
 75
     1
176
     1
175
     1
176
     1
 42
1.0
176
     1
 92
        8
176
     1
 66
     7
176
     1
 43
1.0
176
     1
 76
     1
176
     1
 77
     6
176
     1
 78
     2
176
     1
 67
     7
176
     1
 79
     5
176
     1
170
     0
176
     1
171
     0
176
     1
290
     0
176
     1
 93
        1
176
     1
 44
0.0
176
     1
173
     0
176
     1
  0
VISUALSTYLE
  5
2B
102
{ACAD_REACTORS
330
2A
102
}
330
2A
100
AcDbVisualStyle
  2
Flat
 70
     0
177
     2
291
     1
 71
     2
176
     1
 72
     1
176
     1
 73
     1
176
     1
 90
        2
176
     1
 40
-0.6
176
     1
 41
30.0
176
     1
 62
     5
 63
     7
421
 16777215
176
     1
 74
     0
176
     1
 91
        4
176
     1
 64
     7
176
     1
 65
   257
176
     1
 75
     1
176
     1
175
     1
176
     1
 42
1.0
176
     1
 92
        8
176
     1
 66
     7
176
     1
 43
1.0
176
     1
 76
     1
176
     1
 77
     6
176
     1
 78
     2
176
     1
 67
     7
176
     1
 79
     5
176
     1
170
     0
176
     1
171
     0
176
     1
290
     0
176
     1
 93
       13
176
     1
 44
0.0
176
     1
173
     0
176
     1
  0
VISUALSTYLE
  5
2C
102
{ACAD_REACTORS
330
2A
102
}
330
2A
100
AcDbVisualStyle
  2
FlatWithEdges
 70
     1
177
     2
291
     1
 71
     2
176
     1
 72
     1
176
     1
 73
     1
176
     1
 90
        2
176
     1
 40
-0.6
176
     1
 41
30.0
176
     1
 62
     5
 63
     7
421
 16777215
176
     1
 74
     1
176
     1
 91
        4
176
     1
 64
     7
176
     1
 65
   257
176
     1
 75
     1
176
     1
175
     1
176
     1
 42
1.0
176
     1
 92
        0
176
     1
 66
   257
176
     1
 43
1.0
176
     1
 76
     1
176
     1
 77
     6
176
     1
 78
     2
176
     1
 67
     7
176
     1
 79
     5
176
     1
170
     0
176
     1
171
     0
176
     1
290
     0
176
     1
 93
       13
176
     1
 44
0.0
176
     1
173
     0
176
     1
  0
VISUALSTYLE
  5
2D
102
{ACAD_REACTORS
330
2A
102
}
330
2A
100
AcDbVisualStyle
  2
Gouraud
 70
     2
177
     2
291
     1
 71
     2
176
     1
 72
     2
176
     1
 73
     1
176
     1
 90
        2
176
     1
 40
-0.6
176
     1
 41
30.0
176
     1
 62
     5
 63
     7
421
 16777215
176
     1
 74
     0
176
     1
 91
        4
176
     1
 64
     7
176
     1
 65
   257
176
     1
 75
     1
176
     1
175
     1
176
     1
 42
1.0
176
     1
 92
        0
176
     1
 66
     7
176
     1
 43
1.0
176
     1
 76
     1
176
     1
 77
     6
176
     1
 78
     2
176
     1
 67
     7
176
     1
 79
     5
176
     1
170
     0
176
     1
171
     0
176
     1
290
     0
176
     1
 93
       13
176
     1
 44
0.0
176
     1
173
     0
176
     1
  0
VISUALSTYLE
  5
2E
102
{ACAD_REACTORS
330
2A
102
}
330
2A
100
AcDbVisualStyle
  2
GouraudWithEdges
 70
     3
177
     2
291
     1
 71
     2
176
     1
 72
     2
176
     1
 73
     1
176
     1
 90
        2
176
     1
 40
-0.6
176
     1
 41
30.0
176
     1
 62
     5
 63
     7
421
 16777215
176
     1
 74
     1
176
     1
 91
        4
176
     1
 64
     7
176
     1
 65
   257
176
     1
 75
     1
176
     1
175
     1
176
     1
 42
1.0
176
     1
 92
        0
176
     1
 66
   257
176
     1
 43
1.0
176
     1
 76
     1
176
     1
 77
     6
176
     1
 78
     2
176
     1
 67
     7
176
     1
 79
     5
176
     1
170
     0
176
     1
171
     0
176
     1
290
     0
176
     1
 93
       13
176
     1
 44
0.0
176
     1
173
     0
176
     1
  0
VISUALSTYLE
  5
38
102
{ACAD_REACTORS
330
2A
102
}
330
2A
100
AcDbVisualStyle
  2
Linepattern
 70
    14
177
     2
291
     1
 71
     2
176
     1
 72
     2
176
     1
 73
     0
176
     1
 90
        0
176
     1
 40
-0.6
176
     1
 41
-30.0
176
     1
 62
     5
 63
     7
421
 16777215
176
     1
 74
     1
176
     1
 91
        4
176
     1
 64
     7
176
     1
 65
   257
176
     1
 75
     7
176
     1
175
     7
176
     1
 42
1.0
176
     1
 92
        8
176
     1
 66
     7
176
     1
 43
1.0
176
     1
 76
     1
176
     1
 77
     6
176
     1
 78
     2
176
     1
 67
     7
176
     1
 79
     5
176
     1
170
     0
176
     1
171
     0
176
     1
290
     0
176
     1
 93
        1
176
     1
 44
0.0
176
     1
173
     0
176
     1
  0
VISUALSTYLE
  5
33
102
{ACAD_REACTORS
330
2A
102
}
330
2A
100
AcDbVisualStyle
  2
Realistic
 70
     8
177
     2
291
     0
 71
     2
176
     1
 72
     2
176
     1
 73
     0
176
     1
 90
        0
176
     1
 40
-0.6
176
     1
 41
-30.0
176
     1
 62
     5
 63
     7
421
 16777215
176
     1
 74
     1
176
     1
 91
        0
176
     1
 64
     7
176
     1
 65
   257
176
     1
 75
     1
176
     1
175
     1
176
     1
 42
1.0
176
     1
 92
        8
176
     1
 66
     8
424
  7895160
176
     1
 43
1.0
176
     1
 76
     1
176
     1
 77
     6
176
     1
 78
     2
176
     1
 67
     7
176
     1
 79
     5
176
     1
170
     0
176
     1
171
     0
176
     1
290
     0
176
     1
 93
       13
176
     1
 44
0.0
176
     1
173
     0
176
     1
  0
VISUALSTYLE
  5
37
102
{ACAD_REACTORS
330
2A
102
}
330
2A
100
AcDbVisualStyle
  2
Thicken
 70
    13
177
     2
291
     1
 71
     2
176
     1
 72
     2
176
     1
 73
     0
176
     1
 90
        0
176
     1
 40
-0.6
176
     1
 41
-30.0
176
     1
 62
     5
 63
     7
421
 16777215
176
     1
 74
     1
176
     1
 91
        4
176
     1
 64
     7
176
     1
 65
   257
176
     1
 75
     1
176
     1
175
     1
176
     1
 42
1.0
176
     1
 92
       12
176
     1
 66
     7
176
     1
 43
1.0
176
     1
 76
     1
176
     1
 77
     6
176
     1
 78
     2
176
     1
 67
     7
176
     1
 79
     5
176
     1
170
     0
176
     1
171
     0
176
     1
290
     0
176
     1
 93
        1
176
     1
 44
0.0
176
     1
173
     0
176
     1
  0
ENDSEC
  0
EOF
