  0
SECTION
  2
HEADER
  9
$ACADVER
  1
AC1024
  9
$ACADMAINTVER
 70
     6
  9
$DWGCODEPAGE
  3
UNDEFINED
  9
$INSBASE
 10
0.0
 20
0.0
 30
0.0
  9
$EXTMIN
 10
1.000000000000000E+20
 20
1.000000000000000E+20
 30
1.000000000000000E+20
  9
$EXTMAX
 10
-1.000000000000000E+20
 20
-1.000000000000000E+20
 30
-1.000000000000000E+20
  9
$LIMMIN
 10
0.0
 20
0.0
  9
$LIMMAX
 10
12.0
 20
9.0
  9
$ORTHOMODE
 70
     0
  9
$REGENMODE
 70
     1
  9
$FILLMODE
 70
     1
  9
$QTEXTMODE
 70
     0
  9
$MIRRTEXT
 70
     1
  9
$LTSCALE
 40
1.0
  9
$ATTMODE
 70
     1
  9
$TEXTSIZE
 40
0.2
  9
$TRACEWID
 40
0.05
  9
$TEXTSTYLE
  7
Standard
  9
$CLAYER
  8
0
  9
$CELTYPE
  6
ByLayer
  9
$CECOLOR
 62
   256
  9
$CELTSCALE
 40
1.0
  9
$DISPSILH
 70
     0
  9
$DIMSCALE
 40
1.0
  9
$DIMASZ
 40
0.18
  9
$DIMEXO
 40
0.0625
  9
$DIMDLI
 40
0.38
  9
$DIMRND
 40
0.0
  9
$DIMDLE
 40
0.0
  9
$DIMEXE
 40
0.18
  9
$DIMTP
 40
0.0
  9
$DIMTM
 40
0.0
  9
$DIMTXT
 40
0.18
  9
$DIMCEN
 40
0.09
  9
$DIMTSZ
 40
0.0
  9
$DIMTOL
 70
     0
  9
$DIMLIM
 70
     0
  9
$DIMTIH
 70
     1
  9
$DIMTOH
 70
     1
  9
$DIMSE1
 70
     0
  9
$DIMSE2
 70
     0
  9
$DIMTAD
 70
     0
  9
$DIMZIN
 70
     0
  9
$DIMBLK
  1

  9
$DIMASO
 70
     1
  9
$DIMSHO
 70
     1
  9
$DIMPOST
  1

  9
$DIMAPOST
  1

  9
$DIMALT
 70
     0
  9
$DIMALTD
 70
     2
  9
$DIMALTF
 40
25.4
  9
$DIMLFAC
 40
1.0
  9
$DIMTOFL
 70
     0
  9
$DIMTVP
 40
0.0
  9
$DIMTIX
 70
     0
  9
$DIMSOXD
 70
     0
  9
$DIMSAH
 70
     0
  9
$DIMBLK1
  1

  9
$DIMBLK2
  1

  9
$DIMSTYLE
  2
Standard
  9
$DIMCLRD
 70
     0
  9
$DIMCLRE
 70
     0
  9
$DIMCLRT
 70
     0
  9
$DIMTFAC
 40
1.0
  9
$DIMGAP
 40
0.09
  9
$DIMJUST
 70
     0
  9
$DIMSD1
 70
     0
  9
$DIMSD2
 70
     0
  9
$DIMTOLJ
 70
     1
  9
$DIMTZIN
 70
     0
  9
$DIMALTZ
 70
     0
  9
$DIMALTTZ
 70
     0
  9
$DIMUPT
 70
     0
  9
$DIMDEC
 70
     4
  9
$DIMTDEC
 70
     4
  9
$DIMALTU
 70
     2
  9
$DIMALTTD
 70
     2
  9
$DIMTXSTY
  7
Standard
  9
$DIMAUNIT
 70
     0
  9
$DIMADEC
 70
     0
  9
$DIMALTRND
 40
0.0
  9
$DIMAZIN
 70
     0
  9
$DIMDSEP
 70
    46
  9
$DIMATFIT
 70
     3
  9
$DIMFRAC
 70
     0
  9
$DIMLDRBLK
  1

  9
$DIMLUNIT
 70
     2
  9
$DIMLWD
 70
    -2
  9
$DIMLWE
 70
    -2
  9
$DIMTMOVE
 70
     0
  9
$DIMFXL
 40
1.0
  9
$DIMFXLON
 70
     0
  9
$DIMJOGANG
 40
0.7853981633974483
  9
$DIMTFILL
 70
     0
  9
$DIMTFILLCLR
 70
     0
  9
$DIMARCSYM
 70
     0
  9
$DIMLTYPE
  6

  9
$DIMLTEX1
  6

  9
$DIMLTEX2
  6

  9
$DIMTXTDIRECTION
 70
     0
  9
$LUNITS
 70
     2
  9
$LUPREC
 70
     4
  9
$SKETCHINC
 40
0.1
  9
$FILLETRAD
 40
0.5
  9
$AUNITS
 70
     0
  9
$AUPREC
 70
     0
  9
$MENU
  1
.
  9
$ELEVATION
 40
0.0
  9
$PELEVATION
 40
0.0
  9
$THICKNESS
 40
0.0
  9
$LIMCHECK
 70
     0
  9
$CHAMFERA
 40
0.5
  9
$CHAMFERB
 40
0.5
  9
$CHAMFERC
 40
1.0
  9
$CHAMFERD
 40
0.0
  9
$SKPOLY
 70
     0
  9
$TDCREATE
 40
2458263.578287037
  9
$TDUCREATE
 40
2458263.203287037
  9
$TDUPDATE
 40
2458263.578287037
  9
$TDUUPDATE
 40
2458263.203287037
  9
$TDINDWG
 40
0.0000000116
  9
$TDUSRTIMER
 40
0.0000000116
  9
$USRTIMER
 70
     1
  9
$ANGBASE
 50
0.0
  9
$ANGDIR
 70
     0
  9
$PDMODE
 70
     0
  9
$PDSIZE
 40
0.0
  9
$PLINEWID
 40
0.0
  9
$SPLFRAME
 70
     0
  9
$SPLINETYPE
 70
     6
  9
$SPLINESEGS
 70
     8
  9
$HANDSEED
  5
171
  9
$SURFTAB1
 70
     6
  9
$SURFTAB2
 70
     6
  9
$SURFTYPE
 70
     6
  9
$SURFU
 70
     6
  9
$SURFV
 70
     6
  9
$UCSBASE
  2

  9
$UCSNAME
  2

  9
$UCSORG
 10
0.0
 20
0.0
 30
0.0
  9
$UCSXDIR
 10
1.0
 20
0.0
 30
0.0
  9
$UCSYDIR
 10
0.0
 20
1.0
 30
0.0
  9
$UCSORTHOREF
  2

  9
$UCSORTHOVIEW
 70
     0
  9
$UCSORGTOP
 10
0.0
 20
0.0
 30
0.0
  9
$UCSORGBOTTOM
 10
0.0
 20
0.0
 30
0.0
  9
$UCSORGLEFT
 10
0.0
 20
0.0
 30
0.0
  9
$UCSORGRIGHT
 10
0.0
 20
0.0
 30
0.0
  9
$UCSORGFRONT
 10
0.0
 20
0.0
 30
0.0
  9
$UCSORGBACK
 10
0.0
 20
0.0
 30
0.0
  9
$PUCSBASE
  2

  9
$PUCSNAME
  2

  9
$PUCSORG
 10
0.0
 20
0.0
 30
0.0
  9
$PUCSXDIR
 10
1.0
 20
0.0
 30
0.0
  9
$PUCSYDIR
 10
0.0
 20
1.0
 30
0.0
  9
$PUCSORTHOREF
  2

  9
$PUCSORTHOVIEW
 70
     0
  9
$PUCSORGTOP
 10
0.0
 20
0.0
 30
0.0
  9
$PUCSORGBOTTOM
 10
0.0
 20
0.0
 30
0.0
  9
$PUCSORGLEFT
 10
0.0
 20
0.0
 30
0.0
  9
$PUCSORGRIGHT
 10
0.0
 20
0.0
 30
0.0
  9
$PUCSORGFRONT
 10
0.0
 20
0.0
 30
0.0
  9
$PUCSORGBACK
 10
0.0
 20
0.0
 30
0.0
  9
$USERI1
 70
     0
  9
$USERI2
 70
     0
  9
$USERI3
 70
     0
  9
$USERI4
 70
     0
  9
$USERI5
 70
     0
  9
$USERR1
 40
0.0
  9
$USERR2
 40
0.0
  9
$USERR3
 40
0.0
  9
$USERR4
 40
0.0
  9
$USERR5
 40
0.0
  9
$WORLDVIEW
 70
     1
  9
$SHADEDGE
 70
     3
  9
$SHADEDIF
 70
    70
  9
$TILEMODE
 70
     1
  9
$MAXACTVP
 70
    64
  9
$PINSBASE
 10
0.0
 20
0.0
 30
0.0
  9
$PLIMCHECK
 70
     0
  9
$PEXTMIN
 10
1.000000000000000E+20
 20
1.000000000000000E+20
 30
1.000000000000000E+20
  9
$PEXTMAX
 10
-1.000000000000000E+20
 20
-1.000000000000000E+20
 30
-1.000000000000000E+20
  9
$PLIMMIN
 10
0.0
 20
0.0
  9
$PLIMMAX
 10
12.0
 20
9.0
  9
$UNITMODE
 70
     0
  9
$VISRETAIN
 70
     1
  9
$PLINEGEN
 70
     0
  9
$PSLTSCALE
 70
     1
  9
$TREEDEPTH
 70
  3020
  9
$CMLSTYLE
  2
Standard
  9
$CMLJUST
 70
     0
  9
$CMLSCALE
 40
1.0
  9
$PROXYGRAPHICS
 70
     1
  9
$MEASUREMENT
 70
     0
  9
$CELWEIGHT
370
    -1
  9
$ENDCAPS
280
     0
  9
$JOINSTYLE
280
     0
  9
$LWDISPLAY
290
     1
  9
$INSUNITS
 70
     1
  9
$HYPERLINKBASE
  1

  9
$STYLESHEET
  1

  9
$XEDIT
290
     1
  9
$CEPSNTYPE
380
     0
  9
$PSTYLEMODE
290
     1
  9
$FINGERPRINTGUID
  2
{6F4A3535-B861-7073-081C-55F3EB78B4EF}
  9
$VERSIONGUID
  2
{FAEB1C32-E019-11D5-929B-00C0DF256EC4}
  9
$EXTNAMES
290
     1
  9
$PSVPSCALE
 40
0.0
  9
$OLESTARTUP
290
     0
  9
$SORTENTS
280
   127
  9
$INDEXCTL
280
     0
  9
$HIDETEXT
280
     1
  9
$XCLIPFRAME
280
     2
  9
$HALOGAP
280
     0
  9
$OBSCOLOR
 70
   257
  9
$OBSLTYPE
280
     0
  9
$INTERSECTIONDISPLAY
280
     0
  9
$INTERSECTIONCOLOR
 70
   257
  9
$DIMASSOC
280
     2
  9
$PROJECTNAME
  1

  9
$CAMERADISPLAY
290
     0
  9
$LENSLENGTH
 40
50.0
  9
$CAMERAHEIGHT
 40
0.0
  9
$STEPSPERSEC
 40
2.0
  9
$STEPSIZE
 40
6.0
  9
$3DDWFPREC
 40
2.0
  9
$PSOLWIDTH
 40
0.25
  9
$PSOLHEIGHT
 40
4.0
  9
$LOFTANG1
 40
1.570796326794897
  9
$LOFTANG2
 40
1.570796326794897
  9
$LOFTMAG1
 40
0.0
  9
$LOFTMAG2
 40
0.0
  9
$LOFTPARAM
 70
     7
  9
$LOFTNORMALS
280
     1
  9
$LATITUDE
 40
37.795
  9
$LONGITUDE
 40
-122.394
  9
$NORTHDIRECTION
 40
0.0
  9
$TIMEZONE
 70
 -8000
  9
$LIGHTGLYPHDISPLAY
280
     1
  9
$TILEMODELIGHTSYNCH
280
     1
  9
$CMATERIAL
347
3C
  9
$SOLIDHIST
280
     1
  9
$SHOWHIST
280
     1
  9
$DWFFRAME
280
     2
  9
$DGNFRAME
280
     2
  9
$REALWORLDSCALE
290
     1
  9
$INTERFERECOLOR
 62
   256
  9
$CSHADOW
280
     0
  9
$SHADOWPLANELOCATION
 40
0.0
  0
ENDSEC
  0
SECTION
  2
CLASSES
  0
CLASS
  1
ACDBDICTIONARYWDFLT
  2
AcDbDictionaryWithDefault
  3
ObjectDBX Classes
 90
        0
 91
        4
280
     0
281
     0
  0
CLASS
  1
VISUALSTYLE
  2
AcDbVisualStyle
  3
ObjectDBX Classes
 90
     4095
 91
        4
280
     0
281
     0
  0
CLASS
  1
MATERIAL
  2
AcDbMaterial
  3
ObjectDBX Classes
 90
     1153
 91
        4
280
     0
281
     0
  0
CLASS
  1
SUN
  2
AcDbSun
  3
SCENEOE
 90
     1024
 91
        4
280
     0
281
     0
  0
ENDSEC
  0
SECTION
  2
TABLES
  0
TABLE
  2
VPORT
  5
8
330
0
100
AcDbSymbolTable
 70
     1
  0
VPORT
  5
29
330
8
100
AcDbSymbolTableRecord
100
AcDbViewportTableRecord
  2
*Active
 70
     0
 10
0.0
 20
0.0
 11
1.0
 21
1.0
 12
0.0
 22
0.0
 13
0.0
 23
0.0
 14
0.5
 24
0.5
 15
0.5
 25
0.5
 16
0.0
 26
0.0
 36
1.0
 17
105.0007777515277
 27
-148.5000416295416
 37
0.0
 40
297.0000832590831
 41
0.7070757462376333
 42
50.0
 43
0.0
 44
0.0
 50
0.0
 51
0.0
 71
     0
 72
   100
 73
     1
 74
     3
 75
     0
 76
     0
 77
     0
 78
     0
281
     0
 65
     1
110
0.0
120
0.0
130
0.0
111
1.0
121
0.0
131
0.0
112
0.0
122
1.0
132
0.0
 79
     0
146
0.0
 60
     3
 61
     5
292
     1
282
     1
141
0.0
142
0.0
 63
   250
361
3F
  0
ENDTAB
  0
TABLE
  2
LTYPE
  5
5
330
0
100
AcDbSymbolTable
 70
     1
  0
LTYPE
  5
14
330
5
100
AcDbSymbolTableRecord
100
AcDbLinetypeTableRecord
  2
ByBlock
 70
     0
  3

 72
    65
 73
     0
 40
0.0
  0
LTYPE
  5
15
330
5
100
AcDbSymbolTableRecord
100
AcDbLinetypeTableRecord
  2
ByLayer
 70
     0
  3

 72
    65
 73
     0
 40
0.0
  0
LTYPE
  5
16
330
5
100
AcDbSymbolTableRecord
100
AcDbLinetypeTableRecord
  2
Continuous
 70
     0
  3
Solid line
 72
    65
 73
     0
 40
0.0
  0
ENDTAB
  0
TABLE
  2
LAYER
  5
2
330
0
100
AcDbSymbolTable
 70
     2
  0
LAYER
  5
10
330
2
100
AcDbSymbolTableRecord
100
AcDbLayerTableRecord
  2
0
 70
     0
 62
     7
  6
Continuous
370
    -3
390
F
347
3E
  0
LAYER
  5
40
330
2
100
AcDbSymbolTableRecord
100
AcDbLayerTableRecord
  2
_U+30EC_U+30A4_U+30E4_U+30FC 1
 70
     0
 62
     7
  6
Continuous
370
    -3
390
F
347
3E
  0
ENDTAB
  0
TABLE
  2
STYLE
  5
3
330
0
100
AcDbSymbolTable
 70
     1
  0
STYLE
  5
11
330
3
100
AcDbSymbolTableRecord
100
AcDbTextStyleTableRecord
  2
Standard
 70
     0
 40
0.0
 41
1.0
 50
0.0
 71
     0
 42
0.2
  3
txt
  4

  0
ENDTAB
  0
TABLE
  2
VIEW
  5
6
330
0
100
AcDbSymbolTable
 70
     0
  0
ENDTAB
  0
TABLE
  2
UCS
  5
7
330
0
100
AcDbSymbolTable
 70
     0
  0
ENDTAB
  0
TABLE
  2
APPID
  5
9
330
0
100
AcDbSymbolTable
 70
     1
  0
APPID
  5
12
330
9
100
AcDbSymbolTableRecord
100
AcDbRegAppTableRecord
  2
ACAD
 70
     0
  0
ENDTAB
  0
TABLE
  2
DIMSTYLE
  5
A
330
0
100
AcDbSymbolTable
 70
     1
100
AcDbDimStyleTable
  0
DIMSTYLE
105
27
330
A
100
AcDbSymbolTableRecord
100
AcDbDimStyleTableRecord
  2
Standard
 70
     0
178
     0
340
11
  0
ENDTAB
  0
TABLE
  2
BLOCK_RECORD
  5
1
330
0
100
AcDbSymbolTable
 70
     4
  0
BLOCK_RECORD
  5
1F
330
1
100
AcDbSymbolTableRecord
100
AcDbBlockTableRecord
  2
*Model_Space
340
22
 70
     0
280
     1
281
     0
  0
BLOCK_RECORD
  5
1B
330
1
100
AcDbSymbolTableRecord
100
AcDbBlockTableRecord
  2
*Paper_Space
340
1E
 70
     0
280
     1
281
     0
  0
BLOCK_RECORD
  5
23
330
1
100
AcDbSymbolTableRecord
100
AcDbBlockTableRecord
  2
*Paper_Space0
340
26
 70
     0
280
     1
281
     0
  0
BLOCK_RECORD
  5
41
330
1
100
AcDbSymbolTableRecord
100
AcDbBlockTableRecord
  2
block 2
340
0
102
{BLKREFS
331
42
102
}
 70
     0
280
     1
281
     0
  0
BLOCK_RECORD
  5
82
330
1
100
AcDbSymbolTableRecord
100
AcDbBlockTableRecord
  2
block 3
340
0
102
{BLKREFS
331
83
102
}
 70
     0
280
     1
281
     0
  0
BLOCK_RECORD
  5
C3
330
1
100
AcDbSymbolTableRecord
100
AcDbBlockTableRecord
  2
block 4
340
0
102
{BLKREFS
331
C4
102
}
 70
     0
280
     1
281
     0
  0
ENDTAB
  0
ENDSEC
  0
SECTION
  2
BLOCKS
  0
BLOCK
  5
20
330
1F
100
AcDbEntity
  8
0
100
AcDbBlockBegin
  2
*Model_Space
 70
     0
 10
0.0
 20
0.0
 30
0.0
  3
*Model_Space
  1

  0
ENDBLK
  5
21
330
1F
100
AcDbEntity
  8
0
100
AcDbBlockEnd
  0
BLOCK
  5
1C
330
1B
100
AcDbEntity
 67
     1
  8
0
100
AcDbBlockBegin
  2
*Paper_Space
 70
     0
 10
0.0
 20
0.0
 30
0.0
  3
*Paper_Space
  1

  0
ENDBLK
  5
1D
330
1B
100
AcDbEntity
 67
     1
  8
0
100
AcDbBlockEnd
  0
BLOCK
  5
24
330
23
100
AcDbEntity
  8
0
100
AcDbBlockBegin
  2
*Paper_Space0
 70
     0
 10
0.0
 20
0.0
 30
0.0
  3
*Paper_Space0
  1

  0
ENDBLK
  5
25
330
23
100
AcDbEntity
  8
0
100
AcDbBlockEnd
  0
BLOCK
  5
43
330
41
100
AcDbEntity
  8
0
100
AcDbBlockBegin
  2
block 2
 70
     0
 10
0.0
 20
0.0
 30
0.0
  3
block 2
  1

  0
SPLINE
  5
45
330
41
100
AcDbEntity
  8
_U+30EC_U+30A4_U+30E4_U+30FC 1
370
     0
100
AcDbSpline
210
0.0
220
0.0
230
1.0
 70
    11
 71
     3
 72
    38
 73
    34
 74
     0
 42
0.0000000001
 43
0.0000000001
 12
1.0
 22
0.0
 32
0.0
 13
1.0
 23
0.0
 33
0.0
 40
0.0
 40
0.0
 40
0.0
 40
0.0
 40
1.0
 40
1.0
 40
1.0
 40
2.0
 40
2.0
 40
2.0
 40
3.0
 40
3.0
 40
3.0
 40
4.0
 40
4.0
 40
4.0
 40
5.0
 40
5.0
 40
5.0
 40
6.0
 40
6.0
 40
6.0
 40
7.0
 40
7.0
 40
7.0
 40
8.0
 40
8.0
 40
8.0
 40
9.0
 40
9.0
 40
9.0
 40
10.0
 40
10.0
 40
10.0
 40
11.0
 40
11.0
 40
11.0
 40
11.0
 10
91.15791555880774
 20
-143.0365749425395
 30
0.0
 10
90.74036998599547
 20
-143.2424193977832
 30
0.0
 10
90.33247068054189
 20
-143.0376084711851
 30
0.0
 10
90.12507593232985
 20
-142.6164455481133
 30
0.0
 10
89.89287649662401
 20
-142.1460177596024
 30
0.0
 10
90.07408851914815
 20
-141.7381184541488
 30
0.0
 10
90.43995765968168
 20
-141.5575954507217
 30
0.0
 10
90.74932723425712
 20
-141.4051499754994
 30
0.0
 10
91.08108992948668
 20
-141.451486509776
 30
0.0
 10
91.24059785045374
 20
-141.7265773842732
 30
0.0
 10
91.24059785045374
 20
-141.7265773842732
 30
0.0
 10
91.03389212133875
 20
-141.8283799558623
 30
0.0
 10
91.03389212133875
 20
-141.8283799558623
 30
0.0
 10
90.9078016265786
 20
-141.6595702770851
 30
0.0
 10
90.67422415267868
 20
-141.6828246716105
 30
0.0
 10
90.53021916139522
 20
-141.753965893381
 30
0.0
 10
90.43720158329349
 20
-141.7997856633348
 30
0.0
 10
90.3465955720314
 20
-141.8797118785926
 30
0.0
 10
90.29664168749528
 20
-141.9892659150235
 30
0.0
 10
90.20879175262142
 20
-142.1742675425814
 30
0.0
 10
90.27769366232641
 20
-142.3809732716964
 30
0.0
 10
90.34762910067698
 20
-142.5232557152372
 30
0.0
 10
90.5422769955936
 20
-142.9177191482983
 30
0.0
 10
90.86404891391594
 20
-142.9383897212099
 30
0.0
 10
91.05766328018697
 20
-142.8429605762684
 30
0.0
 10
91.18099769855893
 20
-142.782326895728
 30
0.0
 10
91.38804793722244
 20
-142.5902628224254
 30
0.0
 10
91.27642684350035
 20
-142.2917452986285
 30
0.0
 10
91.27642684350035
 20
-142.2917452986285
 30
0.0
 10
91.48313257261533
 20
-142.1895982174908
 30
0.0
 10
91.48313257261533
 20
-142.1895982174908
 30
0.0
 10
91.53170841895735
 20
-142.3167222408965
 30
0.0
 10
91.7005180977346
 20
-142.7688910233356
 30
0.0
 10
91.15791555880774
 20
-143.0365749425395
 30
0.0
  0
HATCH
  5
46
330
41
100
AcDbEntity
  8
_U+30EC_U+30A4_U+30E4_U+30FC 1
 62
   179
420
  2234388
100
AcDbHatch
 10
0.0
 20
0.0
 30
0.0
210
0.0
220
0.0
230
1.0
  2
SOLID
 70
     1
 71
     0
 91
        1
 92
        1
 93
        1
 72
     4
 94
        3
 73
     0
 74
     1
 95
       38
 96
       34
 40
0.0
 40
0.0
 40
0.0
 40
0.0
 40
1.0
 40
1.0
 40
1.0
 40
2.0
 40
2.0
 40
2.0
 40
3.0
 40
3.0
 40
3.0
 40
4.0
 40
4.0
 40
4.0
 40
5.0
 40
5.0
 40
5.0
 40
6.0
 40
6.0
 40
6.0
 40
7.0
 40
7.0
 40
7.0
 40
8.0
 40
8.0
 40
8.0
 40
9.0
 40
9.0
 40
9.0
 40
10.0
 40
10.0
 40
10.0
 40
11.0
 40
11.0
 40
11.0
 40
11.0
 10
91.15791555880774
 20
-143.0365749425395
 10
90.74036998599547
 20
-143.2424193977832
 10
90.33247068054189
 20
-143.0376084711851
 10
90.12507593232985
 20
-142.6164455481133
 10
89.89287649662401
 20
-142.1460177596024
 10
90.07408851914815
 20
-141.7381184541488
 10
90.43995765968168
 20
-141.5575954507217
 10
90.74932723425712
 20
-141.4051499754994
 10
91.08108992948668
 20
-141.451486509776
 10
91.24059785045374
 20
-141.7265773842732
 10
91.24059785045374
 20
-141.7265773842732
 10
91.03389212133875
 20
-141.8283799558623
 10
91.03389212133875
 20
-141.8283799558623
 10
90.9078016265786
 20
-141.6595702770851
 10
90.67422415267868
 20
-141.6828246716105
 10
90.53021916139522
 20
-141.753965893381
 10
90.43720158329349
 20
-141.7997856633348
 10
90.3465955720314
 20
-141.8797118785926
 10
90.29664168749528
 20
-141.9892659150235
 10
90.20879175262142
 20
-142.1742675425814
 10
90.27769366232641
 20
-142.3809732716964
 10
90.34762910067698
 20
-142.5232557152372
 10
90.5422769955936
 20
-142.9177191482983
 10
90.86404891391594
 20
-142.9383897212099
 10
91.05766328018697
 20
-142.8429605762684
 10
91.18099769855893
 20
-142.782326895728
 10
91.38804793722244
 20
-142.5902628224254
 10
91.27642684350035
 20
-142.2917452986285
 10
91.27642684350035
 20
-142.2917452986285
 10
91.48313257261533
 20
-142.1895982174908
 10
91.48313257261533
 20
-142.1895982174908
 10
91.53170841895735
 20
-142.3167222408965
 10
91.7005180977346
 20
-142.7688910233356
 10
91.15791555880774
 20
-143.0365749425395
 97
        0
 97
        0
 75
     2
 76
     1
 98
        0
  0
SPLINE
  5
47
330
41
100
AcDbEntity
  8
_U+30EC_U+30A4_U+30E4_U+30FC 1
370
     0
100
AcDbSpline
210
0.0
220
0.0
230
1.0
 70
    11
 71
     3
 72
    44
 73
    40
 74
     0
 42
0.0000000001
 43
0.0000000001
 12
1.0
 22
0.0
 32
0.0
 13
1.0
 23
0.0
 33
0.0
 40
0.0
 40
0.0
 40
0.0
 40
0.0
 40
1.0
 40
1.0
 40
1.0
 40
2.0
 40
2.0
 40
2.0
 40
3.0
 40
3.0
 40
3.0
 40
4.0
 40
4.0
 40
4.0
 40
5.0
 40
5.0
 40
5.0
 40
6.0
 40
6.0
 40
6.0
 40
7.0
 40
7.0
 40
7.0
 40
8.0
 40
8.0
 40
8.0
 40
9.0
 40
9.0
 40
9.0
 40
10.0
 40
10.0
 40
10.0
 40
11.0
 40
11.0
 40
11.0
 40
12.0
 40
12.0
 40
12.0
 40
13.0
 40
13.0
 40
13.0
 40
13.0
 10
92.81707354450407
 20
-142.1616929440603
 30
0.0
 10
92.77642141777812
 20
-142.1318928681129
 30
0.0
 10
92.73404674330955
 20
-142.0939968177751
 30
0.0
 10
92.63034936920353
 20
-141.8879801077572
 30
0.0
 10
92.51872827548144
 20
-141.6718003660577
 30
0.0
 10
92.43501245518986
 20
-141.6354546086884
 30
0.0
 10
92.27550453422279
 20
-141.7140027857521
 30
0.0
 10
92.27550453422279
 20
-141.7140027857521
 30
0.0
 10
91.90929088414073
 20
-141.8946980439534
 30
0.0
 10
91.90929088414073
 20
-141.8946980439534
 30
0.0
 10
91.90929088414073
 20
-141.8946980439534
 30
0.0
 10
92.1928222425768
 20
-142.4695122256674
 30
0.0
 10
92.1928222425768
 20
-142.4695122256674
 30
0.0
 10
92.1928222425768
 20
-142.4695122256674
 30
0.0
 10
91.98198239887951
 20
-142.5733818545476
 30
0.0
 10
91.98198239887951
 20
-142.5733818545476
 30
0.0
 10
91.98198239887951
 20
-142.5733818545476
 30
0.0
 10
91.29916447370299
 20
-141.1882812147029
 30
0.0
 10
91.29916447370299
 20
-141.1882812147029
 30
0.0
 10
91.29916447370299
 20
-141.1882812147029
 30
0.0
 10
91.90412324091287
 20
-140.8899359456803
 30
0.0
 10
91.90412324091287
 20
-140.8899359456803
 30
0.0
 10
92.17973087973284
 20
-140.7540269287872
 30
0.0
 10
92.40504012446819
 20
-140.8337808892707
 30
0.0
 10
92.51838376593291
 20
-141.0633965033626
 30
0.0
 10
92.54077688658703
 20
-141.1088717637679
 30
0.0
 10
92.56971568866314
 20
-141.1867309217346
 30
0.0
 10
92.56558157408084
 20
-141.2785427164165
 30
0.0
 10
92.55800236401328
 20
-141.3977430202061
 30
0.0
 10
92.50770396992863
 20
-141.4435627901599
 30
0.0
 10
92.46016165223219
 20
-141.4859374646285
 30
0.0
 10
92.60209958622448
 20
-141.4631998344259
 30
0.0
 10
92.68443736832195
 20
-141.4769802163669
 30
0.0
 10
92.82775334050834
 20
-141.7575832436405
 30
0.0
 10
92.95143226842882
 20
-141.9985676728337
 30
0.0
 10
92.99759654793117
 20
-142.0113145261291
 30
0.0
 10
93.08269040641683
 20
-142.0306070608465
 30
0.0
 10
93.08269040641683
 20
-142.0306070608465
 30
0.0
 10
92.81707354450407
 20
-142.1616929440603
 30
0.0
 10
92.81707354450407
 20
-142.1616929440603
 30
0.0
  0
SPLINE
  5
48
330
41
100
AcDbEntity
  8
_U+30EC_U+30A4_U+30E4_U+30FC 1
370
     0
100
AcDbSpline
210
0.0
220
0.0
230
1.0
 70
    11
 71
     3
 72
    20
 73
    16
 74
     0
 42
0.0000000001
 43
0.0000000001
 12
1.0
 22
0.0
 32
0.0
 13
1.0
 23
0.0
 33
0.0
 40
0.0
 40
0.0
 40
0.0
 40
0.0
 40
1.0
 40
1.0
 40
1.0
 40
2.0
 40
2.0
 40
2.0
 40
3.0
 40
3.0
 40
3.0
 40
4.0
 40
4.0
 40
4.0
 40
5.0
 40
5.0
 40
5.0
 40
5.0
 10
92.00196395269396
 20
-141.0776936496264
 30
0.0
 10
92.00196395269396
 20
-141.0776936496264
 30
0.0
 10
91.60336640505055
 20
-141.2742363470599
 30
0.0
 10
91.60336640505055
 20
-141.2742363470599
 30
0.0
 10
91.60336640505055
 20
-141.2742363470599
 30
0.0
 10
91.81558428694194
 20
-141.7048732827161
 30
0.0
 10
91.81558428694194
 20
-141.7048732827161
 30
0.0
 10
91.81558428694194
 20
-141.7048732827161
 30
0.0
 10
92.2121147772942
 20
-141.5093641139282
 30
0.0
 10
92.2121147772942
 20
-141.5093641139282
 30
0.0
 10
92.30134275036217
 20
-141.465266891717
 30
0.0
 10
92.38919268523604
 20
-141.3371093396657
 30
0.0
 10
92.31340058456054
 20
-141.1834580810236
 30
0.0
 10
92.27860512015953
 20
-141.1131781331245
 30
0.0
 10
92.18007538928137
 20
-140.9898437147525
 30
0.0
 10
92.00196395269396
 20
-141.0776936496264
 30
0.0
  0
HATCH
  5
49
330
41
100
AcDbEntity
  8
_U+30EC_U+30A4_U+30E4_U+30FC 1
 62
   179
420
  2234388
100
AcDbHatch
 10
0.0
 20
0.0
 30
0.0
210
0.0
220
0.0
230
1.0
  2
SOLID
 70
     1
 71
     0
 91
        2
 92
        1
 93
        1
 72
     4
 94
        3
 73
     0
 74
     1
 95
       44
 96
       40
 40
0.0
 40
0.0
 40
0.0
 40
0.0
 40
1.0
 40
1.0
 40
1.0
 40
2.0
 40
2.0
 40
2.0
 40
3.0
 40
3.0
 40
3.0
 40
4.0
 40
4.0
 40
4.0
 40
5.0
 40
5.0
 40
5.0
 40
6.0
 40
6.0
 40
6.0
 40
7.0
 40
7.0
 40
7.0
 40
8.0
 40
8.0
 40
8.0
 40
9.0
 40
9.0
 40
9.0
 40
10.0
 40
10.0
 40
10.0
 40
11.0
 40
11.0
 40
11.0
 40
12.0
 40
12.0
 40
12.0
 40
13.0
 40
13.0
 40
13.0
 40
13.0
 10
92.81707354450407
 20
-142.1616929440603
 10
92.77642141777812
 20
-142.1318928681129
 10
92.73404674330955
 20
-142.0939968177751
 10
92.63034936920353
 20
-141.8879801077572
 10
92.51872827548144
 20
-141.6718003660577
 10
92.43501245518986
 20
-141.6354546086884
 10
92.27550453422279
 20
-141.7140027857521
 10
92.27550453422279
 20
-141.7140027857521
 10
91.90929088414073
 20
-141.8946980439534
 10
91.90929088414073
 20
-141.8946980439534
 10
91.90929088414073
 20
-141.8946980439534
 10
92.1928222425768
 20
-142.4695122256674
 10
92.1928222425768
 20
-142.4695122256674
 10
92.1928222425768
 20
-142.4695122256674
 10
91.98198239887951
 20
-142.5733818545476
 10
91.98198239887951
 20
-142.5733818545476
 10
91.98198239887951
 20
-142.5733818545476
 10
91.29916447370299
 20
-141.1882812147029
 10
91.29916447370299
 20
-141.1882812147029
 10
91.29916447370299
 20
-141.1882812147029
 10
91.90412324091287
 20
-140.8899359456803
 10
91.90412324091287
 20
-140.8899359456803
 10
92.17973087973284
 20
-140.7540269287872
 10
92.40504012446819
 20
-140.8337808892707
 10
92.51838376593291
 20
-141.0633965033626
 10
92.54077688658703
 20
-141.1088717637679
 10
92.56971568866314
 20
-141.1867309217346
 10
92.56558157408084
 20
-141.2785427164165
 10
92.55800236401328
 20
-141.3977430202061
 10
92.50770396992863
 20
-141.4435627901599
 10
92.46016165223219
 20
-141.4859374646285
 10
92.60209958622448
 20
-141.4631998344259
 10
92.68443736832195
 20
-141.4769802163669
 10
92.82775334050834
 20
-141.7575832436405
 10
92.95143226842882
 20
-141.9985676728337
 10
92.99759654793117
 20
-142.0113145261291
 10
93.08269040641683
 20
-142.0306070608465
 10
93.08269040641683
 20
-142.0306070608465
 10
92.81707354450407
 20
-142.1616929440603
 10
92.81707354450407
 20
-142.1616929440603
 97
        0
 97
        0
 92
        1
 93
        1
 72
     4
 94
        3
 73
     0
 74
     1
 95
       20
 96
       16
 40
0.0
 40
0.0
 40
0.0
 40
0.0
 40
1.0
 40
1.0
 40
1.0
 40
2.0
 40
2.0
 40
2.0
 40
3.0
 40
3.0
 40
3.0
 40
4.0
 40
4.0
 40
4.0
 40
5.0
 40
5.0
 40
5.0
 40
5.0
 10
92.00196395269396
 20
-141.0776936496264
 10
92.00196395269396
 20
-141.0776936496264
 10
91.60336640505055
 20
-141.2742363470599
 10
91.60336640505055
 20
-141.2742363470599
 10
91.60336640505055
 20
-141.2742363470599
 10
91.81558428694194
 20
-141.7048732827161
 10
91.81558428694194
 20
-141.7048732827161
 10
91.81558428694194
 20
-141.7048732827161
 10
92.2121147772942
 20
-141.5093641139282
 10
92.2121147772942
 20
-141.5093641139282
 10
92.30134275036217
 20
-141.465266891717
 10
92.38919268523604
 20
-141.3371093396657
 10
92.31340058456054
 20
-141.1834580810236
 10
92.27860512015953
 20
-141.1131781331245
 10
92.18007538928137
 20
-140.9898437147525
 10
92.00196395269396
 20
-141.0776936496264
 97
        0
 97
        0
 75
     2
 76
     1
 98
        0
  0
SPLINE
  5
4A
330
41
100
AcDbEntity
  8
_U+30EC_U+30A4_U+30E4_U+30FC 1
370
     0
100
AcDbSpline
210
0.0
220
0.0
230
1.0
 70
    11
 71
     3
 72
    26
 73
    22
 74
     0
 42
0.0000000001
 43
0.0000000001
 12
1.0
 22
0.0
 32
0.0
 13
1.0
 23
0.0
 33
0.0
 40
0.0
 40
0.0
 40
0.0
 40
0.0
 40
1.0
 40
1.0
 40
1.0
 40
2.0
 40
2.0
 40
2.0
 40
3.0
 40
3.0
 40
3.0
 40
4.0
 40
4.0
 40
4.0
 40
5.0
 40
5.0
 40
5.0
 40
6.0
 40
6.0
 40
6.0
 40
7.0
 40
7.0
 40
7.0
 40
7.0
 10
93.62632647398925
 20
-141.0594346435546
 30
0.0
 10
93.62632647398925
 20
-141.0594346435546
 30
0.0
 10
93.2201497162783
 20
-141.2599392007961
 30
0.0
 10
93.2201497162783
 20
-141.2599392007961
 30
0.0
 10
93.2201497162783
 20
-141.2599392007961
 30
0.0
 10
93.49885794103501
 20
-141.8254516246999
 30
0.0
 10
93.49885794103501
 20
-141.8254516246999
 30
0.0
 10
93.49885794103501
 20
-141.8254516246999
 30
0.0
 10
93.28836260688625
 20
-141.9291489988059
 30
0.0
 10
93.28836260688625
 20
-141.9291489988059
 30
0.0
 10
93.28836260688625
 20
-141.9291489988059
 30
0.0
 10
92.60554468170973
 20
-140.5440483589612
 30
0.0
 10
92.60554468170973
 20
-140.5440483589612
 30
0.0
 10
92.60554468170973
 20
-140.5440483589612
 30
0.0
 10
93.22221677356946
 20
-140.2398464276137
 30
0.0
 10
93.22221677356946
 20
-140.2398464276137
 30
0.0
 10
93.47990991586614
 20
-140.1127224042079
 30
0.0
 10
93.7358805104202
 20
-140.1681884415205
 30
0.0
 10
93.86782766750527
 20
-140.4355278511758
 30
0.0
 10
93.97738170393622
 20
-140.6577365099745
 30
0.0
 10
93.92432723346337
 20
-140.912673575883
 30
0.0
 10
93.62632647398925
 20
-141.0594346435546
 30
0.0
  0
SPLINE
  5
4B
330
41
100
AcDbEntity
  8
_U+30EC_U+30A4_U+30E4_U+30FC 1
370
     0
100
AcDbSpline
210
0.0
220
0.0
230
1.0
 70
    11
 71
     3
 72
    20
 73
    16
 74
     0
 42
0.0000000001
 43
0.0000000001
 12
1.0
 22
0.0
 32
0.0
 13
1.0
 23
0.0
 33
0.0
 40
0.0
 40
0.0
 40
0.0
 40
0.0
 40
1.0
 40
1.0
 40
1.0
 40
2.0
 40
2.0
 40
2.0
 40
3.0
 40
3.0
 40
3.0
 40
4.0
 40
4.0
 40
4.0
 40
5.0
 40
5.0
 40
5.0
 40
5.0
 10
93.30799965115217
 20
-140.4334607938847
 30
0.0
 10
93.30799965115217
 20
-140.4334607938847
 30
0.0
 10
92.90940210350877
 20
-140.6301757460925
 30
0.0
 10
92.90940210350877
 20
-140.6301757460925
 30
0.0
 10
92.90940210350877
 20
-140.6301757460925
 30
0.0
 10
93.12644311907951
 20
-141.0702866943331
 30
0.0
 10
93.12644311907951
 20
-141.0702866943331
 30
0.0
 10
93.12644311907951
 20
-141.0702866943331
 30
0.0
 10
93.52504066672292
 20
-140.8737439968996
 30
0.0
 10
93.52504066672292
 20
-140.8737439968996
 30
0.0
 10
93.67490232033128
 20
-140.7996744439668
 30
0.0
 10
93.70797523698968
 20
-140.6656602295905
 30
0.0
 10
93.64596351825519
 20
-140.5402587539274
 30
0.0
 10
93.59566512417054
 20
-140.4379394180155
 30
0.0
 10
93.47680932992941
 20
-140.3504339926902
 30
0.0
 10
93.30799965115217
 20
-140.4334607938847
 30
0.0
  0
HATCH
  5
4C
330
41
100
AcDbEntity
  8
_U+30EC_U+30A4_U+30E4_U+30FC 1
 62
   179
420
  2234388
100
AcDbHatch
 10
0.0
 20
0.0
 30
0.0
210
0.0
220
0.0
230
1.0
  2
SOLID
 70
     1
 71
     0
 91
        2
 92
        1
 93
        1
 72
     4
 94
        3
 73
     0
 74
     1
 95
       26
 96
       22
 40
0.0
 40
0.0
 40
0.0
 40
0.0
 40
1.0
 40
1.0
 40
1.0
 40
2.0
 40
2.0
 40
2.0
 40
3.0
 40
3.0
 40
3.0
 40
4.0
 40
4.0
 40
4.0
 40
5.0
 40
5.0
 40
5.0
 40
6.0
 40
6.0
 40
6.0
 40
7.0
 40
7.0
 40
7.0
 40
7.0
 10
93.62632647398925
 20
-141.0594346435546
 10
93.62632647398925
 20
-141.0594346435546
 10
93.2201497162783
 20
-141.2599392007961
 10
93.2201497162783
 20
-141.2599392007961
 10
93.2201497162783
 20
-141.2599392007961
 10
93.49885794103501
 20
-141.8254516246999
 10
93.49885794103501
 20
-141.8254516246999
 10
93.49885794103501
 20
-141.8254516246999
 10
93.28836260688625
 20
-141.9291489988059
 10
93.28836260688625
 20
-141.9291489988059
 10
93.28836260688625
 20
-141.9291489988059
 10
92.60554468170973
 20
-140.5440483589612
 10
92.60554468170973
 20
-140.5440483589612
 10
92.60554468170973
 20
-140.5440483589612
 10
93.22221677356946
 20
-140.2398464276137
 10
93.22221677356946
 20
-140.2398464276137
 10
93.47990991586614
 20
-140.1127224042079
 10
93.7358805104202
 20
-140.1681884415205
 10
93.86782766750527
 20
-140.4355278511758
 10
93.97738170393622
 20
-140.6577365099745
 10
93.92432723346337
 20
-140.912673575883
 10
93.62632647398925
 20
-141.0594346435546
 97
        0
 97
        0
 92
        1
 93
        1
 72
     4
 94
        3
 73
     0
 74
     1
 95
       20
 96
       16
 40
0.0
 40
0.0
 40
0.0
 40
0.0
 40
1.0
 40
1.0
 40
1.0
 40
2.0
 40
2.0
 40
2.0
 40
3.0
 40
3.0
 40
3.0
 40
4.0
 40
4.0
 40
4.0
 40
5.0
 40
5.0
 40
5.0
 40
5.0
 10
93.30799965115217
 20
-140.4334607938847
 10
93.30799965115217
 20
-140.4334607938847
 10
92.90940210350877
 20
-140.6301757460925
 10
92.90940210350877
 20
-140.6301757460925
 10
92.90940210350877
 20
-140.6301757460925
 10
93.12644311907951
 20
-141.0702866943331
 10
93.12644311907951
 20
-141.0702866943331
 10
93.12644311907951
 20
-141.0702866943331
 10
93.52504066672292
 20
-140.8737439968996
 10
93.52504066672292
 20
-140.8737439968996
 10
93.67490232033128
 20
-140.7996744439668
 10
93.70797523698968
 20
-140.6656602295905
 10
93.64596351825519
 20
-140.5402587539274
 10
93.59566512417054
 20
-140.4379394180155
 10
93.47680932992941
 20
-140.3504339926902
 10
93.30799965115217
 20
-140.4334607938847
 97
        0
 97
        0
 75
     2
 76
     1
 98
        0
  0
POLYLINE
  5
4D
330
41
100
AcDbEntity
  8
_U+30EC_U+30A4_U+30E4_U+30FC 1
370
     0
100
AcDb2dPolyline
 66
     1
 10
0.0
 20
0.0
 30
0.0
  0
VERTEX
  5
4E
330
4D
100
AcDbEntity
  8
_U+30EC_U+30A4_U+30E4_U+30FC 1
370
     0
100
AcDbVertex
100
AcDb2dVertex
 10
94.26780325334278
 20
-140.9485025689295
 30
0.0
  0
VERTEX
  5
4F
330
4D
100
AcDbEntity
  8
_U+30EC_U+30A4_U+30E4_U+30FC 1
370
     0
100
AcDbVertex
100
AcDb2dVertex
 10
94.17237410840136
 20
-140.7548882026585
 30
0.0
  0
VERTEX
  5
50
330
4D
100
AcDbEntity
  8
_U+30EC_U+30A4_U+30E4_U+30FC 1
370
     0
100
AcDbVertex
100
AcDb2dVertex
 10
94.69809567945047
 20
-140.4956447673935
 30
0.0
  0
VERTEX
  5
51
330
4D
100
AcDbEntity
  8
_U+30EC_U+30A4_U+30E4_U+30FC 1
370
     0
100
AcDbVertex
100
AcDb2dVertex
 10
94.7935248243919
 20
-140.6892591336645
 30
0.0
  0
VERTEX
  5
52
330
4D
100
AcDbEntity
  8
_U+30EC_U+30A4_U+30E4_U+30FC 1
370
     0
100
AcDbVertex
100
AcDb2dVertex
 10
94.26780325334278
 20
-140.9485025689295
 30
0.0
  0
SEQEND
  5
53
330
4D
100
AcDbEntity
  8
_U+30EC_U+30A4_U+30E4_U+30FC 1
370
     0
  0
HATCH
  5
54
330
41
100
AcDbEntity
  8
_U+30EC_U+30A4_U+30E4_U+30FC 1
 62
   179
420
  2234388
100
AcDbHatch
 10
0.0
 20
0.0
 30
0.0
210
0.0
220
0.0
230
1.0
  2
SOLID
 70
     1
 71
     0
 91
        1
 92
        1
 93
        4
 72
     1
 10
94.26780325334278
 20
-140.9485025689295
 11
94.17237410840136
 21
-140.7548882026585
 72
     1
 10
94.17237410840136
 20
-140.7548882026585
 11
94.69809567945047
 21
-140.4956447673935
 72
     1
 10
94.69809567945047
 20
-140.4956447673935
 11
94.7935248243919
 21
-140.6892591336645
 72
     1
 10
94.7935248243919
 20
-140.6892591336645
 11
94.26780325334278
 21
-140.9485025689295
 97
        0
 75
     2
 76
     1
 98
        0
  0
SPLINE
  5
55
330
41
100
AcDbEntity
  8
_U+30EC_U+30A4_U+30E4_U+30FC 1
370
     0
100
AcDbSpline
210
0.0
220
0.0
230
1.0
 70
    11
 71
     3
 72
    62
 73
    58
 74
     0
 42
0.0000000001
 43
0.0000000001
 12
1.0
 22
0.0
 32
0.0
 13
1.0
 23
0.0
 33
0.0
 40
0.0
 40
0.0
 40
0.0
 40
0.0
 40
1.0
 40
1.0
 40
1.0
 40
2.0
 40
2.0
 40
2.0
 40
3.0
 40
3.0
 40
3.0
 40
4.0
 40
4.0
 40
4.0
 40
5.0
 40
5.0
 40
5.0
 40
6.0
 40
6.0
 40
6.0
 40
7.0
 40
7.0
 40
7.0
 40
8.0
 40
8.0
 40
8.0
 40
9.0
 40
9.0
 40
9.0
 40
10.0
 40
10.0
 40
10.0
 40
11.0
 40
11.0
 40
11.0
 40
12.0
 40
12.0
 40
12.0
 40
13.0
 40
13.0
 40
13.0
 40
14.0
 40
14.0
 40
14.0
 40
15.0
 40
15.0
 40
15.0
 40
16.0
 40
16.0
 40
16.0
 40
17.0
 40
17.0
 40
17.0
 40
18.0
 40
18.0
 40
18.0
 40
19.0
 40
19.0
 40
19.0
 40
19.0
 10
95.5697048372187
 20
-140.8606526340557
 30
0.0
 10
95.48426646918449
 20
-140.90285505375
 30
0.0
 10
95.27962779736065
 20
-140.9801974473938
 30
0.0
 10
95.08497990244403
 20
-140.8685763536718
 30
0.0
 10
94.96922469413964
 20
-140.8007079726123
 30
0.0
 10
94.92133786689467
 20
-140.7133748020613
 30
0.0
 10
94.8803412306202
 20
-140.6394775039026
 30
0.0
 10
94.8803412306202
 20
-140.6394775039026
 30
0.0
 10
95.07774520192501
 20
-140.5419813016701
 30
0.0
 10
95.07774520192501
 20
-140.5419813016701
 30
0.0
 10
95.11219615677751
 20
-140.6074381158898
 30
0.0
 10
95.22553979824222
 20
-140.8134548259077
 30
0.0
 10
95.47978784505366
 20
-140.6880533502447
 30
0.0
 10
95.60277775387709
 20
-140.6274196697043
 30
0.0
 10
95.70888669482278
 20
-140.4971950603618
 30
0.0
 10
95.60794539710496
 20
-140.2922118789895
 30
0.0
 10
95.55661347437474
 20
-140.1878254857864
 30
0.0
 10
95.50080292751369
 20
-140.1611259957757
 30
0.0
 10
95.4580837434966
 20
-140.1466565947376
 30
0.0
 10
95.3588649935214
 20
-140.1130669137565
 30
0.0
 10
95.24896644754193
 20
-140.1533745309339
 30
0.0
 10
95.20004609165139
 20
-140.1774901993306
 30
0.0
 10
95.18247610467661
 20
-140.1861029380437
 30
0.0
 10
95.15147024530935
 20
-140.2036729250185
 30
0.0
 10
95.12838810555819
 20
-140.2195203642507
 30
0.0
 10
95.12838810555819
 20
-140.2195203642507
 30
0.0
 10
95.04260522797546
 20
-140.045198532697
 30
0.0
 10
95.04260522797546
 20
-140.045198532697
 30
0.0
 10
95.07946774966764
 20
-140.0338297175957
 30
0.0
 10
95.11805281910243
 20
-140.0172932592665
 30
0.0
 10
95.12390948142736
 20
-140.0145371828783
 30
0.0
 10
95.18282061422514
 20
-139.9855983808022
 30
0.0
 10
95.35163029300237
 20
-139.8786281659852
 30
0.0
 10
95.24689939025077
 20
-139.665893519771
 30
0.0
 10
95.16835121318708
 20
-139.5067301083525
 30
0.0
 10
95.02675778874331
 20
-139.5151705922914
 30
0.0
 10
94.92753903876812
 20
-139.5639186934076
 30
0.0
 10
94.69051646938293
 20
-139.6807074303576
 30
0.0
 10
94.78594561432435
 20
-139.8932698217975
 30
0.0
 10
94.81385088775488
 20
-139.9597601646628
 30
0.0
 10
94.81385088775488
 20
-139.9597601646628
 30
0.0
 10
94.63160533658515
 20
-140.0496771568279
 30
0.0
 10
94.63160533658515
 20
-140.0496771568279
 30
0.0
 10
94.58440752843724
 20
-139.9337496937492
 30
0.0
 10
94.44246959444494
 20
-139.5839002472221
 30
0.0
 10
94.85209144764114
 20
-139.3820176517864
 30
0.0
 10
95.05328502397974
 20
-139.2827989018112
 30
0.0
 10
95.325792076863
 20
-139.2900336023303
 30
0.0
 10
95.4567057053025
 20
-139.5553059546945
 30
0.0
 10
95.53904348739997
 20
-139.7223930857291
 30
0.0
 10
95.49012313150942
 20
-139.8384928035821
 30
0.0
 10
95.42811141277492
 20
-139.937539298783
 30
0.0
 10
95.4952907747373
 20
-139.934955477169
 30
0.0
 10
95.69372827468769
 20
-139.9266872480044
 30
0.0
 10
95.81637367396257
 20
-140.1754231420395
 30
0.0
 10
95.96623532757094
 20
-140.47893605429
 30
0.0
 10
95.81844073125373
 20
-140.7381794895551
 30
0.0
 10
95.5697048372187
 20
-140.8606526340557
 30
0.0
  0
HATCH
  5
56
330
41
100
AcDbEntity
  8
_U+30EC_U+30A4_U+30E4_U+30FC 1
 62
   179
420
  2234388
100
AcDbHatch
 10
0.0
 20
0.0
 30
0.0
210
0.0
220
0.0
230
1.0
  2
SOLID
 70
     1
 71
     0
 91
        1
 92
        1
 93
        1
 72
     4
 94
        3
 73
     0
 74
     1
 95
       62
 96
       58
 40
0.0
 40
0.0
 40
0.0
 40
0.0
 40
1.0
 40
1.0
 40
1.0
 40
2.0
 40
2.0
 40
2.0
 40
3.0
 40
3.0
 40
3.0
 40
4.0
 40
4.0
 40
4.0
 40
5.0
 40
5.0
 40
5.0
 40
6.0
 40
6.0
 40
6.0
 40
7.0
 40
7.0
 40
7.0
 40
8.0
 40
8.0
 40
8.0
 40
9.0
 40
9.0
 40
9.0
 40
10.0
 40
10.0
 40
10.0
 40
11.0
 40
11.0
 40
11.0
 40
12.0
 40
12.0
 40
12.0
 40
13.0
 40
13.0
 40
13.0
 40
14.0
 40
14.0
 40
14.0
 40
15.0
 40
15.0
 40
15.0
 40
16.0
 40
16.0
 40
16.0
 40
17.0
 40
17.0
 40
17.0
 40
18.0
 40
18.0
 40
18.0
 40
19.0
 40
19.0
 40
19.0
 40
19.0
 10
95.5697048372187
 20
-140.8606526340557
 10
95.48426646918449
 20
-140.90285505375
 10
95.27962779736065
 20
-140.9801974473938
 10
95.08497990244403
 20
-140.8685763536718
 10
94.96922469413964
 20
-140.8007079726123
 10
94.92133786689467
 20
-140.7133748020613
 10
94.8803412306202
 20
-140.6394775039026
 10
94.8803412306202
 20
-140.6394775039026
 10
95.07774520192501
 20
-140.5419813016701
 10
95.07774520192501
 20
-140.5419813016701
 10
95.11219615677751
 20
-140.6074381158898
 10
95.22553979824222
 20
-140.8134548259077
 10
95.47978784505366
 20
-140.6880533502447
 10
95.60277775387709
 20
-140.6274196697043
 10
95.70888669482278
 20
-140.4971950603618
 10
95.60794539710496
 20
-140.2922118789895
 10
95.55661347437474
 20
-140.1878254857864
 10
95.50080292751369
 20
-140.1611259957757
 10
95.4580837434966
 20
-140.1466565947376
 10
95.3588649935214
 20
-140.1130669137565
 10
95.24896644754193
 20
-140.1533745309339
 10
95.20004609165139
 20
-140.1774901993306
 10
95.18247610467661
 20
-140.1861029380437
 10
95.15147024530935
 20
-140.2036729250185
 10
95.12838810555819
 20
-140.2195203642507
 10
95.12838810555819
 20
-140.2195203642507
 10
95.04260522797546
 20
-140.045198532697
 10
95.04260522797546
 20
-140.045198532697
 10
95.07946774966764
 20
-140.0338297175957
 10
95.11805281910243
 20
-140.0172932592665
 10
95.12390948142736
 20
-140.0145371828783
 10
95.18282061422514
 20
-139.9855983808022
 10
95.35163029300237
 20
-139.8786281659852
 10
95.24689939025077
 20
-139.665893519771
 10
95.16835121318708
 20
-139.5067301083525
 10
95.02675778874331
 20
-139.5151705922914
 10
94.92753903876812
 20
-139.5639186934076
 10
94.69051646938293
 20
-139.6807074303576
 10
94.78594561432435
 20
-139.8932698217975
 10
94.81385088775488
 20
-139.9597601646628
 10
94.81385088775488
 20
-139.9597601646628
 10
94.63160533658515
 20
-140.0496771568279
 10
94.63160533658515
 20
-140.0496771568279
 10
94.58440752843724
 20
-139.9337496937492
 10
94.44246959444494
 20
-139.5839002472221
 10
94.85209144764114
 20
-139.3820176517864
 10
95.05328502397974
 20
-139.2827989018112
 10
95.325792076863
 20
-139.2900336023303
 10
95.4567057053025
 20
-139.5553059546945
 10
95.53904348739997
 20
-139.7223930857291
 10
95.49012313150942
 20
-139.8384928035821
 10
95.42811141277492
 20
-139.937539298783
 10
95.4952907747373
 20
-139.934955477169
 10
95.69372827468769
 20
-139.9266872480044
 10
95.81637367396257
 20
-140.1754231420395
 10
95.96623532757094
 20
-140.47893605429
 10
95.81844073125373
 20
-140.7381794895551
 10
95.5697048372187
 20
-140.8606526340557
 97
        0
 97
        0
 75
     2
 76
     1
 98
        0
  0
SPLINE
  5
57
330
41
100
AcDbEntity
  8
_U+30EC_U+30A4_U+30E4_U+30FC 1
370
     0
100
AcDbSpline
210
0.0
220
0.0
230
1.0
 70
    11
 71
     3
 72
    29
 73
    25
 74
     0
 42
0.0000000001
 43
0.0000000001
 12
1.0
 22
0.0
 32
0.0
 13
1.0
 23
0.0
 33
0.0
 40
0.0
 40
0.0
 40
0.0
 40
0.0
 40
1.0
 40
1.0
 40
1.0
 40
2.0
 40
2.0
 40
2.0
 40
3.0
 40
3.0
 40
3.0
 40
4.0
 40
4.0
 40
4.0
 40
5.0
 40
5.0
 40
5.0
 40
6.0
 40
6.0
 40
6.0
 40
7.0
 40
7.0
 40
7.0
 40
8.0
 40
8.0
 40
8.0
 40
8.0
 10
96.88848738897232
 20
-139.9556260500806
 30
0.0
 10
96.8840087648415
 20
-140.1912705812716
 30
0.0
 10
96.73724769716986
 20
-140.2849771784704
 30
0.0
 10
96.63286130396679
 20
-140.3364813559749
 30
0.0
 10
96.48851180313483
 20
-140.4076225777453
 30
0.0
 10
96.34106171636613
 20
-140.4286376602053
 30
0.0
 10
96.17535262352561
 20
-140.3073702991246
 30
0.0
 10
95.99620765829262
 20
-140.1788682375247
 30
0.0
 10
95.87390676856624
 20
-139.9749185847979
 30
0.0
 10
95.80190427292453
 20
-139.8285020266748
 30
0.0
 10
95.7381700064474
 20
-139.6996554555265
 30
0.0
 10
95.64239635195746
 20
-139.4664224911751
 30
0.0
 10
95.64928654292797
 20
-139.2411132464397
 30
0.0
 10
95.65617673389846
 20
-139.0113253775736
 30
0.0
 10
95.79019094827468
 20
-138.9193413281174
 30
0.0
 10
95.90594615657908
 20
-138.8623249978365
 30
0.0
 10
96.04788409057137
 20
-138.7920450499374
 30
0.0
 10
96.19671221553416
 20
-138.7684461458635
 30
0.0
 10
96.3627658179232
 20
-138.8893689973957
 30
0.0
 10
96.53674313992832
 20
-139.0182155685441
 30
0.0
 10
96.6590440296547
 20
-139.2125189539122
 30
0.0
 10
96.73552514942723
 20
-139.3682372698455
 30
0.0
 10
96.81131725010273
 20
-139.5218885284876
 30
0.0
 10
96.89434405129725
 20
-139.7382405249613
 30
0.0
 10
96.88848738897232
 20
-139.9556260500806
 30
0.0
  0
SPLINE
  5
58
330
41
100
AcDbEntity
  8
_U+30EC_U+30A4_U+30E4_U+30FC 1
370
     0
100
AcDbSpline
210
0.0
220
0.0
230
1.0
 70
    11
 71
     3
 72
    17
 73
    13
 74
     0
 42
0.0000000001
 43
0.0000000001
 12
1.0
 22
0.0
 32
0.0
 13
1.0
 23
0.0
 33
0.0
 40
0.0
 40
0.0
 40
0.0
 40
0.0
 40
1.0
 40
1.0
 40
1.0
 40
2.0
 40
2.0
 40
2.0
 40
3.0
 40
3.0
 40
3.0
 40
4.0
 40
4.0
 40
4.0
 40
4.0
 10
95.99104001506474
 20
-139.0349242816475
 30
0.0
 10
95.76676429897498
 20
-139.1453395919498
 30
0.0
 10
95.85048011926655
 20
-139.4202582116727
 30
0.0
 10
96.00309784926311
 20
-139.7294555314739
 30
0.0
 10
96.14434676415836
 20
-140.0160874758467
 30
0.0
 10
96.31315644293561
 20
-140.2770534588544
 30
0.0
 10
96.54673391683555
 20
-140.161987269647
 30
0.0
 10
96.76859806608563
 20
-140.0524332332161
 30
0.0
 10
96.68798283173079
 20
-139.7785481421387
 30
0.0
 10
96.53433157308865
 20
-139.4674560198206
 30
0.0
 10
96.3930826581934
 20
-139.1808240754478
 30
0.0
 10
96.22220592212501
 20
-138.9207193663115
 30
0.0
 10
95.99104001506474
 20
-139.0349242816475
 30
0.0
  0
HATCH
  5
59
330
41
100
AcDbEntity
  8
_U+30EC_U+30A4_U+30E4_U+30FC 1
 62
   179
420
  2234388
100
AcDbHatch
 10
0.0
 20
0.0
 30
0.0
210
0.0
220
0.0
230
1.0
  2
SOLID
 70
     1
 71
     0
 91
        2
 92
        1
 93
        1
 72
     4
 94
        3
 73
     0
 74
     1
 95
       29
 96
       25
 40
0.0
 40
0.0
 40
0.0
 40
0.0
 40
1.0
 40
1.0
 40
1.0
 40
2.0
 40
2.0
 40
2.0
 40
3.0
 40
3.0
 40
3.0
 40
4.0
 40
4.0
 40
4.0
 40
5.0
 40
5.0
 40
5.0
 40
6.0
 40
6.0
 40
6.0
 40
7.0
 40
7.0
 40
7.0
 40
8.0
 40
8.0
 40
8.0
 40
8.0
 10
96.88848738897232
 20
-139.9556260500806
 10
96.8840087648415
 20
-140.1912705812716
 10
96.73724769716986
 20
-140.2849771784704
 10
96.63286130396679
 20
-140.3364813559749
 10
96.48851180313483
 20
-140.4076225777453
 10
96.34106171636613
 20
-140.4286376602053
 10
96.17535262352561
 20
-140.3073702991246
 10
95.99620765829262
 20
-140.1788682375247
 10
95.87390676856624
 20
-139.9749185847979
 10
95.80190427292453
 20
-139.8285020266748
 10
95.7381700064474
 20
-139.6996554555265
 10
95.64239635195746
 20
-139.4664224911751
 10
95.64928654292797
 20
-139.2411132464397
 10
95.65617673389846
 20
-139.0113253775736
 10
95.79019094827468
 20
-138.9193413281174
 10
95.90594615657908
 20
-138.8623249978365
 10
96.04788409057137
 20
-138.7920450499374
 10
96.19671221553416
 20
-138.7684461458635
 10
96.3627658179232
 20
-138.8893689973957
 10
96.53674313992832
 20
-139.0182155685441
 10
96.6590440296547
 20
-139.2125189539122
 10
96.73552514942723
 20
-139.3682372698455
 10
96.81131725010273
 20
-139.5218885284876
 10
96.89434405129725
 20
-139.7382405249613
 10
96.88848738897232
 20
-139.9556260500806
 97
        0
 97
        0
 92
        1
 93
        1
 72
     4
 94
        3
 73
     0
 74
     1
 95
       17
 96
       13
 40
0.0
 40
0.0
 40
0.0
 40
0.0
 40
1.0
 40
1.0
 40
1.0
 40
2.0
 40
2.0
 40
2.0
 40
3.0
 40
3.0
 40
3.0
 40
4.0
 40
4.0
 40
4.0
 40
4.0
 10
95.99104001506474
 20
-139.0349242816475
 10
95.76676429897498
 20
-139.1453395919498
 10
95.85048011926655
 20
-139.4202582116727
 10
96.00309784926311
 20
-139.7294555314739
 10
96.14434676415836
 20
-140.0160874758467
 10
96.31315644293561
 20
-140.2770534588544
 10
96.54673391683555
 20
-140.161987269647
 10
96.76859806608563
 20
-140.0524332332161
 10
96.68798283173079
 20
-139.7785481421387
 10
96.53433157308865
 20
-139.4674560198206
 10
96.3930826581934
 20
-139.1808240754478
 10
96.22220592212501
 20
-138.9207193663115
 10
95.99104001506474
 20
-139.0349242816475
 97
        0
 97
        0
 75
     2
 76
     1
 98
        0
  0
POLYLINE
  5
5A
330
41
100
AcDbEntity
  8
_U+30EC_U+30A4_U+30E4_U+30FC 1
370
     0
100
AcDb2dPolyline
 66
     1
 10
0.0
 20
0.0
 30
0.0
  0
VERTEX
  5
5B
330
5A
100
AcDbEntity
  8
_U+30EC_U+30A4_U+30E4_U+30FC 1
370
     0
100
AcDbVertex
100
AcDb2dVertex
 10
98.42086586081146
 20
-139.3982096005671
 30
0.0
  0
VERTEX
  5
5C
330
5A
100
AcDbEntity
  8
_U+30EC_U+30A4_U+30E4_U+30FC 1
370
     0
100
AcDbVertex
100
AcDb2dVertex
 10
97.94819876023517
 20
-138.4397840365706
 30
0.0
  0
VERTEX
  5
5D
330
5A
100
AcDbEntity
  8
_U+30EC_U+30A4_U+30E4_U+30FC 1
370
     0
100
AcDbVertex
100
AcDb2dVertex
 10
97.88205292691838
 20
-138.2909559116078
 30
0.0
  0
VERTEX
  5
5E
330
5A
100
AcDbEntity
  8
_U+30EC_U+30A4_U+30E4_U+30FC 1
370
     0
100
AcDbVertex
100
AcDb2dVertex
 10
97.91822642951351
 20
-138.445296189347
 30
0.0
  0
VERTEX
  5
5F
330
5A
100
AcDbEntity
  8
_U+30EC_U+30A4_U+30E4_U+30FC 1
370
     0
100
AcDbVertex
100
AcDb2dVertex
 10
98.08496905099959
 20
-139.5637464386334
 30
0.0
  0
VERTEX
  5
60
330
5A
100
AcDbEntity
  8
_U+30EC_U+30A4_U+30E4_U+30FC 1
370
     0
100
AcDbVertex
100
AcDb2dVertex
 10
97.84208981928948
 20
-139.6834635067458
 30
0.0
  0
VERTEX
  5
61
330
5A
100
AcDbEntity
  8
_U+30EC_U+30A4_U+30E4_U+30FC 1
370
     0
100
AcDbVertex
100
AcDb2dVertex
 10
97.05833059639514
 20
-138.8693874435813
 30
0.0
  0
VERTEX
  5
62
330
5A
100
AcDbEntity
  8
_U+30EC_U+30A4_U+30E4_U+30FC 1
370
     0
100
AcDbVertex
100
AcDb2dVertex
 10
96.95807831777438
 20
-138.7467420443064
 30
0.0
  0
VERTEX
  5
63
330
5A
100
AcDbEntity
  8
_U+30EC_U+30A4_U+30E4_U+30FC 1
370
     0
100
AcDbVertex
100
AcDb2dVertex
 10
97.03387041844987
 20
-138.8909192903641
 30
0.0
  0
VERTEX
  5
64
330
5A
100
AcDbEntity
  8
_U+30EC_U+30A4_U+30E4_U+30FC 1
370
     0
100
AcDbVertex
100
AcDb2dVertex
 10
97.50619300947763
 20
-139.8491725995863
 30
0.0
  0
VERTEX
  5
65
330
5A
100
AcDbEntity
  8
_U+30EC_U+30A4_U+30E4_U+30FC 1
370
     0
100
AcDbVertex
100
AcDb2dVertex
 10
97.31120060501249
 20
-139.9454630183991
 30
0.0
  0
VERTEX
  5
66
330
5A
100
AcDbEntity
  8
_U+30EC_U+30A4_U+30E4_U+30FC 1
370
     0
100
AcDbVertex
100
AcDb2dVertex
 10
96.62803817028744
 20
-138.5603623785544
 30
0.0
  0
VERTEX
  5
67
330
5A
100
AcDbEntity
  8
_U+30EC_U+30A4_U+30E4_U+30FC 1
370
     0
100
AcDbVertex
100
AcDb2dVertex
 10
96.91467011466023
 20
-138.4191134636591
 30
0.0
  0
VERTEX
  5
68
330
5A
100
AcDbEntity
  8
_U+30EC_U+30A4_U+30E4_U+30FC 1
370
     0
100
AcDbVertex
100
AcDb2dVertex
 10
97.75458439396414
 20
-139.2855549781995
 30
0.0
  0
VERTEX
  5
69
330
5A
100
AcDbEntity
  8
_U+30EC_U+30A4_U+30E4_U+30FC 1
370
     0
100
AcDbVertex
100
AcDb2dVertex
 10
97.85139157709966
 20
-139.3957980337275
 30
0.0
  0
VERTEX
  5
6A
330
5A
100
AcDbEntity
  8
_U+30EC_U+30A4_U+30E4_U+30FC 1
370
     0
100
AcDbVertex
100
AcDb2dVertex
 10
97.82279728457209
 20
-139.251793042444
 30
0.0
  0
VERTEX
  5
6B
330
5A
100
AcDbEntity
  8
_U+30EC_U+30A4_U+30E4_U+30FC 1
370
     0
100
AcDbVertex
100
AcDb2dVertex
 10
97.64847545301843
 20
-138.0570339281594
 30
0.0
  0
VERTEX
  5
6C
330
5A
100
AcDbEntity
  8
_U+30EC_U+30A4_U+30E4_U+30FC 1
370
     0
100
AcDbVertex
100
AcDb2dVertex
 10
97.9333848496486
 20
-137.9164740323612
 30
0.0
  0
VERTEX
  5
6D
330
5A
100
AcDbEntity
  8
_U+30EC_U+30A4_U+30E4_U+30FC 1
370
     0
100
AcDbVertex
100
AcDb2dVertex
 10
98.61654728437365
 20
-139.3017469269801
 30
0.0
  0
VERTEX
  5
6E
330
5A
100
AcDbEntity
  8
_U+30EC_U+30A4_U+30E4_U+30FC 1
370
     0
100
AcDbVertex
100
AcDb2dVertex
 10
98.42086586081146
 20
-139.3982096005671
 30
0.0
  0
SEQEND
  5
6F
330
5A
100
AcDbEntity
  8
_U+30EC_U+30A4_U+30E4_U+30FC 1
370
     0
  0
HATCH
  5
70
330
41
100
AcDbEntity
  8
_U+30EC_U+30A4_U+30E4_U+30FC 1
 62
   179
420
  2234388
100
AcDbHatch
 10
0.0
 20
0.0
 30
0.0
210
0.0
220
0.0
230
1.0
  2
SOLID
 70
     1
 71
     0
 91
        1
 92
        1
 93
       19
 72
     1
 10
98.42086586081146
 20
-139.3982096005671
 11
97.94819876023517
 21
-138.4397840365706
 72
     1
 10
97.94819876023517
 20
-138.4397840365706
 11
97.88205292691838
 21
-138.2909559116078
 72
     1
 10
97.88205292691838
 20
-138.2909559116078
 11
97.91822642951351
 21
-138.445296189347
 72
     1
 10
97.91822642951351
 20
-138.445296189347
 11
98.08496905099959
 21
-139.5637464386334
 72
     1
 10
98.08496905099959
 20
-139.5637464386334
 11
97.84208981928948
 21
-139.6834635067458
 72
     1
 10
97.84208981928948
 20
-139.6834635067458
 11
97.05833059639514
 21
-138.8693874435813
 72
     1
 10
97.05833059639514
 20
-138.8693874435813
 11
96.95807831777438
 21
-138.7467420443064
 72
     1
 10
96.95807831777438
 20
-138.7467420443064
 11
97.03387041844987
 21
-138.8909192903641
 72
     1
 10
97.03387041844987
 20
-138.8909192903641
 11
97.50619300947763
 21
-139.8491725995863
 72
     1
 10
97.50619300947763
 20
-139.8491725995863
 11
97.31120060501249
 21
-139.9454630183991
 72
     1
 10
97.31120060501249
 20
-139.9454630183991
 11
96.62803817028744
 21
-138.5603623785544
 72
     1
 10
96.62803817028744
 20
-138.5603623785544
 11
96.91467011466023
 21
-138.4191134636591
 72
     1
 10
96.91467011466023
 20
-138.4191134636591
 11
97.75458439396414
 21
-139.2855549781995
 72
     1
 10
97.75458439396414
 20
-139.2855549781995
 11
97.85139157709966
 21
-139.3957980337275
 72
     1
 10
97.85139157709966
 20
-139.3957980337275
 11
97.82279728457209
 21
-139.251793042444
 72
     1
 10
97.82279728457209
 20
-139.251793042444
 11
97.64847545301843
 21
-138.0570339281594
 72
     1
 10
97.64847545301843
 20
-138.0570339281594
 11
97.9333848496486
 21
-137.9164740323612
 72
     1
 10
97.9333848496486
 20
-137.9164740323612
 11
98.61654728437365
 21
-139.3017469269801
 72
     1
 10
98.61654728437365
 20
-139.3017469269801
 11
98.42086586081146
 21
-139.3982096005671
 97
        0
 75
     2
 76
     1
 98
        0
  0
POLYLINE
  5
71
330
41
100
AcDbEntity
  8
_U+30EC_U+30A4_U+30E4_U+30FC 1
370
     0
100
AcDb2dPolyline
 66
     1
 10
0.0
 20
0.0
 30
0.0
  0
VERTEX
  5
72
330
71
100
AcDbEntity
  8
_U+30EC_U+30A4_U+30E4_U+30FC 1
370
     0
100
AcDbVertex
100
AcDb2dVertex
 10
100.1844102397108
 20
-138.5284952453158
 30
0.0
  0
VERTEX
  5
73
330
71
100
AcDbEntity
  8
_U+30EC_U+30A4_U+30E4_U+30FC 1
370
     0
100
AcDbVertex
100
AcDb2dVertex
 10
99.94153100800074
 20
-138.6482123134282
 30
0.0
  0
VERTEX
  5
74
330
71
100
AcDbEntity
  8
_U+30EC_U+30A4_U+30E4_U+30FC 1
370
     0
100
AcDbVertex
100
AcDb2dVertex
 10
99.1219427920598
 20
-137.632253654828
 30
0.0
  0
VERTEX
  5
75
330
71
100
AcDbEntity
  8
_U+30EC_U+30A4_U+30E4_U+30FC 1
370
     0
100
AcDbVertex
100
AcDb2dVertex
 10
99.43131236663523
 20
-138.8998765386257
 30
0.0
  0
VERTEX
  5
76
330
71
100
AcDbEntity
  8
_U+30EC_U+30A4_U+30E4_U+30FC 1
370
     0
100
AcDbVertex
100
AcDb2dVertex
 10
99.18843313492512
 20
-139.0195936067382
 30
0.0
  0
VERTEX
  5
77
330
71
100
AcDbEntity
  8
_U+30EC_U+30A4_U+30E4_U+30FC 1
370
     0
100
AcDbVertex
100
AcDb2dVertex
 10
98.16179468032067
 20
-137.8039916647678
 30
0.0
  0
VERTEX
  5
78
330
71
100
AcDbEntity
  8
_U+30EC_U+30A4_U+30E4_U+30FC 1
370
     0
100
AcDbVertex
100
AcDb2dVertex
 10
98.37056746672681
 20
-137.7009833097588
 30
0.0
  0
VERTEX
  5
79
330
71
100
AcDbEntity
  8
_U+30EC_U+30A4_U+30E4_U+30FC 1
370
     0
100
AcDbVertex
100
AcDb2dVertex
 10
99.179820396212
 20
-138.6960991406732
 30
0.0
  0
VERTEX
  5
7A
330
71
100
AcDbEntity
  8
_U+30EC_U+30A4_U+30E4_U+30FC 1
370
     0
100
AcDbVertex
100
AcDb2dVertex
 10
98.87699650305854
 20
-137.4512138870782
 30
0.0
  0
VERTEX
  5
7B
330
71
100
AcDbEntity
  8
_U+30EC_U+30A4_U+30E4_U+30FC 1
370
     0
100
AcDbVertex
100
AcDb2dVertex
 10
99.12779945438471
 20
-137.327707213932
 30
0.0
  0
VERTEX
  5
7C
330
71
100
AcDbEntity
  8
_U+30EC_U+30A4_U+30E4_U+30FC 1
370
     0
100
AcDbVertex
100
AcDb2dVertex
 10
99.93085121199645
 20
-138.3255791212346
 30
0.0
  0
VERTEX
  5
7D
330
71
100
AcDbEntity
  8
_U+30EC_U+30A4_U+30E4_U+30FC 1
370
     0
100
AcDbVertex
100
AcDb2dVertex
 10
99.63595103845907
 20
-137.0769042626058
 30
0.0
  0
VERTEX
  5
7E
330
71
100
AcDbEntity
  8
_U+30EC_U+30A4_U+30E4_U+30FC 1
370
     0
100
AcDbVertex
100
AcDb2dVertex
 10
99.84472382486521
 20
-136.9738959075968
 30
0.0
  0
VERTEX
  5
7F
330
71
100
AcDbEntity
  8
_U+30EC_U+30A4_U+30E4_U+30FC 1
370
     0
100
AcDbVertex
100
AcDb2dVertex
 10
100.1844102397108
 20
-138.5284952453158
 30
0.0
  0
SEQEND
  5
80
330
71
100
AcDbEntity
  8
_U+30EC_U+30A4_U+30E4_U+30FC 1
370
     0
  0
HATCH
  5
81
330
41
100
AcDbEntity
  8
_U+30EC_U+30A4_U+30E4_U+30FC 1
 62
   179
420
  2234388
100
AcDbHatch
 10
0.0
 20
0.0
 30
0.0
210
0.0
220
0.0
230
1.0
  2
SOLID
 70
     1
 71
     0
 91
        1
 92
        1
 93
       13
 72
     1
 10
100.1844102397108
 20
-138.5284952453158
 11
99.94153100800074
 21
-138.6482123134282
 72
     1
 10
99.94153100800074
 20
-138.6482123134282
 11
99.1219427920598
 21
-137.632253654828
 72
     1
 10
99.1219427920598
 20
-137.632253654828
 11
99.43131236663523
 21
-138.8998765386257
 72
     1
 10
99.43131236663523
 20
-138.8998765386257
 11
99.18843313492512
 21
-139.0195936067382
 72
     1
 10
99.18843313492512
 20
-139.0195936067382
 11
98.16179468032067
 21
-137.8039916647678
 72
     1
 10
98.16179468032067
 20
-137.8039916647678
 11
98.37056746672681
 21
-137.7009833097588
 72
     1
 10
98.37056746672681
 20
-137.7009833097588
 11
99.179820396212
 21
-138.6960991406732
 72
     1
 10
99.179820396212
 20
-138.6960991406732
 11
98.87699650305854
 21
-137.4512138870782
 72
     1
 10
98.87699650305854
 20
-137.4512138870782
 11
99.12779945438471
 21
-137.327707213932
 72
     1
 10
99.12779945438471
 20
-137.327707213932
 11
99.93085121199645
 21
-138.3255791212346
 72
     1
 10
99.93085121199645
 20
-138.3255791212346
 11
99.63595103845907
 21
-137.0769042626058
 72
     1
 10
99.63595103845907
 20
-137.0769042626058
 11
99.84472382486521
 21
-136.9738959075968
 72
     1
 10
99.84472382486521
 20
-136.9738959075968
 11
100.1844102397108
 21
-138.5284952453158
 97
        0
 75
     2
 76
     1
 98
        0
  0
ENDBLK
  5
44
330
41
100
AcDbEntity
  8
0
100
AcDbBlockEnd
  0
BLOCK
  5
84
330
82
100
AcDbEntity
  8
0
100
AcDbBlockBegin
  2
block 3
 70
     0
 10
0.0
 20
0.0
 30
0.0
  3
block 3
  1

  0
SPLINE
  5
86
330
82
100
AcDbEntity
  8
_U+30EC_U+30A4_U+30E4_U+30FC 1
370
     0
100
AcDbSpline
210
0.0
220
0.0
230
1.0
 70
    11
 71
     3
 72
    38
 73
    34
 74
     0
 42
0.0000000001
 43
0.0000000001
 12
1.0
 22
0.0
 32
0.0
 13
1.0
 23
0.0
 33
0.0
 40
0.0
 40
0.0
 40
0.0
 40
0.0
 40
1.0
 40
1.0
 40
1.0
 40
2.0
 40
2.0
 40
2.0
 40
3.0
 40
3.0
 40
3.0
 40
4.0
 40
4.0
 40
4.0
 40
5.0
 40
5.0
 40
5.0
 40
6.0
 40
6.0
 40
6.0
 40
7.0
 40
7.0
 40
7.0
 40
8.0
 40
8.0
 40
8.0
 40
9.0
 40
9.0
 40
9.0
 40
10.0
 40
10.0
 40
10.0
 40
11.0
 40
11.0
 40
11.0
 40
11.0
 10
109.7183674855912
 20
-138.7732692795428
 30
0.0
 10
109.3011664223275
 20
-138.5672525695249
 30
0.0
 10
109.2157280542933
 20
-138.1193901564424
 30
0.0
 10
109.4231228025053
 20
-137.6983994881448
 30
0.0
 10
109.6553222382112
 20
-137.2277994448597
 30
0.0
 10
110.0890597598041
 20
-137.1230685421081
 30
0.0
 10
110.4552734098862
 20
-137.3035915455352
 30
0.0
 10
110.7642984749131
 20
-137.4562092755318
 30
0.0
 10
110.9296630582051
 20
-137.7476643535839
 30
0.0
 10
110.8083956971243
 20
-138.0415309984757
 30
0.0
 10
110.8083956971243
 20
-138.0415309984757
 30
0.0
 10
110.6016899680093
 20
-137.9395561721123
 30
0.0
 10
110.6016899680093
 20
-137.9395561721123
 30
0.0
 10
110.659223062613
 20
-137.7369845575797
 30
0.0
 10
110.4979925939033
 20
-137.5654188024142
 30
0.0
 10
110.3539876026198
 20
-137.4944498354181
 30
0.0
 10
110.2609700245181
 20
-137.4486300654642
 30
0.0
 10
110.1424587398255
 20
-137.4255479257131
 30
0.0
 10
110.0256700028755
 20
-137.4527641800465
 30
0.0
 10
109.825165445634
 20
-137.4954833640636
 30
0.0
 10
109.7028645559076
 20
-137.6760063674907
 30
0.0
 10
109.6329291175571
 20
-137.8182888110316
 30
0.0
 10
109.4382812226404
 20
-138.2127522440927
 30
0.0
 10
109.6177706974219
 20
-138.4807806728451
 30
0.0
 10
109.8110405541445
 20
-138.5762098177865
 30
0.0
 10
109.9343749725164
 20
-138.6368434983269
 30
0.0
 10
110.2127386877246
 20
-138.6843858160234
 30
0.0
 10
110.3815483665018
 20
-138.4139458204313
 30
0.0
 10
110.3815483665018
 20
-138.4139458204313
 30
0.0
 10
110.5885986051654
 20
-138.5159206467946
 30
0.0
 10
110.5885986051654
 20
-138.5159206467946
 30
0.0
 10
110.5172851286207
 20
-138.631675855099
 30
0.0
 10
110.2613145340666
 20
-139.0409531987467
 30
0.0
 10
109.7183674855912
 20
-138.7732692795428
 30
0.0
  0
HATCH
  5
87
330
82
100
AcDbEntity
  8
_U+30EC_U+30A4_U+30E4_U+30FC 1
 62
   179
420
  2234388
100
AcDbHatch
 10
0.0
 20
0.0
 30
0.0
210
0.0
220
0.0
230
1.0
  2
SOLID
 70
     1
 71
     0
 91
        1
 92
        1
 93
        1
 72
     4
 94
        3
 73
     0
 74
     1
 95
       38
 96
       34
 40
0.0
 40
0.0
 40
0.0
 40
0.0
 40
1.0
 40
1.0
 40
1.0
 40
2.0
 40
2.0
 40
2.0
 40
3.0
 40
3.0
 40
3.0
 40
4.0
 40
4.0
 40
4.0
 40
5.0
 40
5.0
 40
5.0
 40
6.0
 40
6.0
 40
6.0
 40
7.0
 40
7.0
 40
7.0
 40
8.0
 40
8.0
 40
8.0
 40
9.0
 40
9.0
 40
9.0
 40
10.0
 40
10.0
 40
10.0
 40
11.0
 40
11.0
 40
11.0
 40
11.0
 10
109.7183674855912
 20
-138.7732692795428
 10
109.3011664223275
 20
-138.5672525695249
 10
109.2157280542933
 20
-138.1193901564424
 10
109.4231228025053
 20
-137.6983994881448
 10
109.6553222382112
 20
-137.2277994448597
 10
110.0890597598041
 20
-137.1230685421081
 10
110.4552734098862
 20
-137.3035915455352
 10
110.7642984749131
 20
-137.4562092755318
 10
110.9296630582051
 20
-137.7476643535839
 10
110.8083956971243
 20
-138.0415309984757
 10
110.8083956971243
 20
-138.0415309984757
 10
110.6016899680093
 20
-137.9395561721123
 10
110.6016899680093
 20
-137.9395561721123
 10
110.659223062613
 20
-137.7369845575797
 10
110.4979925939033
 20
-137.5654188024142
 10
110.3539876026198
 20
-137.4944498354181
 10
110.2609700245181
 20
-137.4486300654642
 10
110.1424587398255
 20
-137.4255479257131
 10
110.0256700028755
 20
-137.4527641800465
 10
109.825165445634
 20
-137.4954833640636
 10
109.7028645559076
 20
-137.6760063674907
 10
109.6329291175571
 20
-137.8182888110316
 10
109.4382812226404
 20
-138.2127522440927
 10
109.6177706974219
 20
-138.4807806728451
 10
109.8110405541445
 20
-138.5762098177865
 10
109.9343749725164
 20
-138.6368434983269
 10
110.2127386877246
 20
-138.6843858160234
 10
110.3815483665018
 20
-138.4139458204313
 10
110.3815483665018
 20
-138.4139458204313
 10
110.5885986051654
 20
-138.5159206467946
 10
110.5885986051654
 20
-138.5159206467946
 10
110.5172851286207
 20
-138.631675855099
 10
110.2613145340666
 20
-139.0409531987467
 10
109.7183674855912
 20
-138.7732692795428
 97
        0
 97
        0
 75
     2
 76
     1
 98
        0
  0
SPLINE
  5
88
330
82
100
AcDbEntity
  8
_U+30EC_U+30A4_U+30E4_U+30FC 1
370
     0
100
AcDbSpline
210
0.0
220
0.0
230
1.0
 70
    11
 71
     3
 72
    44
 73
    40
 74
     0
 42
0.0000000001
 43
0.0000000001
 12
1.0
 22
0.0
 32
0.0
 13
1.0
 23
0.0
 33
0.0
 40
0.0
 40
0.0
 40
0.0
 40
0.0
 40
1.0
 40
1.0
 40
1.0
 40
2.0
 40
2.0
 40
2.0
 40
3.0
 40
3.0
 40
3.0
 40
4.0
 40
4.0
 40
4.0
 40
5.0
 40
5.0
 40
5.0
 40
6.0
 40
6.0
 40
6.0
 40
7.0
 40
7.0
 40
7.0
 40
8.0
 40
8.0
 40
8.0
 40
9.0
 40
9.0
 40
9.0
 40
10.0
 40
10.0
 40
10.0
 40
11.0
 40
11.0
 40
11.0
 40
12.0
 40
12.0
 40
12.0
 40
13.0
 40
13.0
 40
13.0
 40
13.0
 10
111.4226562221443
 20
-139.5570285024371
 30
0.0
 10
111.4216226934988
 20
-139.507074617901
 30
0.0
 10
111.4261013176296
 20
-139.4502305423944
 30
0.0
 10
111.5260090867018
 20
-139.2424912846338
 30
0.0
 10
111.6300509703564
 20
-139.0223496831264
 30
0.0
 10
111.6076578497023
 20
-138.9338107291555
 30
0.0
 10
111.4481499287352
 20
-138.8552625520917
 30
0.0
 10
111.4481499287352
 20
-138.8552625520917
 30
0.0
 10
111.0822807882017
 20
-138.6743950391161
 30
0.0
 10
111.0822807882017
 20
-138.6743950391161
 30
0.0
 10
111.0822807882017
 20
-138.6743950391161
 30
0.0
 10
110.7984049202171
 20
-139.2493814756043
 30
0.0
 10
110.7984049202171
 20
-139.2493814756043
 30
0.0
 10
110.7984049202171
 20
-139.2493814756043
 30
0.0
 10
110.5879095860683
 20
-139.1453395919498
 30
0.0
 10
110.5879095860683
 20
-139.1453395919498
 30
0.0
 10
110.5879095860683
 20
-139.1453395919498
 30
0.0
 10
111.2710720207934
 20
-137.7604112068794
 30
0.0
 10
111.2710720207934
 20
-137.7604112068794
 30
0.0
 10
111.2710720207934
 20
-137.7604112068794
 30
0.0
 10
111.8760307880032
 20
-138.058756475902
 30
0.0
 10
111.8760307880032
 20
-138.058756475902
 30
0.0
 10
112.1516384268232
 20
-138.1944932380208
 30
0.0
 10
112.2257079797561
 20
-138.4222140495959
 30
0.0
 10
112.1123643382914
 20
-138.6516574089135
 30
0.0
 10
112.0899712176372
 20
-138.6971326693188
 30
0.0
 10
112.0455294858775
 20
-138.7674126172179
 30
0.0
 10
111.9704264042991
 20
-138.8201225781422
 30
0.0
 10
111.8712076543239
 20
-138.886957430556
 30
0.0
 10
111.8040282923615
 20
-138.8745550868092
 30
0.0
 10
111.7416720640785
 20
-138.8628417621593
 30
0.0
 10
111.8464029668301
 20
-138.961716002586
 30
0.0
 10
111.8856770553619
 20
-139.0354410459703
 30
0.0
 10
111.7499402932431
 20
-139.3196614235034
 30
0.0
 10
111.6338405753902
 20
-139.5642632029562
 30
0.0
 10
111.652099581462
 20
-139.6090494442644
 30
0.0
 10
111.6886175936056
 20
-139.6882866404252
 30
0.0
 10
111.6886175936056
 20
-139.6882866404252
 30
0.0
 10
111.4226562221443
 20
-139.5570285024371
 30
0.0
 10
111.4226562221443
 20
-139.5570285024371
 30
0.0
  0
SPLINE
  5
89
330
82
100
AcDbEntity
  8
_U+30EC_U+30A4_U+30E4_U+30FC 1
370
     0
100
AcDbSpline
210
0.0
220
0.0
230
1.0
 70
    11
 71
     3
 72
    20
 73
    16
 74
     0
 42
0.0000000001
 43
0.0000000001
 12
1.0
 22
0.0
 32
0.0
 13
1.0
 23
0.0
 33
0.0
 40
0.0
 40
0.0
 40
0.0
 40
0.0
 40
1.0
 40
1.0
 40
1.0
 40
2.0
 40
2.0
 40
2.0
 40
3.0
 40
3.0
 40
3.0
 40
4.0
 40
4.0
 40
4.0
 40
5.0
 40
5.0
 40
5.0
 40
5.0
 10
111.7864583053867
 20
-138.2506482944304
 30
0.0
 10
111.7864583053867
 20
-138.2506482944304
 30
0.0
 10
111.3882052672918
 20
-138.0539333422226
 30
0.0
 10
111.3882052672918
 20
-138.0539333422226
 30
0.0
 10
111.3882052672918
 20
-138.0539333422226
 30
0.0
 10
111.1756428758519
 20
-138.4845702778789
 30
0.0
 10
111.1756428758519
 20
-138.4845702778789
 30
0.0
 10
111.1756428758519
 20
-138.4845702778789
 30
0.0
 10
111.5721733662042
 20
-138.6802517014411
 30
0.0
 10
111.5721733662042
 20
-138.6802517014411
 30
0.0
 10
111.6614013392722
 20
-138.7243489236523
 30
0.0
 10
111.8164306361084
 20
-138.7160806944877
 30
0.0
 10
111.8922227367839
 20
-138.562084926297
 30
0.0
 10
111.9270182011849
 20
-138.4918049783979
 30
0.0
 10
111.9649142515227
 20
-138.3384982293043
 30
0.0
 10
111.7864583053867
 20
-138.2506482944304
 30
0.0
  0
HATCH
  5
8A
330
82
100
AcDbEntity
  8
_U+30EC_U+30A4_U+30E4_U+30FC 1
 62
   179
420
  2234388
100
AcDbHatch
 10
0.0
 20
0.0
 30
0.0
210
0.0
220
0.0
230
1.0
  2
SOLID
 70
     1
 71
     0
 91
        2
 92
        1
 93
        1
 72
     4
 94
        3
 73
     0
 74
     1
 95
       44
 96
       40
 40
0.0
 40
0.0
 40
0.0
 40
0.0
 40
1.0
 40
1.0
 40
1.0
 40
2.0
 40
2.0
 40
2.0
 40
3.0
 40
3.0
 40
3.0
 40
4.0
 40
4.0
 40
4.0
 40
5.0
 40
5.0
 40
5.0
 40
6.0
 40
6.0
 40
6.0
 40
7.0
 40
7.0
 40
7.0
 40
8.0
 40
8.0
 40
8.0
 40
9.0
 40
9.0
 40
9.0
 40
10.0
 40
10.0
 40
10.0
 40
11.0
 40
11.0
 40
11.0
 40
12.0
 40
12.0
 40
12.0
 40
13.0
 40
13.0
 40
13.0
 40
13.0
 10
111.4226562221443
 20
-139.5570285024371
 10
111.4216226934988
 20
-139.507074617901
 10
111.4261013176296
 20
-139.4502305423944
 10
111.5260090867018
 20
-139.2424912846338
 10
111.6300509703564
 20
-139.0223496831264
 10
111.6076578497023
 20
-138.9338107291555
 10
111.4481499287352
 20
-138.8552625520917
 10
111.4481499287352
 20
-138.8552625520917
 10
111.0822807882017
 20
-138.6743950391161
 10
111.0822807882017
 20
-138.6743950391161
 10
111.0822807882017
 20
-138.6743950391161
 10
110.7984049202171
 20
-139.2493814756043
 10
110.7984049202171
 20
-139.2493814756043
 10
110.7984049202171
 20
-139.2493814756043
 10
110.5879095860683
 20
-139.1453395919498
 10
110.5879095860683
 20
-139.1453395919498
 10
110.5879095860683
 20
-139.1453395919498
 10
111.2710720207934
 20
-137.7604112068794
 10
111.2710720207934
 20
-137.7604112068794
 10
111.2710720207934
 20
-137.7604112068794
 10
111.8760307880032
 20
-138.058756475902
 10
111.8760307880032
 20
-138.058756475902
 10
112.1516384268232
 20
-138.1944932380208
 10
112.2257079797561
 20
-138.4222140495959
 10
112.1123643382914
 20
-138.6516574089135
 10
112.0899712176372
 20
-138.6971326693188
 10
112.0455294858775
 20
-138.7674126172179
 10
111.9704264042991
 20
-138.8201225781422
 10
111.8712076543239
 20
-138.886957430556
 10
111.8040282923615
 20
-138.8745550868092
 10
111.7416720640785
 20
-138.8628417621593
 10
111.8464029668301
 20
-138.961716002586
 10
111.8856770553619
 20
-139.0354410459703
 10
111.7499402932431
 20
-139.3196614235034
 10
111.6338405753902
 20
-139.5642632029562
 10
111.652099581462
 20
-139.6090494442644
 10
111.6886175936056
 20
-139.6882866404252
 10
111.6886175936056
 20
-139.6882866404252
 10
111.4226562221443
 20
-139.5570285024371
 10
111.4226562221443
 20
-139.5570285024371
 97
        0
 97
        0
 92
        1
 93
        1
 72
     4
 94
        3
 73
     0
 74
     1
 95
       20
 96
       16
 40
0.0
 40
0.0
 40
0.0
 40
0.0
 40
1.0
 40
1.0
 40
1.0
 40
2.0
 40
2.0
 40
2.0
 40
3.0
 40
3.0
 40
3.0
 40
4.0
 40
4.0
 40
4.0
 40
5.0
 40
5.0
 40
5.0
 40
5.0
 10
111.7864583053867
 20
-138.2506482944304
 10
111.7864583053867
 20
-138.2506482944304
 10
111.3882052672918
 20
-138.0539333422226
 10
111.3882052672918
 20
-138.0539333422226
 10
111.3882052672918
 20
-138.0539333422226
 10
111.1756428758519
 20
-138.4845702778789
 10
111.1756428758519
 20
-138.4845702778789
 10
111.1756428758519
 20
-138.4845702778789
 10
111.5721733662042
 20
-138.6802517014411
 10
111.5721733662042
 20
-138.6802517014411
 10
111.6614013392722
 20
-138.7243489236523
 10
111.8164306361084
 20
-138.7160806944877
 10
111.8922227367839
 20
-138.562084926297
 10
111.9270182011849
 20
-138.4918049783979
 10
111.9649142515227
 20
-138.3384982293043
 10
111.7864583053867
 20
-138.2506482944304
 97
        0
 97
        0
 75
     2
 76
     1
 98
        0
  0
SPLINE
  5
8B
330
82
100
AcDbEntity
  8
_U+30EC_U+30A4_U+30E4_U+30FC 1
370
     0
100
AcDbSpline
210
0.0
220
0.0
230
1.0
 70
    11
 71
     3
 72
    26
 73
    22
 74
     0
 42
0.0000000001
 43
0.0000000001
 12
1.0
 22
0.0
 32
0.0
 13
1.0
 23
0.0
 33
0.0
 40
0.0
 40
0.0
 40
0.0
 40
0.0
 40
1.0
 40
1.0
 40
1.0
 40
2.0
 40
2.0
 40
2.0
 40
3.0
 40
3.0
 40
3.0
 40
4.0
 40
4.0
 40
4.0
 40
5.0
 40
5.0
 40
5.0
 40
6.0
 40
6.0
 40
6.0
 40
7.0
 40
7.0
 40
7.0
 40
7.0
 10
112.7896701106915
 20
-139.5284342099096
 30
0.0
 10
112.7896701106915
 20
-139.5284342099096
 30
0.0
 10
112.3834933529805
 20
-139.327929652668
 30
0.0
 10
112.3834933529805
 20
-139.327929652668
 30
0.0
 10
112.3834933529805
 20
-139.327929652668
 30
0.0
 10
112.1047851282238
 20
-139.893614331346
 30
0.0
 10
112.1047851282238
 20
-139.893614331346
 30
0.0
 10
112.1047851282238
 20
-139.893614331346
 30
0.0
 10
111.894289794075
 20
-139.7895724476915
 30
0.0
 10
111.894289794075
 20
-139.7895724476915
 30
0.0
 10
111.894289794075
 20
-139.7895724476915
 30
0.0
 10
112.5774522288001
 20
-138.4046440626211
 30
0.0
 10
112.5774522288001
 20
-138.4046440626211
 30
0.0
 10
112.5774522288001
 20
-138.4046440626211
 30
0.0
 10
113.1941243206598
 20
-138.7085014844201
 30
0.0
 10
113.1941243206598
 20
-138.7085014844201
 30
0.0
 10
113.4518174629565
 20
-138.8359700173743
 30
0.0
 10
113.5637830662271
 20
-139.072648077211
 30
0.0
 10
113.4318359091421
 20
-139.3403319964149
 30
0.0
 10
113.3222818727111
 20
-139.562196145665
 30
0.0
 10
113.0876708701656
 20
-139.6751952775812
 30
0.0
 10
112.7896701106915
 20
-139.5284342099096
 30
0.0
  0
SPLINE
  5
8C
330
82
100
AcDbEntity
  8
_U+30EC_U+30A4_U+30E4_U+30FC 1
370
     0
100
AcDbSpline
210
0.0
220
0.0
230
1.0
 70
    11
 71
     3
 72
    20
 73
    16
 74
     0
 42
0.0000000001
 43
0.0000000001
 12
1.0
 22
0.0
 32
0.0
 13
1.0
 23
0.0
 33
0.0
 40
0.0
 40
0.0
 40
0.0
 40
0.0
 40
1.0
 40
1.0
 40
1.0
 40
2.0
 40
2.0
 40
2.0
 40
3.0
 40
3.0
 40
3.0
 40
4.0
 40
4.0
 40
4.0
 40
5.0
 40
5.0
 40
5.0
 40
5.0
 10
113.0928385133935
 20
-138.8945366406236
 30
0.0
 10
113.0928385133935
 20
-138.8945366406236
 30
0.0
 10
112.6938964562015
 20
-138.6981661979644
 30
0.0
 10
112.6938964562015
 20
-138.6981661979644
 30
0.0
 10
112.6938964562015
 20
-138.6981661979644
 30
0.0
 10
112.4768554406308
 20
-139.1384494009793
 30
0.0
 10
112.4768554406308
 20
-139.1384494009793
 30
0.0
 10
112.4768554406308
 20
-139.1384494009793
 30
0.0
 10
112.8757974978227
 20
-139.3348198436385
 30
0.0
 10
112.8757974978227
 20
-139.3348198436385
 30
0.0
 10
113.0253146418826
 20
-139.4085448870229
 30
0.0
 10
113.1520941557398
 20
-139.3530788497104
 30
0.0
 10
113.2137613649257
 20
-139.2280218835958
 30
0.0
 10
113.2644042685589
 20
-139.1253580381353
 30
0.0
 10
113.2616481921707
 20
-138.9779079513666
 30
0.0
 10
113.0928385133935
 20
-138.8945366406236
 30
0.0
  0
HATCH
  5
8D
330
82
100
AcDbEntity
  8
_U+30EC_U+30A4_U+30E4_U+30FC 1
 62
   179
420
  2234388
100
AcDbHatch
 10
0.0
 20
0.0
 30
0.0
210
0.0
220
0.0
230
1.0
  2
SOLID
 70
     1
 71
     0
 91
        2
 92
        1
 93
        1
 72
     4
 94
        3
 73
     0
 74
     1
 95
       26
 96
       22
 40
0.0
 40
0.0
 40
0.0
 40
0.0
 40
1.0
 40
1.0
 40
1.0
 40
2.0
 40
2.0
 40
2.0
 40
3.0
 40
3.0
 40
3.0
 40
4.0
 40
4.0
 40
4.0
 40
5.0
 40
5.0
 40
5.0
 40
6.0
 40
6.0
 40
6.0
 40
7.0
 40
7.0
 40
7.0
 40
7.0
 10
112.7896701106915
 20
-139.5284342099096
 10
112.7896701106915
 20
-139.5284342099096
 10
112.3834933529805
 20
-139.327929652668
 10
112.3834933529805
 20
-139.327929652668
 10
112.3834933529805
 20
-139.327929652668
 10
112.1047851282238
 20
-139.893614331346
 10
112.1047851282238
 20
-139.893614331346
 10
112.1047851282238
 20
-139.893614331346
 10
111.894289794075
 20
-139.7895724476915
 10
111.894289794075
 20
-139.7895724476915
 10
111.894289794075
 20
-139.7895724476915
 10
112.5774522288001
 20
-138.4046440626211
 10
112.5774522288001
 20
-138.4046440626211
 10
112.5774522288001
 20
-138.4046440626211
 10
113.1941243206598
 20
-138.7085014844201
 10
113.1941243206598
 20
-138.7085014844201
 10
113.4518174629565
 20
-138.8359700173743
 10
113.5637830662271
 20
-139.072648077211
 10
113.4318359091421
 20
-139.3403319964149
 10
113.3222818727111
 20
-139.562196145665
 10
113.0876708701656
 20
-139.6751952775812
 10
112.7896701106915
 20
-139.5284342099096
 97
        0
 97
        0
 92
        1
 93
        1
 72
     4
 94
        3
 73
     0
 74
     1
 95
       20
 96
       16
 40
0.0
 40
0.0
 40
0.0
 40
0.0
 40
1.0
 40
1.0
 40
1.0
 40
2.0
 40
2.0
 40
2.0
 40
3.0
 40
3.0
 40
3.0
 40
4.0
 40
4.0
 40
4.0
 40
5.0
 40
5.0
 40
5.0
 40
5.0
 10
113.0928385133935
 20
-138.8945366406236
 10
113.0928385133935
 20
-138.8945366406236
 10
112.6938964562015
 20
-138.6981661979644
 10
112.6938964562015
 20
-138.6981661979644
 10
112.6938964562015
 20
-138.6981661979644
 10
112.4768554406308
 20
-139.1384494009793
 10
112.4768554406308
 20
-139.1384494009793
 10
112.4768554406308
 20
-139.1384494009793
 10
112.8757974978227
 20
-139.3348198436385
 10
112.8757974978227
 20
-139.3348198436385
 10
113.0253146418826
 20
-139.4085448870229
 10
113.1520941557398
 20
-139.3530788497104
 10
113.2137613649257
 20
-139.2280218835958
 10
113.2644042685589
 20
-139.1253580381353
 10
113.2616481921707
 20
-138.9779079513666
 10
113.0928385133935
 20
-138.8945366406236
 97
        0
 97
        0
 75
     2
 76
     1
 98
        0
  0
POLYLINE
  5
8E
330
82
100
AcDbEntity
  8
_U+30EC_U+30A4_U+30E4_U+30FC 1
370
     0
100
AcDb2dPolyline
 66
     1
 10
0.0
 20
0.0
 30
0.0
  0
VERTEX
  5
8F
330
8E
100
AcDbEntity
  8
_U+30EC_U+30A4_U+30E4_U+30FC 1
370
     0
100
AcDbVertex
100
AcDb2dVertex
 10
113.2685383831412
 20
-139.9697509415701
 30
0.0
  0
VERTEX
  5
90
330
8E
100
AcDbEntity
  8
_U+30EC_U+30A4_U+30E4_U+30FC 1
370
     0
100
AcDbVertex
100
AcDb2dVertex
 10
113.3639675280826
 20
-139.776136575299
 30
0.0
  0
VERTEX
  5
91
330
8E
100
AcDbEntity
  8
_U+30EC_U+30A4_U+30E4_U+30FC 1
370
     0
100
AcDbVertex
100
AcDb2dVertex
 10
113.8896890991317
 20
-140.0352077557898
 30
0.0
  0
VERTEX
  5
92
330
8E
100
AcDbEntity
  8
_U+30EC_U+30A4_U+30E4_U+30FC 1
370
     0
100
AcDbVertex
100
AcDb2dVertex
 10
113.7942599541903
 20
-140.2288221220608
 30
0.0
  0
VERTEX
  5
93
330
8E
100
AcDbEntity
  8
_U+30EC_U+30A4_U+30E4_U+30FC 1
370
     0
100
AcDbVertex
100
AcDb2dVertex
 10
113.2685383831412
 20
-139.9697509415701
 30
0.0
  0
SEQEND
  5
94
330
8E
100
AcDbEntity
  8
_U+30EC_U+30A4_U+30E4_U+30FC 1
370
     0
  0
HATCH
  5
95
330
82
100
AcDbEntity
  8
_U+30EC_U+30A4_U+30E4_U+30FC 1
 62
   179
420
  2234388
100
AcDbHatch
 10
0.0
 20
0.0
 30
0.0
210
0.0
220
0.0
230
1.0
  2
SOLID
 70
     1
 71
     0
 91
        1
 92
        1
 93
        4
 72
     1
 10
113.2685383831412
 20
-139.9697509415701
 11
113.3639675280826
 21
-139.776136575299
 72
     1
 10
113.3639675280826
 20
-139.776136575299
 11
113.8896890991317
 21
-140.0352077557898
 72
     1
 10
113.8896890991317
 20
-140.0352077557898
 11
113.7942599541903
 21
-140.2288221220608
 72
     1
 10
113.7942599541903
 20
-140.2288221220608
 11
113.2685383831412
 21
-139.9697509415701
 97
        0
 75
     2
 76
     1
 98
        0
  0
SPLINE
  5
96
330
82
100
AcDbEntity
  8
_U+30EC_U+30A4_U+30E4_U+30FC 1
370
     0
100
AcDbSpline
210
0.0
220
0.0
230
1.0
 70
    11
 71
     3
 72
    62
 73
    58
 74
     0
 42
0.0000000001
 43
0.0000000001
 12
1.0
 22
0.0
 32
0.0
 13
1.0
 23
0.0
 33
0.0
 40
0.0
 40
0.0
 40
0.0
 40
0.0
 40
1.0
 40
1.0
 40
1.0
 40
2.0
 40
2.0
 40
2.0
 40
3.0
 40
3.0
 40
3.0
 40
4.0
 40
4.0
 40
4.0
 40
5.0
 40
5.0
 40
5.0
 40
6.0
 40
6.0
 40
6.0
 40
7.0
 40
7.0
 40
7.0
 40
8.0
 40
8.0
 40
8.0
 40
9.0
 40
9.0
 40
9.0
 40
10.0
 40
10.0
 40
10.0
 40
11.0
 40
11.0
 40
11.0
 40
12.0
 40
12.0
 40
12.0
 40
13.0
 40
13.0
 40
13.0
 40
14.0
 40
14.0
 40
14.0
 40
15.0
 40
15.0
 40
15.0
 40
16.0
 40
16.0
 40
16.0
 40
17.0
 40
17.0
 40
17.0
 40
18.0
 40
18.0
 40
18.0
 40
19.0
 40
19.0
 40
19.0
 40
19.0
 10
114.1308457830992
 20
-140.9491915880266
 30
0.0
 10
114.0450629055165
 20
-140.906816913558
 30
0.0
 10
113.859027749313
 20
-140.7917507243507
 30
0.0
 10
113.8293999281399
 20
-140.5695420655521
 30
0.0
 10
113.8128634698107
 20
-140.4362168702729
 30
0.0
 10
113.8528265774396
 20
-140.3449218399138
 30
0.0
 10
113.886588513195
 20
-140.2674071914957
 30
0.0
 10
113.886588513195
 20
-140.2674071914957
 30
0.0
 10
114.0839924844998
 20
-140.3649033937282
 30
0.0
 10
114.0839924844998
 20
-140.3649033937282
 30
0.0
 10
114.0533311346811
 20
-140.4320827556906
 30
0.0
 10
113.9585910088367
 20
-140.6474012235187
 30
0.0
 10
114.2128390556482
 20
-140.7728026991818
 30
0.0
 10
114.3361734740201
 20
-140.8334363797222
 30
0.0
 10
114.5039496241518
 20
-140.8382595134015
 30
0.0
 10
114.6048909218696
 20
-140.6336208415777
 30
0.0
 10
114.6562228445998
 20
-140.5288899388261
 30
0.0
 10
114.6438205008529
 20
-140.4682562582857
 30
0.0
 10
114.6293510998149
 20
-140.4258815838172
 30
0.0
 10
114.5955891640594
 20
-140.3270073433905
 30
0.0
 10
114.4967149236328
 20
-140.2639620960104
 30
0.0
 10
114.4474500581937
 20
-140.2398464276137
 30
0.0
 10
114.4302245807674
 20
-140.2312336889005
 30
0.0
 10
114.397151664109
 20
-140.2174533069595
 30
0.0
 10
114.3706244288726
 20
-140.2084960586979
 30
0.0
 10
114.3706244288726
 20
-140.2084960586979
 30
0.0
 10
114.4567518160039
 20
-140.0341742271442
 30
0.0
 10
114.4567518160039
 20
-140.0341742271442
 30
0.0
 10
114.4881021849196
 20
-140.0569118573469
 30
0.0
 10
114.5249647066118
 20
-140.0775824302584
 30
0.0
 10
114.5308213689367
 20
-140.0803385066466
 30
0.0
 10
114.589387992186
 20
-140.1092773087227
 30
0.0
 10
114.7771456961321
 20
-140.1781792184277
 30
0.0
 10
114.8822211084322
 20
-139.9656168269878
 30
0.0
 10
114.9607692854959
 20
-139.8064534155692
 30
0.0
 10
114.8674071978457
 20
-139.6989664364294
 30
0.0
 10
114.768532957419
 20
-139.6503905900874
 30
0.0
 10
114.5318548975823
 20
-139.5332573435889
 30
0.0
 10
114.4212673325058
 20
-139.7382405249613
 30
0.0
 10
114.3854383394592
 20
-139.8009412627928
 30
0.0
 10
114.3854383394592
 20
-139.8009412627928
 30
0.0
 10
114.2031927882895
 20
-139.7110242706278
 30
0.0
 10
114.2031927882895
 20
-139.7110242706278
 30
0.0
 10
114.2662380356696
 20
-139.602848272391
 30
0.0
 10
114.4574408351009
 20
-139.2776312585834
 30
0.0
 10
114.8670626882971
 20
-139.479513854019
 30
0.0
 10
115.0682562646357
 20
-139.5787326039942
 30
0.0
 10
115.2284532046998
 20
-139.7992187150502
 30
0.0
 10
115.0971950667118
 20
-140.0644910674145
 30
0.0
 10
115.0152017941629
 20
-140.2319227079976
 30
0.0
 10
114.893245413985
 20
-140.2636175864619
 30
0.0
 10
114.7768011865836
 20
-140.2746418920147
 30
0.0
 10
114.8195203706007
 20
-140.3263183242934
 30
0.0
 10
114.9473334131035
 20
-140.4792805638385
 30
0.0
 10
114.8246880138285
 20
-140.727671948325
 30
0.0
 10
114.6748263602202
 20
-141.0311848605755
 30
0.0
 10
114.3792371675858
 20
-141.071492477753
 30
0.0
 10
114.1308457830992
 20
-140.9491915880266
 30
0.0
  0
HATCH
  5
97
330
82
100
AcDbEntity
  8
_U+30EC_U+30A4_U+30E4_U+30FC 1
 62
   179
420
  2234388
100
AcDbHatch
 10
0.0
 20
0.0
 30
0.0
210
0.0
220
0.0
230
1.0
  2
SOLID
 70
     1
 71
     0
 91
        1
 92
        1
 93
        1
 72
     4
 94
        3
 73
     0
 74
     1
 95
       62
 96
       58
 40
0.0
 40
0.0
 40
0.0
 40
0.0
 40
1.0
 40
1.0
 40
1.0
 40
2.0
 40
2.0
 40
2.0
 40
3.0
 40
3.0
 40
3.0
 40
4.0
 40
4.0
 40
4.0
 40
5.0
 40
5.0
 40
5.0
 40
6.0
 40
6.0
 40
6.0
 40
7.0
 40
7.0
 40
7.0
 40
8.0
 40
8.0
 40
8.0
 40
9.0
 40
9.0
 40
9.0
 40
10.0
 40
10.0
 40
10.0
 40
11.0
 40
11.0
 40
11.0
 40
12.0
 40
12.0
 40
12.0
 40
13.0
 40
13.0
 40
13.0
 40
14.0
 40
14.0
 40
14.0
 40
15.0
 40
15.0
 40
15.0
 40
16.0
 40
16.0
 40
16.0
 40
17.0
 40
17.0
 40
17.0
 40
18.0
 40
18.0
 40
18.0
 40
19.0
 40
19.0
 40
19.0
 40
19.0
 10
114.1308457830992
 20
-140.9491915880266
 10
114.0450629055165
 20
-140.906816913558
 10
113.859027749313
 20
-140.7917507243507
 10
113.8293999281399
 20
-140.5695420655521
 10
113.8128634698107
 20
-140.4362168702729
 10
113.8528265774396
 20
-140.3449218399138
 10
113.886588513195
 20
-140.2674071914957
 10
113.886588513195
 20
-140.2674071914957
 10
114.0839924844998
 20
-140.3649033937282
 10
114.0839924844998
 20
-140.3649033937282
 10
114.0533311346811
 20
-140.4320827556906
 10
113.9585910088367
 20
-140.6474012235187
 10
114.2128390556482
 20
-140.7728026991818
 10
114.3361734740201
 20
-140.8334363797222
 10
114.5039496241518
 20
-140.8382595134015
 10
114.6048909218696
 20
-140.6336208415777
 10
114.6562228445998
 20
-140.5288899388261
 10
114.6438205008529
 20
-140.4682562582857
 10
114.6293510998149
 20
-140.4258815838172
 10
114.5955891640594
 20
-140.3270073433905
 10
114.4967149236328
 20
-140.2639620960104
 10
114.4474500581937
 20
-140.2398464276137
 10
114.4302245807674
 20
-140.2312336889005
 10
114.397151664109
 20
-140.2174533069595
 10
114.3706244288726
 20
-140.2084960586979
 10
114.3706244288726
 20
-140.2084960586979
 10
114.4567518160039
 20
-140.0341742271442
 10
114.4567518160039
 20
-140.0341742271442
 10
114.4881021849196
 20
-140.0569118573469
 10
114.5249647066118
 20
-140.0775824302584
 10
114.5308213689367
 20
-140.0803385066466
 10
114.589387992186
 20
-140.1092773087227
 10
114.7771456961321
 20
-140.1781792184277
 10
114.8822211084322
 20
-139.9656168269878
 10
114.9607692854959
 20
-139.8064534155692
 10
114.8674071978457
 20
-139.6989664364294
 10
114.768532957419
 20
-139.6503905900874
 10
114.5318548975823
 20
-139.5332573435889
 10
114.4212673325058
 20
-139.7382405249613
 10
114.3854383394592
 20
-139.8009412627928
 10
114.3854383394592
 20
-139.8009412627928
 10
114.2031927882895
 20
-139.7110242706278
 10
114.2031927882895
 20
-139.7110242706278
 10
114.2662380356696
 20
-139.602848272391
 10
114.4574408351009
 20
-139.2776312585834
 10
114.8670626882971
 20
-139.479513854019
 10
115.0682562646357
 20
-139.5787326039942
 10
115.2284532046998
 20
-139.7992187150502
 10
115.0971950667118
 20
-140.0644910674145
 10
115.0152017941629
 20
-140.2319227079976
 10
114.893245413985
 20
-140.2636175864619
 10
114.7768011865836
 20
-140.2746418920147
 10
114.8195203706007
 20
-140.3263183242934
 10
114.9473334131035
 20
-140.4792805638385
 10
114.8246880138285
 20
-140.727671948325
 10
114.6748263602202
 20
-141.0311848605755
 10
114.3792371675858
 20
-141.071492477753
 10
114.1308457830992
 20
-140.9491915880266
 97
        0
 97
        0
 75
     2
 76
     1
 98
        0
  0
SPLINE
  5
98
330
82
100
AcDbEntity
  8
_U+30EC_U+30A4_U+30E4_U+30FC 1
370
     0
100
AcDbSpline
210
0.0
220
0.0
230
1.0
 70
    11
 71
     3
 72
    29
 73
    25
 74
     0
 42
0.0000000001
 43
0.0000000001
 12
1.0
 22
0.0
 32
0.0
 13
1.0
 23
0.0
 33
0.0
 40
0.0
 40
0.0
 40
0.0
 40
0.0
 40
1.0
 40
1.0
 40
1.0
 40
2.0
 40
2.0
 40
2.0
 40
3.0
 40
3.0
 40
3.0
 40
4.0
 40
4.0
 40
4.0
 40
5.0
 40
5.0
 40
5.0
 40
6.0
 40
6.0
 40
6.0
 40
7.0
 40
7.0
 40
7.0
 40
8.0
 40
8.0
 40
8.0
 40
8.0
 10
115.6515109302885
 20
-141.444251809257
 30
0.0
 10
115.4620306785998
 20
-141.5844671955067
 30
0.0
 10
115.2980441335019
 20
-141.5248670436118
 30
0.0
 10
115.1936577402988
 20
-141.4731906113331
 30
0.0
 10
115.0493082394668
 20
-141.4022216443369
 30
0.0
 10
114.9428547889726
 20
-141.2978352511339
 30
0.0
 10
114.9380316552933
 20
-141.092507560213
 30
0.0
 10
114.9311414643228
 20
-140.8723659587055
 30
0.0
 10
115.0189913991967
 20
-140.651535338101
 30
0.0
 10
115.0909938948384
 20
-140.5051187799779
 30
0.0
 10
115.1547281613155
 20
-140.375927699281
 30
0.0
 10
115.2811631656242
 20
-140.1578531550647
 30
0.0
 10
115.4637532263424
 20
-140.0262505075282
 30
0.0
 10
115.6504774016429
 20
-139.8918917836034
 30
0.0
 10
115.8051621889307
 20
-139.9421901776881
 30
0.0
 10
115.9205728876865
 20
-139.9990342531947
 30
0.0
 10
116.0631998407759
 20
-140.0693142010938
 30
0.0
 10
116.1724093676583
 20
-140.1726670656513
 30
0.0
 10
116.1775770108862
 20
-140.3779947565722
 30
0.0
 10
116.1813666159199
 20
-140.5946912625944
 30
0.0
 10
116.1014404006621
 20
-140.8100097304225
 30
0.0
 10
116.0246147713411
 20
-140.9653835368073
 30
0.0
 10
115.9488226706656
 20
-141.1193793049979
 30
0.0
 10
115.8275553095848
 20
-141.3164387667542
 30
0.0
 10
115.6515109302885
 20
-141.444251809257
 30
0.0
  0
SPLINE
  5
99
330
82
100
AcDbEntity
  8
_U+30EC_U+30A4_U+30E4_U+30FC 1
370
     0
100
AcDbSpline
210
0.0
220
0.0
230
1.0
 70
    11
 71
     3
 72
    17
 73
    13
 74
     0
 42
0.0000000001
 43
0.0000000001
 12
1.0
 22
0.0
 32
0.0
 13
1.0
 23
0.0
 33
0.0
 40
0.0
 40
0.0
 40
0.0
 40
0.0
 40
1.0
 40
1.0
 40
1.0
 40
2.0
 40
2.0
 40
2.0
 40
3.0
 40
3.0
 40
3.0
 40
4.0
 40
4.0
 40
4.0
 40
4.0
 10
115.8354790292009
 20
-140.1716335370057
 30
0.0
 10
115.6118923322081
 20
-140.0613904814777
 30
0.0
 10
115.444460691625
 20
-140.2949679553776
 30
0.0
 10
115.292187471177
 20
-140.6039930204046
 30
0.0
 10
115.1505940467332
 20
-140.8906249647773
 30
0.0
 10
115.0465521630786
 20
-141.1838025905721
 30
0.0
 10
115.2797851274301
 20
-141.2988687797795
 30
0.0
 10
115.5019937862287
 20
-141.4084228162104
 30
0.0
 10
115.6697699363603
 20
-141.1772569091501
 30
0.0
 10
115.8234211950025
 20
-140.8661647868321
 30
0.0
 10
115.9646701098977
 20
-140.5798773520078
 30
0.0
 10
116.0669894458097
 20
-140.2856661975675
 30
0.0
 10
115.8354790292009
 20
-140.1716335370057
 30
0.0
  0
HATCH
  5
9A
330
82
100
AcDbEntity
  8
_U+30EC_U+30A4_U+30E4_U+30FC 1
 62
   179
420
  2234388
100
AcDbHatch
 10
0.0
 20
0.0
 30
0.0
210
0.0
220
0.0
230
1.0
  2
SOLID
 70
     1
 71
     0
 91
        2
 92
        1
 93
        1
 72
     4
 94
        3
 73
     0
 74
     1
 95
       29
 96
       25
 40
0.0
 40
0.0
 40
0.0
 40
0.0
 40
1.0
 40
1.0
 40
1.0
 40
2.0
 40
2.0
 40
2.0
 40
3.0
 40
3.0
 40
3.0
 40
4.0
 40
4.0
 40
4.0
 40
5.0
 40
5.0
 40
5.0
 40
6.0
 40
6.0
 40
6.0
 40
7.0
 40
7.0
 40
7.0
 40
8.0
 40
8.0
 40
8.0
 40
8.0
 10
115.6515109302885
 20
-141.444251809257
 10
115.4620306785998
 20
-141.5844671955067
 10
115.2980441335019
 20
-141.5248670436118
 10
115.1936577402988
 20
-141.4731906113331
 10
115.0493082394668
 20
-141.4022216443369
 10
114.9428547889726
 20
-141.2978352511339
 10
114.9380316552933
 20
-141.092507560213
 10
114.9311414643228
 20
-140.8723659587055
 10
115.0189913991967
 20
-140.651535338101
 10
115.0909938948384
 20
-140.5051187799779
 10
115.1547281613155
 20
-140.375927699281
 10
115.2811631656242
 20
-140.1578531550647
 10
115.4637532263424
 20
-140.0262505075282
 10
115.6504774016429
 20
-139.8918917836034
 10
115.8051621889307
 20
-139.9421901776881
 10
115.9205728876865
 20
-139.9990342531947
 10
116.0631998407759
 20
-140.0693142010938
 10
116.1724093676583
 20
-140.1726670656513
 10
116.1775770108862
 20
-140.3779947565722
 10
116.1813666159199
 20
-140.5946912625944
 10
116.1014404006621
 20
-140.8100097304225
 10
116.0246147713411
 20
-140.9653835368073
 10
115.9488226706656
 20
-141.1193793049979
 10
115.8275553095848
 20
-141.3164387667542
 10
115.6515109302885
 20
-141.444251809257
 97
        0
 97
        0
 92
        1
 93
        1
 72
     4
 94
        3
 73
     0
 74
     1
 95
       17
 96
       13
 40
0.0
 40
0.0
 40
0.0
 40
0.0
 40
1.0
 40
1.0
 40
1.0
 40
2.0
 40
2.0
 40
2.0
 40
3.0
 40
3.0
 40
3.0
 40
4.0
 40
4.0
 40
4.0
 40
4.0
 10
115.8354790292009
 20
-140.1716335370057
 10
115.6118923322081
 20
-140.0613904814777
 10
115.444460691625
 20
-140.2949679553776
 10
115.292187471177
 20
-140.6039930204046
 10
115.1505940467332
 20
-140.8906249647773
 10
115.0465521630786
 20
-141.1838025905721
 10
115.2797851274301
 20
-141.2988687797795
 10
115.5019937862287
 20
-141.4084228162104
 10
115.6697699363603
 20
-141.1772569091501
 10
115.8234211950025
 20
-140.8661647868321
 10
115.9646701098977
 20
-140.5798773520078
 10
116.0669894458097
 20
-140.2856661975675
 10
115.8354790292009
 20
-140.1716335370057
 97
        0
 97
        0
 75
     2
 76
     1
 98
        0
  0
POLYLINE
  5
9B
330
82
100
AcDbEntity
  8
_U+30EC_U+30A4_U+30E4_U+30FC 1
370
     0
100
AcDb2dPolyline
 66
     1
 10
0.0
 20
0.0
 30
0.0
  0
VERTEX
  5
9C
330
9B
100
AcDbEntity
  8
_U+30EC_U+30A4_U+30E4_U+30FC 1
370
     0
100
AcDbVertex
100
AcDb2dVertex
 10
117.0267930480003
 20
-142.3206841007046
 30
0.0
  0
VERTEX
  5
9D
330
9B
100
AcDbEntity
  8
_U+30EC_U+30A4_U+30E4_U+30FC 1
370
     0
100
AcDbVertex
100
AcDb2dVertex
 10
117.499115639028
 20
-141.3626030462566
 30
0.0
  0
VERTEX
  5
9E
330
9B
100
AcDbEntity
  8
_U+30EC_U+30A4_U+30E4_U+30FC 1
370
     0
100
AcDbVertex
100
AcDb2dVertex
 10
117.5769747969946
 20
-141.2192870740702
 30
0.0
  0
VERTEX
  5
9F
330
9B
100
AcDbEntity
  8
_U+30EC_U+30A4_U+30E4_U+30FC 1
370
     0
100
AcDbVertex
100
AcDb2dVertex
 10
117.4763780088253
 20
-141.3419324733451
 30
0.0
  0
VERTEX
  5
A0
330
9B
100
AcDbEntity
  8
_U+30EC_U+30A4_U+30E4_U+30FC 1
370
     0
100
AcDbVertex
100
AcDb2dVertex
 10
116.6908962381884
 20
-142.154975007864
 30
0.0
  0
VERTEX
  5
A1
330
9B
100
AcDbEntity
  8
_U+30EC_U+30A4_U+30E4_U+30FC 1
370
     0
100
AcDbVertex
100
AcDb2dVertex
 10
116.4480170064783
 20
-142.0354301945259
 30
0.0
  0
VERTEX
  5
A2
330
9B
100
AcDbEntity
  8
_U+30EC_U+30A4_U+30E4_U+30FC 1
370
     0
100
AcDbVertex
100
AcDb2dVertex
 10
116.6168266852555
 20
-140.9178412191108
 30
0.0
  0
VERTEX
  5
A3
330
9B
100
AcDbEntity
  8
_U+30EC_U+30A4_U+30E4_U+30FC 1
370
     0
100
AcDbVertex
100
AcDb2dVertex
 10
116.6530001878507
 20
-140.7635009413716
 30
0.0
  0
VERTEX
  5
A4
330
9B
100
AcDbEntity
  8
_U+30EC_U+30A4_U+30E4_U+30FC 1
370
     0
100
AcDbVertex
100
AcDb2dVertex
 10
116.5847872972427
 20
-140.9112955376889
 30
0.0
  0
VERTEX
  5
A5
330
9B
100
AcDbEntity
  8
_U+30EC_U+30A4_U+30E4_U+30FC 1
370
     0
100
AcDbVertex
100
AcDb2dVertex
 10
116.1121201966664
 20
-141.8697211016853
 30
0.0
  0
VERTEX
  5
A6
330
9B
100
AcDbEntity
  8
_U+30EC_U+30A4_U+30E4_U+30FC 1
370
     0
100
AcDbVertex
100
AcDb2dVertex
 10
115.9171277922013
 20
-141.7732584280984
 30
0.0
  0
VERTEX
  5
A7
330
9B
100
AcDbEntity
  8
_U+30EC_U+30A4_U+30E4_U+30FC 1
370
     0
100
AcDbVertex
100
AcDb2dVertex
 10
116.5999457173778
 20
-140.3883300430279
 30
0.0
  0
VERTEX
  5
A8
330
9B
100
AcDbEntity
  8
_U+30EC_U+30A4_U+30E4_U+30FC 1
370
     0
100
AcDbVertex
100
AcDb2dVertex
 10
116.8862331522021
 20
-140.5295789579232
 30
0.0
  0
VERTEX
  5
A9
330
9B
100
AcDbEntity
  8
_U+30EC_U+30A4_U+30E4_U+30FC 1
370
     0
100
AcDbVertex
100
AcDb2dVertex
 10
116.7105332824543
 20
-141.7236490531108
 30
0.0
  0
VERTEX
  5
AA
330
9B
100
AcDbEntity
  8
_U+30EC_U+30A4_U+30E4_U+30FC 1
370
     0
100
AcDbVertex
100
AcDb2dVertex
 10
116.6819389899267
 20
-141.8676540443942
 30
0.0
  0
VERTEX
  5
AB
330
9B
100
AcDbEntity
  8
_U+30EC_U+30A4_U+30E4_U+30FC 1
370
     0
100
AcDbVertex
100
AcDb2dVertex
 10
116.7787461730623
 20
-141.7574109888662
 30
0.0
  0
VERTEX
  5
AC
330
9B
100
AcDbEntity
  8
_U+30EC_U+30A4_U+30E4_U+30FC 1
370
     0
100
AcDbVertex
100
AcDb2dVertex
 10
117.6203830001088
 20
-140.8916584934229
 30
0.0
  0
VERTEX
  5
AD
330
9B
100
AcDbEntity
  8
_U+30EC_U+30A4_U+30E4_U+30FC 1
370
     0
100
AcDbVertex
100
AcDb2dVertex
 10
117.905292396739
 20
-141.0318738796726
 30
0.0
  0
VERTEX
  5
AE
330
9B
100
AcDbEntity
  8
_U+30EC_U+30A4_U+30E4_U+30FC 1
370
     0
100
AcDbVertex
100
AcDb2dVertex
 10
117.2221299620139
 20
-142.4171467742916
 30
0.0
  0
VERTEX
  5
AF
330
9B
100
AcDbEntity
  8
_U+30EC_U+30A4_U+30E4_U+30FC 1
370
     0
100
AcDbVertex
100
AcDb2dVertex
 10
117.0267930480003
 20
-142.3206841007046
 30
0.0
  0
SEQEND
  5
B0
330
9B
100
AcDbEntity
  8
_U+30EC_U+30A4_U+30E4_U+30FC 1
370
     0
  0
HATCH
  5
B1
330
82
100
AcDbEntity
  8
_U+30EC_U+30A4_U+30E4_U+30FC 1
 62
   179
420
  2234388
100
AcDbHatch
 10
0.0
 20
0.0
 30
0.0
210
0.0
220
0.0
230
1.0
  2
SOLID
 70
     1
 71
     0
 91
        1
 92
        1
 93
       19
 72
     1
 10
117.0267930480003
 20
-142.3206841007046
 11
117.499115639028
 21
-141.3626030462566
 72
     1
 10
117.499115639028
 20
-141.3626030462566
 11
117.5769747969946
 21
-141.2192870740702
 72
     1
 10
117.5769747969946
 20
-141.2192870740702
 11
117.4763780088253
 21
-141.3419324733451
 72
     1
 10
117.4763780088253
 20
-141.3419324733451
 11
116.6908962381884
 21
-142.154975007864
 72
     1
 10
116.6908962381884
 20
-142.154975007864
 11
116.4480170064783
 21
-142.0354301945259
 72
     1
 10
116.4480170064783
 20
-142.0354301945259
 11
116.6168266852555
 21
-140.9178412191108
 72
     1
 10
116.6168266852555
 20
-140.9178412191108
 11
116.6530001878507
 21
-140.7635009413716
 72
     1
 10
116.6530001878507
 20
-140.7635009413716
 11
116.5847872972427
 21
-140.9112955376889
 72
     1
 10
116.5847872972427
 20
-140.9112955376889
 11
116.1121201966664
 21
-141.8697211016853
 72
     1
 10
116.1121201966664
 20
-141.8697211016853
 11
115.9171277922013
 21
-141.7732584280984
 72
     1
 10
115.9171277922013
 20
-141.7732584280984
 11
116.5999457173778
 21
-140.3883300430279
 72
     1
 10
116.5999457173778
 20
-140.3883300430279
 11
116.8862331522021
 21
-140.5295789579232
 72
     1
 10
116.8862331522021
 20
-140.5295789579232
 11
116.7105332824543
 21
-141.7236490531108
 72
     1
 10
116.7105332824543
 20
-141.7236490531108
 11
116.6819389899267
 21
-141.8676540443942
 72
     1
 10
116.6819389899267
 20
-141.8676540443942
 11
116.7787461730623
 21
-141.7574109888662
 72
     1
 10
116.7787461730623
 20
-141.7574109888662
 11
117.6203830001088
 21
-140.8916584934229
 72
     1
 10
117.6203830001088
 20
-140.8916584934229
 11
117.905292396739
 21
-141.0318738796726
 72
     1
 10
117.905292396739
 20
-141.0318738796726
 11
117.2221299620139
 21
-142.4171467742916
 72
     1
 10
117.2221299620139
 20
-142.4171467742916
 11
117.0267930480003
 21
-142.3206841007046
 97
        0
 75
     2
 76
     1
 98
        0
  0
POLYLINE
  5
B2
330
82
100
AcDbEntity
  8
_U+30EC_U+30A4_U+30E4_U+30FC 1
370
     0
100
AcDb2dPolyline
 66
     1
 10
0.0
 20
0.0
 30
0.0
  0
VERTEX
  5
B3
330
B2
100
AcDbEntity
  8
_U+30EC_U+30A4_U+30E4_U+30FC 1
370
     0
100
AcDbVertex
100
AcDb2dVertex
 10
118.7903374268996
 20
-143.1902262011816
 30
0.0
  0
VERTEX
  5
B4
330
B2
100
AcDbEntity
  8
_U+30EC_U+30A4_U+30E4_U+30FC 1
370
     0
100
AcDbVertex
100
AcDb2dVertex
 10
118.547113685641
 20
-143.0706813878435
 30
0.0
  0
VERTEX
  5
B5
330
B2
100
AcDbEntity
  8
_U+30EC_U+30A4_U+30E4_U+30FC 1
370
     0
100
AcDbVertex
100
AcDb2dVertex
 10
118.8544162029253
 20
-141.8021972301745
 30
0.0
  0
VERTEX
  5
B6
330
B2
100
AcDbEntity
  8
_U+30EC_U+30A4_U+30E4_U+30FC 1
370
     0
100
AcDbVertex
100
AcDb2dVertex
 10
118.037239553824
 20
-142.8188449078717
 30
0.0
  0
VERTEX
  5
B7
330
B2
100
AcDbEntity
  8
_U+30EC_U+30A4_U+30E4_U+30FC 1
370
     0
100
AcDbVertex
100
AcDb2dVertex
 10
117.7940158125654
 20
-142.6993000945335
 30
0.0
  0
VERTEX
  5
B8
330
B2
100
AcDbEntity
  8
_U+30EC_U+30A4_U+30E4_U+30FC 1
370
     0
100
AcDbVertex
100
AcDb2dVertex
 10
118.133702227411
 20
-141.1448730115888
 30
0.0
  0
VERTEX
  5
B9
330
B2
100
AcDbEntity
  8
_U+30EC_U+30A4_U+30E4_U+30FC 1
370
     0
100
AcDbVertex
100
AcDb2dVertex
 10
118.3424750138172
 20
-141.2475368570492
 30
0.0
  0
VERTEX
  5
BA
330
B2
100
AcDbEntity
  8
_U+30EC_U+30A4_U+30E4_U+30FC 1
370
     0
100
AcDbVertex
100
AcDb2dVertex
 10
118.0455077829886
 20
-142.4953504418067
 30
0.0
  0
VERTEX
  5
BB
330
B2
100
AcDbEntity
  8
_U+30EC_U+30A4_U+30E4_U+30FC 1
370
     0
100
AcDbVertex
100
AcDb2dVertex
 10
118.8489040501489
 20
-141.4973062797299
 30
0.0
  0
VERTEX
  5
BC
330
B2
100
AcDbEntity
  8
_U+30EC_U+30A4_U+30E4_U+30FC 1
370
     0
100
AcDbVertex
100
AcDb2dVertex
 10
119.0997070014751
 20
-141.6209852076503
 30
0.0
  0
VERTEX
  5
BD
330
B2
100
AcDbEntity
  8
_U+30EC_U+30A4_U+30E4_U+30FC 1
370
     0
100
AcDbVertex
100
AcDb2dVertex
 10
118.7968831083216
 20
-142.8656982064711
 30
0.0
  0
VERTEX
  5
BE
330
B2
100
AcDbEntity
  8
_U+30EC_U+30A4_U+30E4_U+30FC 1
370
     0
100
AcDbVertex
100
AcDb2dVertex
 10
119.6078585855494
 20
-141.8717881589765
 30
0.0
  0
VERTEX
  5
BF
330
B2
100
AcDbEntity
  8
_U+30EC_U+30A4_U+30E4_U+30FC 1
370
     0
100
AcDbVertex
100
AcDb2dVertex
 10
119.8166313719556
 20
-141.974452004437
 30
0.0
  0
VERTEX
  5
C0
330
B2
100
AcDbEntity
  8
_U+30EC_U+30A4_U+30E4_U+30FC 1
370
     0
100
AcDbVertex
100
AcDb2dVertex
 10
118.7903374268996
 20
-143.1902262011816
 30
0.0
  0
SEQEND
  5
C1
330
B2
100
AcDbEntity
  8
_U+30EC_U+30A4_U+30E4_U+30FC 1
370
     0
  0
HATCH
  5
C2
330
82
100
AcDbEntity
  8
_U+30EC_U+30A4_U+30E4_U+30FC 1
 62
   179
420
  2234388
100
AcDbHatch
 10
0.0
 20
0.0
 30
0.0
210
0.0
220
0.0
230
1.0
  2
SOLID
 70
     1
 71
     0
 91
        1
 92
        1
 93
       13
 72
     1
 10
118.7903374268996
 20
-143.1902262011816
 11
118.547113685641
 21
-143.0706813878435
 72
     1
 10
118.547113685641
 20
-143.0706813878435
 11
118.8544162029253
 21
-141.8021972301745
 72
     1
 10
118.8544162029253
 20
-141.8021972301745
 11
118.037239553824
 21
-142.8188449078717
 72
     1
 10
118.037239553824
 20
-142.8188449078717
 11
117.7940158125654
 21
-142.6993000945335
 72
     1
 10
117.7940158125654
 20
-142.6993000945335
 11
118.133702227411
 21
-141.1448730115888
 72
     1
 10
118.133702227411
 20
-141.1448730115888
 11
118.3424750138172
 21
-141.2475368570492
 72
     1
 10
118.3424750138172
 20
-141.2475368570492
 11
118.0455077829886
 21
-142.4953504418067
 72
     1
 10
118.0455077829886
 20
-142.4953504418067
 11
118.8489040501489
 21
-141.4973062797299
 72
     1
 10
118.8489040501489
 20
-141.4973062797299
 11
119.0997070014751
 21
-141.6209852076503
 72
     1
 10
119.0997070014751
 20
-141.6209852076503
 11
118.7968831083216
 21
-142.8656982064711
 72
     1
 10
118.7968831083216
 20
-142.8656982064711
 11
119.6078585855494
 21
-141.8717881589765
 72
     1
 10
119.6078585855494
 20
-141.8717881589765
 11
119.8166313719556
 21
-141.974452004437
 72
     1
 10
119.8166313719556
 20
-141.974452004437
 11
118.7903374268996
 21
-143.1902262011816
 97
        0
 75
     2
 76
     1
 98
        0
  0
ENDBLK
  5
85
330
82
100
AcDbEntity
  8
0
100
AcDbBlockEnd
  0
BLOCK
  5
C5
330
C3
100
AcDbEntity
  8
0
100
AcDbBlockBegin
  2
block 4
 70
     0
 10
0.0
 20
0.0
 30
0.0
  3
block 4
  1

  0
SPLINE
  5
C7
330
C3
100
AcDbEntity
  8
_U+30EC_U+30A4_U+30E4_U+30FC 1
370
     0
100
AcDbSpline
210
0.0
220
0.0
230
1.0
 70
    11
 71
     3
 72
    38
 73
    34
 74
     0
 42
0.0000000001
 43
0.0000000001
 12
1.0
 22
0.0
 32
0.0
 13
1.0
 23
0.0
 33
0.0
 40
0.0
 40
0.0
 40
0.0
 40
0.0
 40
1.0
 40
1.0
 40
1.0
 40
2.0
 40
2.0
 40
2.0
 40
3.0
 40
3.0
 40
3.0
 40
4.0
 40
4.0
 40
4.0
 40
5.0
 40
5.0
 40
5.0
 40
6.0
 40
6.0
 40
6.0
 40
7.0
 40
7.0
 40
7.0
 40
8.0
 40
8.0
 40
8.0
 40
9.0
 40
9.0
 40
9.0
 40
10.0
 40
10.0
 40
10.0
 40
11.0
 40
11.0
 40
11.0
 40
11.0
 10
107.3078341745619
 20
-145.6786186701776
 30
0.0
 10
107.3078341745619
 20
-145.2131862701203
 30
0.0
 10
107.6719807673528
 20
-144.9382676503974
 30
0.0
 10
108.1415472819924
 20
-144.9382676503974
 30
0.0
 10
108.6662353243959
 20
-144.9382676503974
 30
0.0
 10
108.9518337401232
 20
-145.2810546511797
 30
0.0
 10
108.9518337401232
 20
-145.6892984661818
 30
0.0
 10
108.9518337401232
 20
-146.0341525242553
 30
0.0
 10
108.7637315266285
 20
-146.3111382012694
 30
0.0
 10
108.4460937228885
 20
-146.332497793278
 30
0.0
 10
108.4460937228885
 20
-146.332497793278
 30
0.0
 10
108.4460937228885
 20
-146.1020209053148
 30
0.0
 10
108.4460937228885
 20
-146.1020209053148
 30
0.0
 10
108.6534884711005
 20
-146.0637803454285
 30
0.0
 10
108.7361707627465
 20
-145.843638743921
 30
0.0
 10
108.7361707627465
 20
-145.6830972943084
 30
0.0
 10
108.7361707627465
 20
-145.5793999202024
 30
0.0
 10
108.7044758842822
 20
-145.4629556928009
 30
0.0
 10
108.6279947645097
 20
-145.3699381146992
 30
0.0
 10
108.5012152506525
 20
-145.209052155538
 30
0.0
 10
108.2855522732758
 20
-145.1794243343649
 30
0.0
 10
108.1267333714058
 20
-145.1794243343649
 30
0.0
 10
107.6867946779394
 20
-145.1794243343649
 30
0.0
 10
107.5259087187783
 20
-145.4588215782186
 30
0.0
 10
107.5259087187783
 20
-145.6744845555953
 30
0.0
 10
107.5259087187783
 20
-145.8119438654568
 30
0.0
 10
107.6061794435846
 20
-146.0827283705974
 30
0.0
 10
107.9238172473246
 20
-146.1144232490617
 30
0.0
 10
107.9238172473246
 20
-146.1144232490617
 30
0.0
 10
107.9238172473246
 20
-146.3452446465734
 30
0.0
 10
107.9238172473246
 20
-146.3452446465734
 30
0.0
 10
107.7880804852058
 20
-146.332497793278
 30
0.0
 10
107.3078341745619
 20
-146.283921946936
 30
0.0
 10
107.3078341745619
 20
-145.6786186701776
 30
0.0
  0
HATCH
  5
C8
330
C3
100
AcDbEntity
  8
_U+30EC_U+30A4_U+30E4_U+30FC 1
 62
   179
420
  2234388
100
AcDbHatch
 10
0.0
 20
0.0
 30
0.0
210
0.0
220
0.0
230
1.0
  2
SOLID
 70
     1
 71
     0
 91
        1
 92
        1
 93
        1
 72
     4
 94
        3
 73
     0
 74
     1
 95
       38
 96
       34
 40
0.0
 40
0.0
 40
0.0
 40
0.0
 40
1.0
 40
1.0
 40
1.0
 40
2.0
 40
2.0
 40
2.0
 40
3.0
 40
3.0
 40
3.0
 40
4.0
 40
4.0
 40
4.0
 40
5.0
 40
5.0
 40
5.0
 40
6.0
 40
6.0
 40
6.0
 40
7.0
 40
7.0
 40
7.0
 40
8.0
 40
8.0
 40
8.0
 40
9.0
 40
9.0
 40
9.0
 40
10.0
 40
10.0
 40
10.0
 40
11.0
 40
11.0
 40
11.0
 40
11.0
 10
107.3078341745619
 20
-145.6786186701776
 10
107.3078341745619
 20
-145.2131862701203
 10
107.6719807673528
 20
-144.9382676503974
 10
108.1415472819924
 20
-144.9382676503974
 10
108.6662353243959
 20
-144.9382676503974
 10
108.9518337401232
 20
-145.2810546511797
 10
108.9518337401232
 20
-145.6892984661818
 10
108.9518337401232
 20
-146.0341525242553
 10
108.7637315266285
 20
-146.3111382012694
 10
108.4460937228885
 20
-146.332497793278
 10
108.4460937228885
 20
-146.332497793278
 10
108.4460937228885
 20
-146.1020209053148
 10
108.4460937228885
 20
-146.1020209053148
 10
108.6534884711005
 20
-146.0637803454285
 10
108.7361707627465
 20
-145.843638743921
 10
108.7361707627465
 20
-145.6830972943084
 10
108.7361707627465
 20
-145.5793999202024
 10
108.7044758842822
 20
-145.4629556928009
 10
108.6279947645097
 20
-145.3699381146992
 10
108.5012152506525
 20
-145.209052155538
 10
108.2855522732758
 20
-145.1794243343649
 10
108.1267333714058
 20
-145.1794243343649
 10
107.6867946779394
 20
-145.1794243343649
 10
107.5259087187783
 20
-145.4588215782186
 10
107.5259087187783
 20
-145.6744845555953
 10
107.5259087187783
 20
-145.8119438654568
 10
107.6061794435846
 20
-146.0827283705974
 10
107.9238172473246
 20
-146.1144232490617
 10
107.9238172473246
 20
-146.1144232490617
 10
107.9238172473246
 20
-146.3452446465734
 10
107.9238172473246
 20
-146.3452446465734
 10
107.7880804852058
 20
-146.332497793278
 10
107.3078341745619
 20
-146.283921946936
 10
107.3078341745619
 20
-145.6786186701776
 97
        0
 97
        0
 75
     2
 76
     1
 98
        0
  0
SPLINE
  5
C9
330
C3
100
AcDbEntity
  8
_U+30EC_U+30A4_U+30E4_U+30FC 1
370
     0
100
AcDbSpline
210
0.0
220
0.0
230
1.0
 70
    11
 71
     3
 72
    44
 73
    40
 74
     0
 42
0.0000000001
 43
0.0000000001
 12
1.0
 22
0.0
 32
0.0
 13
1.0
 23
0.0
 33
0.0
 40
0.0
 40
0.0
 40
0.0
 40
0.0
 40
1.0
 40
1.0
 40
1.0
 40
2.0
 40
2.0
 40
2.0
 40
3.0
 40
3.0
 40
3.0
 40
4.0
 40
4.0
 40
4.0
 40
5.0
 40
5.0
 40
5.0
 40
6.0
 40
6.0
 40
6.0
 40
7.0
 40
7.0
 40
7.0
 40
8.0
 40
8.0
 40
8.0
 40
9.0
 40
9.0
 40
9.0
 40
10.0
 40
10.0
 40
10.0
 40
11.0
 40
11.0
 40
11.0
 40
12.0
 40
12.0
 40
12.0
 40
13.0
 40
13.0
 40
13.0
 40
13.0
 10
107.3588215877436
 20
-147.5537841427991
 30
0.0
 10
107.4032633195034
 20
-147.5307020030479
 30
0.0
 10
107.4559732804277
 20
-147.5093424110393
 30
0.0
 10
107.6867946779394
 20
-147.5072753537482
 30
0.0
 10
107.930018419198
 20
-147.5031412391659
 30
0.0
 10
107.9996093480001
 20
-147.4438855968196
 30
0.0
 10
107.9996093480001
 20
-147.2661186697807
 30
0.0
 10
107.9996093480001
 20
-147.2661186697807
 30
0.0
 10
107.9996093480001
 20
-146.8578748547786
 30
0.0
 10
107.9996093480001
 20
-146.8578748547786
 30
0.0
 10
107.9996093480001
 20
-146.8578748547786
 30
0.0
 10
107.3588215877436
 20
-146.8578748547786
 30
0.0
 10
107.3588215877436
 20
-146.8578748547786
 30
0.0
 10
107.3588215877436
 20
-146.8578748547786
 30
0.0
 10
107.3588215877436
 20
-146.6229193426846
 30
0.0
 10
107.3588215877436
 20
-146.6229193426846
 30
0.0
 10
107.3588215877436
 20
-146.6229193426846
 30
0.0
 10
108.9029133842326
 20
-146.6229193426846
 30
0.0
 10
108.9029133842326
 20
-146.6229193426846
 30
0.0
 10
108.9029133842326
 20
-146.6229193426846
 30
0.0
 10
108.9029133842326
 20
-147.297813548245
 30
0.0
 10
108.9029133842326
 20
-147.297813548245
 30
0.0
 10
108.9029133842326
 20
-147.6047715559808
 30
0.0
 10
108.7320366481642
 20
-147.7718586870154
 30
0.0
 10
108.4757215440616
 20
-147.7718586870154
 30
0.0
 10
108.4250786404285
 20
-147.7718586870154
 30
0.0
 10
108.342740858331
 20
-147.7632459483023
 30
0.0
 10
108.2621256239761
 20
-147.7188042165425
 30
0.0
 10
108.1584282498701
 20
-147.6595485741962
 30
0.0
 10
108.1394802247012
 20
-147.5940917599765
 30
0.0
 10
108.1225992568235
 20
-147.532769060339
 30
0.0
 10
108.0802245823549
 20
-147.6702283702005
 30
0.0
 10
108.0313042264644
 20
-147.7377522417114
 30
0.0
 10
107.7164224991126
 20
-147.7422308658422
 30
0.0
 10
107.4456379939719
 20
-147.7463649804245
 30
0.0
 10
107.4139431155076
 20
-147.7821939734711
 30
0.0
 10
107.3588215877436
 20
-147.8500623545305
 30
0.0
 10
107.3588215877436
 20
-147.8500623545305
 30
0.0
 10
107.3588215877436
 20
-147.5537841427991
 30
0.0
 10
107.3588215877436
 20
-147.5537841427991
 30
0.0
  0
SPLINE
  5
CA
330
C3
100
AcDbEntity
  8
_U+30EC_U+30A4_U+30E4_U+30FC 1
370
     0
100
AcDbSpline
210
0.0
220
0.0
230
1.0
 70
    11
 71
     3
 72
    20
 73
    16
 74
     0
 42
0.0000000001
 43
0.0000000001
 12
1.0
 22
0.0
 32
0.0
 13
1.0
 23
0.0
 33
0.0
 40
0.0
 40
0.0
 40
0.0
 40
0.0
 40
1.0
 40
1.0
 40
1.0
 40
2.0
 40
2.0
 40
2.0
 40
3.0
 40
3.0
 40
3.0
 40
4.0
 40
4.0
 40
4.0
 40
5.0
 40
5.0
 40
5.0
 40
5.0
 10
108.6913845214383
 20
-147.3022921723758
 30
0.0
 10
108.6913845214383
 20
-147.3022921723758
 30
0.0
 10
108.6913845214383
 20
-146.8578748547786
 30
0.0
 10
108.6913845214383
 20
-146.8578748547786
 30
0.0
 10
108.6913845214383
 20
-146.8578748547786
 30
0.0
 10
108.2111382107944
 20
-146.8578748547786
 30
0.0
 10
108.2111382107944
 20
-146.8578748547786
 30
0.0
 10
108.2111382107944
 20
-146.8578748547786
 30
0.0
 10
108.2111382107944
 20
-147.2998806055361
 30
0.0
 10
108.2111382107944
 20
-147.2998806055361
 30
0.0
 10
108.2111382107944
 20
-147.3994438650599
 30
0.0
 10
108.287619330567
 20
-147.5348361176302
 30
0.0
 10
108.4588405761839
 20
-147.5348361176302
 30
0.0
 10
108.5370442436991
 20
-147.5348361176302
 30
0.0
 10
108.6913845214383
 20
-147.5010741818747
 30
0.0
 10
108.6913845214383
 20
-147.3022921723758
 30
0.0
  0
HATCH
  5
CB
330
C3
100
AcDbEntity
  8
_U+30EC_U+30A4_U+30E4_U+30FC 1
 62
   179
420
  2234388
100
AcDbHatch
 10
0.0
 20
0.0
 30
0.0
210
0.0
220
0.0
230
1.0
  2
SOLID
 70
     1
 71
     0
 91
        2
 92
        1
 93
        1
 72
     4
 94
        3
 73
     0
 74
     1
 95
       44
 96
       40
 40
0.0
 40
0.0
 40
0.0
 40
0.0
 40
1.0
 40
1.0
 40
1.0
 40
2.0
 40
2.0
 40
2.0
 40
3.0
 40
3.0
 40
3.0
 40
4.0
 40
4.0
 40
4.0
 40
5.0
 40
5.0
 40
5.0
 40
6.0
 40
6.0
 40
6.0
 40
7.0
 40
7.0
 40
7.0
 40
8.0
 40
8.0
 40
8.0
 40
9.0
 40
9.0
 40
9.0
 40
10.0
 40
10.0
 40
10.0
 40
11.0
 40
11.0
 40
11.0
 40
12.0
 40
12.0
 40
12.0
 40
13.0
 40
13.0
 40
13.0
 40
13.0
 10
107.3588215877436
 20
-147.5537841427991
 10
107.4032633195034
 20
-147.5307020030479
 10
107.4559732804277
 20
-147.5093424110393
 10
107.6867946779394
 20
-147.5072753537482
 10
107.930018419198
 20
-147.5031412391659
 10
107.9996093480001
 20
-147.4438855968196
 10
107.9996093480001
 20
-147.2661186697807
 10
107.9996093480001
 20
-147.2661186697807
 10
107.9996093480001
 20
-146.8578748547786
 10
107.9996093480001
 20
-146.8578748547786
 10
107.9996093480001
 20
-146.8578748547786
 10
107.3588215877436
 20
-146.8578748547786
 10
107.3588215877436
 20
-146.8578748547786
 10
107.3588215877436
 20
-146.8578748547786
 10
107.3588215877436
 20
-146.6229193426846
 10
107.3588215877436
 20
-146.6229193426846
 10
107.3588215877436
 20
-146.6229193426846
 10
108.9029133842326
 20
-146.6229193426846
 10
108.9029133842326
 20
-146.6229193426846
 10
108.9029133842326
 20
-146.6229193426846
 10
108.9029133842326
 20
-147.297813548245
 10
108.9029133842326
 20
-147.297813548245
 10
108.9029133842326
 20
-147.6047715559808
 10
108.7320366481642
 20
-147.7718586870154
 10
108.4757215440616
 20
-147.7718586870154
 10
108.4250786404285
 20
-147.7718586870154
 10
108.342740858331
 20
-147.7632459483023
 10
108.2621256239761
 20
-147.7188042165425
 10
108.1584282498701
 20
-147.6595485741962
 10
108.1394802247012
 20
-147.5940917599765
 10
108.1225992568235
 20
-147.532769060339
 10
108.0802245823549
 20
-147.6702283702005
 10
108.0313042264644
 20
-147.7377522417114
 10
107.7164224991126
 20
-147.7422308658422
 10
107.4456379939719
 20
-147.7463649804245
 10
107.4139431155076
 20
-147.7821939734711
 10
107.3588215877436
 20
-147.8500623545305
 10
107.3588215877436
 20
-147.8500623545305
 10
107.3588215877436
 20
-147.5537841427991
 10
107.3588215877436
 20
-147.5537841427991
 97
        0
 97
        0
 92
        1
 93
        1
 72
     4
 94
        3
 73
     0
 74
     1
 95
       20
 96
       16
 40
0.0
 40
0.0
 40
0.0
 40
0.0
 40
1.0
 40
1.0
 40
1.0
 40
2.0
 40
2.0
 40
2.0
 40
3.0
 40
3.0
 40
3.0
 40
4.0
 40
4.0
 40
4.0
 40
5.0
 40
5.0
 40
5.0
 40
5.0
 10
108.6913845214383
 20
-147.3022921723758
 10
108.6913845214383
 20
-147.3022921723758
 10
108.6913845214383
 20
-146.8578748547786
 10
108.6913845214383
 20
-146.8578748547786
 10
108.6913845214383
 20
-146.8578748547786
 10
108.2111382107944
 20
-146.8578748547786
 10
108.2111382107944
 20
-146.8578748547786
 10
108.2111382107944
 20
-146.8578748547786
 10
108.2111382107944
 20
-147.2998806055361
 10
108.2111382107944
 20
-147.2998806055361
 10
108.2111382107944
 20
-147.3994438650599
 10
108.287619330567
 20
-147.5348361176302
 10
108.4588405761839
 20
-147.5348361176302
 10
108.5370442436991
 20
-147.5348361176302
 10
108.6913845214383
 20
-147.5010741818747
 10
108.6913845214383
 20
-147.3022921723758
 97
        0
 97
        0
 75
     2
 76
     1
 98
        0
  0
SPLINE
  5
CC
330
C3
100
AcDbEntity
  8
_U+30EC_U+30A4_U+30E4_U+30FC 1
370
     0
100
AcDbSpline
210
0.0
220
0.0
230
1.0
 70
    11
 71
     3
 72
    26
 73
    22
 74
     0
 42
0.0000000001
 43
0.0000000001
 12
1.0
 22
0.0
 32
0.0
 13
1.0
 23
0.0
 33
0.0
 40
0.0
 40
0.0
 40
0.0
 40
0.0
 40
1.0
 40
1.0
 40
1.0
 40
2.0
 40
2.0
 40
2.0
 40
3.0
 40
3.0
 40
3.0
 40
4.0
 40
4.0
 40
4.0
 40
5.0
 40
5.0
 40
5.0
 40
6.0
 40
6.0
 40
6.0
 40
7.0
 40
7.0
 40
7.0
 40
7.0
 10
107.9892740615444
 20
-148.7671467727041
 30
0.0
 10
107.9892740615444
 20
-148.7671467727041
 30
0.0
 10
107.9892740615444
 20
-148.3141167163937
 30
0.0
 10
107.9892740615444
 20
-148.3141167163937
 30
0.0
 10
107.9892740615444
 20
-148.3141167163937
 30
0.0
 10
107.3588215877436
 20
-148.3141167163937
 30
0.0
 10
107.3588215877436
 20
-148.3141167163937
 30
0.0
 10
107.3588215877436
 20
-148.3141167163937
 30
0.0
 10
107.3588215877436
 20
-148.0795057138482
 30
0.0
 10
107.3588215877436
 20
-148.0795057138482
 30
0.0
 10
107.3588215877436
 20
-148.0795057138482
 30
0.0
 10
108.9029133842326
 20
-148.0795057138482
 30
0.0
 10
108.9029133842326
 20
-148.0795057138482
 30
0.0
 10
108.9029133842326
 20
-148.0795057138482
 30
0.0
 10
108.9029133842326
 20
-148.7671467727041
 30
0.0
 10
108.9029133842326
 20
-148.7671467727041
 30
0.0
 10
108.9029133842326
 20
-149.0548122457224
 30
0.0
 10
108.7403048773288
 20
-149.2597954270948
 30
0.0
 10
108.4419596083062
 20
-149.2597954270948
 30
0.0
 10
108.1946017524652
 20
-149.2597954270948
 30
0.0
 10
107.9892740615444
 20
-149.0992539774821
 30
0.0
 10
107.9892740615444
 20
-148.7671467727041
 30
0.0
  0
SPLINE
  5
CD
330
C3
100
AcDbEntity
  8
_U+30EC_U+30A4_U+30E4_U+30FC 1
370
     0
100
AcDbSpline
210
0.0
220
0.0
230
1.0
 70
    11
 71
     3
 72
    20
 73
    16
 74
     0
 42
0.0000000001
 43
0.0000000001
 12
1.0
 22
0.0
 32
0.0
 13
1.0
 23
0.0
 33
0.0
 40
0.0
 40
0.0
 40
0.0
 40
0.0
 40
1.0
 40
1.0
 40
1.0
 40
2.0
 40
2.0
 40
2.0
 40
3.0
 40
3.0
 40
3.0
 40
4.0
 40
4.0
 40
4.0
 40
5.0
 40
5.0
 40
5.0
 40
5.0
 10
108.6913845214383
 20
-148.7585340339909
 30
0.0
 10
108.6913845214383
 20
-148.7585340339909
 30
0.0
 10
108.6913845214383
 20
-148.3141167163937
 30
0.0
 10
108.6913845214383
 20
-148.3141167163937
 30
0.0
 10
108.6913845214383
 20
-148.3141167163937
 30
0.0
 10
108.2008029243387
 20
-148.3141167163937
 30
0.0
 10
108.2008029243387
 20
-148.3141167163937
 30
0.0
 10
108.2008029243387
 20
-148.3141167163937
 30
0.0
 10
108.2008029243387
 20
-148.7585340339909
 30
0.0
 10
108.2008029243387
 20
-148.7585340339909
 30
0.0
 10
108.2008029243387
 20
-148.9256211650255
 30
0.0
 10
108.3065673557359
 20
-149.014504628545
 30
0.0
 10
108.4460937228885
 20
-149.014504628545
 30
0.0
 10
108.5604708929988
 20
-149.014504628545
 30
0.0
 10
108.6913845214383
 20
-148.9466362474856
 30
0.0
 10
108.6913845214383
 20
-148.7585340339909
 30
0.0
  0
HATCH
  5
CE
330
C3
100
AcDbEntity
  8
_U+30EC_U+30A4_U+30E4_U+30FC 1
 62
   179
420
  2234388
100
AcDbHatch
 10
0.0
 20
0.0
 30
0.0
210
0.0
220
0.0
230
1.0
  2
SOLID
 70
     1
 71
     0
 91
        2
 92
        1
 93
        1
 72
     4
 94
        3
 73
     0
 74
     1
 95
       26
 96
       22
 40
0.0
 40
0.0
 40
0.0
 40
0.0
 40
1.0
 40
1.0
 40
1.0
 40
2.0
 40
2.0
 40
2.0
 40
3.0
 40
3.0
 40
3.0
 40
4.0
 40
4.0
 40
4.0
 40
5.0
 40
5.0
 40
5.0
 40
6.0
 40
6.0
 40
6.0
 40
7.0
 40
7.0
 40
7.0
 40
7.0
 10
107.9892740615444
 20
-148.7671467727041
 10
107.9892740615444
 20
-148.7671467727041
 10
107.9892740615444
 20
-148.3141167163937
 10
107.9892740615444
 20
-148.3141167163937
 10
107.9892740615444
 20
-148.3141167163937
 10
107.3588215877436
 20
-148.3141167163937
 10
107.3588215877436
 20
-148.3141167163937
 10
107.3588215877436
 20
-148.3141167163937
 10
107.3588215877436
 20
-148.0795057138482
 10
107.3588215877436
 20
-148.0795057138482
 10
107.3588215877436
 20
-148.0795057138482
 10
108.9029133842326
 20
-148.0795057138482
 10
108.9029133842326
 20
-148.0795057138482
 10
108.9029133842326
 20
-148.0795057138482
 10
108.9029133842326
 20
-148.7671467727041
 10
108.9029133842326
 20
-148.7671467727041
 10
108.9029133842326
 20
-149.0548122457224
 10
108.7403048773288
 20
-149.2597954270948
 10
108.4419596083062
 20
-149.2597954270948
 10
108.1946017524652
 20
-149.2597954270948
 10
107.9892740615444
 20
-149.0992539774821
 10
107.9892740615444
 20
-148.7671467727041
 97
        0
 97
        0
 92
        1
 93
        1
 72
     4
 94
        3
 73
     0
 74
     1
 95
       20
 96
       16
 40
0.0
 40
0.0
 40
0.0
 40
0.0
 40
1.0
 40
1.0
 40
1.0
 40
2.0
 40
2.0
 40
2.0
 40
3.0
 40
3.0
 40
3.0
 40
4.0
 40
4.0
 40
4.0
 40
5.0
 40
5.0
 40
5.0
 40
5.0
 10
108.6913845214383
 20
-148.7585340339909
 10
108.6913845214383
 20
-148.7585340339909
 10
108.6913845214383
 20
-148.3141167163937
 10
108.6913845214383
 20
-148.3141167163937
 10
108.6913845214383
 20
-148.3141167163937
 10
108.2008029243387
 20
-148.3141167163937
 10
108.2008029243387
 20
-148.3141167163937
 10
108.2008029243387
 20
-148.3141167163937
 10
108.2008029243387
 20
-148.7585340339909
 10
108.2008029243387
 20
-148.7585340339909
 10
108.2008029243387
 20
-148.9256211650255
 10
108.3065673557359
 20
-149.014504628545
 10
108.4460937228885
 20
-149.014504628545
 10
108.5604708929988
 20
-149.014504628545
 10
108.6913845214383
 20
-148.9466362474856
 10
108.6913845214383
 20
-148.7585340339909
 97
        0
 97
        0
 75
     2
 76
     1
 98
        0
  0
POLYLINE
  5
CF
330
C3
100
AcDbEntity
  8
_U+30EC_U+30A4_U+30E4_U+30FC 1
370
     0
100
AcDb2dPolyline
 66
     1
 10
0.0
 20
0.0
 30
0.0
  0
VERTEX
  5
D0
330
CF
100
AcDbEntity
  8
_U+30EC_U+30A4_U+30E4_U+30FC 1
370
     0
100
AcDbVertex
100
AcDb2dVertex
 10
107.805305962632
 20
-149.3917425841798
 30
0.0
  0
VERTEX
  5
D1
330
CF
100
AcDbEntity
  8
_U+30EC_U+30A4_U+30E4_U+30FC 1
370
     0
100
AcDbVertex
100
AcDb2dVertex
 10
108.0209689400087
 20
-149.3917425841798
 30
0.0
  0
VERTEX
  5
D2
330
CF
100
AcDbEntity
  8
_U+30EC_U+30A4_U+30E4_U+30FC 1
370
     0
100
AcDbVertex
100
AcDb2dVertex
 10
108.0209689400087
 20
-149.9777533262208
 30
0.0
  0
VERTEX
  5
D3
330
CF
100
AcDbEntity
  8
_U+30EC_U+30A4_U+30E4_U+30FC 1
370
     0
100
AcDbVertex
100
AcDb2dVertex
 10
107.805305962632
 20
-149.9777533262208
 30
0.0
  0
VERTEX
  5
D4
330
CF
100
AcDbEntity
  8
_U+30EC_U+30A4_U+30E4_U+30FC 1
370
     0
100
AcDbVertex
100
AcDb2dVertex
 10
107.805305962632
 20
-149.3917425841798
 30
0.0
  0
SEQEND
  5
D5
330
CF
100
AcDbEntity
  8
_U+30EC_U+30A4_U+30E4_U+30FC 1
370
     0
  0
HATCH
  5
D6
330
C3
100
AcDbEntity
  8
_U+30EC_U+30A4_U+30E4_U+30FC 1
 62
   179
420
  2234388
100
AcDbHatch
 10
0.0
 20
0.0
 30
0.0
210
0.0
220
0.0
230
1.0
  2
SOLID
 70
     1
 71
     0
 91
        1
 92
        1
 93
        4
 72
     1
 10
107.805305962632
 20
-149.3917425841798
 11
108.0209689400087
 21
-149.3917425841798
 72
     1
 10
108.0209689400087
 20
-149.3917425841798
 11
108.0209689400087
 21
-149.9777533262208
 72
     1
 10
108.0209689400087
 20
-149.9777533262208
 11
107.805305962632
 21
-149.9777533262208
 72
     1
 10
107.805305962632
 20
-149.9777533262208
 11
107.805305962632
 21
-149.3917425841798
 97
        0
 75
     2
 76
     1
 98
        0
  0
SPLINE
  5
D7
330
C3
100
AcDbEntity
  8
_U+30EC_U+30A4_U+30E4_U+30FC 1
370
     0
100
AcDbSpline
210
0.0
220
0.0
230
1.0
 70
    11
 71
     3
 72
    62
 73
    58
 74
     0
 42
0.0000000001
 43
0.0000000001
 12
1.0
 22
0.0
 32
0.0
 13
1.0
 23
0.0
 33
0.0
 40
0.0
 40
0.0
 40
0.0
 40
0.0
 40
1.0
 40
1.0
 40
1.0
 40
2.0
 40
2.0
 40
2.0
 40
3.0
 40
3.0
 40
3.0
 40
4.0
 40
4.0
 40
4.0
 40
5.0
 40
5.0
 40
5.0
 40
6.0
 40
6.0
 40
6.0
 40
7.0
 40
7.0
 40
7.0
 40
8.0
 40
8.0
 40
8.0
 40
9.0
 40
9.0
 40
9.0
 40
10.0
 40
10.0
 40
10.0
 40
11.0
 40
11.0
 40
11.0
 40
12.0
 40
12.0
 40
12.0
 40
13.0
 40
13.0
 40
13.0
 40
14.0
 40
14.0
 40
14.0
 40
15.0
 40
15.0
 40
15.0
 40
16.0
 40
16.0
 40
16.0
 40
17.0
 40
17.0
 40
17.0
 40
18.0
 40
18.0
 40
18.0
 40
19.0
 40
19.0
 40
19.0
 40
19.0
 10
107.3078341745619
 20
-150.5982150231143
 30
0.0
 10
107.3078341745619
 20
-150.5027858781729
 30
0.0
 10
107.3291937665705
 20
-150.2850558435051
 30
0.0
 10
107.515228922774
 20
-150.1599988773906
 30
0.0
 10
107.6275390355931
 20
-150.0859293244577
 30
0.0
 10
107.7267577855683
 20
-150.0817952098754
 30
0.0
 10
107.8115071345055
 20
-150.0776610952931
 30
0.0
 10
107.8115071345055
 20
-150.0776610952931
 30
0.0
 10
107.8115071345055
 20
-150.2978026968005
 30
0.0
 10
107.8115071345055
 20
-150.2978026968005
 30
0.0
 10
107.7374375815726
 20
-150.2998697540917
 30
0.0
 10
107.5028265790271
 20
-150.3102050405475
 30
0.0
 10
107.5028265790271
 20
-150.5937363989835
 30
0.0
 10
107.5028265790271
 20
-150.731195708845
 30
0.0
 10
107.5724175078291
 20
-150.8838134388415
 30
0.0
 10
107.8011718480497
 20
-150.8838134388415
 30
0.0
 10
107.9172715659026
 20
-150.8838134388415
 30
0.0
 10
107.9658474122447
 20
-150.8455728789553
 30
0.0
 10
107.9975422907089
 20
-150.813878000491
 30
0.0
 10
108.0719563531903
 20
-150.7398084475581
 30
0.0
 10
108.0843586969372
 20
-150.6233642201567
 30
0.0
 10
108.0843586969372
 20
-150.5685872019412
 30
0.0
 10
108.0843586969372
 20
-150.5492946672238
 30
0.0
 10
108.0822916396461
 20
-150.5134656741772
 30
0.0
 10
108.0781575250638
 20
-150.4859049102952
 30
0.0
 10
108.0781575250638
 20
-150.4859049102952
 30
0.0
 10
108.2728054199804
 20
-150.4859049102952
 30
0.0
 10
108.2728054199804
 20
-150.4859049102952
 30
0.0
 10
108.2662597385584
 20
-150.5241454701815
 30
0.0
 10
108.2641926812673
 20
-150.5661756351015
 30
0.0
 10
108.2641926812673
 20
-150.5727213165235
 30
0.0
 10
108.2641926812673
 20
-150.6381781307432
 30
0.0
 10
108.2855522732758
 20
-150.8369601402422
 30
0.0
 10
108.522574842661
 20
-150.8369601402422
 30
0.0
 10
108.6999972601514
 20
-150.8369601402422
 30
0.0
 10
108.7551187879154
 20
-150.7060465118027
 30
0.0
 10
108.7551187879154
 20
-150.5958034562747
 30
0.0
 10
108.7551187879154
 20
-150.331564632556
 30
0.0
 10
108.522574842661
 20
-150.3229518938429
 30
0.0
 10
108.4502278374708
 20
-150.3188177792606
 30
0.0
 10
108.4502278374708
 20
-150.3188177792606
 30
0.0
 10
108.4502278374708
 20
-150.1155571456308
 30
0.0
 10
108.4502278374708
 20
-150.1155571456308
 30
0.0
 10
108.5752848035853
 20
-150.124169884344
 30
0.0
 10
108.9518337401232
 20
-150.151730648226
 30
0.0
 10
108.9518337401232
 20
-150.6085503095701
 30
0.0
 10
108.9518337401232
 20
-150.8328260256599
 30
0.0
 10
108.825054226266
 20
-151.0739827096274
 30
0.0
 10
108.5287760145345
 20
-151.0739827096274
 30
0.0
 10
108.342740858331
 20
-151.0739827096274
 30
0.0
 10
108.260058566685
 20
-150.9788980742345
 30
0.0
 10
108.1987358670475
 20
-150.8793348147107
 30
0.0
 10
108.1711751031655
 20
-150.9406575143482
 30
0.0
 10
108.0905598688107
 20
-151.1225585559694
 30
0.0
 10
107.8135741917966
 20
-151.1225585559694
 30
0.0
 10
107.4752658151451
 20
-151.1225585559694
 30
0.0
 10
107.3078341745619
 20
-150.8752007001284
 30
0.0
 10
107.3078341745619
 20
-150.5982150231143
 30
0.0
  0
HATCH
  5
D8
330
C3
100
AcDbEntity
  8
_U+30EC_U+30A4_U+30E4_U+30FC 1
 62
   179
420
  2234388
100
AcDbHatch
 10
0.0
 20
0.0
 30
0.0
210
0.0
220
0.0
230
1.0
  2
SOLID
 70
     1
 71
     0
 91
        1
 92
        1
 93
        1
 72
     4
 94
        3
 73
     0
 74
     1
 95
       62
 96
       58
 40
0.0
 40
0.0
 40
0.0
 40
0.0
 40
1.0
 40
1.0
 40
1.0
 40
2.0
 40
2.0
 40
2.0
 40
3.0
 40
3.0
 40
3.0
 40
4.0
 40
4.0
 40
4.0
 40
5.0
 40
5.0
 40
5.0
 40
6.0
 40
6.0
 40
6.0
 40
7.0
 40
7.0
 40
7.0
 40
8.0
 40
8.0
 40
8.0
 40
9.0
 40
9.0
 40
9.0
 40
10.0
 40
10.0
 40
10.0
 40
11.0
 40
11.0
 40
11.0
 40
12.0
 40
12.0
 40
12.0
 40
13.0
 40
13.0
 40
13.0
 40
14.0
 40
14.0
 40
14.0
 40
15.0
 40
15.0
 40
15.0
 40
16.0
 40
16.0
 40
16.0
 40
17.0
 40
17.0
 40
17.0
 40
18.0
 40
18.0
 40
18.0
 40
19.0
 40
19.0
 40
19.0
 40
19.0
 10
107.3078341745619
 20
-150.5982150231143
 10
107.3078341745619
 20
-150.5027858781729
 10
107.3291937665705
 20
-150.2850558435051
 10
107.515228922774
 20
-150.1599988773906
 10
107.6275390355931
 20
-150.0859293244577
 10
107.7267577855683
 20
-150.0817952098754
 10
107.8115071345055
 20
-150.0776610952931
 10
107.8115071345055
 20
-150.0776610952931
 10
107.8115071345055
 20
-150.2978026968005
 10
107.8115071345055
 20
-150.2978026968005
 10
107.7374375815726
 20
-150.2998697540917
 10
107.5028265790271
 20
-150.3102050405475
 10
107.5028265790271
 20
-150.5937363989835
 10
107.5028265790271
 20
-150.731195708845
 10
107.5724175078291
 20
-150.8838134388415
 10
107.8011718480497
 20
-150.8838134388415
 10
107.9172715659026
 20
-150.8838134388415
 10
107.9658474122447
 20
-150.8455728789553
 10
107.9975422907089
 20
-150.813878000491
 10
108.0719563531903
 20
-150.7398084475581
 10
108.0843586969372
 20
-150.6233642201567
 10
108.0843586969372
 20
-150.5685872019412
 10
108.0843586969372
 20
-150.5492946672238
 10
108.0822916396461
 20
-150.5134656741772
 10
108.0781575250638
 20
-150.4859049102952
 10
108.0781575250638
 20
-150.4859049102952
 10
108.2728054199804
 20
-150.4859049102952
 10
108.2728054199804
 20
-150.4859049102952
 10
108.2662597385584
 20
-150.5241454701815
 10
108.2641926812673
 20
-150.5661756351015
 10
108.2641926812673
 20
-150.5727213165235
 10
108.2641926812673
 20
-150.6381781307432
 10
108.2855522732758
 20
-150.8369601402422
 10
108.522574842661
 20
-150.8369601402422
 10
108.6999972601514
 20
-150.8369601402422
 10
108.7551187879154
 20
-150.7060465118027
 10
108.7551187879154
 20
-150.5958034562747
 10
108.7551187879154
 20
-150.331564632556
 10
108.522574842661
 20
-150.3229518938429
 10
108.4502278374708
 20
-150.3188177792606
 10
108.4502278374708
 20
-150.3188177792606
 10
108.4502278374708
 20
-150.1155571456308
 10
108.4502278374708
 20
-150.1155571456308
 10
108.5752848035853
 20
-150.124169884344
 10
108.9518337401232
 20
-150.151730648226
 10
108.9518337401232
 20
-150.6085503095701
 10
108.9518337401232
 20
-150.8328260256599
 10
108.825054226266
 20
-151.0739827096274
 10
108.5287760145345
 20
-151.0739827096274
 10
108.342740858331
 20
-151.0739827096274
 10
108.260058566685
 20
-150.9788980742345
 10
108.1987358670475
 20
-150.8793348147107
 10
108.1711751031655
 20
-150.9406575143482
 10
108.0905598688107
 20
-151.1225585559694
 10
107.8135741917966
 20
-151.1225585559694
 10
107.4752658151451
 20
-151.1225585559694
 10
107.3078341745619
 20
-150.8752007001284
 10
107.3078341745619
 20
-150.5982150231143
 97
        0
 97
        0
 75
     2
 76
     1
 98
        0
  0
SPLINE
  5
D9
330
C3
100
AcDbEntity
  8
_U+30EC_U+30A4_U+30E4_U+30FC 1
370
     0
100
AcDbSpline
210
0.0
220
0.0
230
1.0
 70
    11
 71
     3
 72
    29
 73
    25
 74
     0
 42
0.0000000001
 43
0.0000000001
 12
1.0
 22
0.0
 32
0.0
 13
1.0
 23
0.0
 33
0.0
 40
0.0
 40
0.0
 40
0.0
 40
0.0
 40
1.0
 40
1.0
 40
1.0
 40
2.0
 40
2.0
 40
2.0
 40
3.0
 40
3.0
 40
3.0
 40
4.0
 40
4.0
 40
4.0
 40
5.0
 40
5.0
 40
5.0
 40
6.0
 40
6.0
 40
6.0
 40
7.0
 40
7.0
 40
7.0
 40
8.0
 40
8.0
 40
8.0
 40
8.0
 10
107.5365885147825
 20
-152.1812363985866
 30
0.0
 10
107.3271267092793
 20
-152.0730604003498
 30
0.0
 10
107.3078341745619
 20
-151.8997720974417
 30
0.0
 10
107.3078341745619
 20
-151.7833278700403
 30
0.0
 10
107.3078341745619
 20
-151.6224419108791
 30
0.0
 10
107.3546874731613
 20
-151.4808484864353
 30
0.0
 10
107.5365885147825
 20
-151.3857638510424
 30
0.0
 10
107.7312364096991
 20
-151.2820664769364
 30
0.0
 10
107.9679144695358
 20
-151.262773942219
 30
0.0
 10
108.1312119955366
 20
-151.262773942219
 30
0.0
 10
108.2748724772716
 20
-151.262773942219
 30
0.0
 10
108.5267089572433
 20
-151.2799994196453
 30
0.0
 10
108.7254909667422
 20
-151.3857638510424
 30
0.0
 10
108.9284070908235
 20
-151.4935953397308
 30
0.0
 10
108.9518337401232
 20
-151.6544812988919
 30
0.0
 10
108.9518337401232
 20
-151.7833278700403
 30
0.0
 10
108.9518337401232
 20
-151.9421467719103
 30
0.0
 10
108.9073920083634
 20
-152.0858072536452
 30
0.0
 10
108.7254909667422
 20
-152.1812363985866
 30
0.0
 10
108.5329101291168
 20
-152.2804551485618
 30
0.0
 10
108.3045002984447
 20
-152.3038817978615
 30
0.0
 10
108.1312119955366
 20
-152.3038817978615
 30
0.0
 10
107.9596462403712
 20
-152.3038817978615
 30
0.0
 10
107.7288248428595
 20
-152.282522205853
 30
0.0
 10
107.5365885147825
 20
-152.1812363985866
 30
0.0
  0
SPLINE
  5
DA
330
C3
100
AcDbEntity
  8
_U+30EC_U+30A4_U+30E4_U+30FC 1
370
     0
100
AcDbSpline
210
0.0
220
0.0
230
1.0
 70
    11
 71
     3
 72
    17
 73
    13
 74
     0
 42
0.0000000001
 43
0.0000000001
 12
1.0
 22
0.0
 32
0.0
 13
1.0
 23
0.0
 33
0.0
 40
0.0
 40
0.0
 40
0.0
 40
0.0
 40
1.0
 40
1.0
 40
1.0
 40
2.0
 40
2.0
 40
2.0
 40
3.0
 40
3.0
 40
3.0
 40
4.0
 40
4.0
 40
4.0
 40
4.0
 10
108.7592529024977
 20
-151.7833278700403
 30
0.0
 10
108.7592529024977
 20
-151.5335584473597
 30
0.0
 10
108.4757215440616
 20
-151.4870496583088
 30
0.0
 10
108.1312119955366
 20
-151.4870496583088
 30
0.0
 10
107.8115071345055
 20
-151.4870496583088
 30
0.0
 10
107.5028265790271
 20
-151.5232231609039
 30
0.0
 10
107.5028265790271
 20
-151.7833278700403
 30
0.0
 10
107.5028265790271
 20
-152.0310302354297
 30
0.0
 10
107.7839463706235
 20
-152.0796060817718
 30
0.0
 10
108.1312119955366
 20
-152.0796060817718
 30
0.0
 10
108.4502278374708
 20
-152.0796060817718
 30
0.0
 10
108.7592529024977
 20
-152.0413655218855
 30
0.0
 10
108.7592529024977
 20
-151.7833278700403
 30
0.0
  0
HATCH
  5
DB
330
C3
100
AcDbEntity
  8
_U+30EC_U+30A4_U+30E4_U+30FC 1
 62
   179
420
  2234388
100
AcDbHatch
 10
0.0
 20
0.0
 30
0.0
210
0.0
220
0.0
230
1.0
  2
SOLID
 70
     1
 71
     0
 91
        2
 92
        1
 93
        1
 72
     4
 94
        3
 73
     0
 74
     1
 95
       29
 96
       25
 40
0.0
 40
0.0
 40
0.0
 40
0.0
 40
1.0
 40
1.0
 40
1.0
 40
2.0
 40
2.0
 40
2.0
 40
3.0
 40
3.0
 40
3.0
 40
4.0
 40
4.0
 40
4.0
 40
5.0
 40
5.0
 40
5.0
 40
6.0
 40
6.0
 40
6.0
 40
7.0
 40
7.0
 40
7.0
 40
8.0
 40
8.0
 40
8.0
 40
8.0
 10
107.5365885147825
 20
-152.1812363985866
 10
107.3271267092793
 20
-152.0730604003498
 10
107.3078341745619
 20
-151.8997720974417
 10
107.3078341745619
 20
-151.7833278700403
 10
107.3078341745619
 20
-151.6224419108791
 10
107.3546874731613
 20
-151.4808484864353
 10
107.5365885147825
 20
-151.3857638510424
 10
107.7312364096991
 20
-151.2820664769364
 10
107.9679144695358
 20
-151.262773942219
 10
108.1312119955366
 20
-151.262773942219
 10
108.2748724772716
 20
-151.262773942219
 10
108.5267089572433
 20
-151.2799994196453
 10
108.7254909667422
 20
-151.3857638510424
 10
108.9284070908235
 20
-151.4935953397308
 10
108.9518337401232
 20
-151.6544812988919
 10
108.9518337401232
 20
-151.7833278700403
 10
108.9518337401232
 20
-151.9421467719103
 10
108.9073920083634
 20
-152.0858072536452
 10
108.7254909667422
 20
-152.1812363985866
 10
108.5329101291168
 20
-152.2804551485618
 10
108.3045002984447
 20
-152.3038817978615
 10
108.1312119955366
 20
-152.3038817978615
 10
107.9596462403712
 20
-152.3038817978615
 10
107.7288248428595
 20
-152.282522205853
 10
107.5365885147825
 20
-152.1812363985866
 97
        0
 97
        0
 92
        1
 93
        1
 72
     4
 94
        3
 73
     0
 74
     1
 95
       17
 96
       13
 40
0.0
 40
0.0
 40
0.0
 40
0.0
 40
1.0
 40
1.0
 40
1.0
 40
2.0
 40
2.0
 40
2.0
 40
3.0
 40
3.0
 40
3.0
 40
4.0
 40
4.0
 40
4.0
 40
4.0
 10
108.7592529024977
 20
-151.7833278700403
 10
108.7592529024977
 20
-151.5335584473597
 10
108.4757215440616
 20
-151.4870496583088
 10
108.1312119955366
 20
-151.4870496583088
 10
107.8115071345055
 20
-151.4870496583088
 10
107.5028265790271
 20
-151.5232231609039
 10
107.5028265790271
 20
-151.7833278700403
 10
107.5028265790271
 20
-152.0310302354297
 10
107.7839463706235
 20
-152.0796060817718
 10
108.1312119955366
 20
-152.0796060817718
 10
108.4502278374708
 20
-152.0796060817718
 10
108.7592529024977
 20
-152.0413655218855
 10
108.7592529024977
 20
-151.7833278700403
 97
        0
 97
        0
 75
     2
 76
     1
 98
        0
  0
SPLINE
  5
DC
330
C3
100
AcDbEntity
  8
_U+30EC_U+30A4_U+30E4_U+30FC 1
370
     0
100
AcDbSpline
210
0.0
220
0.0
230
1.0
 70
    11
 71
     3
 72
    20
 73
    16
 74
     0
 42
0.0000000001
 43
0.0000000001
 12
1.0
 22
0.0
 32
0.0
 13
1.0
 23
0.0
 33
0.0
 40
0.0
 40
0.0
 40
0.0
 40
0.0
 40
1.0
 40
1.0
 40
1.0
 40
2.0
 40
2.0
 40
2.0
 40
3.0
 40
3.0
 40
3.0
 40
4.0
 40
4.0
 40
4.0
 40
5.0
 40
5.0
 40
5.0
 40
5.0
 10
107.3588215877436
 20
-153.1951279998957
 30
0.0
 10
107.3588215877436
 20
-153.1951279998957
 30
0.0
 10
107.3588215877436
 20
-152.5774223793904
 30
0.0
 10
107.3588215877436
 20
-152.5774223793904
 30
0.0
 10
107.3588215877436
 20
-152.5774223793904
 30
0.0
 10
108.9029133842326
 20
-152.5774223793904
 30
0.0
 10
108.9029133842326
 20
-152.5774223793904
 30
0.0
 10
108.9029133842326
 20
-152.5774223793904
 30
0.0
 10
108.9029133842326
 20
-153.1951279998957
 30
0.0
 10
108.9029133842326
 20
-153.1951279998957
 30
0.0
 10
108.9029133842326
 20
-153.6584933426618
 30
0.0
 10
108.5329101291168
 20
-153.8655435813253
 30
0.0
 10
108.1246663141147
 20
-153.8655435813253
 30
0.0
 10
107.7736110841677
 20
-153.8655435813253
 30
0.0
 10
107.3588215877436
 20
-153.6877766542864
 30
0.0
 10
107.3588215877436
 20
-153.1951279998957
 30
0.0
  0
SPLINE
  5
DD
330
C3
100
AcDbEntity
  8
_U+30EC_U+30A4_U+30E4_U+30FC 1
370
     0
100
AcDbSpline
210
0.0
220
0.0
230
1.0
 70
    11
 71
     3
 72
    20
 73
    16
 74
     0
 42
0.0000000001
 43
0.0000000001
 12
1.0
 22
0.0
 32
0.0
 13
1.0
 23
0.0
 33
0.0
 40
0.0
 40
0.0
 40
0.0
 40
0.0
 40
1.0
 40
1.0
 40
1.0
 40
2.0
 40
2.0
 40
2.0
 40
3.0
 40
3.0
 40
3.0
 40
4.0
 40
4.0
 40
4.0
 40
5.0
 40
5.0
 40
5.0
 40
5.0
 10
108.6913845214383
 20
-153.1971950571868
 30
0.0
 10
108.6913845214383
 20
-153.1971950571868
 30
0.0
 10
108.6913845214383
 20
-152.8120333819359
 30
0.0
 10
108.6913845214383
 20
-152.8120333819359
 30
0.0
 10
108.6913845214383
 20
-152.8120333819359
 30
0.0
 10
107.570350450538
 20
-152.8120333819359
 30
0.0
 10
107.570350450538
 20
-152.8120333819359
 30
0.0
 10
107.570350450538
 20
-152.8120333819359
 30
0.0
 10
107.570350450538
 20
-153.1971950571868
 30
0.0
 10
107.570350450538
 20
-153.1971950571868
 30
0.0
 10
107.570350450538
 20
-153.5651312550115
 30
0.0
 10
107.9152045086115
 20
-153.626453954649
 30
0.0
 10
108.1374131674101
 20
-153.626453954649
 30
0.0
 10
108.3468749729133
 20
-153.626453954649
 30
0.0
 10
108.6913845214383
 20
-153.5630641977204
 30
0.0
 10
108.6913845214383
 20
-153.1971950571868
 30
0.0
  0
HATCH
  5
DE
330
C3
100
AcDbEntity
  8
_U+30EC_U+30A4_U+30E4_U+30FC 1
 62
   179
420
  2234388
100
AcDbHatch
 10
0.0
 20
0.0
 30
0.0
210
0.0
220
0.0
230
1.0
  2
SOLID
 70
     1
 71
     0
 91
        2
 92
        1
 93
        1
 72
     4
 94
        3
 73
     0
 74
     1
 95
       20
 96
       16
 40
0.0
 40
0.0
 40
0.0
 40
0.0
 40
1.0
 40
1.0
 40
1.0
 40
2.0
 40
2.0
 40
2.0
 40
3.0
 40
3.0
 40
3.0
 40
4.0
 40
4.0
 40
4.0
 40
5.0
 40
5.0
 40
5.0
 40
5.0
 10
107.3588215877436
 20
-153.1951279998957
 10
107.3588215877436
 20
-153.1951279998957
 10
107.3588215877436
 20
-152.5774223793904
 10
107.3588215877436
 20
-152.5774223793904
 10
107.3588215877436
 20
-152.5774223793904
 10
108.9029133842326
 20
-152.5774223793904
 10
108.9029133842326
 20
-152.5774223793904
 10
108.9029133842326
 20
-152.5774223793904
 10
108.9029133842326
 20
-153.1951279998957
 10
108.9029133842326
 20
-153.1951279998957
 10
108.9029133842326
 20
-153.6584933426618
 10
108.5329101291168
 20
-153.8655435813253
 10
108.1246663141147
 20
-153.8655435813253
 10
107.7736110841677
 20
-153.8655435813253
 10
107.3588215877436
 20
-153.6877766542864
 10
107.3588215877436
 20
-153.1951279998957
 97
        0
 97
        0
 92
        1
 93
        1
 72
     4
 94
        3
 73
     0
 74
     1
 95
       20
 96
       16
 40
0.0
 40
0.0
 40
0.0
 40
0.0
 40
1.0
 40
1.0
 40
1.0
 40
2.0
 40
2.0
 40
2.0
 40
3.0
 40
3.0
 40
3.0
 40
4.0
 40
4.0
 40
4.0
 40
5.0
 40
5.0
 40
5.0
 40
5.0
 10
108.6913845214383
 20
-153.1971950571868
 10
108.6913845214383
 20
-153.1971950571868
 10
108.6913845214383
 20
-152.8120333819359
 10
108.6913845214383
 20
-152.8120333819359
 10
108.6913845214383
 20
-152.8120333819359
 10
107.570350450538
 20
-152.8120333819359
 10
107.570350450538
 20
-152.8120333819359
 10
107.570350450538
 20
-152.8120333819359
 10
107.570350450538
 20
-153.1971950571868
 10
107.570350450538
 20
-153.1971950571868
 10
107.570350450538
 20
-153.5651312550115
 10
107.9152045086115
 20
-153.626453954649
 10
108.1374131674101
 20
-153.626453954649
 10
108.3468749729133
 20
-153.626453954649
 10
108.6913845214383
 20
-153.5630641977204
 10
108.6913845214383
 20
-153.1971950571868
 97
        0
 97
        0
 75
     2
 76
     1
 98
        0
  0
POLYLINE
  5
DF
330
C3
100
AcDbEntity
  8
_U+30EC_U+30A4_U+30E4_U+30FC 1
370
     0
100
AcDb2dPolyline
 66
     1
 10
0.0
 20
0.0
 30
0.0
  0
VERTEX
  5
E0
330
DF
100
AcDbEntity
  8
_U+30EC_U+30A4_U+30E4_U+30FC 1
370
     0
100
AcDbVertex
100
AcDb2dVertex
 10
107.3588215877436
 20
-155.4086018491687
 30
0.0
  0
VERTEX
  5
E1
330
DF
100
AcDbEntity
  8
_U+30EC_U+30A4_U+30E4_U+30FC 1
370
     0
100
AcDbVertex
100
AcDb2dVertex
 10
108.4271456977196
 20
-155.4086018491687
 30
0.0
  0
VERTEX
  5
E2
330
DF
100
AcDbEntity
  8
_U+30EC_U+30A4_U+30E4_U+30FC 1
370
     0
100
AcDbVertex
100
AcDb2dVertex
 10
108.5900987141719
 20
-155.4148030210421
 30
0.0
  0
VERTEX
  5
E3
330
DF
100
AcDbEntity
  8
_U+30EC_U+30A4_U+30E4_U+30FC 1
370
     0
100
AcDbVertex
100
AcDb2dVertex
 10
108.4357584364327
 20
-155.3789740279956
 30
0.0
  0
VERTEX
  5
E4
330
DF
100
AcDbEntity
  8
_U+30EC_U+30A4_U+30E4_U+30FC 1
370
     0
100
AcDbVertex
100
AcDb2dVertex
 10
107.3588215877436
 20
-155.034119969922
 30
0.0
  0
VERTEX
  5
E5
330
DF
100
AcDbEntity
  8
_U+30EC_U+30A4_U+30E4_U+30FC 1
370
     0
100
AcDbVertex
100
AcDb2dVertex
 10
107.3588215877436
 20
-154.7633354647814
 30
0.0
  0
VERTEX
  5
E6
330
DF
100
AcDbEntity
  8
_U+30EC_U+30A4_U+30E4_U+30FC 1
370
     0
100
AcDbVertex
100
AcDb2dVertex
 10
108.4357584364327
 20
-154.420548463999
 30
0.0
  0
VERTEX
  5
E7
330
DF
100
AcDbEntity
  8
_U+30EC_U+30A4_U+30E4_U+30FC 1
370
     0
100
AcDbVertex
100
AcDb2dVertex
 10
108.5900987141719
 20
-154.3847194709524
 30
0.0
  0
VERTEX
  5
E8
330
DF
100
AcDbEntity
  8
_U+30EC_U+30A4_U+30E4_U+30FC 1
370
     0
100
AcDbVertex
100
AcDb2dVertex
 10
108.4271456977196
 20
-154.3888535855347
 30
0.0
  0
VERTEX
  5
E9
330
DF
100
AcDbEntity
  8
_U+30EC_U+30A4_U+30E4_U+30FC 1
370
     0
100
AcDbVertex
100
AcDb2dVertex
 10
107.3588215877436
 20
-154.3888535855347
 30
0.0
  0
VERTEX
  5
EA
330
DF
100
AcDbEntity
  8
_U+30EC_U+30A4_U+30E4_U+30FC 1
370
     0
100
AcDbVertex
100
AcDb2dVertex
 10
107.3588215877436
 20
-154.171123550867
 30
0.0
  0
VERTEX
  5
EB
330
DF
100
AcDbEntity
  8
_U+30EC_U+30A4_U+30E4_U+30FC 1
370
     0
100
AcDbVertex
100
AcDb2dVertex
 10
108.9029133842326
 20
-154.171123550867
 30
0.0
  0
VERTEX
  5
EC
330
DF
100
AcDbEntity
  8
_U+30EC_U+30A4_U+30E4_U+30FC 1
370
     0
100
AcDbVertex
100
AcDb2dVertex
 10
108.9029133842326
 20
-154.4904839023496
 30
0.0
  0
VERTEX
  5
ED
330
DF
100
AcDbEntity
  8
_U+30EC_U+30A4_U+30E4_U+30FC 1
370
     0
100
AcDbVertex
100
AcDb2dVertex
 10
107.7543185494503
 20
-154.860831667014
 30
0.0
  0
VERTEX
  5
EE
330
DF
100
AcDbEntity
  8
_U+30EC_U+30A4_U+30E4_U+30FC 1
370
     0
100
AcDbVertex
100
AcDb2dVertex
 10
107.6127251250065
 20
-154.8987277173517
 30
0.0
  0
VERTEX
  5
EF
330
DF
100
AcDbEntity
  8
_U+30EC_U+30A4_U+30E4_U+30FC 1
370
     0
100
AcDbVertex
100
AcDb2dVertex
 10
107.7543185494503
 20
-154.936968277238
 30
0.0
  0
VERTEX
  5
F0
330
DF
100
AcDbEntity
  8
_U+30EC_U+30A4_U+30E4_U+30FC 1
370
     0
100
AcDbVertex
100
AcDb2dVertex
 10
108.9029133842326
 20
-155.309038589645
 30
0.0
  0
VERTEX
  5
F1
330
DF
100
AcDbEntity
  8
_U+30EC_U+30A4_U+30E4_U+30FC 1
370
     0
100
AcDbVertex
100
AcDb2dVertex
 10
108.9029133842326
 20
-155.626676393385
 30
0.0
  0
VERTEX
  5
F2
330
DF
100
AcDbEntity
  8
_U+30EC_U+30A4_U+30E4_U+30FC 1
370
     0
100
AcDbVertex
100
AcDb2dVertex
 10
107.3588215877436
 20
-155.626676393385
 30
0.0
  0
VERTEX
  5
F3
330
DF
100
AcDbEntity
  8
_U+30EC_U+30A4_U+30E4_U+30FC 1
370
     0
100
AcDbVertex
100
AcDb2dVertex
 10
107.3588215877436
 20
-155.4086018491687
 30
0.0
  0
SEQEND
  5
F4
330
DF
100
AcDbEntity
  8
_U+30EC_U+30A4_U+30E4_U+30FC 1
370
     0
  0
HATCH
  5
F5
330
C3
100
AcDbEntity
  8
_U+30EC_U+30A4_U+30E4_U+30FC 1
 62
   179
420
  2234388
100
AcDbHatch
 10
0.0
 20
0.0
 30
0.0
210
0.0
220
0.0
230
1.0
  2
SOLID
 70
     1
 71
     0
 91
        1
 92
        1
 93
       19
 72
     1
 10
107.3588215877436
 20
-155.4086018491687
 11
108.4271456977196
 21
-155.4086018491687
 72
     1
 10
108.4271456977196
 20
-155.4086018491687
 11
108.5900987141719
 21
-155.4148030210421
 72
     1
 10
108.5900987141719
 20
-155.4148030210421
 11
108.4357584364327
 21
-155.3789740279956
 72
     1
 10
108.4357584364327
 20
-155.3789740279956
 11
107.3588215877436
 21
-155.034119969922
 72
     1
 10
107.3588215877436
 20
-155.034119969922
 11
107.3588215877436
 21
-154.7633354647814
 72
     1
 10
107.3588215877436
 20
-154.7633354647814
 11
108.4357584364327
 21
-154.420548463999
 72
     1
 10
108.4357584364327
 20
-154.420548463999
 11
108.5900987141719
 21
-154.3847194709524
 72
     1
 10
108.5900987141719
 20
-154.3847194709524
 11
108.4271456977196
 21
-154.3888535855347
 72
     1
 10
108.4271456977196
 20
-154.3888535855347
 11
107.3588215877436
 21
-154.3888535855347
 72
     1
 10
107.3588215877436
 20
-154.3888535855347
 11
107.3588215877436
 21
-154.171123550867
 72
     1
 10
107.3588215877436
 20
-154.171123550867
 11
108.9029133842326
 21
-154.171123550867
 72
     1
 10
108.9029133842326
 20
-154.171123550867
 11
108.9029133842326
 21
-154.4904839023496
 72
     1
 10
108.9029133842326
 20
-154.4904839023496
 11
107.7543185494503
 21
-154.860831667014
 72
     1
 10
107.7543185494503
 20
-154.860831667014
 11
107.6127251250065
 21
-154.8987277173517
 72
     1
 10
107.6127251250065
 20
-154.8987277173517
 11
107.7543185494503
 21
-154.936968277238
 72
     1
 10
107.7543185494503
 20
-154.936968277238
 11
108.9029133842326
 21
-155.309038589645
 72
     1
 10
108.9029133842326
 20
-155.309038589645
 11
108.9029133842326
 21
-155.626676393385
 72
     1
 10
108.9029133842326
 20
-155.626676393385
 11
107.3588215877436
 21
-155.626676393385
 72
     1
 10
107.3588215877436
 20
-155.626676393385
 11
107.3588215877436
 21
-155.4086018491687
 97
        0
 75
     2
 76
     1
 98
        0
  0
SPLINE
  5
F6
330
C3
100
AcDbEntity
  8
_U+30EC_U+30A4_U+30E4_U+30FC 1
370
     0
100
AcDbSpline
210
0.0
220
0.0
230
1.0
 70
    11
 71
     3
 72
    47
 73
    43
 74
     0
 42
0.0000000001
 43
0.0000000001
 12
1.0
 22
0.0
 32
0.0
 13
1.0
 23
0.0
 33
0.0
 40
0.0
 40
0.0
 40
0.0
 40
0.0
 40
1.0
 40
1.0
 40
1.0
 40
2.0
 40
2.0
 40
2.0
 40
3.0
 40
3.0
 40
3.0
 40
4.0
 40
4.0
 40
4.0
 40
5.0
 40
5.0
 40
5.0
 40
6.0
 40
6.0
 40
6.0
 40
7.0
 40
7.0
 40
7.0
 40
8.0
 40
8.0
 40
8.0
 40
9.0
 40
9.0
 40
9.0
 40
10.0
 40
10.0
 40
10.0
 40
11.0
 40
11.0
 40
11.0
 40
12.0
 40
12.0
 40
12.0
 40
13.0
 40
13.0
 40
13.0
 40
14.0
 40
14.0
 40
14.0
 40
14.0
 10
109.0172905543429
 20
-157.7598795178517
 30
0.0
 10
108.8884439831946
 20
-157.7557454032694
 30
0.0
 10
108.7888807236708
 20
-157.7512667791386
 30
0.0
 10
108.6789821776914
 20
-157.7512667791386
 30
0.0
 10
108.6789821776914
 20
-157.7512667791386
 30
0.0
 10
107.9575791830801
 20
-157.7512667791386
 30
0.0
 10
107.9575791830801
 20
-157.7512667791386
 30
0.0
 10
107.9279513619069
 20
-157.7512667791386
 30
0.0
 10
107.9024576553161
 20
-157.7557454032694
 30
0.0
 10
107.674047824644
 20
-157.7598795178517
 30
0.0
 10
107.674047824644
 20
-157.7598795178517
 30
0.0
 10
107.4645860191408
 20
-157.764013632434
 30
0.0
 10
107.4645860191408
 20
-157.764013632434
 30
0.0
 10
107.2974988881062
 20
-157.7684922565648
 30
0.0
 10
107.2148165964602
 20
-157.7281846393874
 30
0.0
 10
107.2148165964602
 20
-157.4977077514242
 30
0.0
 10
107.2148165964602
 20
-157.4594671915379
 30
0.0
 10
107.2148165964602
 20
-157.4339734849471
 30
0.0
 10
107.2168836537513
 20
-157.4002115491916
 30
0.0
 10
107.2168836537513
 20
-157.4002115491916
 30
0.0
 10
107.4497721085542
 20
-157.2796332072079
 30
0.0
 10
107.4497721085542
 20
-157.2796332072079
 30
0.0
 10
107.4394368220985
 20
-157.3557698174319
 30
0.0
 10
107.4328911406765
 20
-157.4532660196645
 30
0.0
 10
107.4328911406765
 20
-157.5018418660065
 30
0.0
 10
107.4328911406765
 20
-157.556618884222
 30
0.0
 10
107.4456379939719
 20
-157.556618884222
 30
0.0
 10
107.5386555720737
 20
-157.556618884222
 30
0.0
 10
107.5386555720737
 20
-157.556618884222
 30
0.0
 10
108.6576225856828
 20
-157.556618884222
 30
0.0
 10
108.6576225856828
 20
-157.556618884222
 30
0.0
 10
108.8098958061309
 20
-157.556618884222
 30
0.0
 10
108.9601019692878
 20
-157.5524847696397
 30
0.0
 10
109.1123751897358
 20
-157.5462835977662
 30
0.0
 10
109.1123751897358
 20
-157.5462835977662
 30
0.0
 10
109.0913601072758
 20
-157.7512667791386
 30
0.0
 10
109.0913601072758
 20
-157.7512667791386
 30
0.0
 10
109.0872259926935
 20
-157.7874402817337
 30
0.0
 10
109.0851589354023
 20
-157.8001871350291
 30
0.0
 10
109.0662109102335
 20
-157.8001871350291
 30
0.0
 10
109.0531195473895
 20
-157.8001871350291
 30
0.0
 10
109.0365830890603
 20
-157.7808946003117
 30
0.0
 10
109.0172905543429
 20
-157.7598795178517
 30
0.0
  0
SPLINE
  5
F7
330
C3
100
AcDbEntity
  8
_U+30EC_U+30A4_U+30E4_U+30FC 1
370
     0
100
AcDbSpline
210
0.0
220
0.0
230
1.0
 70
    11
 71
     3
 72
    83
 73
    79
 74
     0
 42
0.0000000001
 43
0.0000000001
 12
1.0
 22
0.0
 32
0.0
 13
1.0
 23
0.0
 33
0.0
 40
0.0
 40
0.0
 40
0.0
 40
0.0
 40
1.0
 40
1.0
 40
1.0
 40
2.0
 40
2.0
 40
2.0
 40
3.0
 40
3.0
 40
3.0
 40
4.0
 40
4.0
 40
4.0
 40
5.0
 40
5.0
 40
5.0
 40
6.0
 40
6.0
 40
6.0
 40
7.0
 40
7.0
 40
7.0
 40
8.0
 40
8.0
 40
8.0
 40
9.0
 40
9.0
 40
9.0
 40
10.0
 40
10.0
 40
10.0
 40
11.0
 40
11.0
 40
11.0
 40
12.0
 40
12.0
 40
12.0
 40
13.0
 40
13.0
 40
13.0
 40
14.0
 40
14.0
 40
14.0
 40
15.0
 40
15.0
 40
15.0
 40
16.0
 40
16.0
 40
16.0
 40
17.0
 40
17.0
 40
17.0
 40
18.0
 40
18.0
 40
18.0
 40
19.0
 40
19.0
 40
19.0
 40
20.0
 40
20.0
 40
20.0
 40
21.0
 40
21.0
 40
21.0
 40
22.0
 40
22.0
 40
22.0
 40
23.0
 40
23.0
 40
23.0
 40
24.0
 40
24.0
 40
24.0
 40
25.0
 40
25.0
 40
25.0
 40
26.0
 40
26.0
 40
26.0
 40
26.0
 10
108.3765027940864
 20
-156.6068060589386
 30
0.0
 10
108.3765027940864
 20
-156.6068060589386
 30
0.0
 10
108.3765027940864
 20
-156.4907063410857
 30
0.0
 10
108.3765027940864
 20
-156.4907063410857
 30
0.0
 10
108.287619330567
 20
-156.488294774246
 30
0.0
 10
108.2242295736384
 20
-156.4800265450814
 30
0.0
 10
108.1670409885832
 20
-156.4734808636594
 30
0.0
 10
108.1670409885832
 20
-156.4734808636594
 30
0.0
 10
108.1670409885832
 20
-156.9116970093832
 30
0.0
 10
108.1670409885832
 20
-156.9116970093832
 30
0.0
 10
108.0147677681352
 20
-156.9051513279612
 30
0.0
 10
107.6296060928843
 20
-156.8903374173746
 30
0.0
 10
107.4073974340857
 20
-156.8014539538552
 30
0.0
 10
107.2868190921019
 20
-156.7549451648043
 30
0.0
 10
107.240310303051
 20
-156.6915554078757
 30
0.0
 10
107.240310303051
 20
-156.5075873089634
 30
0.0
 10
107.240310303051
 20
-156.4586669530728
 30
0.0
 10
107.2423773603422
 20
-156.439718927904
 30
0.0
 10
107.2465114749245
 20
-156.4145697308616
 30
0.0
 10
107.2465114749245
 20
-156.4145697308616
 30
0.0
 10
107.4793999297274
 20
-156.3360215537979
 30
0.0
 10
107.4793999297274
 20
-156.3360215537979
 30
0.0
 10
107.4793999297274
 20
-156.3425672352199
 30
0.0
 10
107.4773328724362
 20
-156.3487684070934
 30
0.0
 10
107.4604519045585
 20
-156.4166367881528
 30
0.0
 10
107.4497721085542
 20
-156.4586669530728
 30
0.0
 10
107.4456379939719
 20
-156.4927733983768
 30
0.0
 10
107.4456379939719
 20
-156.5075873089634
 30
0.0
 10
107.4456379939719
 20
-156.5837239191874
 30
0.0
 10
107.4897352161831
 20
-156.6088731162297
 30
0.0
 10
107.5238416614871
 20
-156.626098593656
 30
0.0
 10
107.5407226293648
 20
-156.6343668228206
 30
0.0
 10
107.674047824644
 20
-156.6894883505846
 30
0.0
 10
107.9954752334178
 20
-156.7063693184623
 30
0.0
 10
107.9954752334178
 20
-156.7063693184623
 30
0.0
 10
107.9954752334178
 20
-156.4417859851951
 30
0.0
 10
107.9954752334178
 20
-156.4417859851951
 30
0.0
 10
107.625471978302
 20
-156.3594482030977
 30
0.0
 10
107.3691568741994
 20
-156.1878824479322
 30
0.0
 10
107.2530571563465
 20
-156.0187282596064
 30
0.0
 10
107.2530571563465
 20
-156.0187282596064
 30
0.0
 10
107.4118760582165
 20
-155.8602538672849
 30
0.0
 10
107.4118760582165
 20
-155.8602538672849
 30
0.0
 10
107.6275390355931
 20
-156.1964951866453
 30
0.0
 10
108.0209689400087
 20
-156.2874457074559
 30
0.0
 10
108.3765027940864
 20
-156.296058446169
 30
0.0
 10
108.3765027940864
 20
-156.2430039756962
 30
0.0
 10
108.3765027940864
 20
-156.2347357465316
 30
0.0
 10
108.3678900553733
 20
-155.9701524132644
 30
0.0
 10
108.4292127550108
 20
-155.9742865278467
 30
0.0
 10
108.5267089572433
 20
-155.9787651519775
 30
0.0
 10
108.6217935926362
 20
-155.9787651519775
 30
0.0
 10
108.6217935926362
 20
-155.9787651519775
 30
0.0
 10
108.8271212835571
 20
-155.9787651519775
 30
0.0
 10
108.8271212835571
 20
-155.9787651519775
 30
0.0
 10
108.8546820474391
 20
-155.9787651519775
 30
0.0
 10
108.977327446714
 20
-155.9763535851379
 30
0.0
 10
109.0365830890603
 20
-155.9701524132644
 30
0.0
 10
109.0279703503472
 20
-156.0462890234884
 30
0.0
 10
109.0234917262163
 20
-156.1816812760588
 30
0.0
 10
109.0234917262163
 20
-156.2643635677047
 30
0.0
 10
109.0234917262163
 20
-156.2643635677047
 30
0.0
 10
109.0234917262163
 20
-156.5878580337697
 30
0.0
 10
109.0234917262163
 20
-156.5878580337697
 30
0.0
 10
109.0234917262163
 20
-156.7359971396355
 30
0.0
 10
109.025903293056
 20
-156.7845729859775
 30
0.0
 10
109.0365830890603
 20
-156.9158311239655
 30
0.0
 10
108.9621690265789
 20
-156.9072183852524
 30
0.0
 10
108.8629502766037
 20
-156.9072183852524
 30
0.0
 10
108.818508544844
 20
-156.9072183852524
 30
0.0
 10
108.818508544844
 20
-156.9072183852524
 30
0.0
 10
108.6238606499274
 20
-156.9072183852524
 30
0.0
 10
108.6238606499274
 20
-156.9072183852524
 30
0.0
 10
108.5032823079436
 20
-156.9072183852524
 30
0.0
 10
108.4798556586439
 20
-156.9072183852524
 30
0.0
 10
108.3678900553733
 20
-156.9158311239655
 30
0.0
 10
108.3765027940864
 20
-156.7911186673994
 30
0.0
 10
108.3765027940864
 20
-156.750811050222
 30
0.0
 10
108.3765027940864
 20
-156.6068060589386
 30
0.0
  0
SPLINE
  5
F8
330
C3
100
AcDbEntity
  8
_U+30EC_U+30A4_U+30E4_U+30FC 1
370
     0
100
AcDbSpline
210
0.0
220
0.0
230
1.0
 70
    11
 71
     3
 72
    41
 73
    37
 74
     0
 42
0.0000000001
 43
0.0000000001
 12
1.0
 22
0.0
 32
0.0
 13
1.0
 23
0.0
 33
0.0
 40
0.0
 40
0.0
 40
0.0
 40
0.0
 40
1.0
 40
1.0
 40
1.0
 40
2.0
 40
2.0
 40
2.0
 40
3.0
 40
3.0
 40
3.0
 40
4.0
 40
4.0
 40
4.0
 40
5.0
 40
5.0
 40
5.0
 40
6.0
 40
6.0
 40
6.0
 40
7.0
 40
7.0
 40
7.0
 40
8.0
 40
8.0
 40
8.0
 40
9.0
 40
9.0
 40
9.0
 40
10.0
 40
10.0
 40
10.0
 40
11.0
 40
11.0
 40
11.0
 40
12.0
 40
12.0
 40
12.0
 40
12.0
 10
108.7995605196751
 20
-157.3199408243853
 30
0.0
 10
108.6913845214383
 20
-157.3178737670941
 30
0.0
 10
108.5773518608765
 20
-157.3178737670941
 30
0.0
 10
108.4695203721882
 20
-157.3178737670941
 30
0.0
 10
108.4695203721882
 20
-157.3178737670941
 30
0.0
 10
108.1732421604567
 20
-157.3178737670941
 30
0.0
 10
108.1732421604567
 20
-157.3178737670941
 30
0.0
 10
108.0547308757641
 20
-157.3178737670941
 30
0.0
 10
107.8452690702609
 20
-157.3220078816765
 30
0.0
 10
107.7288248428595
 20
-157.3388888495542
 30
0.0
 10
107.7288248428595
 20
-157.3388888495542
 30
0.0
 10
107.7288248428595
 20
-157.0870523695824
 30
0.0
 10
107.7288248428595
 20
-157.0870523695824
 30
0.0
 10
107.8177083063789
 20
-157.0977321655867
 30
0.0
 10
108.0864257542284
 20
-157.1146131334644
 30
0.0
 10
108.1732421604567
 20
-157.1146131334644
 30
0.0
 10
108.1732421604567
 20
-157.1146131334644
 30
0.0
 10
108.5032823079436
 20
-157.1146131334644
 30
0.0
 10
108.5032823079436
 20
-157.1146131334644
 30
0.0
 10
108.5032823079436
 20
-157.1146131334644
 30
0.0
 10
108.5370442436991
 20
-157.1146131334644
 30
0.0
 10
108.5370442436991
 20
-157.1146131334644
 30
0.0
 10
108.5370442436991
 20
-157.1146131334644
 30
0.0
 10
108.7189452853203
 20
-157.1146131334644
 30
0.0
 10
108.7189452853203
 20
-157.1146131334644
 30
0.0
 10
108.7592529024977
 20
-157.1146131334644
 30
0.0
 10
108.8229871689748
 20
-157.1125460761733
 30
0.0
 10
108.9073920083634
 20
-157.1104790188821
 30
0.0
 10
108.9073920083634
 20
-157.1104790188821
 30
0.0
 10
108.8925780977769
 20
-157.3178737670941
 30
0.0
 10
108.8925780977769
 20
-157.3178737670941
 30
0.0
 10
108.8925780977769
 20
-157.3302761108411
 30
0.0
 10
108.8905110404857
 20
-157.3705837280185
 30
0.0
 10
108.8608832193126
 20
-157.3705837280185
 30
0.0
 10
108.8436577418863
 20
-157.3705837280185
 30
0.0
 10
108.825054226266
 20
-157.3495686455584
 30
0.0
 10
108.7995605196751
 20
-157.3199408243853
 30
0.0
  0
POLYLINE
  5
F9
330
C3
100
AcDbEntity
  8
_U+30EC_U+30A4_U+30E4_U+30FC 1
370
     0
100
AcDb2dPolyline
 66
     1
 10
0.0
 20
0.0
 30
0.0
  0
VERTEX
  5
FA
330
F9
100
AcDbEntity
  8
_U+30EC_U+30A4_U+30E4_U+30FC 1
370
     0
100
AcDbVertex
100
AcDb2dVertex
 10
108.8608832193126
 20
-156.7063693184623
 30
0.0
  0
VERTEX
  5
FB
330
F9
100
AcDbEntity
  8
_U+30EC_U+30A4_U+30E4_U+30FC 1
370
     0
100
AcDbVertex
100
AcDb2dVertex
 10
108.8608832193126
 20
-156.164800308181
 30
0.0
  0
VERTEX
  5
FC
330
F9
100
AcDbEntity
  8
_U+30EC_U+30A4_U+30E4_U+30FC 1
370
     0
100
AcDbVertex
100
AcDb2dVertex
 10
108.5370442436991
 20
-156.164800308181
 30
0.0
  0
VERTEX
  5
FD
330
F9
100
AcDbEntity
  8
_U+30EC_U+30A4_U+30E4_U+30FC 1
370
     0
100
AcDbVertex
100
AcDb2dVertex
 10
108.5370442436991
 20
-156.7063693184623
 30
0.0
  0
VERTEX
  5
FE
330
F9
100
AcDbEntity
  8
_U+30EC_U+30A4_U+30E4_U+30FC 1
370
     0
100
AcDbVertex
100
AcDb2dVertex
 10
108.8608832193126
 20
-156.7063693184623
 30
0.0
  0
SEQEND
  5
FF
330
F9
100
AcDbEntity
  8
_U+30EC_U+30A4_U+30E4_U+30FC 1
370
     0
  0
HATCH
  5
100
330
C3
100
AcDbEntity
  8
_U+30EC_U+30A4_U+30E4_U+30FC 1
 62
   179
420
  2234388
100
AcDbHatch
 10
0.0
 20
0.0
 30
0.0
210
0.0
220
0.0
230
1.0
  2
SOLID
 70
     1
 71
     0
 91
        4
 92
        1
 93
        1
 72
     4
 94
        3
 73
     0
 74
     1
 95
       47
 96
       43
 40
0.0
 40
0.0
 40
0.0
 40
0.0
 40
1.0
 40
1.0
 40
1.0
 40
2.0
 40
2.0
 40
2.0
 40
3.0
 40
3.0
 40
3.0
 40
4.0
 40
4.0
 40
4.0
 40
5.0
 40
5.0
 40
5.0
 40
6.0
 40
6.0
 40
6.0
 40
7.0
 40
7.0
 40
7.0
 40
8.0
 40
8.0
 40
8.0
 40
9.0
 40
9.0
 40
9.0
 40
10.0
 40
10.0
 40
10.0
 40
11.0
 40
11.0
 40
11.0
 40
12.0
 40
12.0
 40
12.0
 40
13.0
 40
13.0
 40
13.0
 40
14.0
 40
14.0
 40
14.0
 40
14.0
 10
109.0172905543429
 20
-157.7598795178517
 10
108.8884439831946
 20
-157.7557454032694
 10
108.7888807236708
 20
-157.7512667791386
 10
108.6789821776914
 20
-157.7512667791386
 10
108.6789821776914
 20
-157.7512667791386
 10
107.9575791830801
 20
-157.7512667791386
 10
107.9575791830801
 20
-157.7512667791386
 10
107.9279513619069
 20
-157.7512667791386
 10
107.9024576553161
 20
-157.7557454032694
 10
107.674047824644
 20
-157.7598795178517
 10
107.674047824644
 20
-157.7598795178517
 10
107.4645860191408
 20
-157.764013632434
 10
107.4645860191408
 20
-157.764013632434
 10
107.2974988881062
 20
-157.7684922565648
 10
107.2148165964602
 20
-157.7281846393874
 10
107.2148165964602
 20
-157.4977077514242
 10
107.2148165964602
 20
-157.4594671915379
 10
107.2148165964602
 20
-157.4339734849471
 10
107.2168836537513
 20
-157.4002115491916
 10
107.2168836537513
 20
-157.4002115491916
 10
107.4497721085542
 20
-157.2796332072079
 10
107.4497721085542
 20
-157.2796332072079
 10
107.4394368220985
 20
-157.3557698174319
 10
107.4328911406765
 20
-157.4532660196645
 10
107.4328911406765
 20
-157.5018418660065
 10
107.4328911406765
 20
-157.556618884222
 10
107.4456379939719
 20
-157.556618884222
 10
107.5386555720737
 20
-157.556618884222
 10
107.5386555720737
 20
-157.556618884222
 10
108.6576225856828
 20
-157.556618884222
 10
108.6576225856828
 20
-157.556618884222
 10
108.8098958061309
 20
-157.556618884222
 10
108.9601019692878
 20
-157.5524847696397
 10
109.1123751897358
 20
-157.5462835977662
 10
109.1123751897358
 20
-157.5462835977662
 10
109.0913601072758
 20
-157.7512667791386
 10
109.0913601072758
 20
-157.7512667791386
 10
109.0872259926935
 20
-157.7874402817337
 10
109.0851589354023
 20
-157.8001871350291
 10
109.0662109102335
 20
-157.8001871350291
 10
109.0531195473895
 20
-157.8001871350291
 10
109.0365830890603
 20
-157.7808946003117
 10
109.0172905543429
 20
-157.7598795178517
 97
        0
 97
        0
 92
        1
 93
        1
 72
     4
 94
        3
 73
     0
 74
     1
 95
       83
 96
       79
 40
0.0
 40
0.0
 40
0.0
 40
0.0
 40
1.0
 40
1.0
 40
1.0
 40
2.0
 40
2.0
 40
2.0
 40
3.0
 40
3.0
 40
3.0
 40
4.0
 40
4.0
 40
4.0
 40
5.0
 40
5.0
 40
5.0
 40
6.0
 40
6.0
 40
6.0
 40
7.0
 40
7.0
 40
7.0
 40
8.0
 40
8.0
 40
8.0
 40
9.0
 40
9.0
 40
9.0
 40
10.0
 40
10.0
 40
10.0
 40
11.0
 40
11.0
 40
11.0
 40
12.0
 40
12.0
 40
12.0
 40
13.0
 40
13.0
 40
13.0
 40
14.0
 40
14.0
 40
14.0
 40
15.0
 40
15.0
 40
15.0
 40
16.0
 40
16.0
 40
16.0
 40
17.0
 40
17.0
 40
17.0
 40
18.0
 40
18.0
 40
18.0
 40
19.0
 40
19.0
 40
19.0
 40
20.0
 40
20.0
 40
20.0
 40
21.0
 40
21.0
 40
21.0
 40
22.0
 40
22.0
 40
22.0
 40
23.0
 40
23.0
 40
23.0
 40
24.0
 40
24.0
 40
24.0
 40
25.0
 40
25.0
 40
25.0
 40
26.0
 40
26.0
 40
26.0
 40
26.0
 10
108.3765027940864
 20
-156.6068060589386
 10
108.3765027940864
 20
-156.6068060589386
 10
108.3765027940864
 20
-156.4907063410857
 10
108.3765027940864
 20
-156.4907063410857
 10
108.287619330567
 20
-156.488294774246
 10
108.2242295736384
 20
-156.4800265450814
 10
108.1670409885832
 20
-156.4734808636594
 10
108.1670409885832
 20
-156.4734808636594
 10
108.1670409885832
 20
-156.9116970093832
 10
108.1670409885832
 20
-156.9116970093832
 10
108.0147677681352
 20
-156.9051513279612
 10
107.6296060928843
 20
-156.8903374173746
 10
107.4073974340857
 20
-156.8014539538552
 10
107.2868190921019
 20
-156.7549451648043
 10
107.240310303051
 20
-156.6915554078757
 10
107.240310303051
 20
-156.5075873089634
 10
107.240310303051
 20
-156.4586669530728
 10
107.2423773603422
 20
-156.439718927904
 10
107.2465114749245
 20
-156.4145697308616
 10
107.2465114749245
 20
-156.4145697308616
 10
107.4793999297274
 20
-156.3360215537979
 10
107.4793999297274
 20
-156.3360215537979
 10
107.4793999297274
 20
-156.3425672352199
 10
107.4773328724362
 20
-156.3487684070934
 10
107.4604519045585
 20
-156.4166367881528
 10
107.4497721085542
 20
-156.4586669530728
 10
107.4456379939719
 20
-156.4927733983768
 10
107.4456379939719
 20
-156.5075873089634
 10
107.4456379939719
 20
-156.5837239191874
 10
107.4897352161831
 20
-156.6088731162297
 10
107.5238416614871
 20
-156.626098593656
 10
107.5407226293648
 20
-156.6343668228206
 10
107.674047824644
 20
-156.6894883505846
 10
107.9954752334178
 20
-156.7063693184623
 10
107.9954752334178
 20
-156.7063693184623
 10
107.9954752334178
 20
-156.4417859851951
 10
107.9954752334178
 20
-156.4417859851951
 10
107.625471978302
 20
-156.3594482030977
 10
107.3691568741994
 20
-156.1878824479322
 10
107.2530571563465
 20
-156.0187282596064
 10
107.2530571563465
 20
-156.0187282596064
 10
107.4118760582165
 20
-155.8602538672849
 10
107.4118760582165
 20
-155.8602538672849
 10
107.6275390355931
 20
-156.1964951866453
 10
108.0209689400087
 20
-156.2874457074559
 10
108.3765027940864
 20
-156.296058446169
 10
108.3765027940864
 20
-156.2430039756962
 10
108.3765027940864
 20
-156.2347357465316
 10
108.3678900553733
 20
-155.9701524132644
 10
108.4292127550108
 20
-155.9742865278467
 10
108.5267089572433
 20
-155.9787651519775
 10
108.6217935926362
 20
-155.9787651519775
 10
108.6217935926362
 20
-155.9787651519775
 10
108.8271212835571
 20
-155.9787651519775
 10
108.8271212835571
 20
-155.9787651519775
 10
108.8546820474391
 20
-155.9787651519775
 10
108.977327446714
 20
-155.9763535851379
 10
109.0365830890603
 20
-155.9701524132644
 10
109.0279703503472
 20
-156.0462890234884
 10
109.0234917262163
 20
-156.1816812760588
 10
109.0234917262163
 20
-156.2643635677047
 10
109.0234917262163
 20
-156.2643635677047
 10
109.0234917262163
 20
-156.5878580337697
 10
109.0234917262163
 20
-156.5878580337697
 10
109.0234917262163
 20
-156.7359971396355
 10
109.025903293056
 20
-156.7845729859775
 10
109.0365830890603
 20
-156.9158311239655
 10
108.9621690265789
 20
-156.9072183852524
 10
108.8629502766037
 20
-156.9072183852524
 10
108.818508544844
 20
-156.9072183852524
 10
108.818508544844
 20
-156.9072183852524
 10
108.6238606499274
 20
-156.9072183852524
 10
108.6238606499274
 20
-156.9072183852524
 10
108.5032823079436
 20
-156.9072183852524
 10
108.4798556586439
 20
-156.9072183852524
 10
108.3678900553733
 20
-156.9158311239655
 10
108.3765027940864
 20
-156.7911186673994
 10
108.3765027940864
 20
-156.750811050222
 10
108.3765027940864
 20
-156.6068060589386
 97
        0
 97
        0
 92
        1
 93
        1
 72
     4
 94
        3
 73
     0
 74
     1
 95
       41
 96
       37
 40
0.0
 40
0.0
 40
0.0
 40
0.0
 40
1.0
 40
1.0
 40
1.0
 40
2.0
 40
2.0
 40
2.0
 40
3.0
 40
3.0
 40
3.0
 40
4.0
 40
4.0
 40
4.0
 40
5.0
 40
5.0
 40
5.0
 40
6.0
 40
6.0
 40
6.0
 40
7.0
 40
7.0
 40
7.0
 40
8.0
 40
8.0
 40
8.0
 40
9.0
 40
9.0
 40
9.0
 40
10.0
 40
10.0
 40
10.0
 40
11.0
 40
11.0
 40
11.0
 40
12.0
 40
12.0
 40
12.0
 40
12.0
 10
108.7995605196751
 20
-157.3199408243853
 10
108.6913845214383
 20
-157.3178737670941
 10
108.5773518608765
 20
-157.3178737670941
 10
108.4695203721882
 20
-157.3178737670941
 10
108.4695203721882
 20
-157.3178737670941
 10
108.1732421604567
 20
-157.3178737670941
 10
108.1732421604567
 20
-157.3178737670941
 10
108.0547308757641
 20
-157.3178737670941
 10
107.8452690702609
 20
-157.3220078816765
 10
107.7288248428595
 20
-157.3388888495542
 10
107.7288248428595
 20
-157.3388888495542
 10
107.7288248428595
 20
-157.0870523695824
 10
107.7288248428595
 20
-157.0870523695824
 10
107.8177083063789
 20
-157.0977321655867
 10
108.0864257542284
 20
-157.1146131334644
 10
108.1732421604567
 20
-157.1146131334644
 10
108.1732421604567
 20
-157.1146131334644
 10
108.5032823079436
 20
-157.1146131334644
 10
108.5032823079436
 20
-157.1146131334644
 10
108.5032823079436
 20
-157.1146131334644
 10
108.5370442436991
 20
-157.1146131334644
 10
108.5370442436991
 20
-157.1146131334644
 10
108.5370442436991
 20
-157.1146131334644
 10
108.7189452853203
 20
-157.1146131334644
 10
108.7189452853203
 20
-157.1146131334644
 10
108.7592529024977
 20
-157.1146131334644
 10
108.8229871689748
 20
-157.1125460761733
 10
108.9073920083634
 20
-157.1104790188821
 10
108.9073920083634
 20
-157.1104790188821
 10
108.8925780977769
 20
-157.3178737670941
 10
108.8925780977769
 20
-157.3178737670941
 10
108.8925780977769
 20
-157.3302761108411
 10
108.8905110404857
 20
-157.3705837280185
 10
108.8608832193126
 20
-157.3705837280185
 10
108.8436577418863
 20
-157.3705837280185
 10
108.825054226266
 20
-157.3495686455584
 10
108.7995605196751
 20
-157.3199408243853
 97
        0
 97
        0
 92
        1
 93
        4
 72
     1
 10
108.8608832193126
 20
-156.7063693184623
 11
108.8608832193126
 21
-156.164800308181
 72
     1
 10
108.8608832193126
 20
-156.164800308181
 11
108.5370442436991
 21
-156.164800308181
 72
     1
 10
108.5370442436991
 20
-156.164800308181
 11
108.5370442436991
 21
-156.7063693184623
 72
     1
 10
108.5370442436991
 20
-156.7063693184623
 11
108.8608832193126
 21
-156.7063693184623
 97
        0
 75
     2
 76
     1
 98
        0
  0
SPLINE
  5
101
330
C3
100
AcDbEntity
  8
_U+30EC_U+30A4_U+30E4_U+30FC 1
370
     0
100
AcDbSpline
210
0.0
220
0.0
230
1.0
 70
    11
 71
     3
 72
    71
 73
    67
 74
     0
 42
0.0000000001
 43
0.0000000001
 12
1.0
 22
0.0
 32
0.0
 13
1.0
 23
0.0
 33
0.0
 40
0.0
 40
0.0
 40
0.0
 40
0.0
 40
1.0
 40
1.0
 40
1.0
 40
2.0
 40
2.0
 40
2.0
 40
3.0
 40
3.0
 40
3.0
 40
4.0
 40
4.0
 40
4.0
 40
5.0
 40
5.0
 40
5.0
 40
6.0
 40
6.0
 40
6.0
 40
7.0
 40
7.0
 40
7.0
 40
8.0
 40
8.0
 40
8.0
 40
9.0
 40
9.0
 40
9.0
 40
10.0
 40
10.0
 40
10.0
 40
11.0
 40
11.0
 40
11.0
 40
12.0
 40
12.0
 40
12.0
 40
13.0
 40
13.0
 40
13.0
 40
14.0
 40
14.0
 40
14.0
 40
15.0
 40
15.0
 40
15.0
 40
16.0
 40
16.0
 40
16.0
 40
17.0
 40
17.0
 40
17.0
 40
18.0
 40
18.0
 40
18.0
 40
19.0
 40
19.0
 40
19.0
 40
20.0
 40
20.0
 40
20.0
 40
21.0
 40
21.0
 40
21.0
 40
22.0
 40
22.0
 40
22.0
 40
22.0
 10
107.2720051815153
 20
-159.9103081197447
 30
0.0
 10
107.267871066933
 20
-159.8510524773984
 30
0.0
 10
107.2637369523507
 20
-159.7666476380097
 30
0.0
 10
107.2637369523507
 20
-159.5571858325065
 30
0.0
 10
107.2637369523507
 20
-159.466235311696
 30
0.0
 10
107.267871066933
 20
-159.0621256112761
 30
0.0
 10
107.267871066933
 20
-158.9794433196301
 30
0.0
 10
107.267871066933
 20
-158.7362195783715
 30
0.0
 10
107.267871066933
 20
-158.6790309933164
 30
0.0
 10
107.3057671172708
 20
-158.5818793006323
 30
0.0
 10
107.350553358579
 20
-158.4633680159397
 30
0.0
 10
107.4180772300899
 20
-158.4147921695977
 30
0.0
 10
107.4690646432716
 20
-158.3786186670026
 30
0.0
 10
107.4435709366808
 20
-158.3489908458294
 30
0.0
 10
107.3353949384439
 20
-158.2135985932591
 30
0.0
 10
107.3143798559839
 20
-158.1863823389256
 30
0.0
 10
107.2616698950596
 20
-158.1819037147948
 30
0.0
 10
107.2341091311776
 20
-158.1777696002125
 30
0.0
 10
107.2341091311776
 20
-158.1502088363305
 30
0.0
 10
107.2341091311776
 20
-158.1312608111616
 30
0.0
 10
107.2571912709288
 20
-158.1185139578662
 30
0.0
 10
107.2699381242242
 20
-158.1123127859928
 30
0.0
 10
107.2699381242242
 20
-158.1123127859928
 30
0.0
 10
107.4711317005628
 20
-158.0254963797645
 30
0.0
 10
107.4711317005628
 20
-158.0254963797645
 30
0.0
 10
107.487668158892
 20
-158.0909531939842
 30
0.0
 10
107.5576035972425
 20
-158.2328911279765
 30
0.0
 10
107.6020453290023
 20
-158.294213827614
 30
0.0
 10
107.6020453290023
 20
-158.294213827614
 30
0.0
 10
108.0633436144772
 20
-158.294213827614
 30
0.0
 10
108.0633436144772
 20
-158.294213827614
 30
0.0
 10
108.0633436144772
 20
-158.294213827614
 30
0.0
 10
108.0633436144772
 20
-158.1798366575037
 30
0.0
 10
108.0633436144772
 20
-158.1798366575037
 30
0.0
 10
108.0633436144772
 20
-158.1777696002125
 30
0.0
 10
108.0547308757641
 20
-158.0658039969419
 30
0.0
 10
108.0547308757641
 20
-158.0571912582288
 30
0.0
 10
108.0547308757641
 20
-158.0571912582288
 30
0.0
 10
108.2452446560984
 20
-158.0571912582288
 30
0.0
 10
108.2452446560984
 20
-158.0571912582288
 30
0.0
 10
108.2431775988073
 20
-158.1271266965793
 30
0.0
 10
108.2407660319676
 20
-158.1353949257439
 30
0.0
 10
108.2407660319676
 20
-158.1946505680902
 30
0.0
 10
108.2407660319676
 20
-158.1946505680902
 30
0.0
 10
108.2407660319676
 20
-158.3131618527828
 30
0.0
 10
108.2407660319676
 20
-158.3131618527828
 30
0.0
 10
108.2407660319676
 20
-158.3407226166648
 30
0.0
 10
108.2452446560984
 20
-158.4316731374754
 30
0.0
 10
108.2493787706807
 20
-158.4929958371129
 30
0.0
 10
108.1753092177478
 20
-158.4843830983997
 30
0.0
 10
108.1139865181104
 20
-158.4823160411086
 30
0.0
 10
108.1036512316547
 20
-158.4823160411086
 30
0.0
 10
108.1036512316547
 20
-158.4823160411086
 30
0.0
 10
107.6971299643952
 20
-158.4823160411086
 30
0.0
 10
107.6971299643952
 20
-158.4823160411086
 30
0.0
 10
107.6061794435846
 20
-158.4823160411086
 30
0.0
 10
107.5365885147825
 20
-158.5457057980372
 30
0.0
 10
107.5193630373563
 20
-158.5649983327546
 30
0.0
 10
107.4284125165457
 20
-158.6748968787341
 30
0.0
 10
107.4160101727988
 20
-158.6959119611941
 30
0.0
 10
107.4160101727988
 20
-159.0555799298542
 30
0.0
 10
107.4160101727988
 20
-159.1423963360825
 30
0.0
 10
107.4263454592545
 20
-159.7115261102457
 30
0.0
 10
107.4645860191408
 20
-159.9781765008041
 30
0.0
 10
107.4645860191408
 20
-159.9781765008041
 30
0.0
 10
107.2720051815153
 20
-159.9103081197447
 30
0.0
 10
107.2720051815153
 20
-159.9103081197447
 30
0.0
  0
SPLINE
  5
102
330
C3
100
AcDbEntity
  8
_U+30EC_U+30A4_U+30E4_U+30FC 1
370
     0
100
AcDbSpline
210
0.0
220
0.0
230
1.0
 70
    11
 71
     3
 72
   122
 73
   118
 74
     0
 42
0.0000000001
 43
0.0000000001
 12
1.0
 22
0.0
 32
0.0
 13
1.0
 23
0.0
 33
0.0
 40
0.0
 40
0.0
 40
0.0
 40
0.0
 40
1.0
 40
1.0
 40
1.0
 40
2.0
 40
2.0
 40
2.0
 40
3.0
 40
3.0
 40
3.0
 40
4.0
 40
4.0
 40
4.0
 40
5.0
 40
5.0
 40
5.0
 40
6.0
 40
6.0
 40
6.0
 40
7.0
 40
7.0
 40
7.0
 40
8.0
 40
8.0
 40
8.0
 40
9.0
 40
9.0
 40
9.0
 40
10.0
 40
10.0
 40
10.0
 40
11.0
 40
11.0
 40
11.0
 40
12.0
 40
12.0
 40
12.0
 40
13.0
 40
13.0
 40
13.0
 40
14.0
 40
14.0
 40
14.0
 40
15.0
 40
15.0
 40
15.0
 40
16.0
 40
16.0
 40
16.0
 40
17.0
 40
17.0
 40
17.0
 40
18.0
 40
18.0
 40
18.0
 40
19.0
 40
19.0
 40
19.0
 40
20.0
 40
20.0
 40
20.0
 40
21.0
 40
21.0
 40
21.0
 40
22.0
 40
22.0
 40
22.0
 40
23.0
 40
23.0
 40
23.0
 40
24.0
 40
24.0
 40
24.0
 40
25.0
 40
25.0
 40
25.0
 40
26.0
 40
26.0
 40
26.0
 40
27.0
 40
27.0
 40
27.0
 40
28.0
 40
28.0
 40
28.0
 40
29.0
 40
29.0
 40
29.0
 40
30.0
 40
30.0
 40
30.0
 40
31.0
 40
31.0
 40
31.0
 40
32.0
 40
32.0
 40
32.0
 40
33.0
 40
33.0
 40
33.0
 40
34.0
 40
34.0
 40
34.0
 40
35.0
 40
35.0
 40
35.0
 40
36.0
 40
36.0
 40
36.0
 40
37.0
 40
37.0
 40
37.0
 40
38.0
 40
38.0
 40
38.0
 40
39.0
 40
39.0
 40
39.0
 40
39.0
 10
108.4357584364327
 20
-159.8362385668118
 30
0.0
 10
108.4481607801796
 20
-159.7938638923432
 30
0.0
 10
108.4588405761839
 20
-159.7473551032923
 30
0.0
 10
108.5094834798171
 20
-159.639523614604
 30
0.0
 10
108.5094834798171
 20
-159.639523614604
 30
0.0
 10
108.3827039659599
 20
-159.639523614604
 30
0.0
 10
108.3827039659599
 20
-159.639523614604
 30
0.0
 10
108.3889051378333
 20
-159.5444389792111
 30
0.0
 10
108.3933837619642
 20
-159.3921657587631
 30
0.0
 10
108.3933837619642
 20
-159.3308430591256
 30
0.0
 10
108.3933837619642
 20
-159.3308430591256
 30
0.0
 10
108.3933837619642
 20
-159.2715874167793
 30
0.0
 10
108.3933837619642
 20
-159.2715874167793
 30
0.0
 10
108.3933837619642
 20
-159.2715874167793
 30
0.0
 10
108.2431775988073
 20
-159.2715874167793
 30
0.0
 10
108.2431775988073
 20
-159.2715874167793
 30
0.0
 10
108.2431775988073
 20
-159.2715874167793
 30
0.0
 10
108.2431775988073
 20
-159.3876871346322
 30
0.0
 10
108.2431775988073
 20
-159.3876871346322
 30
0.0
 10
108.2431775988073
 20
-159.5210123299114
 30
0.0
 10
108.2431775988073
 20
-159.6756971171991
 30
0.0
 10
108.2538573948115
 20
-159.8045436883475
 30
0.0
 10
108.2538573948115
 20
-159.8045436883475
 30
0.0
 10
108.0822916396461
 20
-159.8045436883475
 30
0.0
 10
108.0822916396461
 20
-159.8045436883475
 30
0.0
 10
108.0843586969372
 20
-159.6925780850769
 30
0.0
 10
108.0950384929415
 20
-159.4851833368648
 30
0.0
 10
108.0950384929415
 20
-159.3876871346322
 30
0.0
 10
108.0950384929415
 20
-159.3876871346322
 30
0.0
 10
108.0950384929415
 20
-159.2715874167793
 30
0.0
 10
108.0950384929415
 20
-159.2715874167793
 30
0.0
 10
108.0950384929415
 20
-159.2715874167793
 30
0.0
 10
107.805305962632
 20
-159.2715874167793
 30
0.0
 10
107.805305962632
 20
-159.2715874167793
 30
0.0
 10
107.7860134279146
 20
-159.2715874167793
 30
0.0
 10
107.6971299643952
 20
-159.2757215313616
 30
0.0
 10
107.6781819392263
 20
-159.2757215313616
 30
0.0
 10
107.4921467830228
 20
-159.2757215313616
 30
0.0
 10
107.4921467830228
 20
-159.2164658890153
 30
0.0
 10
107.4897352161831
 20
-158.956361179879
 30
0.0
 10
107.4897352161831
 20
-158.956361179879
 30
0.0
 10
107.7057427031083
 20
-158.8757459455241
 30
0.0
 10
107.7057427031083
 20
-158.8757459455241
 30
0.0
 10
107.6867946779394
 20
-158.9415472692924
 30
0.0
 10
107.6761148819351
 20
-159.0345648473941
 30
0.0
 10
107.6761148819351
 20
-159.0386989619765
 30
0.0
 10
107.6761148819351
 20
-159.0852077510273
 30
0.0
 10
107.7036756458171
 20
-159.0852077510273
 30
0.0
 10
107.79876028121
 20
-159.0852077510273
 30
0.0
 10
107.79876028121
 20
-159.0852077510273
 30
0.0
 10
108.0950384929415
 20
-159.0852077510273
 30
0.0
 10
108.0950384929415
 20
-159.0852077510273
 30
0.0
 10
108.0950384929415
 20
-159.0852077510273
 30
0.0
 10
108.0950384929415
 20
-158.9646294090436
 30
0.0
 10
108.0950384929415
 20
-158.9646294090436
 30
0.0
 10
108.0950384929415
 20
-158.8271700991821
 30
0.0
 10
108.0884928115195
 20
-158.6897107893206
 30
0.0
 10
108.0822916396461
 20
-158.5522514794592
 30
0.0
 10
108.0822916396461
 20
-158.5522514794592
 30
0.0
 10
108.2538573948115
 20
-158.5522514794592
 30
0.0
 10
108.2538573948115
 20
-158.5522514794592
 30
0.0
 10
108.2431775988073
 20
-158.6790309933164
 30
0.0
 10
108.2431775988073
 20
-158.8313042137644
 30
0.0
 10
108.2431775988073
 20
-158.9646294090436
 30
0.0
 10
108.2431775988073
 20
-158.9646294090436
 30
0.0
 10
108.2431775988073
 20
-159.0852077510273
 30
0.0
 10
108.2431775988073
 20
-159.0852077510273
 30
0.0
 10
108.2431775988073
 20
-159.0852077510273
 30
0.0
 10
108.3933837619642
 20
-159.0852077510273
 30
0.0
 10
108.3933837619642
 20
-159.0852077510273
 30
0.0
 10
108.3933837619642
 20
-159.0852077510273
 30
0.0
 10
108.3933837619642
 20
-159.0197509368076
 30
0.0
 10
108.3933837619642
 20
-159.0197509368076
 30
0.0
 10
108.3933837619642
 20
-158.9646294090436
 30
0.0
 10
108.3889051378333
 20
-158.8164903031778
 30
0.0
 10
108.3827039659599
 20
-158.7107258717807
 30
0.0
 10
108.3827039659599
 20
-158.7107258717807
 30
0.0
 10
108.4884683973571
 20
-158.7107258717807
 30
0.0
 10
108.4884683973571
 20
-158.7107258717807
 30
0.0
 10
108.4567735188928
 20
-158.6580159108563
 30
0.0
 10
108.4378254937239
 20
-158.6177082936789
 30
0.0
 10
108.4185329590065
 20
-158.5711995046281
 30
0.0
 10
108.4185329590065
 20
-158.5711995046281
 30
0.0
 10
108.5708061794545
 20
-158.4423529334797
 30
0.0
 10
108.5708061794545
 20
-158.4423529334797
 30
0.0
 10
108.5708061794545
 20
-158.4423529334797
 30
0.0
 10
108.4481607801796
 20
-158.2580403250188
 30
0.0
 10
108.4481607801796
 20
-158.2580403250188
 30
0.0
 10
108.6493543565182
 20
-158.2160101600988
 30
0.0
 10
108.7847466090885
 20
-158.1250596392882
 30
0.0
 10
108.9008463269415
 20
-158.0168836410514
 30
0.0
 10
108.9008463269415
 20
-158.0168836410514
 30
0.0
 10
109.0110893824695
 20
-158.1608886323348
 30
0.0
 10
109.0110893824695
 20
-158.1608886323348
 30
0.0
 10
108.8798312444814
 20
-158.3110947954917
 30
0.0
 10
108.6683023816871
 20
-158.4061794308846
 30
0.0
 10
108.5900987141719
 20
-158.43994136664
 30
0.0
 10
108.6197265353451
 20
-158.5605197086238
 30
0.0
 10
108.6727810058179
 20
-158.6600829681475
 30
0.0
 10
108.7761338703754
 20
-158.7847954247135
 30
0.0
 10
108.9094590656546
 20
-158.9436143265835
 30
0.0
 10
109.0152234970517
 20
-159.0070040835122
 30
0.0
 10
109.1378688963267
 20
-159.0683267831496
 30
0.0
 10
109.1378688963267
 20
-159.0683267831496
 30
0.0
 10
109.0575981715203
 20
-159.3012152379525
 30
0.0
 10
109.0575981715203
 20
-159.3012152379525
 30
0.0
 10
109.0469183755161
 20
-159.3308430591256
 30
0.0
 10
109.0427842609338
 20
-159.3456569697122
 30
0.0
 10
109.019357611634
 20
-159.3456569697122
 30
0.0
 10
109.004888210596
 20
-159.3456569697122
 30
0.0
 10
108.9962754718829
 20
-159.3370442309991
 30
0.0
 10
108.9855956758786
 20
-159.3242973777037
 30
0.0
 10
108.7740668130843
 20
-159.4958631328691
 30
0.0
 10
108.687250406856
 20
-159.6143744175617
 30
0.0
 10
108.6025010579188
 20
-159.9674967047998
 30
0.0
 10
108.6025010579188
 20
-159.9674967047998
 30
0.0
 10
108.4357584364327
 20
-159.8362385668118
 30
0.0
 10
108.4357584364327
 20
-159.8362385668118
 30
0.0
  0
SPLINE
  5
103
330
C3
100
AcDbEntity
  8
_U+30EC_U+30A4_U+30E4_U+30FC 1
370
     0
100
AcDbSpline
210
0.0
220
0.0
230
1.0
 70
    11
 71
     3
 72
    17
 73
    13
 74
     0
 42
0.0000000001
 43
0.0000000001
 12
1.0
 22
0.0
 32
0.0
 13
1.0
 23
0.0
 33
0.0
 40
0.0
 40
0.0
 40
0.0
 40
0.0
 40
1.0
 40
1.0
 40
1.0
 40
2.0
 40
2.0
 40
2.0
 40
3.0
 40
3.0
 40
3.0
 40
4.0
 40
4.0
 40
4.0
 40
4.0
 10
107.6020453290023
 20
-159.6798312317814
 30
0.0
 10
107.7353705242814
 20
-159.5654540616711
 30
0.0
 10
107.805305962632
 20
-159.4724364835694
 30
0.0
 10
107.8624945476872
 20
-159.3752847908854
 30
0.0
 10
107.8624945476872
 20
-159.3752847908854
 30
0.0
 10
108.0147677681352
 20
-159.5061984193248
 30
0.0
 10
108.0147677681352
 20
-159.5061984193248
 30
0.0
 10
107.9152045086115
 20
-159.6712184930683
 30
0.0
 10
107.8221869305097
 20
-159.7645805807186
 30
0.0
 10
107.7522514921592
 20
-159.8279703376472
 30
0.0
 10
107.7522514921592
 20
-159.8279703376472
 30
0.0
 10
107.6020453290023
 20
-159.6798312317814
 30
0.0
 10
107.6020453290023
 20
-159.6798312317814
 30
0.0
  0
SPLINE
  5
104
330
C3
100
AcDbEntity
  8
_U+30EC_U+30A4_U+30E4_U+30FC 1
370
     0
100
AcDbSpline
210
0.0
220
0.0
230
1.0
 70
    11
 71
     3
 72
    26
 73
    22
 74
     0
 42
0.0000000001
 43
0.0000000001
 12
1.0
 22
0.0
 32
0.0
 13
1.0
 23
0.0
 33
0.0
 40
0.0
 40
0.0
 40
0.0
 40
0.0
 40
1.0
 40
1.0
 40
1.0
 40
2.0
 40
2.0
 40
2.0
 40
3.0
 40
3.0
 40
3.0
 40
4.0
 40
4.0
 40
4.0
 40
5.0
 40
5.0
 40
5.0
 40
6.0
 40
6.0
 40
6.0
 40
7.0
 40
7.0
 40
7.0
 40
7.0
 10
107.8559488662652
 20
-158.977376262339
 30
0.0
 10
107.8559488662652
 20
-158.9691080331744
 30
0.0
 10
107.8580159235563
 20
-158.9394802120013
 30
0.0
 10
107.8580159235563
 20
-158.9329345305793
 30
0.0
 10
107.8011718480497
 20
-158.8905598561107
 30
0.0
 10
107.7184895564037
 20
-158.8271700991821
 30
0.0
 10
107.6168592395888
 20
-158.7024576426161
 30
0.0
 10
107.6168592395888
 20
-158.7024576426161
 30
0.0
 10
107.7374375815726
 20
-158.5415716834549
 30
0.0
 10
107.7374375815726
 20
-158.5415716834549
 30
0.0
 10
107.7605197213238
 20
-158.5925590966366
 30
0.0
 10
107.8728298341429
 20
-158.7403536929538
 30
0.0
 10
108.0292371691733
 20
-158.8189018700175
 30
0.0
 10
108.0292371691733
 20
-158.8189018700175
 30
0.0
 10
107.9258843046157
 20
-158.977376262339
 30
0.0
 10
107.9258843046157
 20
-158.977376262339
 30
0.0
 10
107.9086588271895
 20
-159.0028699689298
 30
0.0
 10
107.8983235407338
 20
-159.0090711408033
 30
0.0
 10
107.8876437447295
 20
-159.0090711408033
 30
0.0
 10
107.8748968914341
 20
-159.0090711408033
 30
0.0
 10
107.8559488662652
 20
-158.9987358543476
 30
0.0
 10
107.8559488662652
 20
-158.977376262339
 30
0.0
  0
SPLINE
  5
105
330
C3
100
AcDbEntity
  8
_U+30EC_U+30A4_U+30E4_U+30FC 1
370
     0
100
AcDbSpline
210
0.0
220
0.0
230
1.0
 70
    11
 71
     3
 72
    20
 73
    16
 74
     0
 42
0.0000000001
 43
0.0000000001
 12
1.0
 22
0.0
 32
0.0
 13
1.0
 23
0.0
 33
0.0
 40
0.0
 40
0.0
 40
0.0
 40
0.0
 40
1.0
 40
1.0
 40
1.0
 40
2.0
 40
2.0
 40
2.0
 40
3.0
 40
3.0
 40
3.0
 40
4.0
 40
4.0
 40
4.0
 40
5.0
 40
5.0
 40
5.0
 40
5.0
 10
108.9053249510723
 20
-159.1613443612513
 30
0.0
 10
108.7320366481642
 20
-159.0345648473941
 30
0.0
 10
108.6135253634716
 20
-158.8950384802415
 30
0.0
 10
108.5542697211253
 20
-158.8123561885955
 30
0.0
 10
108.5497910969945
 20
-158.928800415997
 30
0.0
 10
108.5477240397034
 20
-158.9646294090436
 30
0.0
 10
108.5477240397034
 20
-159.0197509368076
 30
0.0
 10
108.5477240397034
 20
-159.0197509368076
 30
0.0
 10
108.5477240397034
 20
-159.3308430591256
 30
0.0
 10
108.5477240397034
 20
-159.3308430591256
 30
0.0
 10
108.5477240397034
 20
-159.3773518481765
 30
0.0
 10
108.5497910969945
 20
-159.3983669306365
 30
0.0
 10
108.5542697211253
 20
-159.5506401510846
 30
0.0
 10
108.6555555283917
 20
-159.3666720521722
 30
0.0
 10
108.790947780962
 20
-159.2460937101885
 30
0.0
 10
108.9053249510723
 20
-159.1613443612513
 30
0.0
  0
HATCH
  5
106
330
C3
100
AcDbEntity
  8
_U+30EC_U+30A4_U+30E4_U+30FC 1
 62
   179
420
  2234388
100
AcDbHatch
 10
0.0
 20
0.0
 30
0.0
210
0.0
220
0.0
230
1.0
  2
SOLID
 70
     1
 71
     0
 91
        5
 92
        1
 93
        1
 72
     4
 94
        3
 73
     0
 74
     1
 95
       71
 96
       67
 40
0.0
 40
0.0
 40
0.0
 40
0.0
 40
1.0
 40
1.0
 40
1.0
 40
2.0
 40
2.0
 40
2.0
 40
3.0
 40
3.0
 40
3.0
 40
4.0
 40
4.0
 40
4.0
 40
5.0
 40
5.0
 40
5.0
 40
6.0
 40
6.0
 40
6.0
 40
7.0
 40
7.0
 40
7.0
 40
8.0
 40
8.0
 40
8.0
 40
9.0
 40
9.0
 40
9.0
 40
10.0
 40
10.0
 40
10.0
 40
11.0
 40
11.0
 40
11.0
 40
12.0
 40
12.0
 40
12.0
 40
13.0
 40
13.0
 40
13.0
 40
14.0
 40
14.0
 40
14.0
 40
15.0
 40
15.0
 40
15.0
 40
16.0
 40
16.0
 40
16.0
 40
17.0
 40
17.0
 40
17.0
 40
18.0
 40
18.0
 40
18.0
 40
19.0
 40
19.0
 40
19.0
 40
20.0
 40
20.0
 40
20.0
 40
21.0
 40
21.0
 40
21.0
 40
22.0
 40
22.0
 40
22.0
 40
22.0
 10
107.2720051815153
 20
-159.9103081197447
 10
107.267871066933
 20
-159.8510524773984
 10
107.2637369523507
 20
-159.7666476380097
 10
107.2637369523507
 20
-159.5571858325065
 10
107.2637369523507
 20
-159.466235311696
 10
107.267871066933
 20
-159.0621256112761
 10
107.267871066933
 20
-158.9794433196301
 10
107.267871066933
 20
-158.7362195783715
 10
107.267871066933
 20
-158.6790309933164
 10
107.3057671172708
 20
-158.5818793006323
 10
107.350553358579
 20
-158.4633680159397
 10
107.4180772300899
 20
-158.4147921695977
 10
107.4690646432716
 20
-158.3786186670026
 10
107.4435709366808
 20
-158.3489908458294
 10
107.3353949384439
 20
-158.2135985932591
 10
107.3143798559839
 20
-158.1863823389256
 10
107.2616698950596
 20
-158.1819037147948
 10
107.2341091311776
 20
-158.1777696002125
 10
107.2341091311776
 20
-158.1502088363305
 10
107.2341091311776
 20
-158.1312608111616
 10
107.2571912709288
 20
-158.1185139578662
 10
107.2699381242242
 20
-158.1123127859928
 10
107.2699381242242
 20
-158.1123127859928
 10
107.4711317005628
 20
-158.0254963797645
 10
107.4711317005628
 20
-158.0254963797645
 10
107.487668158892
 20
-158.0909531939842
 10
107.5576035972425
 20
-158.2328911279765
 10
107.6020453290023
 20
-158.294213827614
 10
107.6020453290023
 20
-158.294213827614
 10
108.0633436144772
 20
-158.294213827614
 10
108.0633436144772
 20
-158.294213827614
 10
108.0633436144772
 20
-158.294213827614
 10
108.0633436144772
 20
-158.1798366575037
 10
108.0633436144772
 20
-158.1798366575037
 10
108.0633436144772
 20
-158.1777696002125
 10
108.0547308757641
 20
-158.0658039969419
 10
108.0547308757641
 20
-158.0571912582288
 10
108.0547308757641
 20
-158.0571912582288
 10
108.2452446560984
 20
-158.0571912582288
 10
108.2452446560984
 20
-158.0571912582288
 10
108.2431775988073
 20
-158.1271266965793
 10
108.2407660319676
 20
-158.1353949257439
 10
108.2407660319676
 20
-158.1946505680902
 10
108.2407660319676
 20
-158.1946505680902
 10
108.2407660319676
 20
-158.3131618527828
 10
108.2407660319676
 20
-158.3131618527828
 10
108.2407660319676
 20
-158.3407226166648
 10
108.2452446560984
 20
-158.4316731374754
 10
108.2493787706807
 20
-158.4929958371129
 10
108.1753092177478
 20
-158.4843830983997
 10
108.1139865181104
 20
-158.4823160411086
 10
108.1036512316547
 20
-158.4823160411086
 10
108.1036512316547
 20
-158.4823160411086
 10
107.6971299643952
 20
-158.4823160411086
 10
107.6971299643952
 20
-158.4823160411086
 10
107.6061794435846
 20
-158.4823160411086
 10
107.5365885147825
 20
-158.5457057980372
 10
107.5193630373563
 20
-158.5649983327546
 10
107.4284125165457
 20
-158.6748968787341
 10
107.4160101727988
 20
-158.6959119611941
 10
107.4160101727988
 20
-159.0555799298542
 10
107.4160101727988
 20
-159.1423963360825
 10
107.4263454592545
 20
-159.7115261102457
 10
107.4645860191408
 20
-159.9781765008041
 10
107.4645860191408
 20
-159.9781765008041
 10
107.2720051815153
 20
-159.9103081197447
 10
107.2720051815153
 20
-159.9103081197447
 97
        0
 97
        0
 92
        1
 93
        1
 72
     4
 94
        3
 73
     0
 74
     1
 95
      122
 96
      118
 40
0.0
 40
0.0
 40
0.0
 40
0.0
 40
1.0
 40
1.0
 40
1.0
 40
2.0
 40
2.0
 40
2.0
 40
3.0
 40
3.0
 40
3.0
 40
4.0
 40
4.0
 40
4.0
 40
5.0
 40
5.0
 40
5.0
 40
6.0
 40
6.0
 40
6.0
 40
7.0
 40
7.0
 40
7.0
 40
8.0
 40
8.0
 40
8.0
 40
9.0
 40
9.0
 40
9.0
 40
10.0
 40
10.0
 40
10.0
 40
11.0
 40
11.0
 40
11.0
 40
12.0
 40
12.0
 40
12.0
 40
13.0
 40
13.0
 40
13.0
 40
14.0
 40
14.0
 40
14.0
 40
15.0
 40
15.0
 40
15.0
 40
16.0
 40
16.0
 40
16.0
 40
17.0
 40
17.0
 40
17.0
 40
18.0
 40
18.0
 40
18.0
 40
19.0
 40
19.0
 40
19.0
 40
20.0
 40
20.0
 40
20.0
 40
21.0
 40
21.0
 40
21.0
 40
22.0
 40
22.0
 40
22.0
 40
23.0
 40
23.0
 40
23.0
 40
24.0
 40
24.0
 40
24.0
 40
25.0
 40
25.0
 40
25.0
 40
26.0
 40
26.0
 40
26.0
 40
27.0
 40
27.0
 40
27.0
 40
28.0
 40
28.0
 40
28.0
 40
29.0
 40
29.0
 40
29.0
 40
30.0
 40
30.0
 40
30.0
 40
31.0
 40
31.0
 40
31.0
 40
32.0
 40
32.0
 40
32.0
 40
33.0
 40
33.0
 40
33.0
 40
34.0
 40
34.0
 40
34.0
 40
35.0
 40
35.0
 40
35.0
 40
36.0
 40
36.0
 40
36.0
 40
37.0
 40
37.0
 40
37.0
 40
38.0
 40
38.0
 40
38.0
 40
39.0
 40
39.0
 40
39.0
 40
39.0
 10
108.4357584364327
 20
-159.8362385668118
 10
108.4481607801796
 20
-159.7938638923432
 10
108.4588405761839
 20
-159.7473551032923
 10
108.5094834798171
 20
-159.639523614604
 10
108.5094834798171
 20
-159.639523614604
 10
108.3827039659599
 20
-159.639523614604
 10
108.3827039659599
 20
-159.639523614604
 10
108.3889051378333
 20
-159.5444389792111
 10
108.3933837619642
 20
-159.3921657587631
 10
108.3933837619642
 20
-159.3308430591256
 10
108.3933837619642
 20
-159.3308430591256
 10
108.3933837619642
 20
-159.2715874167793
 10
108.3933837619642
 20
-159.2715874167793
 10
108.3933837619642
 20
-159.2715874167793
 10
108.2431775988073
 20
-159.2715874167793
 10
108.2431775988073
 20
-159.2715874167793
 10
108.2431775988073
 20
-159.2715874167793
 10
108.2431775988073
 20
-159.3876871346322
 10
108.2431775988073
 20
-159.3876871346322
 10
108.2431775988073
 20
-159.5210123299114
 10
108.2431775988073
 20
-159.6756971171991
 10
108.2538573948115
 20
-159.8045436883475
 10
108.2538573948115
 20
-159.8045436883475
 10
108.0822916396461
 20
-159.8045436883475
 10
108.0822916396461
 20
-159.8045436883475
 10
108.0843586969372
 20
-159.6925780850769
 10
108.0950384929415
 20
-159.4851833368648
 10
108.0950384929415
 20
-159.3876871346322
 10
108.0950384929415
 20
-159.3876871346322
 10
108.0950384929415
 20
-159.2715874167793
 10
108.0950384929415
 20
-159.2715874167793
 10
108.0950384929415
 20
-159.2715874167793
 10
107.805305962632
 20
-159.2715874167793
 10
107.805305962632
 20
-159.2715874167793
 10
107.7860134279146
 20
-159.2715874167793
 10
107.6971299643952
 20
-159.2757215313616
 10
107.6781819392263
 20
-159.2757215313616
 10
107.4921467830228
 20
-159.2757215313616
 10
107.4921467830228
 20
-159.2164658890153
 10
107.4897352161831
 20
-158.956361179879
 10
107.4897352161831
 20
-158.956361179879
 10
107.7057427031083
 20
-158.8757459455241
 10
107.7057427031083
 20
-158.8757459455241
 10
107.6867946779394
 20
-158.9415472692924
 10
107.6761148819351
 20
-159.0345648473941
 10
107.6761148819351
 20
-159.0386989619765
 10
107.6761148819351
 20
-159.0852077510273
 10
107.7036756458171
 20
-159.0852077510273
 10
107.79876028121
 20
-159.0852077510273
 10
107.79876028121
 20
-159.0852077510273
 10
108.0950384929415
 20
-159.0852077510273
 10
108.0950384929415
 20
-159.0852077510273
 10
108.0950384929415
 20
-159.0852077510273
 10
108.0950384929415
 20
-158.9646294090436
 10
108.0950384929415
 20
-158.9646294090436
 10
108.0950384929415
 20
-158.8271700991821
 10
108.0884928115195
 20
-158.6897107893206
 10
108.0822916396461
 20
-158.5522514794592
 10
108.0822916396461
 20
-158.5522514794592
 10
108.2538573948115
 20
-158.5522514794592
 10
108.2538573948115
 20
-158.5522514794592
 10
108.2431775988073
 20
-158.6790309933164
 10
108.2431775988073
 20
-158.8313042137644
 10
108.2431775988073
 20
-158.9646294090436
 10
108.2431775988073
 20
-158.9646294090436
 10
108.2431775988073
 20
-159.0852077510273
 10
108.2431775988073
 20
-159.0852077510273
 10
108.2431775988073
 20
-159.0852077510273
 10
108.3933837619642
 20
-159.0852077510273
 10
108.3933837619642
 20
-159.0852077510273
 10
108.3933837619642
 20
-159.0852077510273
 10
108.3933837619642
 20
-159.0197509368076
 10
108.3933837619642
 20
-159.0197509368076
 10
108.3933837619642
 20
-158.9646294090436
 10
108.3889051378333
 20
-158.8164903031778
 10
108.3827039659599
 20
-158.7107258717807
 10
108.3827039659599
 20
-158.7107258717807
 10
108.4884683973571
 20
-158.7107258717807
 10
108.4884683973571
 20
-158.7107258717807
 10
108.4567735188928
 20
-158.6580159108563
 10
108.4378254937239
 20
-158.6177082936789
 10
108.4185329590065
 20
-158.5711995046281
 10
108.4185329590065
 20
-158.5711995046281
 10
108.5708061794545
 20
-158.4423529334797
 10
108.5708061794545
 20
-158.4423529334797
 10
108.5708061794545
 20
-158.4423529334797
 10
108.4481607801796
 20
-158.2580403250188
 10
108.4481607801796
 20
-158.2580403250188
 10
108.6493543565182
 20
-158.2160101600988
 10
108.7847466090885
 20
-158.1250596392882
 10
108.9008463269415
 20
-158.0168836410514
 10
108.9008463269415
 20
-158.0168836410514
 10
109.0110893824695
 20
-158.1608886323348
 10
109.0110893824695
 20
-158.1608886323348
 10
108.8798312444814
 20
-158.3110947954917
 10
108.6683023816871
 20
-158.4061794308846
 10
108.5900987141719
 20
-158.43994136664
 10
108.6197265353451
 20
-158.5605197086238
 10
108.6727810058179
 20
-158.6600829681475
 10
108.7761338703754
 20
-158.7847954247135
 10
108.9094590656546
 20
-158.9436143265835
 10
109.0152234970517
 20
-159.0070040835122
 10
109.1378688963267
 20
-159.0683267831496
 10
109.1378688963267
 20
-159.0683267831496
 10
109.0575981715203
 20
-159.3012152379525
 10
109.0575981715203
 20
-159.3012152379525
 10
109.0469183755161
 20
-159.3308430591256
 10
109.0427842609338
 20
-159.3456569697122
 10
109.019357611634
 20
-159.3456569697122
 10
109.004888210596
 20
-159.3456569697122
 10
108.9962754718829
 20
-159.3370442309991
 10
108.9855956758786
 20
-159.3242973777037
 10
108.7740668130843
 20
-159.4958631328691
 10
108.687250406856
 20
-159.6143744175617
 10
108.6025010579188
 20
-159.9674967047998
 10
108.6025010579188
 20
-159.9674967047998
 10
108.4357584364327
 20
-159.8362385668118
 10
108.4357584364327
 20
-159.8362385668118
 97
        0
 97
        0
 92
        1
 93
        1
 72
     4
 94
        3
 73
     0
 74
     1
 95
       17
 96
       13
 40
0.0
 40
0.0
 40
0.0
 40
0.0
 40
1.0
 40
1.0
 40
1.0
 40
2.0
 40
2.0
 40
2.0
 40
3.0
 40
3.0
 40
3.0
 40
4.0
 40
4.0
 40
4.0
 40
4.0
 10
107.6020453290023
 20
-159.6798312317814
 10
107.7353705242814
 20
-159.5654540616711
 10
107.805305962632
 20
-159.4724364835694
 10
107.8624945476872
 20
-159.3752847908854
 10
107.8624945476872
 20
-159.3752847908854
 10
108.0147677681352
 20
-159.5061984193248
 10
108.0147677681352
 20
-159.5061984193248
 10
107.9152045086115
 20
-159.6712184930683
 10
107.8221869305097
 20
-159.7645805807186
 10
107.7522514921592
 20
-159.8279703376472
 10
107.7522514921592
 20
-159.8279703376472
 10
107.6020453290023
 20
-159.6798312317814
 10
107.6020453290023
 20
-159.6798312317814
 97
        0
 97
        0
 92
        1
 93
        1
 72
     4
 94
        3
 73
     0
 74
     1
 95
       26
 96
       22
 40
0.0
 40
0.0
 40
0.0
 40
0.0
 40
1.0
 40
1.0
 40
1.0
 40
2.0
 40
2.0
 40
2.0
 40
3.0
 40
3.0
 40
3.0
 40
4.0
 40
4.0
 40
4.0
 40
5.0
 40
5.0
 40
5.0
 40
6.0
 40
6.0
 40
6.0
 40
7.0
 40
7.0
 40
7.0
 40
7.0
 10
107.8559488662652
 20
-158.977376262339
 10
107.8559488662652
 20
-158.9691080331744
 10
107.8580159235563
 20
-158.9394802120013
 10
107.8580159235563
 20
-158.9329345305793
 10
107.8011718480497
 20
-158.8905598561107
 10
107.7184895564037
 20
-158.8271700991821
 10
107.6168592395888
 20
-158.7024576426161
 10
107.6168592395888
 20
-158.7024576426161
 10
107.7374375815726
 20
-158.5415716834549
 10
107.7374375815726
 20
-158.5415716834549
 10
107.7605197213238
 20
-158.5925590966366
 10
107.8728298341429
 20
-158.7403536929538
 10
108.0292371691733
 20
-158.8189018700175
 10
108.0292371691733
 20
-158.8189018700175
 10
107.9258843046157
 20
-158.977376262339
 10
107.9258843046157
 20
-158.977376262339
 10
107.9086588271895
 20
-159.0028699689298
 10
107.8983235407338
 20
-159.0090711408033
 10
107.8876437447295
 20
-159.0090711408033
 10
107.8748968914341
 20
-159.0090711408033
 10
107.8559488662652
 20
-158.9987358543476
 10
107.8559488662652
 20
-158.977376262339
 97
        0
 97
        0
 92
        1
 93
        1
 72
     4
 94
        3
 73
     0
 74
     1
 95
       20
 96
       16
 40
0.0
 40
0.0
 40
0.0
 40
0.0
 40
1.0
 40
1.0
 40
1.0
 40
2.0
 40
2.0
 40
2.0
 40
3.0
 40
3.0
 40
3.0
 40
4.0
 40
4.0
 40
4.0
 40
5.0
 40
5.0
 40
5.0
 40
5.0
 10
108.9053249510723
 20
-159.1613443612513
 10
108.7320366481642
 20
-159.0345648473941
 10
108.6135253634716
 20
-158.8950384802415
 10
108.5542697211253
 20
-158.8123561885955
 10
108.5497910969945
 20
-158.928800415997
 10
108.5477240397034
 20
-158.9646294090436
 10
108.5477240397034
 20
-159.0197509368076
 10
108.5477240397034
 20
-159.0197509368076
 10
108.5477240397034
 20
-159.3308430591256
 10
108.5477240397034
 20
-159.3308430591256
 10
108.5477240397034
 20
-159.3773518481765
 10
108.5497910969945
 20
-159.3983669306365
 10
108.5542697211253
 20
-159.5506401510846
 10
108.6555555283917
 20
-159.3666720521722
 10
108.790947780962
 20
-159.2460937101885
 10
108.9053249510723
 20
-159.1613443612513
 97
        0
 97
        0
 75
     2
 76
     1
 98
        0
  0
ENDBLK
  5
C6
330
C3
100
AcDbEntity
  8
0
100
AcDbBlockEnd
  0
ENDSEC
  0
SECTION
  2
ENTITIES
  0
INSERT
  5
42
330
1F
100
AcDbEntity
  8
_U+30EC_U+30A4_U+30E4_U+30FC 1
100
AcDbBlockReference
  2
block 2
 10
0.0
 20
0.0
 30
0.0
  0
INSERT
  5
83
330
1F
100
AcDbEntity
  8
_U+30EC_U+30A4_U+30E4_U+30FC 1
100
AcDbBlockReference
  2
block 3
 10
0.0
 20
0.0
 30
0.0
  0
INSERT
  5
C4
330
1F
100
AcDbEntity
  8
_U+30EC_U+30A4_U+30E4_U+30FC 1
100
AcDbBlockReference
  2
block 4
 10
0.0
 20
0.0
 30
0.0
  0
SPLINE
  5
107
330
1F
100
AcDbEntity
  8
_U+30EC_U+30A4_U+30E4_U+30FC 1
 62
   179
420
  2234388
370
    15
100
AcDbSpline
210
0.0
220
0.0
230
1.0
 70
     8
 71
     3
 72
     8
 73
     4
 74
     0
 42
0.0000000001
 43
0.0000000001
 12
1.0
 22
0.0
 32
0.0
 13
1.0
 23
0.0
 33
0.0
 40
0.0
 40
0.0
 40
0.0
 40
0.0
 40
1.0
 40
1.0
 40
1.0
 40
1.0
 10
89.46204577434673
 20
-145.444739750423
 30
0.0
 10
90.54401030925962
 20
-145.6013839357676
 30
0.0
 10
91.33140841426025
 20
-147.0445990300791
 30
0.0
 10
91.24251418481741
 20
-148.5280356141809
 30
0.0
  0
SPLINE
  5
108
330
1F
100
AcDbEntity
  8
_U+30EC_U+30A4_U+30E4_U+30FC 1
 62
   179
420
  2234388
370
    15
100
AcDbSpline
210
0.0
220
0.0
230
1.0
 70
     8
 71
     3
 72
     8
 73
     4
 74
     0
 42
0.0000000001
 43
0.0000000001
 12
1.0
 22
0.0
 32
0.0
 13
1.0
 23
0.0
 33
0.0
 40
0.0
 40
0.0
 40
0.0
 40
0.0
 40
1.0
 40
1.0
 40
1.0
 40
1.0
 10
102.6005848945976
 20
-138.9550411300836
 30
0.0
 10
103.3354129956777
 20
-139.4048414093762
 30
0.0
 10
103.6158760659472
 20
-140.713999225618
 30
0.0
 10
103.1734935078709
 20
-142.6348768089593
 30
0.0
  0
POLYLINE
  5
109
330
1F
100
AcDbEntity
  8
_U+30EC_U+30A4_U+30E4_U+30FC 1
 62
   179
420
  2234388
370
    15
100
AcDb2dPolyline
 66
     1
 10
0.0
 20
0.0
 30
0.0
  0
VERTEX
  5
10A
330
109
100
AcDbEntity
  8
_U+30EC_U+30A4_U+30E4_U+30FC 1
 62
   179
420
  2234388
370
    15
100
AcDbVertex
100
AcDb2dVertex
 10
102.2950049250559
 20
-138.425766804315
 30
0.0
  0
VERTEX
  5
10B
330
109
100
AcDbEntity
  8
_U+30EC_U+30A4_U+30E4_U+30FC 1
 62
   179
420
  2234388
370
    15
100
AcDbVertex
100
AcDb2dVertex
 10
89.15685337804716
 20
-144.91583146605
 30
0.0
  0
VERTEX
  5
10C
330
109
100
AcDbEntity
  8
_U+30EC_U+30A4_U+30E4_U+30FC 1
 62
   179
420
  2234388
370
    15
100
AcDbVertex
100
AcDb2dVertex
 10
89.46200271065317
 20
-145.4446536230359
 30
0.0
  0
SEQEND
  5
10D
330
109
100
AcDbEntity
  8
_U+30EC_U+30A4_U+30E4_U+30FC 1
 62
   179
420
  2234388
370
    15
  0
POLYLINE
  5
10E
330
1F
100
AcDbEntity
  8
_U+30EC_U+30A4_U+30E4_U+30FC 1
 62
   179
420
  2234388
370
    15
100
AcDb2dPolyline
 66
     1
 10
0.0
 20
0.0
 30
0.0
  0
VERTEX
  5
10F
330
10E
100
AcDbEntity
  8
_U+30EC_U+30A4_U+30E4_U+30FC 1
 62
   179
420
  2234388
370
    15
100
AcDbVertex
100
AcDb2dVertex
 10
89.46204577434673
 20
-145.444739750423
 30
0.0
  0
VERTEX
  5
110
330
10E
100
AcDbEntity
  8
_U+30EC_U+30A4_U+30E4_U+30FC 1
 62
   179
420
  2234388
370
    15
100
AcDbVertex
100
AcDb2dVertex
 10
102.6005418309037
 20
-138.9550411300836
 30
0.0
  0
SEQEND
  5
111
330
10E
100
AcDbEntity
  8
_U+30EC_U+30A4_U+30E4_U+30FC 1
 62
   179
420
  2234388
370
    15
  0
POLYLINE
  5
112
330
1F
100
AcDbEntity
  8
_U+30EC_U+30A4_U+30E4_U+30FC 1
 62
   179
420
  2234388
370
    15
100
AcDb2dPolyline
 66
     1
 10
0.0
 20
0.0
 30
0.0
  0
VERTEX
  5
113
330
112
100
AcDbEntity
  8
_U+30EC_U+30A4_U+30E4_U+30FC 1
 62
   179
420
  2234388
370
    15
100
AcDbVertex
100
AcDb2dVertex
 10
103.1734935078709
 20
-143.3148094666673
 30
0.0
  0
VERTEX
  5
114
330
112
100
AcDbEntity
  8
_U+30EC_U+30A4_U+30E4_U+30FC 1
 62
   179
420
  2234388
370
    15
100
AcDbVertex
100
AcDb2dVertex
 10
91.54769581519359
 20
-149.057331471796
 30
0.0
  0
VERTEX
  5
115
330
112
100
AcDbEntity
  8
_U+30EC_U+30A4_U+30E4_U+30FC 1
 62
   179
420
  2234388
370
    15
100
AcDbVertex
100
AcDb2dVertex
 10
91.24254648258758
 20
-148.5281648052616
 30
0.0
  0
SEQEND
  5
116
330
112
100
AcDbEntity
  8
_U+30EC_U+30A4_U+30E4_U+30FC 1
 62
   179
420
  2234388
370
    15
  0
POLYLINE
  5
117
330
1F
100
AcDbEntity
  8
_U+30EC_U+30A4_U+30E4_U+30FC 1
 62
   179
420
  2234388
370
    15
100
AcDb2dPolyline
 66
     1
 10
0.0
 20
0.0
 30
0.0
  0
VERTEX
  5
118
330
117
100
AcDbEntity
  8
_U+30EC_U+30A4_U+30E4_U+30FC 1
 62
   179
420
  2234388
370
    15
100
AcDbVertex
100
AcDb2dVertex
 10
91.24244958927738
 20
-148.5281217415681
 30
0.0
  0
VERTEX
  5
119
330
117
100
AcDbEntity
  8
_U+30EC_U+30A4_U+30E4_U+30FC 1
 62
   179
420
  2234388
370
    15
100
AcDbVertex
100
AcDb2dVertex
 10
103.173385848637
 20
-142.6349844681933
 30
0.0
  0
SEQEND
  5
11A
330
117
100
AcDbEntity
  8
_U+30EC_U+30A4_U+30E4_U+30FC 1
 62
   179
420
  2234388
370
    15
  0
POLYLINE
  5
11B
330
1F
100
AcDbEntity
  8
_U+30EC_U+30A4_U+30E4_U+30FC 1
 62
   179
420
  2234388
370
    15
100
AcDb2dPolyline
 66
     1
 10
0.0
 20
0.0
 30
0.0
  0
VERTEX
  5
11C
330
11B
100
AcDbEntity
  8
_U+30EC_U+30A4_U+30E4_U+30FC 1
 62
   179
420
  2234388
370
    15
100
AcDbVertex
100
AcDb2dVertex
 10
90.03943301175121
 20
-145.6692092531335
 30
0.0
  0
VERTEX
  5
11D
330
11B
100
AcDbEntity
  8
_U+30EC_U+30A4_U+30E4_U+30FC 1
 62
   179
420
  2234388
370
    15
100
AcDbVertex
100
AcDb2dVertex
 10
88.92782988974179
 20
-146.2188527059586
 30
0.0
  0
VERTEX
  5
11E
330
11B
100
AcDbEntity
  8
_U+30EC_U+30A4_U+30E4_U+30FC 1
 62
   179
420
  2234388
370
    15
100
AcDbVertex
100
AcDb2dVertex
 10
89.15677801658342
 20
-144.9156807431222
 30
0.0
  0
SEQEND
  5
11F
330
11B
100
AcDbEntity
  8
_U+30EC_U+30A4_U+30E4_U+30FC 1
 62
   179
420
  2234388
370
    15
  0
POLYLINE
  5
120
330
1F
100
AcDbEntity
  8
_U+30EC_U+30A4_U+30E4_U+30FC 1
 62
   179
420
  2234388
370
    15
100
AcDb2dPolyline
 66
     1
 10
0.0
 20
0.0
 30
0.0
  0
VERTEX
  5
121
330
120
100
AcDbEntity
  8
_U+30EC_U+30A4_U+30E4_U+30FC 1
 62
   179
420
  2234388
370
    15
100
AcDbVertex
100
AcDb2dVertex
 10
91.54770658111698
 20
-149.0572884081024
 30
0.0
  0
VERTEX
  5
122
330
120
100
AcDbEntity
  8
_U+30EC_U+30A4_U+30E4_U+30FC 1
 62
   179
420
  2234388
370
    15
100
AcDbVertex
100
AcDb2dVertex
 10
90.24947617711754
 20
-148.5087215476171
 30
0.0
  0
VERTEX
  5
123
330
120
100
AcDbEntity
  8
_U+30EC_U+30A4_U+30E4_U+30FC 1
 62
   179
420
  2234388
370
    15
100
AcDbVertex
100
AcDb2dVertex
 10
91.22808784747293
 20
-148.0282383866583
 30
0.0
  0
SEQEND
  5
124
330
120
100
AcDbEntity
  8
_U+30EC_U+30A4_U+30E4_U+30FC 1
 62
   179
420
  2234388
370
    15
  0
SPLINE
  5
125
330
1F
100
AcDbEntity
  8
_U+30EC_U+30A4_U+30E4_U+30FC 1
 62
   179
420
  2234388
370
    15
100
AcDbSpline
210
0.0
220
0.0
230
1.0
 70
     8
 71
     3
 72
     8
 73
     4
 74
     0
 42
0.0000000001
 43
0.0000000001
 12
1.0
 22
0.0
 32
0.0
 13
1.0
 23
0.0
 33
0.0
 40
0.0
 40
0.0
 40
0.0
 40
0.0
 40
1.0
 40
1.0
 40
1.0
 40
1.0
 10
120.1774512944185
 20
-145.4453211102858
 30
0.0
 10
119.0954759935823
 20
-145.6019652956308
 30
0.0
 10
118.3080778885816
 20
-147.0451803899423
 30
0.0
 10
118.3969721180245
 20
-148.5286169740444
 30
0.0
  0
SPLINE
  5
126
330
1F
100
AcDbEntity
  8
_U+30EC_U+30A4_U+30E4_U+30FC 1
 62
   179
420
  2234388
370
    15
100
AcDbSpline
210
0.0
220
0.0
230
1.0
 70
     8
 71
     3
 72
     8
 73
     4
 74
     0
 42
0.0000000001
 43
0.0000000001
 12
1.0
 22
0.0
 32
0.0
 13
1.0
 23
0.0
 33
0.0
 40
0.0
 40
0.0
 40
0.0
 40
0.0
 40
1.0
 40
1.0
 40
1.0
 40
1.0
 10
107.038912174168
 20
-138.9556009580996
 30
0.0
 10
106.3040733071642
 20
-139.4054012373929
 30
0.0
 10
106.0236102368947
 20
-140.7145590536343
 30
0.0
 10
106.465992794971
 20
-142.635436636976
 30
0.0
  0
POLYLINE
  5
127
330
1F
100
AcDbEntity
  8
_U+30EC_U+30A4_U+30E4_U+30FC 1
 62
   179
420
  2234388
370
    15
100
AcDb2dPolyline
 66
     1
 10
0.0
 20
0.0
 30
0.0
  0
VERTEX
  5
128
330
127
100
AcDbEntity
  8
_U+30EC_U+30A4_U+30E4_U+30FC 1
 62
   179
420
  2234388
370
    15
100
AcDbVertex
100
AcDb2dVertex
 10
107.3444921437097
 20
-138.426262036791
 30
0.0
  0
VERTEX
  5
129
330
127
100
AcDbEntity
  8
_U+30EC_U+30A4_U+30E4_U+30FC 1
 62
   179
420
  2234388
370
    15
100
AcDbVertex
100
AcDb2dVertex
 10
120.4826329247947
 20
-144.9163266985257
 30
0.0
  0
VERTEX
  5
12A
330
127
100
AcDbEntity
  8
_U+30EC_U+30A4_U+30E4_U+30FC 1
 62
   179
420
  2234388
370
    15
100
AcDbVertex
100
AcDb2dVertex
 10
120.1774835921887
 20
-145.4451488555115
 30
0.0
  0
SEQEND
  5
12B
330
127
100
AcDbEntity
  8
_U+30EC_U+30A4_U+30E4_U+30FC 1
 62
   179
420
  2234388
370
    15
  0
POLYLINE
  5
12C
330
1F
100
AcDbEntity
  8
_U+30EC_U+30A4_U+30E4_U+30FC 1
 62
   179
420
  2234388
370
    15
100
AcDb2dPolyline
 66
     1
 10
0.0
 20
0.0
 30
0.0
  0
VERTEX
  5
12D
330
12C
100
AcDbEntity
  8
_U+30EC_U+30A4_U+30E4_U+30FC 1
 62
   179
420
  2234388
370
    15
100
AcDbVertex
100
AcDb2dVertex
 10
120.1774512944185
 20
-145.4453211102858
 30
0.0
  0
VERTEX
  5
12E
330
12C
100
AcDbEntity
  8
_U+30EC_U+30A4_U+30E4_U+30FC 1
 62
   179
420
  2234388
370
    15
100
AcDbVertex
100
AcDb2dVertex
 10
107.0389444719382
 20
-138.9556224899464
 30
0.0
  0
SEQEND
  5
12F
330
12C
100
AcDbEntity
  8
_U+30EC_U+30A4_U+30E4_U+30FC 1
 62
   179
420
  2234388
370
    15
  0
POLYLINE
  5
130
330
1F
100
AcDbEntity
  8
_U+30EC_U+30A4_U+30E4_U+30FC 1
 62
   179
420
  2234388
370
    15
100
AcDb2dPolyline
 66
     1
 10
0.0
 20
0.0
 30
0.0
  0
VERTEX
  5
131
330
130
100
AcDbEntity
  8
_U+30EC_U+30A4_U+30E4_U+30FC 1
 62
   179
420
  2234388
370
    15
100
AcDbVertex
100
AcDb2dVertex
 10
106.4660035608944
 20
-143.3153908265301
 30
0.0
  0
VERTEX
  5
132
330
130
100
AcDbEntity
  8
_U+30EC_U+30A4_U+30E4_U+30FC 1
 62
   179
420
  2234388
370
    15
100
AcDbVertex
100
AcDb2dVertex
 10
118.0917904876483
 20
-149.0579128316591
 30
0.0
  0
VERTEX
  5
133
330
130
100
AcDbEntity
  8
_U+30EC_U+30A4_U+30E4_U+30FC 1
 62
   179
420
  2234388
370
    15
100
AcDbVertex
100
AcDb2dVertex
 10
118.3969398202543
 20
-148.5287461651248
 30
0.0
  0
SEQEND
  5
134
330
130
100
AcDbEntity
  8
_U+30EC_U+30A4_U+30E4_U+30FC 1
 62
   179
420
  2234388
370
    15
  0
POLYLINE
  5
135
330
1F
100
AcDbEntity
  8
_U+30EC_U+30A4_U+30E4_U+30FC 1
 62
   179
420
  2234388
370
    15
100
AcDb2dPolyline
 66
     1
 10
0.0
 20
0.0
 30
0.0
  0
VERTEX
  5
136
330
135
100
AcDbEntity
  8
_U+30EC_U+30A4_U+30E4_U+30FC 1
 62
   179
420
  2234388
370
    15
100
AcDbVertex
100
AcDb2dVertex
 10
118.3970582454116
 20
-148.5286169740444
 30
0.0
  0
VERTEX
  5
137
330
135
100
AcDbEntity
  8
_U+30EC_U+30A4_U+30E4_U+30FC 1
 62
   179
420
  2234388
370
    15
100
AcDbVertex
100
AcDb2dVertex
 10
106.4661112201283
 20
-142.6354797006693
 30
0.0
  0
SEQEND
  5
138
330
135
100
AcDbEntity
  8
_U+30EC_U+30A4_U+30E4_U+30FC 1
 62
   179
420
  2234388
370
    15
  0
POLYLINE
  5
139
330
1F
100
AcDbEntity
  8
_U+30EC_U+30A4_U+30E4_U+30FC 1
 62
   179
420
  2234388
370
    15
100
AcDb2dPolyline
 66
     1
 10
0.0
 20
0.0
 30
0.0
  0
VERTEX
  5
13A
330
139
100
AcDbEntity
  8
_U+30EC_U+30A4_U+30E4_U+30FC 1
 62
   179
420
  2234388
370
    15
100
AcDbVertex
100
AcDb2dVertex
 10
119.6000640570141
 20
-145.6697044856098
 30
0.0
  0
VERTEX
  5
13B
330
139
100
AcDbEntity
  8
_U+30EC_U+30A4_U+30E4_U+30FC 1
 62
   179
420
  2234388
370
    15
100
AcDbVertex
100
AcDb2dVertex
 10
120.7116564131001
 20
-146.2193479384343
 30
0.0
  0
VERTEX
  5
13C
330
139
100
AcDbEntity
  8
_U+30EC_U+30A4_U+30E4_U+30FC 1
 62
   179
420
  2234388
370
    15
100
AcDbVertex
100
AcDb2dVertex
 10
120.4827082862585
 20
-144.9161759755985
 30
0.0
  0
SEQEND
  5
13D
330
139
100
AcDbEntity
  8
_U+30EC_U+30A4_U+30E4_U+30FC 1
 62
   179
420
  2234388
370
    15
  0
POLYLINE
  5
13E
330
1F
100
AcDbEntity
  8
_U+30EC_U+30A4_U+30E4_U+30FC 1
 62
   179
420
  2234388
370
    15
100
AcDb2dPolyline
 66
     1
 10
0.0
 20
0.0
 30
0.0
  0
VERTEX
  5
13F
330
13E
100
AcDbEntity
  8
_U+30EC_U+30A4_U+30E4_U+30FC 1
 62
   179
420
  2234388
370
    15
100
AcDbVertex
100
AcDb2dVertex
 10
118.0918012535717
 20
-149.0577836405784
 30
0.0
  0
VERTEX
  5
140
330
13E
100
AcDbEntity
  8
_U+30EC_U+30A4_U+30E4_U+30FC 1
 62
   179
420
  2234388
370
    15
100
AcDbVertex
100
AcDb2dVertex
 10
119.3900208916477
 20
-148.5092167800927
 30
0.0
  0
VERTEX
  5
141
330
13E
100
AcDbEntity
  8
_U+30EC_U+30A4_U+30E4_U+30FC 1
 62
   179
420
  2234388
370
    15
100
AcDbVertex
100
AcDb2dVertex
 10
118.4114092212923
 20
-148.0287336191346
 30
0.0
  0
SEQEND
  5
142
330
13E
100
AcDbEntity
  8
_U+30EC_U+30A4_U+30E4_U+30FC 1
 62
   179
420
  2234388
370
    15
  0
POLYLINE
  5
143
330
1F
100
AcDbEntity
  8
_U+30EC_U+30A4_U+30E4_U+30FC 1
 62
   179
420
  2234388
370
    15
100
AcDb2dPolyline
 66
     1
 10
0.0
 20
0.0
 30
0.0
  0
VERTEX
  5
144
330
143
100
AcDbEntity
  8
_U+30EC_U+30A4_U+30E4_U+30FC 1
 62
   179
420
  2234388
370
    15
100
AcDbVertex
100
AcDb2dVertex
 10
103.1734935078709
 20
-142.6349844681933
 30
0.0
  0
VERTEX
  5
145
330
143
100
AcDbEntity
  8
_U+30EC_U+30A4_U+30E4_U+30FC 1
 62
   179
420
  2234388
370
    15
100
AcDbVertex
100
AcDb2dVertex
 10
103.1734935078709
 20
-161.8980636191935
 30
0.0
  0
VERTEX
  5
146
330
143
100
AcDbEntity
  8
_U+30EC_U+30A4_U+30E4_U+30FC 1
 62
   179
420
  2234388
370
    15
100
AcDbVertex
100
AcDb2dVertex
 10
103.4737012816403
 20
-161.4539262156044
 30
0.0
  0
VERTEX
  5
147
330
143
100
AcDbEntity
  8
_U+30EC_U+30A4_U+30E4_U+30FC 1
 62
   179
420
  2234388
370
    15
100
AcDbVertex
100
AcDb2dVertex
 10
106.1657527234314
 20
-161.4539262156044
 30
0.0
  0
VERTEX
  5
148
330
143
100
AcDbEntity
  8
_U+30EC_U+30A4_U+30E4_U+30FC 1
 62
   179
420
  2234388
370
    15
100
AcDbVertex
100
AcDb2dVertex
 10
106.4659604972008
 20
-161.8797184857345
 30
0.0
  0
VERTEX
  5
149
330
143
100
AcDbEntity
  8
_U+30EC_U+30A4_U+30E4_U+30FC 1
 62
   179
420
  2234388
370
    15
100
AcDbVertex
100
AcDb2dVertex
 10
106.4659604972008
 20
-142.6349844681933
 30
0.0
  0
SEQEND
  5
14A
330
143
100
AcDbEntity
  8
_U+30EC_U+30A4_U+30E4_U+30FC 1
 62
   179
420
  2234388
370
    15
  0
POLYLINE
  5
14B
330
1F
100
AcDbEntity
  8
_U+30EC_U+30A4_U+30E4_U+30FC 1
 62
   179
420
  2234388
370
    15
100
AcDb2dPolyline
 66
     1
 10
0.0
 20
0.0
 30
0.0
  0
VERTEX
  5
14C
330
14B
100
AcDbEntity
  8
_U+30EC_U+30A4_U+30E4_U+30FC 1
 62
   179
420
  2234388
370
    15
100
AcDbVertex
100
AcDb2dVertex
 10
103.4735720905599
 20
-161.4537970245237
 30
0.0
  0
VERTEX
  5
14D
330
14B
100
AcDbEntity
  8
_U+30EC_U+30A4_U+30E4_U+30FC 1
 62
   179
420
  2234388
370
    15
100
AcDbVertex
100
AcDb2dVertex
 10
103.4735720905599
 20
-142.2859747636907
 30
0.0
  0
SEQEND
  5
14E
330
14B
100
AcDbEntity
  8
_U+30EC_U+30A4_U+30E4_U+30FC 1
 62
   179
420
  2234388
370
    15
  0
POLYLINE
  5
14F
330
1F
100
AcDbEntity
  8
_U+30EC_U+30A4_U+30E4_U+30FC 1
 62
   179
420
  2234388
370
    15
100
AcDb2dPolyline
 66
     1
 10
0.0
 20
0.0
 30
0.0
  0
VERTEX
  5
150
330
14F
100
AcDbEntity
  8
_U+30EC_U+30A4_U+30E4_U+30FC 1
 62
   179
420
  2234388
370
    15
100
AcDbVertex
100
AcDb2dVertex
 10
106.1659357441291
 20
-161.4537970245237
 30
0.0
  0
VERTEX
  5
151
330
14F
100
AcDbEntity
  8
_U+30EC_U+30A4_U+30E4_U+30FC 1
 62
   179
420
  2234388
370
    15
100
AcDbVertex
100
AcDb2dVertex
 10
106.1659357441291
 20
-142.2859747636907
 30
0.0
  0
SEQEND
  5
152
330
14F
100
AcDbEntity
  8
_U+30EC_U+30A4_U+30E4_U+30FC 1
 62
   179
420
  2234388
370
    15
  0
POLYLINE
  5
153
330
1F
100
AcDbEntity
  8
_U+30EC_U+30A4_U+30E4_U+30FC 1
 62
   179
420
  2234388
370
    15
100
AcDb2dPolyline
 66
     1
 10
0.0
 20
0.0
 30
0.0
  0
VERTEX
  5
154
330
153
100
AcDbEntity
  8
_U+30EC_U+30A4_U+30E4_U+30FC 1
 62
   179
420
  2234388
370
    15
100
AcDbVertex
100
AcDb2dVertex
 10
102.2950049250559
 20
-138.425766804315
 30
0.0
  0
VERTEX
  5
155
330
153
100
AcDbEntity
  8
_U+30EC_U+30A4_U+30E4_U+30FC 1
 62
   179
420
  2234388
370
    15
100
AcDbVertex
100
AcDb2dVertex
 10
107.344309123012
 20
-138.425766804315
 30
0.0
  0
SEQEND
  5
156
330
153
100
AcDbEntity
  8
_U+30EC_U+30A4_U+30E4_U+30FC 1
 62
   179
420
  2234388
370
    15
  0
POLYLINE
  5
157
330
1F
100
AcDbEntity
  8
_U+30EC_U+30A4_U+30E4_U+30FC 1
 62
   179
420
  2234388
370
    15
100
AcDb2dPolyline
 66
     1
 10
0.0
 20
0.0
 30
0.0
  0
VERTEX
  5
158
330
157
100
AcDbEntity
  8
_U+30EC_U+30A4_U+30E4_U+30FC 1
 62
   179
420
  2234388
370
    15
100
AcDbVertex
100
AcDb2dVertex
 10
102.6005848945976
 20
-138.9550411300836
 30
0.0
  0
VERTEX
  5
159
330
157
100
AcDbEntity
  8
_U+30EC_U+30A4_U+30E4_U+30FC 1
 62
   179
420
  2234388
370
    15
100
AcDbVertex
100
AcDb2dVertex
 10
107.0388798763978
 20
-138.9550411300836
 30
0.0
  0
SEQEND
  5
15A
330
157
100
AcDbEntity
  8
_U+30EC_U+30A4_U+30E4_U+30FC 1
 62
   179
420
  2234388
370
    15
  0
POLYLINE
  5
15B
330
1F
100
AcDbEntity
  8
_U+30EC_U+30A4_U+30E4_U+30FC 1
 62
   179
420
  2234388
370
    15
100
AcDb2dPolyline
 66
     1
 10
0.0
 20
0.0
 30
0.0
  0
VERTEX
  5
15C
330
15B
100
AcDbEntity
  8
_U+30EC_U+30A4_U+30E4_U+30FC 1
 62
   179
420
  2234388
370
    15
100
AcDbVertex
100
AcDb2dVertex
 10
103.2572416259327
 20
-142.2527511241048
 30
0.0
  0
VERTEX
  5
15D
330
15B
100
AcDbEntity
  8
_U+30EC_U+30A4_U+30E4_U+30FC 1
 62
   179
420
  2234388
370
    15
100
AcDbVertex
100
AcDb2dVertex
 10
106.3817925081268
 20
-142.2527511241048
 30
0.0
  0
SEQEND
  5
15E
330
15B
100
AcDbEntity
  8
_U+30EC_U+30A4_U+30E4_U+30FC 1
 62
   179
420
  2234388
370
    15
  0
POLYLINE
  5
15F
330
1F
100
AcDbEntity
  8
_U+30EC_U+30A4_U+30E4_U+30FC 1
 62
   179
420
  2234388
370
    15
100
AcDb2dPolyline
 66
     1
 10
0.0
 20
0.0
 30
0.0
  0
VERTEX
  5
160
330
15F
100
AcDbEntity
  8
_U+30EC_U+30A4_U+30E4_U+30FC 1
 62
   179
420
  2234388
370
    15
100
AcDbVertex
100
AcDb2dVertex
 10
102.2950049250559
 20
-138.425766804315
 30
0.0
  0
VERTEX
  5
161
330
15F
100
AcDbEntity
  8
_U+30EC_U+30A4_U+30E4_U+30FC 1
 62
   179
420
  2234388
370
    15
100
AcDbVertex
100
AcDb2dVertex
 10
102.6005095331335
 20
-138.9549334708494
 30
0.0
  0
SEQEND
  5
162
330
15F
100
AcDbEntity
  8
_U+30EC_U+30A4_U+30E4_U+30FC 1
 62
   179
420
  2234388
370
    15
  0
POLYLINE
  5
163
330
1F
100
AcDbEntity
  8
_U+30EC_U+30A4_U+30E4_U+30FC 1
 62
   179
420
  2234388
370
    15
100
AcDb2dPolyline
 66
     1
 10
0.0
 20
0.0
 30
0.0
  0
VERTEX
  5
164
330
163
100
AcDbEntity
  8
_U+30EC_U+30A4_U+30E4_U+30FC 1
 62
   179
420
  2234388
370
    15
100
AcDbVertex
100
AcDb2dVertex
 10
107.3444921437097
 20
-138.426262036791
 30
0.0
  0
VERTEX
  5
165
330
163
100
AcDbEntity
  8
_U+30EC_U+30A4_U+30E4_U+30FC 1
 62
   179
420
  2234388
370
    15
100
AcDbVertex
100
AcDb2dVertex
 10
107.0389767697084
 20
-138.9554287033254
 30
0.0
  0
SEQEND
  5
166
330
163
100
AcDbEntity
  8
_U+30EC_U+30A4_U+30E4_U+30FC 1
 62
   179
420
  2234388
370
    15
  0
POLYLINE
  5
167
330
1F
100
AcDbEntity
  8
_U+30EC_U+30A4_U+30E4_U+30FC 1
 62
   179
420
  2234388
370
    15
100
AcDb2dPolyline
 66
     1
 10
0.0
 20
0.0
 30
0.0
  0
VERTEX
  5
168
330
167
100
AcDbEntity
  8
_U+30EC_U+30A4_U+30E4_U+30FC 1
 62
   179
420
  2234388
370
    15
100
AcDbVertex
100
AcDb2dVertex
 10
105.6208893405924
 20
-161.4537970245237
 30
0.0
  0
VERTEX
  5
169
330
167
100
AcDbEntity
  8
_U+30EC_U+30A4_U+30E4_U+30FC 1
 62
   179
420
  2234388
370
    15
100
AcDbVertex
100
AcDb2dVertex
 10
106.4661435178984
 20
-161.8796108265006
 30
0.0
  0
SEQEND
  5
16A
330
167
100
AcDbEntity
  8
_U+30EC_U+30A4_U+30E4_U+30FC 1
 62
   179
420
  2234388
370
    15
  0
POLYLINE
  5
16B
330
1F
100
AcDbEntity
  8
_U+30EC_U+30A4_U+30E4_U+30FC 1
 62
   179
420
  2234388
370
    15
100
AcDb2dPolyline
 66
     1
 10
0.0
 20
0.0
 30
0.0
  0
VERTEX
  5
16C
330
16B
100
AcDbEntity
  8
_U+30EC_U+30A4_U+30E4_U+30FC 1
 62
   179
420
  2234388
370
    15
100
AcDbVertex
100
AcDb2dVertex
 10
104.0186077281729
 20
-161.4537970245237
 30
0.0
  0
VERTEX
  5
16D
330
16B
100
AcDbEntity
  8
_U+30EC_U+30A4_U+30E4_U+30FC 1
 62
   179
420
  2234388
370
    15
100
AcDbVertex
100
AcDb2dVertex
 10
103.1733427849434
 20
-161.8796108265006
 30
0.0
  0
SEQEND
  5
16E
330
16B
100
AcDbEntity
  8
_U+30EC_U+30A4_U+30E4_U+30FC 1
 62
   179
420
  2234388
370
    15
  0
ENDSEC
  0
SECTION
  2
OBJECTS
  0
DICTIONARY
  5
C
330
0
100
AcDbDictionary
281
     1
  3
ACAD_GROUP
350
D
  3
ACAD_LAYOUT
350
1A
  3
ACAD_MATERIAL
350
3B
  3
ACAD_MLEADERSTYLE
350
170
  3
ACAD_MLINESTYLE
350
17
  3
ACAD_PLOTSETTINGS
350
19
  3
ACAD_PLOTSTYLENAME
350
E
  3
ACAD_TABLESTYLE
350
16F
  3
ACAD_VISUALSTYLE
350
2A
  0
SUN
  5
3F
330
29
100
AcDbSun
 90
        1
290
     0
 63
     7
421
 16777215
 40
1.0
291
     1
 91
  2455826
 92
 54000000
292
     0
 70
     2
 71
   256
280
     1
  0
DICTIONARY
  5
D
102
{ACAD_REACTORS
330
C
102
}
330
C
100
AcDbDictionary
281
     1
  0
DICTIONARY
  5
1A
102
{ACAD_REACTORS
330
C
102
}
330
C
100
AcDbDictionary
281
     1
  3
Layout1
350
1E
  3
Layout2
350
26
  3
Model
350
22
  0
DICTIONARY
  5
3B
102
{ACAD_REACTORS
330
C
102
}
330
C
100
AcDbDictionary
281
     1
  3
ByBlock
350
3D
  3
ByLayer
350
3C
  3
Global
350
3E
  0
DICTIONARY
  5
170
102
{ACAD_REACTORS
330
C
102
}
330
C
100
AcDbDictionary
281
     1
  0
DICTIONARY
  5
17
102
{ACAD_REACTORS
330
C
102
}
330
C
100
AcDbDictionary
281
     1
  3
Standard
350
18
  0
DICTIONARY
  5
19
102
{ACAD_REACTORS
330
C
102
}
330
C
100
AcDbDictionary
281
     1
  0
ACDBDICTIONARYWDFLT
  5
E
102
{ACAD_REACTORS
330
C
102
}
330
C
100
AcDbDictionary
281
     1
  3
Normal
350
F
100
AcDbDictionaryWithDefault
340
F
  0
DICTIONARY
  5
16F
102
{ACAD_REACTORS
330
C
102
}
330
C
100
AcDbDictionary
281
     1
  0
DICTIONARY
  5
2A
102
{ACAD_REACTORS
330
C
102
}
330
C
100
AcDbDictionary
281
     1
  3
2dWireframe
350
2F
  3
3D Hidden
350
31
  3
3dWireframe
350
30
  3
Basic
350
32
  3
Brighten
350
36
  3
ColorChange
350
3A
  3
Conceptual
350
34
  3
Dim
350
35
  3
Facepattern
350
39
  3
Flat
350
2B
  3
FlatWithEdges
350
2C
  3
Gouraud
350
2D
  3
GouraudWithEdges
350
2E
  3
Linepattern
350
38
  3
Realistic
350
33
  3
Thicken
350
37
  0
LAYOUT
  5
1E
102
{ACAD_REACTORS
330
1A
102
}
330
1A
100
AcDbPlotSettings
  1

  2
none_device
  4

  6

 40
0.0
 41
0.0
 42
0.0
 43
0.0
 44
0.0
 45
0.0
 46
0.0
 47
0.0
 48
0.0
 49
0.0
140
0.0
141
0.0
142
1.0
143
1.0
 70
   688
 72
     0
 73
     0
 74
     5
  7

 75
    16
 76
     0
 77
     2
 78
   300
147
1.0
148
0.0
149
0.0
100
AcDbLayout
  1
Layout1
 70
     1
 71
     1
 10
0.0
 20
0.0
 11
12.0
 21
9.0
 12
0.0
 22
0.0
 32
0.0
 14
1.000000000000000E+20
 24
1.000000000000000E+20
 34
1.000000000000000E+20
 15
-1.000000000000000E+20
 25
-1.000000000000000E+20
 35
-1.000000000000000E+20
146
0.0
 13
0.0
 23
0.0
 33
0.0
 16
1.0
 26
0.0
 36
0.0
 17
0.0
 27
1.0
 37
0.0
 76
     0
330
1B
  0
LAYOUT
  5
26
102
{ACAD_REACTORS
330
1A
102
}
330
1A
100
AcDbPlotSettings
  1

  2
none_device
  4

  6

 40
0.0
 41
0.0
 42
0.0
 43
0.0
 44
0.0
 45
0.0
 46
0.0
 47
0.0
 48
0.0
 49
0.0
140
0.0
141
0.0
142
1.0
143
1.0
 70
   688
 72
     0
 73
     0
 74
     5
  7

 75
    16
 76
     0
 77
     2
 78
   300
147
1.0
148
0.0
149
0.0
100
AcDbLayout
  1
Layout2
 70
     1
 71
     2
 10
0.0
 20
0.0
 11
0.0
 21
0.0
 12
0.0
 22
0.0
 32
0.0
 14
0.0
 24
0.0
 34
0.0
 15
0.0
 25
0.0
 35
0.0
146
0.0
 13
0.0
 23
0.0
 33
0.0
 16
1.0
 26
0.0
 36
0.0
 17
0.0
 27
1.0
 37
0.0
 76
     0
330
23
  0
LAYOUT
  5
22
102
{ACAD_REACTORS
330
1A
102
}
330
1A
100
AcDbPlotSettings
  1

  2
none_device
  4

  6

 40
0.0
 41
0.0
 42
0.0
 43
0.0
 44
0.0
 45
0.0
 46
0.0
 47
0.0
 48
0.0
 49
0.0
140
0.0
141
0.0
142
1.0
143
1.0
 70
  1712
 72
     0
 73
     0
 74
     0
  7

 75
     0
 76
     0
 77
     2
 78
   300
147
1.0
148
0.0
149
0.0
100
AcDbLayout
  1
Model
 70
     1
 71
     0
 10
0.0
 20
0.0
 11
12.0
 21
9.0
 12
0.0
 22
0.0
 32
0.0
 14
1.000000000000000E+20
 24
1.000000000000000E+20
 34
1.000000000000000E+20
 15
-1.000000000000000E+20
 25
-1.000000000000000E+20
 35
-1.000000000000000E+20
146
0.0
 13
0.0
 23
0.0
 33
0.0
 16
1.0
 26
0.0
 36
0.0
 17
0.0
 27
1.0
 37
0.0
 76
     0
330
1F
331
29
  0
MATERIAL
  5
3D
102
{ACAD_REACTORS
330
3B
102
}
330
3B
100
AcDbMaterial
  1
ByBlock
 72
     1
 94
      127
  0
MATERIAL
  5
3C
102
{ACAD_REACTORS
330
3B
102
}
330
3B
100
AcDbMaterial
  1
ByLayer
 72
     1
 94
      127
  0
MATERIAL
  5
3E
102
{ACAD_REACTORS
330
3B
102
}
330
3B
100
AcDbMaterial
  1
Global
 72
     1
 94
      127
  0
MLINESTYLE
  5
18
102
{ACAD_REACTORS
330
17
102
}
330
17
100
AcDbMlineStyle
  2
Standard
 70
     0
  3

 62
   256
 51
90.0
 52
90.0
 71
     2
 49
0.5
 62
   256
  6
BYLAYER
 49
-0.5
 62
   256
  6
BYLAYER
  0
ACDBPLACEHOLDER
  5
F
102
{ACAD_REACTORS
330
E
102
}
330
E
  0
VISUALSTYLE
  5
2F
102
{ACAD_REACTORS
330
2A
102
}
330
2A
100
AcDbVisualStyle
  2
2dWireframe
 70
     4
177
     2
291
     0
 71
     0
176
     1
 72
     2
176
     1
 73
     0
176
     1
 90
        0
176
     1
 40
-0.6
176
     1
 41
-30.0
176
     1
 62
     5
 63
     7
421
 16777215
176
     1
 74
     1
176
     1
 91
        4
176
     1
 64
     7
176
     1
 65
   257
176
     1
 75
     1
176
     1
175
     1
176
     1
 42
1.0
176
     1
 92
        0
176
     1
 66
   257
176
     1
 43
1.0
176
     1
 76
     1
176
     1
 77
     6
176
     1
 78
     2
176
     1
 67
     7
176
     1
 79
     5
176
     1
170
     0
176
     1
171
     0
176
     1
290
     0
176
     1
 93
        1
176
     1
 44
0.0
176
     1
173
     0
176
     1
  0
VISUALSTYLE
  5
31
102
{ACAD_REACTORS
330
2A
102
}
330
2A
100
AcDbVisualStyle
  2
3D Hidden
 70
     6
177
     2
291
     0
 71
     1
176
     1
 72
     2
176
     1
 73
     2
176
     1
 90
        0
176
     1
 40
-0.6
176
     1
 41
-30.0
176
     1
 62
     5
 63
     7
421
 16777215
176
     1
 74
     2
176
     1
 91
        2
176
     1
 64
     7
176
     1
 65
   257
176
     1
 75
     2
176
     1
175
     1
176
     1
 42
40.0
176
     1
 92
        0
176
     1
 66
   257
176
     1
 43
1.0
176
     1
 76
     1
176
     1
 77
     6
176
     1
 78
     2
176
     1
 67
     7
176
     1
 79
     3
176
     1
170
     0
176
     1
171
     0
176
     1
290
     0
176
     1
 93
        1
176
     1
 44
0.0
176
     1
173
     0
176
     1
  0
VISUALSTYLE
  5
30
102
{ACAD_REACTORS
330
2A
102
}
330
2A
100
AcDbVisualStyle
  2
3dWireframe
 70
     5
177
     2
291
     0
 71
     0
176
     1
 72
     2
176
     1
 73
     0
176
     1
 90
        0
176
     1
 40
-0.6
176
     1
 41
-30.0
176
     1
 62
     5
 63
     7
421
 16777215
176
     1
 74
     1
176
     1
 91
        4
176
     1
 64
     7
176
     1
 65
   257
176
     1
 75
     1
176
     1
175
     1
176
     1
 42
1.0
176
     1
 92
        0
176
     1
 66
   257
176
     1
 43
1.0
176
     1
 76
     1
176
     1
 77
     6
176
     1
 78
     2
176
     1
 67
     7
176
     1
 79
     5
176
     1
170
     0
176
     1
171
     0
176
     1
290
     0
176
     1
 93
        1
176
     1
 44
0.0
176
     1
173
     0
176
     1
  0
VISUALSTYLE
  5
32
102
{ACAD_REACTORS
330
2A
102
}
330
2A
100
AcDbVisualStyle
  2
Basic
 70
     7
177
     2
291
     1
 71
     1
176
     1
 72
     0
176
     1
 73
     1
176
     1
 90
        0
176
     1
 40
-0.6
176
     1
 41
-30.0
176
     1
 62
     5
 63
     7
421
 16777215
176
     1
 74
     0
176
     1
 91
        4
176
     1
 64
     7
176
     1
 65
   257
176
     1
 75
     1
176
     1
175
     1
176
     1
 42
1.0
176
     1
 92
        8
176
     1
 66
     7
176
     1
 43
1.0
176
     1
 76
     1
176
     1
 77
     6
176
     1
 78
     2
176
     1
 67
     7
176
     1
 79
     5
176
     1
170
     0
176
     1
171
     0
176
     1
290
     0
176
     1
 93
        1
176
     1
 44
0.0
176
     1
173
     0
176
     1
  0
VISUALSTYLE
  5
36
102
{ACAD_REACTORS
330
2A
102
}
330
2A
100
AcDbVisualStyle
  2
Brighten
 70
    12
177
     2
291
     1
 71
     2
176
     1
 72
     2
176
     1
 73
     0
176
     1
 90
        0
176
     1
 40
-0.6
176
     1
 41
-30.0
176
     1
 62
     5
 63
     7
421
 16777215
176
     1
 74
     1
176
     1
 91
        4
176
     1
 64
     7
176
     1
 65
   257
176
     1
 75
     1
176
     1
175
     1
176
     1
 42
1.0
176
     1
 92
        8
176
     1
 66
     7
176
     1
 43
1.0
176
     1
 76
     1
176
     1
 77
     6
176
     1
 78
     2
176
     1
 67
     7
176
     1
 79
     5
176
     1
170
     0
176
     1
171
     0
176
     1
290
     0
176
     1
 93
        1
176
     1
 44
50.0
176
     1
173
     0
176
     1
  0
VISUALSTYLE
  5
3A
102
{ACAD_REACTORS
330
2A
102
}
330
2A
100
AcDbVisualStyle
  2
ColorChange
 70
    16
177
     2
291
     1
 71
     2
176
     1
 72
     2
176
     1
 73
     3
176
     1
 90
        0
176
     1
 40
-0.6
176
     1
 41
-30.0
176
     1
 62
     5
 63
     8
421
  8421504
176
     1
 74
     1
176
     1
 91
        4
176
     1
 64
     7
176
     1
 65
   257
176
     1
 75
     1
176
     1
175
     1
176
     1
 42
1.0
176
     1
 92
        8
176
     1
 66
     8
424
  8421504
176
     1
 43
1.0
176
     1
 76
     1
176
     1
 77
     6
176
     1
 78
     2
176
     1
 67
     7
176
     1
 79
     5
176
     1
170
     0
176
     1
171
     0
176
     1
290
     0
176
     1
 93
        1
176
     1
 44
0.0
176
     1
173
     0
176
     1
  0
VISUALSTYLE
  5
34
102
{ACAD_REACTORS
330
2A
102
}
330
2A
100
AcDbVisualStyle
  2
Conceptual
 70
     9
177
     2
291
     0
 71
     3
176
     1
 72
     2
176
     1
 73
     0
176
     1
 90
        0
176
     1
 40
-0.6
176
     1
 41
-30.0
176
     1
 62
     5
 63
     7
421
 16777215
176
     1
 74
     2
176
     1
 91
        2
176
     1
 64
     7
176
     1
 65
   257
176
     1
 75
     1
176
     1
175
     1
176
     1
 42
40.0
176
     1
 92
        8
176
     1
 66
     7
176
     1
 43
1.0
176
     1
 76
     1
176
     1
 77
     6
176
     1
 78
     2
176
     1
 67
     7
176
     1
 79
     3
176
     1
170
     0
176
     1
171
     0
176
     1
290
     0
176
     1
 93
        1
176
     1
 44
0.0
176
     1
173
     0
176
     1
  0
VISUALSTYLE
  5
35
102
{ACAD_REACTORS
330
2A
102
}
330
2A
100
AcDbVisualStyle
  2
Dim
 70
    11
177
     2
291
     1
 71
     2
176
     1
 72
     2
176
     1
 73
     0
176
     1
 90
        0
176
     1
 40
-0.6
176
     1
 41
-30.0
176
     1
 62
     5
 63
     7
421
 16777215
176
     1
 74
     1
176
     1
 91
        4
176
     1
 64
     7
176
     1
 65
   257
176
     1
 75
     1
176
     1
175
     1
176
     1
 42
1.0
176
     1
 92
        8
176
     1
 66
     7
176
     1
 43
1.0
176
     1
 76
     1
176
     1
 77
     6
176
     1
 78
     2
176
     1
 67
     7
176
     1
 79
     5
176
     1
170
     0
176
     1
171
     0
176
     1
290
     0
176
     1
 93
        1
176
     1
 44
-50.0
176
     1
173
     0
176
     1
  0
VISUALSTYLE
  5
39
102
{ACAD_REACTORS
330
2A
102
}
330
2A
100
AcDbVisualStyle
  2
Facepattern
 70
    15
177
     2
291
     1
 71
     2
176
     1
 72
     2
176
     1
 73
     0
176
     1
 90
        0
176
     1
 40
-0.6
176
     1
 41
-30.0
176
     1
 62
     5
 63
     7
421
 16777215
176
     1
 74
     1
176
     1
 91
        4
176
     1
 64
     7
176
     1
 65
   257
176
     1
 75
     1
176
     1
175
     1
176
     1
 42
1.0
176
     1
 92
        8
176
     1
 66
     7
176
     1
 43
1.0
176
     1
 76
     1
176
     1
 77
     6
176
     1
 78
     2
176
     1
 67
     7
176
     1
 79
     5
176
     1
170
     0
176
     1
171
     0
176
     1
290
     0
176
     1
 93
        1
176
     1
 44
0.0
176
     1
173
     0
176
     1
  0
VISUALSTYLE
  5
2B
102
{ACAD_REACTORS
330
2A
102
}
330
2A
100
AcDbVisualStyle
  2
Flat
 70
     0
177
     2
291
     1
 71
     2
176
     1
 72
     1
176
     1
 73
     1
176
     1
 90
        2
176
     1
 40
-0.6
176
     1
 41
30.0
176
     1
 62
     5
 63
     7
421
 16777215
176
     1
 74
     0
176
     1
 91
        4
176
     1
 64
     7
176
     1
 65
   257
176
     1
 75
     1
176
     1
175
     1
176
     1
 42
1.0
176
     1
 92
        8
176
     1
 66
     7
176
     1
 43
1.0
176
     1
 76
     1
176
     1
 77
     6
176
     1
 78
     2
176
     1
 67
     7
176
     1
 79
     5
176
     1
170
     0
176
     1
171
     0
176
     1
290
     0
176
     1
 93
       13
176
     1
 44
0.0
176
     1
173
     0
176
     1
  0
VISUALSTYLE
  5
2C
102
{ACAD_REACTORS
330
2A
102
}
330
2A
100
AcDbVisualStyle
  2
FlatWithEdges
 70
     1
177
     2
291
     1
 71
     2
176
     1
 72
     1
176
     1
 73
     1
176
     1
 90
        2
176
     1
 40
-0.6
176
     1
 41
30.0
176
     1
 62
     5
 63
     7
421
 16777215
176
     1
 74
     1
176
     1
 91
        4
176
     1
 64
     7
176
     1
 65
   257
176
     1
 75
     1
176
     1
175
     1
176
     1
 42
1.0
176
     1
 92
        0
176
     1
 66
   257
176
     1
 43
1.0
176
     1
 76
     1
176
     1
 77
     6
176
     1
 78
     2
176
     1
 67
     7
176
     1
 79
     5
176
     1
170
     0
176
     1
171
     0
176
     1
290
     0
176
     1
 93
       13
176
     1
 44
0.0
176
     1
173
     0
176
     1
  0
VISUALSTYLE
  5
2D
102
{ACAD_REACTORS
330
2A
102
}
330
2A
100
AcDbVisualStyle
  2
Gouraud
 70
     2
177
     2
291
     1
 71
     2
176
     1
 72
     2
176
     1
 73
     1
176
     1
 90
        2
176
     1
 40
-0.6
176
     1
 41
30.0
176
     1
 62
     5
 63
     7
421
 16777215
176
     1
 74
     0
176
     1
 91
        4
176
     1
 64
     7
176
     1
 65
   257
176
     1
 75
     1
176
     1
175
     1
176
     1
 42
1.0
176
     1
 92
        0
176
     1
 66
     7
176
     1
 43
1.0
176
     1
 76
     1
176
     1
 77
     6
176
     1
 78
     2
176
     1
 67
     7
176
     1
 79
     5
176
     1
170
     0
176
     1
171
     0
176
     1
290
     0
176
     1
 93
       13
176
     1
 44
0.0
176
     1
173
     0
176
     1
  0
VISUALSTYLE
  5
2E
102
{ACAD_REACTORS
330
2A
102
}
330
2A
100
AcDbVisualStyle
  2
GouraudWithEdges
 70
     3
177
     2
291
     1
 71
     2
176
     1
 72
     2
176
     1
 73
     1
176
     1
 90
        2
176
     1
 40
-0.6
176
     1
 41
30.0
176
     1
 62
     5
 63
     7
421
 16777215
176
     1
 74
     1
176
     1
 91
        4
176
     1
 64
     7
176
     1
 65
   257
176
     1
 75
     1
176
     1
175
     1
176
     1
 42
1.0
176
     1
 92
        0
176
     1
 66
   257
176
     1
 43
1.0
176
     1
 76
     1
176
     1
 77
     6
176
     1
 78
     2
176
     1
 67
     7
176
     1
 79
     5
176
     1
170
     0
176
     1
171
     0
176
     1
290
     0
176
     1
 93
       13
176
     1
 44
0.0
176
     1
173
     0
176
     1
  0
VISUALSTYLE
  5
38
102
{ACAD_REACTORS
330
2A
102
}
330
2A
100
AcDbVisualStyle
  2
Linepattern
 70
    14
177
     2
291
     1
 71
     2
176
     1
 72
     2
176
     1
 73
     0
176
     1
 90
        0
176
     1
 40
-0.6
176
     1
 41
-30.0
176
     1
 62
     5
 63
     7
421
 16777215
176
     1
 74
     1
176
     1
 91
        4
176
     1
 64
     7
176
     1
 65
   257
176
     1
 75
     7
176
     1
175
     7
176
     1
 42
1.0
176
     1
 92
        8
176
     1
 66
     7
176
     1
 43
1.0
176
     1
 76
     1
176
     1
 77
     6
176
     1
 78
     2
176
     1
 67
     7
176
     1
 79
     5
176
     1
170
     0
176
     1
171
     0
176
     1
290
     0
176
     1
 93
        1
176
     1
 44
0.0
176
     1
173
     0
176
     1
  0
VISUALSTYLE
  5
33
102
{ACAD_REACTORS
330
2A
102
}
330
2A
100
AcDbVisualStyle
  2
Realistic
 70
     8
177
     2
291
     0
 71
     2
176
     1
 72
     2
176
     1
 73
     0
176
     1
 90
        0
176
     1
 40
-0.6
176
     1
 41
-30.0
176
     1
 62
     5
 63
     7
421
 16777215
176
     1
 74
     1
176
     1
 91
        0
176
     1
 64
     7
176
     1
 65
   257
176
     1
 75
     1
176
     1
175
     1
176
     1
 42
1.0
176
     1
 92
        8
176
     1
 66
     8
424
  7895160
176
     1
 43
1.0
176
     1
 76
     1
176
     1
 77
     6
176
     1
 78
     2
176
     1
 67
     7
176
     1
 79
     5
176
     1
170
     0
176
     1
171
     0
176
     1
290
     0
176
     1
 93
       13
176
     1
 44
0.0
176
     1
173
     0
176
     1
  0
VISUALSTYLE
  5
37
102
{ACAD_REACTORS
330
2A
102
}
330
2A
100
AcDbVisualStyle
  2
Thicken
 70
    13
177
     2
291
     1
 71
     2
176
     1
 72
     2
176
     1
 73
     0
176
     1
 90
        0
176
     1
 40
-0.6
176
     1
 41
-30.0
176
     1
 62
     5
 63
     7
421
 16777215
176
     1
 74
     1
176
     1
 91
        4
176
     1
 64
     7
176
     1
 65
   257
176
     1
 75
     1
176
     1
175
     1
176
     1
 42
1.0
176
     1
 92
       12
176
     1
 66
     7
176
     1
 43
1.0
176
     1
 76
     1
176
     1
 77
     6
176
     1
 78
     2
176
     1
 67
     7
176
     1
 79
     5
176
     1
170
     0
176
     1
171
     0
176
     1
290
     0
176
     1
 93
        1
176
     1
 44
0.0
176
     1
173
     0
176
     1
  0
ENDSEC
  0
EOF
