  0
SECTION
  2
HEADER
  9
$ACADVER
  1
AC1024
  9
$ACADMAINTVER
 70
     6
  9
$DWGCODEPAGE
  3
UNDEFINED
  9
$INSBASE
 10
0.0
 20
0.0
 30
0.0
  9
$EXTMIN
 10
1.000000000000000E+20
 20
1.000000000000000E+20
 30
1.000000000000000E+20
  9
$EXTMAX
 10
-1.000000000000000E+20
 20
-1.000000000000000E+20
 30
-1.000000000000000E+20
  9
$LIMMIN
 10
0.0
 20
0.0
  9
$LIMMAX
 10
12.0
 20
9.0
  9
$ORTHOMODE
 70
     0
  9
$REGENMODE
 70
     1
  9
$FILLMODE
 70
     1
  9
$QTEXTMODE
 70
     0
  9
$MIRRTEXT
 70
     1
  9
$LTSCALE
 40
1.0
  9
$ATTMODE
 70
     1
  9
$TEXTSIZE
 40
0.2
  9
$TRACEWID
 40
0.05
  9
$TEXTSTYLE
  7
Standard
  9
$CLAYER
  8
0
  9
$CELTYPE
  6
ByLayer
  9
$CECOLOR
 62
   256
  9
$CELTSCALE
 40
1.0
  9
$DISPSILH
 70
     0
  9
$DIMSCALE
 40
1.0
  9
$DIMASZ
 40
0.18
  9
$DIMEXO
 40
0.0625
  9
$DIMDLI
 40
0.38
  9
$DIMRND
 40
0.0
  9
$DIMDLE
 40
0.0
  9
$DIMEXE
 40
0.18
  9
$DIMTP
 40
0.0
  9
$DIMTM
 40
0.0
  9
$DIMTXT
 40
0.18
  9
$DIMCEN
 40
0.09
  9
$DIMTSZ
 40
0.0
  9
$DIMTOL
 70
     0
  9
$DIMLIM
 70
     0
  9
$DIMTIH
 70
     1
  9
$DIMTOH
 70
     1
  9
$DIMSE1
 70
     0
  9
$DIMSE2
 70
     0
  9
$DIMTAD
 70
     0
  9
$DIMZIN
 70
     0
  9
$DIMBLK
  1

  9
$DIMASO
 70
     1
  9
$DIMSHO
 70
     1
  9
$DIMPOST
  1

  9
$DIMAPOST
  1

  9
$DIMALT
 70
     0
  9
$DIMALTD
 70
     2
  9
$DIMALTF
 40
25.4
  9
$DIMLFAC
 40
1.0
  9
$DIMTOFL
 70
     0
  9
$DIMTVP
 40
0.0
  9
$DIMTIX
 70
     0
  9
$DIMSOXD
 70
     0
  9
$DIMSAH
 70
     0
  9
$DIMBLK1
  1

  9
$DIMBLK2
  1

  9
$DIMSTYLE
  2
Standard
  9
$DIMCLRD
 70
     0
  9
$DIMCLRE
 70
     0
  9
$DIMCLRT
 70
     0
  9
$DIMTFAC
 40
1.0
  9
$DIMGAP
 40
0.09
  9
$DIMJUST
 70
     0
  9
$DIMSD1
 70
     0
  9
$DIMSD2
 70
     0
  9
$DIMTOLJ
 70
     1
  9
$DIMTZIN
 70
     0
  9
$DIMALTZ
 70
     0
  9
$DIMALTTZ
 70
     0
  9
$DIMUPT
 70
     0
  9
$DIMDEC
 70
     4
  9
$DIMTDEC
 70
     4
  9
$DIMALTU
 70
     2
  9
$DIMALTTD
 70
     2
  9
$DIMTXSTY
  7
Standard
  9
$DIMAUNIT
 70
     0
  9
$DIMADEC
 70
     0
  9
$DIMALTRND
 40
0.0
  9
$DIMAZIN
 70
     0
  9
$DIMDSEP
 70
    46
  9
$DIMATFIT
 70
     3
  9
$DIMFRAC
 70
     0
  9
$DIMLDRBLK
  1

  9
$DIMLUNIT
 70
     2
  9
$DIMLWD
 70
    -2
  9
$DIMLWE
 70
    -2
  9
$DIMTMOVE
 70
     0
  9
$DIMFXL
 40
1.0
  9
$DIMFXLON
 70
     0
  9
$DIMJOGANG
 40
0.7853981633974483
  9
$DIMTFILL
 70
     0
  9
$DIMTFILLCLR
 70
     0
  9
$DIMARCSYM
 70
     0
  9
$DIMLTYPE
  6

  9
$DIMLTEX1
  6

  9
$DIMLTEX2
  6

  9
$DIMTXTDIRECTION
 70
     0
  9
$LUNITS
 70
     2
  9
$LUPREC
 70
     4
  9
$SKETCHINC
 40
0.1
  9
$FILLETRAD
 40
0.5
  9
$AUNITS
 70
     0
  9
$AUPREC
 70
     0
  9
$MENU
  1
.
  9
$ELEVATION
 40
0.0
  9
$PELEVATION
 40
0.0
  9
$THICKNESS
 40
0.0
  9
$LIMCHECK
 70
     0
  9
$CHAMFERA
 40
0.5
  9
$CHAMFERB
 40
0.5
  9
$CHAMFERC
 40
1.0
  9
$CHAMFERD
 40
0.0
  9
$SKPOLY
 70
     0
  9
$TDCREATE
 40
2457917.611736111
  9
$TDUCREATE
 40
2457917.236736111
  9
$TDUPDATE
 40
2457917.611736111
  9
$TDUUPDATE
 40
2457917.236736111
  9
$TDINDWG
 40
0.0000000116
  9
$TDUSRTIMER
 40
0.0000000116
  9
$USRTIMER
 70
     1
  9
$ANGBASE
 50
0.0
  9
$ANGDIR
 70
     0
  9
$PDMODE
 70
     0
  9
$PDSIZE
 40
0.0
  9
$PLINEWID
 40
0.0
  9
$SPLFRAME
 70
     0
  9
$SPLINETYPE
 70
     6
  9
$SPLINESEGS
 70
     8
  9
$HANDSEED
  5
1EE
  9
$SURFTAB1
 70
     6
  9
$SURFTAB2
 70
     6
  9
$SURFTYPE
 70
     6
  9
$SURFU
 70
     6
  9
$SURFV
 70
     6
  9
$UCSBASE
  2

  9
$UCSNAME
  2

  9
$UCSORG
 10
0.0
 20
0.0
 30
0.0
  9
$UCSXDIR
 10
1.0
 20
0.0
 30
0.0
  9
$UCSYDIR
 10
0.0
 20
1.0
 30
0.0
  9
$UCSORTHOREF
  2

  9
$UCSORTHOVIEW
 70
     0
  9
$UCSORGTOP
 10
0.0
 20
0.0
 30
0.0
  9
$UCSORGBOTTOM
 10
0.0
 20
0.0
 30
0.0
  9
$UCSORGLEFT
 10
0.0
 20
0.0
 30
0.0
  9
$UCSORGRIGHT
 10
0.0
 20
0.0
 30
0.0
  9
$UCSORGFRONT
 10
0.0
 20
0.0
 30
0.0
  9
$UCSORGBACK
 10
0.0
 20
0.0
 30
0.0
  9
$PUCSBASE
  2

  9
$PUCSNAME
  2

  9
$PUCSORG
 10
0.0
 20
0.0
 30
0.0
  9
$PUCSXDIR
 10
1.0
 20
0.0
 30
0.0
  9
$PUCSYDIR
 10
0.0
 20
1.0
 30
0.0
  9
$PUCSORTHOREF
  2

  9
$PUCSORTHOVIEW
 70
     0
  9
$PUCSORGTOP
 10
0.0
 20
0.0
 30
0.0
  9
$PUCSORGBOTTOM
 10
0.0
 20
0.0
 30
0.0
  9
$PUCSORGLEFT
 10
0.0
 20
0.0
 30
0.0
  9
$PUCSORGRIGHT
 10
0.0
 20
0.0
 30
0.0
  9
$PUCSORGFRONT
 10
0.0
 20
0.0
 30
0.0
  9
$PUCSORGBACK
 10
0.0
 20
0.0
 30
0.0
  9
$USERI1
 70
     0
  9
$USERI2
 70
     0
  9
$USERI3
 70
     0
  9
$USERI4
 70
     0
  9
$USERI5
 70
     0
  9
$USERR1
 40
0.0
  9
$USERR2
 40
0.0
  9
$USERR3
 40
0.0
  9
$USERR4
 40
0.0
  9
$USERR5
 40
0.0
  9
$WORLDVIEW
 70
     1
  9
$SHADEDGE
 70
     3
  9
$SHADEDIF
 70
    70
  9
$TILEMODE
 70
     1
  9
$MAXACTVP
 70
    64
  9
$PINSBASE
 10
0.0
 20
0.0
 30
0.0
  9
$PLIMCHECK
 70
     0
  9
$PEXTMIN
 10
1.000000000000000E+20
 20
1.000000000000000E+20
 30
1.000000000000000E+20
  9
$PEXTMAX
 10
-1.000000000000000E+20
 20
-1.000000000000000E+20
 30
-1.000000000000000E+20
  9
$PLIMMIN
 10
0.0
 20
0.0
  9
$PLIMMAX
 10
12.0
 20
9.0
  9
$UNITMODE
 70
     0
  9
$VISRETAIN
 70
     1
  9
$PLINEGEN
 70
     0
  9
$PSLTSCALE
 70
     1
  9
$TREEDEPTH
 70
  3020
  9
$CMLSTYLE
  2
Standard
  9
$CMLJUST
 70
     0
  9
$CMLSCALE
 40
1.0
  9
$PROXYGRAPHICS
 70
     1
  9
$MEASUREMENT
 70
     0
  9
$CELWEIGHT
370
    -1
  9
$ENDCAPS
280
     0
  9
$JOINSTYLE
280
     0
  9
$LWDISPLAY
290
     1
  9
$INSUNITS
 70
     1
  9
$HYPERLINKBASE
  1

  9
$STYLESHEET
  1

  9
$XEDIT
290
     1
  9
$CEPSNTYPE
380
     0
  9
$PSTYLEMODE
290
     1
  9
$FINGERPRINTGUID
  2
{A51FB73E-3497-4823-5786-F81CDAC174B7}
  9
$VERSIONGUID
  2
{FAEB1C32-E019-11D5-929B-00C0DF256EC4}
  9
$EXTNAMES
290
     1
  9
$PSVPSCALE
 40
0.0
  9
$OLESTARTUP
290
     0
  9
$SORTENTS
280
   127
  9
$INDEXCTL
280
     0
  9
$HIDETEXT
280
     1
  9
$XCLIPFRAME
280
     2
  9
$HALOGAP
280
     0
  9
$OBSCOLOR
 70
   257
  9
$OBSLTYPE
280
     0
  9
$INTERSECTIONDISPLAY
280
     0
  9
$INTERSECTIONCOLOR
 70
   257
  9
$DIMASSOC
280
     2
  9
$PROJECTNAME
  1

  9
$CAMERADISPLAY
290
     0
  9
$LENSLENGTH
 40
50.0
  9
$CAMERAHEIGHT
 40
0.0
  9
$STEPSPERSEC
 40
2.0
  9
$STEPSIZE
 40
6.0
  9
$3DDWFPREC
 40
2.0
  9
$PSOLWIDTH
 40
0.25
  9
$PSOLHEIGHT
 40
4.0
  9
$LOFTANG1
 40
1.570796326794897
  9
$LOFTANG2
 40
1.570796326794897
  9
$LOFTMAG1
 40
0.0
  9
$LOFTMAG2
 40
0.0
  9
$LOFTPARAM
 70
     7
  9
$LOFTNORMALS
280
     1
  9
$LATITUDE
 40
37.795
  9
$LONGITUDE
 40
-122.394
  9
$NORTHDIRECTION
 40
0.0
  9
$TIMEZONE
 70
 -8000
  9
$LIGHTGLYPHDISPLAY
280
     1
  9
$TILEMODELIGHTSYNCH
280
     1
  9
$CMATERIAL
347
3C
  9
$SOLIDHIST
280
     1
  9
$SHOWHIST
280
     1
  9
$DWFFRAME
280
     2
  9
$DGNFRAME
280
     2
  9
$REALWORLDSCALE
290
     1
  9
$INTERFERECOLOR
 62
   256
  9
$CSHADOW
280
     0
  9
$SHADOWPLANELOCATION
 40
0.0
  0
ENDSEC
  0
SECTION
  2
CLASSES
  0
CLASS
  1
ACDBDICTIONARYWDFLT
  2
AcDbDictionaryWithDefault
  3
ObjectDBX Classes
 90
        0
 91
        4
280
     0
281
     0
  0
CLASS
  1
VISUALSTYLE
  2
AcDbVisualStyle
  3
ObjectDBX Classes
 90
     4095
 91
        4
280
     0
281
     0
  0
CLASS
  1
MATERIAL
  2
AcDbMaterial
  3
ObjectDBX Classes
 90
     1153
 91
        4
280
     0
281
     0
  0
CLASS
  1
SUN
  2
AcDbSun
  3
SCENEOE
 90
     1024
 91
        4
280
     0
281
     0
  0
ENDSEC
  0
SECTION
  2
TABLES
  0
TABLE
  2
VPORT
  5
8
330
0
100
AcDbSymbolTable
 70
     1
  0
VPORT
  5
29
330
8
100
AcDbSymbolTableRecord
100
AcDbViewportTableRecord
  2
*Active
 70
     0
 10
0.0
 20
0.0
 11
1.0
 21
1.0
 12
0.0
 22
0.0
 13
0.0
 23
0.0
 14
0.5
 24
0.5
 15
0.5
 25
0.5
 16
0.0
 26
0.0
 36
1.0
 17
91.00082462281999
 27
-128.4993055234307
 37
0.0
 40
256.9986110468615
 41
0.7081814508812795
 42
50.0
 43
0.0
 44
0.0
 50
0.0
 51
0.0
 71
     0
 72
   100
 73
     1
 74
     3
 75
     0
 76
     0
 77
     0
 78
     0
281
     0
 65
     1
110
0.0
120
0.0
130
0.0
111
1.0
121
0.0
131
0.0
112
0.0
122
1.0
132
0.0
 79
     0
146
0.0
 60
     3
 61
     5
292
     1
282
     1
141
0.0
142
0.0
 63
   250
361
3F
  0
ENDTAB
  0
TABLE
  2
LTYPE
  5
5
330
0
100
AcDbSymbolTable
 70
     1
  0
LTYPE
  5
14
330
5
100
AcDbSymbolTableRecord
100
AcDbLinetypeTableRecord
  2
ByBlock
 70
     0
  3

 72
    65
 73
     0
 40
0.0
  0
LTYPE
  5
15
330
5
100
AcDbSymbolTableRecord
100
AcDbLinetypeTableRecord
  2
ByLayer
 70
     0
  3

 72
    65
 73
     0
 40
0.0
  0
LTYPE
  5
16
330
5
100
AcDbSymbolTableRecord
100
AcDbLinetypeTableRecord
  2
Continuous
 70
     0
  3
Solid line
 72
    65
 73
     0
 40
0.0
  0
ENDTAB
  0
TABLE
  2
LAYER
  5
2
330
0
100
AcDbSymbolTable
 70
     2
  0
LAYER
  5
10
330
2
100
AcDbSymbolTableRecord
100
AcDbLayerTableRecord
  2
0
 70
     0
 62
     7
  6
Continuous
370
    -3
390
F
347
3E
  0
LAYER
  5
40
330
2
100
AcDbSymbolTableRecord
100
AcDbLayerTableRecord
  2
_U+30EC_U+30A4_U+30E4_U+30FC 1
 70
     0
 62
     7
  6
Continuous
370
    -3
390
F
347
3E
  0
ENDTAB
  0
TABLE
  2
STYLE
  5
3
330
0
100
AcDbSymbolTable
 70
     1
  0
STYLE
  5
11
330
3
100
AcDbSymbolTableRecord
100
AcDbTextStyleTableRecord
  2
Standard
 70
     0
 40
0.0
 41
1.0
 50
0.0
 71
     0
 42
0.2
  3
txt
  4

  0
ENDTAB
  0
TABLE
  2
VIEW
  5
6
330
0
100
AcDbSymbolTable
 70
     0
  0
ENDTAB
  0
TABLE
  2
UCS
  5
7
330
0
100
AcDbSymbolTable
 70
     0
  0
ENDTAB
  0
TABLE
  2
APPID
  5
9
330
0
100
AcDbSymbolTable
 70
     1
  0
APPID
  5
12
330
9
100
AcDbSymbolTableRecord
100
AcDbRegAppTableRecord
  2
ACAD
 70
     0
  0
ENDTAB
  0
TABLE
  2
DIMSTYLE
  5
A
330
0
100
AcDbSymbolTable
 70
     1
100
AcDbDimStyleTable
  0
DIMSTYLE
105
27
330
A
100
AcDbSymbolTableRecord
100
AcDbDimStyleTableRecord
  2
Standard
 70
     0
178
     0
340
11
  0
ENDTAB
  0
TABLE
  2
BLOCK_RECORD
  5
1
330
0
100
AcDbSymbolTable
 70
    15
  0
BLOCK_RECORD
  5
1F
330
1
100
AcDbSymbolTableRecord
100
AcDbBlockTableRecord
  2
*Model_Space
340
22
 70
     0
280
     1
281
     0
  0
BLOCK_RECORD
  5
1B
330
1
100
AcDbSymbolTableRecord
100
AcDbBlockTableRecord
  2
*Paper_Space
340
1E
 70
     0
280
     1
281
     0
  0
BLOCK_RECORD
  5
23
330
1
100
AcDbSymbolTableRecord
100
AcDbBlockTableRecord
  2
*Paper_Space0
340
26
 70
     0
280
     1
281
     0
  0
BLOCK_RECORD
  5
41
330
1
100
AcDbSymbolTableRecord
100
AcDbBlockTableRecord
  2
block 2
340
0
102
{BLKREFS
331
42
102
}
 70
     0
280
     1
281
     0
  0
BLOCK_RECORD
  5
4C
330
1
100
AcDbSymbolTableRecord
100
AcDbBlockTableRecord
  2
block 3
340
0
102
{BLKREFS
331
4D
102
}
 70
     0
280
     1
281
     0
  0
BLOCK_RECORD
  5
79
330
1
100
AcDbSymbolTableRecord
100
AcDbBlockTableRecord
  2
block 4
340
0
102
{BLKREFS
331
7A
102
}
 70
     0
280
     1
281
     0
  0
BLOCK_RECORD
  5
7D
330
1
100
AcDbSymbolTableRecord
100
AcDbBlockTableRecord
  2
block 5
340
0
102
{BLKREFS
331
7E
102
}
 70
     0
280
     1
281
     0
  0
BLOCK_RECORD
  5
F9
330
1
100
AcDbSymbolTableRecord
100
AcDbBlockTableRecord
  2
block 6
340
0
102
{BLKREFS
331
FA
102
}
 70
     0
280
     1
281
     0
  0
BLOCK_RECORD
  5
109
330
1
100
AcDbSymbolTableRecord
100
AcDbBlockTableRecord
  2
block 7
340
0
102
{BLKREFS
331
10A
102
}
 70
     0
280
     1
281
     0
  0
BLOCK_RECORD
  5
1AC
330
1
100
AcDbSymbolTableRecord
100
AcDbBlockTableRecord
  2
block 8
340
0
102
{BLKREFS
331
1AD
102
}
 70
     0
280
     1
281
     0
  0
BLOCK_RECORD
  5
1B3
330
1
100
AcDbSymbolTableRecord
100
AcDbBlockTableRecord
  2
block 9
340
0
102
{BLKREFS
331
1B4
102
}
 70
     0
280
     1
281
     0
  0
BLOCK_RECORD
  5
1BA
330
1
100
AcDbSymbolTableRecord
100
AcDbBlockTableRecord
  2
block 10
340
0
102
{BLKREFS
331
1BB
102
}
 70
     0
280
     1
281
     0
  0
BLOCK_RECORD
  5
1C3
330
1
100
AcDbSymbolTableRecord
100
AcDbBlockTableRecord
  2
block 11
340
0
102
{BLKREFS
331
1C4
102
}
 70
     0
280
     1
281
     0
  0
BLOCK_RECORD
  5
1CC
330
1
100
AcDbSymbolTableRecord
100
AcDbBlockTableRecord
  2
block 12
340
0
102
{BLKREFS
331
1CD
102
}
 70
     0
280
     1
281
     0
  0
BLOCK_RECORD
  5
1D5
330
1
100
AcDbSymbolTableRecord
100
AcDbBlockTableRecord
  2
block 13
340
0
102
{BLKREFS
331
1D6
102
}
 70
     0
280
     1
281
     0
  0
BLOCK_RECORD
  5
1DE
330
1
100
AcDbSymbolTableRecord
100
AcDbBlockTableRecord
  2
block 14
340
0
102
{BLKREFS
331
1DF
102
}
 70
     0
280
     1
281
     0
  0
BLOCK_RECORD
  5
1E5
330
1
100
AcDbSymbolTableRecord
100
AcDbBlockTableRecord
  2
block 15
340
0
102
{BLKREFS
331
1E6
102
}
 70
     0
280
     1
281
     0
  0
ENDTAB
  0
ENDSEC
  0
SECTION
  2
BLOCKS
  0
BLOCK
  5
20
330
1F
100
AcDbEntity
  8
0
100
AcDbBlockBegin
  2
*Model_Space
 70
     0
 10
0.0
 20
0.0
 30
0.0
  3
*Model_Space
  1

  0
ENDBLK
  5
21
330
1F
100
AcDbEntity
  8
0
100
AcDbBlockEnd
  0
BLOCK
  5
1C
330
1B
100
AcDbEntity
 67
     1
  8
0
100
AcDbBlockBegin
  2
*Paper_Space
 70
     0
 10
0.0
 20
0.0
 30
0.0
  3
*Paper_Space
  1

  0
ENDBLK
  5
1D
330
1B
100
AcDbEntity
 67
     1
  8
0
100
AcDbBlockEnd
  0
BLOCK
  5
24
330
23
100
AcDbEntity
  8
0
100
AcDbBlockBegin
  2
*Paper_Space0
 70
     0
 10
0.0
 20
0.0
 30
0.0
  3
*Paper_Space0
  1

  0
ENDBLK
  5
25
330
23
100
AcDbEntity
  8
0
100
AcDbBlockEnd
  0
BLOCK
  5
43
330
41
100
AcDbEntity
  8
0
100
AcDbBlockBegin
  2
block 2
 70
     0
 10
0.0
 20
0.0
 30
0.0
  3
block 2
  1

  0
POLYLINE
  5
45
330
41
100
AcDbEntity
  8
_U+30EC_U+30A4_U+30E4_U+30FC 1
 62
   179
420
  2234388
370
    18
100
AcDb2dPolyline
 66
     1
 10
0.0
 20
0.0
 30
0.0
  0
VERTEX
  5
46
330
45
100
AcDbEntity
  8
_U+30EC_U+30A4_U+30E4_U+30FC 1
 62
   179
420
  2234388
370
    18
100
AcDbVertex
100
AcDb2dVertex
 10
104.0801309558058
 20
-137.1447599657135
 30
0.0
  0
VERTEX
  5
47
330
45
100
AcDbEntity
  8
_U+30EC_U+30A4_U+30E4_U+30FC 1
 62
   179
420
  2234388
370
    18
100
AcDbVertex
100
AcDb2dVertex
 10
93.07992040311117
 20
-137.1447599657135
 30
0.0
  0
VERTEX
  5
48
330
45
100
AcDbEntity
  8
_U+30EC_U+30A4_U+30E4_U+30FC 1
 62
   179
420
  2234388
370
    18
100
AcDbVertex
100
AcDb2dVertex
 10
93.07992040311117
 20
-133.1450008000473
 30
0.0
  0
VERTEX
  5
49
330
45
100
AcDbEntity
  8
_U+30EC_U+30A4_U+30E4_U+30FC 1
 62
   179
420
  2234388
370
    18
100
AcDbVertex
100
AcDb2dVertex
 10
104.0801309558058
 20
-133.1450008000473
 30
0.0
  0
VERTEX
  5
4A
330
45
100
AcDbEntity
  8
_U+30EC_U+30A4_U+30E4_U+30FC 1
 62
   179
420
  2234388
370
    18
100
AcDbVertex
100
AcDb2dVertex
 10
104.0801309558058
 20
-137.1447599657135
 30
0.0
  0
SEQEND
  5
4B
330
45
100
AcDbEntity
  8
_U+30EC_U+30A4_U+30E4_U+30FC 1
 62
   179
420
  2234388
370
    18
  0
INSERT
  5
4D
330
41
100
AcDbEntity
  8
_U+30EC_U+30A4_U+30E4_U+30FC 1
100
AcDbBlockReference
  2
block 3
 10
0.0
 20
0.0
 30
0.0
  0
ENDBLK
  5
44
330
41
100
AcDbEntity
  8
0
100
AcDbBlockEnd
  0
BLOCK
  5
4E
330
4C
100
AcDbEntity
  8
0
100
AcDbBlockBegin
  2
block 3
 70
     0
 10
0.0
 20
0.0
 30
0.0
  3
block 3
  1

  0
SPLINE
  5
50
330
4C
100
AcDbEntity
  8
_U+30EC_U+30A4_U+30E4_U+30FC 1
370
     0
100
AcDbSpline
210
0.0
220
0.0
230
1.0
 70
    11
 71
     3
 72
    41
 73
    37
 74
     0
 42
0.0000000001
 43
0.0000000001
 12
1.0
 22
0.0
 32
0.0
 13
1.0
 23
0.0
 33
0.0
 40
0.0
 40
0.0
 40
0.0
 40
0.0
 40
1.0
 40
1.0
 40
1.0
 40
2.0
 40
2.0
 40
2.0
 40
3.0
 40
3.0
 40
3.0
 40
4.0
 40
4.0
 40
4.0
 40
5.0
 40
5.0
 40
5.0
 40
6.0
 40
6.0
 40
6.0
 40
7.0
 40
7.0
 40
7.0
 40
8.0
 40
8.0
 40
8.0
 40
9.0
 40
9.0
 40
9.0
 40
10.0
 40
10.0
 40
10.0
 40
11.0
 40
11.0
 40
11.0
 40
12.0
 40
12.0
 40
12.0
 40
12.0
 10
94.35737573595927
 20
-136.1680880735969
 30
0.0
 10
94.41456432101442
 20
-135.7553656344639
 30
0.0
 10
94.55719127410376
 20
-135.507318759526
 30
0.0
 10
95.08153480695879
 20
-135.1231906129206
 30
0.0
 10
95.42122122180442
 20
-134.8754882475311
 30
0.0
 10
95.52285153861929
 20
-134.7483642241254
 30
0.0
 10
95.52285153861929
 20
-134.5451035904957
 30
0.0
 10
95.52285153861929
 20
-134.3259955176338
 30
0.0
 10
95.37023380862273
 20
-134.1609754438903
 30
0.0
 10
95.16077200311953
 20
-134.1609754438903
 30
0.0
 10
94.84003361344277
 20
-134.1609754438903
 30
0.0
 10
94.83038734608408
 20
-134.4944606868625
 30
0.0
 10
94.82728676014735
 20
-134.6660264420279
 30
0.0
 10
94.82728676014735
 20
-134.6660264420279
 30
0.0
 10
94.42386607882459
 20
-134.6660264420279
 30
0.0
 10
94.42386607882459
 20
-134.6660264420279
 30
0.0
 10
94.43041176024657
 20
-134.459320712913
 30
0.0
 10
94.4555609572889
 20
-133.8081976662007
 30
0.0
 10
95.17351885641496
 20
-133.8081976662007
 30
0.0
 10
95.649975562025
 20
-133.8081976662007
 30
0.0
 10
95.95796709840634
 20
-134.1385823232362
 30
0.0
 10
95.95796709840634
 20
-134.5451035904957
 30
0.0
 10
95.95796709840634
 20
-134.9168293933541
 30
0.0
 10
95.69441729378474
 20
-135.1262911988573
 30
0.0
 10
95.39262692927684
 20
-135.336097513909
 30
0.0
 10
95.08153480695879
 20
-135.5521050008342
 30
0.0
 10
95.00195310124951
 20
-135.6409884643537
 30
0.0
 10
94.90342337037137
 20
-135.8346028306247
 30
0.0
 10
94.90342337037137
 20
-135.8346028306247
 30
0.0
 10
95.97691512357522
 20
-135.8346028306247
 30
0.0
 10
95.97691512357522
 20
-135.8346028306247
 30
0.0
 10
95.97691512357522
 20
-135.8346028306247
 30
0.0
 10
95.97691512357522
 20
-136.1680880735969
 30
0.0
 10
95.97691512357522
 20
-136.1680880735969
 30
0.0
 10
95.97691512357522
 20
-136.1680880735969
 30
0.0
 10
94.35737573595927
 20
-136.1680880735969
 30
0.0
 10
94.35737573595927
 20
-136.1680880735969
 30
0.0
  0
HATCH
  5
51
330
4C
100
AcDbEntity
  8
_U+30EC_U+30A4_U+30E4_U+30FC 1
 62
   179
420
  2234388
100
AcDbHatch
 10
0.0
 20
0.0
 30
0.0
210
0.0
220
0.0
230
1.0
  2
SOLID
 70
     1
 71
     0
 91
        1
 92
        1
 93
        1
 72
     4
 94
        3
 73
     0
 74
     1
 95
       41
 96
       37
 40
0.0
 40
0.0
 40
0.0
 40
0.0
 40
1.0
 40
1.0
 40
1.0
 40
2.0
 40
2.0
 40
2.0
 40
3.0
 40
3.0
 40
3.0
 40
4.0
 40
4.0
 40
4.0
 40
5.0
 40
5.0
 40
5.0
 40
6.0
 40
6.0
 40
6.0
 40
7.0
 40
7.0
 40
7.0
 40
8.0
 40
8.0
 40
8.0
 40
9.0
 40
9.0
 40
9.0
 40
10.0
 40
10.0
 40
10.0
 40
11.0
 40
11.0
 40
11.0
 40
12.0
 40
12.0
 40
12.0
 40
12.0
 10
94.35737573595927
 20
-136.1680880735969
 10
94.41456432101442
 20
-135.7553656344639
 10
94.55719127410376
 20
-135.507318759526
 10
95.08153480695879
 20
-135.1231906129206
 10
95.42122122180442
 20
-134.8754882475311
 10
95.52285153861929
 20
-134.7483642241254
 10
95.52285153861929
 20
-134.5451035904957
 10
95.52285153861929
 20
-134.3259955176338
 10
95.37023380862273
 20
-134.1609754438903
 10
95.16077200311953
 20
-134.1609754438903
 10
94.84003361344277
 20
-134.1609754438903
 10
94.83038734608408
 20
-134.4944606868625
 10
94.82728676014735
 20
-134.6660264420279
 10
94.82728676014735
 20
-134.6660264420279
 10
94.42386607882459
 20
-134.6660264420279
 10
94.42386607882459
 20
-134.6660264420279
 10
94.43041176024657
 20
-134.459320712913
 10
94.4555609572889
 20
-133.8081976662007
 10
95.17351885641496
 20
-133.8081976662007
 10
95.649975562025
 20
-133.8081976662007
 10
95.95796709840634
 20
-134.1385823232362
 10
95.95796709840634
 20
-134.5451035904957
 10
95.95796709840634
 20
-134.9168293933541
 10
95.69441729378474
 20
-135.1262911988573
 10
95.39262692927684
 20
-135.336097513909
 10
95.08153480695879
 20
-135.5521050008342
 10
95.00195310124951
 20
-135.6409884643537
 10
94.90342337037137
 20
-135.8346028306247
 10
94.90342337037137
 20
-135.8346028306247
 10
95.97691512357522
 20
-135.8346028306247
 10
95.97691512357522
 20
-135.8346028306247
 10
95.97691512357522
 20
-135.8346028306247
 10
95.97691512357522
 20
-136.1680880735969
 10
95.97691512357522
 20
-136.1680880735969
 10
95.97691512357522
 20
-136.1680880735969
 10
94.35737573595927
 20
-136.1680880735969
 10
94.35737573595927
 20
-136.1680880735969
 97
        0
 97
        0
 75
     2
 76
     1
 98
        0
  0
SPLINE
  5
52
330
4C
100
AcDbEntity
  8
_U+30EC_U+30A4_U+30E4_U+30FC 1
370
     0
100
AcDbSpline
210
0.0
220
0.0
230
1.0
 70
    11
 71
     3
 72
    29
 73
    25
 74
     0
 42
0.0000000001
 43
0.0000000001
 12
1.0
 22
0.0
 32
0.0
 13
1.0
 23
0.0
 33
0.0
 40
0.0
 40
0.0
 40
0.0
 40
0.0
 40
1.0
 40
1.0
 40
1.0
 40
2.0
 40
2.0
 40
2.0
 40
3.0
 40
3.0
 40
3.0
 40
4.0
 40
4.0
 40
4.0
 40
5.0
 40
5.0
 40
5.0
 40
6.0
 40
6.0
 40
6.0
 40
7.0
 40
7.0
 40
7.0
 40
8.0
 40
8.0
 40
8.0
 40
8.0
 10
97.09105900350502
 20
-136.2125298053566
 30
0.0
 10
96.57016056613524
 20
-136.2156303912933
 30
0.0
 10
96.28456215040804
 20
-135.8886908297431
 30
0.0
 10
96.28456215040804
 20
-135.4980170017158
 30
0.0
 10
96.28456215040804
 20
-135.1421386380895
 30
0.0
 10
96.52261824843879
 20
-134.9867648317047
 30
0.0
 10
96.65284285778124
 20
-134.9040825400587
 30
0.0
 10
96.37344561392747
 20
-134.7800591025897
 30
0.0
 10
96.35105249327336
 20
-134.5358018326855
 30
0.0
 10
96.35105249327336
 20
-134.4276258344487
 30
0.0
 10
96.35105249327336
 20
-134.1068874447719
 30
0.0
 10
96.61150171195824
 20
-133.8081976662007
 30
0.0
 10
97.09105900350502
 20
-133.8081976662007
 30
0.0
 10
97.56751570911507
 20
-133.8081976662007
 30
0.0
 10
97.82796492779995
 20
-134.1068874447719
 30
0.0
 10
97.82796492779995
 20
-134.4276258344487
 30
0.0
 10
97.82796492779995
 20
-134.5420030045589
 30
0.0
 10
97.80591631669436
 20
-134.7800591025897
 30
0.0
 10
97.52617456329207
 20
-134.9040825400587
 30
0.0
 10
97.65984426811977
 20
-134.9867648317047
 30
0.0
 10
97.89790036615052
 20
-135.1421386380895
 30
0.0
 10
97.89790036615052
 20
-135.4980170017158
 30
0.0
 10
97.89790036615052
 20
-135.8886908297431
 30
0.0
 10
97.60885685493807
 20
-136.2125298053566
 30
0.0
 10
97.09105900350502
 20
-136.2125298053566
 30
0.0
  0
SPLINE
  5
53
330
4C
100
AcDbEntity
  8
_U+30EC_U+30A4_U+30E4_U+30FC 1
370
     0
100
AcDbSpline
210
0.0
220
0.0
230
1.0
 70
    11
 71
     3
 72
    17
 73
    13
 74
     0
 42
0.0000000001
 43
0.0000000001
 12
1.0
 22
0.0
 32
0.0
 13
1.0
 23
0.0
 33
0.0
 40
0.0
 40
0.0
 40
0.0
 40
0.0
 40
1.0
 40
1.0
 40
1.0
 40
2.0
 40
2.0
 40
2.0
 40
3.0
 40
3.0
 40
3.0
 40
4.0
 40
4.0
 40
4.0
 40
4.0
 10
97.09105900350502
 20
-135.1007974922665
 30
0.0
 10
96.80201549229255
 20
-135.1007974922665
 30
0.0
 10
96.71313202877312
 20
-135.3326524184238
 30
0.0
 10
96.71313202877312
 20
-135.4852701484204
 30
0.0
 10
96.71313202877312
 20
-135.666137661396
 30
0.0
 10
96.83060978482013
 20
-135.8693982950257
 30
0.0
 10
97.09105900350502
 20
-135.8693982950257
 30
0.0
 10
97.34840763625319
 20
-135.8693982950257
 30
0.0
 10
97.46898597823693
 20
-135.666137661396
 30
0.0
 10
97.46898597823693
 20
-135.4852701484204
 30
0.0
 10
97.46898597823693
 20
-135.3326524184238
 30
0.0
 10
97.37700192878076
 20
-135.1007974922665
 30
0.0
 10
97.09105900350502
 20
-135.1007974922665
 30
0.0
  0
SPLINE
  5
54
330
4C
100
AcDbEntity
  8
_U+30EC_U+30A4_U+30E4_U+30FC 1
370
     0
100
AcDbSpline
210
0.0
220
0.0
230
1.0
 70
    11
 71
     3
 72
    17
 73
    13
 74
     0
 42
0.0000000001
 43
0.0000000001
 12
1.0
 22
0.0
 32
0.0
 13
1.0
 23
0.0
 33
0.0
 40
0.0
 40
0.0
 40
0.0
 40
0.0
 40
1.0
 40
1.0
 40
1.0
 40
2.0
 40
2.0
 40
2.0
 40
3.0
 40
3.0
 40
3.0
 40
4.0
 40
4.0
 40
4.0
 40
4.0
 10
97.09105900350502
 20
-134.1671766157638
 30
0.0
 10
96.8784966120651
 20
-134.1671766157638
 30
0.0
 10
96.77032061382826
 20
-134.322894931697
 30
0.0
 10
96.77032061382826
 20
-134.4817138335671
 30
0.0
 10
96.77032061382826
 20
-134.6308864680784
 30
0.0
 10
96.8592040773477
 20
-134.7928059558851
 30
0.0
 10
97.09105900350502
 20
-134.7928059558851
 30
0.0
 10
97.31981334372561
 20
-134.7928059558851
 30
0.0
 10
97.40869680724505
 20
-134.6308864680784
 30
0.0
 10
97.40869680724505
 20
-134.4817138335671
 30
0.0
 10
97.40869680724505
 20
-134.322894931697
 30
0.0
 10
97.30396590449345
 20
-134.1671766157638
 30
0.0
 10
97.09105900350502
 20
-134.1671766157638
 30
0.0
  0
HATCH
  5
55
330
4C
100
AcDbEntity
  8
_U+30EC_U+30A4_U+30E4_U+30FC 1
 62
   179
420
  2234388
100
AcDbHatch
 10
0.0
 20
0.0
 30
0.0
210
0.0
220
0.0
230
1.0
  2
SOLID
 70
     1
 71
     0
 91
        3
 92
        1
 93
        1
 72
     4
 94
        3
 73
     0
 74
     1
 95
       29
 96
       25
 40
0.0
 40
0.0
 40
0.0
 40
0.0
 40
1.0
 40
1.0
 40
1.0
 40
2.0
 40
2.0
 40
2.0
 40
3.0
 40
3.0
 40
3.0
 40
4.0
 40
4.0
 40
4.0
 40
5.0
 40
5.0
 40
5.0
 40
6.0
 40
6.0
 40
6.0
 40
7.0
 40
7.0
 40
7.0
 40
8.0
 40
8.0
 40
8.0
 40
8.0
 10
97.09105900350502
 20
-136.2125298053566
 10
96.57016056613524
 20
-136.2156303912933
 10
96.28456215040804
 20
-135.8886908297431
 10
96.28456215040804
 20
-135.4980170017158
 10
96.28456215040804
 20
-135.1421386380895
 10
96.52261824843879
 20
-134.9867648317047
 10
96.65284285778124
 20
-134.9040825400587
 10
96.37344561392747
 20
-134.7800591025897
 10
96.35105249327336
 20
-134.5358018326855
 10
96.35105249327336
 20
-134.4276258344487
 10
96.35105249327336
 20
-134.1068874447719
 10
96.61150171195824
 20
-133.8081976662007
 10
97.09105900350502
 20
-133.8081976662007
 10
97.56751570911507
 20
-133.8081976662007
 10
97.82796492779995
 20
-134.1068874447719
 10
97.82796492779995
 20
-134.4276258344487
 10
97.82796492779995
 20
-134.5420030045589
 10
97.80591631669436
 20
-134.7800591025897
 10
97.52617456329207
 20
-134.9040825400587
 10
97.65984426811977
 20
-134.9867648317047
 10
97.89790036615052
 20
-135.1421386380895
 10
97.89790036615052
 20
-135.4980170017158
 10
97.89790036615052
 20
-135.8886908297431
 10
97.60885685493807
 20
-136.2125298053566
 10
97.09105900350502
 20
-136.2125298053566
 97
        0
 97
        0
 92
        1
 93
        1
 72
     4
 94
        3
 73
     0
 74
     1
 95
       17
 96
       13
 40
0.0
 40
0.0
 40
0.0
 40
0.0
 40
1.0
 40
1.0
 40
1.0
 40
2.0
 40
2.0
 40
2.0
 40
3.0
 40
3.0
 40
3.0
 40
4.0
 40
4.0
 40
4.0
 40
4.0
 10
97.09105900350502
 20
-135.1007974922665
 10
96.80201549229255
 20
-135.1007974922665
 10
96.71313202877312
 20
-135.3326524184238
 10
96.71313202877312
 20
-135.4852701484204
 10
96.71313202877312
 20
-135.666137661396
 10
96.83060978482013
 20
-135.8693982950257
 10
97.09105900350502
 20
-135.8693982950257
 10
97.34840763625319
 20
-135.8693982950257
 10
97.46898597823693
 20
-135.666137661396
 10
97.46898597823693
 20
-135.4852701484204
 10
97.46898597823693
 20
-135.3326524184238
 10
97.37700192878076
 20
-135.1007974922665
 10
97.09105900350502
 20
-135.1007974922665
 97
        0
 97
        0
 92
        1
 93
        1
 72
     4
 94
        3
 73
     0
 74
     1
 95
       17
 96
       13
 40
0.0
 40
0.0
 40
0.0
 40
0.0
 40
1.0
 40
1.0
 40
1.0
 40
2.0
 40
2.0
 40
2.0
 40
3.0
 40
3.0
 40
3.0
 40
4.0
 40
4.0
 40
4.0
 40
4.0
 10
97.09105900350502
 20
-134.1671766157638
 10
96.8784966120651
 20
-134.1671766157638
 10
96.77032061382826
 20
-134.322894931697
 10
96.77032061382826
 20
-134.4817138335671
 10
96.77032061382826
 20
-134.6308864680784
 10
96.8592040773477
 20
-134.7928059558851
 10
97.09105900350502
 20
-134.7928059558851
 10
97.31981334372561
 20
-134.7928059558851
 10
97.40869680724505
 20
-134.6308864680784
 10
97.40869680724505
 20
-134.4817138335671
 10
97.40869680724505
 20
-134.322894931697
 10
97.30396590449345
 20
-134.1671766157638
 10
97.09105900350502
 20
-134.1671766157638
 97
        0
 97
        0
 75
     2
 76
     1
 98
        0
  0
POLYLINE
  5
56
330
4C
100
AcDbEntity
  8
_U+30EC_U+30A4_U+30E4_U+30FC 1
370
     0
100
AcDb2dPolyline
 66
     1
 10
0.0
 20
0.0
 30
0.0
  0
VERTEX
  5
57
330
56
100
AcDbEntity
  8
_U+30EC_U+30A4_U+30E4_U+30FC 1
370
     0
100
AcDbVertex
100
AcDb2dVertex
 10
98.2337971759624
 20
-135.5011175876525
 30
0.0
  0
VERTEX
  5
58
330
56
100
AcDbEntity
  8
_U+30EC_U+30A4_U+30E4_U+30FC 1
370
     0
100
AcDbVertex
100
AcDb2dVertex
 10
98.2337971759624
 20
-135.1262911988573
 30
0.0
  0
VERTEX
  5
59
330
56
100
AcDbEntity
  8
_U+30EC_U+30A4_U+30E4_U+30FC 1
370
     0
100
AcDbVertex
100
AcDb2dVertex
 10
99.02789168531248
 20
-135.1262911988573
 30
0.0
  0
VERTEX
  5
5A
330
56
100
AcDbEntity
  8
_U+30EC_U+30A4_U+30E4_U+30FC 1
370
     0
100
AcDbVertex
100
AcDb2dVertex
 10
99.02789168531248
 20
-135.5011175876525
 30
0.0
  0
VERTEX
  5
5B
330
56
100
AcDbEntity
  8
_U+30EC_U+30A4_U+30E4_U+30FC 1
370
     0
100
AcDbVertex
100
AcDb2dVertex
 10
98.2337971759624
 20
-135.5011175876525
 30
0.0
  0
SEQEND
  5
5C
330
56
100
AcDbEntity
  8
_U+30EC_U+30A4_U+30E4_U+30FC 1
370
     0
  0
HATCH
  5
5D
330
4C
100
AcDbEntity
  8
_U+30EC_U+30A4_U+30E4_U+30FC 1
 62
   179
420
  2234388
100
AcDbHatch
 10
0.0
 20
0.0
 30
0.0
210
0.0
220
0.0
230
1.0
  2
SOLID
 70
     1
 71
     0
 91
        1
 92
        1
 93
        4
 72
     1
 10
98.2337971759624
 20
-135.5011175876525
 11
98.2337971759624
 21
-135.1262911988573
 72
     1
 10
98.2337971759624
 20
-135.1262911988573
 11
99.02789168531248
 21
-135.1262911988573
 72
     1
 10
99.02789168531248
 20
-135.1262911988573
 11
99.02789168531248
 21
-135.5011175876525
 72
     1
 10
99.02789168531248
 20
-135.5011175876525
 11
98.2337971759624
 21
-135.5011175876525
 97
        0
 75
     2
 76
     1
 98
        0
  0
POLYLINE
  5
5E
330
4C
100
AcDbEntity
  8
_U+30EC_U+30A4_U+30E4_U+30FC 1
370
     0
100
AcDb2dPolyline
 66
     1
 10
0.0
 20
0.0
 30
0.0
  0
VERTEX
  5
5F
330
5E
100
AcDbEntity
  8
_U+30EC_U+30A4_U+30E4_U+30FC 1
370
     0
100
AcDbVertex
100
AcDb2dVertex
 10
100.710820829857
 20
-135.6726833428179
 30
0.0
  0
VERTEX
  5
60
330
5E
100
AcDbEntity
  8
_U+30EC_U+30A4_U+30E4_U+30FC 1
370
     0
100
AcDbVertex
100
AcDb2dVertex
 10
100.710820829857
 20
-136.1680880735969
 30
0.0
  0
VERTEX
  5
61
330
5E
100
AcDbEntity
  8
_U+30EC_U+30A4_U+30E4_U+30FC 1
370
     0
100
AcDbVertex
100
AcDb2dVertex
 10
100.2915527093021
 20
-136.1680880735969
 30
0.0
  0
VERTEX
  5
62
330
5E
100
AcDbEntity
  8
_U+30EC_U+30A4_U+30E4_U+30FC 1
370
     0
100
AcDbVertex
100
AcDb2dVertex
 10
100.2915527093021
 20
-135.6726833428179
 30
0.0
  0
VERTEX
  5
63
330
5E
100
AcDbEntity
  8
_U+30EC_U+30A4_U+30E4_U+30FC 1
370
     0
100
AcDbVertex
100
AcDb2dVertex
 10
99.32623695433512
 20
-135.6726833428179
 30
0.0
  0
VERTEX
  5
64
330
5E
100
AcDbEntity
  8
_U+30EC_U+30A4_U+30E4_U+30FC 1
370
     0
100
AcDbVertex
100
AcDb2dVertex
 10
99.32623695433512
 20
-135.3391980998458
 30
0.0
  0
VERTEX
  5
65
330
5E
100
AcDbEntity
  8
_U+30EC_U+30A4_U+30E4_U+30FC 1
370
     0
100
AcDbVertex
100
AcDb2dVertex
 10
100.2409098056689
 20
-133.8495388120237
 30
0.0
  0
VERTEX
  5
66
330
5E
100
AcDbEntity
  8
_U+30EC_U+30A4_U+30E4_U+30FC 1
370
     0
100
AcDbVertex
100
AcDb2dVertex
 10
100.710820829857
 20
-133.8495388120237
 30
0.0
  0
VERTEX
  5
67
330
5E
100
AcDbEntity
  8
_U+30EC_U+30A4_U+30E4_U+30FC 1
370
     0
100
AcDbVertex
100
AcDb2dVertex
 10
100.710820829857
 20
-135.3646918064366
 30
0.0
  0
VERTEX
  5
68
330
5E
100
AcDbEntity
  8
_U+30EC_U+30A4_U+30E4_U+30FC 1
370
     0
100
AcDbVertex
100
AcDb2dVertex
 10
101.0219129521751
 20
-135.3646918064366
 30
0.0
  0
VERTEX
  5
69
330
5E
100
AcDbEntity
  8
_U+30EC_U+30A4_U+30E4_U+30FC 1
370
     0
100
AcDbVertex
100
AcDb2dVertex
 10
101.0219129521751
 20
-135.6726833428179
 30
0.0
  0
VERTEX
  5
6A
330
5E
100
AcDbEntity
  8
_U+30EC_U+30A4_U+30E4_U+30FC 1
370
     0
100
AcDbVertex
100
AcDb2dVertex
 10
100.710820829857
 20
-135.6726833428179
 30
0.0
  0
SEQEND
  5
6B
330
5E
100
AcDbEntity
  8
_U+30EC_U+30A4_U+30E4_U+30FC 1
370
     0
  0
POLYLINE
  5
6C
330
4C
100
AcDbEntity
  8
_U+30EC_U+30A4_U+30E4_U+30FC 1
370
     0
100
AcDb2dPolyline
 66
     1
 10
0.0
 20
0.0
 30
0.0
  0
VERTEX
  5
6D
330
6C
100
AcDbEntity
  8
_U+30EC_U+30A4_U+30E4_U+30FC 1
370
     0
100
AcDbVertex
100
AcDb2dVertex
 10
100.2440103916057
 20
-134.3387423709292
 30
0.0
  0
VERTEX
  5
6E
330
6C
100
AcDbEntity
  8
_U+30EC_U+30A4_U+30E4_U+30FC 1
370
     0
100
AcDbVertex
100
AcDb2dVertex
 10
99.66592336918075
 20
-135.2789089288539
 30
0.0
  0
VERTEX
  5
6F
330
6C
100
AcDbEntity
  8
_U+30EC_U+30A4_U+30E4_U+30FC 1
370
     0
100
AcDbVertex
100
AcDb2dVertex
 10
99.5770399056613
 20
-135.3867404175422
 30
0.0
  0
VERTEX
  5
70
330
6C
100
AcDbEntity
  8
_U+30EC_U+30A4_U+30E4_U+30FC 1
370
     0
100
AcDbVertex
100
AcDb2dVertex
 10
99.66592336918075
 20
-135.3646918064366
 30
0.0
  0
VERTEX
  5
71
330
6C
100
AcDbEntity
  8
_U+30EC_U+30A4_U+30E4_U+30FC 1
370
     0
100
AcDbVertex
100
AcDb2dVertex
 10
100.2915527093021
 20
-135.3646918064366
 30
0.0
  0
VERTEX
  5
72
330
6C
100
AcDbEntity
  8
_U+30EC_U+30A4_U+30E4_U+30FC 1
370
     0
100
AcDbVertex
100
AcDb2dVertex
 10
100.2915527093021
 20
-134.4086778092798
 30
0.0
  0
VERTEX
  5
73
330
6C
100
AcDbEntity
  8
_U+30EC_U+30A4_U+30E4_U+30FC 1
370
     0
100
AcDbVertex
100
AcDb2dVertex
 10
100.3074001485343
 20
-134.1988714942281
 30
0.0
  0
VERTEX
  5
74
330
6C
100
AcDbEntity
  8
_U+30EC_U+30A4_U+30E4_U+30FC 1
370
     0
100
AcDbVertex
100
AcDb2dVertex
 10
100.2440103916057
 20
-134.3387423709292
 30
0.0
  0
SEQEND
  5
75
330
6C
100
AcDbEntity
  8
_U+30EC_U+30A4_U+30E4_U+30FC 1
370
     0
  0
HATCH
  5
76
330
4C
100
AcDbEntity
  8
_U+30EC_U+30A4_U+30E4_U+30FC 1
 62
   179
420
  2234388
100
AcDbHatch
 10
0.0
 20
0.0
 30
0.0
210
0.0
220
0.0
230
1.0
  2
SOLID
 70
     1
 71
     0
 91
        2
 92
        1
 93
       11
 72
     1
 10
100.710820829857
 20
-135.6726833428179
 11
100.710820829857
 21
-136.1680880735969
 72
     1
 10
100.710820829857
 20
-136.1680880735969
 11
100.2915527093021
 21
-136.1680880735969
 72
     1
 10
100.2915527093021
 20
-136.1680880735969
 11
100.2915527093021
 21
-135.6726833428179
 72
     1
 10
100.2915527093021
 20
-135.6726833428179
 11
99.32623695433512
 21
-135.6726833428179
 72
     1
 10
99.32623695433512
 20
-135.6726833428179
 11
99.32623695433512
 21
-135.3391980998458
 72
     1
 10
99.32623695433512
 20
-135.3391980998458
 11
100.2409098056689
 21
-133.8495388120237
 72
     1
 10
100.2409098056689
 20
-133.8495388120237
 11
100.710820829857
 21
-133.8495388120237
 72
     1
 10
100.710820829857
 20
-133.8495388120237
 11
100.710820829857
 21
-135.3646918064366
 72
     1
 10
100.710820829857
 20
-135.3646918064366
 11
101.0219129521751
 21
-135.3646918064366
 72
     1
 10
101.0219129521751
 20
-135.3646918064366
 11
101.0219129521751
 21
-135.6726833428179
 72
     1
 10
101.0219129521751
 20
-135.6726833428179
 11
100.710820829857
 21
-135.6726833428179
 97
        0
 92
        1
 93
        7
 72
     1
 10
100.2440103916057
 20
-134.3387423709292
 11
99.66592336918075
 21
-135.2789089288539
 72
     1
 10
99.66592336918075
 20
-135.2789089288539
 11
99.5770399056613
 21
-135.3867404175422
 72
     1
 10
99.5770399056613
 20
-135.3867404175422
 11
99.66592336918075
 21
-135.3646918064366
 72
     1
 10
99.66592336918075
 20
-135.3646918064366
 11
100.2915527093021
 21
-135.3646918064366
 72
     1
 10
100.2915527093021
 20
-135.3646918064366
 11
100.2915527093021
 21
-134.4086778092798
 72
     1
 10
100.2915527093021
 20
-134.4086778092798
 11
100.3074001485343
 21
-134.1988714942281
 72
     1
 10
100.3074001485343
 20
-134.1988714942281
 11
100.2440103916057
 21
-134.3387423709292
 97
        0
 75
     2
 76
     1
 98
        0
  0
SPLINE
  5
77
330
4C
100
AcDbEntity
  8
_U+30EC_U+30A4_U+30E4_U+30FC 1
370
     0
100
AcDbSpline
210
0.0
220
0.0
230
1.0
 70
    11
 71
     3
 72
    29
 73
    25
 74
     0
 42
0.0000000001
 43
0.0000000001
 12
1.0
 22
0.0
 32
0.0
 13
1.0
 23
0.0
 33
0.0
 40
0.0
 40
0.0
 40
0.0
 40
0.0
 40
1.0
 40
1.0
 40
1.0
 40
2.0
 40
2.0
 40
2.0
 40
3.0
 40
3.0
 40
3.0
 40
4.0
 40
4.0
 40
4.0
 40
5.0
 40
5.0
 40
5.0
 40
6.0
 40
6.0
 40
6.0
 40
7.0
 40
7.0
 40
7.0
 40
8.0
 40
8.0
 40
8.0
 40
8.0
 10
101.9613904910027
 20
-136.1680880735969
 30
0.0
 10
101.9613904910027
 20
-136.1680880735969
 30
0.0
 10
101.9613904910027
 20
-134.5547498578544
 30
0.0
 10
101.9613904910027
 20
-134.5547498578544
 30
0.0
 10
101.9613904910027
 20
-134.5547498578544
 30
0.0
 10
101.3326605649446
 20
-134.5547498578544
 30
0.0
 10
101.3326605649446
 20
-134.5547498578544
 30
0.0
 10
101.3326605649446
 20
-134.5547498578544
 30
0.0
 10
101.3326605649446
 20
-134.2529594933465
 30
0.0
 10
101.3326605649446
 20
-134.2529594933465
 30
0.0
 10
101.3326605649446
 20
-134.2529594933465
 30
0.0
 10
101.5169731734055
 20
-134.2529594933465
 30
0.0
 10
101.5169731734055
 20
-134.2529594933465
 30
0.0
 10
101.6850938330857
 20
-134.2529594933465
 30
0.0
 10
101.9520887331925
 20
-134.1513291765316
 30
0.0
 10
102.0220241715431
 20
-133.8495388120237
 30
0.0
 10
102.0220241715431
 20
-133.8495388120237
 30
0.0
 10
102.3648111723255
 20
-133.8495388120237
 30
0.0
 10
102.3648111723255
 20
-133.8495388120237
 30
0.0
 10
102.3648111723255
 20
-133.8495388120237
 30
0.0
 10
102.3648111723255
 20
-136.1680880735969
 30
0.0
 10
102.3648111723255
 20
-136.1680880735969
 30
0.0
 10
102.3648111723255
 20
-136.1680880735969
 30
0.0
 10
101.9613904910027
 20
-136.1680880735969
 30
0.0
 10
101.9613904910027
 20
-136.1680880735969
 30
0.0
  0
HATCH
  5
78
330
4C
100
AcDbEntity
  8
_U+30EC_U+30A4_U+30E4_U+30FC 1
 62
   179
420
  2234388
100
AcDbHatch
 10
0.0
 20
0.0
 30
0.0
210
0.0
220
0.0
230
1.0
  2
SOLID
 70
     1
 71
     0
 91
        1
 92
        1
 93
        1
 72
     4
 94
        3
 73
     0
 74
     1
 95
       29
 96
       25
 40
0.0
 40
0.0
 40
0.0
 40
0.0
 40
1.0
 40
1.0
 40
1.0
 40
2.0
 40
2.0
 40
2.0
 40
3.0
 40
3.0
 40
3.0
 40
4.0
 40
4.0
 40
4.0
 40
5.0
 40
5.0
 40
5.0
 40
6.0
 40
6.0
 40
6.0
 40
7.0
 40
7.0
 40
7.0
 40
8.0
 40
8.0
 40
8.0
 40
8.0
 10
101.9613904910027
 20
-136.1680880735969
 10
101.9613904910027
 20
-136.1680880735969
 10
101.9613904910027
 20
-134.5547498578544
 10
101.9613904910027
 20
-134.5547498578544
 10
101.9613904910027
 20
-134.5547498578544
 10
101.3326605649446
 20
-134.5547498578544
 10
101.3326605649446
 20
-134.5547498578544
 10
101.3326605649446
 20
-134.5547498578544
 10
101.3326605649446
 20
-134.2529594933465
 10
101.3326605649446
 20
-134.2529594933465
 10
101.3326605649446
 20
-134.2529594933465
 10
101.5169731734055
 20
-134.2529594933465
 10
101.5169731734055
 20
-134.2529594933465
 10
101.6850938330857
 20
-134.2529594933465
 10
101.9520887331925
 20
-134.1513291765316
 10
102.0220241715431
 20
-133.8495388120237
 10
102.0220241715431
 20
-133.8495388120237
 10
102.3648111723255
 20
-133.8495388120237
 10
102.3648111723255
 20
-133.8495388120237
 10
102.3648111723255
 20
-133.8495388120237
 10
102.3648111723255
 20
-136.1680880735969
 10
102.3648111723255
 20
-136.1680880735969
 10
102.3648111723255
 20
-136.1680880735969
 10
101.9613904910027
 20
-136.1680880735969
 10
101.9613904910027
 20
-136.1680880735969
 97
        0
 97
        0
 75
     2
 76
     1
 98
        0
  0
ENDBLK
  5
4F
330
4C
100
AcDbEntity
  8
0
100
AcDbBlockEnd
  0
BLOCK
  5
7B
330
79
100
AcDbEntity
  8
0
100
AcDbBlockBegin
  2
block 4
 70
     0
 10
0.0
 20
0.0
 30
0.0
  3
block 4
  1

  0
INSERT
  5
7E
330
79
100
AcDbEntity
  8
_U+30EC_U+30A4_U+30E4_U+30FC 1
100
AcDbBlockReference
  2
block 5
 10
0.0
 20
0.0
 30
0.0
  0
INSERT
  5
FA
330
79
100
AcDbEntity
  8
_U+30EC_U+30A4_U+30E4_U+30FC 1
100
AcDbBlockReference
  2
block 6
 10
0.0
 20
0.0
 30
0.0
  0
INSERT
  5
10A
330
79
100
AcDbEntity
  8
_U+30EC_U+30A4_U+30E4_U+30FC 1
100
AcDbBlockReference
  2
block 7
 10
0.0
 20
0.0
 30
0.0
  0
POLYLINE
  5
140
330
79
100
AcDbEntity
  8
_U+30EC_U+30A4_U+30E4_U+30FC 1
 62
   179
420
  2234388
370
     9
100
AcDb2dPolyline
 66
     1
 10
0.0
 20
0.0
 30
0.0
  0
VERTEX
  5
141
330
140
100
AcDbEntity
  8
_U+30EC_U+30A4_U+30E4_U+30FC 1
 62
   179
420
  2234388
370
     9
100
AcDbVertex
100
AcDb2dVertex
 10
103.7545523530008
 20
-109.9609038613987
 30
0.0
  0
VERTEX
  5
142
330
140
100
AcDbEntity
  8
_U+30EC_U+30A4_U+30E4_U+30FC 1
 62
   179
420
  2234388
370
     9
100
AcDbVertex
100
AcDb2dVertex
 10
103.7545523530008
 20
-105.4609058069682
 30
0.0
  0
SEQEND
  5
143
330
140
100
AcDbEntity
  8
_U+30EC_U+30A4_U+30E4_U+30FC 1
 62
   179
420
  2234388
370
     9
  0
POLYLINE
  5
144
330
79
100
AcDbEntity
  8
_U+30EC_U+30A4_U+30E4_U+30FC 1
 62
   179
420
  2234388
370
     9
100
AcDb2dPolyline
 66
     1
 10
0.0
 20
0.0
 30
0.0
  0
VERTEX
  5
145
330
144
100
AcDbEntity
  8
_U+30EC_U+30A4_U+30E4_U+30FC 1
 62
   179
420
  2234388
370
     9
100
AcDbVertex
100
AcDb2dVertex
 10
109.7545260888177
 20
-115.9608777487874
 30
0.0
  0
VERTEX
  5
146
330
144
100
AcDbEntity
  8
_U+30EC_U+30A4_U+30E4_U+30FC 1
 62
   179
420
  2234388
370
     9
100
AcDbVertex
100
AcDb2dVertex
 10
109.7545260888177
 20
-105.4609058069682
 30
0.0
  0
SEQEND
  5
147
330
144
100
AcDbEntity
  8
_U+30EC_U+30A4_U+30E4_U+30FC 1
 62
   179
420
  2234388
370
     9
  0
POLYLINE
  5
148
330
79
100
AcDbEntity
  8
_U+30EC_U+30A4_U+30E4_U+30FC 1
 62
   179
420
  2234388
370
     9
100
AcDb2dPolyline
 66
     1
 10
0.0
 20
0.0
 30
0.0
  0
VERTEX
  5
149
330
148
100
AcDbEntity
  8
_U+30EC_U+30A4_U+30E4_U+30FC 1
 62
   179
420
  2234388
370
     9
100
AcDbVertex
100
AcDb2dVertex
 10
103.7545523530008
 20
-106.9609169177041
 30
0.0
  0
VERTEX
  5
14A
330
148
100
AcDbEntity
  8
_U+30EC_U+30A4_U+30E4_U+30FC 1
 62
   179
420
  2234388
370
     9
100
AcDbVertex
100
AcDb2dVertex
 10
109.7545260888177
 20
-106.9609169177041
 30
0.0
  0
SEQEND
  5
14B
330
148
100
AcDbEntity
  8
_U+30EC_U+30A4_U+30E4_U+30FC 1
 62
   179
420
  2234388
370
     9
  0
SPLINE
  5
14C
330
79
100
AcDbEntity
  8
_U+30EC_U+30A4_U+30E4_U+30FC 1
370
     0
100
AcDbSpline
210
0.0
220
0.0
230
1.0
 70
    11
 71
     3
 72
    17
 73
    13
 74
     0
 42
0.0000000001
 43
0.0000000001
 12
1.0
 22
0.0
 32
0.0
 13
1.0
 23
0.0
 33
0.0
 40
0.0
 40
0.0
 40
0.0
 40
0.0
 40
1.0
 40
1.0
 40
1.0
 40
2.0
 40
2.0
 40
2.0
 40
3.0
 40
3.0
 40
3.0
 40
4.0
 40
4.0
 40
4.0
 40
4.0
 10
103.9047651269464
 20
-106.9605641399266
 30
0.0
 10
103.9047651269464
 20
-107.0436080287946
 30
0.0
 10
103.8372434620023
 20
-107.1104241398891
 30
0.0
 10
103.7545523530008
 20
-107.1104241398891
 30
0.0
 10
103.6718638629708
 20
-107.1104241398891
 30
0.0
 10
103.6043395790553
 20
-107.0436080287946
 30
0.0
 10
103.6043395790553
 20
-106.9605641399266
 30
0.0
 10
103.6043395790553
 20
-106.8772027510584
 30
0.0
 10
103.6718638629708
 20
-106.8103513621864
 30
0.0
 10
103.7545523530008
 20
-106.8103513621864
 30
0.0
 10
103.8372434620023
 20
-106.8103513621864
 30
0.0
 10
103.9047651269464
 20
-106.8772027510584
 30
0.0
 10
103.9047651269464
 20
-106.9605641399266
 30
0.0
  0
HATCH
  5
14D
330
79
100
AcDbEntity
  8
_U+30EC_U+30A4_U+30E4_U+30FC 1
 62
   179
420
  2234388
100
AcDbHatch
 10
0.0
 20
0.0
 30
0.0
210
0.0
220
0.0
230
1.0
  2
SOLID
 70
     1
 71
     0
 91
        1
 92
        1
 93
        2
 72
     4
 94
        3
 73
     0
 74
     0
 95
       17
 96
       13
 40
0.0
 40
0.0
 40
0.0
 40
0.0
 40
0.3527777776895833
 40
0.3527777776895833
 40
0.3527777776895833
 40
0.7055555553791667
 40
0.7055555553791667
 40
0.7055555553791667
 40
1.05833333306875
 40
1.05833333306875
 40
1.05833333306875
 40
1.411111110758333
 40
1.411111110758333
 40
1.411111110758333
 40
1.411111110758333
 10
103.9047651269464
 20
-106.9605641399266
 10
103.9047651269464
 20
-107.0436080287946
 10
103.8372434620023
 20
-107.1104241398891
 10
103.7545523530008
 20
-107.1104241398891
 10
103.6718638629708
 20
-107.1104241398891
 10
103.6043395790553
 20
-107.0436080287946
 10
103.6043395790553
 20
-106.9605641399266
 10
103.6043395790553
 20
-106.8772027510584
 10
103.6718638629708
 20
-106.8103513621864
 10
103.7545523530008
 20
-106.8103513621864
 10
103.8372434620023
 20
-106.8103513621864
 10
103.9047651269464
 20
-106.8772027510584
 10
103.9047651269464
 20
-106.9605641399266
 97
        0
 72
     1
 10
103.9047651269464
 20
-106.9605641399266
 11
103.9047651269464
 21
-106.9605641399266
 97
        0
 75
     2
 76
     1
 98
        0
  0
SPLINE
  5
14E
330
79
100
AcDbEntity
  8
_U+30EC_U+30A4_U+30E4_U+30FC 1
370
     0
100
AcDbSpline
210
0.0
220
0.0
230
1.0
 70
    11
 71
     3
 72
    17
 73
    13
 74
     0
 42
0.0000000001
 43
0.0000000001
 12
1.0
 22
0.0
 32
0.0
 13
1.0
 23
0.0
 33
0.0
 40
0.0
 40
0.0
 40
0.0
 40
0.0
 40
1.0
 40
1.0
 40
1.0
 40
2.0
 40
2.0
 40
2.0
 40
3.0
 40
3.0
 40
3.0
 40
4.0
 40
4.0
 40
4.0
 40
4.0
 10
109.9043888614131
 20
-106.9605641399266
 30
0.0
 10
109.9043888614131
 20
-107.0436080287946
 30
0.0
 10
109.8375699755879
 20
-107.1104241398891
 30
0.0
 10
109.7545260888177
 20
-107.1104241398891
 30
0.0
 10
109.671870257593
 20
-107.1104241398891
 30
0.0
 10
109.6046660926409
 20
-107.0436080287946
 30
0.0
 10
109.6046660926409
 20
-106.9605641399266
 30
0.0
 10
109.6046660926409
 20
-106.8772027510584
 30
0.0
 10
109.671870257593
 20
-106.8103513621864
 30
0.0
 10
109.7545260888177
 20
-106.8103513621864
 30
0.0
 10
109.8375699755879
 20
-106.8103513621864
 30
0.0
 10
109.9043888614131
 20
-106.8772027510584
 30
0.0
 10
109.9043888614131
 20
-106.9605641399266
 30
0.0
  0
HATCH
  5
14F
330
79
100
AcDbEntity
  8
_U+30EC_U+30A4_U+30E4_U+30FC 1
 62
   179
420
  2234388
100
AcDbHatch
 10
0.0
 20
0.0
 30
0.0
210
0.0
220
0.0
230
1.0
  2
SOLID
 70
     1
 71
     0
 91
        1
 92
        1
 93
        2
 72
     4
 94
        3
 73
     0
 74
     0
 95
       17
 96
       13
 40
0.0
 40
0.0
 40
0.0
 40
0.0
 40
0.3527777776895833
 40
0.3527777776895833
 40
0.3527777776895833
 40
0.7055555553791667
 40
0.7055555553791667
 40
0.7055555553791667
 40
1.05833333306875
 40
1.05833333306875
 40
1.05833333306875
 40
1.411111110758333
 40
1.411111110758333
 40
1.411111110758333
 40
1.411111110758333
 10
109.9043888614131
 20
-106.9605641399266
 10
109.9043888614131
 20
-107.0436080287946
 10
109.8375699755879
 20
-107.1104241398891
 10
109.7545260888177
 20
-107.1104241398891
 10
109.671870257593
 20
-107.1104241398891
 10
109.6046660926409
 20
-107.0436080287946
 10
109.6046660926409
 20
-106.9605641399266
 10
109.6046660926409
 20
-106.8772027510584
 10
109.671870257593
 20
-106.8103513621864
 10
109.7545260888177
 20
-106.8103513621864
 10
109.8375699755879
 20
-106.8103513621864
 10
109.9043888614131
 20
-106.8772027510584
 10
109.9043888614131
 20
-106.9605641399266
 97
        0
 72
     1
 10
109.9043888614131
 20
-106.9605641399266
 11
109.9043888614131
 21
-106.9605641399266
 97
        0
 75
     2
 76
     1
 98
        0
  0
POLYLINE
  5
150
330
79
100
AcDbEntity
  8
_U+30EC_U+30A4_U+30E4_U+30FC 1
 62
   179
420
  2234388
370
     9
100
AcDb2dPolyline
 66
     1
 10
0.0
 20
0.0
 30
0.0
  0
VERTEX
  5
151
330
150
100
AcDbEntity
  8
_U+30EC_U+30A4_U+30E4_U+30FC 1
 62
   179
420
  2234388
370
     9
100
AcDbVertex
100
AcDb2dVertex
 10
106.7473072766493
 20
-110.960676083371
 30
0.0
  0
VERTEX
  5
152
330
150
100
AcDbEntity
  8
_U+30EC_U+30A4_U+30E4_U+30FC 1
 62
   179
420
  2234388
370
     9
100
AcDbVertex
100
AcDb2dVertex
 10
115.2584237261793
 20
-110.960676083371
 30
0.0
  0
SEQEND
  5
153
330
150
100
AcDbEntity
  8
_U+30EC_U+30A4_U+30E4_U+30FC 1
 62
   179
420
  2234388
370
     9
  0
POLYLINE
  5
154
330
79
100
AcDbEntity
  8
_U+30EC_U+30A4_U+30E4_U+30FC 1
 62
   179
420
  2234388
370
     9
100
AcDb2dPolyline
 66
     1
 10
0.0
 20
0.0
 30
0.0
  0
VERTEX
  5
155
330
154
100
AcDbEntity
  8
_U+30EC_U+30A4_U+30E4_U+30FC 1
 62
   179
420
  2234388
370
     9
100
AcDbVertex
100
AcDb2dVertex
 10
110.755321341063
 20
-116.96064997076
 30
0.0
  0
VERTEX
  5
156
330
154
100
AcDbEntity
  8
_U+30EC_U+30A4_U+30E4_U+30FC 1
 62
   179
420
  2234388
370
     9
100
AcDbVertex
100
AcDb2dVertex
 10
115.2584237261793
 20
-116.96064997076
 30
0.0
  0
SEQEND
  5
157
330
154
100
AcDbEntity
  8
_U+30EC_U+30A4_U+30E4_U+30FC 1
 62
   179
420
  2234388
370
     9
  0
POLYLINE
  5
158
330
79
100
AcDbEntity
  8
_U+30EC_U+30A4_U+30E4_U+30FC 1
 62
   179
420
  2234388
370
     9
100
AcDb2dPolyline
 66
     1
 10
0.0
 20
0.0
 30
0.0
  0
VERTEX
  5
159
330
158
100
AcDbEntity
  8
_U+30EC_U+30A4_U+30E4_U+30FC 1
 62
   179
420
  2234388
370
     9
100
AcDbVertex
100
AcDb2dVertex
 10
110.755321341063
 20
-146.9602019077041
 30
0.0
  0
VERTEX
  5
15A
330
158
100
AcDbEntity
  8
_U+30EC_U+30A4_U+30E4_U+30FC 1
 62
   179
420
  2234388
370
     9
100
AcDbVertex
100
AcDb2dVertex
 10
115.2584237261793
 20
-146.9602019077041
 30
0.0
  0
SEQEND
  5
15B
330
158
100
AcDbEntity
  8
_U+30EC_U+30A4_U+30E4_U+30FC 1
 62
   179
420
  2234388
370
     9
  0
POLYLINE
  5
15C
330
79
100
AcDbEntity
  8
_U+30EC_U+30A4_U+30E4_U+30FC 1
 62
   179
420
  2234388
370
     9
100
AcDb2dPolyline
 66
     1
 10
0.0
 20
0.0
 30
0.0
  0
VERTEX
  5
15D
330
15C
100
AcDbEntity
  8
_U+30EC_U+30A4_U+30E4_U+30FC 1
 62
   179
420
  2234388
370
     9
100
AcDbVertex
100
AcDb2dVertex
 10
113.7573895978072
 20
-110.960676083371
 30
0.0
  0
VERTEX
  5
15E
330
15C
100
AcDbEntity
  8
_U+30EC_U+30A4_U+30E4_U+30FC 1
 62
   179
420
  2234388
370
     9
100
AcDbVertex
100
AcDb2dVertex
 10
113.7573895978072
 20
-146.9602019077041
 30
0.0
  0
SEQEND
  5
15F
330
15C
100
AcDbEntity
  8
_U+30EC_U+30A4_U+30E4_U+30FC 1
 62
   179
420
  2234388
370
     9
  0
SPLINE
  5
160
330
79
100
AcDbEntity
  8
_U+30EC_U+30A4_U+30E4_U+30FC 1
370
     0
100
AcDbSpline
210
0.0
220
0.0
230
1.0
 70
    11
 71
     3
 72
    17
 73
    13
 74
     0
 42
0.0000000001
 43
0.0000000001
 12
1.0
 22
0.0
 32
0.0
 13
1.0
 23
0.0
 33
0.0
 40
0.0
 40
0.0
 40
0.0
 40
0.0
 40
1.0
 40
1.0
 40
1.0
 40
2.0
 40
2.0
 40
2.0
 40
3.0
 40
3.0
 40
3.0
 40
4.0
 40
4.0
 40
4.0
 40
4.0
 10
113.9076023717527
 20
-110.960676083371
 30
0.0
 10
113.9076023717527
 20
-111.0433671944615
 30
0.0
 10
113.8404334845775
 20
-111.1105360833334
 30
0.0
 10
113.7573895978072
 20
-111.1105360833334
 30
0.0
 10
113.6746984888057
 20
-111.1105360833334
 30
0.0
 10
113.6075296016305
 20
-111.0433671944615
 30
0.0
 10
113.6075296016305
 20
-110.960676083371
 30
0.0
 10
113.6075296016305
 20
-110.877632194503
 30
0.0
 10
113.6746984888057
 20
-110.8104633056307
 30
0.0
 10
113.7573895978072
 20
-110.8104633056307
 30
0.0
 10
113.8404334845775
 20
-110.8104633056307
 30
0.0
 10
113.9076023717527
 20
-110.877632194503
 30
0.0
 10
113.9076023717527
 20
-110.960676083371
 30
0.0
  0
HATCH
  5
161
330
79
100
AcDbEntity
  8
_U+30EC_U+30A4_U+30E4_U+30FC 1
 62
   179
420
  2234388
100
AcDbHatch
 10
0.0
 20
0.0
 30
0.0
210
0.0
220
0.0
230
1.0
  2
SOLID
 70
     1
 71
     0
 91
        1
 92
        1
 93
        2
 72
     4
 94
        3
 73
     0
 74
     0
 95
       17
 96
       13
 40
0.0
 40
0.0
 40
0.0
 40
0.0
 40
0.3527777776895833
 40
0.3527777776895833
 40
0.3527777776895833
 40
0.7055555553791667
 40
0.7055555553791667
 40
0.7055555553791667
 40
1.05833333306875
 40
1.05833333306875
 40
1.05833333306875
 40
1.411111110758333
 40
1.411111110758333
 40
1.411111110758333
 40
1.411111110758333
 10
113.9076023717527
 20
-110.960676083371
 10
113.9076023717527
 20
-111.0433671944615
 10
113.8404334845775
 20
-111.1105360833334
 10
113.7573895978072
 20
-111.1105360833334
 10
113.6746984888057
 20
-111.1105360833334
 10
113.6075296016305
 20
-111.0433671944615
 10
113.6075296016305
 20
-110.960676083371
 10
113.6075296016305
 20
-110.877632194503
 10
113.6746984888057
 20
-110.8104633056307
 10
113.7573895978072
 20
-110.8104633056307
 10
113.8404334845775
 20
-110.8104633056307
 10
113.9076023717527
 20
-110.877632194503
 10
113.9076023717527
 20
-110.960676083371
 97
        0
 72
     1
 10
113.9076023717527
 20
-110.960676083371
 11
113.9076023717527
 21
-110.960676083371
 97
        0
 75
     2
 76
     1
 98
        0
  0
SPLINE
  5
162
330
79
100
AcDbEntity
  8
_U+30EC_U+30A4_U+30E4_U+30FC 1
370
     0
100
AcDbSpline
210
0.0
220
0.0
230
1.0
 70
    11
 71
     3
 72
    17
 73
    13
 74
     0
 42
0.0000000001
 43
0.0000000001
 12
1.0
 22
0.0
 32
0.0
 13
1.0
 23
0.0
 33
0.0
 40
0.0
 40
0.0
 40
0.0
 40
0.0
 40
1.0
 40
1.0
 40
1.0
 40
2.0
 40
2.0
 40
2.0
 40
3.0
 40
3.0
 40
3.0
 40
4.0
 40
4.0
 40
4.0
 40
4.0
 10
113.907249593984
 20
-116.96064997076
 30
0.0
 10
113.907249593984
 20
-117.0433410818502
 30
0.0
 10
113.8404334845775
 20
-117.1105099707224
 30
0.0
 10
113.7573895978072
 20
-117.1105099707224
 30
0.0
 10
113.6743809888138
 20
-117.1105099707224
 30
0.0
 10
113.6075296016305
 20
-117.0433410818502
 30
0.0
 10
113.6075296016305
 20
-116.96064997076
 30
0.0
 10
113.6075296016305
 20
-116.8779588596694
 30
0.0
 10
113.6743809888138
 20
-116.8104371930198
 30
0.0
 10
113.7573895978072
 20
-116.8104371930198
 30
0.0
 10
113.8404334845775
 20
-116.8104371930198
 30
0.0
 10
113.907249593984
 20
-116.8779588596694
 30
0.0
 10
113.907249593984
 20
-116.96064997076
 30
0.0
  0
HATCH
  5
163
330
79
100
AcDbEntity
  8
_U+30EC_U+30A4_U+30E4_U+30FC 1
 62
   179
420
  2234388
100
AcDbHatch
 10
0.0
 20
0.0
 30
0.0
210
0.0
220
0.0
230
1.0
  2
SOLID
 70
     1
 71
     0
 91
        1
 92
        1
 93
        2
 72
     4
 94
        3
 73
     0
 74
     0
 95
       17
 96
       13
 40
0.0
 40
0.0
 40
0.0
 40
0.0
 40
0.3527777776895833
 40
0.3527777776895833
 40
0.3527777776895833
 40
0.7055555553791667
 40
0.7055555553791667
 40
0.7055555553791667
 40
1.05833333306875
 40
1.05833333306875
 40
1.05833333306875
 40
1.411111110758333
 40
1.411111110758333
 40
1.411111110758333
 40
1.411111110758333
 10
113.907249593984
 20
-116.96064997076
 10
113.907249593984
 20
-117.0433410818502
 10
113.8404334845775
 20
-117.1105099707224
 10
113.7573895978072
 20
-117.1105099707224
 10
113.6743809888138
 20
-117.1105099707224
 10
113.6075296016305
 20
-117.0433410818502
 10
113.6075296016305
 20
-116.96064997076
 10
113.6075296016305
 20
-116.8779588596694
 10
113.6743809888138
 20
-116.8104371930198
 10
113.7573895978072
 20
-116.8104371930198
 10
113.8404334845775
 20
-116.8104371930198
 10
113.907249593984
 20
-116.8779588596694
 10
113.907249593984
 20
-116.96064997076
 97
        0
 72
     1
 10
113.907249593984
 20
-116.96064997076
 11
113.907249593984
 21
-116.96064997076
 97
        0
 75
     2
 76
     1
 98
        0
  0
SPLINE
  5
164
330
79
100
AcDbEntity
  8
_U+30EC_U+30A4_U+30E4_U+30FC 1
370
     0
100
AcDbSpline
210
0.0
220
0.0
230
1.0
 70
    11
 71
     3
 72
    17
 73
    13
 74
     0
 42
0.0000000001
 43
0.0000000001
 12
1.0
 22
0.0
 32
0.0
 13
1.0
 23
0.0
 33
0.0
 40
0.0
 40
0.0
 40
0.0
 40
0.0
 40
1.0
 40
1.0
 40
1.0
 40
2.0
 40
2.0
 40
2.0
 40
3.0
 40
3.0
 40
3.0
 40
4.0
 40
4.0
 40
4.0
 40
4.0
 10
113.907249593984
 20
-146.9602019077041
 30
0.0
 10
113.907249593984
 20
-147.042893018795
 30
0.0
 10
113.8400807068087
 20
-147.1104146854447
 30
0.0
 10
113.7570368200384
 20
-147.1104146854447
 30
0.0
 10
113.6743809888138
 20
-147.1104146854447
 30
0.0
 10
113.6075296016305
 20
-147.042893018795
 30
0.0
 10
113.6075296016305
 20
-146.9602019077041
 30
0.0
 10
113.6075296016305
 20
-146.8775107966139
 30
0.0
 10
113.6743809888138
 20
-146.8099891299642
 30
0.0
 10
113.7570368200384
 20
-146.8099891299642
 30
0.0
 10
113.8400807068087
 20
-146.8099891299642
 30
0.0
 10
113.907249593984
 20
-146.8775107966139
 30
0.0
 10
113.907249593984
 20
-146.9602019077041
 30
0.0
  0
HATCH
  5
165
330
79
100
AcDbEntity
  8
_U+30EC_U+30A4_U+30E4_U+30FC 1
 62
   179
420
  2234388
100
AcDbHatch
 10
0.0
 20
0.0
 30
0.0
210
0.0
220
0.0
230
1.0
  2
SOLID
 70
     1
 71
     0
 91
        1
 92
        1
 93
        2
 72
     4
 94
        3
 73
     0
 74
     0
 95
       17
 96
       13
 40
0.0
 40
0.0
 40
0.0
 40
0.0
 40
0.3527777776895833
 40
0.3527777776895833
 40
0.3527777776895833
 40
0.7055555553791667
 40
0.7055555553791667
 40
0.7055555553791667
 40
1.05833333306875
 40
1.05833333306875
 40
1.05833333306875
 40
1.411111110758333
 40
1.411111110758333
 40
1.411111110758333
 40
1.411111110758333
 10
113.907249593984
 20
-146.9602019077041
 10
113.907249593984
 20
-147.042893018795
 10
113.8400807068087
 20
-147.1104146854447
 10
113.7570368200384
 20
-147.1104146854447
 10
113.6743809888138
 20
-147.1104146854447
 10
113.6075296016305
 20
-147.042893018795
 10
113.6075296016305
 20
-146.9602019077041
 10
113.6075296016305
 20
-146.8775107966139
 10
113.6743809888138
 20
-146.8099891299642
 10
113.7570368200384
 20
-146.8099891299642
 10
113.8400807068087
 20
-146.8099891299642
 10
113.907249593984
 20
-146.8775107966139
 10
113.907249593984
 20
-146.9602019077041
 97
        0
 72
     1
 10
113.907249593984
 20
-146.9602019077041
 11
113.907249593984
 21
-146.9602019077041
 97
        0
 75
     2
 76
     1
 98
        0
  0
POLYLINE
  5
166
330
79
100
AcDbEntity
  8
_U+30EC_U+30A4_U+30E4_U+30FC 1
 62
   179
420
  2234388
370
     9
100
AcDb2dPolyline
 66
     1
 10
0.0
 20
0.0
 30
0.0
  0
VERTEX
  5
167
330
166
100
AcDbEntity
  8
_U+30EC_U+30A4_U+30E4_U+30FC 1
 62
   179
420
  2234388
370
     9
100
AcDbVertex
100
AcDb2dVertex
 10
68.24235464788137
 20
-140.9602280203154
 30
0.0
  0
VERTEX
  5
168
330
166
100
AcDbEntity
  8
_U+30EC_U+30A4_U+30E4_U+30FC 1
 62
   179
420
  2234388
370
     9
100
AcDbVertex
100
AcDb2dVertex
 10
72.74231731085554
 20
-140.9602280203154
 30
0.0
  0
SEQEND
  5
169
330
166
100
AcDbEntity
  8
_U+30EC_U+30A4_U+30E4_U+30FC 1
 62
   179
420
  2234388
370
     9
  0
POLYLINE
  5
16A
330
79
100
AcDbEntity
  8
_U+30EC_U+30A4_U+30E4_U+30FC 1
 62
   179
420
  2234388
370
     9
100
AcDb2dPolyline
 66
     1
 10
0.0
 20
0.0
 30
0.0
  0
VERTEX
  5
16B
330
16A
100
AcDbEntity
  8
_U+30EC_U+30A4_U+30E4_U+30FC 1
 62
   179
420
  2234388
370
     9
100
AcDbVertex
100
AcDb2dVertex
 10
68.24235464788137
 20
-146.9602019077041
 30
0.0
  0
VERTEX
  5
16C
330
16A
100
AcDbEntity
  8
_U+30EC_U+30A4_U+30E4_U+30FC 1
 62
   179
420
  2234388
370
     9
100
AcDbVertex
100
AcDb2dVertex
 10
78.74229104667235
 20
-146.9602019077041
 30
0.0
  0
SEQEND
  5
16D
330
16A
100
AcDbEntity
  8
_U+30EC_U+30A4_U+30E4_U+30FC 1
 62
   179
420
  2234388
370
     9
  0
POLYLINE
  5
16E
330
79
100
AcDbEntity
  8
_U+30EC_U+30A4_U+30E4_U+30FC 1
 62
   179
420
  2234388
370
     9
100
AcDb2dPolyline
 66
     1
 10
0.0
 20
0.0
 30
0.0
  0
VERTEX
  5
16F
330
16E
100
AcDbEntity
  8
_U+30EC_U+30A4_U+30E4_U+30FC 1
 62
   179
420
  2234388
370
     9
100
AcDbVertex
100
AcDb2dVertex
 10
69.74215405406275
 20
-140.9602280203154
 30
0.0
  0
VERTEX
  5
170
330
16E
100
AcDbEntity
  8
_U+30EC_U+30A4_U+30E4_U+30FC 1
 62
   179
420
  2234388
370
     9
100
AcDbVertex
100
AcDb2dVertex
 10
69.74215405406275
 20
-146.9602019077041
 30
0.0
  0
SEQEND
  5
171
330
16E
100
AcDbEntity
  8
_U+30EC_U+30A4_U+30E4_U+30FC 1
 62
   179
420
  2234388
370
     9
  0
SPLINE
  5
172
330
79
100
AcDbEntity
  8
_U+30EC_U+30A4_U+30E4_U+30FC 1
370
     0
100
AcDbSpline
210
0.0
220
0.0
230
1.0
 70
    11
 71
     3
 72
    17
 73
    13
 74
     0
 42
0.0000000001
 43
0.0000000001
 12
1.0
 22
0.0
 32
0.0
 13
1.0
 23
0.0
 33
0.0
 40
0.0
 40
0.0
 40
0.0
 40
0.0
 40
1.0
 40
1.0
 40
1.0
 40
2.0
 40
2.0
 40
2.0
 40
3.0
 40
3.0
 40
3.0
 40
4.0
 40
4.0
 40
4.0
 40
4.0
 10
69.8921904391239
 20
-140.9605455203157
 30
0.0
 10
69.8921904391239
 20
-141.0432366314059
 30
0.0
 10
69.82502155194862
 20
-141.1100880202782
 30
0.0
 10
69.74233044294714
 20
-141.1100880202782
 30
0.0
 10
69.65932183395375
 20
-141.1100880202782
 30
0.0
 10
69.5921194270465
 20
-141.0432366314059
 30
0.0
 10
69.5921194270465
 20
-140.9605455203157
 30
0.0
 10
69.5921194270465
 20
-140.8771841314474
 30
0.0
 10
69.65932183395375
 20
-140.8103680203527
 30
0.0
 10
69.74233044294714
 20
-140.8103680203527
 30
0.0
 10
69.82502155194862
 20
-140.8103680203527
 30
0.0
 10
69.8921904391239
 20
-140.8771841314474
 30
0.0
 10
69.8921904391239
 20
-140.9605455203157
 30
0.0
  0
HATCH
  5
173
330
79
100
AcDbEntity
  8
_U+30EC_U+30A4_U+30E4_U+30FC 1
 62
   179
420
  2234388
100
AcDbHatch
 10
0.0
 20
0.0
 30
0.0
210
0.0
220
0.0
230
1.0
  2
SOLID
 70
     1
 71
     0
 91
        1
 92
        1
 93
        2
 72
     4
 94
        3
 73
     0
 74
     0
 95
       17
 96
       13
 40
0.0
 40
0.0
 40
0.0
 40
0.0
 40
0.3527777776895833
 40
0.3527777776895833
 40
0.3527777776895833
 40
0.7055555553791667
 40
0.7055555553791667
 40
0.7055555553791667
 40
1.05833333306875
 40
1.05833333306875
 40
1.05833333306875
 40
1.411111110758333
 40
1.411111110758333
 40
1.411111110758333
 40
1.411111110758333
 10
69.8921904391239
 20
-140.9605455203157
 10
69.8921904391239
 20
-141.0432366314059
 10
69.82502155194862
 20
-141.1100880202782
 10
69.74233044294714
 20
-141.1100880202782
 10
69.65932183395375
 20
-141.1100880202782
 10
69.5921194270465
 20
-141.0432366314059
 10
69.5921194270465
 20
-140.9605455203157
 10
69.5921194270465
 20
-140.8771841314474
 10
69.65932183395375
 20
-140.8103680203527
 10
69.74233044294714
 20
-140.8103680203527
 10
69.82502155194862
 20
-140.8103680203527
 10
69.8921904391239
 20
-140.8771841314474
 10
69.8921904391239
 20
-140.9605455203157
 97
        0
 72
     1
 10
69.8921904391239
 20
-140.9605455203157
 11
69.8921904391239
 21
-140.9605455203157
 97
        0
 75
     2
 76
     1
 98
        0
  0
SPLINE
  5
174
330
79
100
AcDbEntity
  8
_U+30EC_U+30A4_U+30E4_U+30FC 1
370
     0
100
AcDbSpline
210
0.0
220
0.0
230
1.0
 70
    11
 71
     3
 72
    17
 73
    13
 74
     0
 42
0.0000000001
 43
0.0000000001
 12
1.0
 22
0.0
 32
0.0
 13
1.0
 23
0.0
 33
0.0
 40
0.0
 40
0.0
 40
0.0
 40
0.0
 40
1.0
 40
1.0
 40
1.0
 40
2.0
 40
2.0
 40
2.0
 40
3.0
 40
3.0
 40
3.0
 40
4.0
 40
4.0
 40
4.0
 40
4.0
 10
69.89201405023951
 20
-146.9602019077041
 30
0.0
 10
69.89201405023951
 20
-147.0435632965724
 30
0.0
 10
69.82484516306424
 20
-147.1104146854447
 30
0.0
 10
69.74215405406275
 20
-147.1104146854447
 30
0.0
 10
69.65914720480738
 20
-147.1104146854447
 30
0.0
 10
69.5919765578941
 20
-147.0435632965724
 30
0.0
 10
69.5919765578941
 20
-146.9602019077041
 30
0.0
 10
69.5919765578941
 20
-146.8775107966139
 30
0.0
 10
69.65914720480738
 20
-146.8106946855198
 30
0.0
 10
69.74215405406275
 20
-146.8106946855198
 30
0.0
 10
69.82484516306424
 20
-146.8106946855198
 30
0.0
 10
69.89201405023951
 20
-146.8775107966139
 30
0.0
 10
69.89201405023951
 20
-146.9602019077041
 30
0.0
  0
HATCH
  5
175
330
79
100
AcDbEntity
  8
_U+30EC_U+30A4_U+30E4_U+30FC 1
 62
   179
420
  2234388
100
AcDbHatch
 10
0.0
 20
0.0
 30
0.0
210
0.0
220
0.0
230
1.0
  2
SOLID
 70
     1
 71
     0
 91
        1
 92
        1
 93
        2
 72
     4
 94
        3
 73
     0
 74
     0
 95
       17
 96
       13
 40
0.0
 40
0.0
 40
0.0
 40
0.0
 40
0.3527777776895833
 40
0.3527777776895833
 40
0.3527777776895833
 40
0.7055555553791667
 40
0.7055555553791667
 40
0.7055555553791667
 40
1.05833333306875
 40
1.05833333306875
 40
1.05833333306875
 40
1.411111110758333
 40
1.411111110758333
 40
1.411111110758333
 40
1.411111110758333
 10
69.89201405023951
 20
-146.9602019077041
 10
69.89201405023951
 20
-147.0435632965724
 10
69.82484516306424
 20
-147.1104146854447
 10
69.74215405406275
 20
-147.1104146854447
 10
69.65914720480738
 20
-147.1104146854447
 10
69.5919765578941
 20
-147.0435632965724
 10
69.5919765578941
 20
-146.9602019077041
 10
69.5919765578941
 20
-146.8775107966139
 10
69.65914720480738
 20
-146.8106946855198
 10
69.74215405406275
 20
-146.8106946855198
 10
69.82484516306424
 20
-146.8106946855198
 10
69.89201405023951
 20
-146.8775107966139
 10
69.89201405023951
 20
-146.9602019077041
 97
        0
 72
     1
 10
69.89201405023951
 20
-146.9602019077041
 11
69.89201405023951
 21
-146.9602019077041
 97
        0
 75
     2
 76
     1
 98
        0
  0
POLYLINE
  5
176
330
79
100
AcDbEntity
  8
_U+30EC_U+30A4_U+30E4_U+30FC 1
 62
   179
420
  2234388
370
     9
100
AcDb2dPolyline
 66
     1
 10
0.0
 20
0.0
 30
0.0
  0
VERTEX
  5
177
330
176
100
AcDbEntity
  8
_U+30EC_U+30A4_U+30E4_U+30FC 1
 62
   179
420
  2234388
370
     9
100
AcDbVertex
100
AcDb2dVertex
 10
98.2423997158498
 20
-110.960676083371
 30
0.0
  0
VERTEX
  5
178
330
176
100
AcDbEntity
  8
_U+30EC_U+30A4_U+30E4_U+30FC 1
 62
   179
420
  2234388
370
     9
100
AcDbVertex
100
AcDb2dVertex
 10
102.7447965454285
 20
-110.960676083371
 30
0.0
  0
SEQEND
  5
179
330
176
100
AcDbEntity
  8
_U+30EC_U+30A4_U+30E4_U+30FC 1
 62
   179
420
  2234388
370
     9
  0
POLYLINE
  5
17A
330
79
100
AcDbEntity
  8
_U+30EC_U+30A4_U+30E4_U+30FC 1
 62
   179
420
  2234388
370
     9
100
AcDb2dPolyline
 66
     1
 10
0.0
 20
0.0
 30
0.0
  0
VERTEX
  5
17B
330
17A
100
AcDbEntity
  8
_U+30EC_U+30A4_U+30E4_U+30FC 1
 62
   179
420
  2234388
370
     9
100
AcDbVertex
100
AcDb2dVertex
 10
98.2423997158498
 20
-120.9604091364265
 30
0.0
  0
VERTEX
  5
17C
330
17A
100
AcDbEntity
  8
_U+30EC_U+30A4_U+30E4_U+30FC 1
 62
   179
420
  2234388
370
     9
100
AcDbVertex
100
AcDb2dVertex
 10
102.7447965454285
 20
-120.9604091364265
 30
0.0
  0
SEQEND
  5
17D
330
17A
100
AcDbEntity
  8
_U+30EC_U+30A4_U+30E4_U+30FC 1
 62
   179
420
  2234388
370
     9
  0
POLYLINE
  5
17E
330
79
100
AcDbEntity
  8
_U+30EC_U+30A4_U+30E4_U+30FC 1
 62
   179
420
  2234388
370
     9
100
AcDb2dPolyline
 66
     1
 10
0.0
 20
0.0
 30
0.0
  0
VERTEX
  5
17F
330
17E
100
AcDbEntity
  8
_U+30EC_U+30A4_U+30E4_U+30FC 1
 62
   179
420
  2234388
370
     9
100
AcDbVertex
100
AcDb2dVertex
 10
99.74241078869244
 20
-110.960676083371
 30
0.0
  0
VERTEX
  5
180
330
17E
100
AcDbEntity
  8
_U+30EC_U+30A4_U+30E4_U+30FC 1
 62
   179
420
  2234388
370
     9
100
AcDbVertex
100
AcDb2dVertex
 10
99.74241078869244
 20
-120.9604091364265
 30
0.0
  0
SEQEND
  5
181
330
17E
100
AcDbEntity
  8
_U+30EC_U+30A4_U+30E4_U+30FC 1
 62
   179
420
  2234388
370
     9
  0
SPLINE
  5
182
330
79
100
AcDbEntity
  8
_U+30EC_U+30A4_U+30E4_U+30FC 1
370
     0
100
AcDbSpline
210
0.0
220
0.0
230
1.0
 70
    11
 71
     3
 72
    17
 73
    13
 74
     0
 42
0.0000000001
 43
0.0000000001
 12
1.0
 22
0.0
 32
0.0
 13
1.0
 23
0.0
 33
0.0
 40
0.0
 40
0.0
 40
0.0
 40
0.0
 40
1.0
 40
1.0
 40
1.0
 40
2.0
 40
2.0
 40
2.0
 40
3.0
 40
3.0
 40
3.0
 40
4.0
 40
4.0
 40
4.0
 40
4.0
 10
99.89262356263797
 20
-110.960676083371
 30
0.0
 10
99.89262356263797
 20
-111.0433671944615
 30
0.0
 10
99.8257721754546
 20
-111.1105360833334
 30
0.0
 10
99.74241078869244
 20
-111.1105360833334
 30
0.0
 10
99.6597221973073
 20
-111.1105360833334
 30
0.0
 10
99.59255079251568
 20
-111.0433671944615
 30
0.0
 10
99.59255079251568
 20
-110.960676083371
 30
0.0
 10
99.59255079251568
 20
-110.877632194503
 30
0.0
 10
99.6597221973073
 20
-110.8104633056307
 30
0.0
 10
99.74241078869244
 20
-110.8104633056307
 30
0.0
 10
99.8257721754546
 20
-110.8104633056307
 30
0.0
 10
99.89262356263797
 20
-110.877632194503
 30
0.0
 10
99.89262356263797
 20
-110.960676083371
 30
0.0
  0
HATCH
  5
183
330
79
100
AcDbEntity
  8
_U+30EC_U+30A4_U+30E4_U+30FC 1
 62
   179
420
  2234388
100
AcDbHatch
 10
0.0
 20
0.0
 30
0.0
210
0.0
220
0.0
230
1.0
  2
SOLID
 70
     1
 71
     0
 91
        1
 92
        1
 93
        2
 72
     4
 94
        3
 73
     0
 74
     0
 95
       17
 96
       13
 40
0.0
 40
0.0
 40
0.0
 40
0.0
 40
0.3527777776895833
 40
0.3527777776895833
 40
0.3527777776895833
 40
0.7055555553791667
 40
0.7055555553791667
 40
0.7055555553791667
 40
1.05833333306875
 40
1.05833333306875
 40
1.05833333306875
 40
1.411111110758333
 40
1.411111110758333
 40
1.411111110758333
 40
1.411111110758333
 10
99.89262356263797
 20
-110.960676083371
 10
99.89262356263797
 20
-111.0433671944615
 10
99.8257721754546
 20
-111.1105360833334
 10
99.74241078869244
 20
-111.1105360833334
 10
99.6597221973073
 20
-111.1105360833334
 10
99.59255079251568
 20
-111.0433671944615
 10
99.59255079251568
 20
-110.960676083371
 10
99.59255079251568
 20
-110.877632194503
 10
99.6597221973073
 20
-110.8104633056307
 10
99.74241078869244
 20
-110.8104633056307
 10
99.8257721754546
 20
-110.8104633056307
 10
99.89262356263797
 20
-110.877632194503
 10
99.89262356263797
 20
-110.960676083371
 97
        0
 72
     1
 10
99.89262356263797
 20
-110.960676083371
 11
99.89262356263797
 21
-110.960676083371
 97
        0
 75
     2
 76
     1
 98
        0
  0
SPLINE
  5
184
330
79
100
AcDbEntity
  8
_U+30EC_U+30A4_U+30E4_U+30FC 1
370
     0
100
AcDbSpline
210
0.0
220
0.0
230
1.0
 70
    11
 71
     3
 72
    17
 73
    13
 74
     0
 42
0.0000000001
 43
0.0000000001
 12
1.0
 22
0.0
 32
0.0
 13
1.0
 23
0.0
 33
0.0
 40
0.0
 40
0.0
 40
0.0
 40
0.0
 40
1.0
 40
1.0
 40
1.0
 40
2.0
 40
2.0
 40
2.0
 40
3.0
 40
3.0
 40
3.0
 40
4.0
 40
4.0
 40
4.0
 40
4.0
 10
99.89262356263797
 20
-120.9604091364265
 30
0.0
 10
99.89262356263797
 20
-121.0437705252948
 30
0.0
 10
99.82541939768582
 20
-121.1106219141668
 30
0.0
 10
99.74241078869244
 20
-121.1106219141668
 30
0.0
 10
99.6597221973073
 20
-121.1106219141668
 30
0.0
 10
99.59255079251568
 20
-121.0437705252948
 30
0.0
 10
99.59255079251568
 20
-120.9604091364265
 30
0.0
 10
99.59255079251568
 20
-120.8773652475586
 30
0.0
 10
99.6597221973073
 20
-120.8105491364641
 30
0.0
 10
99.74241078869244
 20
-120.8105491364641
 30
0.0
 10
99.82541939768582
 20
-120.8105491364641
 30
0.0
 10
99.89262356263797
 20
-120.8773652475586
 30
0.0
 10
99.89262356263797
 20
-120.9604091364265
 30
0.0
  0
HATCH
  5
185
330
79
100
AcDbEntity
  8
_U+30EC_U+30A4_U+30E4_U+30FC 1
 62
   179
420
  2234388
100
AcDbHatch
 10
0.0
 20
0.0
 30
0.0
210
0.0
220
0.0
230
1.0
  2
SOLID
 70
     1
 71
     0
 91
        1
 92
        1
 93
        2
 72
     4
 94
        3
 73
     0
 74
     0
 95
       17
 96
       13
 40
0.0
 40
0.0
 40
0.0
 40
0.0
 40
0.3527777776895833
 40
0.3527777776895833
 40
0.3527777776895833
 40
0.7055555553791667
 40
0.7055555553791667
 40
0.7055555553791667
 40
1.05833333306875
 40
1.05833333306875
 40
1.05833333306875
 40
1.411111110758333
 40
1.411111110758333
 40
1.411111110758333
 40
1.411111110758333
 10
99.89262356263797
 20
-120.9604091364265
 10
99.89262356263797
 20
-121.0437705252948
 10
99.82541939768582
 20
-121.1106219141668
 10
99.74241078869244
 20
-121.1106219141668
 10
99.6597221973073
 20
-121.1106219141668
 10
99.59255079251568
 20
-121.0437705252948
 10
99.59255079251568
 20
-120.9604091364265
 10
99.59255079251568
 20
-120.8773652475586
 10
99.6597221973073
 20
-120.8105491364641
 10
99.74241078869244
 20
-120.8105491364641
 10
99.82541939768582
 20
-120.8105491364641
 10
99.89262356263797
 20
-120.8773652475586
 10
99.89262356263797
 20
-120.9604091364265
 97
        0
 72
     1
 10
99.89262356263797
 20
-120.9604091364265
 11
99.89262356263797
 21
-120.9604091364265
 97
        0
 75
     2
 76
     1
 98
        0
  0
POLYLINE
  5
186
330
79
100
AcDbEntity
  8
_U+30EC_U+30A4_U+30E4_U+30FC 1
 62
   179
420
  2234388
370
     9
100
AcDb2dPolyline
 66
     1
 10
0.0
 20
0.0
 30
0.0
  0
VERTEX
  5
187
330
186
100
AcDbEntity
  8
_U+30EC_U+30A4_U+30E4_U+30FC 1
 62
   179
420
  2234388
370
     9
100
AcDbVertex
100
AcDb2dVertex
 10
73.74208950757145
 20
-135.4611632994678
 30
0.0
  0
VERTEX
  5
188
330
186
100
AcDbEntity
  8
_U+30EC_U+30A4_U+30E4_U+30FC 1
 62
   179
420
  2234388
370
     9
100
AcDbVertex
100
AcDb2dVertex
 10
73.74208950757145
 20
-139.9608085761207
 30
0.0
  0
SEQEND
  5
189
330
186
100
AcDbEntity
  8
_U+30EC_U+30A4_U+30E4_U+30FC 1
 62
   179
420
  2234388
370
     9
  0
POLYLINE
  5
18A
330
79
100
AcDbEntity
  8
_U+30EC_U+30A4_U+30E4_U+30FC 1
 62
   179
420
  2234388
370
     9
100
AcDb2dPolyline
 66
     1
 10
0.0
 20
0.0
 30
0.0
  0
VERTEX
  5
18B
330
18A
100
AcDbEntity
  8
_U+30EC_U+30A4_U+30E4_U+30FC 1
 62
   179
420
  2234388
370
     9
100
AcDbVertex
100
AcDb2dVertex
 10
83.74182230801257
 20
-135.4611632994678
 30
0.0
  0
VERTEX
  5
18C
330
18A
100
AcDbEntity
  8
_U+30EC_U+30A4_U+30E4_U+30FC 1
 62
   179
420
  2234388
370
     9
100
AcDbVertex
100
AcDb2dVertex
 10
83.74182230801257
 20
-139.9608085761207
 30
0.0
  0
SEQEND
  5
18D
330
18A
100
AcDbEntity
  8
_U+30EC_U+30A4_U+30E4_U+30FC 1
 62
   179
420
  2234388
370
     9
  0
POLYLINE
  5
18E
330
79
100
AcDbEntity
  8
_U+30EC_U+30A4_U+30E4_U+30FC 1
 62
   179
420
  2234388
370
     9
100
AcDb2dPolyline
 66
     1
 10
0.0
 20
0.0
 30
0.0
  0
VERTEX
  5
18F
330
18E
100
AcDbEntity
  8
_U+30EC_U+30A4_U+30E4_U+30FC 1
 62
   179
420
  2234388
370
     9
100
AcDbVertex
100
AcDb2dVertex
 10
73.74226589645583
 20
-136.9608216324263
 30
0.0
  0
VERTEX
  5
190
330
18E
100
AcDbEntity
  8
_U+30EC_U+30A4_U+30E4_U+30FC 1
 62
   179
420
  2234388
370
     9
100
AcDbVertex
100
AcDb2dVertex
 10
83.74252786355012
 20
-136.9608216324263
 30
0.0
  0
SEQEND
  5
191
330
18E
100
AcDbEntity
  8
_U+30EC_U+30A4_U+30E4_U+30FC 1
 62
   179
420
  2234388
370
     9
  0
SPLINE
  5
192
330
79
100
AcDbEntity
  8
_U+30EC_U+30A4_U+30E4_U+30FC 1
370
     0
100
AcDbSpline
210
0.0
220
0.0
230
1.0
 70
    11
 71
     3
 72
    17
 73
    13
 74
     0
 42
0.0000000001
 43
0.0000000001
 12
1.0
 22
0.0
 32
0.0
 13
1.0
 23
0.0
 33
0.0
 40
0.0
 40
0.0
 40
0.0
 40
0.0
 40
1.0
 40
1.0
 40
1.0
 40
2.0
 40
2.0
 40
2.0
 40
3.0
 40
3.0
 40
3.0
 40
4.0
 40
4.0
 40
4.0
 40
4.0
 10
73.89230228151698
 20
-136.9608216324263
 30
0.0
 10
73.89230228151698
 20
-137.043477465739
 30
0.0
 10
73.82513339434172
 20
-137.1106816323891
 30
0.0
 10
73.74244228534023
 20
-137.1106816323891
 30
0.0
 10
73.65939839856996
 20
-137.1106816323891
 30
0.0
 10
73.59222951139469
 20
-137.043477465739
 30
0.0
 10
73.59222951139469
 20
-136.9608216324263
 30
0.0
 10
73.59222951139469
 20
-136.8781305213361
 30
0.0
 10
73.65939839856996
 20
-136.810926354686
 30
0.0
 10
73.74244228534023
 20
-136.810926354686
 30
0.0
 10
73.82513339434172
 20
-136.810926354686
 30
0.0
 10
73.89230228151698
 20
-136.8781305213361
 30
0.0
 10
73.89230228151698
 20
-136.9608216324263
 30
0.0
  0
HATCH
  5
193
330
79
100
AcDbEntity
  8
_U+30EC_U+30A4_U+30E4_U+30FC 1
 62
   179
420
  2234388
100
AcDbHatch
 10
0.0
 20
0.0
 30
0.0
210
0.0
220
0.0
230
1.0
  2
SOLID
 70
     1
 71
     0
 91
        1
 92
        1
 93
        2
 72
     4
 94
        3
 73
     0
 74
     0
 95
       17
 96
       13
 40
0.0
 40
0.0
 40
0.0
 40
0.0
 40
0.3527777776895833
 40
0.3527777776895833
 40
0.3527777776895833
 40
0.7055555553791667
 40
0.7055555553791667
 40
0.7055555553791667
 40
1.05833333306875
 40
1.05833333306875
 40
1.05833333306875
 40
1.411111110758333
 40
1.411111110758333
 40
1.411111110758333
 40
1.411111110758333
 10
73.89230228151698
 20
-136.9608216324263
 10
73.89230228151698
 20
-137.043477465739
 10
73.82513339434172
 20
-137.1106816323891
 10
73.74244228534023
 20
-137.1106816323891
 10
73.65939839856996
 20
-137.1106816323891
 10
73.59222951139469
 20
-137.043477465739
 10
73.59222951139469
 20
-136.9608216324263
 10
73.59222951139469
 20
-136.8781305213361
 10
73.65939839856996
 20
-136.810926354686
 10
73.74244228534023
 20
-136.810926354686
 10
73.82513339434172
 20
-136.810926354686
 10
73.89230228151698
 20
-136.8781305213361
 10
73.89230228151698
 20
-136.9608216324263
 97
        0
 72
     1
 10
73.89230228151698
 20
-136.9608216324263
 11
73.89230228151698
 21
-136.9608216324263
 97
        0
 75
     2
 76
     1
 98
        0
  0
SPLINE
  5
194
330
79
100
AcDbEntity
  8
_U+30EC_U+30A4_U+30E4_U+30FC 1
370
     0
100
AcDbSpline
210
0.0
220
0.0
230
1.0
 70
    11
 71
     3
 72
    17
 73
    13
 74
     0
 42
0.0000000001
 43
0.0000000001
 12
1.0
 22
0.0
 32
0.0
 13
1.0
 23
0.0
 33
0.0
 40
0.0
 40
0.0
 40
0.0
 40
0.0
 40
1.0
 40
1.0
 40
1.0
 40
2.0
 40
2.0
 40
2.0
 40
3.0
 40
3.0
 40
3.0
 40
4.0
 40
4.0
 40
4.0
 40
4.0
 10
83.89238785972688
 20
-136.9608216324263
 30
0.0
 10
83.89238785972688
 20
-137.043477465739
 30
0.0
 10
83.82518369477474
 20
-137.1106816323891
 30
0.0
 10
83.74252786355012
 20
-137.1106816323891
 30
0.0
 10
83.6594860901964
 20
-137.1106816323891
 30
0.0
 10
83.5923150896046
 20
-137.043477465739
 30
0.0
 10
83.5923150896046
 20
-136.9608216324263
 30
0.0
 10
83.5923150896046
 20
-136.8781305213361
 30
0.0
 10
83.6594860901964
 20
-136.810926354686
 30
0.0
 10
83.74252786355012
 20
-136.810926354686
 30
0.0
 10
83.82518369477474
 20
-136.810926354686
 30
0.0
 10
83.89238785972688
 20
-136.8781305213361
 30
0.0
 10
83.89238785972688
 20
-136.9608216324263
 30
0.0
  0
HATCH
  5
195
330
79
100
AcDbEntity
  8
_U+30EC_U+30A4_U+30E4_U+30FC 1
 62
   179
420
  2234388
100
AcDbHatch
 10
0.0
 20
0.0
 30
0.0
210
0.0
220
0.0
230
1.0
  2
SOLID
 70
     1
 71
     0
 91
        1
 92
        1
 93
        2
 72
     4
 94
        3
 73
     0
 74
     0
 95
       17
 96
       13
 40
0.0
 40
0.0
 40
0.0
 40
0.0
 40
0.3527777776895833
 40
0.3527777776895833
 40
0.3527777776895833
 40
0.7055555553791667
 40
0.7055555553791667
 40
0.7055555553791667
 40
1.05833333306875
 40
1.05833333306875
 40
1.05833333306875
 40
1.411111110758333
 40
1.411111110758333
 40
1.411111110758333
 40
1.411111110758333
 10
83.89238785972688
 20
-136.9608216324263
 10
83.89238785972688
 20
-137.043477465739
 10
83.82518369477474
 20
-137.1106816323891
 10
83.74252786355012
 20
-137.1106816323891
 10
83.6594860901964
 20
-137.1106816323891
 10
83.5923150896046
 20
-137.043477465739
 10
83.5923150896046
 20
-136.9608216324263
 10
83.5923150896046
 20
-136.8781305213361
 10
83.6594860901964
 20
-136.810926354686
 10
83.74252786355012
 20
-136.810926354686
 10
83.82518369477474
 20
-136.810926354686
 10
83.89238785972688
 20
-136.8781305213361
 10
83.89238785972688
 20
-136.9608216324263
 97
        0
 72
     1
 10
83.89238785972688
 20
-136.9608216324263
 11
83.89238785972688
 21
-136.9608216324263
 97
        0
 75
     2
 76
     1
 98
        0
  0
POLYLINE
  5
196
330
79
100
AcDbEntity
  8
_U+30EC_U+30A4_U+30E4_U+30FC 1
 62
   179
420
  2234388
370
     9
100
AcDb2dPolyline
 66
     1
 10
0.0
 20
0.0
 30
0.0
  0
VERTEX
  5
197
330
196
100
AcDbEntity
  8
_U+30EC_U+30A4_U+30E4_U+30FC 1
 62
   179
420
  2234388
370
     9
100
AcDbVertex
100
AcDb2dVertex
 10
109.7542085888257
 20
-147.960644407454
 30
0.0
  0
VERTEX
  5
198
330
196
100
AcDbEntity
  8
_U+30EC_U+30A4_U+30E4_U+30FC 1
 62
   179
420
  2234388
370
     9
100
AcDbVertex
100
AcDb2dVertex
 10
109.7542085888257
 20
-152.4606424618846
 30
0.0
  0
SEQEND
  5
199
330
196
100
AcDbEntity
  8
_U+30EC_U+30A4_U+30E4_U+30FC 1
 62
   179
420
  2234388
370
     9
  0
POLYLINE
  5
19A
330
79
100
AcDbEntity
  8
_U+30EC_U+30A4_U+30E4_U+30FC 1
 62
   179
420
  2234388
370
     9
100
AcDb2dPolyline
 66
     1
 10
0.0
 20
0.0
 30
0.0
  0
VERTEX
  5
19B
330
19A
100
AcDbEntity
  8
_U+30EC_U+30A4_U+30E4_U+30FC 1
 62
   179
420
  2234388
370
     9
100
AcDbVertex
100
AcDb2dVertex
 10
73.74191311868707
 20
-143.96053246401
 30
0.0
  0
VERTEX
  5
19C
330
19A
100
AcDbEntity
  8
_U+30EC_U+30A4_U+30E4_U+30FC 1
 62
   179
420
  2234388
370
     9
100
AcDbVertex
100
AcDb2dVertex
 10
73.74191311868707
 20
-152.4606424618846
 30
0.0
  0
SEQEND
  5
19D
330
19A
100
AcDbEntity
  8
_U+30EC_U+30A4_U+30E4_U+30FC 1
 62
   179
420
  2234388
370
     9
  0
POLYLINE
  5
19E
330
79
100
AcDbEntity
  8
_U+30EC_U+30A4_U+30E4_U+30FC 1
 62
   179
420
  2234388
370
     9
100
AcDb2dPolyline
 66
     1
 10
0.0
 20
0.0
 30
0.0
  0
VERTEX
  5
19F
330
19E
100
AcDbEntity
  8
_U+30EC_U+30A4_U+30E4_U+30FC 1
 62
   179
420
  2234388
370
     9
100
AcDbVertex
100
AcDb2dVertex
 10
73.74226589645583
 20
-150.960631351149
 30
0.0
  0
VERTEX
  5
1A0
330
19E
100
AcDbEntity
  8
_U+30EC_U+30A4_U+30E4_U+30FC 1
 62
   179
420
  2234388
370
     9
100
AcDbVertex
100
AcDb2dVertex
 10
109.7545260888177
 20
-150.960631351149
 30
0.0
  0
SEQEND
  5
1A1
330
19E
100
AcDbEntity
  8
_U+30EC_U+30A4_U+30E4_U+30FC 1
 62
   179
420
  2234388
370
     9
  0
SPLINE
  5
1A2
330
79
100
AcDbEntity
  8
_U+30EC_U+30A4_U+30E4_U+30FC 1
370
     0
100
AcDbSpline
210
0.0
220
0.0
230
1.0
 70
    11
 71
     3
 72
    17
 73
    13
 74
     0
 42
0.0000000001
 43
0.0000000001
 12
1.0
 22
0.0
 32
0.0
 13
1.0
 23
0.0
 33
0.0
 40
0.0
 40
0.0
 40
0.0
 40
0.0
 40
1.0
 40
1.0
 40
1.0
 40
2.0
 40
2.0
 40
2.0
 40
3.0
 40
3.0
 40
3.0
 40
4.0
 40
4.0
 40
4.0
 40
4.0
 10
109.9043888614131
 20
-150.960631351149
 30
0.0
 10
109.9043888614131
 20
-151.0433224622392
 30
0.0
 10
109.8372171978191
 20
-151.1101738511115
 30
0.0
 10
109.7545260888177
 20
-151.1101738511115
 30
0.0
 10
109.671870257593
 20
-151.1101738511115
 30
0.0
 10
109.6046660926409
 20
-151.0433224622392
 30
0.0
 10
109.6046660926409
 20
-150.960631351149
 30
0.0
 10
109.6046660926409
 20
-150.8772699622808
 30
0.0
 10
109.671870257593
 20
-150.8104185734085
 30
0.0
 10
109.7545260888177
 20
-150.8104185734085
 30
0.0
 10
109.8372171978191
 20
-150.8104185734085
 30
0.0
 10
109.9043888614131
 20
-150.8772699622808
 30
0.0
 10
109.9043888614131
 20
-150.960631351149
 30
0.0
  0
HATCH
  5
1A3
330
79
100
AcDbEntity
  8
_U+30EC_U+30A4_U+30E4_U+30FC 1
 62
   179
420
  2234388
100
AcDbHatch
 10
0.0
 20
0.0
 30
0.0
210
0.0
220
0.0
230
1.0
  2
SOLID
 70
     1
 71
     0
 91
        1
 92
        1
 93
        2
 72
     4
 94
        3
 73
     0
 74
     0
 95
       17
 96
       13
 40
0.0
 40
0.0
 40
0.0
 40
0.0
 40
0.3527777776895833
 40
0.3527777776895833
 40
0.3527777776895833
 40
0.7055555553791667
 40
0.7055555553791667
 40
0.7055555553791667
 40
1.05833333306875
 40
1.05833333306875
 40
1.05833333306875
 40
1.411111110758333
 40
1.411111110758333
 40
1.411111110758333
 40
1.411111110758333
 10
109.9043888614131
 20
-150.960631351149
 10
109.9043888614131
 20
-151.0433224622392
 10
109.8372171978191
 20
-151.1101738511115
 10
109.7545260888177
 20
-151.1101738511115
 10
109.671870257593
 20
-151.1101738511115
 10
109.6046660926409
 20
-151.0433224622392
 10
109.6046660926409
 20
-150.960631351149
 10
109.6046660926409
 20
-150.8772699622808
 10
109.671870257593
 20
-150.8104185734085
 10
109.7545260888177
 20
-150.8104185734085
 10
109.8372171978191
 20
-150.8104185734085
 10
109.9043888614131
 20
-150.8772699622808
 10
109.9043888614131
 20
-150.960631351149
 97
        0
 72
     1
 10
109.9043888614131
 20
-150.960631351149
 11
109.9043888614131
 21
-150.960631351149
 97
        0
 75
     2
 76
     1
 98
        0
  0
SPLINE
  5
1A4
330
79
100
AcDbEntity
  8
_U+30EC_U+30A4_U+30E4_U+30FC 1
370
     0
100
AcDbSpline
210
0.0
220
0.0
230
1.0
 70
    11
 71
     3
 72
    17
 73
    13
 74
     0
 42
0.0000000001
 43
0.0000000001
 12
1.0
 22
0.0
 32
0.0
 13
1.0
 23
0.0
 33
0.0
 40
0.0
 40
0.0
 40
0.0
 40
0.0
 40
1.0
 40
1.0
 40
1.0
 40
2.0
 40
2.0
 40
2.0
 40
3.0
 40
3.0
 40
3.0
 40
4.0
 40
4.0
 40
4.0
 40
4.0
 10
73.89230228151698
 20
-150.960631351149
 30
0.0
 10
73.89230228151698
 20
-151.0433224622392
 30
0.0
 10
73.82513339434172
 20
-151.1101738511115
 30
0.0
 10
73.74244228534023
 20
-151.1101738511115
 30
0.0
 10
73.65939839856996
 20
-151.1101738511115
 30
0.0
 10
73.59222951139469
 20
-151.0433224622392
 30
0.0
 10
73.59222951139469
 20
-150.960631351149
 30
0.0
 10
73.59222951139469
 20
-150.8772699622808
 30
0.0
 10
73.65939839856996
 20
-150.8104185734085
 30
0.0
 10
73.74244228534023
 20
-150.8104185734085
 30
0.0
 10
73.82513339434172
 20
-150.8104185734085
 30
0.0
 10
73.89230228151698
 20
-150.8772699622808
 30
0.0
 10
73.89230228151698
 20
-150.960631351149
 30
0.0
  0
HATCH
  5
1A5
330
79
100
AcDbEntity
  8
_U+30EC_U+30A4_U+30E4_U+30FC 1
 62
   179
420
  2234388
100
AcDbHatch
 10
0.0
 20
0.0
 30
0.0
210
0.0
220
0.0
230
1.0
  2
SOLID
 70
     1
 71
     0
 91
        1
 92
        1
 93
        2
 72
     4
 94
        3
 73
     0
 74
     0
 95
       17
 96
       13
 40
0.0
 40
0.0
 40
0.0
 40
0.0
 40
0.3527777776895833
 40
0.3527777776895833
 40
0.3527777776895833
 40
0.7055555553791667
 40
0.7055555553791667
 40
0.7055555553791667
 40
1.05833333306875
 40
1.05833333306875
 40
1.05833333306875
 40
1.411111110758333
 40
1.411111110758333
 40
1.411111110758333
 40
1.411111110758333
 10
73.89230228151698
 20
-150.960631351149
 10
73.89230228151698
 20
-151.0433224622392
 10
73.82513339434172
 20
-151.1101738511115
 10
73.74244228534023
 20
-151.1101738511115
 10
73.65939839856996
 20
-151.1101738511115
 10
73.59222951139469
 20
-151.0433224622392
 10
73.59222951139469
 20
-150.960631351149
 10
73.59222951139469
 20
-150.8772699622808
 10
73.65939839856996
 20
-150.8104185734085
 10
73.74244228534023
 20
-150.8104185734085
 10
73.82513339434172
 20
-150.8104185734085
 10
73.89230228151698
 20
-150.8772699622808
 10
73.89230228151698
 20
-150.960631351149
 97
        0
 72
     1
 10
73.89230228151698
 20
-150.960631351149
 11
73.89230228151698
 21
-150.960631351149
 97
        0
 75
     2
 76
     1
 98
        0
  0
POLYLINE
  5
1A6
330
79
100
AcDbEntity
  8
_U+30EC_U+30A4_U+30E4_U+30FC 1
 62
   179
420
  2234388
370
     9
100
AcDb2dPolyline
 66
     1
 10
0.0
 20
0.0
 30
0.0
  0
VERTEX
  5
1A7
330
1A6
100
AcDbEntity
  8
_U+30EC_U+30A4_U+30E4_U+30FC 1
 62
   179
420
  2234388
370
     9
100
AcDbVertex
100
AcDb2dVertex
 10
79.74206324338826
 20
-147.960644407454
 30
0.0
  0
VERTEX
  5
1A8
330
1A6
100
AcDbEntity
  8
_U+30EC_U+30A4_U+30E4_U+30FC 1
 62
   179
420
  2234388
370
     9
100
AcDbVertex
100
AcDb2dVertex
 10
79.74206324338826
 20
-152.4606424618846
 30
0.0
  0
SEQEND
  5
1A9
330
1A6
100
AcDbEntity
  8
_U+30EC_U+30A4_U+30E4_U+30FC 1
 62
   179
420
  2234388
370
     9
  0
SPLINE
  5
1AA
330
79
100
AcDbEntity
  8
_U+30EC_U+30A4_U+30E4_U+30FC 1
370
     0
100
AcDbSpline
210
0.0
220
0.0
230
1.0
 70
    11
 71
     3
 72
    17
 73
    13
 74
     0
 42
0.0000000001
 43
0.0000000001
 12
1.0
 22
0.0
 32
0.0
 13
1.0
 23
0.0
 33
0.0
 40
0.0
 40
0.0
 40
0.0
 40
0.0
 40
1.0
 40
1.0
 40
1.0
 40
2.0
 40
2.0
 40
2.0
 40
3.0
 40
3.0
 40
3.0
 40
4.0
 40
4.0
 40
4.0
 40
4.0
 10
79.89227601733378
 20
-150.960631351149
 30
0.0
 10
79.89227601733378
 20
-151.0433224622392
 30
0.0
 10
79.82510713015851
 20
-151.1104913511111
 30
0.0
 10
79.74206324338826
 20
-151.1104913511111
 30
0.0
 10
79.65940741216365
 20
-151.1104913511111
 30
0.0
 10
79.5922032472115
 20
-151.0433224622392
 30
0.0
 10
79.5922032472115
 20
-150.960631351149
 30
0.0
 10
79.5922032472115
 20
-150.8772699622808
 30
0.0
 10
79.65940741216365
 20
-150.8104185734085
 30
0.0
 10
79.74206324338826
 20
-150.8104185734085
 30
0.0
 10
79.82510713015851
 20
-150.8104185734085
 30
0.0
 10
79.89227601733378
 20
-150.8772699622808
 30
0.0
 10
79.89227601733378
 20
-150.960631351149
 30
0.0
  0
HATCH
  5
1AB
330
79
100
AcDbEntity
  8
_U+30EC_U+30A4_U+30E4_U+30FC 1
 62
   179
420
  2234388
100
AcDbHatch
 10
0.0
 20
0.0
 30
0.0
210
0.0
220
0.0
230
1.0
  2
SOLID
 70
     1
 71
     0
 91
        1
 92
        1
 93
        2
 72
     4
 94
        3
 73
     0
 74
     0
 95
       17
 96
       13
 40
0.0
 40
0.0
 40
0.0
 40
0.0
 40
0.3527777776895833
 40
0.3527777776895833
 40
0.3527777776895833
 40
0.7055555553791667
 40
0.7055555553791667
 40
0.7055555553791667
 40
1.05833333306875
 40
1.05833333306875
 40
1.05833333306875
 40
1.411111110758333
 40
1.411111110758333
 40
1.411111110758333
 40
1.411111110758333
 10
79.89227601733378
 20
-150.960631351149
 10
79.89227601733378
 20
-151.0433224622392
 10
79.82510713015851
 20
-151.1104913511111
 10
79.74206324338826
 20
-151.1104913511111
 10
79.65940741216365
 20
-151.1104913511111
 10
79.5922032472115
 20
-151.0433224622392
 10
79.5922032472115
 20
-150.960631351149
 10
79.5922032472115
 20
-150.8772699622808
 10
79.65940741216365
 20
-150.8104185734085
 10
79.74206324338826
 20
-150.8104185734085
 10
79.82510713015851
 20
-150.8104185734085
 10
79.89227601733378
 20
-150.8772699622808
 10
79.89227601733378
 20
-150.960631351149
 97
        0
 72
     1
 10
79.89227601733378
 20
-150.960631351149
 11
79.89227601733378
 21
-150.960631351149
 97
        0
 75
     2
 76
     1
 98
        0
  0
INSERT
  5
1AD
330
79
100
AcDbEntity
  8
_U+30EC_U+30A4_U+30E4_U+30FC 1
100
AcDbBlockReference
  2
block 8
 10
0.0
 20
0.0
 30
0.0
  0
INSERT
  5
1B4
330
79
100
AcDbEntity
  8
_U+30EC_U+30A4_U+30E4_U+30FC 1
100
AcDbBlockReference
  2
block 9
 10
0.0
 20
0.0
 30
0.0
  0
INSERT
  5
1BB
330
79
100
AcDbEntity
  8
_U+30EC_U+30A4_U+30E4_U+30FC 1
100
AcDbBlockReference
  2
block 10
 10
0.0
 20
0.0
 30
0.0
  0
INSERT
  5
1C4
330
79
100
AcDbEntity
  8
_U+30EC_U+30A4_U+30E4_U+30FC 1
100
AcDbBlockReference
  2
block 11
 10
0.0
 20
0.0
 30
0.0
  0
INSERT
  5
1CD
330
79
100
AcDbEntity
  8
_U+30EC_U+30A4_U+30E4_U+30FC 1
100
AcDbBlockReference
  2
block 12
 10
0.0
 20
0.0
 30
0.0
  0
INSERT
  5
1D6
330
79
100
AcDbEntity
  8
_U+30EC_U+30A4_U+30E4_U+30FC 1
100
AcDbBlockReference
  2
block 13
 10
0.0
 20
0.0
 30
0.0
  0
INSERT
  5
1DF
330
79
100
AcDbEntity
  8
_U+30EC_U+30A4_U+30E4_U+30FC 1
100
AcDbBlockReference
  2
block 14
 10
0.0
 20
0.0
 30
0.0
  0
INSERT
  5
1E6
330
79
100
AcDbEntity
  8
_U+30EC_U+30A4_U+30E4_U+30FC 1
100
AcDbBlockReference
  2
block 15
 10
0.0
 20
0.0
 30
0.0
  0
ENDBLK
  5
7C
330
79
100
AcDbEntity
  8
0
100
AcDbBlockEnd
  0
BLOCK
  5
7F
330
7D
100
AcDbEntity
  8
0
100
AcDbBlockBegin
  2
block 5
 70
     0
 10
0.0
 20
0.0
 30
0.0
  3
block 5
  1

  0
POLYLINE
  5
81
330
7D
100
AcDbEntity
  8
_U+30EC_U+30A4_U+30E4_U+30FC 1
 62
   179
420
  2234388
370
    25
100
AcDb2dPolyline
 66
     1
 10
0.0
 20
0.0
 30
0.0
  0
VERTEX
  5
82
330
81
100
AcDbEntity
  8
_U+30EC_U+30A4_U+30E4_U+30FC 1
 62
   179
420
  2234388
370
    25
100
AcDbVertex
100
AcDb2dVertex
 10
106.2467509005307
 20
-116.9602971929822
 30
0.0
  0
VERTEX
  5
83
330
81
100
AcDbEntity
  8
_U+30EC_U+30A4_U+30E4_U+30FC 1
 62
   179
420
  2234388
370
    25
100
AcDbVertex
100
AcDb2dVertex
 10
105.7492636910004
 20
-116.96064997076
 30
0.0
  0
VERTEX
  5
84
330
81
100
AcDbEntity
  8
_U+30EC_U+30A4_U+30E4_U+30FC 1
 62
   179
420
  2234388
370
    25
100
AcDbVertex
100
AcDb2dVertex
 10
105.7492636910004
 20
-114.4498599713875
 30
0.0
  0
VERTEX
  5
85
330
81
100
AcDbEntity
  8
_U+30EC_U+30A4_U+30E4_U+30FC 1
 62
   179
420
  2234388
370
    25
100
AcDbVertex
100
AcDb2dVertex
 10
105.2514589814782
 20
-113.9606630270653
 30
0.0
  0
VERTEX
  5
86
330
81
100
AcDbEntity
  8
_U+30EC_U+30A4_U+30E4_U+30FC 1
 62
   179
420
  2234388
370
    25
100
AcDbVertex
100
AcDb2dVertex
 10
105.7492636910004
 20
-113.4638813605229
 30
0.0
  0
VERTEX
  5
87
330
81
100
AcDbEntity
  8
_U+30EC_U+30A4_U+30E4_U+30FC 1
 62
   179
420
  2234388
370
    25
100
AcDbVertex
100
AcDb2dVertex
 10
105.7492636910004
 20
-110.960676083371
 30
0.0
  0
VERTEX
  5
88
330
81
100
AcDbEntity
  8
_U+30EC_U+30A4_U+30E4_U+30FC 1
 62
   179
420
  2234388
370
    25
100
AcDbVertex
100
AcDb2dVertex
 10
103.7476731865097
 20
-110.960676083371
 30
0.0
  0
VERTEX
  5
89
330
81
100
AcDbEntity
  8
_U+30EC_U+30A4_U+30E4_U+30FC 1
 62
   179
420
  2234388
370
    25
100
AcDbVertex
100
AcDb2dVertex
 10
103.7476731865097
 20
-111.4608796943572
 30
0.0
  0
VERTEX
  5
8A
330
81
100
AcDbEntity
  8
_U+30EC_U+30A4_U+30E4_U+30FC 1
 62
   179
420
  2234388
370
    25
100
AcDbVertex
100
AcDb2dVertex
 10
104.0480987344007
 20
-111.7606349720599
 30
0.0
  0
VERTEX
  5
8B
330
81
100
AcDbEntity
  8
_U+30EC_U+30A4_U+30E4_U+30FC 1
 62
   179
420
  2234388
370
    25
100
AcDbVertex
100
AcDb2dVertex
 10
103.7476731865097
 20
-112.0610252497625
 30
0.0
  0
VERTEX
  5
8C
330
81
100
AcDbEntity
  8
_U+30EC_U+30A4_U+30E4_U+30FC 1
 62
   179
420
  2234388
370
    25
100
AcDbVertex
100
AcDb2dVertex
 10
104.0480987344007
 20
-112.3607452496877
 30
0.0
  0
VERTEX
  5
8D
330
81
100
AcDbEntity
  8
_U+30EC_U+30A4_U+30E4_U+30FC 1
 62
   179
420
  2234388
370
    25
100
AcDbVertex
100
AcDb2dVertex
 10
103.7476731865097
 20
-112.6604652496127
 30
0.0
  0
VERTEX
  5
8E
330
81
100
AcDbEntity
  8
_U+30EC_U+30A4_U+30E4_U+30FC 1
 62
   179
420
  2234388
370
    25
100
AcDbVertex
100
AcDb2dVertex
 10
104.0480987344007
 20
-112.9608908050931
 30
0.0
  0
VERTEX
  5
8F
330
81
100
AcDbEntity
  8
_U+30EC_U+30A4_U+30E4_U+30FC 1
 62
   179
420
  2234388
370
    25
100
AcDbVertex
100
AcDb2dVertex
 10
103.7476731865097
 20
-113.2613163605735
 30
0.0
  0
VERTEX
  5
90
330
81
100
AcDbEntity
  8
_U+30EC_U+30A4_U+30E4_U+30FC 1
 62
   179
420
  2234388
370
    25
100
AcDbVertex
100
AcDb2dVertex
 10
104.0480987344007
 20
-113.5610363604988
 30
0.0
  0
VERTEX
  5
91
330
81
100
AcDbEntity
  8
_U+30EC_U+30A4_U+30E4_U+30FC 1
 62
   179
420
  2234388
370
    25
100
AcDbVertex
100
AcDb2dVertex
 10
103.7476731865097
 20
-113.8614266382014
 30
0.0
  0
VERTEX
  5
92
330
81
100
AcDbEntity
  8
_U+30EC_U+30A4_U+30E4_U+30FC 1
 62
   179
420
  2234388
370
    25
100
AcDbVertex
100
AcDb2dVertex
 10
104.0480987344007
 20
-114.1604763603489
 30
0.0
  0
VERTEX
  5
93
330
81
100
AcDbEntity
  8
_U+30EC_U+30A4_U+30E4_U+30FC 1
 62
   179
420
  2234388
370
    25
100
AcDbVertex
100
AcDb2dVertex
 10
103.7476731865097
 20
-114.4615721936067
 30
0.0
  0
VERTEX
  5
94
330
81
100
AcDbEntity
  8
_U+30EC_U+30A4_U+30E4_U+30FC 1
 62
   179
420
  2234388
370
    25
100
AcDbVertex
100
AcDb2dVertex
 10
104.0480987344007
 20
-114.7612921935319
 30
0.0
  0
VERTEX
  5
95
330
81
100
AcDbEntity
  8
_U+30EC_U+30A4_U+30E4_U+30FC 1
 62
   179
420
  2234388
370
    25
100
AcDbVertex
100
AcDb2dVertex
 10
103.7476731865097
 20
-115.0617177490124
 30
0.0
  0
VERTEX
  5
96
330
81
100
AcDbEntity
  8
_U+30EC_U+30A4_U+30E4_U+30FC 1
 62
   179
420
  2234388
370
    25
100
AcDbVertex
100
AcDb2dVertex
 10
104.0480987344007
 20
-115.3614377489373
 30
0.0
  0
VERTEX
  5
97
330
81
100
AcDbEntity
  8
_U+30EC_U+30A4_U+30E4_U+30FC 1
 62
   179
420
  2234388
370
    25
100
AcDbVertex
100
AcDb2dVertex
 10
103.7476731865097
 20
-115.6618633044177
 30
0.0
  0
VERTEX
  5
98
330
81
100
AcDbEntity
  8
_U+30EC_U+30A4_U+30E4_U+30FC 1
 62
   179
420
  2234388
370
    25
100
AcDbVertex
100
AcDb2dVertex
 10
104.0480987344007
 20
-115.961583304343
 30
0.0
  0
VERTEX
  5
99
330
81
100
AcDbEntity
  8
_U+30EC_U+30A4_U+30E4_U+30FC 1
 62
   179
420
  2234388
370
    25
100
AcDbVertex
100
AcDb2dVertex
 10
103.7476731865097
 20
-116.2619735820456
 30
0.0
  0
VERTEX
  5
9A
330
81
100
AcDbEntity
  8
_U+30EC_U+30A4_U+30E4_U+30FC 1
 62
   179
420
  2234388
370
    25
100
AcDbVertex
100
AcDb2dVertex
 10
104.0480987344007
 20
-116.5616935819708
 30
0.0
  0
VERTEX
  5
9B
330
81
100
AcDbEntity
  8
_U+30EC_U+30A4_U+30E4_U+30FC 1
 62
   179
420
  2234388
370
    25
100
AcDbVertex
100
AcDb2dVertex
 10
103.7476731865097
 20
-116.8621191374512
 30
0.0
  0
VERTEX
  5
9C
330
81
100
AcDbEntity
  8
_U+30EC_U+30A4_U+30E4_U+30FC 1
 62
   179
420
  2234388
370
    25
100
AcDbVertex
100
AcDb2dVertex
 10
104.0480987344007
 20
-117.1618391373761
 30
0.0
  0
VERTEX
  5
9D
330
81
100
AcDbEntity
  8
_U+30EC_U+30A4_U+30E4_U+30FC 1
 62
   179
420
  2234388
370
    25
100
AcDbVertex
100
AcDb2dVertex
 10
103.7476731865097
 20
-117.4622646928566
 30
0.0
  0
VERTEX
  5
9E
330
81
100
AcDbEntity
  8
_U+30EC_U+30A4_U+30E4_U+30FC 1
 62
   179
420
  2234388
370
    25
100
AcDbVertex
100
AcDb2dVertex
 10
104.0480987344007
 20
-117.7612791372263
 30
0.0
  0
VERTEX
  5
9F
330
81
100
AcDbEntity
  8
_U+30EC_U+30A4_U+30E4_U+30FC 1
 62
   179
420
  2234388
370
    25
100
AcDbVertex
100
AcDb2dVertex
 10
103.7476731865097
 20
-118.0623749704844
 30
0.0
  0
VERTEX
  5
A0
330
81
100
AcDbEntity
  8
_U+30EC_U+30A4_U+30E4_U+30FC 1
 62
   179
420
  2234388
370
    25
100
AcDbVertex
100
AcDb2dVertex
 10
104.0480987344007
 20
-118.3620949704096
 30
0.0
  0
VERTEX
  5
A1
330
81
100
AcDbEntity
  8
_U+30EC_U+30A4_U+30E4_U+30FC 1
 62
   179
420
  2234388
370
    25
100
AcDbVertex
100
AcDb2dVertex
 10
103.7476731865097
 20
-118.6625205258901
 30
0.0
  0
VERTEX
  5
A2
330
81
100
AcDbEntity
  8
_U+30EC_U+30A4_U+30E4_U+30FC 1
 62
   179
420
  2234388
370
    25
100
AcDbVertex
100
AcDb2dVertex
 10
104.0480987344007
 20
-118.962240525815
 30
0.0
  0
VERTEX
  5
A3
330
81
100
AcDbEntity
  8
_U+30EC_U+30A4_U+30E4_U+30FC 1
 62
   179
420
  2234388
370
    25
100
AcDbVertex
100
AcDb2dVertex
 10
103.7476731865097
 20
-119.2626660812954
 30
0.0
  0
VERTEX
  5
A4
330
81
100
AcDbEntity
  8
_U+30EC_U+30A4_U+30E4_U+30FC 1
 62
   179
420
  2234388
370
    25
100
AcDbVertex
100
AcDb2dVertex
 10
104.0480987344007
 20
-119.5623860812207
 30
0.0
  0
VERTEX
  5
A5
330
81
100
AcDbEntity
  8
_U+30EC_U+30A4_U+30E4_U+30FC 1
 62
   179
420
  2234388
370
    25
100
AcDbVertex
100
AcDb2dVertex
 10
103.7476731865097
 20
-119.8628116367011
 30
0.0
  0
VERTEX
  5
A6
330
81
100
AcDbEntity
  8
_U+30EC_U+30A4_U+30E4_U+30FC 1
 62
   179
420
  2234388
370
    25
100
AcDbVertex
100
AcDb2dVertex
 10
104.0480987344007
 20
-120.162531636626
 30
0.0
  0
VERTEX
  5
A7
330
81
100
AcDbEntity
  8
_U+30EC_U+30A4_U+30E4_U+30FC 1
 62
   179
420
  2234388
370
    25
100
AcDbVertex
100
AcDb2dVertex
 10
103.7476731865097
 20
-120.4629219143286
 30
0.0
  0
VERTEX
  5
A8
330
81
100
AcDbEntity
  8
_U+30EC_U+30A4_U+30E4_U+30FC 1
 62
   179
420
  2234388
370
    25
100
AcDbVertex
100
AcDb2dVertex
 10
103.7476731865097
 20
-120.9610794142042
 30
0.0
  0
VERTEX
  5
A9
330
81
100
AcDbEntity
  8
_U+30EC_U+30A4_U+30E4_U+30FC 1
 62
   179
420
  2234388
370
    25
100
AcDbVertex
100
AcDb2dVertex
 10
104.7457194182578
 20
-120.9610794142042
 30
0.0
  0
VERTEX
  5
AA
330
81
100
AcDbEntity
  8
_U+30EC_U+30A4_U+30E4_U+30FC 1
 62
   179
420
  2234388
370
    25
100
AcDbVertex
100
AcDb2dVertex
 10
104.7457194182578
 20
-118.1609058037932
 30
0.0
  0
VERTEX
  5
AB
330
81
100
AcDbEntity
  8
_U+30EC_U+30A4_U+30E4_U+30FC 1
 62
   179
420
  2234388
370
    25
100
AcDbVertex
100
AcDb2dVertex
 10
105.3648064785865
 20
-118.1605883037932
 30
0.0
  0
SEQEND
  5
AC
330
81
100
AcDbEntity
  8
_U+30EC_U+30A4_U+30E4_U+30FC 1
 62
   179
420
  2234388
370
    25
  0
POLYLINE
  5
AD
330
7D
100
AcDbEntity
  8
_U+30EC_U+30A4_U+30E4_U+30FC 1
 62
   179
420
  2234388
370
    25
100
AcDb2dPolyline
 66
     1
 10
0.0
 20
0.0
 30
0.0
  0
VERTEX
  5
AE
330
AD
100
AcDbEntity
  8
_U+30EC_U+30A4_U+30E4_U+30FC 1
 62
   179
420
  2234388
370
    25
100
AcDbVertex
100
AcDb2dVertex
 10
79.74206324338826
 20
-143.7651994085032
 30
0.0
  0
VERTEX
  5
AF
330
AD
100
AcDbEntity
  8
_U+30EC_U+30A4_U+30E4_U+30FC 1
 62
   179
420
  2234388
370
    25
100
AcDbVertex
100
AcDb2dVertex
 10
79.74206324338826
 20
-146.9602019077041
 30
0.0
  0
VERTEX
  5
B0
330
AD
100
AcDbEntity
  8
_U+30EC_U+30A4_U+30E4_U+30FC 1
 62
   179
420
  2234388
370
    25
100
AcDbVertex
100
AcDb2dVertex
 10
109.7542085888257
 20
-146.9602019077041
 30
0.0
  0
VERTEX
  5
B1
330
AD
100
AcDbEntity
  8
_U+30EC_U+30A4_U+30E4_U+30FC 1
 62
   179
420
  2234388
370
    25
100
AcDbVertex
100
AcDb2dVertex
 10
109.7542085888257
 20
-116.96064997076
 30
0.0
  0
VERTEX
  5
B2
330
AD
100
AcDbEntity
  8
_U+30EC_U+30A4_U+30E4_U+30FC 1
 62
   179
420
  2234388
370
    25
100
AcDbVertex
100
AcDb2dVertex
 10
106.2467509005307
 20
-116.96064997076
 30
0.0
  0
SEQEND
  5
B3
330
AD
100
AcDbEntity
  8
_U+30EC_U+30A4_U+30E4_U+30FC 1
 62
   179
420
  2234388
370
    25
  0
POLYLINE
  5
B4
330
7D
100
AcDbEntity
  8
_U+30EC_U+30A4_U+30E4_U+30FC 1
 62
   179
420
  2234388
370
    25
100
AcDb2dPolyline
 66
     1
 10
0.0
 20
0.0
 30
0.0
  0
VERTEX
  5
B5
330
B4
100
AcDbEntity
  8
_U+30EC_U+30A4_U+30E4_U+30FC 1
 62
   179
420
  2234388
370
    25
100
AcDbVertex
100
AcDb2dVertex
 10
80.9423543238774
 20
-142.5270552421458
 30
0.0
  0
VERTEX
  5
B6
330
B4
100
AcDbEntity
  8
_U+30EC_U+30A4_U+30E4_U+30FC 1
 62
   179
420
  2234388
370
    25
100
AcDbVertex
100
AcDb2dVertex
 10
80.942177934993
 20
-141.9603177422876
 30
0.0
  0
VERTEX
  5
B7
330
B4
100
AcDbEntity
  8
_U+30EC_U+30A4_U+30E4_U+30FC 1
 62
   179
420
  2234388
370
    25
100
AcDbVertex
100
AcDb2dVertex
 10
83.74252786355012
 20
-141.9603177422876
 30
0.0
  0
VERTEX
  5
B8
330
B4
100
AcDbEntity
  8
_U+30EC_U+30A4_U+30E4_U+30FC 1
 62
   179
420
  2234388
370
    25
100
AcDbVertex
100
AcDb2dVertex
 10
83.74252786355012
 20
-140.963332464759
 30
0.0
  0
VERTEX
  5
B9
330
B4
100
AcDbEntity
  8
_U+30EC_U+30A4_U+30E4_U+30FC 1
 62
   179
420
  2234388
370
    25
100
AcDbVertex
100
AcDb2dVertex
 10
83.24437037625918
 20
-140.963332464759
 30
0.0
  0
VERTEX
  5
BA
330
B4
100
AcDbEntity
  8
_U+30EC_U+30A4_U+30E4_U+30FC 1
 62
   179
420
  2234388
370
    25
100
AcDbVertex
100
AcDb2dVertex
 10
82.94447399502128
 20
-141.2630524646845
 30
0.0
  0
VERTEX
  5
BB
330
B4
100
AcDbEntity
  8
_U+30EC_U+30A4_U+30E4_U+30FC 1
 62
   179
420
  2234388
370
    25
100
AcDbVertex
100
AcDb2dVertex
 10
82.644401224899
 20
-140.963332464759
 30
0.0
  0
VERTEX
  5
BC
330
B4
100
AcDbEntity
  8
_U+30EC_U+30A4_U+30E4_U+30FC 1
 62
   179
420
  2234388
370
    25
100
AcDbVertex
100
AcDb2dVertex
 10
82.34450484366111
 20
-141.2630524646845
 30
0.0
  0
VERTEX
  5
BD
330
B4
100
AcDbEntity
  8
_U+30EC_U+30A4_U+30E4_U+30FC 1
 62
   179
420
  2234388
370
    25
100
AcDbVertex
100
AcDb2dVertex
 10
82.04390290688566
 20
-140.963332464759
 30
0.0
  0
VERTEX
  5
BE
330
B4
100
AcDbEntity
  8
_U+30EC_U+30A4_U+30E4_U+30FC 1
 62
   179
420
  2234388
370
    25
100
AcDbVertex
100
AcDb2dVertex
 10
81.74435930341654
 20
-141.2630524646845
 30
0.0
  0
VERTEX
  5
BF
330
B4
100
AcDbEntity
  8
_U+30EC_U+30A4_U+30E4_U+30FC 1
 62
   179
420
  2234388
370
    25
100
AcDbVertex
100
AcDb2dVertex
 10
81.44379264441797
 20
-140.963332464759
 30
0.0
  0
VERTEX
  5
C0
330
B4
100
AcDbEntity
  8
_U+30EC_U+30A4_U+30E4_U+30FC 1
 62
   179
420
  2234388
370
    25
100
AcDbVertex
100
AcDb2dVertex
 10
81.14421376317198
 20
-141.2630524646845
 30
0.0
  0
VERTEX
  5
C1
330
B4
100
AcDbEntity
  8
_U+30EC_U+30A4_U+30E4_U+30FC 1
 62
   179
420
  2234388
370
    25
100
AcDbVertex
100
AcDb2dVertex
 10
80.84382349305778
 20
-140.963332464759
 30
0.0
  0
VERTEX
  5
C2
330
B4
100
AcDbEntity
  8
_U+30EC_U+30A4_U+30E4_U+30FC 1
 62
   179
420
  2234388
370
    25
100
AcDbVertex
100
AcDb2dVertex
 10
80.54427988958868
 20
-141.2630524646845
 30
0.0
  0
VERTEX
  5
C3
330
B4
100
AcDbEntity
  8
_U+30EC_U+30A4_U+30E4_U+30FC 1
 62
   179
420
  2234388
370
    25
100
AcDbVertex
100
AcDb2dVertex
 10
80.24367795281323
 20
-140.963332464759
 30
0.0
  0
VERTEX
  5
C4
330
B4
100
AcDbEntity
  8
_U+30EC_U+30A4_U+30E4_U+30FC 1
 62
   179
420
  2234388
370
    25
100
AcDbVertex
100
AcDb2dVertex
 10
79.94378157157533
 20
-141.2630524646845
 30
0.0
  0
VERTEX
  5
C5
330
B4
100
AcDbEntity
  8
_U+30EC_U+30A4_U+30E4_U+30FC 1
 62
   179
420
  2234388
370
    25
100
AcDbVertex
100
AcDb2dVertex
 10
79.64353241256866
 20
-140.963332464759
 30
0.0
  0
VERTEX
  5
C6
330
B4
100
AcDbEntity
  8
_U+30EC_U+30A4_U+30E4_U+30FC 1
 62
   179
420
  2234388
370
    25
100
AcDbVertex
100
AcDb2dVertex
 10
79.34363603133076
 20
-141.2630524646845
 30
0.0
  0
VERTEX
  5
C7
330
B4
100
AcDbEntity
  8
_U+30EC_U+30A4_U+30E4_U+30FC 1
 62
   179
420
  2234388
370
    25
100
AcDbVertex
100
AcDb2dVertex
 10
79.04356326120848
 20
-140.963332464759
 30
0.0
  0
VERTEX
  5
C8
330
B4
100
AcDbEntity
  8
_U+30EC_U+30A4_U+30E4_U+30FC 1
 62
   179
420
  2234388
370
    25
100
AcDbVertex
100
AcDb2dVertex
 10
78.74366687997058
 20
-141.2630524646845
 30
0.0
  0
VERTEX
  5
C9
330
B4
100
AcDbEntity
  8
_U+30EC_U+30A4_U+30E4_U+30FC 1
 62
   179
420
  2234388
370
    25
100
AcDbVertex
100
AcDb2dVertex
 10
78.44310022097201
 20
-140.963332464759
 30
0.0
  0
VERTEX
  5
CA
330
B4
100
AcDbEntity
  8
_U+30EC_U+30A4_U+30E4_U+30FC 1
 62
   179
420
  2234388
370
    25
100
AcDbVertex
100
AcDb2dVertex
 10
78.1435566175029
 20
-141.2630524646845
 30
0.0
  0
VERTEX
  5
CB
330
B4
100
AcDbEntity
  8
_U+30EC_U+30A4_U+30E4_U+30FC 1
 62
   179
420
  2234388
370
    25
100
AcDbVertex
100
AcDb2dVertex
 10
77.84295468072744
 20
-140.963332464759
 30
0.0
  0
VERTEX
  5
CC
330
B4
100
AcDbEntity
  8
_U+30EC_U+30A4_U+30E4_U+30FC 1
 62
   179
420
  2234388
370
    25
100
AcDbVertex
100
AcDb2dVertex
 10
77.54358746614271
 20
-141.2630524646845
 30
0.0
  0
VERTEX
  5
CD
330
B4
100
AcDbEntity
  8
_U+30EC_U+30A4_U+30E4_U+30FC 1
 62
   179
420
  2234388
370
    25
100
AcDbVertex
100
AcDb2dVertex
 10
77.24298552936726
 20
-140.963332464759
 30
0.0
  0
VERTEX
  5
CE
330
B4
100
AcDbEntity
  8
_U+30EC_U+30A4_U+30E4_U+30FC 1
 62
   179
420
  2234388
370
    25
100
AcDbVertex
100
AcDb2dVertex
 10
76.94308914812937
 20
-141.2630524646845
 30
0.0
  0
VERTEX
  5
CF
330
B4
100
AcDbEntity
  8
_U+30EC_U+30A4_U+30E4_U+30FC 1
 62
   179
420
  2234388
370
    25
100
AcDbVertex
100
AcDb2dVertex
 10
76.64287526689958
 20
-140.963332464759
 30
0.0
  0
VERTEX
  5
D0
330
B4
100
AcDbEntity
  8
_U+30EC_U+30A4_U+30E4_U+30FC 1
 62
   179
420
  2234388
370
    25
100
AcDbVertex
100
AcDb2dVertex
 10
76.34297888566168
 20
-141.2630524646845
 30
0.0
  0
VERTEX
  5
D1
330
B4
100
AcDbEntity
  8
_U+30EC_U+30A4_U+30E4_U+30FC 1
 62
   179
420
  2234388
370
    25
100
AcDbVertex
100
AcDb2dVertex
 10
76.04272972665501
 20
-140.963332464759
 30
0.0
  0
VERTEX
  5
D2
330
B4
100
AcDbEntity
  8
_U+30EC_U+30A4_U+30E4_U+30FC 1
 62
   179
420
  2234388
370
    25
100
AcDbVertex
100
AcDb2dVertex
 10
75.7430097343015
 20
-141.2630524646845
 30
0.0
  0
VERTEX
  5
D3
330
B4
100
AcDbEntity
  8
_U+30EC_U+30A4_U+30E4_U+30FC 1
 62
   179
420
  2234388
370
    25
100
AcDbVertex
100
AcDb2dVertex
 10
75.44276057529483
 20
-140.963332464759
 30
0.0
  0
VERTEX
  5
D4
330
B4
100
AcDbEntity
  8
_U+30EC_U+30A4_U+30E4_U+30FC 1
 62
   179
420
  2234388
370
    25
100
AcDbVertex
100
AcDb2dVertex
 10
75.14286419405694
 20
-141.2630524646845
 30
0.0
  0
VERTEX
  5
D5
330
B4
100
AcDbEntity
  8
_U+30EC_U+30A4_U+30E4_U+30FC 1
 62
   179
420
  2234388
370
    25
100
AcDbVertex
100
AcDb2dVertex
 10
74.84229753505836
 20
-140.963332464759
 30
0.0
  0
VERTEX
  5
D6
330
B4
100
AcDbEntity
  8
_U+30EC_U+30A4_U+30E4_U+30FC 1
 62
   179
420
  2234388
370
    25
100
AcDbVertex
100
AcDb2dVertex
 10
74.54240115382046
 20
-141.2630524646845
 30
0.0
  0
VERTEX
  5
D7
330
B4
100
AcDbEntity
  8
_U+30EC_U+30A4_U+30E4_U+30FC 1
 62
   179
420
  2234388
370
    25
100
AcDbVertex
100
AcDb2dVertex
 10
74.2421519948138
 20
-140.963332464759
 30
0.0
  0
VERTEX
  5
D8
330
B4
100
AcDbEntity
  8
_U+30EC_U+30A4_U+30E4_U+30FC 1
 62
   179
420
  2234388
370
    25
100
AcDbVertex
100
AcDb2dVertex
 10
73.74226589645583
 20
-140.963332464759
 30
0.0
  0
VERTEX
  5
D9
330
B4
100
AcDbEntity
  8
_U+30EC_U+30A4_U+30E4_U+30FC 1
 62
   179
420
  2234388
370
    25
100
AcDbVertex
100
AcDb2dVertex
 10
73.74226589645583
 20
-142.9635471864814
 30
0.0
  0
VERTEX
  5
DA
330
B4
100
AcDbEntity
  8
_U+30EC_U+30A4_U+30E4_U+30FC 1
 62
   179
420
  2234388
370
    25
100
AcDbVertex
100
AcDb2dVertex
 10
76.24529472148714
 20
-142.9635471864814
 30
0.0
  0
VERTEX
  5
DB
330
B4
100
AcDbEntity
  8
_U+30EC_U+30A4_U+30E4_U+30FC 1
 62
   179
420
  2234388
370
    25
100
AcDbVertex
100
AcDb2dVertex
 10
76.7427819310174
 20
-142.4660599643835
 30
0.0
  0
VERTEX
  5
DC
330
B4
100
AcDbEntity
  8
_U+30EC_U+30A4_U+30E4_U+30FC 1
 62
   179
420
  2234388
370
    25
100
AcDbVertex
100
AcDb2dVertex
 10
77.2319788629814
 20
-142.9635471864814
 30
0.0
  0
VERTEX
  5
DD
330
B4
100
AcDbEntity
  8
_U+30EC_U+30A4_U+30E4_U+30FC 1
 62
   179
420
  2234388
370
    25
100
AcDbVertex
100
AcDb2dVertex
 10
79.74206324338826
 20
-142.9635471864814
 30
0.0
  0
VERTEX
  5
DE
330
B4
100
AcDbEntity
  8
_U+30EC_U+30A4_U+30E4_U+30FC 1
 62
   179
420
  2234388
370
    25
100
AcDbVertex
100
AcDb2dVertex
 10
79.74206324338826
 20
-143.7651994085032
 30
0.0
  0
SEQEND
  5
DF
330
B4
100
AcDbEntity
  8
_U+30EC_U+30A4_U+30E4_U+30FC 1
 62
   179
420
  2234388
370
    25
  0
POLYLINE
  5
E0
330
7D
100
AcDbEntity
  8
_U+30EC_U+30A4_U+30E4_U+30FC 1
 62
   179
420
  2234388
370
    25
100
AcDb2dPolyline
 66
     1
 10
0.0
 20
0.0
 30
0.0
  0
VERTEX
  5
E1
330
E0
100
AcDbEntity
  8
_U+30EC_U+30A4_U+30E4_U+30FC 1
 62
   179
420
  2234388
370
    25
100
AcDbVertex
100
AcDb2dVertex
 10
105.3648064785865
 20
-118.1605883037932
 30
0.0
  0
VERTEX
  5
E2
330
E0
100
AcDbEntity
  8
_U+30EC_U+30A4_U+30E4_U+30FC 1
 62
   179
420
  2234388
370
    25
100
AcDbVertex
100
AcDb2dVertex
 10
106.0503595166522
 20
-118.1609058037932
 30
0.0
  0
VERTEX
  5
E3
330
E0
100
AcDbEntity
  8
_U+30EC_U+30A4_U+30E4_U+30FC 1
 62
   179
420
  2234388
370
    25
100
AcDbVertex
100
AcDb2dVertex
 10
106.0503595166522
 20
-119.6595410811962
 30
0.0
  0
VERTEX
  5
E4
330
E0
100
AcDbEntity
  8
_U+30EC_U+30A4_U+30E4_U+30FC 1
 62
   179
420
  2234388
370
    25
100
AcDbVertex
100
AcDb2dVertex
 10
107.0511547688975
 20
-119.6595410811962
 30
0.0
  0
VERTEX
  5
E5
330
E0
100
AcDbEntity
  8
_U+30EC_U+30A4_U+30E4_U+30FC 1
 62
   179
420
  2234388
370
    25
100
AcDbVertex
100
AcDb2dVertex
 10
107.0511547688975
 20
-118.1609058037932
 30
0.0
  0
VERTEX
  5
E6
330
E0
100
AcDbEntity
  8
_U+30EC_U+30A4_U+30E4_U+30FC 1
 62
   179
420
  2234388
370
    25
100
AcDbVertex
100
AcDb2dVertex
 10
108.5535647305678
 20
-118.1609058037932
 30
0.0
  0
VERTEX
  5
E7
330
E0
100
AcDbEntity
  8
_U+30EC_U+30A4_U+30E4_U+30FC 1
 62
   179
420
  2234388
370
    25
100
AcDbVertex
100
AcDb2dVertex
 10
108.5535647305678
 20
-145.7606163524489
 30
0.0
  0
VERTEX
  5
E8
330
E0
100
AcDbEntity
  8
_U+30EC_U+30A4_U+30E4_U+30FC 1
 62
   179
420
  2234388
370
    25
100
AcDbVertex
100
AcDb2dVertex
 10
80.942177934993
 20
-145.7606163524489
 30
0.0
  0
VERTEX
  5
E9
330
E0
100
AcDbEntity
  8
_U+30EC_U+30A4_U+30E4_U+30FC 1
 62
   179
420
  2234388
370
    25
100
AcDbVertex
100
AcDb2dVertex
 10
80.942177934993
 20
-144.2592294083798
 30
0.0
  0
VERTEX
  5
EA
330
E0
100
AcDbEntity
  8
_U+30EC_U+30A4_U+30E4_U+30FC 1
 62
   179
420
  2234388
370
    25
100
AcDbVertex
100
AcDb2dVertex
 10
82.44148345229809
 20
-144.2592294083798
 30
0.0
  0
VERTEX
  5
EB
330
E0
100
AcDbEntity
  8
_U+30EC_U+30A4_U+30E4_U+30FC 1
 62
   179
420
  2234388
370
    25
100
AcDbVertex
100
AcDb2dVertex
 10
82.44148345229809
 20
-143.2587869086299
 30
0.0
  0
VERTEX
  5
EC
330
E0
100
AcDbEntity
  8
_U+30EC_U+30A4_U+30E4_U+30FC 1
 62
   179
420
  2234388
370
    25
100
AcDbVertex
100
AcDb2dVertex
 10
80.942177934993
 20
-143.2587869086299
 30
0.0
  0
VERTEX
  5
ED
330
E0
100
AcDbEntity
  8
_U+30EC_U+30A4_U+30E4_U+30FC 1
 62
   179
420
  2234388
370
    25
100
AcDbVertex
100
AcDb2dVertex
 10
80.9423543238774
 20
-142.5270552421458
 30
0.0
  0
SEQEND
  5
EE
330
E0
100
AcDbEntity
  8
_U+30EC_U+30A4_U+30E4_U+30FC 1
 62
   179
420
  2234388
370
    25
  0
POLYLINE
  5
EF
330
7D
100
AcDbEntity
  8
_U+30EC_U+30A4_U+30E4_U+30FC 1
 62
   179
420
  2234388
370
    25
100
AcDb2dPolyline
 66
     1
 10
0.0
 20
0.0
 30
0.0
  0
VERTEX
  5
F0
330
EF
100
AcDbEntity
  8
_U+30EC_U+30A4_U+30E4_U+30FC 1
 62
   179
420
  2234388
370
    25
100
AcDbVertex
100
AcDb2dVertex
 10
108.1511864075
 20
-118.2608124704348
 30
0.0
  0
VERTEX
  5
F1
330
EF
100
AcDbEntity
  8
_U+30EC_U+30A4_U+30E4_U+30FC 1
 62
   179
420
  2234388
370
    25
100
AcDbVertex
100
AcDb2dVertex
 10
107.1507439330234
 20
-118.2608124704348
 30
0.0
  0
VERTEX
  5
F2
330
EF
100
AcDbEntity
  8
_U+30EC_U+30A4_U+30E4_U+30FC 1
 62
   179
420
  2234388
370
    25
100
AcDbVertex
100
AcDb2dVertex
 10
107.1507439330234
 20
-144.3605119083543
 30
0.0
  0
VERTEX
  5
F3
330
EF
100
AcDbEntity
  8
_U+30EC_U+30A4_U+30E4_U+30FC 1
 62
   179
420
  2234388
370
    25
100
AcDbVertex
100
AcDb2dVertex
 10
81.04000321027505
 20
-144.3605119083543
 30
0.0
  0
VERTEX
  5
F4
330
EF
100
AcDbEntity
  8
_U+30EC_U+30A4_U+30E4_U+30FC 1
 62
   179
420
  2234388
370
    25
100
AcDbVertex
100
AcDb2dVertex
 10
81.04000321027505
 20
-145.3609896858817
 30
0.0
  0
VERTEX
  5
F5
330
EF
100
AcDbEntity
  8
_U+30EC_U+30A4_U+30E4_U+30FC 1
 62
   179
420
  2234388
370
    25
100
AcDbVertex
100
AcDb2dVertex
 10
108.1515391852688
 20
-145.3609896858817
 30
0.0
  0
VERTEX
  5
F6
330
EF
100
AcDbEntity
  8
_U+30EC_U+30A4_U+30E4_U+30FC 1
 62
   179
420
  2234388
370
    25
100
AcDbVertex
100
AcDb2dVertex
 10
108.1511864075
 20
-118.2608124704348
 30
0.0
  0
SEQEND
  5
F8
330
EF
100
AcDbEntity
  8
_U+30EC_U+30A4_U+30E4_U+30FC 1
 62
   179
420
  2234388
370
    25
  0
HATCH
  5
F7
330
7D
100
AcDbEntity
  8
_U+30EC_U+30A4_U+30E4_U+30FC 1
 62
     9
420
 13224394
100
AcDbHatch
 10
0.0
 20
0.0
 30
0.0
210
0.0
220
0.0
230
1.0
  2
SOLID
 70
     1
 71
     0
 91
        1
 92
        1
 93
        6
 72
     1
 10
108.1511864075
 20
-118.2608124704348
 11
107.1507439330234
 21
-118.2608124704348
 72
     1
 10
107.1507439330234
 20
-118.2608124704348
 11
107.1507439330234
 21
-144.3605119083543
 72
     1
 10
107.1507439330234
 20
-144.3605119083543
 11
81.04000321027505
 21
-144.3605119083543
 72
     1
 10
81.04000321027505
 20
-144.3605119083543
 11
81.04000321027505
 21
-145.3609896858817
 72
     1
 10
81.04000321027505
 20
-145.3609896858817
 11
108.1515391852688
 21
-145.3609896858817
 72
     1
 10
108.1515391852688
 20
-145.3609896858817
 11
108.1511864075
 21
-118.2608124704348
 97
        0
 75
     2
 76
     1
 98
        0
  0
ENDBLK
  5
80
330
7D
100
AcDbEntity
  8
0
100
AcDbBlockEnd
  0
BLOCK
  5
FB
330
F9
100
AcDbEntity
  8
0
100
AcDbBlockBegin
  2
block 6
 70
     0
 10
0.0
 20
0.0
 30
0.0
  3
block 6
  1

  0
POLYLINE
  5
FD
330
F9
100
AcDbEntity
  8
_U+30EC_U+30A4_U+30E4_U+30FC 1
 62
   179
420
  2234388
370
     9
100
AcDb2dPolyline
 66
     1
 10
0.0
 20
0.0
 30
0.0
  0
VERTEX
  5
FE
330
FD
100
AcDbEntity
  8
_U+30EC_U+30A4_U+30E4_U+30FC 1
 62
   179
420
  2234388
370
     9
100
AcDbVertex
100
AcDb2dVertex
 10
98.90212942124091
 20
-140.8995855203308
 30
0.0
  0
VERTEX
  5
FF
330
FD
100
AcDbEntity
  8
_U+30EC_U+30A4_U+30E4_U+30FC 1
 62
   179
420
  2234388
370
     9
100
AcDbVertex
100
AcDb2dVertex
 10
101.9410629548224
 20
-143.9340388529055
 30
0.0
  0
SEQEND
  5
100
330
FD
100
AcDbEntity
  8
_U+30EC_U+30A4_U+30E4_U+30FC 1
 62
   179
420
  2234388
370
     9
  0
POLYLINE
  5
101
330
F9
100
AcDbEntity
  8
_U+30EC_U+30A4_U+30E4_U+30FC 1
 62
   179
420
  2234388
370
     9
100
AcDb2dPolyline
 66
     1
 10
0.0
 20
0.0
 30
0.0
  0
VERTEX
  5
102
330
101
100
AcDbEntity
  8
_U+30EC_U+30A4_U+30E4_U+30FC 1
 62
   179
420
  2234388
370
     9
100
AcDbVertex
100
AcDb2dVertex
 10
100.9020265924415
 20
-143.3338932975002
 30
0.0
  0
VERTEX
  5
103
330
101
100
AcDbEntity
  8
_U+30EC_U+30A4_U+30E4_U+30FC 1
 62
   179
420
  2234388
370
     9
100
AcDbVertex
100
AcDb2dVertex
 10
101.9410629548224
 20
-143.9340388529055
 30
0.0
  0
SEQEND
  5
104
330
101
100
AcDbEntity
  8
_U+30EC_U+30A4_U+30E4_U+30FC 1
 62
   179
420
  2234388
370
     9
  0
POLYLINE
  5
105
330
F9
100
AcDbEntity
  8
_U+30EC_U+30A4_U+30E4_U+30FC 1
 62
   179
420
  2234388
370
     9
100
AcDb2dPolyline
 66
     1
 10
0.0
 20
0.0
 30
0.0
  0
VERTEX
  5
106
330
105
100
AcDbEntity
  8
_U+30EC_U+30A4_U+30E4_U+30FC 1
 62
   179
420
  2234388
370
     9
100
AcDbVertex
100
AcDb2dVertex
 10
101.3409174145778
 20
-142.8949671864984
 30
0.0
  0
VERTEX
  5
107
330
105
100
AcDbEntity
  8
_U+30EC_U+30A4_U+30E4_U+30FC 1
 62
   179
420
  2234388
370
     9
100
AcDbVertex
100
AcDb2dVertex
 10
101.9410629548224
 20
-143.9340388529055
 30
0.0
  0
SEQEND
  5
108
330
105
100
AcDbEntity
  8
_U+30EC_U+30A4_U+30E4_U+30FC 1
 62
   179
420
  2234388
370
     9
  0
ENDBLK
  5
FC
330
F9
100
AcDbEntity
  8
0
100
AcDbBlockEnd
  0
BLOCK
  5
10B
330
109
100
AcDbEntity
  8
0
100
AcDbBlockBegin
  2
block 7
 70
     0
 10
0.0
 20
0.0
 30
0.0
  3
block 7
  1

  0
SPLINE
  5
10D
330
109
100
AcDbEntity
  8
_U+30EC_U+30A4_U+30E4_U+30FC 1
370
     0
100
AcDbSpline
210
0.0
220
0.0
230
1.0
 70
    11
 71
     3
 72
   182
 73
   178
 74
     0
 42
0.0000000001
 43
0.0000000001
 12
1.0
 22
0.0
 32
0.0
 13
1.0
 23
0.0
 33
0.0
 40
0.0
 40
0.0
 40
0.0
 40
0.0
 40
1.0
 40
1.0
 40
1.0
 40
2.0
 40
2.0
 40
2.0
 40
3.0
 40
3.0
 40
3.0
 40
4.0
 40
4.0
 40
4.0
 40
5.0
 40
5.0
 40
5.0
 40
6.0
 40
6.0
 40
6.0
 40
7.0
 40
7.0
 40
7.0
 40
8.0
 40
8.0
 40
8.0
 40
9.0
 40
9.0
 40
9.0
 40
10.0
 40
10.0
 40
10.0
 40
11.0
 40
11.0
 40
11.0
 40
12.0
 40
12.0
 40
12.0
 40
13.0
 40
13.0
 40
13.0
 40
14.0
 40
14.0
 40
14.0
 40
15.0
 40
15.0
 40
15.0
 40
16.0
 40
16.0
 40
16.0
 40
17.0
 40
17.0
 40
17.0
 40
18.0
 40
18.0
 40
18.0
 40
19.0
 40
19.0
 40
19.0
 40
20.0
 40
20.0
 40
20.0
 40
21.0
 40
21.0
 40
21.0
 40
22.0
 40
22.0
 40
22.0
 40
23.0
 40
23.0
 40
23.0
 40
24.0
 40
24.0
 40
24.0
 40
25.0
 40
25.0
 40
25.0
 40
26.0
 40
26.0
 40
26.0
 40
27.0
 40
27.0
 40
27.0
 40
28.0
 40
28.0
 40
28.0
 40
29.0
 40
29.0
 40
29.0
 40
30.0
 40
30.0
 40
30.0
 40
31.0
 40
31.0
 40
31.0
 40
32.0
 40
32.0
 40
32.0
 40
33.0
 40
33.0
 40
33.0
 40
34.0
 40
34.0
 40
34.0
 40
35.0
 40
35.0
 40
35.0
 40
36.0
 40
36.0
 40
36.0
 40
37.0
 40
37.0
 40
37.0
 40
38.0
 40
38.0
 40
38.0
 40
39.0
 40
39.0
 40
39.0
 40
40.0
 40
40.0
 40
40.0
 40
41.0
 40
41.0
 40
41.0
 40
42.0
 40
42.0
 40
42.0
 40
43.0
 40
43.0
 40
43.0
 40
44.0
 40
44.0
 40
44.0
 40
45.0
 40
45.0
 40
45.0
 40
46.0
 40
46.0
 40
46.0
 40
47.0
 40
47.0
 40
47.0
 40
48.0
 40
48.0
 40
48.0
 40
49.0
 40
49.0
 40
49.0
 40
50.0
 40
50.0
 40
50.0
 40
51.0
 40
51.0
 40
51.0
 40
52.0
 40
52.0
 40
52.0
 40
53.0
 40
53.0
 40
53.0
 40
54.0
 40
54.0
 40
54.0
 40
55.0
 40
55.0
 40
55.0
 40
56.0
 40
56.0
 40
56.0
 40
57.0
 40
57.0
 40
57.0
 40
58.0
 40
58.0
 40
58.0
 40
59.0
 40
59.0
 40
59.0
 40
59.0
 10
94.08211260668782
 20
-139.5546169355975
 30
0.0
 10
94.08211260668782
 20
-139.5546169355975
 30
0.0
 10
94.21337074467583
 20
-139.6624484242858
 30
0.0
 10
94.21337074467583
 20
-139.6624484242858
 30
0.0
 10
94.2323187698447
 20
-139.6772623348724
 30
0.0
 10
94.23851994171815
 20
-139.6834635067458
 30
0.0
 10
94.23851994171815
 20
-139.6941433027501
 30
0.0
 10
94.23851994171815
 20
-139.7196370093409
 30
0.0
 10
94.21337074467583
 20
-139.7217040666321
 30
0.0
 10
94.19855683408926
 20
-139.7217040666321
 30
0.0
 10
94.17960880892038
 20
-139.7217040666321
 30
0.0
 10
94.15824921691183
 20
-139.7196370093409
 30
0.0
 10
94.1413682490341
 20
-139.7175699520498
 30
0.0
 10
94.08211260668782
 20
-139.7809597089784
 30
0.0
 10
94.01217716833723
 20
-139.8336696699027
 30
0.0
 10
93.9870279712949
 20
-139.8529622046201
 30
0.0
 10
94.16031627420298
 20
-139.948046840013
 30
0.0
 10
94.26608070560015
 20
-139.9669948651819
 30
0.0
 10
94.46279565780792
 20
-139.9924885717727
 30
0.0
 10
94.46279565780792
 20
-139.9924885717727
 30
0.0
 10
94.37391219428847
 20
-140.1661213842293
 30
0.0
 10
94.37391219428847
 20
-140.1661213842293
 30
0.0
 10
94.22611759797125
 20
-140.1426947349296
 30
0.0
 10
94.03353676034578
 20
-140.1109998564653
 30
0.0
 10
93.7965141909606
 20
-139.9373670440087
 30
0.0
 10
93.62322588805253
 20
-139.8085204728604
 30
0.0
 10
93.54915633511966
 20
-139.6941433027501
 30
0.0
 10
93.48542206864254
 20
-139.5735649607663
 30
0.0
 10
93.41376408254933
 20
-139.6393662845346
 30
0.0
 10
93.3331488481945
 20
-139.6900091881678
 30
0.0
 10
93.2421983273839
 20
-139.7427191490921
 30
0.0
 10
93.2421983273839
 20
-139.7427191490921
 30
0.0
 10
93.2421983273839
 20
-139.9332329294264
 30
0.0
 10
93.2421983273839
 20
-139.9332329294264
 30
0.0
 10
93.39447154783194
 20
-139.9101507896752
 30
0.0
 10
93.48335501135139
 20
-139.8887911976667
 30
0.0
 10
93.66766761981225
 20
-139.8464165231981
 30
0.0
 10
93.66766761981225
 20
-139.8464165231981
 30
0.0
 10
93.650442142386
 20
-140.0114365969416
 30
0.0
 10
93.650442142386
 20
-140.0114365969416
 30
0.0
 10
93.36725529349847
 20
-140.0748263538702
 30
0.0
 10
93.00310870070756
 20
-140.1320149389253
 30
0.0
 10
92.85290253755066
 20
-140.1513074736427
 30
0.0
 10
92.8339545123818
 20
-140.1912705812716
 30
0.0
 10
92.81707354450407
 20
-140.2146972305713
 30
0.0
 10
92.78951278062208
 20
-140.2146972305713
 30
0.0
 10
92.7664306408709
 20
-140.2146972305713
 30
0.0
 10
92.75988495944893
 20
-140.1850694093982
 30
0.0
 10
92.75781790215777
 20
-140.1661213842293
 30
0.0
 10
92.75781790215777
 20
-140.1661213842293
 30
0.0
 10
92.73232419556692
 20
-139.996622686355
 30
0.0
 10
92.73232419556692
 20
-139.996622686355
 30
0.0
 10
92.84670136567722
 20
-139.9904215144816
 30
0.0
 10
92.96107853578751
 20
-139.9838758330596
 30
0.0
 10
93.0561631711804
 20
-139.9669948651819
 30
0.0
 10
93.0561631711804
 20
-139.9669948651819
 30
0.0
 10
93.0561631711804
 20
-139.8381482940335
 30
0.0
 10
93.0561631711804
 20
-139.8381482940335
 30
0.0
 10
92.95453285436554
 20
-139.8805229685021
 30
0.0
 10
92.81087237263061
 20
-139.9397786108484
 30
0.0
 10
92.66480032405603
 20
-139.9735405466039
 30
0.0
 10
92.66480032405603
 20
-139.9735405466039
 30
0.0
 10
92.54008786748999
 20
-139.795773619565
 30
0.0
 10
92.54008786748999
 20
-139.795773619565
 30
0.0
 10
92.63103838830058
 20
-139.7895724476915
 30
0.0
 10
92.81500648721293
 20
-139.7768255943961
 30
0.0
 10
93.05409611388926
 20
-139.6562472524123
 30
0.0
 10
93.15124780657331
 20
-139.6073268965218
 30
0.0
 10
93.19982365291533
 20
-139.5673637888929
 30
0.0
 10
93.21911618763272
 20
-139.5525498783063
 30
0.0
 10
93.21911618763272
 20
-139.5525498783063
 30
0.0
 10
93.174674455873
 20
-139.5525498783063
 30
0.0
 10
93.174674455873
 20
-139.5525498783063
 30
0.0
 10
93.03480357917186
 20
-139.5525498783063
 30
0.0
 10
92.7471381061535
 20
-139.5566839928886
 30
0.0
 10
92.5376763006503
 20
-139.5652967316017
 30
0.0
 10
92.5376763006503
 20
-139.5652967316017
 30
0.0
 10
92.5376763006503
 20
-139.4044107724406
 30
0.0
 10
92.5376763006503
 20
-139.4044107724406
 30
0.0
 10
92.74920516344464
 20
-139.410611944314
 30
0.0
 10
92.96314559307866
 20
-139.417157625736
 30
0.0
 10
93.174674455873
 20
-139.417157625736
 30
0.0
 10
93.174674455873
 20
-139.417157625736
 30
0.0
 10
93.41169702525819
 20
-139.417157625736
 30
0.0
 10
93.41169702525819
 20
-139.417157625736
 30
0.0
 10
93.41169702525819
 20
-139.417157625736
 30
0.0
 10
93.41169702525819
 20
-139.3324082767988
 30
0.0
 10
93.41169702525819
 20
-139.3324082767988
 30
0.0
 10
93.41169702525819
 20
-139.3324082767988
 30
0.0
 10
93.24013127009275
 20
-139.3324082767988
 30
0.0
 10
93.24013127009275
 20
-139.3324082767988
 30
0.0
 10
93.07304413905813
 20
-139.3324082767988
 30
0.0
 10
92.90595700802352
 20
-139.3389539582208
 30
0.0
 10
92.7388698769889
 20
-139.3451551300943
 30
0.0
 10
92.7388698769889
 20
-139.3451551300943
 30
0.0
 10
92.7388698769889
 20
-139.1970160242285
 30
0.0
 10
92.7388698769889
 20
-139.1970160242285
 30
0.0
 10
92.87012801497691
 20
-139.2011501388108
 30
0.0
 10
92.97795950366523
 20
-139.2011501388108
 30
0.0
 10
93.24013127009275
 20
-139.2011501388108
 30
0.0
 10
93.24013127009275
 20
-139.2011501388108
 30
0.0
 10
93.41169702525819
 20
-139.2011501388108
 30
0.0
 10
93.41169702525819
 20
-139.2011501388108
 30
0.0
 10
93.41169702525819
 20
-139.2011501388108
 30
0.0
 10
93.41169702525819
 20
-139.1167452994222
 30
0.0
 10
93.41169702525819
 20
-139.1167452994222
 30
0.0
 10
93.41169702525819
 20
-139.1167452994222
 30
0.0
 10
93.29077417372592
 20
-139.1167452994222
 30
0.0
 10
93.29077417372592
 20
-139.1167452994222
 30
0.0
 10
93.18500974232875
 20
-139.1167452994222
 30
0.0
 10
92.91009112260582
 20
-139.1167452994222
 30
0.0
 10
92.81914060179523
 20
-139.1274250954265
 30
0.0
 10
92.8298203977995
 20
-139.0850504209579
 30
0.0
 10
92.83602156967294
 20
-138.9599934548433
 30
0.0
 10
92.83602156967294
 20
-138.9517252256787
 30
0.0
 10
92.83602156967294
 20
-138.9517252256787
 30
0.0
 10
92.83602156967294
 20
-138.8097872916865
 30
0.0
 10
92.83602156967294
 20
-138.8097872916865
 30
0.0
 10
92.83602156967294
 20
-138.7591443880533
 30
0.0
 10
92.8339545123818
 20
-138.6427001606518
 30
0.0
 10
92.82775334050834
 20
-138.5941243143098
 30
0.0
 10
92.93971894377896
 20
-138.6089382248964
 30
0.0
 10
92.97795950366523
 20
-138.6089382248964
 30
0.0
 10
93.30558808431249
 20
-138.6089382248964
 30
0.0
 10
93.30558808431249
 20
-138.6089382248964
 30
0.0
 10
93.78170028037403
 20
-138.6089382248964
 30
0.0
 10
93.78170028037403
 20
-138.6089382248964
 30
0.0
 10
93.89814450777547
 20
-138.6089382248964
 30
0.0
 10
94.07384437752322
 20
-138.6068711676052
 30
0.0
 10
94.18374292350268
 20
-138.5941243143098
 30
0.0
 10
94.17513018478955
 20
-138.6492458420738
 30
0.0
 10
94.17306312749841
 20
-138.7126355990024
 30
0.0
 10
94.17306312749841
 20
-138.727449509589
 30
0.0
 10
94.17306312749841
 20
-138.727449509589
 30
0.0
 10
94.17306312749841
 20
-138.9327772005099
 30
0.0
 10
94.17306312749841
 20
-138.9327772005099
 30
0.0
 10
94.17306312749841
 20
-138.9644720789742
 30
0.0
 10
94.17719724208071
 20
-139.0998643315445
 30
0.0
 10
94.17960880892038
 20
-139.1274250954265
 30
0.0
 10
94.10553925598751
 20
-139.1229464712956
 30
0.0
 10
94.07384437752322
 20
-139.1167452994222
 30
0.0
 10
93.77549910850057
 20
-139.1167452994222
 30
0.0
 10
93.77549910850057
 20
-139.1167452994222
 30
0.0
 10
93.59118650003971
 20
-139.1167452994222
 30
0.0
 10
93.59118650003971
 20
-139.1167452994222
 30
0.0
 10
93.59118650003971
 20
-139.1167452994222
 30
0.0
 10
93.59118650003971
 20
-139.2011501388108
 30
0.0
 10
93.59118650003971
 20
-139.2011501388108
 30
0.0
 10
93.59118650003971
 20
-139.2011501388108
 30
0.0
 10
93.75861814062284
 20
-139.2011501388108
 30
0.0
 10
93.75861814062284
 20
-139.2011501388108
 30
0.0
 10
93.99736325775066
 20
-139.2011501388108
 30
0.0
 10
94.10967337056981
 20
-139.2011501388108
 30
0.0
 10
94.2598795337267
 20
-139.1970160242285
 30
0.0
 10
94.2598795337267
 20
-139.1970160242285
 30
0.0
 10
94.2598795337267
 20
-139.3451551300943
 30
0.0
 10
94.2598795337267
 20
-139.3451551300943
 30
0.0
 10
94.05248478551466
 20
-139.3365423913812
 30
0.0
 10
93.86644962931118
 20
-139.3324082767988
 30
0.0
 10
93.75861814062284
 20
-139.3324082767988
 30
0.0
 10
93.75861814062284
 20
-139.3324082767988
 30
0.0
 10
93.59118650003971
 20
-139.3324082767988
 30
0.0
 10
93.59118650003971
 20
-139.3324082767988
 30
0.0
 10
93.59118650003971
 20
-139.3324082767988
 30
0.0
 10
93.59118650003971
 20
-139.417157625736
 30
0.0
 10
93.59118650003971
 20
-139.417157625736
 30
0.0
 10
93.59118650003971
 20
-139.417157625736
 30
0.0
 10
93.8240749548426
 20
-139.417157625736
 30
0.0
 10
93.8240749548426
 20
-139.417157625736
 30
0.0
 10
94.03973793221924
 20
-139.417157625736
 30
0.0
 10
94.25333385230472
 20
-139.410611944314
 30
0.0
 10
94.46934133922989
 20
-139.4044107724406
 30
0.0
 10
94.46934133922989
 20
-139.4044107724406
 30
0.0
 10
94.46934133922989
 20
-139.5652967316017
 30
0.0
 10
94.46934133922989
 20
-139.5652967316017
 30
0.0
 10
94.34221731582417
 20
-139.5608181074709
 30
0.0
 10
94.31706811878185
 20
-139.5608181074709
 30
0.0
 10
94.08211260668782
 20
-139.5546169355975
 30
0.0
  0
SPLINE
  5
10E
330
109
100
AcDbEntity
  8
_U+30EC_U+30A4_U+30E4_U+30FC 1
370
     0
100
AcDbSpline
210
0.0
220
0.0
230
1.0
 70
    11
 71
     3
 72
    47
 73
    43
 74
     0
 42
0.0000000001
 43
0.0000000001
 12
1.0
 22
0.0
 32
0.0
 13
1.0
 23
0.0
 33
0.0
 40
0.0
 40
0.0
 40
0.0
 40
0.0
 40
1.0
 40
1.0
 40
1.0
 40
2.0
 40
2.0
 40
2.0
 40
3.0
 40
3.0
 40
3.0
 40
4.0
 40
4.0
 40
4.0
 40
5.0
 40
5.0
 40
5.0
 40
6.0
 40
6.0
 40
6.0
 40
7.0
 40
7.0
 40
7.0
 40
8.0
 40
8.0
 40
8.0
 40
9.0
 40
9.0
 40
9.0
 40
10.0
 40
10.0
 40
10.0
 40
11.0
 40
11.0
 40
11.0
 40
12.0
 40
12.0
 40
12.0
 40
13.0
 40
13.0
 40
13.0
 40
14.0
 40
14.0
 40
14.0
 40
14.0
 10
93.81787378296914
 20
-138.5348686719635
 30
0.0
 10
93.81787378296914
 20
-138.5348686719635
 30
0.0
 10
93.18742130916843
 20
-138.5348686719635
 30
0.0
 10
93.18742130916843
 20
-138.5348686719635
 30
0.0
 10
92.98209361824753
 20
-138.5348686719635
 30
0.0
 10
92.7746988700355
 20
-138.5390027865458
 30
0.0
 10
92.56971568866314
 20
-138.5455484679678
 30
0.0
 10
92.56971568866314
 20
-138.5455484679678
 30
0.0
 10
92.56971568866314
 20
-138.3739827128023
 30
0.0
 10
92.56971568866314
 20
-138.3739827128023
 30
0.0
 10
92.75988495944893
 20
-138.3846625088066
 30
0.0
 10
92.98622773282983
 20
-138.3846625088066
 30
0.0
 10
93.18742130916843
 20
-138.3846625088066
 30
0.0
 10
93.18742130916843
 20
-138.3846625088066
 30
0.0
 10
93.40101722925391
 20
-138.3846625088066
 30
0.0
 10
93.40101722925391
 20
-138.3846625088066
 30
0.0
 10
93.3924044905408
 20
-138.2768310201183
 30
0.0
 10
93.39033743324964
 20
-138.2640841668229
 30
0.0
 10
93.3841362613762
 20
-138.2261881164851
 30
0.0
 10
93.3841362613762
 20
-138.2261881164851
 30
0.0
 10
93.6380397986391
 20
-138.2472031989452
 30
0.0
 10
93.6380397986391
 20
-138.2472031989452
 30
0.0
 10
93.65492076651682
 20
-138.2492702562363
 30
0.0
 10
93.67593584897685
 20
-138.2513373135274
 30
0.0
 10
93.67593584897685
 20
-138.2747639628271
 30
0.0
 10
93.67593584897685
 20
-138.293711987996
 30
0.0
 10
93.6697346771034
 20
-138.2978461025783
 30
0.0
 10
93.6104790347571
 20
-138.3295409810426
 30
0.0
 10
93.60841197746596
 20
-138.3381537197558
 30
0.0
 10
93.60841197746596
 20
-138.3784613369332
 30
0.0
 10
93.60841197746596
 20
-138.3846625088066
 30
0.0
 10
93.60841197746596
 20
-138.3846625088066
 30
0.0
 10
93.81787378296914
 20
-138.3846625088066
 30
0.0
 10
93.81787378296914
 20
-138.3846625088066
 30
0.0
 10
94.01665579246806
 20
-138.3846625088066
 30
0.0
 10
94.24919973772242
 20
-138.3846625088066
 30
0.0
 10
94.44178057534789
 20
-138.3739827128023
 30
0.0
 10
94.44178057534789
 20
-138.3739827128023
 30
0.0
 10
94.44178057534789
 20
-138.5455484679678
 30
0.0
 10
94.44178057534789
 20
-138.5455484679678
 30
0.0
 10
94.18374292350268
 20
-138.5369357292547
 30
0.0
 10
93.94465329682635
 20
-138.5348686719635
 30
0.0
 10
93.81787378296914
 20
-138.5348686719635
 30
0.0
  0
POLYLINE
  5
10F
330
109
100
AcDbEntity
  8
_U+30EC_U+30A4_U+30E4_U+30FC 1
370
     0
100
AcDb2dPolyline
 66
     1
 10
0.0
 20
0.0
 30
0.0
  0
VERTEX
  5
110
330
10F
100
AcDbEntity
  8
_U+30EC_U+30A4_U+30E4_U+30FC 1
370
     0
100
AcDbVertex
100
AcDb2dVertex
 10
93.41169702525819
 20
-138.727449509589
 30
0.0
  0
VERTEX
  5
111
330
10F
100
AcDbEntity
  8
_U+30EC_U+30A4_U+30E4_U+30FC 1
370
     0
100
AcDbVertex
100
AcDb2dVertex
 10
93.01792261129414
 20
-138.727449509589
 30
0.0
  0
VERTEX
  5
112
330
10F
100
AcDbEntity
  8
_U+30EC_U+30A4_U+30E4_U+30FC 1
370
     0
100
AcDbVertex
100
AcDb2dVertex
 10
93.01792261129414
 20
-138.8097872916865
 30
0.0
  0
VERTEX
  5
113
330
10F
100
AcDbEntity
  8
_U+30EC_U+30A4_U+30E4_U+30FC 1
370
     0
100
AcDbVertex
100
AcDb2dVertex
 10
93.41169702525819
 20
-138.8097872916865
 30
0.0
  0
VERTEX
  5
114
330
10F
100
AcDbEntity
  8
_U+30EC_U+30A4_U+30E4_U+30FC 1
370
     0
100
AcDbVertex
100
AcDb2dVertex
 10
93.41169702525819
 20
-138.727449509589
 30
0.0
  0
SEQEND
  5
115
330
10F
100
AcDbEntity
  8
_U+30EC_U+30A4_U+30E4_U+30FC 1
370
     0
  0
POLYLINE
  5
116
330
109
100
AcDbEntity
  8
_U+30EC_U+30A4_U+30E4_U+30FC 1
370
     0
100
AcDb2dPolyline
 66
     1
 10
0.0
 20
0.0
 30
0.0
  0
VERTEX
  5
117
330
116
100
AcDbEntity
  8
_U+30EC_U+30A4_U+30E4_U+30FC 1
370
     0
100
AcDbVertex
100
AcDb2dVertex
 10
93.41169702525819
 20
-138.9200303472144
 30
0.0
  0
VERTEX
  5
118
330
116
100
AcDbEntity
  8
_U+30EC_U+30A4_U+30E4_U+30FC 1
370
     0
100
AcDbVertex
100
AcDb2dVertex
 10
93.01792261129414
 20
-138.9200303472144
 30
0.0
  0
VERTEX
  5
119
330
116
100
AcDbEntity
  8
_U+30EC_U+30A4_U+30E4_U+30FC 1
370
     0
100
AcDbVertex
100
AcDb2dVertex
 10
93.01792261129414
 20
-139.0003010720208
 30
0.0
  0
VERTEX
  5
11A
330
116
100
AcDbEntity
  8
_U+30EC_U+30A4_U+30E4_U+30FC 1
370
     0
100
AcDbVertex
100
AcDb2dVertex
 10
93.41169702525819
 20
-139.0003010720208
 30
0.0
  0
VERTEX
  5
11B
330
116
100
AcDbEntity
  8
_U+30EC_U+30A4_U+30E4_U+30FC 1
370
     0
100
AcDbVertex
100
AcDb2dVertex
 10
93.41169702525819
 20
-138.9200303472144
 30
0.0
  0
SEQEND
  5
11C
330
116
100
AcDbEntity
  8
_U+30EC_U+30A4_U+30E4_U+30FC 1
370
     0
  0
POLYLINE
  5
11D
330
109
100
AcDbEntity
  8
_U+30EC_U+30A4_U+30E4_U+30FC 1
370
     0
100
AcDb2dPolyline
 66
     1
 10
0.0
 20
0.0
 30
0.0
  0
VERTEX
  5
11E
330
11D
100
AcDbEntity
  8
_U+30EC_U+30A4_U+30E4_U+30FC 1
370
     0
100
AcDbVertex
100
AcDb2dVertex
 10
93.9870279712949
 20
-138.727449509589
 30
0.0
  0
VERTEX
  5
11F
330
11D
100
AcDbEntity
  8
_U+30EC_U+30A4_U+30E4_U+30FC 1
370
     0
100
AcDbVertex
100
AcDb2dVertex
 10
93.59118650003971
 20
-138.727449509589
 30
0.0
  0
VERTEX
  5
120
330
11D
100
AcDbEntity
  8
_U+30EC_U+30A4_U+30E4_U+30FC 1
370
     0
100
AcDbVertex
100
AcDb2dVertex
 10
93.59118650003971
 20
-138.8097872916865
 30
0.0
  0
VERTEX
  5
121
330
11D
100
AcDbEntity
  8
_U+30EC_U+30A4_U+30E4_U+30FC 1
370
     0
100
AcDbVertex
100
AcDb2dVertex
 10
93.9870279712949
 20
-138.8097872916865
 30
0.0
  0
VERTEX
  5
122
330
11D
100
AcDbEntity
  8
_U+30EC_U+30A4_U+30E4_U+30FC 1
370
     0
100
AcDbVertex
100
AcDb2dVertex
 10
93.9870279712949
 20
-138.727449509589
 30
0.0
  0
SEQEND
  5
123
330
11D
100
AcDbEntity
  8
_U+30EC_U+30A4_U+30E4_U+30FC 1
370
     0
  0
POLYLINE
  5
124
330
109
100
AcDbEntity
  8
_U+30EC_U+30A4_U+30E4_U+30FC 1
370
     0
100
AcDb2dPolyline
 66
     1
 10
0.0
 20
0.0
 30
0.0
  0
VERTEX
  5
125
330
124
100
AcDbEntity
  8
_U+30EC_U+30A4_U+30E4_U+30FC 1
370
     0
100
AcDbVertex
100
AcDb2dVertex
 10
93.9870279712949
 20
-138.9200303472144
 30
0.0
  0
VERTEX
  5
126
330
124
100
AcDbEntity
  8
_U+30EC_U+30A4_U+30E4_U+30FC 1
370
     0
100
AcDbVertex
100
AcDb2dVertex
 10
93.59118650003971
 20
-138.9200303472144
 30
0.0
  0
VERTEX
  5
127
330
124
100
AcDbEntity
  8
_U+30EC_U+30A4_U+30E4_U+30FC 1
370
     0
100
AcDbVertex
100
AcDb2dVertex
 10
93.59118650003971
 20
-139.0003010720208
 30
0.0
  0
VERTEX
  5
128
330
124
100
AcDbEntity
  8
_U+30EC_U+30A4_U+30E4_U+30FC 1
370
     0
100
AcDbVertex
100
AcDb2dVertex
 10
93.9870279712949
 20
-139.0003010720208
 30
0.0
  0
VERTEX
  5
129
330
124
100
AcDbEntity
  8
_U+30EC_U+30A4_U+30E4_U+30FC 1
370
     0
100
AcDbVertex
100
AcDb2dVertex
 10
93.9870279712949
 20
-138.9200303472144
 30
0.0
  0
SEQEND
  5
12A
330
124
100
AcDbEntity
  8
_U+30EC_U+30A4_U+30E4_U+30FC 1
370
     0
  0
SPLINE
  5
12B
330
109
100
AcDbEntity
  8
_U+30EC_U+30A4_U+30E4_U+30FC 1
370
     0
100
AcDbSpline
210
0.0
220
0.0
230
1.0
 70
    11
 71
     3
 72
    17
 73
    13
 74
     0
 42
0.0000000001
 43
0.0000000001
 12
1.0
 22
0.0
 32
0.0
 13
1.0
 23
0.0
 33
0.0
 40
0.0
 40
0.0
 40
0.0
 40
0.0
 40
1.0
 40
1.0
 40
1.0
 40
2.0
 40
2.0
 40
2.0
 40
3.0
 40
3.0
 40
3.0
 40
4.0
 40
4.0
 40
4.0
 40
4.0
 10
93.8240749548426
 20
-139.5525498783063
 30
0.0
 10
93.8240749548426
 20
-139.5525498783063
 30
0.0
 10
93.6697346771034
 20
-139.5525498783063
 30
0.0
 10
93.6697346771034
 20
-139.5525498783063
 30
0.0
 10
93.72899031944971
 20
-139.6369547176949
 30
0.0
 10
93.7689534270786
 20
-139.6920762454589
 30
0.0
 10
93.84715709459377
 20
-139.7554660023875
 30
0.0
 10
93.9150254756532
 20
-139.6941433027501
 30
0.0
 10
93.96566837928637
 20
-139.6393662845346
 30
0.0
 10
94.03146970305464
 20
-139.5546169355975
 30
0.0
 10
93.93604055811322
 20
-139.5546169355975
 30
0.0
 10
93.92570527165746
 20
-139.5525498783063
 30
0.0
 10
93.8240749548426
 20
-139.5525498783063
 30
0.0
  0
HATCH
  5
12C
330
109
100
AcDbEntity
  8
_U+30EC_U+30A4_U+30E4_U+30FC 1
 62
   179
420
  2234388
100
AcDbHatch
 10
0.0
 20
0.0
 30
0.0
210
0.0
220
0.0
230
1.0
  2
SOLID
 70
     1
 71
     0
 91
        7
 92
        1
 93
        1
 72
     4
 94
        3
 73
     0
 74
     1
 95
      182
 96
      178
 40
0.0
 40
0.0
 40
0.0
 40
0.0
 40
1.0
 40
1.0
 40
1.0
 40
2.0
 40
2.0
 40
2.0
 40
3.0
 40
3.0
 40
3.0
 40
4.0
 40
4.0
 40
4.0
 40
5.0
 40
5.0
 40
5.0
 40
6.0
 40
6.0
 40
6.0
 40
7.0
 40
7.0
 40
7.0
 40
8.0
 40
8.0
 40
8.0
 40
9.0
 40
9.0
 40
9.0
 40
10.0
 40
10.0
 40
10.0
 40
11.0
 40
11.0
 40
11.0
 40
12.0
 40
12.0
 40
12.0
 40
13.0
 40
13.0
 40
13.0
 40
14.0
 40
14.0
 40
14.0
 40
15.0
 40
15.0
 40
15.0
 40
16.0
 40
16.0
 40
16.0
 40
17.0
 40
17.0
 40
17.0
 40
18.0
 40
18.0
 40
18.0
 40
19.0
 40
19.0
 40
19.0
 40
20.0
 40
20.0
 40
20.0
 40
21.0
 40
21.0
 40
21.0
 40
22.0
 40
22.0
 40
22.0
 40
23.0
 40
23.0
 40
23.0
 40
24.0
 40
24.0
 40
24.0
 40
25.0
 40
25.0
 40
25.0
 40
26.0
 40
26.0
 40
26.0
 40
27.0
 40
27.0
 40
27.0
 40
28.0
 40
28.0
 40
28.0
 40
29.0
 40
29.0
 40
29.0
 40
30.0
 40
30.0
 40
30.0
 40
31.0
 40
31.0
 40
31.0
 40
32.0
 40
32.0
 40
32.0
 40
33.0
 40
33.0
 40
33.0
 40
34.0
 40
34.0
 40
34.0
 40
35.0
 40
35.0
 40
35.0
 40
36.0
 40
36.0
 40
36.0
 40
37.0
 40
37.0
 40
37.0
 40
38.0
 40
38.0
 40
38.0
 40
39.0
 40
39.0
 40
39.0
 40
40.0
 40
40.0
 40
40.0
 40
41.0
 40
41.0
 40
41.0
 40
42.0
 40
42.0
 40
42.0
 40
43.0
 40
43.0
 40
43.0
 40
44.0
 40
44.0
 40
44.0
 40
45.0
 40
45.0
 40
45.0
 40
46.0
 40
46.0
 40
46.0
 40
47.0
 40
47.0
 40
47.0
 40
48.0
 40
48.0
 40
48.0
 40
49.0
 40
49.0
 40
49.0
 40
50.0
 40
50.0
 40
50.0
 40
51.0
 40
51.0
 40
51.0
 40
52.0
 40
52.0
 40
52.0
 40
53.0
 40
53.0
 40
53.0
 40
54.0
 40
54.0
 40
54.0
 40
55.0
 40
55.0
 40
55.0
 40
56.0
 40
56.0
 40
56.0
 40
57.0
 40
57.0
 40
57.0
 40
58.0
 40
58.0
 40
58.0
 40
59.0
 40
59.0
 40
59.0
 40
59.0
 10
94.08211260668782
 20
-139.5546169355975
 10
94.08211260668782
 20
-139.5546169355975
 10
94.21337074467583
 20
-139.6624484242858
 10
94.21337074467583
 20
-139.6624484242858
 10
94.2323187698447
 20
-139.6772623348724
 10
94.23851994171815
 20
-139.6834635067458
 10
94.23851994171815
 20
-139.6941433027501
 10
94.23851994171815
 20
-139.7196370093409
 10
94.21337074467583
 20
-139.7217040666321
 10
94.19855683408926
 20
-139.7217040666321
 10
94.17960880892038
 20
-139.7217040666321
 10
94.15824921691183
 20
-139.7196370093409
 10
94.1413682490341
 20
-139.7175699520498
 10
94.08211260668782
 20
-139.7809597089784
 10
94.01217716833723
 20
-139.8336696699027
 10
93.9870279712949
 20
-139.8529622046201
 10
94.16031627420298
 20
-139.948046840013
 10
94.26608070560015
 20
-139.9669948651819
 10
94.46279565780792
 20
-139.9924885717727
 10
94.46279565780792
 20
-139.9924885717727
 10
94.37391219428847
 20
-140.1661213842293
 10
94.37391219428847
 20
-140.1661213842293
 10
94.22611759797125
 20
-140.1426947349296
 10
94.03353676034578
 20
-140.1109998564653
 10
93.7965141909606
 20
-139.9373670440087
 10
93.62322588805253
 20
-139.8085204728604
 10
93.54915633511966
 20
-139.6941433027501
 10
93.48542206864254
 20
-139.5735649607663
 10
93.41376408254933
 20
-139.6393662845346
 10
93.3331488481945
 20
-139.6900091881678
 10
93.2421983273839
 20
-139.7427191490921
 10
93.2421983273839
 20
-139.7427191490921
 10
93.2421983273839
 20
-139.9332329294264
 10
93.2421983273839
 20
-139.9332329294264
 10
93.39447154783194
 20
-139.9101507896752
 10
93.48335501135139
 20
-139.8887911976667
 10
93.66766761981225
 20
-139.8464165231981
 10
93.66766761981225
 20
-139.8464165231981
 10
93.650442142386
 20
-140.0114365969416
 10
93.650442142386
 20
-140.0114365969416
 10
93.36725529349847
 20
-140.0748263538702
 10
93.00310870070756
 20
-140.1320149389253
 10
92.85290253755066
 20
-140.1513074736427
 10
92.8339545123818
 20
-140.1912705812716
 10
92.81707354450407
 20
-140.2146972305713
 10
92.78951278062208
 20
-140.2146972305713
 10
92.7664306408709
 20
-140.2146972305713
 10
92.75988495944893
 20
-140.1850694093982
 10
92.75781790215777
 20
-140.1661213842293
 10
92.75781790215777
 20
-140.1661213842293
 10
92.73232419556692
 20
-139.996622686355
 10
92.73232419556692
 20
-139.996622686355
 10
92.84670136567722
 20
-139.9904215144816
 10
92.96107853578751
 20
-139.9838758330596
 10
93.0561631711804
 20
-139.9669948651819
 10
93.0561631711804
 20
-139.9669948651819
 10
93.0561631711804
 20
-139.8381482940335
 10
93.0561631711804
 20
-139.8381482940335
 10
92.95453285436554
 20
-139.8805229685021
 10
92.81087237263061
 20
-139.9397786108484
 10
92.66480032405603
 20
-139.9735405466039
 10
92.66480032405603
 20
-139.9735405466039
 10
92.54008786748999
 20
-139.795773619565
 10
92.54008786748999
 20
-139.795773619565
 10
92.63103838830058
 20
-139.7895724476915
 10
92.81500648721293
 20
-139.7768255943961
 10
93.05409611388926
 20
-139.6562472524123
 10
93.15124780657331
 20
-139.6073268965218
 10
93.19982365291533
 20
-139.5673637888929
 10
93.21911618763272
 20
-139.5525498783063
 10
93.21911618763272
 20
-139.5525498783063
 10
93.174674455873
 20
-139.5525498783063
 10
93.174674455873
 20
-139.5525498783063
 10
93.03480357917186
 20
-139.5525498783063
 10
92.7471381061535
 20
-139.5566839928886
 10
92.5376763006503
 20
-139.5652967316017
 10
92.5376763006503
 20
-139.5652967316017
 10
92.5376763006503
 20
-139.4044107724406
 10
92.5376763006503
 20
-139.4044107724406
 10
92.74920516344464
 20
-139.410611944314
 10
92.96314559307866
 20
-139.417157625736
 10
93.174674455873
 20
-139.417157625736
 10
93.174674455873
 20
-139.417157625736
 10
93.41169702525819
 20
-139.417157625736
 10
93.41169702525819
 20
-139.417157625736
 10
93.41169702525819
 20
-139.417157625736
 10
93.41169702525819
 20
-139.3324082767988
 10
93.41169702525819
 20
-139.3324082767988
 10
93.41169702525819
 20
-139.3324082767988
 10
93.24013127009275
 20
-139.3324082767988
 10
93.24013127009275
 20
-139.3324082767988
 10
93.07304413905813
 20
-139.3324082767988
 10
92.90595700802352
 20
-139.3389539582208
 10
92.7388698769889
 20
-139.3451551300943
 10
92.7388698769889
 20
-139.3451551300943
 10
92.7388698769889
 20
-139.1970160242285
 10
92.7388698769889
 20
-139.1970160242285
 10
92.87012801497691
 20
-139.2011501388108
 10
92.97795950366523
 20
-139.2011501388108
 10
93.24013127009275
 20
-139.2011501388108
 10
93.24013127009275
 20
-139.2011501388108
 10
93.41169702525819
 20
-139.2011501388108
 10
93.41169702525819
 20
-139.2011501388108
 10
93.41169702525819
 20
-139.2011501388108
 10
93.41169702525819
 20
-139.1167452994222
 10
93.41169702525819
 20
-139.1167452994222
 10
93.41169702525819
 20
-139.1167452994222
 10
93.29077417372592
 20
-139.1167452994222
 10
93.29077417372592
 20
-139.1167452994222
 10
93.18500974232875
 20
-139.1167452994222
 10
92.91009112260582
 20
-139.1167452994222
 10
92.81914060179523
 20
-139.1274250954265
 10
92.8298203977995
 20
-139.0850504209579
 10
92.83602156967294
 20
-138.9599934548433
 10
92.83602156967294
 20
-138.9517252256787
 10
92.83602156967294
 20
-138.9517252256787
 10
92.83602156967294
 20
-138.8097872916865
 10
92.83602156967294
 20
-138.8097872916865
 10
92.83602156967294
 20
-138.7591443880533
 10
92.8339545123818
 20
-138.6427001606518
 10
92.82775334050834
 20
-138.5941243143098
 10
92.93971894377896
 20
-138.6089382248964
 10
92.97795950366523
 20
-138.6089382248964
 10
93.30558808431249
 20
-138.6089382248964
 10
93.30558808431249
 20
-138.6089382248964
 10
93.78170028037403
 20
-138.6089382248964
 10
93.78170028037403
 20
-138.6089382248964
 10
93.89814450777547
 20
-138.6089382248964
 10
94.07384437752322
 20
-138.6068711676052
 10
94.18374292350268
 20
-138.5941243143098
 10
94.17513018478955
 20
-138.6492458420738
 10
94.17306312749841
 20
-138.7126355990024
 10
94.17306312749841
 20
-138.727449509589
 10
94.17306312749841
 20
-138.727449509589
 10
94.17306312749841
 20
-138.9327772005099
 10
94.17306312749841
 20
-138.9327772005099
 10
94.17306312749841
 20
-138.9644720789742
 10
94.17719724208071
 20
-139.0998643315445
 10
94.17960880892038
 20
-139.1274250954265
 10
94.10553925598751
 20
-139.1229464712956
 10
94.07384437752322
 20
-139.1167452994222
 10
93.77549910850057
 20
-139.1167452994222
 10
93.77549910850057
 20
-139.1167452994222
 10
93.59118650003971
 20
-139.1167452994222
 10
93.59118650003971
 20
-139.1167452994222
 10
93.59118650003971
 20
-139.1167452994222
 10
93.59118650003971
 20
-139.2011501388108
 10
93.59118650003971
 20
-139.2011501388108
 10
93.59118650003971
 20
-139.2011501388108
 10
93.75861814062284
 20
-139.2011501388108
 10
93.75861814062284
 20
-139.2011501388108
 10
93.99736325775066
 20
-139.2011501388108
 10
94.10967337056981
 20
-139.2011501388108
 10
94.2598795337267
 20
-139.1970160242285
 10
94.2598795337267
 20
-139.1970160242285
 10
94.2598795337267
 20
-139.3451551300943
 10
94.2598795337267
 20
-139.3451551300943
 10
94.05248478551466
 20
-139.3365423913812
 10
93.86644962931118
 20
-139.3324082767988
 10
93.75861814062284
 20
-139.3324082767988
 10
93.75861814062284
 20
-139.3324082767988
 10
93.59118650003971
 20
-139.3324082767988
 10
93.59118650003971
 20
-139.3324082767988
 10
93.59118650003971
 20
-139.3324082767988
 10
93.59118650003971
 20
-139.417157625736
 10
93.59118650003971
 20
-139.417157625736
 10
93.59118650003971
 20
-139.417157625736
 10
93.8240749548426
 20
-139.417157625736
 10
93.8240749548426
 20
-139.417157625736
 10
94.03973793221924
 20
-139.417157625736
 10
94.25333385230472
 20
-139.410611944314
 10
94.46934133922989
 20
-139.4044107724406
 10
94.46934133922989
 20
-139.4044107724406
 10
94.46934133922989
 20
-139.5652967316017
 10
94.46934133922989
 20
-139.5652967316017
 10
94.34221731582417
 20
-139.5608181074709
 10
94.31706811878185
 20
-139.5608181074709
 10
94.08211260668782
 20
-139.5546169355975
 97
        0
 97
        0
 92
        1
 93
        1
 72
     4
 94
        3
 73
     0
 74
     1
 95
       47
 96
       43
 40
0.0
 40
0.0
 40
0.0
 40
0.0
 40
1.0
 40
1.0
 40
1.0
 40
2.0
 40
2.0
 40
2.0
 40
3.0
 40
3.0
 40
3.0
 40
4.0
 40
4.0
 40
4.0
 40
5.0
 40
5.0
 40
5.0
 40
6.0
 40
6.0
 40
6.0
 40
7.0
 40
7.0
 40
7.0
 40
8.0
 40
8.0
 40
8.0
 40
9.0
 40
9.0
 40
9.0
 40
10.0
 40
10.0
 40
10.0
 40
11.0
 40
11.0
 40
11.0
 40
12.0
 40
12.0
 40
12.0
 40
13.0
 40
13.0
 40
13.0
 40
14.0
 40
14.0
 40
14.0
 40
14.0
 10
93.81787378296914
 20
-138.5348686719635
 10
93.81787378296914
 20
-138.5348686719635
 10
93.18742130916843
 20
-138.5348686719635
 10
93.18742130916843
 20
-138.5348686719635
 10
92.98209361824753
 20
-138.5348686719635
 10
92.7746988700355
 20
-138.5390027865458
 10
92.56971568866314
 20
-138.5455484679678
 10
92.56971568866314
 20
-138.5455484679678
 10
92.56971568866314
 20
-138.3739827128023
 10
92.56971568866314
 20
-138.3739827128023
 10
92.75988495944893
 20
-138.3846625088066
 10
92.98622773282983
 20
-138.3846625088066
 10
93.18742130916843
 20
-138.3846625088066
 10
93.18742130916843
 20
-138.3846625088066
 10
93.40101722925391
 20
-138.3846625088066
 10
93.40101722925391
 20
-138.3846625088066
 10
93.3924044905408
 20
-138.2768310201183
 10
93.39033743324964
 20
-138.2640841668229
 10
93.3841362613762
 20
-138.2261881164851
 10
93.3841362613762
 20
-138.2261881164851
 10
93.6380397986391
 20
-138.2472031989452
 10
93.6380397986391
 20
-138.2472031989452
 10
93.65492076651682
 20
-138.2492702562363
 10
93.67593584897685
 20
-138.2513373135274
 10
93.67593584897685
 20
-138.2747639628271
 10
93.67593584897685
 20
-138.293711987996
 10
93.6697346771034
 20
-138.2978461025783
 10
93.6104790347571
 20
-138.3295409810426
 10
93.60841197746596
 20
-138.3381537197558
 10
93.60841197746596
 20
-138.3784613369332
 10
93.60841197746596
 20
-138.3846625088066
 10
93.60841197746596
 20
-138.3846625088066
 10
93.81787378296914
 20
-138.3846625088066
 10
93.81787378296914
 20
-138.3846625088066
 10
94.01665579246806
 20
-138.3846625088066
 10
94.24919973772242
 20
-138.3846625088066
 10
94.44178057534789
 20
-138.3739827128023
 10
94.44178057534789
 20
-138.3739827128023
 10
94.44178057534789
 20
-138.5455484679678
 10
94.44178057534789
 20
-138.5455484679678
 10
94.18374292350268
 20
-138.5369357292547
 10
93.94465329682635
 20
-138.5348686719635
 10
93.81787378296914
 20
-138.5348686719635
 97
        0
 97
        0
 92
        1
 93
        4
 72
     1
 10
93.41169702525819
 20
-138.727449509589
 11
93.01792261129414
 21
-138.727449509589
 72
     1
 10
93.01792261129414
 20
-138.727449509589
 11
93.01792261129414
 21
-138.8097872916865
 72
     1
 10
93.01792261129414
 20
-138.8097872916865
 11
93.41169702525819
 21
-138.8097872916865
 72
     1
 10
93.41169702525819
 20
-138.8097872916865
 11
93.41169702525819
 21
-138.727449509589
 97
        0
 92
        1
 93
        4
 72
     1
 10
93.41169702525819
 20
-138.9200303472144
 11
93.01792261129414
 21
-138.9200303472144
 72
     1
 10
93.01792261129414
 20
-138.9200303472144
 11
93.01792261129414
 21
-139.0003010720208
 72
     1
 10
93.01792261129414
 20
-139.0003010720208
 11
93.41169702525819
 21
-139.0003010720208
 72
     1
 10
93.41169702525819
 20
-139.0003010720208
 11
93.41169702525819
 21
-138.9200303472144
 97
        0
 92
        1
 93
        4
 72
     1
 10
93.9870279712949
 20
-138.727449509589
 11
93.59118650003971
 21
-138.727449509589
 72
     1
 10
93.59118650003971
 20
-138.727449509589
 11
93.59118650003971
 21
-138.8097872916865
 72
     1
 10
93.59118650003971
 20
-138.8097872916865
 11
93.9870279712949
 21
-138.8097872916865
 72
     1
 10
93.9870279712949
 20
-138.8097872916865
 11
93.9870279712949
 21
-138.727449509589
 97
        0
 92
        1
 93
        4
 72
     1
 10
93.9870279712949
 20
-138.9200303472144
 11
93.59118650003971
 21
-138.9200303472144
 72
     1
 10
93.59118650003971
 20
-138.9200303472144
 11
93.59118650003971
 21
-139.0003010720208
 72
     1
 10
93.59118650003971
 20
-139.0003010720208
 11
93.9870279712949
 21
-139.0003010720208
 72
     1
 10
93.9870279712949
 20
-139.0003010720208
 11
93.9870279712949
 21
-138.9200303472144
 97
        0
 92
        1
 93
        1
 72
     4
 94
        3
 73
     0
 74
     1
 95
       17
 96
       13
 40
0.0
 40
0.0
 40
0.0
 40
0.0
 40
1.0
 40
1.0
 40
1.0
 40
2.0
 40
2.0
 40
2.0
 40
3.0
 40
3.0
 40
3.0
 40
4.0
 40
4.0
 40
4.0
 40
4.0
 10
93.8240749548426
 20
-139.5525498783063
 10
93.8240749548426
 20
-139.5525498783063
 10
93.6697346771034
 20
-139.5525498783063
 10
93.6697346771034
 20
-139.5525498783063
 10
93.72899031944971
 20
-139.6369547176949
 10
93.7689534270786
 20
-139.6920762454589
 10
93.84715709459377
 20
-139.7554660023875
 10
93.9150254756532
 20
-139.6941433027501
 10
93.96566837928637
 20
-139.6393662845346
 10
94.03146970305464
 20
-139.5546169355975
 10
93.93604055811322
 20
-139.5546169355975
 10
93.92570527165746
 20
-139.5525498783063
 10
93.8240749548426
 20
-139.5525498783063
 97
        0
 97
        0
 75
     2
 76
     1
 98
        0
  0
SPLINE
  5
12D
330
109
100
AcDbEntity
  8
_U+30EC_U+30A4_U+30E4_U+30FC 1
370
     0
100
AcDbSpline
210
0.0
220
0.0
230
1.0
 70
    11
 71
     3
 72
    86
 73
    82
 74
     0
 42
0.0000000001
 43
0.0000000001
 12
1.0
 22
0.0
 32
0.0
 13
1.0
 23
0.0
 33
0.0
 40
0.0
 40
0.0
 40
0.0
 40
0.0
 40
1.0
 40
1.0
 40
1.0
 40
2.0
 40
2.0
 40
2.0
 40
3.0
 40
3.0
 40
3.0
 40
4.0
 40
4.0
 40
4.0
 40
5.0
 40
5.0
 40
5.0
 40
6.0
 40
6.0
 40
6.0
 40
7.0
 40
7.0
 40
7.0
 40
8.0
 40
8.0
 40
8.0
 40
9.0
 40
9.0
 40
9.0
 40
10.0
 40
10.0
 40
10.0
 40
11.0
 40
11.0
 40
11.0
 40
12.0
 40
12.0
 40
12.0
 40
13.0
 40
13.0
 40
13.0
 40
14.0
 40
14.0
 40
14.0
 40
15.0
 40
15.0
 40
15.0
 40
16.0
 40
16.0
 40
16.0
 40
17.0
 40
17.0
 40
17.0
 40
18.0
 40
18.0
 40
18.0
 40
19.0
 40
19.0
 40
19.0
 40
20.0
 40
20.0
 40
20.0
 40
21.0
 40
21.0
 40
21.0
 40
22.0
 40
22.0
 40
22.0
 40
23.0
 40
23.0
 40
23.0
 40
24.0
 40
24.0
 40
24.0
 40
25.0
 40
25.0
 40
25.0
 40
26.0
 40
26.0
 40
26.0
 40
27.0
 40
27.0
 40
27.0
 40
27.0
 10
95.18971080519563
 20
-138.8184000303996
 30
0.0
 10
95.18971080519563
 20
-138.8184000303996
 30
0.0
 10
95.15801592673134
 20
-138.8184000303996
 30
0.0
 10
95.15801592673134
 20
-138.8184000303996
 30
0.0
 10
95.15801592673134
 20
-138.8711099913239
 30
0.0
 10
95.19832354390876
 20
-138.9875542187253
 30
0.0
 10
95.23828665153765
 20
-139.0681694530802
 30
0.0
 10
95.31028914717938
 20
-139.2159640493974
 30
0.0
 10
95.39710555340767
 20
-139.3093261370477
 30
0.0
 10
95.4456813997497
 20
-139.3599690406809
 30
0.0
 10
95.4456813997497
 20
-139.3599690406809
 30
0.0
 10
95.32096894318366
 20
-139.520854999842
 30
0.0
 10
95.32096894318366
 20
-139.520854999842
 30
0.0
 10
95.26584741541966
 20
-139.4636664147869
 30
0.0
 10
95.22553979824222
 20
-139.4192246830272
 30
0.0
 10
95.15801592673134
 20
-139.2921006596214
 30
0.0
 10
95.15801592673134
 20
-139.2921006596214
 30
0.0
 10
95.15801592673134
 20
-139.4891601213777
 30
0.0
 10
95.15801592673134
 20
-139.4891601213777
 30
0.0
 10
95.15801592673134
 20
-139.6562472524123
 30
0.0
 10
95.15801592673134
 20
-139.7575330596787
 30
0.0
 10
95.17903100919136
 20
-140.1616427600985
 30
0.0
 10
95.17903100919136
 20
-140.1616427600985
 30
0.0
 10
94.95268823581044
 20
-140.1616427600985
 30
0.0
 10
94.95268823581044
 20
-140.1616427600985
 30
0.0
 10
94.96750214639702
 20
-140.0200493356547
 30
0.0
 10
94.98024899969244
 20
-139.5801106421883
 30
0.0
 10
94.98024899969244
 20
-139.5015624651246
 30
0.0
 10
94.98024899969244
 20
-139.5015624651246
 30
0.0
 10
94.98024899969244
 20
-139.2838324304568
 30
0.0
 10
94.98024899969244
 20
-139.2838324304568
 30
0.0
 10
94.91272512818155
 20
-139.4867485545381
 30
0.0
 10
94.83004283653555
 20
-139.5990586673572
 30
0.0
 10
94.76251896502465
 20
-139.6900091881678
 30
0.0
 10
94.76251896502465
 20
-139.6900091881678
 30
0.0
 10
94.57200518469034
 20
-139.5883788713529
 30
0.0
 10
94.57200518469034
 20
-139.5883788713529
 30
0.0
 10
94.78353404748468
 20
-139.3875298045629
 30
0.0
 10
94.891365536173
 20
-139.1060655034179
 30
0.0
 10
94.93994138251502
 20
-138.8184000303996
 30
0.0
 10
94.85140242854409
 20
-138.8184000303996
 30
0.0
 10
94.76251896502465
 20
-138.8225341449819
 30
0.0
 10
94.67570255879636
 20
-138.8352809982773
 30
0.0
 10
94.67570255879636
 20
-138.8352809982773
 30
0.0
 10
94.67570255879636
 20
-138.6278862500652
 30
0.0
 10
94.67570255879636
 20
-138.6278862500652
 30
0.0
 10
94.7645860223158
 20
-138.6427001606518
 30
0.0
 10
94.8954996507553
 20
-138.644767217943
 30
0.0
 10
94.93374021064157
 20
-138.644767217943
 30
0.0
 10
94.93374021064157
 20
-138.644767217943
 30
0.0
 10
94.98024899969244
 20
-138.644767217943
 30
0.0
 10
94.98024899969244
 20
-138.644767217943
 30
0.0
 10
94.97818194240129
 20
-138.596191371601
 30
0.0
 10
94.97818194240129
 20
-138.376394279642
 30
0.0
 10
94.97611488511014
 20
-138.3319525478823
 30
0.0
 10
94.97611488511014
 20
-138.2895778734137
 30
0.0
 10
94.97611488511014
 20
-138.2768310201183
 30
0.0
 10
94.97198077052784
 20
-138.238590460232
 30
0.0
 10
94.97198077052784
 20
-138.238590460232
 30
0.0
 10
95.17903100919136
 20
-138.2513373135274
 30
0.0
 10
95.17903100919136
 20
-138.2513373135274
 30
0.0
 10
95.18971080519563
 20
-138.2513373135274
 30
0.0
 10
95.21313745449532
 20
-138.2534043708186
 30
0.0
 10
95.21313745449532
 20
-138.272696905536
 30
0.0
 10
95.21313745449532
 20
-138.2957790452872
 30
0.0
 10
95.18764374790449
 20
-138.3064588412915
 30
0.0
 10
95.16628415589594
 20
-138.3171386372957
 30
0.0
 10
95.16421709860478
 20
-138.3509005730512
 30
0.0
 10
95.16008298402248
 20
-138.5982584288921
 30
0.0
 10
95.16008298402248
 20
-138.644767217943
 30
0.0
 10
95.16008298402248
 20
-138.644767217943
 30
0.0
 10
95.18971080519563
 20
-138.644767217943
 30
0.0
 10
95.18971080519563
 20
-138.644767217943
 30
0.0
 10
95.27652721142393
 20
-138.644767217943
 30
0.0
 10
95.36541067494338
 20
-138.6406331033607
 30
0.0
 10
95.449815514332
 20
-138.6278862500652
 30
0.0
 10
95.449815514332
 20
-138.6278862500652
 30
0.0
 10
95.449815514332
 20
-138.8352809982773
 30
0.0
 10
95.449815514332
 20
-138.8352809982773
 30
0.0
 10
95.33784991106137
 20
-138.8184000303996
 30
0.0
 10
95.20039060119991
 20
-138.8184000303996
 30
0.0
 10
95.18971080519563
 20
-138.8184000303996
 30
0.0
  0
SPLINE
  5
12E
330
109
100
AcDbEntity
  8
_U+30EC_U+30A4_U+30E4_U+30FC 1
370
     0
100
AcDbSpline
210
0.0
220
0.0
230
1.0
 70
    11
 71
     3
 72
    80
 73
    76
 74
     0
 42
0.0000000001
 43
0.0000000001
 12
1.0
 22
0.0
 32
0.0
 13
1.0
 23
0.0
 33
0.0
 40
0.0
 40
0.0
 40
0.0
 40
0.0
 40
1.0
 40
1.0
 40
1.0
 40
2.0
 40
2.0
 40
2.0
 40
3.0
 40
3.0
 40
3.0
 40
4.0
 40
4.0
 40
4.0
 40
5.0
 40
5.0
 40
5.0
 40
6.0
 40
6.0
 40
6.0
 40
7.0
 40
7.0
 40
7.0
 40
8.0
 40
8.0
 40
8.0
 40
9.0
 40
9.0
 40
9.0
 40
10.0
 40
10.0
 40
10.0
 40
11.0
 40
11.0
 40
11.0
 40
12.0
 40
12.0
 40
12.0
 40
13.0
 40
13.0
 40
13.0
 40
14.0
 40
14.0
 40
14.0
 40
15.0
 40
15.0
 40
15.0
 40
16.0
 40
16.0
 40
16.0
 40
17.0
 40
17.0
 40
17.0
 40
18.0
 40
18.0
 40
18.0
 40
19.0
 40
19.0
 40
19.0
 40
20.0
 40
20.0
 40
20.0
 40
21.0
 40
21.0
 40
21.0
 40
22.0
 40
22.0
 40
22.0
 40
23.0
 40
23.0
 40
23.0
 40
24.0
 40
24.0
 40
24.0
 40
25.0
 40
25.0
 40
25.0
 40
25.0
 10
96.42718910349737
 20
-140.1151339710476
 30
0.0
 10
96.24528806187618
 20
-139.9945556290639
 30
0.0
 10
96.16708439436101
 20
-139.9184190188398
 30
0.0
 10
96.08888072684584
 20
-139.8295355553204
 30
0.0
 10
95.93660750639779
 20
-139.9904215144816
 30
0.0
 10
95.8222303362875
 20
-140.0644910674145
 30
0.0
 10
95.7037190515949
 20
-140.1237467097607
 30
0.0
 10
95.7037190515949
 20
-140.1237467097607
 30
0.0
 10
95.51768389539141
 20
-139.9735405466039
 30
0.0
 10
95.51768389539141
 20
-139.9735405466039
 30
0.0
 10
95.6954508224303
 20
-139.9101507896752
 30
0.0
 10
95.84117836145637
 20
-139.8381482940335
 30
0.0
 10
95.97863767131784
 20
-139.6834635067458
 30
0.0
 10
95.85185815746065
 20
-139.4784803253735
 30
0.0
 10
95.77985566181893
 20
-139.2480034374102
 30
0.0
 10
95.7547064647766
 20
-139.0089138107339
 30
0.0
 10
95.7547064647766
 20
-139.0089138107339
 30
0.0
 10
95.69097219829948
 20
-139.0089138107339
 30
0.0
 10
95.69097219829948
 20
-139.0089138107339
 30
0.0
 10
95.69097219829948
 20
-139.0089138107339
 30
0.0
 10
95.69097219829948
 20
-139.0977972742533
 30
0.0
 10
95.69097219829948
 20
-139.0977972742533
 30
0.0
 10
95.69097219829948
 20
-139.33447533409
 30
0.0
 10
95.67202417313061
 20
-139.816788702025
 30
0.0
 10
95.39917261069883
 20
-140.1320149389253
 30
0.0
 10
95.39917261069883
 20
-140.1320149389253
 30
0.0
 10
95.21072588765566
 20
-140.0200493356547
 30
0.0
 10
95.21072588765566
 20
-140.0200493356547
 30
0.0
 10
95.4732421636317
 20
-139.7937065622738
 30
0.0
 10
95.50493704209599
 20
-139.4423068227783
 30
0.0
 10
95.50493704209599
 20
-138.9982340147296
 30
0.0
 10
95.50493704209599
 20
-138.6661268099515
 30
0.0
 10
95.50080292751369
 20
-138.452530889866
 30
0.0
 10
95.49219018880056
 20
-138.3023247267091
 30
0.0
 10
95.59795462019774
 20
-138.3126600131649
 30
0.0
 10
95.68477102642603
 20
-138.3171386372957
 30
0.0
 10
95.83704424687407
 20
-138.3171386372957
 30
0.0
 10
95.83704424687407
 20
-138.3171386372957
 30
0.0
 10
96.20532495424729
 20
-138.3171386372957
 30
0.0
 10
96.20532495424729
 20
-138.3171386372957
 30
0.0
 10
96.30040958964018
 20
-138.3171386372957
 30
0.0
 10
96.48231063126137
 20
-138.3085258985826
 30
0.0
 10
96.55638018419424
 20
-138.300257669418
 30
0.0
 10
96.55638018419424
 20
-138.300257669418
 30
0.0
 10
96.55638018419424
 20
-138.5052408507904
 30
0.0
 10
96.55638018419424
 20
-138.5052408507904
 30
0.0
 10
96.45681692467052
 20
-138.4945610547861
 30
0.0
 10
96.34278426410876
 20
-138.4924939974949
 30
0.0
 10
96.10989580930587
 20
-138.4924939974949
 30
0.0
 10
96.10989580930587
 20
-138.4924939974949
 30
0.0
 10
96.06752113483729
 20
-138.4924939974949
 30
0.0
 10
96.06752113483729
 20
-138.4924939974949
 30
0.0
 10
96.06752113483729
 20
-138.4924939974949
 30
0.0
 10
95.69097219829948
 20
-138.4924939974949
 30
0.0
 10
95.69097219829948
 20
-138.4924939974949
 30
0.0
 10
95.69097219829948
 20
-138.4924939974949
 30
0.0
 10
95.69097219829948
 20
-138.8352809982773
 30
0.0
 10
95.69097219829948
 20
-138.8352809982773
 30
0.0
 10
95.69097219829948
 20
-138.8352809982773
 30
0.0
 10
96.04443899508611
 20
-138.8352809982773
 30
0.0
 10
96.04443899508611
 20
-138.8352809982773
 30
0.0
 10
96.09714895601044
 20
-138.8352809982773
 30
0.0
 10
96.33623858268678
 20
-138.8290798264038
 30
0.0
 10
96.38481442902881
 20
-138.8270127691127
 30
0.0
 10
96.38481442902881
 20
-138.8270127691127
 30
0.0
 10
96.46129554880135
 20
-138.9179632899233
 30
0.0
 10
96.46129554880135
 20
-138.9179632899233
 30
0.0
 10
96.37861325715535
 20
-139.3303412195077
 30
0.0
 10
96.3214246721002
 20
-139.4974283505423
 30
0.0
 10
96.20532495424729
 20
-139.6772623348724
 30
0.0
 10
96.2938639082182
 20
-139.7747585371049
 30
0.0
 10
96.39136011045078
 20
-139.8632974910759
 30
0.0
 10
96.59220917724085
 20
-139.9607936933084
 30
0.0
 10
96.59220917724085
 20
-139.9607936933084
 30
0.0
 10
96.42718910349737
 20
-140.1151339710476
 30
0.0
 10
96.42718910349737
 20
-140.1151339710476
 30
0.0
  0
SPLINE
  5
12F
330
109
100
AcDbEntity
  8
_U+30EC_U+30A4_U+30E4_U+30FC 1
370
     0
100
AcDbSpline
210
0.0
220
0.0
230
1.0
 70
    11
 71
     3
 72
    14
 73
    10
 74
     0
 42
0.0000000001
 43
0.0000000001
 12
1.0
 22
0.0
 32
0.0
 13
1.0
 23
0.0
 33
0.0
 40
0.0
 40
0.0
 40
0.0
 40
0.0
 40
1.0
 40
1.0
 40
1.0
 40
2.0
 40
2.0
 40
2.0
 40
3.0
 40
3.0
 40
3.0
 40
3.0
 10
95.94074162098009
 20
-139.0089138107339
 30
0.0
 10
95.95762258885782
 20
-139.1863362282243
 30
0.0
 10
96.00413137790869
 20
-139.3599690406809
 30
0.0
 10
96.08888072684584
 20
-139.5163763757112
 30
0.0
 10
96.13538951589672
 20
-139.4254258549006
 30
0.0
 10
96.21359318341189
 20
-139.2455918705706
 30
0.0
 10
96.23908689000274
 20
-139.0089138107339
 30
0.0
 10
96.23908689000274
 20
-139.0089138107339
 30
0.0
 10
95.94074162098009
 20
-139.0089138107339
 30
0.0
 10
95.94074162098009
 20
-139.0089138107339
 30
0.0
  0
HATCH
  5
130
330
109
100
AcDbEntity
  8
_U+30EC_U+30A4_U+30E4_U+30FC 1
 62
   179
420
  2234388
100
AcDbHatch
 10
0.0
 20
0.0
 30
0.0
210
0.0
220
0.0
230
1.0
  2
SOLID
 70
     1
 71
     0
 91
        3
 92
        1
 93
        1
 72
     4
 94
        3
 73
     0
 74
     1
 95
       86
 96
       82
 40
0.0
 40
0.0
 40
0.0
 40
0.0
 40
1.0
 40
1.0
 40
1.0
 40
2.0
 40
2.0
 40
2.0
 40
3.0
 40
3.0
 40
3.0
 40
4.0
 40
4.0
 40
4.0
 40
5.0
 40
5.0
 40
5.0
 40
6.0
 40
6.0
 40
6.0
 40
7.0
 40
7.0
 40
7.0
 40
8.0
 40
8.0
 40
8.0
 40
9.0
 40
9.0
 40
9.0
 40
10.0
 40
10.0
 40
10.0
 40
11.0
 40
11.0
 40
11.0
 40
12.0
 40
12.0
 40
12.0
 40
13.0
 40
13.0
 40
13.0
 40
14.0
 40
14.0
 40
14.0
 40
15.0
 40
15.0
 40
15.0
 40
16.0
 40
16.0
 40
16.0
 40
17.0
 40
17.0
 40
17.0
 40
18.0
 40
18.0
 40
18.0
 40
19.0
 40
19.0
 40
19.0
 40
20.0
 40
20.0
 40
20.0
 40
21.0
 40
21.0
 40
21.0
 40
22.0
 40
22.0
 40
22.0
 40
23.0
 40
23.0
 40
23.0
 40
24.0
 40
24.0
 40
24.0
 40
25.0
 40
25.0
 40
25.0
 40
26.0
 40
26.0
 40
26.0
 40
27.0
 40
27.0
 40
27.0
 40
27.0
 10
95.18971080519563
 20
-138.8184000303996
 10
95.18971080519563
 20
-138.8184000303996
 10
95.15801592673134
 20
-138.8184000303996
 10
95.15801592673134
 20
-138.8184000303996
 10
95.15801592673134
 20
-138.8711099913239
 10
95.19832354390876
 20
-138.9875542187253
 10
95.23828665153765
 20
-139.0681694530802
 10
95.31028914717938
 20
-139.2159640493974
 10
95.39710555340767
 20
-139.3093261370477
 10
95.4456813997497
 20
-139.3599690406809
 10
95.4456813997497
 20
-139.3599690406809
 10
95.32096894318366
 20
-139.520854999842
 10
95.32096894318366
 20
-139.520854999842
 10
95.26584741541966
 20
-139.4636664147869
 10
95.22553979824222
 20
-139.4192246830272
 10
95.15801592673134
 20
-139.2921006596214
 10
95.15801592673134
 20
-139.2921006596214
 10
95.15801592673134
 20
-139.4891601213777
 10
95.15801592673134
 20
-139.4891601213777
 10
95.15801592673134
 20
-139.6562472524123
 10
95.15801592673134
 20
-139.7575330596787
 10
95.17903100919136
 20
-140.1616427600985
 10
95.17903100919136
 20
-140.1616427600985
 10
94.95268823581044
 20
-140.1616427600985
 10
94.95268823581044
 20
-140.1616427600985
 10
94.96750214639702
 20
-140.0200493356547
 10
94.98024899969244
 20
-139.5801106421883
 10
94.98024899969244
 20
-139.5015624651246
 10
94.98024899969244
 20
-139.5015624651246
 10
94.98024899969244
 20
-139.2838324304568
 10
94.98024899969244
 20
-139.2838324304568
 10
94.91272512818155
 20
-139.4867485545381
 10
94.83004283653555
 20
-139.5990586673572
 10
94.76251896502465
 20
-139.6900091881678
 10
94.76251896502465
 20
-139.6900091881678
 10
94.57200518469034
 20
-139.5883788713529
 10
94.57200518469034
 20
-139.5883788713529
 10
94.78353404748468
 20
-139.3875298045629
 10
94.891365536173
 20
-139.1060655034179
 10
94.93994138251502
 20
-138.8184000303996
 10
94.85140242854409
 20
-138.8184000303996
 10
94.76251896502465
 20
-138.8225341449819
 10
94.67570255879636
 20
-138.8352809982773
 10
94.67570255879636
 20
-138.8352809982773
 10
94.67570255879636
 20
-138.6278862500652
 10
94.67570255879636
 20
-138.6278862500652
 10
94.7645860223158
 20
-138.6427001606518
 10
94.8954996507553
 20
-138.644767217943
 10
94.93374021064157
 20
-138.644767217943
 10
94.93374021064157
 20
-138.644767217943
 10
94.98024899969244
 20
-138.644767217943
 10
94.98024899969244
 20
-138.644767217943
 10
94.97818194240129
 20
-138.596191371601
 10
94.97818194240129
 20
-138.376394279642
 10
94.97611488511014
 20
-138.3319525478823
 10
94.97611488511014
 20
-138.2895778734137
 10
94.97611488511014
 20
-138.2768310201183
 10
94.97198077052784
 20
-138.238590460232
 10
94.97198077052784
 20
-138.238590460232
 10
95.17903100919136
 20
-138.2513373135274
 10
95.17903100919136
 20
-138.2513373135274
 10
95.18971080519563
 20
-138.2513373135274
 10
95.21313745449532
 20
-138.2534043708186
 10
95.21313745449532
 20
-138.272696905536
 10
95.21313745449532
 20
-138.2957790452872
 10
95.18764374790449
 20
-138.3064588412915
 10
95.16628415589594
 20
-138.3171386372957
 10
95.16421709860478
 20
-138.3509005730512
 10
95.16008298402248
 20
-138.5982584288921
 10
95.16008298402248
 20
-138.644767217943
 10
95.16008298402248
 20
-138.644767217943
 10
95.18971080519563
 20
-138.644767217943
 10
95.18971080519563
 20
-138.644767217943
 10
95.27652721142393
 20
-138.644767217943
 10
95.36541067494338
 20
-138.6406331033607
 10
95.449815514332
 20
-138.6278862500652
 10
95.449815514332
 20
-138.6278862500652
 10
95.449815514332
 20
-138.8352809982773
 10
95.449815514332
 20
-138.8352809982773
 10
95.33784991106137
 20
-138.8184000303996
 10
95.20039060119991
 20
-138.8184000303996
 10
95.18971080519563
 20
-138.8184000303996
 97
        0
 97
        0
 92
        1
 93
        1
 72
     4
 94
        3
 73
     0
 74
     1
 95
       80
 96
       76
 40
0.0
 40
0.0
 40
0.0
 40
0.0
 40
1.0
 40
1.0
 40
1.0
 40
2.0
 40
2.0
 40
2.0
 40
3.0
 40
3.0
 40
3.0
 40
4.0
 40
4.0
 40
4.0
 40
5.0
 40
5.0
 40
5.0
 40
6.0
 40
6.0
 40
6.0
 40
7.0
 40
7.0
 40
7.0
 40
8.0
 40
8.0
 40
8.0
 40
9.0
 40
9.0
 40
9.0
 40
10.0
 40
10.0
 40
10.0
 40
11.0
 40
11.0
 40
11.0
 40
12.0
 40
12.0
 40
12.0
 40
13.0
 40
13.0
 40
13.0
 40
14.0
 40
14.0
 40
14.0
 40
15.0
 40
15.0
 40
15.0
 40
16.0
 40
16.0
 40
16.0
 40
17.0
 40
17.0
 40
17.0
 40
18.0
 40
18.0
 40
18.0
 40
19.0
 40
19.0
 40
19.0
 40
20.0
 40
20.0
 40
20.0
 40
21.0
 40
21.0
 40
21.0
 40
22.0
 40
22.0
 40
22.0
 40
23.0
 40
23.0
 40
23.0
 40
24.0
 40
24.0
 40
24.0
 40
25.0
 40
25.0
 40
25.0
 40
25.0
 10
96.42718910349737
 20
-140.1151339710476
 10
96.24528806187618
 20
-139.9945556290639
 10
96.16708439436101
 20
-139.9184190188398
 10
96.08888072684584
 20
-139.8295355553204
 10
95.93660750639779
 20
-139.9904215144816
 10
95.8222303362875
 20
-140.0644910674145
 10
95.7037190515949
 20
-140.1237467097607
 10
95.7037190515949
 20
-140.1237467097607
 10
95.51768389539141
 20
-139.9735405466039
 10
95.51768389539141
 20
-139.9735405466039
 10
95.6954508224303
 20
-139.9101507896752
 10
95.84117836145637
 20
-139.8381482940335
 10
95.97863767131784
 20
-139.6834635067458
 10
95.85185815746065
 20
-139.4784803253735
 10
95.77985566181893
 20
-139.2480034374102
 10
95.7547064647766
 20
-139.0089138107339
 10
95.7547064647766
 20
-139.0089138107339
 10
95.69097219829948
 20
-139.0089138107339
 10
95.69097219829948
 20
-139.0089138107339
 10
95.69097219829948
 20
-139.0089138107339
 10
95.69097219829948
 20
-139.0977972742533
 10
95.69097219829948
 20
-139.0977972742533
 10
95.69097219829948
 20
-139.33447533409
 10
95.67202417313061
 20
-139.816788702025
 10
95.39917261069883
 20
-140.1320149389253
 10
95.39917261069883
 20
-140.1320149389253
 10
95.21072588765566
 20
-140.0200493356547
 10
95.21072588765566
 20
-140.0200493356547
 10
95.4732421636317
 20
-139.7937065622738
 10
95.50493704209599
 20
-139.4423068227783
 10
95.50493704209599
 20
-138.9982340147296
 10
95.50493704209599
 20
-138.6661268099515
 10
95.50080292751369
 20
-138.452530889866
 10
95.49219018880056
 20
-138.3023247267091
 10
95.59795462019774
 20
-138.3126600131649
 10
95.68477102642603
 20
-138.3171386372957
 10
95.83704424687407
 20
-138.3171386372957
 10
95.83704424687407
 20
-138.3171386372957
 10
96.20532495424729
 20
-138.3171386372957
 10
96.20532495424729
 20
-138.3171386372957
 10
96.30040958964018
 20
-138.3171386372957
 10
96.48231063126137
 20
-138.3085258985826
 10
96.55638018419424
 20
-138.300257669418
 10
96.55638018419424
 20
-138.300257669418
 10
96.55638018419424
 20
-138.5052408507904
 10
96.55638018419424
 20
-138.5052408507904
 10
96.45681692467052
 20
-138.4945610547861
 10
96.34278426410876
 20
-138.4924939974949
 10
96.10989580930587
 20
-138.4924939974949
 10
96.10989580930587
 20
-138.4924939974949
 10
96.06752113483729
 20
-138.4924939974949
 10
96.06752113483729
 20
-138.4924939974949
 10
96.06752113483729
 20
-138.4924939974949
 10
95.69097219829948
 20
-138.4924939974949
 10
95.69097219829948
 20
-138.4924939974949
 10
95.69097219829948
 20
-138.4924939974949
 10
95.69097219829948
 20
-138.8352809982773
 10
95.69097219829948
 20
-138.8352809982773
 10
95.69097219829948
 20
-138.8352809982773
 10
96.04443899508611
 20
-138.8352809982773
 10
96.04443899508611
 20
-138.8352809982773
 10
96.09714895601044
 20
-138.8352809982773
 10
96.33623858268678
 20
-138.8290798264038
 10
96.38481442902881
 20
-138.8270127691127
 10
96.38481442902881
 20
-138.8270127691127
 10
96.46129554880135
 20
-138.9179632899233
 10
96.46129554880135
 20
-138.9179632899233
 10
96.37861325715535
 20
-139.3303412195077
 10
96.3214246721002
 20
-139.4974283505423
 10
96.20532495424729
 20
-139.6772623348724
 10
96.2938639082182
 20
-139.7747585371049
 10
96.39136011045078
 20
-139.8632974910759
 10
96.59220917724085
 20
-139.9607936933084
 10
96.59220917724085
 20
-139.9607936933084
 10
96.42718910349737
 20
-140.1151339710476
 10
96.42718910349737
 20
-140.1151339710476
 97
        0
 97
        0
 92
        1
 93
        1
 72
     4
 94
        3
 73
     0
 74
     1
 95
       14
 96
       10
 40
0.0
 40
0.0
 40
0.0
 40
0.0
 40
1.0
 40
1.0
 40
1.0
 40
2.0
 40
2.0
 40
2.0
 40
3.0
 40
3.0
 40
3.0
 40
3.0
 10
95.94074162098009
 20
-139.0089138107339
 10
95.95762258885782
 20
-139.1863362282243
 10
96.00413137790869
 20
-139.3599690406809
 10
96.08888072684584
 20
-139.5163763757112
 10
96.13538951589672
 20
-139.4254258549006
 10
96.21359318341189
 20
-139.2455918705706
 10
96.23908689000274
 20
-139.0089138107339
 10
96.23908689000274
 20
-139.0089138107339
 10
95.94074162098009
 20
-139.0089138107339
 10
95.94074162098009
 20
-139.0089138107339
 97
        0
 97
        0
 75
     2
 76
     1
 98
        0
  0
SPLINE
  5
131
330
109
100
AcDbEntity
  8
_U+30EC_U+30A4_U+30E4_U+30FC 1
370
     0
100
AcDbSpline
210
0.0
220
0.0
230
1.0
 70
    11
 71
     3
 72
    20
 73
    16
 74
     0
 42
0.0000000001
 43
0.0000000001
 12
1.0
 22
0.0
 32
0.0
 13
1.0
 23
0.0
 33
0.0
 40
0.0
 40
0.0
 40
0.0
 40
0.0
 40
1.0
 40
1.0
 40
1.0
 40
2.0
 40
2.0
 40
2.0
 40
3.0
 40
3.0
 40
3.0
 40
4.0
 40
4.0
 40
4.0
 40
5.0
 40
5.0
 40
5.0
 40
5.0
 10
97.25986868228226
 20
-139.1760009417685
 30
0.0
 10
97.19613441580513
 20
-139.1315592100088
 30
0.0
 10
97.16443953734084
 20
-139.1101996180002
 30
0.0
 10
97.02698022747937
 20
-139.050943975654
 30
0.0
 10
96.87470700703133
 20
-138.9854871614342
 30
0.0
 10
96.83233233256276
 20
-138.9706732508476
 30
0.0
 10
96.78375648622074
 20
-138.9537922829699
 30
0.0
 10
96.78375648622074
 20
-138.9537922829699
 30
0.0
 10
96.87470700703133
 20
-138.7739582986399
 30
0.0
 10
96.87470700703133
 20
-138.7739582986399
 30
0.0
 10
96.93189559208648
 20
-138.7973849479395
 30
0.0
 10
97.19854598264482
 20
-138.9052164366279
 30
0.0
 10
97.35288626038401
 20
-139.0130479253162
 30
0.0
 10
97.35288626038401
 20
-139.0130479253162
 30
0.0
 10
97.25986868228226
 20
-139.1760009417685
 30
0.0
 10
97.25986868228226
 20
-139.1760009417685
 30
0.0
  0
SPLINE
  5
132
330
109
100
AcDbEntity
  8
_U+30EC_U+30A4_U+30E4_U+30FC 1
370
     0
100
AcDbSpline
210
0.0
220
0.0
230
1.0
 70
    11
 71
     3
 72
    26
 73
    22
 74
     0
 42
0.0000000001
 43
0.0000000001
 12
1.0
 22
0.0
 32
0.0
 13
1.0
 23
0.0
 33
0.0
 40
0.0
 40
0.0
 40
0.0
 40
0.0
 40
1.0
 40
1.0
 40
1.0
 40
2.0
 40
2.0
 40
2.0
 40
3.0
 40
3.0
 40
3.0
 40
4.0
 40
4.0
 40
4.0
 40
5.0
 40
5.0
 40
5.0
 40
6.0
 40
6.0
 40
6.0
 40
7.0
 40
7.0
 40
7.0
 40
7.0
 10
97.13274465887655
 20
-140.030729131659
 30
0.0
 10
97.13067760158539
 20
-140.0558783287013
 30
0.0
 10
97.12654348700309
 20
-140.106865741883
 30
0.0
 10
97.08830292711681
 20
-140.106865741883
 30
0.0
 10
97.08210175524337
 20
-140.106865741883
 30
0.0
 10
97.06522078736565
 20
-140.100320060461
 30
0.0
 10
97.05247393407022
 20
-140.0855061498745
 30
0.0
 10
97.05247393407022
 20
-140.0855061498745
 30
0.0
 10
96.8936550322002
 20
-139.8781114016624
 30
0.0
 10
96.8936550322002
 20
-139.8781114016624
 30
0.0
 10
97.0080322023105
 20
-139.8464165231981
 30
0.0
 10
97.23644203298257
 20
-139.7830267662695
 30
0.0
 10
97.61953665094234
 20
-139.4764132680823
 30
0.0
 10
97.93028426371188
 20
-139.2287109026928
 30
0.0
 10
98.08703610829075
 20
-139.0299288931939
 30
0.0
 10
98.23276364731682
 20
-138.8097872916865
 30
0.0
 10
98.23276364731682
 20
-138.8097872916865
 30
0.0
 10
98.36195472801369
 20
-138.9854871614342
 30
0.0
 10
98.36195472801369
 20
-138.9854871614342
 30
0.0
 10
98.0574082871176
 20
-139.4719346439515
 30
0.0
 10
97.4162760173126
 20
-139.9142849042576
 30
0.0
 10
97.13274465887655
 20
-140.030729131659
 30
0.0
  0
SPLINE
  5
133
330
109
100
AcDbEntity
  8
_U+30EC_U+30A4_U+30E4_U+30FC 1
370
     0
100
AcDbSpline
210
0.0
220
0.0
230
1.0
 70
    11
 71
     3
 72
    17
 73
    13
 74
     0
 42
0.0000000001
 43
0.0000000001
 12
1.0
 22
0.0
 32
0.0
 13
1.0
 23
0.0
 33
0.0
 40
0.0
 40
0.0
 40
0.0
 40
0.0
 40
1.0
 40
1.0
 40
1.0
 40
2.0
 40
2.0
 40
2.0
 40
3.0
 40
3.0
 40
3.0
 40
4.0
 40
4.0
 40
4.0
 40
4.0
 10
97.49895830895859
 20
-138.6743950391161
 30
0.0
 10
97.35702037496631
 20
-138.5603623785544
 30
0.0
 10
97.14342445488082
 20
-138.4756130296172
 30
0.0
 10
97.01423337418395
 20
-138.4377169792795
 30
0.0
 10
97.01423337418395
 20
-138.4377169792795
 30
0.0
 10
97.10104978041224
 20
-138.2620171095317
 30
0.0
 10
97.10104978041224
 20
-138.2620171095317
 30
0.0
 10
97.28742944616425
 20
-138.3360866624646
 30
0.0
 10
97.45451657719887
 20
-138.4229030686929
 30
0.0
 10
97.5899088297692
 20
-138.5052408507904
 30
0.0
 10
97.5899088297692
 20
-138.5052408507904
 30
0.0
 10
97.49895830895859
 20
-138.6743950391161
 30
0.0
 10
97.49895830895859
 20
-138.6743950391161
 30
0.0
  0
SPLINE
  5
134
330
109
100
AcDbEntity
  8
_U+30EC_U+30A4_U+30E4_U+30FC 1
370
     0
100
AcDbSpline
210
0.0
220
0.0
230
1.0
 70
    11
 71
     3
 72
    17
 73
    13
 74
     0
 42
0.0000000001
 43
0.0000000001
 12
1.0
 22
0.0
 32
0.0
 13
1.0
 23
0.0
 33
0.0
 40
0.0
 40
0.0
 40
0.0
 40
0.0
 40
1.0
 40
1.0
 40
1.0
 40
2.0
 40
2.0
 40
2.0
 40
3.0
 40
3.0
 40
3.0
 40
4.0
 40
4.0
 40
4.0
 40
4.0
 10
98.15455997980165
 20
-138.6003254861833
 30
0.0
 10
98.09978296158617
 20
-138.5434814106766
 30
0.0
 10
98.0381157524002
 20
-138.4842257683303
 30
0.0
 10
97.92408309183843
 20
-138.4122232726886
 30
0.0
 10
97.92408309183843
 20
-138.4122232726886
 30
0.0
 10
98.01916772723132
 20
-138.3085258985826
 30
0.0
 10
98.01916772723132
 20
-138.3085258985826
 30
0.0
 10
98.09737139474649
 20
-138.3509005730512
 30
0.0
 10
98.20106876885251
 20
-138.4101562153975
 30
0.0
 10
98.26032441119881
 20
-138.4924939974949
 30
0.0
 10
98.26032441119881
 20
-138.4924939974949
 30
0.0
 10
98.15455997980165
 20
-138.6003254861833
 30
0.0
 10
98.15455997980165
 20
-138.6003254861833
 30
0.0
  0
SPLINE
  5
135
330
109
100
AcDbEntity
  8
_U+30EC_U+30A4_U+30E4_U+30FC 1
370
     0
100
AcDbSpline
210
0.0
220
0.0
230
1.0
 70
    11
 71
     3
 72
    17
 73
    13
 74
     0
 42
0.0000000001
 43
0.0000000001
 12
1.0
 22
0.0
 32
0.0
 13
1.0
 23
0.0
 33
0.0
 40
0.0
 40
0.0
 40
0.0
 40
0.0
 40
1.0
 40
1.0
 40
1.0
 40
2.0
 40
2.0
 40
2.0
 40
3.0
 40
3.0
 40
3.0
 40
4.0
 40
4.0
 40
4.0
 40
4.0
 10
98.38090275318255
 20
-138.4459852084441
 30
0.0
 10
98.36195472801369
 20
-138.4291042405663
 30
0.0
 10
98.15662703709279
 20
-138.272696905536
 30
0.0
 10
98.1290662732108
 20
-138.2534043708186
 30
0.0
 10
98.1290662732108
 20
-138.2534043708186
 30
0.0
 10
98.23724227144764
 20
-138.1435058248391
 30
0.0
 10
98.23724227144764
 20
-138.1435058248391
 30
0.0
 10
98.3471408174271
 20
-138.2196424350632
 30
0.0
 10
98.35988767072253
 20
-138.2303222310674
 30
0.0
 10
98.48666718457973
 20
-138.3360866624646
 30
0.0
 10
98.48666718457973
 20
-138.3360866624646
 30
0.0
 10
98.38090275318255
 20
-138.4459852084441
 30
0.0
 10
98.38090275318255
 20
-138.4459852084441
 30
0.0
  0
HATCH
  5
136
330
109
100
AcDbEntity
  8
_U+30EC_U+30A4_U+30E4_U+30FC 1
 62
   179
420
  2234388
100
AcDbHatch
 10
0.0
 20
0.0
 30
0.0
210
0.0
220
0.0
230
1.0
  2
SOLID
 70
     1
 71
     0
 91
        5
 92
        1
 93
        1
 72
     4
 94
        3
 73
     0
 74
     1
 95
       20
 96
       16
 40
0.0
 40
0.0
 40
0.0
 40
0.0
 40
1.0
 40
1.0
 40
1.0
 40
2.0
 40
2.0
 40
2.0
 40
3.0
 40
3.0
 40
3.0
 40
4.0
 40
4.0
 40
4.0
 40
5.0
 40
5.0
 40
5.0
 40
5.0
 10
97.25986868228226
 20
-139.1760009417685
 10
97.19613441580513
 20
-139.1315592100088
 10
97.16443953734084
 20
-139.1101996180002
 10
97.02698022747937
 20
-139.050943975654
 10
96.87470700703133
 20
-138.9854871614342
 10
96.83233233256276
 20
-138.9706732508476
 10
96.78375648622074
 20
-138.9537922829699
 10
96.78375648622074
 20
-138.9537922829699
 10
96.87470700703133
 20
-138.7739582986399
 10
96.87470700703133
 20
-138.7739582986399
 10
96.93189559208648
 20
-138.7973849479395
 10
97.19854598264482
 20
-138.9052164366279
 10
97.35288626038401
 20
-139.0130479253162
 10
97.35288626038401
 20
-139.0130479253162
 10
97.25986868228226
 20
-139.1760009417685
 10
97.25986868228226
 20
-139.1760009417685
 97
        0
 97
        0
 92
        1
 93
        1
 72
     4
 94
        3
 73
     0
 74
     1
 95
       26
 96
       22
 40
0.0
 40
0.0
 40
0.0
 40
0.0
 40
1.0
 40
1.0
 40
1.0
 40
2.0
 40
2.0
 40
2.0
 40
3.0
 40
3.0
 40
3.0
 40
4.0
 40
4.0
 40
4.0
 40
5.0
 40
5.0
 40
5.0
 40
6.0
 40
6.0
 40
6.0
 40
7.0
 40
7.0
 40
7.0
 40
7.0
 10
97.13274465887655
 20
-140.030729131659
 10
97.13067760158539
 20
-140.0558783287013
 10
97.12654348700309
 20
-140.106865741883
 10
97.08830292711681
 20
-140.106865741883
 10
97.08210175524337
 20
-140.106865741883
 10
97.06522078736565
 20
-140.100320060461
 10
97.05247393407022
 20
-140.0855061498745
 10
97.05247393407022
 20
-140.0855061498745
 10
96.8936550322002
 20
-139.8781114016624
 10
96.8936550322002
 20
-139.8781114016624
 10
97.0080322023105
 20
-139.8464165231981
 10
97.23644203298257
 20
-139.7830267662695
 10
97.61953665094234
 20
-139.4764132680823
 10
97.93028426371188
 20
-139.2287109026928
 10
98.08703610829075
 20
-139.0299288931939
 10
98.23276364731682
 20
-138.8097872916865
 10
98.23276364731682
 20
-138.8097872916865
 10
98.36195472801369
 20
-138.9854871614342
 10
98.36195472801369
 20
-138.9854871614342
 10
98.0574082871176
 20
-139.4719346439515
 10
97.4162760173126
 20
-139.9142849042576
 10
97.13274465887655
 20
-140.030729131659
 97
        0
 97
        0
 92
        1
 93
        1
 72
     4
 94
        3
 73
     0
 74
     1
 95
       17
 96
       13
 40
0.0
 40
0.0
 40
0.0
 40
0.0
 40
1.0
 40
1.0
 40
1.0
 40
2.0
 40
2.0
 40
2.0
 40
3.0
 40
3.0
 40
3.0
 40
4.0
 40
4.0
 40
4.0
 40
4.0
 10
97.49895830895859
 20
-138.6743950391161
 10
97.35702037496631
 20
-138.5603623785544
 10
97.14342445488082
 20
-138.4756130296172
 10
97.01423337418395
 20
-138.4377169792795
 10
97.01423337418395
 20
-138.4377169792795
 10
97.10104978041224
 20
-138.2620171095317
 10
97.10104978041224
 20
-138.2620171095317
 10
97.28742944616425
 20
-138.3360866624646
 10
97.45451657719887
 20
-138.4229030686929
 10
97.5899088297692
 20
-138.5052408507904
 10
97.5899088297692
 20
-138.5052408507904
 10
97.49895830895859
 20
-138.6743950391161
 10
97.49895830895859
 20
-138.6743950391161
 97
        0
 97
        0
 92
        1
 93
        1
 72
     4
 94
        3
 73
     0
 74
     1
 95
       17
 96
       13
 40
0.0
 40
0.0
 40
0.0
 40
0.0
 40
1.0
 40
1.0
 40
1.0
 40
2.0
 40
2.0
 40
2.0
 40
3.0
 40
3.0
 40
3.0
 40
4.0
 40
4.0
 40
4.0
 40
4.0
 10
98.15455997980165
 20
-138.6003254861833
 10
98.09978296158617
 20
-138.5434814106766
 10
98.0381157524002
 20
-138.4842257683303
 10
97.92408309183843
 20
-138.4122232726886
 10
97.92408309183843
 20
-138.4122232726886
 10
98.01916772723132
 20
-138.3085258985826
 10
98.01916772723132
 20
-138.3085258985826
 10
98.09737139474649
 20
-138.3509005730512
 10
98.20106876885251
 20
-138.4101562153975
 10
98.26032441119881
 20
-138.4924939974949
 10
98.26032441119881
 20
-138.4924939974949
 10
98.15455997980165
 20
-138.6003254861833
 10
98.15455997980165
 20
-138.6003254861833
 97
        0
 97
        0
 92
        1
 93
        1
 72
     4
 94
        3
 73
     0
 74
     1
 95
       17
 96
       13
 40
0.0
 40
0.0
 40
0.0
 40
0.0
 40
1.0
 40
1.0
 40
1.0
 40
2.0
 40
2.0
 40
2.0
 40
3.0
 40
3.0
 40
3.0
 40
4.0
 40
4.0
 40
4.0
 40
4.0
 10
98.38090275318255
 20
-138.4459852084441
 10
98.36195472801369
 20
-138.4291042405663
 10
98.15662703709279
 20
-138.272696905536
 10
98.1290662732108
 20
-138.2534043708186
 10
98.1290662732108
 20
-138.2534043708186
 10
98.23724227144764
 20
-138.1435058248391
 10
98.23724227144764
 20
-138.1435058248391
 10
98.3471408174271
 20
-138.2196424350632
 10
98.35988767072253
 20
-138.2303222310674
 10
98.48666718457973
 20
-138.3360866624646
 10
98.48666718457973
 20
-138.3360866624646
 10
98.38090275318255
 20
-138.4459852084441
 10
98.38090275318255
 20
-138.4459852084441
 97
        0
 97
        0
 75
     2
 76
     1
 98
        0
  0
SPLINE
  5
137
330
109
100
AcDbEntity
  8
_U+30EC_U+30A4_U+30E4_U+30FC 1
370
     0
100
AcDbSpline
210
0.0
220
0.0
230
1.0
 70
    11
 71
     3
 72
    68
 73
    64
 74
     0
 42
0.0000000001
 43
0.0000000001
 12
1.0
 22
0.0
 32
0.0
 13
1.0
 23
0.0
 33
0.0
 40
0.0
 40
0.0
 40
0.0
 40
0.0
 40
1.0
 40
1.0
 40
1.0
 40
2.0
 40
2.0
 40
2.0
 40
3.0
 40
3.0
 40
3.0
 40
4.0
 40
4.0
 40
4.0
 40
5.0
 40
5.0
 40
5.0
 40
6.0
 40
6.0
 40
6.0
 40
7.0
 40
7.0
 40
7.0
 40
8.0
 40
8.0
 40
8.0
 40
9.0
 40
9.0
 40
9.0
 40
10.0
 40
10.0
 40
10.0
 40
11.0
 40
11.0
 40
11.0
 40
12.0
 40
12.0
 40
12.0
 40
13.0
 40
13.0
 40
13.0
 40
14.0
 40
14.0
 40
14.0
 40
15.0
 40
15.0
 40
15.0
 40
16.0
 40
16.0
 40
16.0
 40
17.0
 40
17.0
 40
17.0
 40
18.0
 40
18.0
 40
18.0
 40
19.0
 40
19.0
 40
19.0
 40
20.0
 40
20.0
 40
20.0
 40
21.0
 40
21.0
 40
21.0
 40
21.0
 10
99.60253361225215
 20
-140.024183450237
 30
0.0
 10
99.6046006695433
 20
-139.9838758330596
 30
0.0
 10
99.6046006695433
 20
-139.9649278078907
 30
0.0
 10
99.60666772683444
 20
-139.9397786108484
 30
0.0
 10
99.60666772683444
 20
-139.9397786108484
 30
0.0
 10
98.97414819574257
 20
-139.9397786108484
 30
0.0
 10
98.97414819574257
 20
-139.9397786108484
 30
0.0
 10
98.89801158551856
 20
-139.9397786108484
 30
0.0
 10
98.74160425048821
 20
-139.9439127254307
 30
0.0
 10
98.62309296579562
 20
-139.9521809545953
 30
0.0
 10
98.62309296579562
 20
-139.9521809545953
 30
0.0
 10
98.62309296579562
 20
-139.7871608808518
 30
0.0
 10
98.62309296579562
 20
-139.7871608808518
 30
0.0
 10
98.71404348660622
 20
-139.795773619565
 30
0.0
 10
98.90214570010086
 20
-139.8019747914384
 30
0.0
 10
98.97414819574257
 20
-139.8019747914384
 30
0.0
 10
98.97414819574257
 20
-139.8019747914384
 30
0.0
 10
99.60666772683444
 20
-139.8019747914384
 30
0.0
 10
99.60666772683444
 20
-139.8019747914384
 30
0.0
 10
99.60666772683444
 20
-139.8019747914384
 30
0.0
 10
99.60666772683444
 20
-139.4595323002046
 30
0.0
 10
99.60666772683444
 20
-139.4595323002046
 30
0.0
 10
99.60666772683444
 20
-139.4595323002046
 30
0.0
 10
99.0185899275023
 20
-139.4595323002046
 30
0.0
 10
99.0185899275023
 20
-139.4595323002046
 30
0.0
 10
98.91937117752711
 20
-139.4595323002046
 30
0.0
 10
98.79638126870368
 20
-139.465733472078
 30
0.0
 10
98.66753469755534
 20
-139.4743462107911
 30
0.0
 10
98.66753469755534
 20
-139.4743462107911
 30
0.0
 10
98.66753469755534
 20
-139.306914570208
 30
0.0
 10
98.66753469755534
 20
-139.306914570208
 30
0.0
 10
98.77329912895252
 20
-139.3155273089211
 30
0.0
 10
98.96140134244716
 20
-139.3217284807946
 30
0.0
 10
99.0185899275023
 20
-139.3217284807946
 30
0.0
 10
99.0185899275023
 20
-139.3217284807946
 30
0.0
 10
99.60666772683444
 20
-139.3217284807946
 30
0.0
 10
99.60666772683444
 20
-139.3217284807946
 30
0.0
 10
99.60666772683444
 20
-139.3217284807946
 30
0.0
 10
99.60666772683444
 20
-138.9854871614342
 30
0.0
 10
99.60666772683444
 20
-138.9854871614342
 30
0.0
 10
99.60666772683444
 20
-138.9854871614342
 30
0.0
 10
99.00170895962458
 20
-138.9854871614342
 30
0.0
 10
99.00170895962458
 20
-138.9854871614342
 30
0.0
 10
98.8959445282274
 20
-138.9854871614342
 30
0.0
 10
98.79638126870368
 20
-138.9896212760165
 30
0.0
 10
98.65065372967761
 20
-139.0003010720208
 30
0.0
 10
98.65065372967761
 20
-139.0003010720208
 30
0.0
 10
98.65065372967761
 20
-138.8332139409862
 30
0.0
 10
98.65065372967761
 20
-138.8332139409862
 30
0.0
 10
98.74780542236167
 20
-138.8418266796993
 30
0.0
 10
98.92557234940055
 20
-138.8480278515727
 30
0.0
 10
99.00170895962458
 20
-138.8480278515727
 30
0.0
 10
99.00170895962458
 20
-138.8480278515727
 30
0.0
 10
99.76755368599562
 20
-138.8480278515727
 30
0.0
 10
99.76755368599562
 20
-138.8480278515727
 30
0.0
 10
99.76755368599562
 20
-138.8480278515727
 30
0.0
 10
99.76755368599562
 20
-139.6562472524123
 30
0.0
 10
99.76755368599562
 20
-139.6562472524123
 30
0.0
 10
99.76755368599562
 20
-139.7196370093409
 30
0.0
 10
99.77168780057792
 20
-139.8805229685021
 30
0.0
 10
99.78030053929103
 20
-140.024183450237
 30
0.0
 10
99.78030053929103
 20
-140.024183450237
 30
0.0
 10
99.60253361225215
 20
-140.024183450237
 30
0.0
 10
99.60253361225215
 20
-140.024183450237
 30
0.0
  0
HATCH
  5
138
330
109
100
AcDbEntity
  8
_U+30EC_U+30A4_U+30E4_U+30FC 1
 62
   179
420
  2234388
100
AcDbHatch
 10
0.0
 20
0.0
 30
0.0
210
0.0
220
0.0
230
1.0
  2
SOLID
 70
     1
 71
     0
 91
        1
 92
        1
 93
        1
 72
     4
 94
        3
 73
     0
 74
     1
 95
       68
 96
       64
 40
0.0
 40
0.0
 40
0.0
 40
0.0
 40
1.0
 40
1.0
 40
1.0
 40
2.0
 40
2.0
 40
2.0
 40
3.0
 40
3.0
 40
3.0
 40
4.0
 40
4.0
 40
4.0
 40
5.0
 40
5.0
 40
5.0
 40
6.0
 40
6.0
 40
6.0
 40
7.0
 40
7.0
 40
7.0
 40
8.0
 40
8.0
 40
8.0
 40
9.0
 40
9.0
 40
9.0
 40
10.0
 40
10.0
 40
10.0
 40
11.0
 40
11.0
 40
11.0
 40
12.0
 40
12.0
 40
12.0
 40
13.0
 40
13.0
 40
13.0
 40
14.0
 40
14.0
 40
14.0
 40
15.0
 40
15.0
 40
15.0
 40
16.0
 40
16.0
 40
16.0
 40
17.0
 40
17.0
 40
17.0
 40
18.0
 40
18.0
 40
18.0
 40
19.0
 40
19.0
 40
19.0
 40
20.0
 40
20.0
 40
20.0
 40
21.0
 40
21.0
 40
21.0
 40
21.0
 10
99.60253361225215
 20
-140.024183450237
 10
99.6046006695433
 20
-139.9838758330596
 10
99.6046006695433
 20
-139.9649278078907
 10
99.60666772683444
 20
-139.9397786108484
 10
99.60666772683444
 20
-139.9397786108484
 10
98.97414819574257
 20
-139.9397786108484
 10
98.97414819574257
 20
-139.9397786108484
 10
98.89801158551856
 20
-139.9397786108484
 10
98.74160425048821
 20
-139.9439127254307
 10
98.62309296579562
 20
-139.9521809545953
 10
98.62309296579562
 20
-139.9521809545953
 10
98.62309296579562
 20
-139.7871608808518
 10
98.62309296579562
 20
-139.7871608808518
 10
98.71404348660622
 20
-139.795773619565
 10
98.90214570010086
 20
-139.8019747914384
 10
98.97414819574257
 20
-139.8019747914384
 10
98.97414819574257
 20
-139.8019747914384
 10
99.60666772683444
 20
-139.8019747914384
 10
99.60666772683444
 20
-139.8019747914384
 10
99.60666772683444
 20
-139.8019747914384
 10
99.60666772683444
 20
-139.4595323002046
 10
99.60666772683444
 20
-139.4595323002046
 10
99.60666772683444
 20
-139.4595323002046
 10
99.0185899275023
 20
-139.4595323002046
 10
99.0185899275023
 20
-139.4595323002046
 10
98.91937117752711
 20
-139.4595323002046
 10
98.79638126870368
 20
-139.465733472078
 10
98.66753469755534
 20
-139.4743462107911
 10
98.66753469755534
 20
-139.4743462107911
 10
98.66753469755534
 20
-139.306914570208
 10
98.66753469755534
 20
-139.306914570208
 10
98.77329912895252
 20
-139.3155273089211
 10
98.96140134244716
 20
-139.3217284807946
 10
99.0185899275023
 20
-139.3217284807946
 10
99.0185899275023
 20
-139.3217284807946
 10
99.60666772683444
 20
-139.3217284807946
 10
99.60666772683444
 20
-139.3217284807946
 10
99.60666772683444
 20
-139.3217284807946
 10
99.60666772683444
 20
-138.9854871614342
 10
99.60666772683444
 20
-138.9854871614342
 10
99.60666772683444
 20
-138.9854871614342
 10
99.00170895962458
 20
-138.9854871614342
 10
99.00170895962458
 20
-138.9854871614342
 10
98.8959445282274
 20
-138.9854871614342
 10
98.79638126870368
 20
-138.9896212760165
 10
98.65065372967761
 20
-139.0003010720208
 10
98.65065372967761
 20
-139.0003010720208
 10
98.65065372967761
 20
-138.8332139409862
 10
98.65065372967761
 20
-138.8332139409862
 10
98.74780542236167
 20
-138.8418266796993
 10
98.92557234940055
 20
-138.8480278515727
 10
99.00170895962458
 20
-138.8480278515727
 10
99.00170895962458
 20
-138.8480278515727
 10
99.76755368599562
 20
-138.8480278515727
 10
99.76755368599562
 20
-138.8480278515727
 10
99.76755368599562
 20
-138.8480278515727
 10
99.76755368599562
 20
-139.6562472524123
 10
99.76755368599562
 20
-139.6562472524123
 10
99.76755368599562
 20
-139.7196370093409
 10
99.77168780057792
 20
-139.8805229685021
 10
99.78030053929103
 20
-140.024183450237
 10
99.78030053929103
 20
-140.024183450237
 10
99.60253361225215
 20
-140.024183450237
 10
99.60253361225215
 20
-140.024183450237
 97
        0
 97
        0
 75
     2
 76
     1
 98
        0
  0
SPLINE
  5
139
330
109
100
AcDbEntity
  8
_U+30EC_U+30A4_U+30E4_U+30FC 1
370
     0
100
AcDbSpline
210
0.0
220
0.0
230
1.0
 70
    11
 71
     3
 72
    50
 73
    46
 74
     0
 42
0.0000000001
 43
0.0000000001
 12
1.0
 22
0.0
 32
0.0
 13
1.0
 23
0.0
 33
0.0
 40
0.0
 40
0.0
 40
0.0
 40
0.0
 40
1.0
 40
1.0
 40
1.0
 40
2.0
 40
2.0
 40
2.0
 40
3.0
 40
3.0
 40
3.0
 40
4.0
 40
4.0
 40
4.0
 40
5.0
 40
5.0
 40
5.0
 40
6.0
 40
6.0
 40
6.0
 40
7.0
 40
7.0
 40
7.0
 40
8.0
 40
8.0
 40
8.0
 40
9.0
 40
9.0
 40
9.0
 40
10.0
 40
10.0
 40
10.0
 40
11.0
 40
11.0
 40
11.0
 40
12.0
 40
12.0
 40
12.0
 40
13.0
 40
13.0
 40
13.0
 40
14.0
 40
14.0
 40
14.0
 40
15.0
 40
15.0
 40
15.0
 40
15.0
 10
101.414309327945
 20
-138.5221218186681
 30
0.0
 10
101.2048475224419
 20
-138.7357177387536
 30
0.0
 10
101.1328450268001
 20
-138.8077202343953
 30
0.0
 10
100.9912516023564
 20
-138.9262315190879
 30
0.0
 10
100.9912516023564
 20
-138.9262315190879
 30
0.0
 10
100.9912516023564
 20
-139.49329423596
 30
0.0
 10
100.9912516023564
 20
-139.49329423596
 30
0.0
 10
100.9912516023564
 20
-139.6435003991169
 30
0.0
 10
100.9974527742298
 20
-139.6624484242858
 30
0.0
 10
101.0019313983606
 20
-139.8402153513247
 30
0.0
 10
101.0039984556518
 20
-139.9714734893127
 30
0.0
 10
101.0101996275252
 20
-140.0200493356547
 30
0.0
 10
101.0167453089472
 20
-140.079304978001
 30
0.0
 10
101.0167453089472
 20
-140.079304978001
 30
0.0
 10
100.7904025355663
 20
-140.079304978001
 30
0.0
 10
100.7904025355663
 20
-140.079304978001
 30
0.0
 10
100.7945366501486
 20
-140.0348632462413
 30
0.0
 10
100.7986707647309
 20
-139.9883544571904
 30
0.0
 10
100.7986707647309
 20
-139.9797417184773
 30
0.0
 10
100.7986707647309
 20
-139.899470993671
 30
0.0
 10
100.8028048793132
 20
-139.5480712541755
 30
0.0
 10
100.8028048793132
 20
-139.4764132680823
 30
0.0
 10
100.8028048793132
 20
-139.4764132680823
 30
0.0
 10
100.8028048793132
 20
-139.0702365103713
 30
0.0
 10
100.8028048793132
 20
-139.0702365103713
 30
0.0
 10
100.620903837692
 20
-139.1949489669374
 30
0.0
 10
100.4262559427754
 20
-139.3048475129168
 30
0.0
 10
100.2233398186942
 20
-139.3916639191451
 30
0.0
 10
100.2233398186942
 20
-139.3916639191451
 30
0.0
 10
100.0200791850644
 20
-139.2287109026928
 30
0.0
 10
100.0200791850644
 20
-139.2287109026928
 30
0.0
 10
100.1427245843393
 20
-139.1928819096462
 30
0.0
 10
100.3990396884419
 20
-139.1188123567134
 30
0.0
 10
100.7435492369669
 20
-138.8628417621593
 30
0.0
 10
100.9595567238921
 20
-138.7040228602893
 30
0.0
 10
101.151793051969
 20
-138.5159206467946
 30
0.0
 10
101.304066272417
 20
-138.2957790452872
 30
0.0
 10
101.304066272417
 20
-138.2957790452872
 30
0.0
 10
101.4966471100425
 20
-138.4397840365706
 30
0.0
 10
101.4966471100425
 20
-138.4397840365706
 30
0.0
 10
101.5093939633379
 20
-138.4501193230264
 30
0.0
 10
101.5180067020511
 20
-138.464933233613
 30
0.0
 10
101.5180067020511
 20
-138.4776800869084
 30
0.0
 10
101.5180067020511
 20
-138.5179877040858
 30
0.0
 10
101.4797661421648
 20
-138.5179877040858
 30
0.0
 10
101.414309327945
 20
-138.5221218186681
 30
0.0
  0
HATCH
  5
13A
330
109
100
AcDbEntity
  8
_U+30EC_U+30A4_U+30E4_U+30FC 1
 62
   179
420
  2234388
100
AcDbHatch
 10
0.0
 20
0.0
 30
0.0
210
0.0
220
0.0
230
1.0
  2
SOLID
 70
     1
 71
     0
 91
        1
 92
        1
 93
        1
 72
     4
 94
        3
 73
     0
 74
     1
 95
       50
 96
       46
 40
0.0
 40
0.0
 40
0.0
 40
0.0
 40
1.0
 40
1.0
 40
1.0
 40
2.0
 40
2.0
 40
2.0
 40
3.0
 40
3.0
 40
3.0
 40
4.0
 40
4.0
 40
4.0
 40
5.0
 40
5.0
 40
5.0
 40
6.0
 40
6.0
 40
6.0
 40
7.0
 40
7.0
 40
7.0
 40
8.0
 40
8.0
 40
8.0
 40
9.0
 40
9.0
 40
9.0
 40
10.0
 40
10.0
 40
10.0
 40
11.0
 40
11.0
 40
11.0
 40
12.0
 40
12.0
 40
12.0
 40
13.0
 40
13.0
 40
13.0
 40
14.0
 40
14.0
 40
14.0
 40
15.0
 40
15.0
 40
15.0
 40
15.0
 10
101.414309327945
 20
-138.5221218186681
 10
101.2048475224419
 20
-138.7357177387536
 10
101.1328450268001
 20
-138.8077202343953
 10
100.9912516023564
 20
-138.9262315190879
 10
100.9912516023564
 20
-138.9262315190879
 10
100.9912516023564
 20
-139.49329423596
 10
100.9912516023564
 20
-139.49329423596
 10
100.9912516023564
 20
-139.6435003991169
 10
100.9974527742298
 20
-139.6624484242858
 10
101.0019313983606
 20
-139.8402153513247
 10
101.0039984556518
 20
-139.9714734893127
 10
101.0101996275252
 20
-140.0200493356547
 10
101.0167453089472
 20
-140.079304978001
 10
101.0167453089472
 20
-140.079304978001
 10
100.7904025355663
 20
-140.079304978001
 10
100.7904025355663
 20
-140.079304978001
 10
100.7945366501486
 20
-140.0348632462413
 10
100.7986707647309
 20
-139.9883544571904
 10
100.7986707647309
 20
-139.9797417184773
 10
100.7986707647309
 20
-139.899470993671
 10
100.8028048793132
 20
-139.5480712541755
 10
100.8028048793132
 20
-139.4764132680823
 10
100.8028048793132
 20
-139.4764132680823
 10
100.8028048793132
 20
-139.0702365103713
 10
100.8028048793132
 20
-139.0702365103713
 10
100.620903837692
 20
-139.1949489669374
 10
100.4262559427754
 20
-139.3048475129168
 10
100.2233398186942
 20
-139.3916639191451
 10
100.2233398186942
 20
-139.3916639191451
 10
100.0200791850644
 20
-139.2287109026928
 10
100.0200791850644
 20
-139.2287109026928
 10
100.1427245843393
 20
-139.1928819096462
 10
100.3990396884419
 20
-139.1188123567134
 10
100.7435492369669
 20
-138.8628417621593
 10
100.9595567238921
 20
-138.7040228602893
 10
101.151793051969
 20
-138.5159206467946
 10
101.304066272417
 20
-138.2957790452872
 10
101.304066272417
 20
-138.2957790452872
 10
101.4966471100425
 20
-138.4397840365706
 10
101.4966471100425
 20
-138.4397840365706
 10
101.5093939633379
 20
-138.4501193230264
 10
101.5180067020511
 20
-138.464933233613
 10
101.5180067020511
 20
-138.4776800869084
 10
101.5180067020511
 20
-138.5179877040858
 10
101.4797661421648
 20
-138.5179877040858
 10
101.414309327945
 20
-138.5221218186681
 97
        0
 97
        0
 75
     2
 76
     1
 98
        0
  0
SPLINE
  5
13B
330
109
100
AcDbEntity
  8
_U+30EC_U+30A4_U+30E4_U+30FC 1
370
     0
100
AcDbSpline
210
0.0
220
0.0
230
1.0
 70
    11
 71
     3
 72
    26
 73
    22
 74
     0
 42
0.0000000001
 43
0.0000000001
 12
1.0
 22
0.0
 32
0.0
 13
1.0
 23
0.0
 33
0.0
 40
0.0
 40
0.0
 40
0.0
 40
0.0
 40
1.0
 40
1.0
 40
1.0
 40
2.0
 40
2.0
 40
2.0
 40
3.0
 40
3.0
 40
3.0
 40
4.0
 40
4.0
 40
4.0
 40
5.0
 40
5.0
 40
5.0
 40
6.0
 40
6.0
 40
6.0
 40
7.0
 40
7.0
 40
7.0
 40
7.0
 10
101.9758598920408
 20
-139.9501138973041
 30
0.0
 10
101.9713812679099
 20
-139.9587266360173
 30
0.0
 10
101.9610459814542
 20
-139.9924885717727
 30
0.0
 10
101.9565673573234
 20
-139.9986897436462
 30
0.0
 10
101.9524332427411
 20
-140.0073024823593
 30
0.0
 10
101.9441650135765
 20
-140.0114365969416
 30
0.0
 10
101.9334852175722
 20
-140.0114365969416
 30
0.0
 10
101.9186713069856
 20
-140.0114365969416
 30
0.0
 10
101.9124701351122
 20
-140.003168367777
 30
0.0
 10
101.8890434858125
 20
-139.9607936933084
 30
0.0
 10
101.8890434858125
 20
-139.9607936933084
 30
0.0
 10
101.7746663157022
 20
-139.740652091801
 30
0.0
 10
101.7746663157022
 20
-139.740652091801
 30
0.0
 10
102.1005723486068
 20
-139.6962103600412
 30
0.0
 10
102.8622829603955
 20
-139.3641031552631
 30
0.0
 10
103.2639810939757
 20
-138.8459607942816
 30
0.0
 10
103.2639810939757
 20
-138.8459607942816
 30
0.0
 10
103.3487304429128
 20
-139.050943975654
 30
0.0
 10
103.3487304429128
 20
-139.050943975654
 30
0.0
 10
102.9339409464887
 20
-139.5398030250109
 30
0.0
 10
102.2676594796414
 20
-139.8254014407381
 30
0.0
 10
101.9758598920408
 20
-139.9501138973041
 30
0.0
  0
SPLINE
  5
13C
330
109
100
AcDbEntity
  8
_U+30EC_U+30A4_U+30E4_U+30FC 1
370
     0
100
AcDbSpline
210
0.0
220
0.0
230
1.0
 70
    11
 71
     3
 72
    17
 73
    13
 74
     0
 42
0.0000000001
 43
0.0000000001
 12
1.0
 22
0.0
 32
0.0
 13
1.0
 23
0.0
 33
0.0
 40
0.0
 40
0.0
 40
0.0
 40
0.0
 40
1.0
 40
1.0
 40
1.0
 40
2.0
 40
2.0
 40
2.0
 40
3.0
 40
3.0
 40
3.0
 40
4.0
 40
4.0
 40
4.0
 40
4.0
 10
102.2697265369326
 20
-138.858707647577
 30
0.0
 10
102.13020016978
 20
-138.7253824522978
 30
0.0
 10
101.9124701351122
 20
-138.6110052821875
 30
0.0
 10
101.8087727610061
 20
-138.5665635504278
 30
0.0
 10
101.8087727610061
 20
-138.5665635504278
 30
0.0
 10
101.9248724788591
 20
-138.376394279642
 30
0.0
 10
101.9248724788591
 20
-138.376394279642
 30
0.0
 10
102.2400987157594
 20
-138.5266004427989
 30
0.0
 10
102.3355278607009
 20
-138.6175509636095
 30
0.0
 10
102.3903048789163
 20
-138.6702609245338
 30
0.0
 10
102.3903048789163
 20
-138.6702609245338
 30
0.0
 10
102.2697265369326
 20
-138.858707647577
 30
0.0
 10
102.2697265369326
 20
-138.858707647577
 30
0.0
  0
HATCH
  5
13D
330
109
100
AcDbEntity
  8
_U+30EC_U+30A4_U+30E4_U+30FC 1
 62
   179
420
  2234388
100
AcDbHatch
 10
0.0
 20
0.0
 30
0.0
210
0.0
220
0.0
230
1.0
  2
SOLID
 70
     1
 71
     0
 91
        2
 92
        1
 93
        1
 72
     4
 94
        3
 73
     0
 74
     1
 95
       26
 96
       22
 40
0.0
 40
0.0
 40
0.0
 40
0.0
 40
1.0
 40
1.0
 40
1.0
 40
2.0
 40
2.0
 40
2.0
 40
3.0
 40
3.0
 40
3.0
 40
4.0
 40
4.0
 40
4.0
 40
5.0
 40
5.0
 40
5.0
 40
6.0
 40
6.0
 40
6.0
 40
7.0
 40
7.0
 40
7.0
 40
7.0
 10
101.9758598920408
 20
-139.9501138973041
 10
101.9713812679099
 20
-139.9587266360173
 10
101.9610459814542
 20
-139.9924885717727
 10
101.9565673573234
 20
-139.9986897436462
 10
101.9524332427411
 20
-140.0073024823593
 10
101.9441650135765
 20
-140.0114365969416
 10
101.9334852175722
 20
-140.0114365969416
 10
101.9186713069856
 20
-140.0114365969416
 10
101.9124701351122
 20
-140.003168367777
 10
101.8890434858125
 20
-139.9607936933084
 10
101.8890434858125
 20
-139.9607936933084
 10
101.7746663157022
 20
-139.740652091801
 10
101.7746663157022
 20
-139.740652091801
 10
102.1005723486068
 20
-139.6962103600412
 10
102.8622829603955
 20
-139.3641031552631
 10
103.2639810939757
 20
-138.8459607942816
 10
103.2639810939757
 20
-138.8459607942816
 10
103.3487304429128
 20
-139.050943975654
 10
103.3487304429128
 20
-139.050943975654
 10
102.9339409464887
 20
-139.5398030250109
 10
102.2676594796414
 20
-139.8254014407381
 10
101.9758598920408
 20
-139.9501138973041
 97
        0
 97
        0
 92
        1
 93
        1
 72
     4
 94
        3
 73
     0
 74
     1
 95
       17
 96
       13
 40
0.0
 40
0.0
 40
0.0
 40
0.0
 40
1.0
 40
1.0
 40
1.0
 40
2.0
 40
2.0
 40
2.0
 40
3.0
 40
3.0
 40
3.0
 40
4.0
 40
4.0
 40
4.0
 40
4.0
 10
102.2697265369326
 20
-138.858707647577
 10
102.13020016978
 20
-138.7253824522978
 10
101.9124701351122
 20
-138.6110052821875
 10
101.8087727610061
 20
-138.5665635504278
 10
101.8087727610061
 20
-138.5665635504278
 10
101.9248724788591
 20
-138.376394279642
 10
101.9248724788591
 20
-138.376394279642
 10
102.2400987157594
 20
-138.5266004427989
 10
102.3355278607009
 20
-138.6175509636095
 10
102.3903048789163
 20
-138.6702609245338
 10
102.3903048789163
 20
-138.6702609245338
 10
102.2697265369326
 20
-138.858707647577
 10
102.2697265369326
 20
-138.858707647577
 97
        0
 97
        0
 75
     2
 76
     1
 98
        0
  0
SPLINE
  5
13E
330
109
100
AcDbEntity
  8
_U+30EC_U+30A4_U+30E4_U+30FC 1
370
     0
100
AcDbSpline
210
0.0
220
0.0
230
1.0
 70
    11
 71
     3
 72
    56
 73
    52
 74
     0
 42
0.0000000001
 43
0.0000000001
 12
1.0
 22
0.0
 32
0.0
 13
1.0
 23
0.0
 33
0.0
 40
0.0
 40
0.0
 40
0.0
 40
0.0
 40
1.0
 40
1.0
 40
1.0
 40
2.0
 40
2.0
 40
2.0
 40
3.0
 40
3.0
 40
3.0
 40
4.0
 40
4.0
 40
4.0
 40
5.0
 40
5.0
 40
5.0
 40
6.0
 40
6.0
 40
6.0
 40
7.0
 40
7.0
 40
7.0
 40
8.0
 40
8.0
 40
8.0
 40
9.0
 40
9.0
 40
9.0
 40
10.0
 40
10.0
 40
10.0
 40
11.0
 40
11.0
 40
11.0
 40
12.0
 40
12.0
 40
12.0
 40
13.0
 40
13.0
 40
13.0
 40
14.0
 40
14.0
 40
14.0
 40
15.0
 40
15.0
 40
15.0
 40
16.0
 40
16.0
 40
16.0
 40
17.0
 40
17.0
 40
17.0
 40
17.0
 10
104.4728650997498
 20
-139.5460041968843
 30
0.0
 10
104.3588324391881
 20
-139.4319715363226
 30
0.0
 10
104.1683186588538
 20
-139.2414577559883
 30
0.0
 10
103.8468912500799
 20
-139.1081325607091
 30
0.0
 10
103.8468912500799
 20
-139.1081325607091
 30
0.0
 10
103.8468912500799
 20
-139.4595323002046
 30
0.0
 10
103.8468912500799
 20
-139.4595323002046
 30
0.0
 10
103.8468912500799
 20
-139.5842447567706
 30
0.0
 10
103.8551594792445
 20
-139.9542480118864
 30
0.0
 10
103.8699733898311
 20
-140.0624240101233
 30
0.0
 10
103.8699733898311
 20
-140.0624240101233
 30
0.0
 10
103.6140027952771
 20
-140.0624240101233
 30
0.0
 10
103.6140027952771
 20
-140.0624240101233
 30
0.0
 10
103.6288167058636
 20
-139.9566595787261
 30
0.0
 10
103.6308837631548
 20
-139.795773619565
 30
0.0
 10
103.6308837631548
 20
-139.7513318878052
 30
0.0
 10
103.6329508204459
 20
-139.7027560414632
 30
0.0
 10
103.6394965018679
 20
-139.4891601213777
 30
0.0
 10
103.6394965018679
 20
-139.444718389618
 30
0.0
 10
103.6394965018679
 20
-139.444718389618
 30
0.0
 10
103.6394965018679
 20
-138.8924695833325
 30
0.0
 10
103.6394965018679
 20
-138.8924695833325
 30
0.0
 10
103.6394965018679
 20
-138.8097872916865
 30
0.0
 10
103.6329508204459
 20
-138.5834445183055
 30
0.0
 10
103.6267496485725
 20
-138.5052408507904
 30
0.0
 10
103.6226155339902
 20
-138.4501193230264
 30
0.0
 10
103.6160698525682
 20
-138.4122232726886
 30
0.0
 10
103.6057345661125
 20
-138.3657144836377
 30
0.0
 10
103.6057345661125
 20
-138.3657144836377
 30
0.0
 10
103.8868543577088
 20
-138.3846625088066
 30
0.0
 10
103.8868543577088
 20
-138.3846625088066
 30
0.0
 10
103.8996012110043
 20
-138.3846625088066
 30
0.0
 10
103.9271619748863
 20
-138.3887966233889
 30
0.0
 10
103.9271619748863
 20
-138.4163573872709
 30
0.0
 10
103.9271619748863
 20
-138.4377169792795
 30
0.0
 10
103.9037353255866
 20
-138.452530889866
 30
0.0
 10
103.8572265365357
 20
-138.4797471441995
 30
0.0
 10
103.8489583073711
 20
-138.6110052821875
 30
0.0
 10
103.8468912500799
 20
-138.7422634201756
 30
0.0
 10
103.8468912500799
 20
-138.8711099913239
 30
0.0
 10
103.8468912500799
 20
-138.8711099913239
 30
0.0
 10
103.8468912500799
 20
-139.1060655034179
 30
0.0
 10
103.8468912500799
 20
-139.1060655034179
 30
0.0
 10
103.8468912500799
 20
-139.1060655034179
 30
0.0
 10
103.9461100000551
 20
-138.9179632899233
 30
0.0
 10
103.9461100000551
 20
-138.9179632899233
 30
0.0
 10
104.2382540972043
 20
-139.050943975654
 30
0.0
 10
104.5217854556404
 20
-139.2648844052879
 30
0.0
 10
104.612735976451
 20
-139.3789170658497
 30
0.0
 10
104.612735976451
 20
-139.3789170658497
 30
0.0
 10
104.4728650997498
 20
-139.5460041968843
 30
0.0
 10
104.4728650997498
 20
-139.5460041968843
 30
0.0
  0
HATCH
  5
13F
330
109
100
AcDbEntity
  8
_U+30EC_U+30A4_U+30E4_U+30FC 1
 62
   179
420
  2234388
100
AcDbHatch
 10
0.0
 20
0.0
 30
0.0
210
0.0
220
0.0
230
1.0
  2
SOLID
 70
     1
 71
     0
 91
        1
 92
        1
 93
        1
 72
     4
 94
        3
 73
     0
 74
     1
 95
       56
 96
       52
 40
0.0
 40
0.0
 40
0.0
 40
0.0
 40
1.0
 40
1.0
 40
1.0
 40
2.0
 40
2.0
 40
2.0
 40
3.0
 40
3.0
 40
3.0
 40
4.0
 40
4.0
 40
4.0
 40
5.0
 40
5.0
 40
5.0
 40
6.0
 40
6.0
 40
6.0
 40
7.0
 40
7.0
 40
7.0
 40
8.0
 40
8.0
 40
8.0
 40
9.0
 40
9.0
 40
9.0
 40
10.0
 40
10.0
 40
10.0
 40
11.0
 40
11.0
 40
11.0
 40
12.0
 40
12.0
 40
12.0
 40
13.0
 40
13.0
 40
13.0
 40
14.0
 40
14.0
 40
14.0
 40
15.0
 40
15.0
 40
15.0
 40
16.0
 40
16.0
 40
16.0
 40
17.0
 40
17.0
 40
17.0
 40
17.0
 10
104.4728650997498
 20
-139.5460041968843
 10
104.3588324391881
 20
-139.4319715363226
 10
104.1683186588538
 20
-139.2414577559883
 10
103.8468912500799
 20
-139.1081325607091
 10
103.8468912500799
 20
-139.1081325607091
 10
103.8468912500799
 20
-139.4595323002046
 10
103.8468912500799
 20
-139.4595323002046
 10
103.8468912500799
 20
-139.5842447567706
 10
103.8551594792445
 20
-139.9542480118864
 10
103.8699733898311
 20
-140.0624240101233
 10
103.8699733898311
 20
-140.0624240101233
 10
103.6140027952771
 20
-140.0624240101233
 10
103.6140027952771
 20
-140.0624240101233
 10
103.6288167058636
 20
-139.9566595787261
 10
103.6308837631548
 20
-139.795773619565
 10
103.6308837631548
 20
-139.7513318878052
 10
103.6329508204459
 20
-139.7027560414632
 10
103.6394965018679
 20
-139.4891601213777
 10
103.6394965018679
 20
-139.444718389618
 10
103.6394965018679
 20
-139.444718389618
 10
103.6394965018679
 20
-138.8924695833325
 10
103.6394965018679
 20
-138.8924695833325
 10
103.6394965018679
 20
-138.8097872916865
 10
103.6329508204459
 20
-138.5834445183055
 10
103.6267496485725
 20
-138.5052408507904
 10
103.6226155339902
 20
-138.4501193230264
 10
103.6160698525682
 20
-138.4122232726886
 10
103.6057345661125
 20
-138.3657144836377
 10
103.6057345661125
 20
-138.3657144836377
 10
103.8868543577088
 20
-138.3846625088066
 10
103.8868543577088
 20
-138.3846625088066
 10
103.8996012110043
 20
-138.3846625088066
 10
103.9271619748863
 20
-138.3887966233889
 10
103.9271619748863
 20
-138.4163573872709
 10
103.9271619748863
 20
-138.4377169792795
 10
103.9037353255866
 20
-138.452530889866
 10
103.8572265365357
 20
-138.4797471441995
 10
103.8489583073711
 20
-138.6110052821875
 10
103.8468912500799
 20
-138.7422634201756
 10
103.8468912500799
 20
-138.8711099913239
 10
103.8468912500799
 20
-138.8711099913239
 10
103.8468912500799
 20
-139.1060655034179
 10
103.8468912500799
 20
-139.1060655034179
 10
103.8468912500799
 20
-139.1060655034179
 10
103.9461100000551
 20
-138.9179632899233
 10
103.9461100000551
 20
-138.9179632899233
 10
104.2382540972043
 20
-139.050943975654
 10
104.5217854556404
 20
-139.2648844052879
 10
104.612735976451
 20
-139.3789170658497
 10
104.612735976451
 20
-139.3789170658497
 10
104.4728650997498
 20
-139.5460041968843
 10
104.4728650997498
 20
-139.5460041968843
 97
        0
 97
        0
 75
     2
 76
     1
 98
        0
  0
ENDBLK
  5
10C
330
109
100
AcDbEntity
  8
0
100
AcDbBlockEnd
  0
BLOCK
  5
1AE
330
1AC
100
AcDbEntity
  8
0
100
AcDbBlockBegin
  2
block 8
 70
     0
 10
0.0
 20
0.0
 30
0.0
  3
block 8
  1

  0
SPLINE
  5
1B0
330
1AC
100
AcDbEntity
  8
_U+30EC_U+30A4_U+30E4_U+30FC 1
370
     0
100
AcDbSpline
210
0.0
220
0.0
230
1.0
 70
    11
 71
     3
 72
    32
 73
    28
 74
     0
 42
0.0000000001
 43
0.0000000001
 12
1.0
 22
0.0
 32
0.0
 13
1.0
 23
0.0
 33
0.0
 40
0.0
 40
0.0
 40
0.0
 40
0.0
 40
1.0
 40
1.0
 40
1.0
 40
2.0
 40
2.0
 40
2.0
 40
3.0
 40
3.0
 40
3.0
 40
4.0
 40
4.0
 40
4.0
 40
5.0
 40
5.0
 40
5.0
 40
6.0
 40
6.0
 40
6.0
 40
7.0
 40
7.0
 40
7.0
 40
8.0
 40
8.0
 40
8.0
 40
9.0
 40
9.0
 40
9.0
 40
9.0
 10
106.7583414446646
 20
-106.5013373214649
 30
0.0
 10
106.2419216314256
 20
-106.5013373214649
 30
0.0
 10
106.233653402261
 20
-105.9473659674368
 30
0.0
 10
106.233653402261
 20
-105.7334255378028
 30
0.0
 10
106.233653402261
 20
-105.5029486498395
 30
0.0
 10
106.2526014274299
 20
-104.8556152081611
 30
0.0
 10
106.7962374950023
 20
-104.8556152081611
 30
0.0
 10
106.9698703074589
 20
-104.8556152081611
 30
0.0
 10
107.2151611060087
 20
-104.9255506465117
 30
0.0
 10
107.253401665895
 20
-105.2576578512898
 30
0.0
 10
107.253401665895
 20
-105.2576578512898
 30
0.0
 10
107.039461236261
 20
-105.2576578512898
 30
0.0
 10
107.039461236261
 20
-105.2576578512898
 30
0.0
 10
107.0291259498052
 20
-105.2004692662346
 30
0.0
 10
106.9974310713409
 20
-105.0523301603689
 30
0.0
 10
106.7941704377112
 20
-105.0523301603689
 30
0.0
 10
106.5023708501105
 20
-105.0523301603689
 30
0.0
 10
106.4620632329331
 20
-105.3803032505647
 30
0.0
 10
106.4493163796377
 20
-105.585286431937
 30
0.0
 10
106.5423339577394
 20
-105.5070827644218
 30
0.0
 10
106.6102023387988
 20
-105.4478271220756
 30
0.0
 10
106.79210338042
 20
-105.4478271220756
 30
0.0
 10
106.9719373647501
 20
-105.4478271220756
 30
0.0
 10
107.274416748355
 20
-105.5560031203124
 30
0.0
 10
107.274416748355
 20
-105.9621798780233
 30
0.0
 10
107.274416748355
 20
-106.281540229506
 30
0.0
 10
107.0756347388561
 20
-106.5013373214649
 30
0.0
 10
106.7583414446646
 20
-106.5013373214649
 30
0.0
  0
SPLINE
  5
1B1
330
1AC
100
AcDbEntity
  8
_U+30EC_U+30A4_U+30E4_U+30FC 1
370
     0
100
AcDbSpline
210
0.0
220
0.0
230
1.0
 70
    11
 71
     3
 72
    17
 73
    13
 74
     0
 42
0.0000000001
 43
0.0000000001
 12
1.0
 22
0.0
 32
0.0
 13
1.0
 23
0.0
 33
0.0
 40
0.0
 40
0.0
 40
0.0
 40
0.0
 40
1.0
 40
1.0
 40
1.0
 40
2.0
 40
2.0
 40
2.0
 40
3.0
 40
3.0
 40
3.0
 40
4.0
 40
4.0
 40
4.0
 40
4.0
 10
106.7752224125423
 20
-105.6424750169922
 30
0.0
 10
106.5127061365663
 20
-105.6424750169922
 30
0.0
 10
106.4748100862285
 20
-105.8540038797865
 30
0.0
 10
106.4748100862285
 20
-105.9704481071879
 30
0.0
 10
106.4748100862285
 20
-106.1461479769357
 30
0.0
 10
106.5698947216214
 20
-106.309100993388
 30
0.0
 10
106.7538628205338
 20
-106.309100993388
 30
0.0
 10
106.8744411625175
 20
-106.309100993388
 30
0.0
 10
107.0501410322652
 20
-106.2498453510417
 30
0.0
 10
107.0501410322652
 20
-105.9642469353145
 30
0.0
 10
107.0501410322652
 20
-105.7399712192247
 30
0.0
 10
106.9106146651126
 20
-105.6424750169922
 30
0.0
 10
106.7752224125423
 20
-105.6424750169922
 30
0.0
  0
HATCH
  5
1B2
330
1AC
100
AcDbEntity
  8
_U+30EC_U+30A4_U+30E4_U+30FC 1
 62
   179
420
  2234388
100
AcDbHatch
 10
0.0
 20
0.0
 30
0.0
210
0.0
220
0.0
230
1.0
  2
SOLID
 70
     1
 71
     0
 91
        2
 92
        1
 93
        1
 72
     4
 94
        3
 73
     0
 74
     1
 95
       32
 96
       28
 40
0.0
 40
0.0
 40
0.0
 40
0.0
 40
1.0
 40
1.0
 40
1.0
 40
2.0
 40
2.0
 40
2.0
 40
3.0
 40
3.0
 40
3.0
 40
4.0
 40
4.0
 40
4.0
 40
5.0
 40
5.0
 40
5.0
 40
6.0
 40
6.0
 40
6.0
 40
7.0
 40
7.0
 40
7.0
 40
8.0
 40
8.0
 40
8.0
 40
9.0
 40
9.0
 40
9.0
 40
9.0
 10
106.7583414446646
 20
-106.5013373214649
 10
106.2419216314256
 20
-106.5013373214649
 10
106.233653402261
 20
-105.9473659674368
 10
106.233653402261
 20
-105.7334255378028
 10
106.233653402261
 20
-105.5029486498395
 10
106.2526014274299
 20
-104.8556152081611
 10
106.7962374950023
 20
-104.8556152081611
 10
106.9698703074589
 20
-104.8556152081611
 10
107.2151611060087
 20
-104.9255506465117
 10
107.253401665895
 20
-105.2576578512898
 10
107.253401665895
 20
-105.2576578512898
 10
107.039461236261
 20
-105.2576578512898
 10
107.039461236261
 20
-105.2576578512898
 10
107.0291259498052
 20
-105.2004692662346
 10
106.9974310713409
 20
-105.0523301603689
 10
106.7941704377112
 20
-105.0523301603689
 10
106.5023708501105
 20
-105.0523301603689
 10
106.4620632329331
 20
-105.3803032505647
 10
106.4493163796377
 20
-105.585286431937
 10
106.5423339577394
 20
-105.5070827644218
 10
106.6102023387988
 20
-105.4478271220756
 10
106.79210338042
 20
-105.4478271220756
 10
106.9719373647501
 20
-105.4478271220756
 10
107.274416748355
 20
-105.5560031203124
 10
107.274416748355
 20
-105.9621798780233
 10
107.274416748355
 20
-106.281540229506
 10
107.0756347388561
 20
-106.5013373214649
 10
106.7583414446646
 20
-106.5013373214649
 97
        0
 97
        0
 92
        1
 93
        1
 72
     4
 94
        3
 73
     0
 74
     1
 95
       17
 96
       13
 40
0.0
 40
0.0
 40
0.0
 40
0.0
 40
1.0
 40
1.0
 40
1.0
 40
2.0
 40
2.0
 40
2.0
 40
3.0
 40
3.0
 40
3.0
 40
4.0
 40
4.0
 40
4.0
 40
4.0
 10
106.7752224125423
 20
-105.6424750169922
 10
106.5127061365663
 20
-105.6424750169922
 10
106.4748100862285
 20
-105.8540038797865
 10
106.4748100862285
 20
-105.9704481071879
 10
106.4748100862285
 20
-106.1461479769357
 10
106.5698947216214
 20
-106.309100993388
 10
106.7538628205338
 20
-106.309100993388
 10
106.8744411625175
 20
-106.309100993388
 10
107.0501410322652
 20
-106.2498453510417
 10
107.0501410322652
 20
-105.9642469353145
 10
107.0501410322652
 20
-105.7399712192247
 10
106.9106146651126
 20
-105.6424750169922
 10
106.7752224125423
 20
-105.6424750169922
 97
        0
 97
        0
 75
     2
 76
     1
 98
        0
  0
ENDBLK
  5
1AF
330
1AC
100
AcDbEntity
  8
0
100
AcDbBlockEnd
  0
BLOCK
  5
1B5
330
1B3
100
AcDbEntity
  8
0
100
AcDbBlockBegin
  2
block 9
 70
     0
 10
0.0
 20
0.0
 30
0.0
  3
block 9
  1

  0
SPLINE
  5
1B7
330
1B3
100
AcDbEntity
  8
_U+30EC_U+30A4_U+30E4_U+30FC 1
370
     0
100
AcDbSpline
210
0.0
220
0.0
230
1.0
 70
    11
 71
     3
 72
    32
 73
    28
 74
     0
 42
0.0000000001
 43
0.0000000001
 12
1.0
 22
0.0
 32
0.0
 13
1.0
 23
0.0
 33
0.0
 40
0.0
 40
0.0
 40
0.0
 40
0.0
 40
1.0
 40
1.0
 40
1.0
 40
2.0
 40
2.0
 40
2.0
 40
3.0
 40
3.0
 40
3.0
 40
4.0
 40
4.0
 40
4.0
 40
5.0
 40
5.0
 40
5.0
 40
6.0
 40
6.0
 40
6.0
 40
7.0
 40
7.0
 40
7.0
 40
8.0
 40
8.0
 40
8.0
 40
9.0
 40
9.0
 40
9.0
 40
9.0
 10
76.75190427768703
 20
-150.6361110734521
 30
0.0
 10
76.23565671922233
 20
-150.6361110734521
 30
0.0
 10
76.22721623528348
 20
-150.0821397194239
 30
0.0
 10
76.22721623528348
 20
-149.8681992897899
 30
0.0
 10
76.22721623528348
 20
-149.6377224018267
 30
0.0
 10
76.24633651522662
 20
-148.9903889601482
 30
0.0
 10
76.78997258279904
 20
-148.9903889601482
 30
0.0
 10
76.96343314048137
 20
-148.9903889601482
 30
0.0
 10
77.20889619380542
 20
-149.0603243984988
 30
0.0
 10
77.24696449891744
 20
-149.3924316032769
 30
0.0
 10
77.24696449891744
 20
-149.3924316032769
 30
0.0
 10
77.03319632405767
 20
-149.3924316032769
 30
0.0
 10
77.03319632405767
 20
-149.3924316032769
 30
0.0
 10
77.02268878282767
 20
-149.3352430182217
 30
0.0
 10
76.99099390436336
 20
-149.187103912356
 30
0.0
 10
76.7879055255079
 20
-149.187103912356
 30
0.0
 10
76.49593368313296
 20
-149.187103912356
 30
0.0
 10
76.45562606595554
 20
-149.5150770025518
 30
0.0
 10
76.44305146743437
 20
-149.7200601839241
 30
0.0
 10
76.53606904553612
 20
-149.641856516409
 30
0.0
 10
76.60376517182128
 20
-149.5826008740627
 30
0.0
 10
76.78566621344248
 20
-149.5826008740627
 30
0.0
 10
76.96550019777251
 20
-149.5826008740627
 30
0.0
 10
77.26797958137745
 20
-149.6907768722995
 30
0.0
 10
77.26797958137745
 20
-150.0969536300105
 30
0.0
 10
77.26797958137745
 20
-150.4163139814931
 30
0.0
 10
77.06919757187853
 20
-150.6361110734521
 30
0.0
 10
76.75190427768703
 20
-150.6361110734521
 30
0.0
  0
SPLINE
  5
1B8
330
1B3
100
AcDbEntity
  8
_U+30EC_U+30A4_U+30E4_U+30FC 1
370
     0
100
AcDbSpline
210
0.0
220
0.0
230
1.0
 70
    11
 71
     3
 72
    17
 73
    13
 74
     0
 42
0.0000000001
 43
0.0000000001
 12
1.0
 22
0.0
 32
0.0
 13
1.0
 23
0.0
 33
0.0
 40
0.0
 40
0.0
 40
0.0
 40
0.0
 40
1.0
 40
1.0
 40
1.0
 40
2.0
 40
2.0
 40
2.0
 40
3.0
 40
3.0
 40
3.0
 40
4.0
 40
4.0
 40
4.0
 40
4.0
 10
76.76878524556476
 20
-149.7772487689793
 30
0.0
 10
76.50644122436297
 20
-149.7772487689793
 30
0.0
 10
76.46837291925097
 20
-149.9887776317736
 30
0.0
 10
76.46837291925097
 20
-150.1052218591751
 30
0.0
 10
76.46837291925097
 20
-150.2809217289228
 30
0.0
 10
76.56362980941812
 20
-150.4438747453752
 30
0.0
 10
76.74759790833046
 20
-150.4438747453752
 30
0.0
 10
76.8681762503142
 20
-150.4438747453752
 30
0.0
 10
77.04387612006195
 20
-150.3846191030289
 30
0.0
 10
77.04387612006195
 20
-150.0990206873016
 30
0.0
 10
77.04387612006195
 20
-149.8747449712119
 30
0.0
 10
76.90417749813507
 20
-149.7772487689793
 30
0.0
 10
76.76878524556476
 20
-149.7772487689793
 30
0.0
  0
HATCH
  5
1B9
330
1B3
100
AcDbEntity
  8
_U+30EC_U+30A4_U+30E4_U+30FC 1
 62
   179
420
  2234388
100
AcDbHatch
 10
0.0
 20
0.0
 30
0.0
210
0.0
220
0.0
230
1.0
  2
SOLID
 70
     1
 71
     0
 91
        2
 92
        1
 93
        1
 72
     4
 94
        3
 73
     0
 74
     1
 95
       32
 96
       28
 40
0.0
 40
0.0
 40
0.0
 40
0.0
 40
1.0
 40
1.0
 40
1.0
 40
2.0
 40
2.0
 40
2.0
 40
3.0
 40
3.0
 40
3.0
 40
4.0
 40
4.0
 40
4.0
 40
5.0
 40
5.0
 40
5.0
 40
6.0
 40
6.0
 40
6.0
 40
7.0
 40
7.0
 40
7.0
 40
8.0
 40
8.0
 40
8.0
 40
9.0
 40
9.0
 40
9.0
 40
9.0
 10
76.75190427768703
 20
-150.6361110734521
 10
76.23565671922233
 20
-150.6361110734521
 10
76.22721623528348
 20
-150.0821397194239
 10
76.22721623528348
 20
-149.8681992897899
 10
76.22721623528348
 20
-149.6377224018267
 10
76.24633651522662
 20
-148.9903889601482
 10
76.78997258279904
 20
-148.9903889601482
 10
76.96343314048137
 20
-148.9903889601482
 10
77.20889619380542
 20
-149.0603243984988
 10
77.24696449891744
 20
-149.3924316032769
 10
77.24696449891744
 20
-149.3924316032769
 10
77.03319632405767
 20
-149.3924316032769
 10
77.03319632405767
 20
-149.3924316032769
 10
77.02268878282767
 20
-149.3352430182217
 10
76.99099390436336
 20
-149.187103912356
 10
76.7879055255079
 20
-149.187103912356
 10
76.49593368313296
 20
-149.187103912356
 10
76.45562606595554
 20
-149.5150770025518
 10
76.44305146743437
 20
-149.7200601839241
 10
76.53606904553612
 20
-149.641856516409
 10
76.60376517182128
 20
-149.5826008740627
 10
76.78566621344248
 20
-149.5826008740627
 10
76.96550019777251
 20
-149.5826008740627
 10
77.26797958137745
 20
-149.6907768722995
 10
77.26797958137745
 20
-150.0969536300105
 10
77.26797958137745
 20
-150.4163139814931
 10
77.06919757187853
 20
-150.6361110734521
 10
76.75190427768703
 20
-150.6361110734521
 97
        0
 97
        0
 92
        1
 93
        1
 72
     4
 94
        3
 73
     0
 74
     1
 95
       17
 96
       13
 40
0.0
 40
0.0
 40
0.0
 40
0.0
 40
1.0
 40
1.0
 40
1.0
 40
2.0
 40
2.0
 40
2.0
 40
3.0
 40
3.0
 40
3.0
 40
4.0
 40
4.0
 40
4.0
 40
4.0
 10
76.76878524556476
 20
-149.7772487689793
 10
76.50644122436297
 20
-149.7772487689793
 10
76.46837291925097
 20
-149.9887776317736
 10
76.46837291925097
 20
-150.1052218591751
 10
76.46837291925097
 20
-150.2809217289228
 10
76.56362980941812
 20
-150.4438747453752
 10
76.74759790833046
 20
-150.4438747453752
 10
76.8681762503142
 20
-150.4438747453752
 10
77.04387612006195
 20
-150.3846191030289
 10
77.04387612006195
 20
-150.0990206873016
 10
77.04387612006195
 20
-149.8747449712119
 10
76.90417749813507
 20
-149.7772487689793
 10
76.76878524556476
 20
-149.7772487689793
 97
        0
 97
        0
 75
     2
 76
     1
 98
        0
  0
ENDBLK
  5
1B6
330
1B3
100
AcDbEntity
  8
0
100
AcDbBlockEnd
  0
BLOCK
  5
1BC
330
1BA
100
AcDbEntity
  8
0
100
AcDbBlockBegin
  2
block 10
 70
     0
 10
0.0
 20
0.0
 30
0.0
  3
block 10
  1

  0
SPLINE
  5
1BE
330
1BA
100
AcDbEntity
  8
_U+30EC_U+30A4_U+30E4_U+30FC 1
370
     0
100
AcDbSpline
210
0.0
220
0.0
230
1.0
 70
    11
 71
     3
 72
    26
 73
    22
 74
     0
 42
0.0000000001
 43
0.0000000001
 12
1.0
 22
0.0
 32
0.0
 13
1.0
 23
0.0
 33
0.0
 40
0.0
 40
0.0
 40
0.0
 40
0.0
 40
1.0
 40
1.0
 40
1.0
 40
2.0
 40
2.0
 40
2.0
 40
3.0
 40
3.0
 40
3.0
 40
4.0
 40
4.0
 40
4.0
 40
5.0
 40
5.0
 40
5.0
 40
6.0
 40
6.0
 40
6.0
 40
7.0
 40
7.0
 40
7.0
 40
7.0
 10
78.10462101997038
 20
-136.4192355344716
 30
0.0
 10
78.10462101997038
 20
-136.4192355344716
 30
0.0
 10
78.10462101997038
 20
-135.315082431449
 30
0.0
 10
78.10462101997038
 20
-135.315082431449
 30
0.0
 10
78.10462101997038
 20
-135.315082431449
 30
0.0
 10
77.77458087248344
 20
-135.315082431449
 30
0.0
 10
77.77458087248344
 20
-135.315082431449
 30
0.0
 10
77.77458087248344
 20
-135.315082431449
 30
0.0
 10
77.77458087248344
 20
-135.1669433255833
 30
0.0
 10
77.77458087248344
 20
-135.1669433255833
 30
0.0
 10
78.10668807726152
 20
-135.1521294149967
 30
0.0
 10
78.1531968663124
 20
-134.9891763985444
 30
0.0
 10
78.18282468748555
 20
-134.8747992284341
 30
0.0
 10
78.18282468748555
 20
-134.8747992284341
 30
0.0
 10
78.32889673606014
 20
-134.8747992284341
 30
0.0
 10
78.32889673606014
 20
-134.8747992284341
 30
0.0
 10
78.32889673606014
 20
-134.8747992284341
 30
0.0
 10
78.32889673606014
 20
-136.4192355344716
 30
0.0
 10
78.32889673606014
 20
-136.4192355344716
 30
0.0
 10
78.32889673606014
 20
-136.4192355344716
 30
0.0
 10
78.10462101997038
 20
-136.4192355344716
 30
0.0
 10
78.10462101997038
 20
-136.4192355344716
 30
0.0
  0
HATCH
  5
1BF
330
1BA
100
AcDbEntity
  8
_U+30EC_U+30A4_U+30E4_U+30FC 1
 62
   179
420
  2234388
100
AcDbHatch
 10
0.0
 20
0.0
 30
0.0
210
0.0
220
0.0
230
1.0
  2
SOLID
 70
     1
 71
     0
 91
        1
 92
        1
 93
        1
 72
     4
 94
        3
 73
     0
 74
     1
 95
       26
 96
       22
 40
0.0
 40
0.0
 40
0.0
 40
0.0
 40
1.0
 40
1.0
 40
1.0
 40
2.0
 40
2.0
 40
2.0
 40
3.0
 40
3.0
 40
3.0
 40
4.0
 40
4.0
 40
4.0
 40
5.0
 40
5.0
 40
5.0
 40
6.0
 40
6.0
 40
6.0
 40
7.0
 40
7.0
 40
7.0
 40
7.0
 10
78.10462101997038
 20
-136.4192355344716
 10
78.10462101997038
 20
-136.4192355344716
 10
78.10462101997038
 20
-135.315082431449
 10
78.10462101997038
 20
-135.315082431449
 10
78.10462101997038
 20
-135.315082431449
 10
77.77458087248344
 20
-135.315082431449
 10
77.77458087248344
 20
-135.315082431449
 10
77.77458087248344
 20
-135.315082431449
 10
77.77458087248344
 20
-135.1669433255833
 10
77.77458087248344
 20
-135.1669433255833
 10
78.10668807726152
 20
-135.1521294149967
 10
78.1531968663124
 20
-134.9891763985444
 10
78.18282468748555
 20
-134.8747992284341
 10
78.18282468748555
 20
-134.8747992284341
 10
78.32889673606014
 20
-134.8747992284341
 10
78.32889673606014
 20
-134.8747992284341
 10
78.32889673606014
 20
-134.8747992284341
 10
78.32889673606014
 20
-136.4192355344716
 10
78.32889673606014
 20
-136.4192355344716
 10
78.32889673606014
 20
-136.4192355344716
 10
78.10462101997038
 20
-136.4192355344716
 10
78.10462101997038
 20
-136.4192355344716
 97
        0
 97
        0
 75
     2
 76
     1
 98
        0
  0
SPLINE
  5
1C0
330
1BA
100
AcDbEntity
  8
_U+30EC_U+30A4_U+30E4_U+30FC 1
370
     0
100
AcDbSpline
210
0.0
220
0.0
230
1.0
 70
    11
 71
     3
 72
    29
 73
    25
 74
     0
 42
0.0000000001
 43
0.0000000001
 12
1.0
 22
0.0
 32
0.0
 13
1.0
 23
0.0
 33
0.0
 40
0.0
 40
0.0
 40
0.0
 40
0.0
 40
1.0
 40
1.0
 40
1.0
 40
2.0
 40
2.0
 40
2.0
 40
3.0
 40
3.0
 40
3.0
 40
4.0
 40
4.0
 40
4.0
 40
5.0
 40
5.0
 40
5.0
 40
6.0
 40
6.0
 40
6.0
 40
7.0
 40
7.0
 40
7.0
 40
8.0
 40
8.0
 40
8.0
 40
8.0
 10
79.72777775784584
 20
-136.2414686074327
 30
0.0
 10
79.61994626915752
 20
-136.4509304129359
 30
0.0
 10
79.44648571147519
 20
-136.4698784381048
 30
0.0
 10
79.33004148407375
 20
-136.4698784381048
 30
0.0
 10
79.16932777968684
 20
-136.4698784381048
 30
0.0
 10
79.02756210046881
 20
-136.4233696490539
 30
0.0
 10
78.93230521030165
 20
-136.2414686074327
 30
0.0
 10
78.82878009096989
 20
-136.0468207125161
 30
0.0
 10
78.80965981102676
 20
-135.8101426526794
 30
0.0
 10
78.80965981102676
 20
-135.6471896362271
 30
0.0
 10
78.80965981102676
 20
-135.5031846449436
 30
0.0
 10
78.82654077890447
 20
-135.2513481649719
 30
0.0
 10
78.93230521030165
 20
-135.052566155473
 30
0.0
 10
79.04030895376424
 20
-134.8496500313917
 30
0.0
 10
79.20102265815113
 20
-134.8262233820921
 30
0.0
 10
79.33004148407375
 20
-134.8262233820921
 30
0.0
 10
79.4886881311695
 20
-134.8262233820921
 30
0.0
 10
79.63252086767868
 20
-134.8706651138518
 30
0.0
 10
79.72777775784584
 20
-135.052566155473
 30
0.0
 10
79.82716876259529
 20
-135.2451469930984
 30
0.0
 10
79.85042315712073
 20
-135.4735568237705
 30
0.0
 10
79.85042315712073
 20
-135.6471896362271
 30
0.0
 10
79.85042315712073
 20
-135.818410881844
 30
0.0
 10
79.8294080746607
 20
-136.0488877698072
 30
0.0
 10
79.72777775784584
 20
-136.2414686074327
 30
0.0
  0
SPLINE
  5
1C1
330
1BA
100
AcDbEntity
  8
_U+30EC_U+30A4_U+30E4_U+30FC 1
370
     0
100
AcDbSpline
210
0.0
220
0.0
230
1.0
 70
    11
 71
     3
 72
    17
 73
    13
 74
     0
 42
0.0000000001
 43
0.0000000001
 12
1.0
 22
0.0
 32
0.0
 13
1.0
 23
0.0
 33
0.0
 40
0.0
 40
0.0
 40
0.0
 40
0.0
 40
1.0
 40
1.0
 40
1.0
 40
2.0
 40
2.0
 40
2.0
 40
3.0
 40
3.0
 40
3.0
 40
4.0
 40
4.0
 40
4.0
 40
4.0
 10
79.33004148407375
 20
-135.0188042197175
 30
0.0
 10
79.08044431616739
 20
-135.0188042197175
 30
0.0
 10
79.03393552711653
 20
-135.3023355781536
 30
0.0
 10
79.03393552711653
 20
-135.6471896362271
 30
0.0
 10
79.03393552711653
 20
-135.9665499877098
 30
0.0
 10
79.06993677493737
 20
-136.2752305431881
 30
0.0
 10
79.33004148407375
 20
-136.2752305431881
 30
0.0
 10
79.57757159468895
 20
-136.2752305431881
 30
0.0
 10
79.62631969580524
 20
-135.9941107515918
 30
0.0
 10
79.62631969580524
 20
-135.6471896362271
 30
0.0
 10
79.62631969580524
 20
-135.3274847751959
 30
0.0
 10
79.58807913591896
 20
-135.0188042197175
 30
0.0
 10
79.33004148407375
 20
-135.0188042197175
 30
0.0
  0
HATCH
  5
1C2
330
1BA
100
AcDbEntity
  8
_U+30EC_U+30A4_U+30E4_U+30FC 1
 62
   179
420
  2234388
100
AcDbHatch
 10
0.0
 20
0.0
 30
0.0
210
0.0
220
0.0
230
1.0
  2
SOLID
 70
     1
 71
     0
 91
        2
 92
        1
 93
        1
 72
     4
 94
        3
 73
     0
 74
     1
 95
       29
 96
       25
 40
0.0
 40
0.0
 40
0.0
 40
0.0
 40
1.0
 40
1.0
 40
1.0
 40
2.0
 40
2.0
 40
2.0
 40
3.0
 40
3.0
 40
3.0
 40
4.0
 40
4.0
 40
4.0
 40
5.0
 40
5.0
 40
5.0
 40
6.0
 40
6.0
 40
6.0
 40
7.0
 40
7.0
 40
7.0
 40
8.0
 40
8.0
 40
8.0
 40
8.0
 10
79.72777775784584
 20
-136.2414686074327
 10
79.61994626915752
 20
-136.4509304129359
 10
79.44648571147519
 20
-136.4698784381048
 10
79.33004148407375
 20
-136.4698784381048
 10
79.16932777968684
 20
-136.4698784381048
 10
79.02756210046881
 20
-136.4233696490539
 10
78.93230521030165
 20
-136.2414686074327
 10
78.82878009096989
 20
-136.0468207125161
 10
78.80965981102676
 20
-135.8101426526794
 10
78.80965981102676
 20
-135.6471896362271
 10
78.80965981102676
 20
-135.5031846449436
 10
78.82654077890447
 20
-135.2513481649719
 10
78.93230521030165
 20
-135.052566155473
 10
79.04030895376424
 20
-134.8496500313917
 10
79.20102265815113
 20
-134.8262233820921
 10
79.33004148407375
 20
-134.8262233820921
 10
79.4886881311695
 20
-134.8262233820921
 10
79.63252086767868
 20
-134.8706651138518
 10
79.72777775784584
 20
-135.052566155473
 10
79.82716876259529
 20
-135.2451469930984
 10
79.85042315712073
 20
-135.4735568237705
 10
79.85042315712073
 20
-135.6471896362271
 10
79.85042315712073
 20
-135.818410881844
 10
79.8294080746607
 20
-136.0488877698072
 10
79.72777775784584
 20
-136.2414686074327
 97
        0
 97
        0
 92
        1
 93
        1
 72
     4
 94
        3
 73
     0
 74
     1
 95
       17
 96
       13
 40
0.0
 40
0.0
 40
0.0
 40
0.0
 40
1.0
 40
1.0
 40
1.0
 40
2.0
 40
2.0
 40
2.0
 40
3.0
 40
3.0
 40
3.0
 40
4.0
 40
4.0
 40
4.0
 40
4.0
 10
79.33004148407375
 20
-135.0188042197175
 10
79.08044431616739
 20
-135.0188042197175
 10
79.03393552711653
 20
-135.3023355781536
 10
79.03393552711653
 20
-135.6471896362271
 10
79.03393552711653
 20
-135.9665499877098
 10
79.06993677493737
 20
-136.2752305431881
 10
79.33004148407375
 20
-136.2752305431881
 10
79.57757159468895
 20
-136.2752305431881
 10
79.62631969580524
 20
-135.9941107515918
 10
79.62631969580524
 20
-135.6471896362271
 10
79.62631969580524
 20
-135.3274847751959
 10
79.58807913591896
 20
-135.0188042197175
 10
79.33004148407375
 20
-135.0188042197175
 97
        0
 97
        0
 75
     2
 76
     1
 98
        0
  0
ENDBLK
  5
1BD
330
1BA
100
AcDbEntity
  8
0
100
AcDbBlockEnd
  0
BLOCK
  5
1C5
330
1C3
100
AcDbEntity
  8
0
100
AcDbBlockBegin
  2
block 11
 70
     0
 10
0.0
 20
0.0
 30
0.0
  3
block 11
  1

  0
SPLINE
  5
1C7
330
1C3
100
AcDbEntity
  8
_U+30EC_U+30A4_U+30E4_U+30FC 1
370
     0
100
AcDbSpline
210
0.0
220
0.0
230
1.0
 70
    11
 71
     3
 72
    62
 73
    58
 74
     0
 42
0.0000000001
 43
0.0000000001
 12
1.0
 22
0.0
 32
0.0
 13
1.0
 23
0.0
 33
0.0
 40
0.0
 40
0.0
 40
0.0
 40
0.0
 40
1.0
 40
1.0
 40
1.0
 40
2.0
 40
2.0
 40
2.0
 40
3.0
 40
3.0
 40
3.0
 40
4.0
 40
4.0
 40
4.0
 40
5.0
 40
5.0
 40
5.0
 40
6.0
 40
6.0
 40
6.0
 40
7.0
 40
7.0
 40
7.0
 40
8.0
 40
8.0
 40
8.0
 40
9.0
 40
9.0
 40
9.0
 40
10.0
 40
10.0
 40
10.0
 40
11.0
 40
11.0
 40
11.0
 40
12.0
 40
12.0
 40
12.0
 40
13.0
 40
13.0
 40
13.0
 40
14.0
 40
14.0
 40
14.0
 40
15.0
 40
15.0
 40
15.0
 40
16.0
 40
16.0
 40
16.0
 40
17.0
 40
17.0
 40
17.0
 40
18.0
 40
18.0
 40
18.0
 40
19.0
 40
19.0
 40
19.0
 40
19.0
 10
94.15135902594133
 20
-150.6357665639036
 30
0.0
 10
94.05592988099991
 20
-150.6357665639036
 30
0.0
 10
93.83819984633212
 20
-150.6147514814435
 30
0.0
 10
93.71314288021755
 20
-150.4287163252401
 30
0.0
 10
93.6394178368332
 20
-150.3164062124209
 30
0.0
 10
93.63493921270238
 20
-150.2171874624457
 30
0.0
 10
93.63080509812008
 20
-150.1324381135086
 30
0.0
 10
93.63080509812008
 20
-150.1324381135086
 30
0.0
 10
93.85094669962754
 20
-150.1324381135086
 30
0.0
 10
93.85094669962754
 20
-150.1324381135086
 30
0.0
 10
93.8530137569187
 20
-150.2065076664414
 30
0.0
 10
93.86334904337444
 20
-150.4411186689869
 30
0.0
 10
94.1468804018105
 20
-150.4411186689869
 30
0.0
 10
94.28433971167198
 20
-150.4411186689869
 30
0.0
 10
94.43695744166854
 20
-150.3715277401849
 30
0.0
 10
94.43695744166854
 20
-150.1431179095128
 30
0.0
 10
94.43695744166854
 20
-150.0266736821114
 30
0.0
 10
94.39871688178226
 20
-149.9780978357694
 30
0.0
 10
94.36702200331797
 20
-149.9464029573051
 30
0.0
 10
94.2929524503851
 20
-149.8723334043722
 30
0.0
 10
94.17650822298366
 20
-149.8595865510768
 30
0.0
 10
94.12173120476818
 20
-149.8595865510768
 30
0.0
 10
94.10243867005079
 20
-149.8595865510768
 30
0.0
 10
94.06660967700418
 20
-149.8616536083679
 30
0.0
 10
94.03904891312219
 20
-149.8657877229502
 30
0.0
 10
94.03904891312219
 20
-149.8657877229502
 30
0.0
 10
94.03904891312219
 20
-149.6711398280336
 30
0.0
 10
94.03904891312219
 20
-149.6711398280336
 30
0.0
 10
94.07728947300846
 20
-149.6776855094556
 30
0.0
 10
94.11931963792851
 20
-149.6797525667467
 30
0.0
 10
94.12586531935048
 20
-149.6797525667467
 30
0.0
 10
94.19132213357022
 20
-149.6797525667467
 30
0.0
 10
94.39010414306914
 20
-149.6583929747382
 30
0.0
 10
94.39010414306914
 20
-149.4217149149015
 30
0.0
 10
94.39010414306914
 20
-149.2439479878626
 30
0.0
 10
94.25919051462965
 20
-149.1888264600986
 30
0.0
 10
94.14894745910166
 20
-149.1888264600986
 30
0.0
 10
93.88470863538299
 20
-149.1888264600986
 30
0.0
 10
93.87609589666987
 20
-149.4217149149015
 30
0.0
 10
93.87196178208757
 20
-149.4933729009947
 30
0.0
 10
93.87196178208757
 20
-149.4933729009947
 30
0.0
 10
93.66870114845783
 20
-149.4933729009947
 30
0.0
 10
93.66870114845783
 20
-149.4933729009947
 30
0.0
 10
93.67731388717095
 20
-149.3686604444287
 30
0.0
 10
93.70487465105295
 20
-148.9921115078909
 30
0.0
 10
94.16169431239707
 20
-148.9921115078909
 30
0.0
 10
94.38597002848684
 20
-148.9921115078909
 30
0.0
 10
94.62712671245433
 20
-149.1192355312966
 30
0.0
 10
94.62712671245433
 20
-149.4151692334796
 30
0.0
 10
94.62712671245433
 20
-149.6015488992316
 30
0.0
 10
94.53204207706143
 20
-149.683886681329
 30
0.0
 10
94.43247881753771
 20
-149.7452093809665
 30
0.0
 10
94.49380151717517
 20
-149.7727701448485
 30
0.0
 10
94.67570255879636
 20
-149.8530408696548
 30
0.0
 10
94.67570255879636
 20
-150.1303710562174
 30
0.0
 10
94.67570255879636
 20
-150.468679432869
 30
0.0
 10
94.42834470295541
 20
-150.6357665639036
 30
0.0
 10
94.15135902594133
 20
-150.6357665639036
 30
0.0
  0
HATCH
  5
1C8
330
1C3
100
AcDbEntity
  8
_U+30EC_U+30A4_U+30E4_U+30FC 1
 62
   179
420
  2234388
100
AcDbHatch
 10
0.0
 20
0.0
 30
0.0
210
0.0
220
0.0
230
1.0
  2
SOLID
 70
     1
 71
     0
 91
        1
 92
        1
 93
        1
 72
     4
 94
        3
 73
     0
 74
     1
 95
       62
 96
       58
 40
0.0
 40
0.0
 40
0.0
 40
0.0
 40
1.0
 40
1.0
 40
1.0
 40
2.0
 40
2.0
 40
2.0
 40
3.0
 40
3.0
 40
3.0
 40
4.0
 40
4.0
 40
4.0
 40
5.0
 40
5.0
 40
5.0
 40
6.0
 40
6.0
 40
6.0
 40
7.0
 40
7.0
 40
7.0
 40
8.0
 40
8.0
 40
8.0
 40
9.0
 40
9.0
 40
9.0
 40
10.0
 40
10.0
 40
10.0
 40
11.0
 40
11.0
 40
11.0
 40
12.0
 40
12.0
 40
12.0
 40
13.0
 40
13.0
 40
13.0
 40
14.0
 40
14.0
 40
14.0
 40
15.0
 40
15.0
 40
15.0
 40
16.0
 40
16.0
 40
16.0
 40
17.0
 40
17.0
 40
17.0
 40
18.0
 40
18.0
 40
18.0
 40
19.0
 40
19.0
 40
19.0
 40
19.0
 10
94.15135902594133
 20
-150.6357665639036
 10
94.05592988099991
 20
-150.6357665639036
 10
93.83819984633212
 20
-150.6147514814435
 10
93.71314288021755
 20
-150.4287163252401
 10
93.6394178368332
 20
-150.3164062124209
 10
93.63493921270238
 20
-150.2171874624457
 10
93.63080509812008
 20
-150.1324381135086
 10
93.63080509812008
 20
-150.1324381135086
 10
93.85094669962754
 20
-150.1324381135086
 10
93.85094669962754
 20
-150.1324381135086
 10
93.8530137569187
 20
-150.2065076664414
 10
93.86334904337444
 20
-150.4411186689869
 10
94.1468804018105
 20
-150.4411186689869
 10
94.28433971167198
 20
-150.4411186689869
 10
94.43695744166854
 20
-150.3715277401849
 10
94.43695744166854
 20
-150.1431179095128
 10
94.43695744166854
 20
-150.0266736821114
 10
94.39871688178226
 20
-149.9780978357694
 10
94.36702200331797
 20
-149.9464029573051
 10
94.2929524503851
 20
-149.8723334043722
 10
94.17650822298366
 20
-149.8595865510768
 10
94.12173120476818
 20
-149.8595865510768
 10
94.10243867005079
 20
-149.8595865510768
 10
94.06660967700418
 20
-149.8616536083679
 10
94.03904891312219
 20
-149.8657877229502
 10
94.03904891312219
 20
-149.8657877229502
 10
94.03904891312219
 20
-149.6711398280336
 10
94.03904891312219
 20
-149.6711398280336
 10
94.07728947300846
 20
-149.6776855094556
 10
94.11931963792851
 20
-149.6797525667467
 10
94.12586531935048
 20
-149.6797525667467
 10
94.19132213357022
 20
-149.6797525667467
 10
94.39010414306914
 20
-149.6583929747382
 10
94.39010414306914
 20
-149.4217149149015
 10
94.39010414306914
 20
-149.2439479878626
 10
94.25919051462965
 20
-149.1888264600986
 10
94.14894745910166
 20
-149.1888264600986
 10
93.88470863538299
 20
-149.1888264600986
 10
93.87609589666987
 20
-149.4217149149015
 10
93.87196178208757
 20
-149.4933729009947
 10
93.87196178208757
 20
-149.4933729009947
 10
93.66870114845783
 20
-149.4933729009947
 10
93.66870114845783
 20
-149.4933729009947
 10
93.67731388717095
 20
-149.3686604444287
 10
93.70487465105295
 20
-148.9921115078909
 10
94.16169431239707
 20
-148.9921115078909
 10
94.38597002848684
 20
-148.9921115078909
 10
94.62712671245433
 20
-149.1192355312966
 10
94.62712671245433
 20
-149.4151692334796
 10
94.62712671245433
 20
-149.6015488992316
 10
94.53204207706143
 20
-149.683886681329
 10
94.43247881753771
 20
-149.7452093809665
 10
94.49380151717517
 20
-149.7727701448485
 10
94.67570255879636
 20
-149.8530408696548
 10
94.67570255879636
 20
-150.1303710562174
 10
94.67570255879636
 20
-150.468679432869
 10
94.42834470295541
 20
-150.6357665639036
 10
94.15135902594133
 20
-150.6357665639036
 97
        0
 97
        0
 75
     2
 76
     1
 98
        0
  0
SPLINE
  5
1C9
330
1C3
100
AcDbEntity
  8
_U+30EC_U+30A4_U+30E4_U+30FC 1
370
     0
100
AcDbSpline
210
0.0
220
0.0
230
1.0
 70
    11
 71
     3
 72
    29
 73
    25
 74
     0
 42
0.0000000001
 43
0.0000000001
 12
1.0
 22
0.0
 32
0.0
 13
1.0
 23
0.0
 33
0.0
 40
0.0
 40
0.0
 40
0.0
 40
0.0
 40
1.0
 40
1.0
 40
1.0
 40
2.0
 40
2.0
 40
2.0
 40
3.0
 40
3.0
 40
3.0
 40
4.0
 40
4.0
 40
4.0
 40
5.0
 40
5.0
 40
5.0
 40
6.0
 40
6.0
 40
6.0
 40
7.0
 40
7.0
 40
7.0
 40
8.0
 40
8.0
 40
8.0
 40
8.0
 10
95.73438040141363
 20
-150.4073567332315
 30
0.0
 10
95.62620440317679
 20
-150.6168185387347
 30
0.0
 10
95.45291610026872
 20
-150.6357665639036
 30
0.0
 10
95.33647187286728
 20
-150.6357665639036
 30
0.0
 10
95.1755859137061
 20
-150.6357665639036
 30
0.0
 10
95.03399248926235
 20
-150.5892577748527
 30
0.0
 10
94.93890785386944
 20
-150.4073567332315
 30
0.0
 10
94.83521047976342
 20
-150.2127088383149
 30
0.0
 10
94.81626245459455
 20
-149.9756862689297
 30
0.0
 10
94.81626245459455
 20
-149.8130777620259
 30
0.0
 10
94.81626245459455
 20
-149.6690727707425
 30
0.0
 10
94.83314342247228
 20
-149.4172362907707
 30
0.0
 10
94.93890785386944
 20
-149.2184542812718
 30
0.0
 10
95.04673934255776
 20
-149.0155381571906
 30
0.0
 10
95.20762530171893
 20
-148.9921115078909
 30
0.0
 10
95.33647187286728
 20
-148.9921115078909
 30
0.0
 10
95.4952907747373
 20
-148.9921115078909
 30
0.0
 10
95.63895125647221
 20
-149.0365532396506
 30
0.0
 10
95.73438040141363
 20
-149.2184542812718
 30
0.0
 10
95.83359915138882
 20
-149.4110351188972
 30
0.0
 10
95.85702580068853
 20
-149.6394449495693
 30
0.0
 10
95.85702580068853
 20
-149.8130777620259
 30
0.0
 10
95.85702580068853
 20
-149.9842990076428
 30
0.0
 10
95.83566620867998
 20
-150.214775895606
 30
0.0
 10
95.73438040141363
 20
-150.4073567332315
 30
0.0
  0
SPLINE
  5
1CA
330
1C3
100
AcDbEntity
  8
_U+30EC_U+30A4_U+30E4_U+30FC 1
370
     0
100
AcDbSpline
210
0.0
220
0.0
230
1.0
 70
    11
 71
     3
 72
    17
 73
    13
 74
     0
 42
0.0000000001
 43
0.0000000001
 12
1.0
 22
0.0
 32
0.0
 13
1.0
 23
0.0
 33
0.0
 40
0.0
 40
0.0
 40
0.0
 40
0.0
 40
1.0
 40
1.0
 40
1.0
 40
2.0
 40
2.0
 40
2.0
 40
3.0
 40
3.0
 40
3.0
 40
4.0
 40
4.0
 40
4.0
 40
4.0
 10
95.33647187286728
 20
-149.1846923455163
 30
0.0
 10
95.08704695973519
 20
-149.1846923455163
 30
0.0
 10
95.04019366113579
 20
-149.4682237039524
 30
0.0
 10
95.04019366113579
 20
-149.8130777620259
 30
0.0
 10
95.04019366113579
 20
-150.1324381135086
 30
0.0
 10
95.07636716373091
 20
-150.4411186689869
 30
0.0
 10
95.33647187286728
 20
-150.4411186689869
 30
0.0
 10
95.58417423825674
 20
-150.4411186689869
 30
0.0
 10
95.63275008459875
 20
-150.1599988773906
 30
0.0
 10
95.63275008459875
 20
-149.8130777620259
 30
0.0
 10
95.63275008459875
 20
-149.4933729009947
 30
0.0
 10
95.59450952471249
 20
-149.1846923455163
 30
0.0
 10
95.33647187286728
 20
-149.1846923455163
 30
0.0
  0
HATCH
  5
1CB
330
1C3
100
AcDbEntity
  8
_U+30EC_U+30A4_U+30E4_U+30FC 1
 62
   179
420
  2234388
100
AcDbHatch
 10
0.0
 20
0.0
 30
0.0
210
0.0
220
0.0
230
1.0
  2
SOLID
 70
     1
 71
     0
 91
        2
 92
        1
 93
        1
 72
     4
 94
        3
 73
     0
 74
     1
 95
       29
 96
       25
 40
0.0
 40
0.0
 40
0.0
 40
0.0
 40
1.0
 40
1.0
 40
1.0
 40
2.0
 40
2.0
 40
2.0
 40
3.0
 40
3.0
 40
3.0
 40
4.0
 40
4.0
 40
4.0
 40
5.0
 40
5.0
 40
5.0
 40
6.0
 40
6.0
 40
6.0
 40
7.0
 40
7.0
 40
7.0
 40
8.0
 40
8.0
 40
8.0
 40
8.0
 10
95.73438040141363
 20
-150.4073567332315
 10
95.62620440317679
 20
-150.6168185387347
 10
95.45291610026872
 20
-150.6357665639036
 10
95.33647187286728
 20
-150.6357665639036
 10
95.1755859137061
 20
-150.6357665639036
 10
95.03399248926235
 20
-150.5892577748527
 10
94.93890785386944
 20
-150.4073567332315
 10
94.83521047976342
 20
-150.2127088383149
 10
94.81626245459455
 20
-149.9756862689297
 10
94.81626245459455
 20
-149.8130777620259
 10
94.81626245459455
 20
-149.6690727707425
 10
94.83314342247228
 20
-149.4172362907707
 10
94.93890785386944
 20
-149.2184542812718
 10
95.04673934255776
 20
-149.0155381571906
 10
95.20762530171893
 20
-148.9921115078909
 10
95.33647187286728
 20
-148.9921115078909
 10
95.4952907747373
 20
-148.9921115078909
 10
95.63895125647221
 20
-149.0365532396506
 10
95.73438040141363
 20
-149.2184542812718
 10
95.83359915138882
 20
-149.4110351188972
 10
95.85702580068853
 20
-149.6394449495693
 10
95.85702580068853
 20
-149.8130777620259
 10
95.85702580068853
 20
-149.9842990076428
 10
95.83566620867998
 20
-150.214775895606
 10
95.73438040141363
 20
-150.4073567332315
 97
        0
 97
        0
 92
        1
 93
        1
 72
     4
 94
        3
 73
     0
 74
     1
 95
       17
 96
       13
 40
0.0
 40
0.0
 40
0.0
 40
0.0
 40
1.0
 40
1.0
 40
1.0
 40
2.0
 40
2.0
 40
2.0
 40
3.0
 40
3.0
 40
3.0
 40
4.0
 40
4.0
 40
4.0
 40
4.0
 10
95.33647187286728
 20
-149.1846923455163
 10
95.08704695973519
 20
-149.1846923455163
 10
95.04019366113579
 20
-149.4682237039524
 10
95.04019366113579
 20
-149.8130777620259
 10
95.04019366113579
 20
-150.1324381135086
 10
95.07636716373091
 20
-150.4411186689869
 10
95.33647187286728
 20
-150.4411186689869
 10
95.58417423825674
 20
-150.4411186689869
 10
95.63275008459875
 20
-150.1599988773906
 10
95.63275008459875
 20
-149.8130777620259
 10
95.63275008459875
 20
-149.4933729009947
 10
95.59450952471249
 20
-149.1846923455163
 10
95.33647187286728
 20
-149.1846923455163
 97
        0
 97
        0
 75
     2
 76
     1
 98
        0
  0
ENDBLK
  5
1C6
330
1C3
100
AcDbEntity
  8
0
100
AcDbBlockEnd
  0
BLOCK
  5
1CE
330
1CC
100
AcDbEntity
  8
0
100
AcDbBlockBegin
  2
block 12
 70
     0
 10
0.0
 20
0.0
 30
0.0
  3
block 12
  1

  0
SPLINE
  5
1D0
330
1CC
100
AcDbEntity
  8
_U+30EC_U+30A4_U+30E4_U+30FC 1
370
     0
100
AcDbSpline
210
0.0
220
0.0
230
1.0
 70
    11
 71
     3
 72
    26
 73
    22
 74
     0
 42
0.0000000001
 43
0.0000000001
 12
1.0
 22
0.0
 32
0.0
 13
1.0
 23
0.0
 33
0.0
 40
0.0
 40
0.0
 40
0.0
 40
0.0
 40
1.0
 40
1.0
 40
1.0
 40
2.0
 40
2.0
 40
2.0
 40
3.0
 40
3.0
 40
3.0
 40
4.0
 40
4.0
 40
4.0
 40
5.0
 40
5.0
 40
5.0
 40
6.0
 40
6.0
 40
6.0
 40
7.0
 40
7.0
 40
7.0
 40
7.0
 10
99.09265948043517
 20
-116.5968451314411
 30
0.0
 10
99.09265948043517
 20
-116.5968451314411
 30
0.0
 10
97.9885063774126
 20
-116.5968451314411
 30
0.0
 10
97.9885063774126
 20
-116.5968451314411
 30
0.0
 10
97.9885063774126
 20
-116.5968451314411
 30
0.0
 10
97.9885063774126
 20
-116.926885278928
 30
0.0
 10
97.9885063774126
 20
-116.926885278928
 30
0.0
 10
97.9885063774126
 20
-116.926885278928
 30
0.0
 10
97.84036727154685
 20
-116.926885278928
 30
0.0
 10
97.84036727154685
 20
-116.926885278928
 30
0.0
 10
97.82555336096028
 20
-116.5947780741499
 30
0.0
 10
97.66294485405649
 20
-116.5482692850991
 30
0.0
 10
97.54856768394619
 20
-116.5186414639259
 30
0.0
 10
97.54856768394619
 20
-116.5186414639259
 30
0.0
 10
97.54856768394619
 20
-116.3725694153513
 30
0.0
 10
97.54856768394619
 20
-116.3725694153513
 30
0.0
 10
97.54856768394619
 20
-116.3725694153513
 30
0.0
 10
99.09265948043517
 20
-116.3725694153513
 30
0.0
 10
99.09265948043517
 20
-116.3725694153513
 30
0.0
 10
99.09265948043517
 20
-116.3725694153513
 30
0.0
 10
99.09265948043517
 20
-116.5968451314411
 30
0.0
 10
99.09265948043517
 20
-116.5968451314411
 30
0.0
  0
HATCH
  5
1D1
330
1CC
100
AcDbEntity
  8
_U+30EC_U+30A4_U+30E4_U+30FC 1
 62
   179
420
  2234388
100
AcDbHatch
 10
0.0
 20
0.0
 30
0.0
210
0.0
220
0.0
230
1.0
  2
SOLID
 70
     1
 71
     0
 91
        1
 92
        1
 93
        1
 72
     4
 94
        3
 73
     0
 74
     1
 95
       26
 96
       22
 40
0.0
 40
0.0
 40
0.0
 40
0.0
 40
1.0
 40
1.0
 40
1.0
 40
2.0
 40
2.0
 40
2.0
 40
3.0
 40
3.0
 40
3.0
 40
4.0
 40
4.0
 40
4.0
 40
5.0
 40
5.0
 40
5.0
 40
6.0
 40
6.0
 40
6.0
 40
7.0
 40
7.0
 40
7.0
 40
7.0
 10
99.09265948043517
 20
-116.5968451314411
 10
99.09265948043517
 20
-116.5968451314411
 10
97.9885063774126
 20
-116.5968451314411
 10
97.9885063774126
 20
-116.5968451314411
 10
97.9885063774126
 20
-116.5968451314411
 10
97.9885063774126
 20
-116.926885278928
 10
97.9885063774126
 20
-116.926885278928
 10
97.9885063774126
 20
-116.926885278928
 10
97.84036727154685
 20
-116.926885278928
 10
97.84036727154685
 20
-116.926885278928
 10
97.82555336096028
 20
-116.5947780741499
 10
97.66294485405649
 20
-116.5482692850991
 10
97.54856768394619
 20
-116.5186414639259
 10
97.54856768394619
 20
-116.5186414639259
 10
97.54856768394619
 20
-116.3725694153513
 10
97.54856768394619
 20
-116.3725694153513
 10
97.54856768394619
 20
-116.3725694153513
 10
99.09265948043517
 20
-116.3725694153513
 10
99.09265948043517
 20
-116.3725694153513
 10
99.09265948043517
 20
-116.3725694153513
 10
99.09265948043517
 20
-116.5968451314411
 10
99.09265948043517
 20
-116.5968451314411
 97
        0
 97
        0
 75
     2
 76
     1
 98
        0
  0
SPLINE
  5
1D2
330
1CC
100
AcDbEntity
  8
_U+30EC_U+30A4_U+30E4_U+30FC 1
370
     0
100
AcDbSpline
210
0.0
220
0.0
230
1.0
 70
    11
 71
     3
 72
    29
 73
    25
 74
     0
 42
0.0000000001
 43
0.0000000001
 12
1.0
 22
0.0
 32
0.0
 13
1.0
 23
0.0
 33
0.0
 40
0.0
 40
0.0
 40
0.0
 40
0.0
 40
1.0
 40
1.0
 40
1.0
 40
2.0
 40
2.0
 40
2.0
 40
3.0
 40
3.0
 40
3.0
 40
4.0
 40
4.0
 40
4.0
 40
5.0
 40
5.0
 40
5.0
 40
6.0
 40
6.0
 40
6.0
 40
7.0
 40
7.0
 40
7.0
 40
8.0
 40
8.0
 40
8.0
 40
8.0
 10
98.91489255339629
 20
-114.9736883935656
 30
0.0
 10
99.12435435889947
 20
-115.0815198822539
 30
0.0
 10
99.14364689361688
 20
-115.2549804399363
 30
0.0
 10
99.14364689361688
 20
-115.3714246673377
 30
0.0
 10
99.14364689361688
 20
-115.5321383717246
 30
0.0
 10
99.097138104566
 20
-115.6739040509426
 30
0.0
 10
98.91489255339629
 20
-115.7691609411098
 30
0.0
 10
98.72058916802818
 20
-115.8726860604416
 30
0.0
 10
98.48356659864301
 20
-115.8918063403847
 30
0.0
 10
98.32061358219069
 20
-115.8918063403847
 30
0.0
 10
98.17695310045576
 20
-115.8918063403847
 30
0.0
 10
97.925116620484
 20
-115.874925372507
 30
0.0
 10
97.72633461098509
 20
-115.7691609411098
 30
0.0
 10
97.52307397735535
 20
-115.6611571976472
 30
0.0
 10
97.49964732805564
 20
-115.5004434932603
 30
0.0
 10
97.49964732805564
 20
-115.3714246673377
 30
0.0
 10
97.49964732805564
 20
-115.212778020242
 30
0.0
 10
97.54443356936389
 20
-115.0689452837328
 30
0.0
 10
97.72633461098509
 20
-114.9736883935656
 30
0.0
 10
97.91857093906202
 20
-114.8742973888162
 30
0.0
 10
98.14732527928261
 20
-114.8510429942907
 30
0.0
 10
98.32061358219069
 20
-114.8510429942907
 30
0.0
 10
98.49183482780761
 20
-114.8510429942907
 30
0.0
 10
98.72265622531934
 20
-114.8720580767507
 30
0.0
 10
98.91489255339629
 20
-114.9736883935656
 30
0.0
  0
SPLINE
  5
1D3
330
1CC
100
AcDbEntity
  8
_U+30EC_U+30A4_U+30E4_U+30FC 1
370
     0
100
AcDbSpline
210
0.0
220
0.0
230
1.0
 70
    11
 71
     3
 72
    17
 73
    13
 74
     0
 42
0.0000000001
 43
0.0000000001
 12
1.0
 22
0.0
 32
0.0
 13
1.0
 23
0.0
 33
0.0
 40
0.0
 40
0.0
 40
0.0
 40
0.0
 40
1.0
 40
1.0
 40
1.0
 40
2.0
 40
2.0
 40
2.0
 40
3.0
 40
3.0
 40
3.0
 40
4.0
 40
4.0
 40
4.0
 40
4.0
 10
97.69257267522964
 20
-115.3714246673377
 30
0.0
 10
97.69257267522964
 20
-115.6210218352441
 30
0.0
 10
97.97575952411718
 20
-115.6675306242949
 30
0.0
 10
98.32061358219069
 20
-115.6675306242949
 30
0.0
 10
98.63997393367335
 20
-115.6675306242949
 30
0.0
 10
98.94899899870026
 20
-115.6315293764741
 30
0.0
 10
98.94899899870026
 20
-115.3714246673377
 30
0.0
 10
98.94899899870026
 20
-115.1238945567225
 30
0.0
 10
98.66753469755534
 20
-115.0751464556062
 30
0.0
 10
98.32061358219069
 20
-115.0751464556062
 30
0.0
 10
98.00125323070803
 20
-115.0751464556062
 30
0.0
 10
97.69257267522964
 20
-115.1132147607182
 30
0.0
 10
97.69257267522964
 20
-115.3714246673377
 30
0.0
  0
HATCH
  5
1D4
330
1CC
100
AcDbEntity
  8
_U+30EC_U+30A4_U+30E4_U+30FC 1
 62
   179
420
  2234388
100
AcDbHatch
 10
0.0
 20
0.0
 30
0.0
210
0.0
220
0.0
230
1.0
  2
SOLID
 70
     1
 71
     0
 91
        2
 92
        1
 93
        1
 72
     4
 94
        3
 73
     0
 74
     1
 95
       29
 96
       25
 40
0.0
 40
0.0
 40
0.0
 40
0.0
 40
1.0
 40
1.0
 40
1.0
 40
2.0
 40
2.0
 40
2.0
 40
3.0
 40
3.0
 40
3.0
 40
4.0
 40
4.0
 40
4.0
 40
5.0
 40
5.0
 40
5.0
 40
6.0
 40
6.0
 40
6.0
 40
7.0
 40
7.0
 40
7.0
 40
8.0
 40
8.0
 40
8.0
 40
8.0
 10
98.91489255339629
 20
-114.9736883935656
 10
99.12435435889947
 20
-115.0815198822539
 10
99.14364689361688
 20
-115.2549804399363
 10
99.14364689361688
 20
-115.3714246673377
 10
99.14364689361688
 20
-115.5321383717246
 10
99.097138104566
 20
-115.6739040509426
 10
98.91489255339629
 20
-115.7691609411098
 10
98.72058916802818
 20
-115.8726860604416
 10
98.48356659864301
 20
-115.8918063403847
 10
98.32061358219069
 20
-115.8918063403847
 10
98.17695310045576
 20
-115.8918063403847
 10
97.925116620484
 20
-115.874925372507
 10
97.72633461098509
 20
-115.7691609411098
 10
97.52307397735535
 20
-115.6611571976472
 10
97.49964732805564
 20
-115.5004434932603
 10
97.49964732805564
 20
-115.3714246673377
 10
97.49964732805564
 20
-115.212778020242
 10
97.54443356936389
 20
-115.0689452837328
 10
97.72633461098509
 20
-114.9736883935656
 10
97.91857093906202
 20
-114.8742973888162
 10
98.14732527928261
 20
-114.8510429942907
 10
98.32061358219069
 20
-114.8510429942907
 10
98.49183482780761
 20
-114.8510429942907
 10
98.72265622531934
 20
-114.8720580767507
 10
98.91489255339629
 20
-114.9736883935656
 97
        0
 97
        0
 92
        1
 93
        1
 72
     4
 94
        3
 73
     0
 74
     1
 95
       17
 96
       13
 40
0.0
 40
0.0
 40
0.0
 40
0.0
 40
1.0
 40
1.0
 40
1.0
 40
2.0
 40
2.0
 40
2.0
 40
3.0
 40
3.0
 40
3.0
 40
4.0
 40
4.0
 40
4.0
 40
4.0
 10
97.69257267522964
 20
-115.3714246673377
 10
97.69257267522964
 20
-115.6210218352441
 10
97.97575952411718
 20
-115.6675306242949
 10
98.32061358219069
 20
-115.6675306242949
 10
98.63997393367335
 20
-115.6675306242949
 10
98.94899899870026
 20
-115.6315293764741
 10
98.94899899870026
 20
-115.3714246673377
 10
98.94899899870026
 20
-115.1238945567225
 10
98.66753469755534
 20
-115.0751464556062
 10
98.32061358219069
 20
-115.0751464556062
 10
98.00125323070803
 20
-115.0751464556062
 10
97.69257267522964
 20
-115.1132147607182
 10
97.69257267522964
 20
-115.3714246673377
 97
        0
 97
        0
 75
     2
 76
     1
 98
        0
  0
ENDBLK
  5
1CF
330
1CC
100
AcDbEntity
  8
0
100
AcDbBlockEnd
  0
BLOCK
  5
1D7
330
1D5
100
AcDbEntity
  8
0
100
AcDbBlockBegin
  2
block 13
 70
     0
 10
0.0
 20
0.0
 30
0.0
  3
block 13
  1

  0
SPLINE
  5
1D9
330
1D5
100
AcDbEntity
  8
_U+30EC_U+30A4_U+30E4_U+30FC 1
370
     0
100
AcDbSpline
210
0.0
220
0.0
230
1.0
 70
    11
 71
     3
 72
    62
 73
    58
 74
     0
 42
0.0000000001
 43
0.0000000001
 12
1.0
 22
0.0
 32
0.0
 13
1.0
 23
0.0
 33
0.0
 40
0.0
 40
0.0
 40
0.0
 40
0.0
 40
1.0
 40
1.0
 40
1.0
 40
2.0
 40
2.0
 40
2.0
 40
3.0
 40
3.0
 40
3.0
 40
4.0
 40
4.0
 40
4.0
 40
5.0
 40
5.0
 40
5.0
 40
6.0
 40
6.0
 40
6.0
 40
7.0
 40
7.0
 40
7.0
 40
8.0
 40
8.0
 40
8.0
 40
9.0
 40
9.0
 40
9.0
 40
10.0
 40
10.0
 40
10.0
 40
11.0
 40
11.0
 40
11.0
 40
12.0
 40
12.0
 40
12.0
 40
13.0
 40
13.0
 40
13.0
 40
14.0
 40
14.0
 40
14.0
 40
15.0
 40
15.0
 40
15.0
 40
16.0
 40
16.0
 40
16.0
 40
17.0
 40
17.0
 40
17.0
 40
18.0
 40
18.0
 40
18.0
 40
19.0
 40
19.0
 40
19.0
 40
19.0
 10
113.4283908136568
 20
-132.5565944764095
 30
0.0
 10
113.4283908136568
 20
-132.6516791118024
 30
0.0
 10
113.4070312216483
 20
-132.8697536560187
 30
0.0
 10
113.2209960654448
 20
-132.9944661125847
 30
0.0
 10
113.1086859526256
 20
-133.0685356655176
 30
0.0
 10
113.0094672026504
 20
-133.0726697800999
 30
0.0
 10
112.9247178537133
 20
-133.0768038946822
 30
0.0
 10
112.9247178537133
 20
-133.0768038946822
 30
0.0
 10
112.9247178537133
 20
-132.8570068027232
 30
0.0
 10
112.9247178537133
 20
-132.8570068027232
 30
0.0
 10
112.9987874066461
 20
-132.8549397454321
 30
0.0
 10
113.2333984091917
 20
-132.8442599494278
 30
0.0
 10
113.2333984091917
 20
-132.5607285909918
 30
0.0
 10
113.2333984091917
 20
-132.4232692811303
 30
0.0
 10
113.1638074803896
 20
-132.2709960606823
 30
0.0
 10
112.935053140169
 20
-132.2709960606823
 30
0.0
 10
112.8189534223161
 20
-132.2709960606823
 30
0.0
 10
112.7703775759741
 20
-132.30889211102
 30
0.0
 10
112.7386826975098
 20
-132.3405869894843
 30
0.0
 10
112.6642686350284
 20
-132.4146565424172
 30
0.0
 10
112.6518662912815
 20
-132.5311007698186
 30
0.0
 10
112.6518662912815
 20
-132.5862222975826
 30
0.0
 10
112.6518662912815
 20
-132.6051703227515
 30
0.0
 10
112.6539333485726
 20
-132.6409993157981
 30
0.0
 10
112.6580674631549
 20
-132.6685600796801
 30
0.0
 10
112.6580674631549
 20
-132.6685600796801
 30
0.0
 10
112.4637640777868
 20
-132.6685600796801
 30
0.0
 10
112.4637640777868
 20
-132.6685600796801
 30
0.0
 10
112.4699652496603
 20
-132.6306640293423
 30
0.0
 10
112.4720323069514
 20
-132.5882893548738
 30
0.0
 10
112.4720323069514
 20
-132.5817436734518
 30
0.0
 10
112.4720323069514
 20
-132.5162868592321
 30
0.0
 10
112.4506727149429
 20
-132.3175048497331
 30
0.0
 10
112.2136501455577
 20
-132.3175048497331
 30
0.0
 10
112.0362277280673
 20
-132.3175048497331
 30
0.0
 10
111.9811062003033
 20
-132.4487629877212
 30
0.0
 10
111.9811062003033
 20
-132.5586615337006
 30
0.0
 10
111.9811062003033
 20
-132.8229003574193
 30
0.0
 10
112.2136501455577
 20
-132.8315130961324
 30
0.0
 10
112.2859971507479
 20
-132.8356472107147
 30
0.0
 10
112.2859971507479
 20
-132.8356472107147
 30
0.0
 10
112.2859971507479
 20
-133.0389078443444
 30
0.0
 10
112.2859971507479
 20
-133.0389078443444
 30
0.0
 10
112.1609401846334
 20
-133.0302951056313
 30
0.0
 10
111.7843912480956
 20
-133.0027343417493
 30
0.0
 10
111.7843912480956
 20
-132.5459146804052
 30
0.0
 10
111.7843912480956
 20
-132.3216389643154
 30
0.0
 10
111.9111707619528
 20
-132.080482280348
 30
0.0
 10
112.2074489736843
 20
-132.080482280348
 30
0.0
 10
112.3934841298877
 20
-132.080482280348
 30
0.0
 10
112.4761664215337
 20
-132.1755669157408
 30
0.0
 10
112.5374891211712
 20
-132.2751301752646
 30
0.0
 10
112.5650498850532
 20
-132.2138074756271
 30
0.0
 10
112.645665119408
 20
-132.0319064340059
 30
0.0
 10
112.9226507964221
 20
-132.0319064340059
 30
0.0
 10
113.2609591730737
 20
-132.0319064340059
 30
0.0
 10
113.4283908136568
 20
-132.2792642898469
 30
0.0
 10
113.4283908136568
 20
-132.5565944764095
 30
0.0
  0
HATCH
  5
1DA
330
1D5
100
AcDbEntity
  8
_U+30EC_U+30A4_U+30E4_U+30FC 1
 62
   179
420
  2234388
100
AcDbHatch
 10
0.0
 20
0.0
 30
0.0
210
0.0
220
0.0
230
1.0
  2
SOLID
 70
     1
 71
     0
 91
        1
 92
        1
 93
        1
 72
     4
 94
        3
 73
     0
 74
     1
 95
       62
 96
       58
 40
0.0
 40
0.0
 40
0.0
 40
0.0
 40
1.0
 40
1.0
 40
1.0
 40
2.0
 40
2.0
 40
2.0
 40
3.0
 40
3.0
 40
3.0
 40
4.0
 40
4.0
 40
4.0
 40
5.0
 40
5.0
 40
5.0
 40
6.0
 40
6.0
 40
6.0
 40
7.0
 40
7.0
 40
7.0
 40
8.0
 40
8.0
 40
8.0
 40
9.0
 40
9.0
 40
9.0
 40
10.0
 40
10.0
 40
10.0
 40
11.0
 40
11.0
 40
11.0
 40
12.0
 40
12.0
 40
12.0
 40
13.0
 40
13.0
 40
13.0
 40
14.0
 40
14.0
 40
14.0
 40
15.0
 40
15.0
 40
15.0
 40
16.0
 40
16.0
 40
16.0
 40
17.0
 40
17.0
 40
17.0
 40
18.0
 40
18.0
 40
18.0
 40
19.0
 40
19.0
 40
19.0
 40
19.0
 10
113.4283908136568
 20
-132.5565944764095
 10
113.4283908136568
 20
-132.6516791118024
 10
113.4070312216483
 20
-132.8697536560187
 10
113.2209960654448
 20
-132.9944661125847
 10
113.1086859526256
 20
-133.0685356655176
 10
113.0094672026504
 20
-133.0726697800999
 10
112.9247178537133
 20
-133.0768038946822
 10
112.9247178537133
 20
-133.0768038946822
 10
112.9247178537133
 20
-132.8570068027232
 10
112.9247178537133
 20
-132.8570068027232
 10
112.9987874066461
 20
-132.8549397454321
 10
113.2333984091917
 20
-132.8442599494278
 10
113.2333984091917
 20
-132.5607285909918
 10
113.2333984091917
 20
-132.4232692811303
 10
113.1638074803896
 20
-132.2709960606823
 10
112.935053140169
 20
-132.2709960606823
 10
112.8189534223161
 20
-132.2709960606823
 10
112.7703775759741
 20
-132.30889211102
 10
112.7386826975098
 20
-132.3405869894843
 10
112.6642686350284
 20
-132.4146565424172
 10
112.6518662912815
 20
-132.5311007698186
 10
112.6518662912815
 20
-132.5862222975826
 10
112.6518662912815
 20
-132.6051703227515
 10
112.6539333485726
 20
-132.6409993157981
 10
112.6580674631549
 20
-132.6685600796801
 10
112.6580674631549
 20
-132.6685600796801
 10
112.4637640777868
 20
-132.6685600796801
 10
112.4637640777868
 20
-132.6685600796801
 10
112.4699652496603
 20
-132.6306640293423
 10
112.4720323069514
 20
-132.5882893548738
 10
112.4720323069514
 20
-132.5817436734518
 10
112.4720323069514
 20
-132.5162868592321
 10
112.4506727149429
 20
-132.3175048497331
 10
112.2136501455577
 20
-132.3175048497331
 10
112.0362277280673
 20
-132.3175048497331
 10
111.9811062003033
 20
-132.4487629877212
 10
111.9811062003033
 20
-132.5586615337006
 10
111.9811062003033
 20
-132.8229003574193
 10
112.2136501455577
 20
-132.8315130961324
 10
112.2859971507479
 20
-132.8356472107147
 10
112.2859971507479
 20
-132.8356472107147
 10
112.2859971507479
 20
-133.0389078443444
 10
112.2859971507479
 20
-133.0389078443444
 10
112.1609401846334
 20
-133.0302951056313
 10
111.7843912480956
 20
-133.0027343417493
 10
111.7843912480956
 20
-132.5459146804052
 10
111.7843912480956
 20
-132.3216389643154
 10
111.9111707619528
 20
-132.080482280348
 10
112.2074489736843
 20
-132.080482280348
 10
112.3934841298877
 20
-132.080482280348
 10
112.4761664215337
 20
-132.1755669157408
 10
112.5374891211712
 20
-132.2751301752646
 10
112.5650498850532
 20
-132.2138074756271
 10
112.645665119408
 20
-132.0319064340059
 10
112.9226507964221
 20
-132.0319064340059
 10
113.2609591730737
 20
-132.0319064340059
 10
113.4283908136568
 20
-132.2792642898469
 10
113.4283908136568
 20
-132.5565944764095
 97
        0
 97
        0
 75
     2
 76
     1
 98
        0
  0
SPLINE
  5
1DB
330
1D5
100
AcDbEntity
  8
_U+30EC_U+30A4_U+30E4_U+30FC 1
370
     0
100
AcDbSpline
210
0.0
220
0.0
230
1.0
 70
    11
 71
     3
 72
    29
 73
    25
 74
     0
 42
0.0000000001
 43
0.0000000001
 12
1.0
 22
0.0
 32
0.0
 13
1.0
 23
0.0
 33
0.0
 40
0.0
 40
0.0
 40
0.0
 40
0.0
 40
1.0
 40
1.0
 40
1.0
 40
2.0
 40
2.0
 40
2.0
 40
3.0
 40
3.0
 40
3.0
 40
4.0
 40
4.0
 40
4.0
 40
5.0
 40
5.0
 40
5.0
 40
6.0
 40
6.0
 40
6.0
 40
7.0
 40
7.0
 40
7.0
 40
8.0
 40
8.0
 40
8.0
 40
8.0
 10
113.1996364734362
 20
-130.9735731009372
 30
0.0
 10
113.4090982789394
 20
-131.0814045896255
 30
0.0
 10
113.4283908136568
 20
-131.2546928925336
 30
0.0
 10
113.4283908136568
 20
-131.371137119935
 30
0.0
 10
113.4283908136568
 20
-131.5320230790962
 30
0.0
 10
113.3815375150574
 20
-131.6736165035399
 30
0.0
 10
113.1996364734362
 20
-131.7690456484814
 30
0.0
 10
113.0053330880681
 20
-131.8723985130389
 30
0.0
 10
112.7683105186829
 20
-131.8916910477562
 30
0.0
 10
112.6050129926821
 20
-131.8916910477562
 30
0.0
 10
112.4613525109472
 20
-131.8916910477562
 30
0.0
 10
112.2095160309754
 20
-131.8748100798785
 30
0.0
 10
112.0107340214765
 20
-131.7690456484814
 30
0.0
 10
111.8078178973953
 20
-131.6608696502445
 30
0.0
 10
111.7843912480956
 20
-131.5003282006319
 30
0.0
 10
111.7843912480956
 20
-131.371137119935
 30
0.0
 10
111.7843912480956
 20
-131.2126627276135
 30
0.0
 10
111.8288329798553
 20
-131.0686577363301
 30
0.0
 10
112.0107340214765
 20
-130.9735731009372
 30
0.0
 10
112.203314859102
 20
-130.8740098414135
 30
0.0
 10
112.431724689774
 20
-130.8509277016623
 30
0.0
 10
112.6050129926821
 20
-130.8509277016623
 30
0.0
 10
112.7765787478475
 20
-130.8509277016623
 30
0.0
 10
113.0074001453593
 20
-130.8719427841223
 30
0.0
 10
113.1996364734362
 20
-130.9735731009372
 30
0.0
  0
SPLINE
  5
1DC
330
1D5
100
AcDbEntity
  8
_U+30EC_U+30A4_U+30E4_U+30FC 1
370
     0
100
AcDbSpline
210
0.0
220
0.0
230
1.0
 70
    11
 71
     3
 72
    17
 73
    13
 74
     0
 42
0.0000000001
 43
0.0000000001
 12
1.0
 22
0.0
 32
0.0
 13
1.0
 23
0.0
 33
0.0
 40
0.0
 40
0.0
 40
0.0
 40
0.0
 40
1.0
 40
1.0
 40
1.0
 40
2.0
 40
2.0
 40
2.0
 40
3.0
 40
3.0
 40
3.0
 40
4.0
 40
4.0
 40
4.0
 40
4.0
 10
111.976972085721
 20
-131.371137119935
 30
0.0
 10
111.976972085721
 20
-131.6209065426156
 30
0.0
 10
112.2605034441571
 20
-131.6674153316665
 30
0.0
 10
112.6050129926821
 20
-131.6674153316665
 30
0.0
 10
112.9247178537133
 20
-131.6674153316665
 30
0.0
 10
113.2333984091917
 20
-131.6312418290714
 30
0.0
 10
113.2333984091917
 20
-131.371137119935
 30
0.0
 10
113.2333984091917
 20
-131.1237792640941
 30
0.0
 10
112.9522786175953
 20
-131.0748589082035
 30
0.0
 10
112.6050129926821
 20
-131.0748589082035
 30
0.0
 10
112.2859971507479
 20
-131.0748589082035
 30
0.0
 10
111.976972085721
 20
-131.1130994680898
 30
0.0
 10
111.976972085721
 20
-131.371137119935
 30
0.0
  0
HATCH
  5
1DD
330
1D5
100
AcDbEntity
  8
_U+30EC_U+30A4_U+30E4_U+30FC 1
 62
   179
420
  2234388
100
AcDbHatch
 10
0.0
 20
0.0
 30
0.0
210
0.0
220
0.0
230
1.0
  2
SOLID
 70
     1
 71
     0
 91
        2
 92
        1
 93
        1
 72
     4
 94
        3
 73
     0
 74
     1
 95
       29
 96
       25
 40
0.0
 40
0.0
 40
0.0
 40
0.0
 40
1.0
 40
1.0
 40
1.0
 40
2.0
 40
2.0
 40
2.0
 40
3.0
 40
3.0
 40
3.0
 40
4.0
 40
4.0
 40
4.0
 40
5.0
 40
5.0
 40
5.0
 40
6.0
 40
6.0
 40
6.0
 40
7.0
 40
7.0
 40
7.0
 40
8.0
 40
8.0
 40
8.0
 40
8.0
 10
113.1996364734362
 20
-130.9735731009372
 10
113.4090982789394
 20
-131.0814045896255
 10
113.4283908136568
 20
-131.2546928925336
 10
113.4283908136568
 20
-131.371137119935
 10
113.4283908136568
 20
-131.5320230790962
 10
113.3815375150574
 20
-131.6736165035399
 10
113.1996364734362
 20
-131.7690456484814
 10
113.0053330880681
 20
-131.8723985130389
 10
112.7683105186829
 20
-131.8916910477562
 10
112.6050129926821
 20
-131.8916910477562
 10
112.4613525109472
 20
-131.8916910477562
 10
112.2095160309754
 20
-131.8748100798785
 10
112.0107340214765
 20
-131.7690456484814
 10
111.8078178973953
 20
-131.6608696502445
 10
111.7843912480956
 20
-131.5003282006319
 10
111.7843912480956
 20
-131.371137119935
 10
111.7843912480956
 20
-131.2126627276135
 10
111.8288329798553
 20
-131.0686577363301
 10
112.0107340214765
 20
-130.9735731009372
 10
112.203314859102
 20
-130.8740098414135
 10
112.431724689774
 20
-130.8509277016623
 10
112.6050129926821
 20
-130.8509277016623
 10
112.7765787478475
 20
-130.8509277016623
 10
113.0074001453593
 20
-130.8719427841223
 10
113.1996364734362
 20
-130.9735731009372
 97
        0
 97
        0
 92
        1
 93
        1
 72
     4
 94
        3
 73
     0
 74
     1
 95
       17
 96
       13
 40
0.0
 40
0.0
 40
0.0
 40
0.0
 40
1.0
 40
1.0
 40
1.0
 40
2.0
 40
2.0
 40
2.0
 40
3.0
 40
3.0
 40
3.0
 40
4.0
 40
4.0
 40
4.0
 40
4.0
 10
111.976972085721
 20
-131.371137119935
 10
111.976972085721
 20
-131.6209065426156
 10
112.2605034441571
 20
-131.6674153316665
 10
112.6050129926821
 20
-131.6674153316665
 10
112.9247178537133
 20
-131.6674153316665
 10
113.2333984091917
 20
-131.6312418290714
 10
113.2333984091917
 20
-131.371137119935
 10
113.2333984091917
 20
-131.1237792640941
 10
112.9522786175953
 20
-131.0748589082035
 10
112.6050129926821
 20
-131.0748589082035
 10
112.2859971507479
 20
-131.0748589082035
 10
111.976972085721
 20
-131.1130994680898
 10
111.976972085721
 20
-131.371137119935
 97
        0
 97
        0
 75
     2
 76
     1
 98
        0
  0
ENDBLK
  5
1D8
330
1D5
100
AcDbEntity
  8
0
100
AcDbBlockEnd
  0
BLOCK
  5
1E0
330
1DE
100
AcDbEntity
  8
0
100
AcDbBlockBegin
  2
block 14
 70
     0
 10
0.0
 20
0.0
 30
0.0
  3
block 14
  1

  0
SPLINE
  5
1E2
330
1DE
100
AcDbEntity
  8
_U+30EC_U+30A4_U+30E4_U+30FC 1
370
     0
100
AcDbSpline
210
0.0
220
0.0
230
1.0
 70
    11
 71
     3
 72
    32
 73
    28
 74
     0
 42
0.0000000001
 43
0.0000000001
 12
1.0
 22
0.0
 32
0.0
 13
1.0
 23
0.0
 33
0.0
 40
0.0
 40
0.0
 40
0.0
 40
0.0
 40
1.0
 40
1.0
 40
1.0
 40
2.0
 40
2.0
 40
2.0
 40
3.0
 40
3.0
 40
3.0
 40
4.0
 40
4.0
 40
4.0
 40
5.0
 40
5.0
 40
5.0
 40
6.0
 40
6.0
 40
6.0
 40
7.0
 40
7.0
 40
7.0
 40
8.0
 40
8.0
 40
8.0
 40
9.0
 40
9.0
 40
9.0
 40
9.0
 10
69.21334633686334
 20
-143.9553819084556
 30
0.0
 10
69.21334633686334
 20
-144.471457212146
 30
0.0
 10
68.65903047328663
 20
-144.4800699508592
 30
0.0
 10
68.44543455320114
 20
-144.4800699508592
 30
0.0
 10
68.21478541046366
 20
-144.4800699508592
 30
0.0
 10
67.56745196878522
 20
-144.4611219256903
 30
0.0
 10
67.56745196878522
 20
-143.9174858581179
 30
0.0
 10
67.56745196878522
 20
-143.7438530456613
 30
0.0
 10
67.63721515236153
 20
-143.4985622471115
 30
0.0
 10
67.96932235713962
 20
-143.4603216872252
 30
0.0
 10
67.96932235713962
 20
-143.4603216872252
 30
0.0
 10
67.96932235713962
 20
-143.6742621168592
 30
0.0
 10
67.96932235713962
 20
-143.6742621168592
 30
0.0
 10
67.91230602685873
 20
-143.684597403315
 30
0.0
 10
67.76416692099299
 20
-143.7162922817793
 30
0.0
 10
67.76416692099299
 20
-143.919552915409
 30
0.0
 10
67.76416692099299
 20
-144.2113525030097
 30
0.0
 10
68.09214001118877
 20
-144.2516601201871
 30
0.0
 10
68.2972954473354
 20
-144.264062463934
 30
0.0
 10
68.21909177982023
 20
-144.1710448858323
 30
0.0
 10
68.15983613747393
 20
-144.1035210143214
 30
0.0
 10
68.15983613747393
 20
-143.9216199727002
 30
0.0
 10
68.15983613747393
 20
-143.7417859883701
 30
0.0
 10
68.26766762616225
 20
-143.4393066047652
 30
0.0
 10
68.6738443838732
 20
-143.4393066047652
 30
0.0
 10
68.99320473535587
 20
-143.4393066047652
 30
0.0
 10
69.21334633686334
 20
-143.6380886142641
 30
0.0
 10
69.21334633686334
 20
-143.9553819084556
 30
0.0
  0
SPLINE
  5
1E3
330
1DE
100
AcDbEntity
  8
_U+30EC_U+30A4_U+30E4_U+30FC 1
370
     0
100
AcDbSpline
210
0.0
220
0.0
230
1.0
 70
    11
 71
     3
 72
    17
 73
    13
 74
     0
 42
0.0000000001
 43
0.0000000001
 12
1.0
 22
0.0
 32
0.0
 13
1.0
 23
0.0
 33
0.0
 40
0.0
 40
0.0
 40
0.0
 40
0.0
 40
1.0
 40
1.0
 40
1.0
 40
2.0
 40
2.0
 40
2.0
 40
3.0
 40
3.0
 40
3.0
 40
4.0
 40
4.0
 40
4.0
 40
4.0
 10
68.35448403239054
 20
-143.9385009405779
 30
0.0
 10
68.35448403239054
 20
-144.2006727070054
 30
0.0
 10
68.56601289518488
 20
-144.2389132668917
 30
0.0
 10
68.68228486781207
 20
-144.2389132668917
 30
0.0
 10
68.85781248278555
 20
-144.2389132668917
 30
0.0
 10
69.02076549923787
 20
-144.1434841219503
 30
0.0
 10
69.02076549923787
 20
-143.9595160230379
 30
0.0
 10
69.02076549923787
 20
-143.8389376810541
 30
0.0
 10
68.96150985689157
 20
-143.6632378113064
 30
0.0
 10
68.67591144116436
 20
-143.6632378113064
 30
0.0
 10
68.4516357250746
 20
-143.6632378113064
 30
0.0
 10
68.35448403239054
 20
-143.8031086880076
 30
0.0
 10
68.35448403239054
 20
-143.9385009405779
 30
0.0
  0
HATCH
  5
1E4
330
1DE
100
AcDbEntity
  8
_U+30EC_U+30A4_U+30E4_U+30FC 1
 62
   179
420
  2234388
100
AcDbHatch
 10
0.0
 20
0.0
 30
0.0
210
0.0
220
0.0
230
1.0
  2
SOLID
 70
     1
 71
     0
 91
        2
 92
        1
 93
        1
 72
     4
 94
        3
 73
     0
 74
     1
 95
       32
 96
       28
 40
0.0
 40
0.0
 40
0.0
 40
0.0
 40
1.0
 40
1.0
 40
1.0
 40
2.0
 40
2.0
 40
2.0
 40
3.0
 40
3.0
 40
3.0
 40
4.0
 40
4.0
 40
4.0
 40
5.0
 40
5.0
 40
5.0
 40
6.0
 40
6.0
 40
6.0
 40
7.0
 40
7.0
 40
7.0
 40
8.0
 40
8.0
 40
8.0
 40
9.0
 40
9.0
 40
9.0
 40
9.0
 10
69.21334633686334
 20
-143.9553819084556
 10
69.21334633686334
 20
-144.471457212146
 10
68.65903047328663
 20
-144.4800699508592
 10
68.44543455320114
 20
-144.4800699508592
 10
68.21478541046366
 20
-144.4800699508592
 10
67.56745196878522
 20
-144.4611219256903
 10
67.56745196878522
 20
-143.9174858581179
 10
67.56745196878522
 20
-143.7438530456613
 10
67.63721515236153
 20
-143.4985622471115
 10
67.96932235713962
 20
-143.4603216872252
 10
67.96932235713962
 20
-143.4603216872252
 10
67.96932235713962
 20
-143.6742621168592
 10
67.96932235713962
 20
-143.6742621168592
 10
67.91230602685873
 20
-143.684597403315
 10
67.76416692099299
 20
-143.7162922817793
 10
67.76416692099299
 20
-143.919552915409
 10
67.76416692099299
 20
-144.2113525030097
 10
68.09214001118877
 20
-144.2516601201871
 10
68.2972954473354
 20
-144.264062463934
 10
68.21909177982023
 20
-144.1710448858323
 10
68.15983613747393
 20
-144.1035210143214
 10
68.15983613747393
 20
-143.9216199727002
 10
68.15983613747393
 20
-143.7417859883701
 10
68.26766762616225
 20
-143.4393066047652
 10
68.6738443838732
 20
-143.4393066047652
 10
68.99320473535587
 20
-143.4393066047652
 10
69.21334633686334
 20
-143.6380886142641
 10
69.21334633686334
 20
-143.9553819084556
 97
        0
 97
        0
 92
        1
 93
        1
 72
     4
 94
        3
 73
     0
 74
     1
 95
       17
 96
       13
 40
0.0
 40
0.0
 40
0.0
 40
0.0
 40
1.0
 40
1.0
 40
1.0
 40
2.0
 40
2.0
 40
2.0
 40
3.0
 40
3.0
 40
3.0
 40
4.0
 40
4.0
 40
4.0
 40
4.0
 10
68.35448403239054
 20
-143.9385009405779
 10
68.35448403239054
 20
-144.2006727070054
 10
68.56601289518488
 20
-144.2389132668917
 10
68.68228486781207
 20
-144.2389132668917
 10
68.85781248278555
 20
-144.2389132668917
 10
69.02076549923787
 20
-144.1434841219503
 10
69.02076549923787
 20
-143.9595160230379
 10
69.02076549923787
 20
-143.8389376810541
 10
68.96150985689157
 20
-143.6632378113064
 10
68.67591144116436
 20
-143.6632378113064
 10
68.4516357250746
 20
-143.6632378113064
 10
68.35448403239054
 20
-143.8031086880076
 10
68.35448403239054
 20
-143.9385009405779
 97
        0
 97
        0
 75
     2
 76
     1
 98
        0
  0
ENDBLK
  5
1E1
330
1DE
100
AcDbEntity
  8
0
100
AcDbBlockEnd
  0
BLOCK
  5
1E7
330
1E5
100
AcDbEntity
  8
0
100
AcDbBlockBegin
  2
block 15
 70
     0
 10
0.0
 20
0.0
 30
0.0
  3
block 15
  1

  0
SPLINE
  5
1E9
330
1E5
100
AcDbEntity
  8
_U+30EC_U+30A4_U+30E4_U+30FC 1
370
     0
100
AcDbSpline
210
0.0
220
0.0
230
1.0
 70
    11
 71
     3
 72
    32
 73
    28
 74
     0
 42
0.0000000001
 43
0.0000000001
 12
1.0
 22
0.0
 32
0.0
 13
1.0
 23
0.0
 33
0.0
 40
0.0
 40
0.0
 40
0.0
 40
0.0
 40
1.0
 40
1.0
 40
1.0
 40
2.0
 40
2.0
 40
2.0
 40
3.0
 40
3.0
 40
3.0
 40
4.0
 40
4.0
 40
4.0
 40
5.0
 40
5.0
 40
5.0
 40
6.0
 40
6.0
 40
6.0
 40
7.0
 40
7.0
 40
7.0
 40
8.0
 40
8.0
 40
8.0
 40
9.0
 40
9.0
 40
9.0
 40
9.0
 10
113.4283908136568
 20
-113.9556626776743
 30
0.0
 10
113.4283908136568
 20
-114.471910236139
 30
0.0
 10
112.8737304405316
 20
-114.4803507200778
 30
0.0
 10
112.6601345204461
 20
-114.4803507200778
 30
0.0
 10
112.4296576324829
 20
-114.4803507200778
 30
0.0
 10
111.7823241908044
 20
-114.4612304401347
 30
0.0
 10
111.7823241908044
 20
-113.9175943725623
 30
0.0
 10
111.7823241908044
 20
-113.7441338148799
 30
0.0
 10
111.8519151196065
 20
-113.4988430163302
 30
0.0
 10
112.1840223243846
 20
-113.4606024564439
 30
0.0
 10
112.1840223243846
 20
-113.4606024564439
 30
0.0
 10
112.1840223243846
 20
-113.6743706313036
 30
0.0
 10
112.1840223243846
 20
-113.6743706313036
 30
0.0
 10
112.1271782488779
 20
-113.6848781725336
 30
0.0
 10
111.9790391430122
 20
-113.716573050998
 30
0.0
 10
111.9790391430122
 20
-113.9196614298534
 30
0.0
 10
111.9790391430122
 20
-114.2116332722283
 30
0.0
 10
112.307012233208
 20
-114.2519408894058
 30
0.0
 10
112.5119954145803
 20
-114.2645154879269
 30
0.0
 10
112.4341362566137
 20
-114.1714979098252
 30
0.0
 10
112.3748806142674
 20
-114.10380178354
 30
0.0
 10
112.3748806142674
 20
-113.9219007419188
 30
0.0
 10
112.3748806142674
 20
-113.7420667575888
 30
0.0
 10
112.4823675934072
 20
-113.4395873739839
 30
0.0
 10
112.8888888606667
 20
-113.4395873739839
 30
0.0
 10
113.2079047026008
 20
-113.4395873739839
 30
0.0
 10
113.4283908136568
 20
-113.6383693834828
 30
0.0
 10
113.4283908136568
 20
-113.9556626776743
 30
0.0
  0
SPLINE
  5
1EA
330
1E5
100
AcDbEntity
  8
_U+30EC_U+30A4_U+30E4_U+30FC 1
370
     0
100
AcDbSpline
210
0.0
220
0.0
230
1.0
 70
    11
 71
     3
 72
    17
 73
    13
 74
     0
 42
0.0000000001
 43
0.0000000001
 12
1.0
 22
0.0
 32
0.0
 13
1.0
 23
0.0
 33
0.0
 40
0.0
 40
0.0
 40
0.0
 40
0.0
 40
1.0
 40
1.0
 40
1.0
 40
2.0
 40
2.0
 40
2.0
 40
3.0
 40
3.0
 40
3.0
 40
4.0
 40
4.0
 40
4.0
 40
4.0
 10
112.5691839996355
 20
-113.9387817097966
 30
0.0
 10
112.5691839996355
 20
-114.2011257309983
 30
0.0
 10
112.7807128624298
 20
-114.2391940361103
 30
0.0
 10
112.8971570898313
 20
-114.2391940361103
 30
0.0
 10
113.072856959579
 20
-114.2391940361103
 30
0.0
 10
113.2354654664828
 20
-114.1439371459432
 30
0.0
 10
113.2354654664828
 20
-113.9599690470309
 30
0.0
 10
113.2354654664828
 20
-113.8393907050471
 30
0.0
 10
113.1762098241365
 20
-113.6636908352994
 30
0.0
 10
112.8909559179578
 20
-113.6636908352994
 30
0.0
 10
112.6663356923195
 20
-113.6636908352994
 30
0.0
 10
112.5691839996355
 20
-113.8033894572262
 30
0.0
 10
112.5691839996355
 20
-113.9387817097966
 30
0.0
  0
HATCH
  5
1EB
330
1E5
100
AcDbEntity
  8
_U+30EC_U+30A4_U+30E4_U+30FC 1
 62
   179
420
  2234388
100
AcDbHatch
 10
0.0
 20
0.0
 30
0.0
210
0.0
220
0.0
230
1.0
  2
SOLID
 70
     1
 71
     0
 91
        2
 92
        1
 93
        1
 72
     4
 94
        3
 73
     0
 74
     1
 95
       32
 96
       28
 40
0.0
 40
0.0
 40
0.0
 40
0.0
 40
1.0
 40
1.0
 40
1.0
 40
2.0
 40
2.0
 40
2.0
 40
3.0
 40
3.0
 40
3.0
 40
4.0
 40
4.0
 40
4.0
 40
5.0
 40
5.0
 40
5.0
 40
6.0
 40
6.0
 40
6.0
 40
7.0
 40
7.0
 40
7.0
 40
8.0
 40
8.0
 40
8.0
 40
9.0
 40
9.0
 40
9.0
 40
9.0
 10
113.4283908136568
 20
-113.9556626776743
 10
113.4283908136568
 20
-114.471910236139
 10
112.8737304405316
 20
-114.4803507200778
 10
112.6601345204461
 20
-114.4803507200778
 10
112.4296576324829
 20
-114.4803507200778
 10
111.7823241908044
 20
-114.4612304401347
 10
111.7823241908044
 20
-113.9175943725623
 10
111.7823241908044
 20
-113.7441338148799
 10
111.8519151196065
 20
-113.4988430163302
 10
112.1840223243846
 20
-113.4606024564439
 10
112.1840223243846
 20
-113.4606024564439
 10
112.1840223243846
 20
-113.6743706313036
 10
112.1840223243846
 20
-113.6743706313036
 10
112.1271782488779
 20
-113.6848781725336
 10
111.9790391430122
 20
-113.716573050998
 10
111.9790391430122
 20
-113.9196614298534
 10
111.9790391430122
 20
-114.2116332722283
 10
112.307012233208
 20
-114.2519408894058
 10
112.5119954145803
 20
-114.2645154879269
 10
112.4341362566137
 20
-114.1714979098252
 10
112.3748806142674
 20
-114.10380178354
 10
112.3748806142674
 20
-113.9219007419188
 10
112.3748806142674
 20
-113.7420667575888
 10
112.4823675934072
 20
-113.4395873739839
 10
112.8888888606667
 20
-113.4395873739839
 10
113.2079047026008
 20
-113.4395873739839
 10
113.4283908136568
 20
-113.6383693834828
 10
113.4283908136568
 20
-113.9556626776743
 97
        0
 97
        0
 92
        1
 93
        1
 72
     4
 94
        3
 73
     0
 74
     1
 95
       17
 96
       13
 40
0.0
 40
0.0
 40
0.0
 40
0.0
 40
1.0
 40
1.0
 40
1.0
 40
2.0
 40
2.0
 40
2.0
 40
3.0
 40
3.0
 40
3.0
 40
4.0
 40
4.0
 40
4.0
 40
4.0
 10
112.5691839996355
 20
-113.9387817097966
 10
112.5691839996355
 20
-114.2011257309983
 10
112.7807128624298
 20
-114.2391940361103
 10
112.8971570898313
 20
-114.2391940361103
 10
113.072856959579
 20
-114.2391940361103
 10
113.2354654664828
 20
-114.1439371459432
 10
113.2354654664828
 20
-113.9599690470309
 10
113.2354654664828
 20
-113.8393907050471
 10
113.1762098241365
 20
-113.6636908352994
 10
112.8909559179578
 20
-113.6636908352994
 10
112.6663356923195
 20
-113.6636908352994
 10
112.5691839996355
 20
-113.8033894572262
 10
112.5691839996355
 20
-113.9387817097966
 97
        0
 97
        0
 75
     2
 76
     1
 98
        0
  0
ENDBLK
  5
1E8
330
1E5
100
AcDbEntity
  8
0
100
AcDbBlockEnd
  0
ENDSEC
  0
SECTION
  2
ENTITIES
  0
INSERT
  5
42
330
1F
100
AcDbEntity
  8
_U+30EC_U+30A4_U+30E4_U+30FC 1
100
AcDbBlockReference
  2
block 2
 10
0.0
 20
0.0
 30
0.0
  0
INSERT
  5
7A
330
1F
100
AcDbEntity
  8
_U+30EC_U+30A4_U+30E4_U+30FC 1
100
AcDbBlockReference
  2
block 4
 10
0.0
 20
0.0
 30
0.0
  0
ENDSEC
  0
SECTION
  2
OBJECTS
  0
DICTIONARY
  5
C
330
0
100
AcDbDictionary
281
     1
  3
ACAD_GROUP
350
D
  3
ACAD_LAYOUT
350
1A
  3
ACAD_MATERIAL
350
3B
  3
ACAD_MLEADERSTYLE
350
1ED
  3
ACAD_MLINESTYLE
350
17
  3
ACAD_PLOTSETTINGS
350
19
  3
ACAD_PLOTSTYLENAME
350
E
  3
ACAD_TABLESTYLE
350
1EC
  3
ACAD_VISUALSTYLE
350
2A
  0
SUN
  5
3F
330
29
100
AcDbSun
 90
        1
290
     0
 63
     7
421
 16777215
 40
1.0
291
     1
 91
  2455826
 92
 54000000
292
     0
 70
     2
 71
   256
280
     1
  0
DICTIONARY
  5
D
102
{ACAD_REACTORS
330
C
102
}
330
C
100
AcDbDictionary
281
     1
  0
DICTIONARY
  5
1A
102
{ACAD_REACTORS
330
C
102
}
330
C
100
AcDbDictionary
281
     1
  3
Layout1
350
1E
  3
Layout2
350
26
  3
Model
350
22
  0
DICTIONARY
  5
3B
102
{ACAD_REACTORS
330
C
102
}
330
C
100
AcDbDictionary
281
     1
  3
ByBlock
350
3D
  3
ByLayer
350
3C
  3
Global
350
3E
  0
DICTIONARY
  5
1ED
102
{ACAD_REACTORS
330
C
102
}
330
C
100
AcDbDictionary
281
     1
  0
DICTIONARY
  5
17
102
{ACAD_REACTORS
330
C
102
}
330
C
100
AcDbDictionary
281
     1
  3
Standard
350
18
  0
DICTIONARY
  5
19
102
{ACAD_REACTORS
330
C
102
}
330
C
100
AcDbDictionary
281
     1
  0
ACDBDICTIONARYWDFLT
  5
E
102
{ACAD_REACTORS
330
C
102
}
330
C
100
AcDbDictionary
281
     1
  3
Normal
350
F
100
AcDbDictionaryWithDefault
340
F
  0
DICTIONARY
  5
1EC
102
{ACAD_REACTORS
330
C
102
}
330
C
100
AcDbDictionary
281
     1
  0
DICTIONARY
  5
2A
102
{ACAD_REACTORS
330
C
102
}
330
C
100
AcDbDictionary
281
     1
  3
2dWireframe
350
2F
  3
3D Hidden
350
31
  3
3dWireframe
350
30
  3
Basic
350
32
  3
Brighten
350
36
  3
ColorChange
350
3A
  3
Conceptual
350
34
  3
Dim
350
35
  3
Facepattern
350
39
  3
Flat
350
2B
  3
FlatWithEdges
350
2C
  3
Gouraud
350
2D
  3
GouraudWithEdges
350
2E
  3
Linepattern
350
38
  3
Realistic
350
33
  3
Thicken
350
37
  0
LAYOUT
  5
1E
102
{ACAD_REACTORS
330
1A
102
}
330
1A
100
AcDbPlotSettings
  1

  2
none_device
  4

  6

 40
0.0
 41
0.0
 42
0.0
 43
0.0
 44
0.0
 45
0.0
 46
0.0
 47
0.0
 48
0.0
 49
0.0
140
0.0
141
0.0
142
1.0
143
1.0
 70
   688
 72
     0
 73
     0
 74
     5
  7

 75
    16
 76
     0
 77
     2
 78
   300
147
1.0
148
0.0
149
0.0
100
AcDbLayout
  1
Layout1
 70
     1
 71
     1
 10
0.0
 20
0.0
 11
12.0
 21
9.0
 12
0.0
 22
0.0
 32
0.0
 14
1.000000000000000E+20
 24
1.000000000000000E+20
 34
1.000000000000000E+20
 15
-1.000000000000000E+20
 25
-1.000000000000000E+20
 35
-1.000000000000000E+20
146
0.0
 13
0.0
 23
0.0
 33
0.0
 16
1.0
 26
0.0
 36
0.0
 17
0.0
 27
1.0
 37
0.0
 76
     0
330
1B
  0
LAYOUT
  5
26
102
{ACAD_REACTORS
330
1A
102
}
330
1A
100
AcDbPlotSettings
  1

  2
none_device
  4

  6

 40
0.0
 41
0.0
 42
0.0
 43
0.0
 44
0.0
 45
0.0
 46
0.0
 47
0.0
 48
0.0
 49
0.0
140
0.0
141
0.0
142
1.0
143
1.0
 70
   688
 72
     0
 73
     0
 74
     5
  7

 75
    16
 76
     0
 77
     2
 78
   300
147
1.0
148
0.0
149
0.0
100
AcDbLayout
  1
Layout2
 70
     1
 71
     2
 10
0.0
 20
0.0
 11
0.0
 21
0.0
 12
0.0
 22
0.0
 32
0.0
 14
0.0
 24
0.0
 34
0.0
 15
0.0
 25
0.0
 35
0.0
146
0.0
 13
0.0
 23
0.0
 33
0.0
 16
1.0
 26
0.0
 36
0.0
 17
0.0
 27
1.0
 37
0.0
 76
     0
330
23
  0
LAYOUT
  5
22
102
{ACAD_REACTORS
330
1A
102
}
330
1A
100
AcDbPlotSettings
  1

  2
none_device
  4

  6

 40
0.0
 41
0.0
 42
0.0
 43
0.0
 44
0.0
 45
0.0
 46
0.0
 47
0.0
 48
0.0
 49
0.0
140
0.0
141
0.0
142
1.0
143
1.0
 70
  1712
 72
     0
 73
     0
 74
     0
  7

 75
     0
 76
     0
 77
     2
 78
   300
147
1.0
148
0.0
149
0.0
100
AcDbLayout
  1
Model
 70
     1
 71
     0
 10
0.0
 20
0.0
 11
12.0
 21
9.0
 12
0.0
 22
0.0
 32
0.0
 14
1.000000000000000E+20
 24
1.000000000000000E+20
 34
1.000000000000000E+20
 15
-1.000000000000000E+20
 25
-1.000000000000000E+20
 35
-1.000000000000000E+20
146
0.0
 13
0.0
 23
0.0
 33
0.0
 16
1.0
 26
0.0
 36
0.0
 17
0.0
 27
1.0
 37
0.0
 76
     0
330
1F
331
29
  0
MATERIAL
  5
3D
102
{ACAD_REACTORS
330
3B
102
}
330
3B
100
AcDbMaterial
  1
ByBlock
 72
     1
 94
      127
  0
MATERIAL
  5
3C
102
{ACAD_REACTORS
330
3B
102
}
330
3B
100
AcDbMaterial
  1
ByLayer
 72
     1
 94
      127
  0
MATERIAL
  5
3E
102
{ACAD_REACTORS
330
3B
102
}
330
3B
100
AcDbMaterial
  1
Global
 72
     1
 94
      127
  0
MLINESTYLE
  5
18
102
{ACAD_REACTORS
330
17
102
}
330
17
100
AcDbMlineStyle
  2
Standard
 70
     0
  3

 62
   256
 51
90.0
 52
90.0
 71
     2
 49
0.5
 62
   256
  6
BYLAYER
 49
-0.5
 62
   256
  6
BYLAYER
  0
ACDBPLACEHOLDER
  5
F
102
{ACAD_REACTORS
330
E
102
}
330
E
  0
VISUALSTYLE
  5
2F
102
{ACAD_REACTORS
330
2A
102
}
330
2A
100
AcDbVisualStyle
  2
2dWireframe
 70
     4
177
     2
291
     0
 71
     0
176
     1
 72
     2
176
     1
 73
     0
176
     1
 90
        0
176
     1
 40
-0.6
176
     1
 41
-30.0
176
     1
 62
     5
 63
     7
421
 16777215
176
     1
 74
     1
176
     1
 91
        4
176
     1
 64
     7
176
     1
 65
   257
176
     1
 75
     1
176
     1
175
     1
176
     1
 42
1.0
176
     1
 92
        0
176
     1
 66
   257
176
     1
 43
1.0
176
     1
 76
     1
176
     1
 77
     6
176
     1
 78
     2
176
     1
 67
     7
176
     1
 79
     5
176
     1
170
     0
176
     1
171
     0
176
     1
290
     0
176
     1
 93
        1
176
     1
 44
0.0
176
     1
173
     0
176
     1
  0
VISUALSTYLE
  5
31
102
{ACAD_REACTORS
330
2A
102
}
330
2A
100
AcDbVisualStyle
  2
3D Hidden
 70
     6
177
     2
291
     0
 71
     1
176
     1
 72
     2
176
     1
 73
     2
176
     1
 90
        0
176
     1
 40
-0.6
176
     1
 41
-30.0
176
     1
 62
     5
 63
     7
421
 16777215
176
     1
 74
     2
176
     1
 91
        2
176
     1
 64
     7
176
     1
 65
   257
176
     1
 75
     2
176
     1
175
     1
176
     1
 42
40.0
176
     1
 92
        0
176
     1
 66
   257
176
     1
 43
1.0
176
     1
 76
     1
176
     1
 77
     6
176
     1
 78
     2
176
     1
 67
     7
176
     1
 79
     3
176
     1
170
     0
176
     1
171
     0
176
     1
290
     0
176
     1
 93
        1
176
     1
 44
0.0
176
     1
173
     0
176
     1
  0
VISUALSTYLE
  5
30
102
{ACAD_REACTORS
330
2A
102
}
330
2A
100
AcDbVisualStyle
  2
3dWireframe
 70
     5
177
     2
291
     0
 71
     0
176
     1
 72
     2
176
     1
 73
     0
176
     1
 90
        0
176
     1
 40
-0.6
176
     1
 41
-30.0
176
     1
 62
     5
 63
     7
421
 16777215
176
     1
 74
     1
176
     1
 91
        4
176
     1
 64
     7
176
     1
 65
   257
176
     1
 75
     1
176
     1
175
     1
176
     1
 42
1.0
176
     1
 92
        0
176
     1
 66
   257
176
     1
 43
1.0
176
     1
 76
     1
176
     1
 77
     6
176
     1
 78
     2
176
     1
 67
     7
176
     1
 79
     5
176
     1
170
     0
176
     1
171
     0
176
     1
290
     0
176
     1
 93
        1
176
     1
 44
0.0
176
     1
173
     0
176
     1
  0
VISUALSTYLE
  5
32
102
{ACAD_REACTORS
330
2A
102
}
330
2A
100
AcDbVisualStyle
  2
Basic
 70
     7
177
     2
291
     1
 71
     1
176
     1
 72
     0
176
     1
 73
     1
176
     1
 90
        0
176
     1
 40
-0.6
176
     1
 41
-30.0
176
     1
 62
     5
 63
     7
421
 16777215
176
     1
 74
     0
176
     1
 91
        4
176
     1
 64
     7
176
     1
 65
   257
176
     1
 75
     1
176
     1
175
     1
176
     1
 42
1.0
176
     1
 92
        8
176
     1
 66
     7
176
     1
 43
1.0
176
     1
 76
     1
176
     1
 77
     6
176
     1
 78
     2
176
     1
 67
     7
176
     1
 79
     5
176
     1
170
     0
176
     1
171
     0
176
     1
290
     0
176
     1
 93
        1
176
     1
 44
0.0
176
     1
173
     0
176
     1
  0
VISUALSTYLE
  5
36
102
{ACAD_REACTORS
330
2A
102
}
330
2A
100
AcDbVisualStyle
  2
Brighten
 70
    12
177
     2
291
     1
 71
     2
176
     1
 72
     2
176
     1
 73
     0
176
     1
 90
        0
176
     1
 40
-0.6
176
     1
 41
-30.0
176
     1
 62
     5
 63
     7
421
 16777215
176
     1
 74
     1
176
     1
 91
        4
176
     1
 64
     7
176
     1
 65
   257
176
     1
 75
     1
176
     1
175
     1
176
     1
 42
1.0
176
     1
 92
        8
176
     1
 66
     7
176
     1
 43
1.0
176
     1
 76
     1
176
     1
 77
     6
176
     1
 78
     2
176
     1
 67
     7
176
     1
 79
     5
176
     1
170
     0
176
     1
171
     0
176
     1
290
     0
176
     1
 93
        1
176
     1
 44
50.0
176
     1
173
     0
176
     1
  0
VISUALSTYLE
  5
3A
102
{ACAD_REACTORS
330
2A
102
}
330
2A
100
AcDbVisualStyle
  2
ColorChange
 70
    16
177
     2
291
     1
 71
     2
176
     1
 72
     2
176
     1
 73
     3
176
     1
 90
        0
176
     1
 40
-0.6
176
     1
 41
-30.0
176
     1
 62
     5
 63
     8
421
  8421504
176
     1
 74
     1
176
     1
 91
        4
176
     1
 64
     7
176
     1
 65
   257
176
     1
 75
     1
176
     1
175
     1
176
     1
 42
1.0
176
     1
 92
        8
176
     1
 66
     8
424
  8421504
176
     1
 43
1.0
176
     1
 76
     1
176
     1
 77
     6
176
     1
 78
     2
176
     1
 67
     7
176
     1
 79
     5
176
     1
170
     0
176
     1
171
     0
176
     1
290
     0
176
     1
 93
        1
176
     1
 44
0.0
176
     1
173
     0
176
     1
  0
VISUALSTYLE
  5
34
102
{ACAD_REACTORS
330
2A
102
}
330
2A
100
AcDbVisualStyle
  2
Conceptual
 70
     9
177
     2
291
     0
 71
     3
176
     1
 72
     2
176
     1
 73
     0
176
     1
 90
        0
176
     1
 40
-0.6
176
     1
 41
-30.0
176
     1
 62
     5
 63
     7
421
 16777215
176
     1
 74
     2
176
     1
 91
        2
176
     1
 64
     7
176
     1
 65
   257
176
     1
 75
     1
176
     1
175
     1
176
     1
 42
40.0
176
     1
 92
        8
176
     1
 66
     7
176
     1
 43
1.0
176
     1
 76
     1
176
     1
 77
     6
176
     1
 78
     2
176
     1
 67
     7
176
     1
 79
     3
176
     1
170
     0
176
     1
171
     0
176
     1
290
     0
176
     1
 93
        1
176
     1
 44
0.0
176
     1
173
     0
176
     1
  0
VISUALSTYLE
  5
35
102
{ACAD_REACTORS
330
2A
102
}
330
2A
100
AcDbVisualStyle
  2
Dim
 70
    11
177
     2
291
     1
 71
     2
176
     1
 72
     2
176
     1
 73
     0
176
     1
 90
        0
176
     1
 40
-0.6
176
     1
 41
-30.0
176
     1
 62
     5
 63
     7
421
 16777215
176
     1
 74
     1
176
     1
 91
        4
176
     1
 64
     7
176
     1
 65
   257
176
     1
 75
     1
176
     1
175
     1
176
     1
 42
1.0
176
     1
 92
        8
176
     1
 66
     7
176
     1
 43
1.0
176
     1
 76
     1
176
     1
 77
     6
176
     1
 78
     2
176
     1
 67
     7
176
     1
 79
     5
176
     1
170
     0
176
     1
171
     0
176
     1
290
     0
176
     1
 93
        1
176
     1
 44
-50.0
176
     1
173
     0
176
     1
  0
VISUALSTYLE
  5
39
102
{ACAD_REACTORS
330
2A
102
}
330
2A
100
AcDbVisualStyle
  2
Facepattern
 70
    15
177
     2
291
     1
 71
     2
176
     1
 72
     2
176
     1
 73
     0
176
     1
 90
        0
176
     1
 40
-0.6
176
     1
 41
-30.0
176
     1
 62
     5
 63
     7
421
 16777215
176
     1
 74
     1
176
     1
 91
        4
176
     1
 64
     7
176
     1
 65
   257
176
     1
 75
     1
176
     1
175
     1
176
     1
 42
1.0
176
     1
 92
        8
176
     1
 66
     7
176
     1
 43
1.0
176
     1
 76
     1
176
     1
 77
     6
176
     1
 78
     2
176
     1
 67
     7
176
     1
 79
     5
176
     1
170
     0
176
     1
171
     0
176
     1
290
     0
176
     1
 93
        1
176
     1
 44
0.0
176
     1
173
     0
176
     1
  0
VISUALSTYLE
  5
2B
102
{ACAD_REACTORS
330
2A
102
}
330
2A
100
AcDbVisualStyle
  2
Flat
 70
     0
177
     2
291
     1
 71
     2
176
     1
 72
     1
176
     1
 73
     1
176
     1
 90
        2
176
     1
 40
-0.6
176
     1
 41
30.0
176
     1
 62
     5
 63
     7
421
 16777215
176
     1
 74
     0
176
     1
 91
        4
176
     1
 64
     7
176
     1
 65
   257
176
     1
 75
     1
176
     1
175
     1
176
     1
 42
1.0
176
     1
 92
        8
176
     1
 66
     7
176
     1
 43
1.0
176
     1
 76
     1
176
     1
 77
     6
176
     1
 78
     2
176
     1
 67
     7
176
     1
 79
     5
176
     1
170
     0
176
     1
171
     0
176
     1
290
     0
176
     1
 93
       13
176
     1
 44
0.0
176
     1
173
     0
176
     1
  0
VISUALSTYLE
  5
2C
102
{ACAD_REACTORS
330
2A
102
}
330
2A
100
AcDbVisualStyle
  2
FlatWithEdges
 70
     1
177
     2
291
     1
 71
     2
176
     1
 72
     1
176
     1
 73
     1
176
     1
 90
        2
176
     1
 40
-0.6
176
     1
 41
30.0
176
     1
 62
     5
 63
     7
421
 16777215
176
     1
 74
     1
176
     1
 91
        4
176
     1
 64
     7
176
     1
 65
   257
176
     1
 75
     1
176
     1
175
     1
176
     1
 42
1.0
176
     1
 92
        0
176
     1
 66
   257
176
     1
 43
1.0
176
     1
 76
     1
176
     1
 77
     6
176
     1
 78
     2
176
     1
 67
     7
176
     1
 79
     5
176
     1
170
     0
176
     1
171
     0
176
     1
290
     0
176
     1
 93
       13
176
     1
 44
0.0
176
     1
173
     0
176
     1
  0
VISUALSTYLE
  5
2D
102
{ACAD_REACTORS
330
2A
102
}
330
2A
100
AcDbVisualStyle
  2
Gouraud
 70
     2
177
     2
291
     1
 71
     2
176
     1
 72
     2
176
     1
 73
     1
176
     1
 90
        2
176
     1
 40
-0.6
176
     1
 41
30.0
176
     1
 62
     5
 63
     7
421
 16777215
176
     1
 74
     0
176
     1
 91
        4
176
     1
 64
     7
176
     1
 65
   257
176
     1
 75
     1
176
     1
175
     1
176
     1
 42
1.0
176
     1
 92
        0
176
     1
 66
     7
176
     1
 43
1.0
176
     1
 76
     1
176
     1
 77
     6
176
     1
 78
     2
176
     1
 67
     7
176
     1
 79
     5
176
     1
170
     0
176
     1
171
     0
176
     1
290
     0
176
     1
 93
       13
176
     1
 44
0.0
176
     1
173
     0
176
     1
  0
VISUALSTYLE
  5
2E
102
{ACAD_REACTORS
330
2A
102
}
330
2A
100
AcDbVisualStyle
  2
GouraudWithEdges
 70
     3
177
     2
291
     1
 71
     2
176
     1
 72
     2
176
     1
 73
     1
176
     1
 90
        2
176
     1
 40
-0.6
176
     1
 41
30.0
176
     1
 62
     5
 63
     7
421
 16777215
176
     1
 74
     1
176
     1
 91
        4
176
     1
 64
     7
176
     1
 65
   257
176
     1
 75
     1
176
     1
175
     1
176
     1
 42
1.0
176
     1
 92
        0
176
     1
 66
   257
176
     1
 43
1.0
176
     1
 76
     1
176
     1
 77
     6
176
     1
 78
     2
176
     1
 67
     7
176
     1
 79
     5
176
     1
170
     0
176
     1
171
     0
176
     1
290
     0
176
     1
 93
       13
176
     1
 44
0.0
176
     1
173
     0
176
     1
  0
VISUALSTYLE
  5
38
102
{ACAD_REACTORS
330
2A
102
}
330
2A
100
AcDbVisualStyle
  2
Linepattern
 70
    14
177
     2
291
     1
 71
     2
176
     1
 72
     2
176
     1
 73
     0
176
     1
 90
        0
176
     1
 40
-0.6
176
     1
 41
-30.0
176
     1
 62
     5
 63
     7
421
 16777215
176
     1
 74
     1
176
     1
 91
        4
176
     1
 64
     7
176
     1
 65
   257
176
     1
 75
     7
176
     1
175
     7
176
     1
 42
1.0
176
     1
 92
        8
176
     1
 66
     7
176
     1
 43
1.0
176
     1
 76
     1
176
     1
 77
     6
176
     1
 78
     2
176
     1
 67
     7
176
     1
 79
     5
176
     1
170
     0
176
     1
171
     0
176
     1
290
     0
176
     1
 93
        1
176
     1
 44
0.0
176
     1
173
     0
176
     1
  0
VISUALSTYLE
  5
33
102
{ACAD_REACTORS
330
2A
102
}
330
2A
100
AcDbVisualStyle
  2
Realistic
 70
     8
177
     2
291
     0
 71
     2
176
     1
 72
     2
176
     1
 73
     0
176
     1
 90
        0
176
     1
 40
-0.6
176
     1
 41
-30.0
176
     1
 62
     5
 63
     7
421
 16777215
176
     1
 74
     1
176
     1
 91
        0
176
     1
 64
     7
176
     1
 65
   257
176
     1
 75
     1
176
     1
175
     1
176
     1
 42
1.0
176
     1
 92
        8
176
     1
 66
     8
424
  7895160
176
     1
 43
1.0
176
     1
 76
     1
176
     1
 77
     6
176
     1
 78
     2
176
     1
 67
     7
176
     1
 79
     5
176
     1
170
     0
176
     1
171
     0
176
     1
290
     0
176
     1
 93
       13
176
     1
 44
0.0
176
     1
173
     0
176
     1
  0
VISUALSTYLE
  5
37
102
{ACAD_REACTORS
330
2A
102
}
330
2A
100
AcDbVisualStyle
  2
Thicken
 70
    13
177
     2
291
     1
 71
     2
176
     1
 72
     2
176
     1
 73
     0
176
     1
 90
        0
176
     1
 40
-0.6
176
     1
 41
-30.0
176
     1
 62
     5
 63
     7
421
 16777215
176
     1
 74
     1
176
     1
 91
        4
176
     1
 64
     7
176
     1
 65
   257
176
     1
 75
     1
176
     1
175
     1
176
     1
 42
1.0
176
     1
 92
       12
176
     1
 66
     7
176
     1
 43
1.0
176
     1
 76
     1
176
     1
 77
     6
176
     1
 78
     2
176
     1
 67
     7
176
     1
 79
     5
176
     1
170
     0
176
     1
171
     0
176
     1
290
     0
176
     1
 93
        1
176
     1
 44
0.0
176
     1
173
     0
176
     1
  0
ENDSEC
  0
EOF
