  0
SECTION
  2
HEADER
  9
$ACADVER
  1
AC1024
  9
$ACADMAINTVER
 70
     6
  9
$DWGCODEPAGE
  3
UNDEFINED
  9
$INSBASE
 10
0.0
 20
0.0
 30
0.0
  9
$EXTMIN
 10
1.000000000000000E+20
 20
1.000000000000000E+20
 30
1.000000000000000E+20
  9
$EXTMAX
 10
-1.000000000000000E+20
 20
-1.000000000000000E+20
 30
-1.000000000000000E+20
  9
$LIMMIN
 10
0.0
 20
0.0
  9
$LIMMAX
 10
12.0
 20
9.0
  9
$ORTHOMODE
 70
     0
  9
$REGENMODE
 70
     1
  9
$FILLMODE
 70
     1
  9
$QTEXTMODE
 70
     0
  9
$MIRRTEXT
 70
     1
  9
$LTSCALE
 40
1.0
  9
$ATTMODE
 70
     1
  9
$TEXTSIZE
 40
0.2
  9
$TRACEWID
 40
0.05
  9
$TEXTSTYLE
  7
Standard
  9
$CLAYER
  8
0
  9
$CELTYPE
  6
ByLayer
  9
$CECOLOR
 62
   256
  9
$CELTSCALE
 40
1.0
  9
$DISPSILH
 70
     0
  9
$DIMSCALE
 40
1.0
  9
$DIMASZ
 40
0.18
  9
$DIMEXO
 40
0.0625
  9
$DIMDLI
 40
0.38
  9
$DIMRND
 40
0.0
  9
$DIMDLE
 40
0.0
  9
$DIMEXE
 40
0.18
  9
$DIMTP
 40
0.0
  9
$DIMTM
 40
0.0
  9
$DIMTXT
 40
0.18
  9
$DIMCEN
 40
0.09
  9
$DIMTSZ
 40
0.0
  9
$DIMTOL
 70
     0
  9
$DIMLIM
 70
     0
  9
$DIMTIH
 70
     1
  9
$DIMTOH
 70
     1
  9
$DIMSE1
 70
     0
  9
$DIMSE2
 70
     0
  9
$DIMTAD
 70
     0
  9
$DIMZIN
 70
     0
  9
$DIMBLK
  1

  9
$DIMASO
 70
     1
  9
$DIMSHO
 70
     1
  9
$DIMPOST
  1

  9
$DIMAPOST
  1

  9
$DIMALT
 70
     0
  9
$DIMALTD
 70
     2
  9
$DIMALTF
 40
25.4
  9
$DIMLFAC
 40
1.0
  9
$DIMTOFL
 70
     0
  9
$DIMTVP
 40
0.0
  9
$DIMTIX
 70
     0
  9
$DIMSOXD
 70
     0
  9
$DIMSAH
 70
     0
  9
$DIMBLK1
  1

  9
$DIMBLK2
  1

  9
$DIMSTYLE
  2
Standard
  9
$DIMCLRD
 70
     0
  9
$DIMCLRE
 70
     0
  9
$DIMCLRT
 70
     0
  9
$DIMTFAC
 40
1.0
  9
$DIMGAP
 40
0.09
  9
$DIMJUST
 70
     0
  9
$DIMSD1
 70
     0
  9
$DIMSD2
 70
     0
  9
$DIMTOLJ
 70
     1
  9
$DIMTZIN
 70
     0
  9
$DIMALTZ
 70
     0
  9
$DIMALTTZ
 70
     0
  9
$DIMUPT
 70
     0
  9
$DIMDEC
 70
     4
  9
$DIMTDEC
 70
     4
  9
$DIMALTU
 70
     2
  9
$DIMALTTD
 70
     2
  9
$DIMTXSTY
  7
Standard
  9
$DIMAUNIT
 70
     0
  9
$DIMADEC
 70
     0
  9
$DIMALTRND
 40
0.0
  9
$DIMAZIN
 70
     0
  9
$DIMDSEP
 70
    46
  9
$DIMATFIT
 70
     3
  9
$DIMFRAC
 70
     0
  9
$DIMLDRBLK
  1

  9
$DIMLUNIT
 70
     2
  9
$DIMLWD
 70
    -2
  9
$DIMLWE
 70
    -2
  9
$DIMTMOVE
 70
     0
  9
$DIMFXL
 40
1.0
  9
$DIMFXLON
 70
     0
  9
$DIMJOGANG
 40
0.7853981633974483
  9
$DIMTFILL
 70
     0
  9
$DIMTFILLCLR
 70
     0
  9
$DIMARCSYM
 70
     0
  9
$DIMLTYPE
  6

  9
$DIMLTEX1
  6

  9
$DIMLTEX2
  6

  9
$DIMTXTDIRECTION
 70
     0
  9
$LUNITS
 70
     2
  9
$LUPREC
 70
     4
  9
$SKETCHINC
 40
0.1
  9
$FILLETRAD
 40
0.5
  9
$AUNITS
 70
     0
  9
$AUPREC
 70
     0
  9
$MENU
  1
.
  9
$ELEVATION
 40
0.0
  9
$PELEVATION
 40
0.0
  9
$THICKNESS
 40
0.0
  9
$LIMCHECK
 70
     0
  9
$CHAMFERA
 40
0.5
  9
$CHAMFERB
 40
0.5
  9
$CHAMFERC
 40
1.0
  9
$CHAMFERD
 40
0.0
  9
$SKPOLY
 70
     0
  9
$TDCREATE
 40
2457917.611678241
  9
$TDUCREATE
 40
2457917.236678241
  9
$TDUPDATE
 40
2457917.611678241
  9
$TDUUPDATE
 40
2457917.236678241
  9
$TDINDWG
 40
0.0000000116
  9
$TDUSRTIMER
 40
0.0000000116
  9
$USRTIMER
 70
     1
  9
$ANGBASE
 50
0.0
  9
$ANGDIR
 70
     0
  9
$PDMODE
 70
     0
  9
$PDSIZE
 40
0.0
  9
$PLINEWID
 40
0.0
  9
$SPLFRAME
 70
     0
  9
$SPLINETYPE
 70
     6
  9
$SPLINESEGS
 70
     8
  9
$HANDSEED
  5
171
  9
$SURFTAB1
 70
     6
  9
$SURFTAB2
 70
     6
  9
$SURFTYPE
 70
     6
  9
$SURFU
 70
     6
  9
$SURFV
 70
     6
  9
$UCSBASE
  2

  9
$UCSNAME
  2

  9
$UCSORG
 10
0.0
 20
0.0
 30
0.0
  9
$UCSXDIR
 10
1.0
 20
0.0
 30
0.0
  9
$UCSYDIR
 10
0.0
 20
1.0
 30
0.0
  9
$UCSORTHOREF
  2

  9
$UCSORTHOVIEW
 70
     0
  9
$UCSORGTOP
 10
0.0
 20
0.0
 30
0.0
  9
$UCSORGBOTTOM
 10
0.0
 20
0.0
 30
0.0
  9
$UCSORGLEFT
 10
0.0
 20
0.0
 30
0.0
  9
$UCSORGRIGHT
 10
0.0
 20
0.0
 30
0.0
  9
$UCSORGFRONT
 10
0.0
 20
0.0
 30
0.0
  9
$UCSORGBACK
 10
0.0
 20
0.0
 30
0.0
  9
$PUCSBASE
  2

  9
$PUCSNAME
  2

  9
$PUCSORG
 10
0.0
 20
0.0
 30
0.0
  9
$PUCSXDIR
 10
1.0
 20
0.0
 30
0.0
  9
$PUCSYDIR
 10
0.0
 20
1.0
 30
0.0
  9
$PUCSORTHOREF
  2

  9
$PUCSORTHOVIEW
 70
     0
  9
$PUCSORGTOP
 10
0.0
 20
0.0
 30
0.0
  9
$PUCSORGBOTTOM
 10
0.0
 20
0.0
 30
0.0
  9
$PUCSORGLEFT
 10
0.0
 20
0.0
 30
0.0
  9
$PUCSORGRIGHT
 10
0.0
 20
0.0
 30
0.0
  9
$PUCSORGFRONT
 10
0.0
 20
0.0
 30
0.0
  9
$PUCSORGBACK
 10
0.0
 20
0.0
 30
0.0
  9
$USERI1
 70
     0
  9
$USERI2
 70
     0
  9
$USERI3
 70
     0
  9
$USERI4
 70
     0
  9
$USERI5
 70
     0
  9
$USERR1
 40
0.0
  9
$USERR2
 40
0.0
  9
$USERR3
 40
0.0
  9
$USERR4
 40
0.0
  9
$USERR5
 40
0.0
  9
$WORLDVIEW
 70
     1
  9
$SHADEDGE
 70
     3
  9
$SHADEDIF
 70
    70
  9
$TILEMODE
 70
     1
  9
$MAXACTVP
 70
    64
  9
$PINSBASE
 10
0.0
 20
0.0
 30
0.0
  9
$PLIMCHECK
 70
     0
  9
$PEXTMIN
 10
1.000000000000000E+20
 20
1.000000000000000E+20
 30
1.000000000000000E+20
  9
$PEXTMAX
 10
-1.000000000000000E+20
 20
-1.000000000000000E+20
 30
-1.000000000000000E+20
  9
$PLIMMIN
 10
0.0
 20
0.0
  9
$PLIMMAX
 10
12.0
 20
9.0
  9
$UNITMODE
 70
     0
  9
$VISRETAIN
 70
     1
  9
$PLINEGEN
 70
     0
  9
$PSLTSCALE
 70
     1
  9
$TREEDEPTH
 70
  3020
  9
$CMLSTYLE
  2
Standard
  9
$CMLJUST
 70
     0
  9
$CMLSCALE
 40
1.0
  9
$PROXYGRAPHICS
 70
     1
  9
$MEASUREMENT
 70
     0
  9
$CELWEIGHT
370
    -1
  9
$ENDCAPS
280
     0
  9
$JOINSTYLE
280
     0
  9
$LWDISPLAY
290
     1
  9
$INSUNITS
 70
     1
  9
$HYPERLINKBASE
  1

  9
$STYLESHEET
  1

  9
$XEDIT
290
     1
  9
$CEPSNTYPE
380
     0
  9
$PSTYLEMODE
290
     1
  9
$FINGERPRINTGUID
  2
{CE94D206-7180-9640-27F9-7EA3037EF5E9}
  9
$VERSIONGUID
  2
{FAEB1C32-E019-11D5-929B-00C0DF256EC4}
  9
$EXTNAMES
290
     1
  9
$PSVPSCALE
 40
0.0
  9
$OLESTARTUP
290
     0
  9
$SORTENTS
280
   127
  9
$INDEXCTL
280
     0
  9
$HIDETEXT
280
     1
  9
$XCLIPFRAME
280
     2
  9
$HALOGAP
280
     0
  9
$OBSCOLOR
 70
   257
  9
$OBSLTYPE
280
     0
  9
$INTERSECTIONDISPLAY
280
     0
  9
$INTERSECTIONCOLOR
 70
   257
  9
$DIMASSOC
280
     2
  9
$PROJECTNAME
  1

  9
$CAMERADISPLAY
290
     0
  9
$LENSLENGTH
 40
50.0
  9
$CAMERAHEIGHT
 40
0.0
  9
$STEPSPERSEC
 40
2.0
  9
$STEPSIZE
 40
6.0
  9
$3DDWFPREC
 40
2.0
  9
$PSOLWIDTH
 40
0.25
  9
$PSOLHEIGHT
 40
4.0
  9
$LOFTANG1
 40
1.570796326794897
  9
$LOFTANG2
 40
1.570796326794897
  9
$LOFTMAG1
 40
0.0
  9
$LOFTMAG2
 40
0.0
  9
$LOFTPARAM
 70
     7
  9
$LOFTNORMALS
280
     1
  9
$LATITUDE
 40
37.795
  9
$LONGITUDE
 40
-122.394
  9
$NORTHDIRECTION
 40
0.0
  9
$TIMEZONE
 70
 -8000
  9
$LIGHTGLYPHDISPLAY
280
     1
  9
$TILEMODELIGHTSYNCH
280
     1
  9
$CMATERIAL
347
3C
  9
$SOLIDHIST
280
     1
  9
$SHOWHIST
280
     1
  9
$DWFFRAME
280
     2
  9
$DGNFRAME
280
     2
  9
$REALWORLDSCALE
290
     1
  9
$INTERFERECOLOR
 62
   256
  9
$CSHADOW
280
     0
  9
$SHADOWPLANELOCATION
 40
0.0
  0
ENDSEC
  0
SECTION
  2
CLASSES
  0
CLASS
  1
ACDBDICTIONARYWDFLT
  2
AcDbDictionaryWithDefault
  3
ObjectDBX Classes
 90
        0
 91
        4
280
     0
281
     0
  0
CLASS
  1
VISUALSTYLE
  2
AcDbVisualStyle
  3
ObjectDBX Classes
 90
     4095
 91
        4
280
     0
281
     0
  0
CLASS
  1
MATERIAL
  2
AcDbMaterial
  3
ObjectDBX Classes
 90
     1153
 91
        4
280
     0
281
     0
  0
CLASS
  1
SUN
  2
AcDbSun
  3
SCENEOE
 90
     1024
 91
        4
280
     0
281
     0
  0
ENDSEC
  0
SECTION
  2
TABLES
  0
TABLE
  2
VPORT
  5
8
330
0
100
AcDbSymbolTable
 70
     1
  0
VPORT
  5
29
330
8
100
AcDbSymbolTableRecord
100
AcDbViewportTableRecord
  2
*Active
 70
     0
 10
0.0
 20
0.0
 11
1.0
 21
1.0
 12
0.0
 22
0.0
 13
0.0
 23
0.0
 14
0.5
 24
0.5
 15
0.5
 25
0.5
 16
0.0
 26
0.0
 36
1.0
 17
91.00082462281999
 27
-128.4993055234307
 37
0.0
 40
256.9986110468615
 41
0.7081814508812795
 42
50.0
 43
0.0
 44
0.0
 50
0.0
 51
0.0
 71
     0
 72
   100
 73
     1
 74
     3
 75
     0
 76
     0
 77
     0
 78
     0
281
     0
 65
     1
110
0.0
120
0.0
130
0.0
111
1.0
121
0.0
131
0.0
112
0.0
122
1.0
132
0.0
 79
     0
146
0.0
 60
     3
 61
     5
292
     1
282
     1
141
0.0
142
0.0
 63
   250
361
3F
  0
ENDTAB
  0
TABLE
  2
LTYPE
  5
5
330
0
100
AcDbSymbolTable
 70
     1
  0
LTYPE
  5
14
330
5
100
AcDbSymbolTableRecord
100
AcDbLinetypeTableRecord
  2
ByBlock
 70
     0
  3

 72
    65
 73
     0
 40
0.0
  0
LTYPE
  5
15
330
5
100
AcDbSymbolTableRecord
100
AcDbLinetypeTableRecord
  2
ByLayer
 70
     0
  3

 72
    65
 73
     0
 40
0.0
  0
LTYPE
  5
16
330
5
100
AcDbSymbolTableRecord
100
AcDbLinetypeTableRecord
  2
Continuous
 70
     0
  3
Solid line
 72
    65
 73
     0
 40
0.0
  0
ENDTAB
  0
TABLE
  2
LAYER
  5
2
330
0
100
AcDbSymbolTable
 70
     2
  0
LAYER
  5
10
330
2
100
AcDbSymbolTableRecord
100
AcDbLayerTableRecord
  2
0
 70
     0
 62
     7
  6
Continuous
370
    -3
390
F
347
3E
  0
LAYER
  5
40
330
2
100
AcDbSymbolTableRecord
100
AcDbLayerTableRecord
  2
_U+30EC_U+30A4_U+30E4_U+30FC 1
 70
     0
 62
     7
  6
Continuous
370
    -3
390
F
347
3E
  0
ENDTAB
  0
TABLE
  2
STYLE
  5
3
330
0
100
AcDbSymbolTable
 70
     1
  0
STYLE
  5
11
330
3
100
AcDbSymbolTableRecord
100
AcDbTextStyleTableRecord
  2
Standard
 70
     0
 40
0.0
 41
1.0
 50
0.0
 71
     0
 42
0.2
  3
txt
  4

  0
ENDTAB
  0
TABLE
  2
VIEW
  5
6
330
0
100
AcDbSymbolTable
 70
     0
  0
ENDTAB
  0
TABLE
  2
UCS
  5
7
330
0
100
AcDbSymbolTable
 70
     0
  0
ENDTAB
  0
TABLE
  2
APPID
  5
9
330
0
100
AcDbSymbolTable
 70
     1
  0
APPID
  5
12
330
9
100
AcDbSymbolTableRecord
100
AcDbRegAppTableRecord
  2
ACAD
 70
     0
  0
ENDTAB
  0
TABLE
  2
DIMSTYLE
  5
A
330
0
100
AcDbSymbolTable
 70
     1
100
AcDbDimStyleTable
  0
DIMSTYLE
105
27
330
A
100
AcDbSymbolTableRecord
100
AcDbDimStyleTableRecord
  2
Standard
 70
     0
178
     0
340
11
  0
ENDTAB
  0
TABLE
  2
BLOCK_RECORD
  5
1
330
0
100
AcDbSymbolTable
 70
     4
  0
BLOCK_RECORD
  5
1F
330
1
100
AcDbSymbolTableRecord
100
AcDbBlockTableRecord
  2
*Model_Space
340
22
 70
     0
280
     1
281
     0
  0
BLOCK_RECORD
  5
1B
330
1
100
AcDbSymbolTableRecord
100
AcDbBlockTableRecord
  2
*Paper_Space
340
1E
 70
     0
280
     1
281
     0
  0
BLOCK_RECORD
  5
23
330
1
100
AcDbSymbolTableRecord
100
AcDbBlockTableRecord
  2
*Paper_Space0
340
26
 70
     0
280
     1
281
     0
  0
BLOCK_RECORD
  5
41
330
1
100
AcDbSymbolTableRecord
100
AcDbBlockTableRecord
  2
block 2
340
0
102
{BLKREFS
331
42
102
}
 70
     0
280
     1
281
     0
  0
BLOCK_RECORD
  5
82
330
1
100
AcDbSymbolTableRecord
100
AcDbBlockTableRecord
  2
block 3
340
0
102
{BLKREFS
331
83
102
}
 70
     0
280
     1
281
     0
  0
BLOCK_RECORD
  5
C3
330
1
100
AcDbSymbolTableRecord
100
AcDbBlockTableRecord
  2
block 4
340
0
102
{BLKREFS
331
C4
102
}
 70
     0
280
     1
281
     0
  0
ENDTAB
  0
ENDSEC
  0
SECTION
  2
BLOCKS
  0
BLOCK
  5
20
330
1F
100
AcDbEntity
  8
0
100
AcDbBlockBegin
  2
*Model_Space
 70
     0
 10
0.0
 20
0.0
 30
0.0
  3
*Model_Space
  1

  0
ENDBLK
  5
21
330
1F
100
AcDbEntity
  8
0
100
AcDbBlockEnd
  0
BLOCK
  5
1C
330
1B
100
AcDbEntity
 67
     1
  8
0
100
AcDbBlockBegin
  2
*Paper_Space
 70
     0
 10
0.0
 20
0.0
 30
0.0
  3
*Paper_Space
  1

  0
ENDBLK
  5
1D
330
1B
100
AcDbEntity
 67
     1
  8
0
100
AcDbBlockEnd
  0
BLOCK
  5
24
330
23
100
AcDbEntity
  8
0
100
AcDbBlockBegin
  2
*Paper_Space0
 70
     0
 10
0.0
 20
0.0
 30
0.0
  3
*Paper_Space0
  1

  0
ENDBLK
  5
25
330
23
100
AcDbEntity
  8
0
100
AcDbBlockEnd
  0
BLOCK
  5
43
330
41
100
AcDbEntity
  8
0
100
AcDbBlockBegin
  2
block 2
 70
     0
 10
0.0
 20
0.0
 30
0.0
  3
block 2
  1

  0
SPLINE
  5
45
330
41
100
AcDbEntity
  8
_U+30EC_U+30A4_U+30E4_U+30FC 1
370
     0
100
AcDbSpline
210
0.0
220
0.0
230
1.0
 70
    11
 71
     3
 72
    38
 73
    34
 74
     0
 42
0.0000000001
 43
0.0000000001
 12
1.0
 22
0.0
 32
0.0
 13
1.0
 23
0.0
 33
0.0
 40
0.0
 40
0.0
 40
0.0
 40
0.0
 40
1.0
 40
1.0
 40
1.0
 40
2.0
 40
2.0
 40
2.0
 40
3.0
 40
3.0
 40
3.0
 40
4.0
 40
4.0
 40
4.0
 40
5.0
 40
5.0
 40
5.0
 40
6.0
 40
6.0
 40
6.0
 40
7.0
 40
7.0
 40
7.0
 40
8.0
 40
8.0
 40
8.0
 40
9.0
 40
9.0
 40
9.0
 40
10.0
 40
10.0
 40
10.0
 40
11.0
 40
11.0
 40
11.0
 40
11.0
 10
94.00390893917263
 20
-129.6592691733144
 30
0.0
 10
94.00390893917263
 20
-129.1938367732571
 30
0.0
 10
94.36771102241502
 20
-128.9189181535342
 30
0.0
 10
94.83727753705458
 20
-128.9189181535342
 30
0.0
 10
95.36196557945813
 20
-128.9189181535342
 30
0.0
 10
95.64756399518534
 20
-129.261360644768
 30
0.0
 10
95.64756399518534
 20
-129.6699489693186
 30
0.0
 10
95.64756399518534
 20
-130.0144585178436
 30
0.0
 10
95.45911727214217
 20
-130.2917887044062
 30
0.0
 10
95.14182397795066
 20
-130.3128037868663
 30
0.0
 10
95.14182397795066
 20
-130.3128037868663
 30
0.0
 10
95.14182397795066
 20
-130.082326898903
 30
0.0
 10
95.14182397795066
 20
-130.082326898903
 30
0.0
 10
95.3492187261627
 20
-130.0440863390168
 30
0.0
 10
95.4319010178087
 20
-129.8242892470578
 30
0.0
 10
95.4319010178087
 20
-129.6634032878966
 30
0.0
 10
95.4319010178087
 20
-129.5597059137906
 30
0.0
 10
95.39986162979588
 20
-129.4432616863892
 30
0.0
 10
95.32372501957185
 20
-129.3502441082875
 30
0.0
 10
95.19694550571465
 20
-129.1897026586748
 30
0.0
 10
94.98128252833801
 20
-129.1600748375017
 30
0.0
 10
94.822463626468
 20
-129.1600748375017
 30
0.0
 10
94.38252493300159
 20
-129.1600748375017
 30
0.0
 10
94.22163897384043
 20
-129.4391275718069
 30
0.0
 10
94.22163897384043
 20
-129.6547905491835
 30
0.0
 10
94.22163897384043
 20
-129.7925943685935
 30
0.0
 10
94.30190969864675
 20
-130.0633788737342
 30
0.0
 10
94.61954750238678
 20
-130.0950737521985
 30
0.0
 10
94.61954750238678
 20
-130.0950737521985
 30
0.0
 10
94.61954750238678
 20
-130.3255506401617
 30
0.0
 10
94.61954750238678
 20
-130.3255506401617
 30
0.0
 10
94.48415524981647
 20
-130.3128037868663
 30
0.0
 10
94.00390893917263
 20
-130.2642279405242
 30
0.0
 10
94.00390893917263
 20
-129.6592691733144
 30
0.0
  0
HATCH
  5
46
330
41
100
AcDbEntity
  8
_U+30EC_U+30A4_U+30E4_U+30FC 1
 62
   179
420
  2234388
100
AcDbHatch
 10
0.0
 20
0.0
 30
0.0
210
0.0
220
0.0
230
1.0
  2
SOLID
 70
     1
 71
     0
 91
        1
 92
        1
 93
        1
 72
     4
 94
        3
 73
     0
 74
     1
 95
       38
 96
       34
 40
0.0
 40
0.0
 40
0.0
 40
0.0
 40
1.0
 40
1.0
 40
1.0
 40
2.0
 40
2.0
 40
2.0
 40
3.0
 40
3.0
 40
3.0
 40
4.0
 40
4.0
 40
4.0
 40
5.0
 40
5.0
 40
5.0
 40
6.0
 40
6.0
 40
6.0
 40
7.0
 40
7.0
 40
7.0
 40
8.0
 40
8.0
 40
8.0
 40
9.0
 40
9.0
 40
9.0
 40
10.0
 40
10.0
 40
10.0
 40
11.0
 40
11.0
 40
11.0
 40
11.0
 10
94.00390893917263
 20
-129.6592691733144
 10
94.00390893917263
 20
-129.1938367732571
 10
94.36771102241502
 20
-128.9189181535342
 10
94.83727753705458
 20
-128.9189181535342
 10
95.36196557945813
 20
-128.9189181535342
 10
95.64756399518534
 20
-129.261360644768
 10
95.64756399518534
 20
-129.6699489693186
 10
95.64756399518534
 20
-130.0144585178436
 10
95.45911727214217
 20
-130.2917887044062
 10
95.14182397795066
 20
-130.3128037868663
 10
95.14182397795066
 20
-130.3128037868663
 10
95.14182397795066
 20
-130.082326898903
 10
95.14182397795066
 20
-130.082326898903
 10
95.3492187261627
 20
-130.0440863390168
 10
95.4319010178087
 20
-129.8242892470578
 10
95.4319010178087
 20
-129.6634032878966
 10
95.4319010178087
 20
-129.5597059137906
 10
95.39986162979588
 20
-129.4432616863892
 10
95.32372501957185
 20
-129.3502441082875
 10
95.19694550571465
 20
-129.1897026586748
 10
94.98128252833801
 20
-129.1600748375017
 10
94.822463626468
 20
-129.1600748375017
 10
94.38252493300159
 20
-129.1600748375017
 10
94.22163897384043
 20
-129.4391275718069
 10
94.22163897384043
 20
-129.6547905491835
 10
94.22163897384043
 20
-129.7925943685935
 10
94.30190969864675
 20
-130.0633788737342
 10
94.61954750238678
 20
-130.0950737521985
 10
94.61954750238678
 20
-130.0950737521985
 10
94.61954750238678
 20
-130.3255506401617
 10
94.61954750238678
 20
-130.3255506401617
 10
94.48415524981647
 20
-130.3128037868663
 10
94.00390893917263
 20
-130.2642279405242
 10
94.00390893917263
 20
-129.6592691733144
 97
        0
 97
        0
 75
     2
 76
     1
 98
        0
  0
SPLINE
  5
47
330
41
100
AcDbEntity
  8
_U+30EC_U+30A4_U+30E4_U+30FC 1
370
     0
100
AcDbSpline
210
0.0
220
0.0
230
1.0
 70
    11
 71
     3
 72
    44
 73
    40
 74
     0
 42
0.0000000001
 43
0.0000000001
 12
1.0
 22
0.0
 32
0.0
 13
1.0
 23
0.0
 33
0.0
 40
0.0
 40
0.0
 40
0.0
 40
0.0
 40
1.0
 40
1.0
 40
1.0
 40
2.0
 40
2.0
 40
2.0
 40
3.0
 40
3.0
 40
3.0
 40
4.0
 40
4.0
 40
4.0
 40
5.0
 40
5.0
 40
5.0
 40
6.0
 40
6.0
 40
6.0
 40
7.0
 40
7.0
 40
7.0
 40
8.0
 40
8.0
 40
8.0
 40
9.0
 40
9.0
 40
9.0
 40
10.0
 40
10.0
 40
10.0
 40
11.0
 40
11.0
 40
11.0
 40
12.0
 40
12.0
 40
12.0
 40
13.0
 40
13.0
 40
13.0
 40
13.0
 10
94.05455184280581
 20
-131.5344346459358
 30
0.0
 10
94.09899357456554
 20
-131.5110079966362
 30
0.0
 10
94.15170353548986
 20
-131.4899929141761
 30
0.0
 10
94.38252493300159
 20
-131.4875813473364
 30
0.0
 10
94.62574867426024
 20
-131.4834472327541
 30
0.0
 10
94.6956841126108
 20
-131.4241915904078
 30
0.0
 10
94.6956841126108
 20
-131.2464246633689
 30
0.0
 10
94.6956841126108
 20
-131.2464246633689
 30
0.0
 10
94.6956841126108
 20
-130.8385253579154
 30
0.0
 10
94.6956841126108
 20
-130.8385253579154
 30
0.0
 10
94.6956841126108
 20
-130.8385253579154
 30
0.0
 10
94.05455184280581
 20
-130.8385253579154
 30
0.0
 10
94.05455184280581
 20
-130.8385253579154
 30
0.0
 10
94.05455184280581
 20
-130.8385253579154
 30
0.0
 10
94.05455184280581
 20
-130.6035698458213
 30
0.0
 10
94.05455184280581
 20
-130.6035698458213
 30
0.0
 10
94.05455184280581
 20
-130.6035698458213
 30
0.0
 10
95.59898814884332
 20
-130.6035698458213
 30
0.0
 10
95.59898814884332
 20
-130.6035698458213
 30
0.0
 10
95.59898814884332
 20
-130.6035698458213
 30
0.0
 10
95.59898814884332
 20
-131.2784640513818
 30
0.0
 10
95.59898814884332
 20
-131.2784640513818
 30
0.0
 10
95.59898814884332
 20
-131.585077549569
 30
0.0
 10
95.42742239367787
 20
-131.7521646806036
 30
0.0
 10
95.1714517991238
 20
-131.7521646806036
 30
0.0
 10
95.12080889549064
 20
-131.7521646806036
 30
0.0
 10
95.03812660384465
 20
-131.743896451439
 30
0.0
 10
94.95785587903832
 20
-131.6991102101308
 30
0.0
 10
94.8541585049323
 20
-131.640199077333
 30
0.0
 10
94.83521047976342
 20
-131.5743977535647
 30
0.0
 10
94.8183295118857
 20
-131.5130750539273
 30
0.0
 10
94.77595483741713
 20
-131.6508788733373
 30
0.0
 10
94.7273789910751
 20
-131.7184027448482
 30
0.0
 10
94.41215275417474
 20
-131.7225368594305
 30
0.0
 10
94.1413682490341
 20
-131.7266709740128
 30
0.0
 10
94.10967337056981
 20
-131.7628444766079
 30
0.0
 10
94.05455184280581
 20
-131.8307128576673
 30
0.0
 10
94.05455184280581
 20
-131.8307128576673
 30
0.0
 10
94.05455184280581
 20
-131.5344346459358
 30
0.0
 10
94.05455184280581
 20
-131.5344346459358
 30
0.0
  0
SPLINE
  5
48
330
41
100
AcDbEntity
  8
_U+30EC_U+30A4_U+30E4_U+30FC 1
370
     0
100
AcDbSpline
210
0.0
220
0.0
230
1.0
 70
    11
 71
     3
 72
    20
 73
    16
 74
     0
 42
0.0000000001
 43
0.0000000001
 12
1.0
 22
0.0
 32
0.0
 13
1.0
 23
0.0
 33
0.0
 40
0.0
 40
0.0
 40
0.0
 40
0.0
 40
1.0
 40
1.0
 40
1.0
 40
2.0
 40
2.0
 40
2.0
 40
3.0
 40
3.0
 40
3.0
 40
4.0
 40
4.0
 40
4.0
 40
5.0
 40
5.0
 40
5.0
 40
5.0
 10
95.38745928604898
 20
-131.2825981659641
 30
0.0
 10
95.38745928604898
 20
-131.2825981659641
 30
0.0
 10
95.38745928604898
 20
-130.8385253579154
 30
0.0
 10
95.38745928604898
 20
-130.8385253579154
 30
0.0
 10
95.38745928604898
 20
-130.8385253579154
 30
0.0
 10
94.90721297540514
 20
-130.8385253579154
 30
0.0
 10
94.90721297540514
 20
-130.8385253579154
 30
0.0
 10
94.90721297540514
 20
-130.8385253579154
 30
0.0
 10
94.90721297540514
 20
-131.2805311086729
 30
0.0
 10
94.90721297540514
 20
-131.2805311086729
 30
0.0
 10
94.90721297540514
 20
-131.3800943681966
 30
0.0
 10
94.98334958562917
 20
-131.5151421112184
 30
0.0
 10
95.15457083124609
 20
-131.5151421112184
 30
0.0
 10
95.23277449876126
 20
-131.5151421112184
 30
0.0
 10
95.38745928604898
 20
-131.481380175463
 30
0.0
 10
95.38745928604898
 20
-131.2825981659641
 30
0.0
  0
HATCH
  5
49
330
41
100
AcDbEntity
  8
_U+30EC_U+30A4_U+30E4_U+30FC 1
 62
   179
420
  2234388
100
AcDbHatch
 10
0.0
 20
0.0
 30
0.0
210
0.0
220
0.0
230
1.0
  2
SOLID
 70
     1
 71
     0
 91
        2
 92
        1
 93
        1
 72
     4
 94
        3
 73
     0
 74
     1
 95
       44
 96
       40
 40
0.0
 40
0.0
 40
0.0
 40
0.0
 40
1.0
 40
1.0
 40
1.0
 40
2.0
 40
2.0
 40
2.0
 40
3.0
 40
3.0
 40
3.0
 40
4.0
 40
4.0
 40
4.0
 40
5.0
 40
5.0
 40
5.0
 40
6.0
 40
6.0
 40
6.0
 40
7.0
 40
7.0
 40
7.0
 40
8.0
 40
8.0
 40
8.0
 40
9.0
 40
9.0
 40
9.0
 40
10.0
 40
10.0
 40
10.0
 40
11.0
 40
11.0
 40
11.0
 40
12.0
 40
12.0
 40
12.0
 40
13.0
 40
13.0
 40
13.0
 40
13.0
 10
94.05455184280581
 20
-131.5344346459358
 10
94.09899357456554
 20
-131.5110079966362
 10
94.15170353548986
 20
-131.4899929141761
 10
94.38252493300159
 20
-131.4875813473364
 10
94.62574867426024
 20
-131.4834472327541
 10
94.6956841126108
 20
-131.4241915904078
 10
94.6956841126108
 20
-131.2464246633689
 10
94.6956841126108
 20
-131.2464246633689
 10
94.6956841126108
 20
-130.8385253579154
 10
94.6956841126108
 20
-130.8385253579154
 10
94.6956841126108
 20
-130.8385253579154
 10
94.05455184280581
 20
-130.8385253579154
 10
94.05455184280581
 20
-130.8385253579154
 10
94.05455184280581
 20
-130.8385253579154
 10
94.05455184280581
 20
-130.6035698458213
 10
94.05455184280581
 20
-130.6035698458213
 10
94.05455184280581
 20
-130.6035698458213
 10
95.59898814884332
 20
-130.6035698458213
 10
95.59898814884332
 20
-130.6035698458213
 10
95.59898814884332
 20
-130.6035698458213
 10
95.59898814884332
 20
-131.2784640513818
 10
95.59898814884332
 20
-131.2784640513818
 10
95.59898814884332
 20
-131.585077549569
 10
95.42742239367787
 20
-131.7521646806036
 10
95.1714517991238
 20
-131.7521646806036
 10
95.12080889549064
 20
-131.7521646806036
 10
95.03812660384465
 20
-131.743896451439
 10
94.95785587903832
 20
-131.6991102101308
 10
94.8541585049323
 20
-131.640199077333
 10
94.83521047976342
 20
-131.5743977535647
 10
94.8183295118857
 20
-131.5130750539273
 10
94.77595483741713
 20
-131.6508788733373
 10
94.7273789910751
 20
-131.7184027448482
 10
94.41215275417474
 20
-131.7225368594305
 10
94.1413682490341
 20
-131.7266709740128
 10
94.10967337056981
 20
-131.7628444766079
 10
94.05455184280581
 20
-131.8307128576673
 10
94.05455184280581
 20
-131.8307128576673
 10
94.05455184280581
 20
-131.5344346459358
 10
94.05455184280581
 20
-131.5344346459358
 97
        0
 97
        0
 92
        1
 93
        1
 72
     4
 94
        3
 73
     0
 74
     1
 95
       20
 96
       16
 40
0.0
 40
0.0
 40
0.0
 40
0.0
 40
1.0
 40
1.0
 40
1.0
 40
2.0
 40
2.0
 40
2.0
 40
3.0
 40
3.0
 40
3.0
 40
4.0
 40
4.0
 40
4.0
 40
5.0
 40
5.0
 40
5.0
 40
5.0
 10
95.38745928604898
 20
-131.2825981659641
 10
95.38745928604898
 20
-131.2825981659641
 10
95.38745928604898
 20
-130.8385253579154
 10
95.38745928604898
 20
-130.8385253579154
 10
95.38745928604898
 20
-130.8385253579154
 10
94.90721297540514
 20
-130.8385253579154
 10
94.90721297540514
 20
-130.8385253579154
 10
94.90721297540514
 20
-130.8385253579154
 10
94.90721297540514
 20
-131.2805311086729
 10
94.90721297540514
 20
-131.2805311086729
 10
94.90721297540514
 20
-131.3800943681966
 10
94.98334958562917
 20
-131.5151421112184
 10
95.15457083124609
 20
-131.5151421112184
 10
95.23277449876126
 20
-131.5151421112184
 10
95.38745928604898
 20
-131.481380175463
 10
95.38745928604898
 20
-131.2825981659641
 97
        0
 97
        0
 75
     2
 76
     1
 98
        0
  0
SPLINE
  5
4A
330
41
100
AcDbEntity
  8
_U+30EC_U+30A4_U+30E4_U+30FC 1
370
     0
100
AcDbSpline
210
0.0
220
0.0
230
1.0
 70
    11
 71
     3
 72
    26
 73
    22
 74
     0
 42
0.0000000001
 43
0.0000000001
 12
1.0
 22
0.0
 32
0.0
 13
1.0
 23
0.0
 33
0.0
 40
0.0
 40
0.0
 40
0.0
 40
0.0
 40
1.0
 40
1.0
 40
1.0
 40
2.0
 40
2.0
 40
2.0
 40
3.0
 40
3.0
 40
3.0
 40
4.0
 40
4.0
 40
4.0
 40
5.0
 40
5.0
 40
5.0
 40
6.0
 40
6.0
 40
6.0
 40
7.0
 40
7.0
 40
7.0
 40
7.0
 10
94.68500431660654
 20
-132.7474527662923
 30
0.0
 10
94.68500431660654
 20
-132.7474527662923
 30
0.0
 10
94.68500431660654
 20
-132.2947672195305
 30
0.0
 10
94.68500431660654
 20
-132.2947672195305
 30
0.0
 10
94.68500431660654
 20
-132.2947672195305
 30
0.0
 10
94.05455184280581
 20
-132.2947672195305
 30
0.0
 10
94.05455184280581
 20
-132.2947672195305
 30
0.0
 10
94.05455184280581
 20
-132.2947672195305
 30
0.0
 10
94.05455184280581
 20
-132.060156216985
 30
0.0
 10
94.05455184280581
 20
-132.060156216985
 30
0.0
 10
94.05455184280581
 20
-132.060156216985
 30
0.0
 10
95.59898814884332
 20
-132.060156216985
 30
0.0
 10
95.59898814884332
 20
-132.060156216985
 30
0.0
 10
95.59898814884332
 20
-132.060156216985
 30
0.0
 10
95.59898814884332
 20
-132.7474527662923
 30
0.0
 10
95.59898814884332
 20
-132.7474527662923
 30
0.0
 10
95.59898814884332
 20
-133.0351182393107
 30
0.0
 10
95.436035132391
 20
-133.2404459302316
 30
0.0
 10
95.13768986336837
 20
-133.2404459302316
 30
0.0
 10
94.89033200752742
 20
-133.2404459302316
 30
0.0
 10
94.68500431660654
 20
-133.0795599710704
 30
0.0
 10
94.68500431660654
 20
-132.7474527662923
 30
0.0
  0
SPLINE
  5
4B
330
41
100
AcDbEntity
  8
_U+30EC_U+30A4_U+30E4_U+30FC 1
370
     0
100
AcDbSpline
210
0.0
220
0.0
230
1.0
 70
    11
 71
     3
 72
    20
 73
    16
 74
     0
 42
0.0000000001
 43
0.0000000001
 12
1.0
 22
0.0
 32
0.0
 13
1.0
 23
0.0
 33
0.0
 40
0.0
 40
0.0
 40
0.0
 40
0.0
 40
1.0
 40
1.0
 40
1.0
 40
2.0
 40
2.0
 40
2.0
 40
3.0
 40
3.0
 40
3.0
 40
4.0
 40
4.0
 40
4.0
 40
5.0
 40
5.0
 40
5.0
 40
5.0
 10
95.38745928604898
 20
-132.7388400275792
 30
0.0
 10
95.38745928604898
 20
-132.7388400275792
 30
0.0
 10
95.38745928604898
 20
-132.2947672195305
 30
0.0
 10
95.38745928604898
 20
-132.2947672195305
 30
0.0
 10
95.38745928604898
 20
-132.2947672195305
 30
0.0
 10
94.89653317940088
 20
-132.2947672195305
 30
0.0
 10
94.89653317940088
 20
-132.2947672195305
 30
0.0
 10
94.89653317940088
 20
-132.2947672195305
 30
0.0
 10
94.89653317940088
 20
-132.7388400275792
 30
0.0
 10
94.89653317940088
 20
-132.7388400275792
 30
0.0
 10
94.89653317940088
 20
-132.9062716681623
 30
0.0
 10
95.00229761079804
 20
-132.9951551316818
 30
0.0
 10
95.14182397795066
 20
-132.9951551316818
 30
0.0
 10
95.25620114806095
 20
-132.9951551316818
 30
0.0
 10
95.38745928604898
 20
-132.9272867506224
 30
0.0
 10
95.38745928604898
 20
-132.7388400275792
 30
0.0
  0
HATCH
  5
4C
330
41
100
AcDbEntity
  8
_U+30EC_U+30A4_U+30E4_U+30FC 1
 62
   179
420
  2234388
100
AcDbHatch
 10
0.0
 20
0.0
 30
0.0
210
0.0
220
0.0
230
1.0
  2
SOLID
 70
     1
 71
     0
 91
        2
 92
        1
 93
        1
 72
     4
 94
        3
 73
     0
 74
     1
 95
       26
 96
       22
 40
0.0
 40
0.0
 40
0.0
 40
0.0
 40
1.0
 40
1.0
 40
1.0
 40
2.0
 40
2.0
 40
2.0
 40
3.0
 40
3.0
 40
3.0
 40
4.0
 40
4.0
 40
4.0
 40
5.0
 40
5.0
 40
5.0
 40
6.0
 40
6.0
 40
6.0
 40
7.0
 40
7.0
 40
7.0
 40
7.0
 10
94.68500431660654
 20
-132.7474527662923
 10
94.68500431660654
 20
-132.7474527662923
 10
94.68500431660654
 20
-132.2947672195305
 10
94.68500431660654
 20
-132.2947672195305
 10
94.68500431660654
 20
-132.2947672195305
 10
94.05455184280581
 20
-132.2947672195305
 10
94.05455184280581
 20
-132.2947672195305
 10
94.05455184280581
 20
-132.2947672195305
 10
94.05455184280581
 20
-132.060156216985
 10
94.05455184280581
 20
-132.060156216985
 10
94.05455184280581
 20
-132.060156216985
 10
95.59898814884332
 20
-132.060156216985
 10
95.59898814884332
 20
-132.060156216985
 10
95.59898814884332
 20
-132.060156216985
 10
95.59898814884332
 20
-132.7474527662923
 10
95.59898814884332
 20
-132.7474527662923
 10
95.59898814884332
 20
-133.0351182393107
 10
95.436035132391
 20
-133.2404459302316
 10
95.13768986336837
 20
-133.2404459302316
 10
94.89033200752742
 20
-133.2404459302316
 10
94.68500431660654
 20
-133.0795599710704
 10
94.68500431660654
 20
-132.7474527662923
 97
        0
 97
        0
 92
        1
 93
        1
 72
     4
 94
        3
 73
     0
 74
     1
 95
       20
 96
       16
 40
0.0
 40
0.0
 40
0.0
 40
0.0
 40
1.0
 40
1.0
 40
1.0
 40
2.0
 40
2.0
 40
2.0
 40
3.0
 40
3.0
 40
3.0
 40
4.0
 40
4.0
 40
4.0
 40
5.0
 40
5.0
 40
5.0
 40
5.0
 10
95.38745928604898
 20
-132.7388400275792
 10
95.38745928604898
 20
-132.7388400275792
 10
95.38745928604898
 20
-132.2947672195305
 10
95.38745928604898
 20
-132.2947672195305
 10
95.38745928604898
 20
-132.2947672195305
 10
94.89653317940088
 20
-132.2947672195305
 10
94.89653317940088
 20
-132.2947672195305
 10
94.89653317940088
 20
-132.2947672195305
 10
94.89653317940088
 20
-132.7388400275792
 10
94.89653317940088
 20
-132.7388400275792
 10
94.89653317940088
 20
-132.9062716681623
 10
95.00229761079804
 20
-132.9951551316818
 10
95.14182397795066
 20
-132.9951551316818
 10
95.25620114806095
 20
-132.9951551316818
 10
95.38745928604898
 20
-132.9272867506224
 10
95.38745928604898
 20
-132.7388400275792
 97
        0
 97
        0
 75
     2
 76
     1
 98
        0
  0
POLYLINE
  5
4D
330
41
100
AcDbEntity
  8
_U+30EC_U+30A4_U+30E4_U+30FC 1
370
     0
100
AcDb2dPolyline
 66
     1
 10
0.0
 20
0.0
 30
0.0
  0
VERTEX
  5
4E
330
4D
100
AcDbEntity
  8
_U+30EC_U+30A4_U+30E4_U+30FC 1
370
     0
100
AcDbVertex
100
AcDb2dVertex
 10
94.50103621769419
 20
-133.3720485777681
 30
0.0
  0
VERTEX
  5
4F
330
4D
100
AcDbEntity
  8
_U+30EC_U+30A4_U+30E4_U+30FC 1
370
     0
100
AcDbVertex
100
AcDb2dVertex
 10
94.71669919507083
 20
-133.3720485777681
 30
0.0
  0
VERTEX
  5
50
330
4D
100
AcDbEntity
  8
_U+30EC_U+30A4_U+30E4_U+30FC 1
370
     0
100
AcDbVertex
100
AcDb2dVertex
 10
94.71669919507083
 20
-133.9584038293576
 30
0.0
  0
VERTEX
  5
51
330
4D
100
AcDbEntity
  8
_U+30EC_U+30A4_U+30E4_U+30FC 1
370
     0
100
AcDbVertex
100
AcDb2dVertex
 10
94.50103621769419
 20
-133.9584038293576
 30
0.0
  0
VERTEX
  5
52
330
4D
100
AcDbEntity
  8
_U+30EC_U+30A4_U+30E4_U+30FC 1
370
     0
100
AcDbVertex
100
AcDb2dVertex
 10
94.50103621769419
 20
-133.3720485777681
 30
0.0
  0
SEQEND
  5
53
330
4D
100
AcDbEntity
  8
_U+30EC_U+30A4_U+30E4_U+30FC 1
370
     0
  0
HATCH
  5
54
330
41
100
AcDbEntity
  8
_U+30EC_U+30A4_U+30E4_U+30FC 1
 62
   179
420
  2234388
100
AcDbHatch
 10
0.0
 20
0.0
 30
0.0
210
0.0
220
0.0
230
1.0
  2
SOLID
 70
     1
 71
     0
 91
        1
 92
        1
 93
        4
 72
     1
 10
94.50103621769419
 20
-133.3720485777681
 11
94.71669919507083
 21
-133.3720485777681
 72
     1
 10
94.71669919507083
 20
-133.3720485777681
 11
94.71669919507083
 21
-133.9584038293576
 72
     1
 10
94.71669919507083
 20
-133.9584038293576
 11
94.50103621769419
 21
-133.9584038293576
 72
     1
 10
94.50103621769419
 20
-133.9584038293576
 11
94.50103621769419
 21
-133.3720485777681
 97
        0
 75
     2
 76
     1
 98
        0
  0
SPLINE
  5
55
330
41
100
AcDbEntity
  8
_U+30EC_U+30A4_U+30E4_U+30FC 1
370
     0
100
AcDbSpline
210
0.0
220
0.0
230
1.0
 70
    11
 71
     3
 72
    62
 73
    58
 74
     0
 42
0.0000000001
 43
0.0000000001
 12
1.0
 22
0.0
 32
0.0
 13
1.0
 23
0.0
 33
0.0
 40
0.0
 40
0.0
 40
0.0
 40
0.0
 40
1.0
 40
1.0
 40
1.0
 40
2.0
 40
2.0
 40
2.0
 40
3.0
 40
3.0
 40
3.0
 40
4.0
 40
4.0
 40
4.0
 40
5.0
 40
5.0
 40
5.0
 40
6.0
 40
6.0
 40
6.0
 40
7.0
 40
7.0
 40
7.0
 40
8.0
 40
8.0
 40
8.0
 40
9.0
 40
9.0
 40
9.0
 40
10.0
 40
10.0
 40
10.0
 40
11.0
 40
11.0
 40
11.0
 40
12.0
 40
12.0
 40
12.0
 40
13.0
 40
13.0
 40
13.0
 40
14.0
 40
14.0
 40
14.0
 40
15.0
 40
15.0
 40
15.0
 40
16.0
 40
16.0
 40
16.0
 40
17.0
 40
17.0
 40
17.0
 40
18.0
 40
18.0
 40
18.0
 40
19.0
 40
19.0
 40
19.0
 40
19.0
 10
94.00390893917263
 20
-134.5785210167026
 30
0.0
 10
94.00390893917263
 20
-134.4830918717612
 30
0.0
 10
94.02492402163266
 20
-134.2650173275449
 30
0.0
 10
94.21095917783616
 20
-134.1403048709788
 30
0.0
 10
94.3232692906553
 20
-134.0665798275945
 30
0.0
 10
94.4224880406305
 20
-134.0621012034636
 30
0.0
 10
94.50723738956763
 20
-134.0579670888814
 30
0.0
 10
94.50723738956763
 20
-134.0579670888814
 30
0.0
 10
94.50723738956763
 20
-134.2781086903888
 30
0.0
 10
94.50723738956763
 20
-134.2781086903888
 30
0.0
 10
94.43316783663477
 20
-134.2801757476799
 30
0.0
 10
94.19855683408926
 20
-134.2905110341357
 30
0.0
 10
94.19855683408926
 20
-134.5740423925718
 30
0.0
 10
94.19855683408926
 20
-134.7115017024333
 30
0.0
 10
94.2681477628913
 20
-134.8637749228813
 30
0.0
 10
94.49655759356337
 20
-134.8637749228813
 30
0.0
 10
94.61300182096481
 20
-134.8637749228813
 30
0.0
 10
94.66157766730683
 20
-134.8258788725435
 30
0.0
 10
94.69327254577114
 20
-134.7941839940792
 30
0.0
 10
94.767342098704
 20
-134.7201144411464
 30
0.0
 10
94.78008895199943
 20
-134.6036702137449
 30
0.0
 10
94.78008895199943
 20
-134.5488931955294
 30
0.0
 10
94.78008895199943
 20
-134.529600660812
 30
0.0
 10
94.77802189470827
 20
-134.4937716677655
 30
0.0
 10
94.77388778012597
 20
-134.4662109038835
 30
0.0
 10
94.77388778012597
 20
-134.4662109038835
 30
0.0
 10
94.96853567504259
 20
-134.4662109038835
 30
0.0
 10
94.96853567504259
 20
-134.4662109038835
 30
0.0
 10
94.96198999362062
 20
-134.5041069542212
 30
0.0
 10
94.95992293632946
 20
-134.5468261382383
 30
0.0
 10
94.95992293632946
 20
-134.5530273101118
 30
0.0
 10
94.95992293632946
 20
-134.6184841243315
 30
0.0
 10
94.98128252833801
 20
-134.8176106433789
 30
0.0
 10
95.21796058817468
 20
-134.8176106433789
 30
0.0
 10
95.39572751521358
 20
-134.8176106433789
 30
0.0
 10
95.45084904297757
 20
-134.6860079958424
 30
0.0
 10
95.45084904297757
 20
-134.5764539594115
 30
0.0
 10
95.45084904297757
 20
-134.3118706261443
 30
0.0
 10
95.21796058817468
 20
-134.3032578874311
 30
0.0
 10
95.14630260208149
 20
-134.2991237728488
 30
0.0
 10
95.14630260208149
 20
-134.2991237728488
 30
0.0
 10
95.14630260208149
 20
-134.0962076487676
 30
0.0
 10
95.14630260208149
 20
-134.0962076487676
 30
0.0
 10
95.27101505864754
 20
-134.1044758779322
 30
0.0
 10
95.64756399518534
 20
-134.1320366418142
 30
0.0
 10
95.64756399518534
 20
-134.5888563031583
 30
0.0
 10
95.64756399518534
 20
-134.8131320192481
 30
0.0
 10
95.52043997177962
 20
-135.0542887032156
 30
0.0
 10
95.22450626959666
 20
-135.0542887032156
 30
0.0
 10
95.03812660384465
 20
-135.0542887032156
 30
0.0
 10
94.95578882174716
 20
-134.9592040678227
 30
0.0
 10
94.89446612210972
 20
-134.859640808299
 30
0.0
 10
94.86690535822773
 20
-134.9209635079364
 30
0.0
 10
94.7866346334214
 20
-135.1028645495576
 30
0.0
 10
94.50930444685879
 20
-135.1028645495576
 30
0.0
 10
94.17099607020725
 20
-135.1028645495576
 30
0.0
 10
94.00390893917263
 20
-134.8555066937167
 30
0.0
 10
94.00390893917263
 20
-134.5785210167026
 30
0.0
  0
HATCH
  5
56
330
41
100
AcDbEntity
  8
_U+30EC_U+30A4_U+30E4_U+30FC 1
 62
   179
420
  2234388
100
AcDbHatch
 10
0.0
 20
0.0
 30
0.0
210
0.0
220
0.0
230
1.0
  2
SOLID
 70
     1
 71
     0
 91
        1
 92
        1
 93
        1
 72
     4
 94
        3
 73
     0
 74
     1
 95
       62
 96
       58
 40
0.0
 40
0.0
 40
0.0
 40
0.0
 40
1.0
 40
1.0
 40
1.0
 40
2.0
 40
2.0
 40
2.0
 40
3.0
 40
3.0
 40
3.0
 40
4.0
 40
4.0
 40
4.0
 40
5.0
 40
5.0
 40
5.0
 40
6.0
 40
6.0
 40
6.0
 40
7.0
 40
7.0
 40
7.0
 40
8.0
 40
8.0
 40
8.0
 40
9.0
 40
9.0
 40
9.0
 40
10.0
 40
10.0
 40
10.0
 40
11.0
 40
11.0
 40
11.0
 40
12.0
 40
12.0
 40
12.0
 40
13.0
 40
13.0
 40
13.0
 40
14.0
 40
14.0
 40
14.0
 40
15.0
 40
15.0
 40
15.0
 40
16.0
 40
16.0
 40
16.0
 40
17.0
 40
17.0
 40
17.0
 40
18.0
 40
18.0
 40
18.0
 40
19.0
 40
19.0
 40
19.0
 40
19.0
 10
94.00390893917263
 20
-134.5785210167026
 10
94.00390893917263
 20
-134.4830918717612
 10
94.02492402163266
 20
-134.2650173275449
 10
94.21095917783616
 20
-134.1403048709788
 10
94.3232692906553
 20
-134.0665798275945
 10
94.4224880406305
 20
-134.0621012034636
 10
94.50723738956763
 20
-134.0579670888814
 10
94.50723738956763
 20
-134.0579670888814
 10
94.50723738956763
 20
-134.2781086903888
 10
94.50723738956763
 20
-134.2781086903888
 10
94.43316783663477
 20
-134.2801757476799
 10
94.19855683408926
 20
-134.2905110341357
 10
94.19855683408926
 20
-134.5740423925718
 10
94.19855683408926
 20
-134.7115017024333
 10
94.2681477628913
 20
-134.8637749228813
 10
94.49655759356337
 20
-134.8637749228813
 10
94.61300182096481
 20
-134.8637749228813
 10
94.66157766730683
 20
-134.8258788725435
 10
94.69327254577114
 20
-134.7941839940792
 10
94.767342098704
 20
-134.7201144411464
 10
94.78008895199943
 20
-134.6036702137449
 10
94.78008895199943
 20
-134.5488931955294
 10
94.78008895199943
 20
-134.529600660812
 10
94.77802189470827
 20
-134.4937716677655
 10
94.77388778012597
 20
-134.4662109038835
 10
94.77388778012597
 20
-134.4662109038835
 10
94.96853567504259
 20
-134.4662109038835
 10
94.96853567504259
 20
-134.4662109038835
 10
94.96198999362062
 20
-134.5041069542212
 10
94.95992293632946
 20
-134.5468261382383
 10
94.95992293632946
 20
-134.5530273101118
 10
94.95992293632946
 20
-134.6184841243315
 10
94.98128252833801
 20
-134.8176106433789
 10
95.21796058817468
 20
-134.8176106433789
 10
95.39572751521358
 20
-134.8176106433789
 10
95.45084904297757
 20
-134.6860079958424
 10
95.45084904297757
 20
-134.5764539594115
 10
95.45084904297757
 20
-134.3118706261443
 10
95.21796058817468
 20
-134.3032578874311
 10
95.14630260208149
 20
-134.2991237728488
 10
95.14630260208149
 20
-134.2991237728488
 10
95.14630260208149
 20
-134.0962076487676
 10
95.14630260208149
 20
-134.0962076487676
 10
95.27101505864754
 20
-134.1044758779322
 10
95.64756399518534
 20
-134.1320366418142
 10
95.64756399518534
 20
-134.5888563031583
 10
95.64756399518534
 20
-134.8131320192481
 10
95.52043997177962
 20
-135.0542887032156
 10
95.22450626959666
 20
-135.0542887032156
 10
95.03812660384465
 20
-135.0542887032156
 10
94.95578882174716
 20
-134.9592040678227
 10
94.89446612210972
 20
-134.859640808299
 10
94.86690535822773
 20
-134.9209635079364
 10
94.7866346334214
 20
-135.1028645495576
 10
94.50930444685879
 20
-135.1028645495576
 10
94.17099607020725
 20
-135.1028645495576
 10
94.00390893917263
 20
-134.8555066937167
 10
94.00390893917263
 20
-134.5785210167026
 97
        0
 97
        0
 75
     2
 76
     1
 98
        0
  0
SPLINE
  5
57
330
41
100
AcDbEntity
  8
_U+30EC_U+30A4_U+30E4_U+30FC 1
370
     0
100
AcDbSpline
210
0.0
220
0.0
230
1.0
 70
    11
 71
     3
 72
    29
 73
    25
 74
     0
 42
0.0000000001
 43
0.0000000001
 12
1.0
 22
0.0
 32
0.0
 13
1.0
 23
0.0
 33
0.0
 40
0.0
 40
0.0
 40
0.0
 40
0.0
 40
1.0
 40
1.0
 40
1.0
 40
2.0
 40
2.0
 40
2.0
 40
3.0
 40
3.0
 40
3.0
 40
4.0
 40
4.0
 40
4.0
 40
5.0
 40
5.0
 40
5.0
 40
6.0
 40
6.0
 40
6.0
 40
7.0
 40
7.0
 40
7.0
 40
8.0
 40
8.0
 40
8.0
 40
8.0
 10
94.2323187698447
 20
-136.1615423921749
 30
0.0
 10
94.02285696434151
 20
-136.0537109034866
 30
0.0
 10
94.00390893917263
 20
-135.88007809103
 30
0.0
 10
94.00390893917263
 20
-135.7636338636285
 30
0.0
 10
94.00390893917263
 20
-135.6030924140159
 30
0.0
 10
94.05041772822351
 20
-135.4611544800236
 30
0.0
 10
94.2323187698447
 20
-135.3660698446307
 30
0.0
 10
94.42696666476132
 20
-135.2627169800732
 30
0.0
 10
94.66364472459799
 20
-135.2434244453558
 30
0.0
 10
94.82659774105029
 20
-135.2434244453558
 30
0.0
 10
94.97060273233375
 20
-135.2434244453558
 30
0.0
 10
95.2224392123055
 20
-135.2603054132335
 30
0.0
 10
95.42122122180442
 20
-135.3660698446307
 30
0.0
 10
95.62413734588564
 20
-135.4742458428676
 30
0.0
 10
95.64756399518534
 20
-135.6347872924802
 30
0.0
 10
95.64756399518534
 20
-135.7636338636285
 30
0.0
 10
95.64756399518534
 20
-135.9224527654985
 30
0.0
 10
95.60312226342562
 20
-136.0661132472335
 30
0.0
 10
95.42122122180442
 20
-136.1615423921749
 30
0.0
 10
95.22864038417896
 20
-136.2611056516986
 30
0.0
 10
95.0002305535069
 20
-136.2841877914498
 30
0.0
 10
94.82659774105029
 20
-136.2841877914498
 30
0.0
 10
94.65537649543339
 20
-136.2841877914498
 30
0.0
 10
94.42489960747017
 20
-136.2631727089898
 30
0.0
 10
94.2323187698447
 20
-136.1615423921749
 30
0.0
  0
SPLINE
  5
58
330
41
100
AcDbEntity
  8
_U+30EC_U+30A4_U+30E4_U+30FC 1
370
     0
100
AcDbSpline
210
0.0
220
0.0
230
1.0
 70
    11
 71
     3
 72
    17
 73
    13
 74
     0
 42
0.0000000001
 43
0.0000000001
 12
1.0
 22
0.0
 32
0.0
 13
1.0
 23
0.0
 33
0.0
 40
0.0
 40
0.0
 40
0.0
 40
0.0
 40
1.0
 40
1.0
 40
1.0
 40
2.0
 40
2.0
 40
2.0
 40
3.0
 40
3.0
 40
3.0
 40
4.0
 40
4.0
 40
4.0
 40
4.0
 10
95.45498315755987
 20
-135.7636338636285
 30
0.0
 10
95.45498315755987
 20
-135.5142089504965
 30
0.0
 10
95.1714517991238
 20
-135.4677001614456
 30
0.0
 10
94.82659774105029
 20
-135.4677001614456
 30
0.0
 10
94.50723738956763
 20
-135.4677001614456
 30
0.0
 10
94.19855683408926
 20
-135.5038736640407
 30
0.0
 10
94.19855683408926
 20
-135.7636338636285
 30
0.0
 10
94.19855683408926
 20
-136.011336229018
 30
0.0
 10
94.47967662568564
 20
-136.05991207536
 30
0.0
 10
94.82659774105029
 20
-136.05991207536
 30
0.0
 10
95.14630260208149
 20
-136.05991207536
 30
0.0
 10
95.45498315755987
 20
-136.0220160250223
 30
0.0
 10
95.45498315755987
 20
-135.7636338636285
 30
0.0
  0
HATCH
  5
59
330
41
100
AcDbEntity
  8
_U+30EC_U+30A4_U+30E4_U+30FC 1
 62
   179
420
  2234388
100
AcDbHatch
 10
0.0
 20
0.0
 30
0.0
210
0.0
220
0.0
230
1.0
  2
SOLID
 70
     1
 71
     0
 91
        2
 92
        1
 93
        1
 72
     4
 94
        3
 73
     0
 74
     1
 95
       29
 96
       25
 40
0.0
 40
0.0
 40
0.0
 40
0.0
 40
1.0
 40
1.0
 40
1.0
 40
2.0
 40
2.0
 40
2.0
 40
3.0
 40
3.0
 40
3.0
 40
4.0
 40
4.0
 40
4.0
 40
5.0
 40
5.0
 40
5.0
 40
6.0
 40
6.0
 40
6.0
 40
7.0
 40
7.0
 40
7.0
 40
8.0
 40
8.0
 40
8.0
 40
8.0
 10
94.2323187698447
 20
-136.1615423921749
 10
94.02285696434151
 20
-136.0537109034866
 10
94.00390893917263
 20
-135.88007809103
 10
94.00390893917263
 20
-135.7636338636285
 10
94.00390893917263
 20
-135.6030924140159
 10
94.05041772822351
 20
-135.4611544800236
 10
94.2323187698447
 20
-135.3660698446307
 10
94.42696666476132
 20
-135.2627169800732
 10
94.66364472459799
 20
-135.2434244453558
 10
94.82659774105029
 20
-135.2434244453558
 10
94.97060273233375
 20
-135.2434244453558
 10
95.2224392123055
 20
-135.2603054132335
 10
95.42122122180442
 20
-135.3660698446307
 10
95.62413734588564
 20
-135.4742458428676
 10
95.64756399518534
 20
-135.6347872924802
 10
95.64756399518534
 20
-135.7636338636285
 10
95.64756399518534
 20
-135.9224527654985
 10
95.60312226342562
 20
-136.0661132472335
 10
95.42122122180442
 20
-136.1615423921749
 10
95.22864038417896
 20
-136.2611056516986
 10
95.0002305535069
 20
-136.2841877914498
 10
94.82659774105029
 20
-136.2841877914498
 10
94.65537649543339
 20
-136.2841877914498
 10
94.42489960747017
 20
-136.2631727089898
 10
94.2323187698447
 20
-136.1615423921749
 97
        0
 97
        0
 92
        1
 93
        1
 72
     4
 94
        3
 73
     0
 74
     1
 95
       17
 96
       13
 40
0.0
 40
0.0
 40
0.0
 40
0.0
 40
1.0
 40
1.0
 40
1.0
 40
2.0
 40
2.0
 40
2.0
 40
3.0
 40
3.0
 40
3.0
 40
4.0
 40
4.0
 40
4.0
 40
4.0
 10
95.45498315755987
 20
-135.7636338636285
 10
95.45498315755987
 20
-135.5142089504965
 10
95.1714517991238
 20
-135.4677001614456
 10
94.82659774105029
 20
-135.4677001614456
 10
94.50723738956763
 20
-135.4677001614456
 10
94.19855683408926
 20
-135.5038736640407
 10
94.19855683408926
 20
-135.7636338636285
 10
94.19855683408926
 20
-136.011336229018
 10
94.47967662568564
 20
-136.05991207536
 10
94.82659774105029
 20
-136.05991207536
 10
95.14630260208149
 20
-136.05991207536
 10
95.45498315755987
 20
-136.0220160250223
 10
95.45498315755987
 20
-135.7636338636285
 97
        0
 97
        0
 75
     2
 76
     1
 98
        0
  0
POLYLINE
  5
5A
330
41
100
AcDbEntity
  8
_U+30EC_U+30A4_U+30E4_U+30FC 1
370
     0
100
AcDb2dPolyline
 66
     1
 10
0.0
 20
0.0
 30
0.0
  0
VERTEX
  5
5B
330
5A
100
AcDbEntity
  8
_U+30EC_U+30A4_U+30E4_U+30FC 1
370
     0
100
AcDbVertex
100
AcDb2dVertex
 10
94.05455184280581
 20
-137.7828043275335
 30
0.0
  0
VERTEX
  5
5C
330
5A
100
AcDbEntity
  8
_U+30EC_U+30A4_U+30E4_U+30FC 1
370
     0
100
AcDbVertex
100
AcDb2dVertex
 10
95.12287595278178
 20
-137.7828043275335
 30
0.0
  0
VERTEX
  5
5D
330
5A
100
AcDbEntity
  8
_U+30EC_U+30A4_U+30E4_U+30FC 1
370
     0
100
AcDbVertex
100
AcDb2dVertex
 10
95.2858289692341
 20
-137.7890054994069
 30
0.0
  0
VERTEX
  5
5E
330
5A
100
AcDbEntity
  8
_U+30EC_U+30A4_U+30E4_U+30FC 1
370
     0
100
AcDbVertex
100
AcDb2dVertex
 10
95.13148869149491
 20
-137.7531765063603
 30
0.0
  0
VERTEX
  5
5F
330
5A
100
AcDbEntity
  8
_U+30EC_U+30A4_U+30E4_U+30FC 1
370
     0
100
AcDbVertex
100
AcDb2dVertex
 10
94.05455184280581
 20
-137.4083224482868
 30
0.0
  0
VERTEX
  5
60
330
5A
100
AcDbEntity
  8
_U+30EC_U+30A4_U+30E4_U+30FC 1
370
     0
100
AcDbVertex
100
AcDb2dVertex
 10
94.05455184280581
 20
-137.1375379431462
 30
0.0
  0
VERTEX
  5
61
330
5A
100
AcDbEntity
  8
_U+30EC_U+30A4_U+30E4_U+30FC 1
370
     0
100
AcDbVertex
100
AcDb2dVertex
 10
95.13148869149491
 20
-136.7947509423638
 30
0.0
  0
VERTEX
  5
62
330
5A
100
AcDbEntity
  8
_U+30EC_U+30A4_U+30E4_U+30FC 1
370
     0
100
AcDbVertex
100
AcDb2dVertex
 10
95.2858289692341
 20
-136.7585774397687
 30
0.0
  0
VERTEX
  5
63
330
5A
100
AcDbEntity
  8
_U+30EC_U+30A4_U+30E4_U+30FC 1
370
     0
100
AcDbVertex
100
AcDb2dVertex
 10
95.12287595278178
 20
-136.7630560638995
 30
0.0
  0
VERTEX
  5
64
330
5A
100
AcDbEntity
  8
_U+30EC_U+30A4_U+30E4_U+30FC 1
370
     0
100
AcDbVertex
100
AcDb2dVertex
 10
94.05455184280581
 20
-136.7630560638995
 30
0.0
  0
VERTEX
  5
65
330
5A
100
AcDbEntity
  8
_U+30EC_U+30A4_U+30E4_U+30FC 1
370
     0
100
AcDbVertex
100
AcDb2dVertex
 10
94.05455184280581
 20
-136.5449815196832
 30
0.0
  0
VERTEX
  5
66
330
5A
100
AcDbEntity
  8
_U+30EC_U+30A4_U+30E4_U+30FC 1
370
     0
100
AcDbVertex
100
AcDb2dVertex
 10
95.59898814884332
 20
-136.5449815196832
 30
0.0
  0
VERTEX
  5
67
330
5A
100
AcDbEntity
  8
_U+30EC_U+30A4_U+30E4_U+30FC 1
370
     0
100
AcDbVertex
100
AcDb2dVertex
 10
95.59898814884332
 20
-136.8646863807144
 30
0.0
  0
VERTEX
  5
68
330
5A
100
AcDbEntity
  8
_U+30EC_U+30A4_U+30E4_U+30FC 1
370
     0
100
AcDbVertex
100
AcDb2dVertex
 10
94.45004880451249
 20
-137.2346896358302
 30
0.0
  0
VERTEX
  5
69
330
5A
100
AcDbEntity
  8
_U+30EC_U+30A4_U+30E4_U+30FC 1
370
     0
100
AcDbVertex
100
AcDb2dVertex
 10
94.30845538006872
 20
-137.2729301957165
 30
0.0
  0
VERTEX
  5
6A
330
5A
100
AcDbEntity
  8
_U+30EC_U+30A4_U+30E4_U+30FC 1
370
     0
100
AcDbVertex
100
AcDb2dVertex
 10
94.45004880451249
 20
-137.3108262460542
 30
0.0
  0
VERTEX
  5
6B
330
5A
100
AcDbEntity
  8
_U+30EC_U+30A4_U+30E4_U+30FC 1
370
     0
100
AcDbVertex
100
AcDb2dVertex
 10
95.59898814884332
 20
-137.6832410680097
 30
0.0
  0
VERTEX
  5
6C
330
5A
100
AcDbEntity
  8
_U+30EC_U+30A4_U+30E4_U+30FC 1
370
     0
100
AcDbVertex
100
AcDb2dVertex
 10
95.59898814884332
 20
-138.0005343622013
 30
0.0
  0
VERTEX
  5
6D
330
5A
100
AcDbEntity
  8
_U+30EC_U+30A4_U+30E4_U+30FC 1
370
     0
100
AcDbVertex
100
AcDb2dVertex
 10
94.05455184280581
 20
-138.0005343622013
 30
0.0
  0
VERTEX
  5
6E
330
5A
100
AcDbEntity
  8
_U+30EC_U+30A4_U+30E4_U+30FC 1
370
     0
100
AcDbVertex
100
AcDb2dVertex
 10
94.05455184280581
 20
-137.7828043275335
 30
0.0
  0
SEQEND
  5
6F
330
5A
100
AcDbEntity
  8
_U+30EC_U+30A4_U+30E4_U+30FC 1
370
     0
  0
HATCH
  5
70
330
41
100
AcDbEntity
  8
_U+30EC_U+30A4_U+30E4_U+30FC 1
 62
   179
420
  2234388
100
AcDbHatch
 10
0.0
 20
0.0
 30
0.0
210
0.0
220
0.0
230
1.0
  2
SOLID
 70
     1
 71
     0
 91
        1
 92
        1
 93
       19
 72
     1
 10
94.05455184280581
 20
-137.7828043275335
 11
95.12287595278178
 21
-137.7828043275335
 72
     1
 10
95.12287595278178
 20
-137.7828043275335
 11
95.2858289692341
 21
-137.7890054994069
 72
     1
 10
95.2858289692341
 20
-137.7890054994069
 11
95.13148869149491
 21
-137.7531765063603
 72
     1
 10
95.13148869149491
 20
-137.7531765063603
 11
94.05455184280581
 21
-137.4083224482868
 72
     1
 10
94.05455184280581
 20
-137.4083224482868
 11
94.05455184280581
 21
-137.1375379431462
 72
     1
 10
94.05455184280581
 20
-137.1375379431462
 11
95.13148869149491
 21
-136.7947509423638
 72
     1
 10
95.13148869149491
 20
-136.7947509423638
 11
95.2858289692341
 21
-136.7585774397687
 72
     1
 10
95.2858289692341
 20
-136.7585774397687
 11
95.12287595278178
 21
-136.7630560638995
 72
     1
 10
95.12287595278178
 20
-136.7630560638995
 11
94.05455184280581
 21
-136.7630560638995
 72
     1
 10
94.05455184280581
 20
-136.7630560638995
 11
94.05455184280581
 21
-136.5449815196832
 72
     1
 10
94.05455184280581
 20
-136.5449815196832
 11
95.59898814884332
 21
-136.5449815196832
 72
     1
 10
95.59898814884332
 20
-136.5449815196832
 11
95.59898814884332
 21
-136.8646863807144
 72
     1
 10
95.59898814884332
 20
-136.8646863807144
 11
94.45004880451249
 21
-137.2346896358302
 72
     1
 10
94.45004880451249
 20
-137.2346896358302
 11
94.30845538006872
 21
-137.2729301957165
 72
     1
 10
94.30845538006872
 20
-137.2729301957165
 11
94.45004880451249
 21
-137.3108262460542
 72
     1
 10
94.45004880451249
 20
-137.3108262460542
 11
95.59898814884332
 21
-137.6832410680097
 72
     1
 10
95.59898814884332
 20
-137.6832410680097
 11
95.59898814884332
 21
-138.0005343622013
 72
     1
 10
95.59898814884332
 20
-138.0005343622013
 11
94.05455184280581
 21
-138.0005343622013
 72
     1
 10
94.05455184280581
 20
-138.0005343622013
 11
94.05455184280581
 21
-137.7828043275335
 97
        0
 75
     2
 76
     1
 98
        0
  0
POLYLINE
  5
71
330
41
100
AcDbEntity
  8
_U+30EC_U+30A4_U+30E4_U+30FC 1
370
     0
100
AcDb2dPolyline
 66
     1
 10
0.0
 20
0.0
 30
0.0
  0
VERTEX
  5
72
330
71
100
AcDbEntity
  8
_U+30EC_U+30A4_U+30E4_U+30FC 1
370
     0
100
AcDbVertex
100
AcDb2dVertex
 10
94.05455184280581
 20
-139.7489203209656
 30
0.0
  0
VERTEX
  5
73
330
71
100
AcDbEntity
  8
_U+30EC_U+30A4_U+30E4_U+30FC 1
370
     0
100
AcDbVertex
100
AcDb2dVertex
 10
94.05455184280581
 20
-139.4781358158249
 30
0.0
  0
VERTEX
  5
74
330
71
100
AcDbEntity
  8
_U+30EC_U+30A4_U+30E4_U+30FC 1
370
     0
100
AcDbVertex
100
AcDb2dVertex
 10
95.32820364370268
 20
-139.1925374000977
 30
0.0
  0
VERTEX
  5
75
330
71
100
AcDbEntity
  8
_U+30EC_U+30A4_U+30E4_U+30FC 1
370
     0
100
AcDbVertex
100
AcDb2dVertex
 10
94.05455184280581
 20
-138.9093505512102
 30
0.0
  0
VERTEX
  5
76
330
71
100
AcDbEntity
  8
_U+30EC_U+30A4_U+30E4_U+30FC 1
370
     0
100
AcDbVertex
100
AcDb2dVertex
 10
94.05455184280581
 20
-138.6385660460695
 30
0.0
  0
VERTEX
  5
77
330
71
100
AcDbEntity
  8
_U+30EC_U+30A4_U+30E4_U+30FC 1
370
     0
100
AcDbVertex
100
AcDb2dVertex
 10
95.59898814884332
 20
-138.2554714281098
 30
0.0
  0
VERTEX
  5
78
330
71
100
AcDbEntity
  8
_U+30EC_U+30A4_U+30E4_U+30FC 1
370
     0
100
AcDbVertex
100
AcDb2dVertex
 10
95.59898814884332
 20
-138.4883598829126
 30
0.0
  0
VERTEX
  5
79
330
71
100
AcDbEntity
  8
_U+30EC_U+30A4_U+30E4_U+30FC 1
370
     0
100
AcDbVertex
100
AcDb2dVertex
 10
94.34876299724614
 20
-138.7739582986399
 30
0.0
  0
VERTEX
  5
7A
330
71
100
AcDbEntity
  8
_U+30EC_U+30A4_U+30E4_U+30FC 1
370
     0
100
AcDbVertex
100
AcDb2dVertex
 10
95.59898814884332
 20
-139.0530110329451
 30
0.0
  0
VERTEX
  5
7B
330
71
100
AcDbEntity
  8
_U+30EC_U+30A4_U+30E4_U+30FC 1
370
     0
100
AcDbVertex
100
AcDb2dVertex
 10
95.59898814884332
 20
-139.3324082767988
 30
0.0
  0
VERTEX
  5
7C
330
71
100
AcDbEntity
  8
_U+30EC_U+30A4_U+30E4_U+30FC 1
370
     0
100
AcDbVertex
100
AcDb2dVertex
 10
94.34876299724614
 20
-139.6114610111041
 30
0.0
  0
VERTEX
  5
7D
330
71
100
AcDbEntity
  8
_U+30EC_U+30A4_U+30E4_U+30FC 1
370
     0
100
AcDbVertex
100
AcDb2dVertex
 10
95.59898814884332
 20
-139.8991264841224
 30
0.0
  0
VERTEX
  5
7E
330
71
100
AcDbEntity
  8
_U+30EC_U+30A4_U+30E4_U+30FC 1
370
     0
100
AcDbVertex
100
AcDb2dVertex
 10
95.59898814884332
 20
-140.1320149389253
 30
0.0
  0
VERTEX
  5
7F
330
71
100
AcDbEntity
  8
_U+30EC_U+30A4_U+30E4_U+30FC 1
370
     0
100
AcDbVertex
100
AcDb2dVertex
 10
94.05455184280581
 20
-139.7489203209656
 30
0.0
  0
SEQEND
  5
80
330
71
100
AcDbEntity
  8
_U+30EC_U+30A4_U+30E4_U+30FC 1
370
     0
  0
HATCH
  5
81
330
41
100
AcDbEntity
  8
_U+30EC_U+30A4_U+30E4_U+30FC 1
 62
   179
420
  2234388
100
AcDbHatch
 10
0.0
 20
0.0
 30
0.0
210
0.0
220
0.0
230
1.0
  2
SOLID
 70
     1
 71
     0
 91
        1
 92
        1
 93
       13
 72
     1
 10
94.05455184280581
 20
-139.7489203209656
 11
94.05455184280581
 21
-139.4781358158249
 72
     1
 10
94.05455184280581
 20
-139.4781358158249
 11
95.32820364370268
 21
-139.1925374000977
 72
     1
 10
95.32820364370268
 20
-139.1925374000977
 11
94.05455184280581
 21
-138.9093505512102
 72
     1
 10
94.05455184280581
 20
-138.9093505512102
 11
94.05455184280581
 21
-138.6385660460695
 72
     1
 10
94.05455184280581
 20
-138.6385660460695
 11
95.59898814884332
 21
-138.2554714281098
 72
     1
 10
95.59898814884332
 20
-138.2554714281098
 11
95.59898814884332
 21
-138.4883598829126
 72
     1
 10
95.59898814884332
 20
-138.4883598829126
 11
94.34876299724614
 21
-138.7739582986399
 72
     1
 10
94.34876299724614
 20
-138.7739582986399
 11
95.59898814884332
 21
-139.0530110329451
 72
     1
 10
95.59898814884332
 20
-139.0530110329451
 11
95.59898814884332
 21
-139.3324082767988
 72
     1
 10
95.59898814884332
 20
-139.3324082767988
 11
94.34876299724614
 21
-139.6114610111041
 72
     1
 10
94.34876299724614
 20
-139.6114610111041
 11
95.59898814884332
 21
-139.8991264841224
 72
     1
 10
95.59898814884332
 20
-139.8991264841224
 11
95.59898814884332
 21
-140.1320149389253
 72
     1
 10
95.59898814884332
 20
-140.1320149389253
 11
94.05455184280581
 21
-139.7489203209656
 97
        0
 75
     2
 76
     1
 98
        0
  0
ENDBLK
  5
44
330
41
100
AcDbEntity
  8
0
100
AcDbBlockEnd
  0
BLOCK
  5
84
330
82
100
AcDbEntity
  8
0
100
AcDbBlockBegin
  2
block 3
 70
     0
 10
0.0
 20
0.0
 30
0.0
  3
block 3
  1

  0
SPLINE
  5
86
330
82
100
AcDbEntity
  8
_U+30EC_U+30A4_U+30E4_U+30FC 1
370
     0
100
AcDbSpline
210
0.0
220
0.0
230
1.0
 70
    11
 71
     3
 72
    38
 73
    34
 74
     0
 42
0.0000000001
 43
0.0000000001
 12
1.0
 22
0.0
 32
0.0
 13
1.0
 23
0.0
 33
0.0
 40
0.0
 40
0.0
 40
0.0
 40
0.0
 40
1.0
 40
1.0
 40
1.0
 40
2.0
 40
2.0
 40
2.0
 40
3.0
 40
3.0
 40
3.0
 40
4.0
 40
4.0
 40
4.0
 40
5.0
 40
5.0
 40
5.0
 40
6.0
 40
6.0
 40
6.0
 40
7.0
 40
7.0
 40
7.0
 40
8.0
 40
8.0
 40
8.0
 40
9.0
 40
9.0
 40
9.0
 40
10.0
 40
10.0
 40
10.0
 40
11.0
 40
11.0
 40
11.0
 40
11.0
 10
93.54329967279473
 20
-120.4031588783194
 30
0.0
 10
93.12575409998246
 20
-120.609003333563
 30
0.0
 10
92.7181993040774
 20
-120.4043646617392
 30
0.0
 10
92.51046004631684
 20
-119.9833739934417
 30
0.0
 10
92.278260610611
 20
-119.5127739501565
 30
0.0
 10
92.45947263313514
 20
-119.104874644703
 30
0.0
 10
92.8256862832172
 20
-118.9243516412759
 30
0.0
 10
93.13505585779262
 20
-118.7717339112793
 30
0.0
 10
93.4668185530222
 20
-118.8182427003302
 30
0.0
 10
93.62632647398925
 20
-119.0935058296016
 30
0.0
 10
93.62632647398925
 20
-119.0935058296016
 30
0.0
 10
93.41927623532574
 20
-119.195480655965
 30
0.0
 10
93.41927623532574
 20
-119.195480655965
 30
0.0
 10
93.29353025011412
 20
-119.0263264676393
 30
0.0
 10
93.05960826666566
 20
-119.0494086073904
 30
0.0
 10
92.91525876583368
 20
-119.1207220839351
 30
0.0
 10
92.82224118773195
 20
-119.1663695991147
 30
0.0
 10
92.73232419556692
 20
-119.246640323921
 30
0.0
 10
92.6823703110308
 20
-119.3560221055777
 30
0.0
 10
92.59417586660841
 20
-119.5408514783613
 30
0.0
 10
92.6630777763134
 20
-119.747384952702
 30
0.0
 10
92.7333577242125
 20
-119.8898396510171
 30
0.0
 10
92.92800561912911
 20
-120.2844753388525
 30
0.0
 10
93.24943302790292
 20
-120.305145911764
 30
0.0
 10
93.44304739417396
 20
-120.2097167668226
 30
0.0
 10
93.56638181254591
 20
-120.1487385767336
 30
0.0
 10
93.77377656075795
 20
-119.9571912677538
 30
0.0
 10
93.66181095748733
 20
-119.6581569796341
 30
0.0
 10
93.66181095748733
 20
-119.6581569796341
 30
0.0
 10
93.86851668660232
 20
-119.5561821532707
 30
0.0
 10
93.86851668660232
 20
-119.5561821532707
 30
0.0
 10
93.91709253294434
 20
-119.6833061766764
 30
0.0
 10
94.08590221172159
 20
-120.1356472138897
 30
0.0
 10
93.54329967279473
 20
-120.4031588783194
 30
0.0
  0
HATCH
  5
87
330
82
100
AcDbEntity
  8
_U+30EC_U+30A4_U+30E4_U+30FC 1
 62
   179
420
  2234388
100
AcDbHatch
 10
0.0
 20
0.0
 30
0.0
210
0.0
220
0.0
230
1.0
  2
SOLID
 70
     1
 71
     0
 91
        1
 92
        1
 93
        1
 72
     4
 94
        3
 73
     0
 74
     1
 95
       38
 96
       34
 40
0.0
 40
0.0
 40
0.0
 40
0.0
 40
1.0
 40
1.0
 40
1.0
 40
2.0
 40
2.0
 40
2.0
 40
3.0
 40
3.0
 40
3.0
 40
4.0
 40
4.0
 40
4.0
 40
5.0
 40
5.0
 40
5.0
 40
6.0
 40
6.0
 40
6.0
 40
7.0
 40
7.0
 40
7.0
 40
8.0
 40
8.0
 40
8.0
 40
9.0
 40
9.0
 40
9.0
 40
10.0
 40
10.0
 40
10.0
 40
11.0
 40
11.0
 40
11.0
 40
11.0
 10
93.54329967279473
 20
-120.4031588783194
 10
93.12575409998246
 20
-120.609003333563
 10
92.7181993040774
 20
-120.4043646617392
 10
92.51046004631684
 20
-119.9833739934417
 10
92.278260610611
 20
-119.5127739501565
 10
92.45947263313514
 20
-119.104874644703
 10
92.8256862832172
 20
-118.9243516412759
 10
93.13505585779262
 20
-118.7717339112793
 10
93.4668185530222
 20
-118.8182427003302
 10
93.62632647398925
 20
-119.0935058296016
 10
93.62632647398925
 20
-119.0935058296016
 10
93.41927623532574
 20
-119.195480655965
 10
93.41927623532574
 20
-119.195480655965
 10
93.29353025011412
 20
-119.0263264676393
 10
93.05960826666566
 20
-119.0494086073904
 10
92.91525876583368
 20
-119.1207220839351
 10
92.82224118773195
 20
-119.1663695991147
 10
92.73232419556692
 20
-119.246640323921
 10
92.6823703110308
 20
-119.3560221055777
 10
92.59417586660841
 20
-119.5408514783613
 10
92.6630777763134
 20
-119.747384952702
 10
92.7333577242125
 20
-119.8898396510171
 10
92.92800561912911
 20
-120.2844753388525
 10
93.24943302790292
 20
-120.305145911764
 10
93.44304739417396
 20
-120.2097167668226
 10
93.56638181254591
 20
-120.1487385767336
 10
93.77377656075795
 20
-119.9571912677538
 10
93.66181095748733
 20
-119.6581569796341
 10
93.66181095748733
 20
-119.6581569796341
 10
93.86851668660232
 20
-119.5561821532707
 10
93.86851668660232
 20
-119.5561821532707
 10
93.91709253294434
 20
-119.6833061766764
 10
94.08590221172159
 20
-120.1356472138897
 10
93.54329967279473
 20
-120.4031588783194
 97
        0
 97
        0
 75
     2
 76
     1
 98
        0
  0
SPLINE
  5
88
330
82
100
AcDbEntity
  8
_U+30EC_U+30A4_U+30E4_U+30FC 1
370
     0
100
AcDbSpline
210
0.0
220
0.0
230
1.0
 70
    11
 71
     3
 72
    44
 73
    40
 74
     0
 42
0.0000000001
 43
0.0000000001
 12
1.0
 22
0.0
 32
0.0
 13
1.0
 23
0.0
 33
0.0
 40
0.0
 40
0.0
 40
0.0
 40
0.0
 40
1.0
 40
1.0
 40
1.0
 40
2.0
 40
2.0
 40
2.0
 40
3.0
 40
3.0
 40
3.0
 40
4.0
 40
4.0
 40
4.0
 40
5.0
 40
5.0
 40
5.0
 40
6.0
 40
6.0
 40
6.0
 40
7.0
 40
7.0
 40
7.0
 40
8.0
 40
8.0
 40
8.0
 40
9.0
 40
9.0
 40
9.0
 40
10.0
 40
10.0
 40
10.0
 40
11.0
 40
11.0
 40
11.0
 40
12.0
 40
12.0
 40
12.0
 40
13.0
 40
13.0
 40
13.0
 40
13.0
 10
95.20245765849106
 20
-119.5282768798402
 30
0.0
 10
95.16180553176511
 20
-119.4989935682155
 30
0.0
 10
95.11977536684506
 20
-119.4607530083293
 30
0.0
 10
95.01573348319052
 20
-119.2549085530856
 30
0.0
 10
94.90445689901695
 20
-119.0383843018376
 30
0.0
 10
94.82039656917685
 20
-119.0020385444682
 30
0.0
 10
94.66088864820978
 20
-119.0807589763062
 30
0.0
 10
94.66088864820978
 20
-119.0807589763062
 30
0.0
 10
94.29467499812772
 20
-119.2612819797333
 30
0.0
 10
94.29467499812772
 20
-119.2612819797333
 30
0.0
 10
94.29467499812772
 20
-119.2612819797333
 30
0.0
 10
94.57820635656378
 20
-119.8362684162215
 30
0.0
 10
94.57820635656378
 20
-119.8362684162215
 30
0.0
 10
94.57820635656378
 20
-119.8362684162215
 30
0.0
 10
94.36771102241502
 20
-119.9399657903275
 30
0.0
 10
94.36771102241502
 20
-119.9399657903275
 30
0.0
 10
94.36771102241502
 20
-119.9399657903275
 30
0.0
 10
93.68454858768997
 20
-118.5550374052571
 30
0.0
 10
93.68454858768997
 20
-118.5550374052571
 30
0.0
 10
93.68454858768997
 20
-118.5550374052571
 30
0.0
 10
94.28985186444838
 20
-118.2563476266859
 30
0.0
 10
94.28985186444838
 20
-118.2563476266859
 30
0.0
 10
94.5647704841713
 20
-118.1207831193413
 30
0.0
 10
94.7907687480037
 20
-118.2007093345991
 30
0.0
 10
94.9037678799199
 20
-118.430324948691
 30
0.0
 10
94.92650551012254
 20
-118.4758002090963
 30
0.0
 10
94.95544431219864
 20
-118.553659367063
 30
0.0
 10
94.95096568806782
 20
-118.6452989069706
 30
0.0
 10
94.94373098754879
 20
-118.7644992107603
 30
0.0
 10
94.89343259346414
 20
-118.8104912354884
 30
0.0
 10
94.8458902757677
 20
-118.8526936551827
 30
0.0
 10
94.98782820976
 20
-118.82995602498
 30
0.0
 10
95.06982148230894
 20
-118.8435641521468
 30
0.0
 10
95.21313745449532
 20
-119.1243394341946
 30
0.0
 10
95.3368163824158
 20
-119.3653238633878
 30
0.0
 10
95.38298066191815
 20
-119.3777262071347
 30
0.0
 10
95.46807452040382
 20
-119.3973632514007
 30
0.0
 10
95.46807452040382
 20
-119.3973632514007
 30
0.0
 10
95.20245765849106
 20
-119.5282768798402
 30
0.0
 10
95.20245765849106
 20
-119.5282768798402
 30
0.0
  0
SPLINE
  5
89
330
82
100
AcDbEntity
  8
_U+30EC_U+30A4_U+30E4_U+30FC 1
370
     0
100
AcDbSpline
210
0.0
220
0.0
230
1.0
 70
    11
 71
     3
 72
    20
 73
    16
 74
     0
 42
0.0000000001
 43
0.0000000001
 12
1.0
 22
0.0
 32
0.0
 13
1.0
 23
0.0
 33
0.0
 40
0.0
 40
0.0
 40
0.0
 40
0.0
 40
1.0
 40
1.0
 40
1.0
 40
2.0
 40
2.0
 40
2.0
 40
3.0
 40
3.0
 40
3.0
 40
4.0
 40
4.0
 40
4.0
 40
5.0
 40
5.0
 40
5.0
 40
5.0
 10
94.38734806668094
 20
-118.4442775854063
 30
0.0
 10
94.38734806668094
 20
-118.4442775854063
 30
0.0
 10
93.98875051903754
 20
-118.6408202828398
 30
0.0
 10
93.98875051903754
 20
-118.6408202828398
 30
0.0
 10
93.98875051903754
 20
-118.6408202828398
 30
0.0
 10
94.20131291047745
 20
-119.071457218496
 30
0.0
 10
94.20131291047745
 20
-119.071457218496
 30
0.0
 10
94.20131291047745
 20
-119.071457218496
 30
0.0
 10
94.59784340082972
 20
-118.8759480497081
 30
0.0
 10
94.59784340082972
 20
-118.8759480497081
 30
0.0
 10
94.68707137389768
 20
-118.8320230822712
 30
0.0
 10
94.77492130877155
 20
-118.7038655302199
 30
0.0
 10
94.69912920809605
 20
-118.5502142715777
 30
0.0
 10
94.66433374369504
 20
-118.4802788332272
 30
0.0
 10
94.56545950326836
 20
-118.3562553957582
 30
0.0
 10
94.38734806668094
 20
-118.4442775854063
 30
0.0
  0
HATCH
  5
8A
330
82
100
AcDbEntity
  8
_U+30EC_U+30A4_U+30E4_U+30FC 1
 62
   179
420
  2234388
100
AcDbHatch
 10
0.0
 20
0.0
 30
0.0
210
0.0
220
0.0
230
1.0
  2
SOLID
 70
     1
 71
     0
 91
        2
 92
        1
 93
        1
 72
     4
 94
        3
 73
     0
 74
     1
 95
       44
 96
       40
 40
0.0
 40
0.0
 40
0.0
 40
0.0
 40
1.0
 40
1.0
 40
1.0
 40
2.0
 40
2.0
 40
2.0
 40
3.0
 40
3.0
 40
3.0
 40
4.0
 40
4.0
 40
4.0
 40
5.0
 40
5.0
 40
5.0
 40
6.0
 40
6.0
 40
6.0
 40
7.0
 40
7.0
 40
7.0
 40
8.0
 40
8.0
 40
8.0
 40
9.0
 40
9.0
 40
9.0
 40
10.0
 40
10.0
 40
10.0
 40
11.0
 40
11.0
 40
11.0
 40
12.0
 40
12.0
 40
12.0
 40
13.0
 40
13.0
 40
13.0
 40
13.0
 10
95.20245765849106
 20
-119.5282768798402
 10
95.16180553176511
 20
-119.4989935682155
 10
95.11977536684506
 20
-119.4607530083293
 10
95.01573348319052
 20
-119.2549085530856
 10
94.90445689901695
 20
-119.0383843018376
 10
94.82039656917685
 20
-119.0020385444682
 10
94.66088864820978
 20
-119.0807589763062
 10
94.66088864820978
 20
-119.0807589763062
 10
94.29467499812772
 20
-119.2612819797333
 10
94.29467499812772
 20
-119.2612819797333
 10
94.29467499812772
 20
-119.2612819797333
 10
94.57820635656378
 20
-119.8362684162215
 10
94.57820635656378
 20
-119.8362684162215
 10
94.57820635656378
 20
-119.8362684162215
 10
94.36771102241502
 20
-119.9399657903275
 10
94.36771102241502
 20
-119.9399657903275
 10
94.36771102241502
 20
-119.9399657903275
 10
93.68454858768997
 20
-118.5550374052571
 10
93.68454858768997
 20
-118.5550374052571
 10
93.68454858768997
 20
-118.5550374052571
 10
94.28985186444838
 20
-118.2563476266859
 10
94.28985186444838
 20
-118.2563476266859
 10
94.5647704841713
 20
-118.1207831193413
 10
94.7907687480037
 20
-118.2007093345991
 10
94.9037678799199
 20
-118.430324948691
 10
94.92650551012254
 20
-118.4758002090963
 10
94.95544431219864
 20
-118.553659367063
 10
94.95096568806782
 20
-118.6452989069706
 10
94.94373098754879
 20
-118.7644992107603
 10
94.89343259346414
 20
-118.8104912354884
 10
94.8458902757677
 20
-118.8526936551827
 10
94.98782820976
 20
-118.82995602498
 10
95.06982148230894
 20
-118.8435641521468
 10
95.21313745449532
 20
-119.1243394341946
 10
95.3368163824158
 20
-119.3653238633878
 10
95.38298066191815
 20
-119.3777262071347
 10
95.46807452040382
 20
-119.3973632514007
 10
95.46807452040382
 20
-119.3973632514007
 10
95.20245765849106
 20
-119.5282768798402
 10
95.20245765849106
 20
-119.5282768798402
 97
        0
 97
        0
 92
        1
 93
        1
 72
     4
 94
        3
 73
     0
 74
     1
 95
       20
 96
       16
 40
0.0
 40
0.0
 40
0.0
 40
0.0
 40
1.0
 40
1.0
 40
1.0
 40
2.0
 40
2.0
 40
2.0
 40
3.0
 40
3.0
 40
3.0
 40
4.0
 40
4.0
 40
4.0
 40
5.0
 40
5.0
 40
5.0
 40
5.0
 10
94.38734806668094
 20
-118.4442775854063
 10
94.38734806668094
 20
-118.4442775854063
 10
93.98875051903754
 20
-118.6408202828398
 10
93.98875051903754
 20
-118.6408202828398
 10
93.98875051903754
 20
-118.6408202828398
 10
94.20131291047745
 20
-119.071457218496
 10
94.20131291047745
 20
-119.071457218496
 10
94.20131291047745
 20
-119.071457218496
 10
94.59784340082972
 20
-118.8759480497081
 10
94.59784340082972
 20
-118.8759480497081
 10
94.68707137389768
 20
-118.8320230822712
 10
94.77492130877155
 20
-118.7038655302199
 10
94.69912920809605
 20
-118.5502142715777
 10
94.66433374369504
 20
-118.4802788332272
 10
94.56545950326836
 20
-118.3562553957582
 10
94.38734806668094
 20
-118.4442775854063
 97
        0
 97
        0
 75
     2
 76
     1
 98
        0
  0
SPLINE
  5
8B
330
82
100
AcDbEntity
  8
_U+30EC_U+30A4_U+30E4_U+30FC 1
370
     0
100
AcDbSpline
210
0.0
220
0.0
230
1.0
 70
    11
 71
     3
 72
    26
 73
    22
 74
     0
 42
0.0000000001
 43
0.0000000001
 12
1.0
 22
0.0
 32
0.0
 13
1.0
 23
0.0
 33
0.0
 40
0.0
 40
0.0
 40
0.0
 40
0.0
 40
1.0
 40
1.0
 40
1.0
 40
2.0
 40
2.0
 40
2.0
 40
3.0
 40
3.0
 40
3.0
 40
4.0
 40
4.0
 40
4.0
 40
5.0
 40
5.0
 40
5.0
 40
6.0
 40
6.0
 40
6.0
 40
7.0
 40
7.0
 40
7.0
 40
7.0
 10
96.01171058797624
 20
-118.4265353436573
 30
0.0
 10
96.01171058797624
 20
-118.4265353436573
 30
0.0
 10
95.60587833981381
 20
-118.6266953913503
 30
0.0
 10
95.60587833981381
 20
-118.6266953913503
 30
0.0
 10
95.60587833981381
 20
-118.6266953913503
 30
0.0
 10
95.88458656457053
 20
-119.1920355604798
 30
0.0
 10
95.88458656457053
 20
-119.1920355604798
 30
0.0
 10
95.88458656457053
 20
-119.1920355604798
 30
0.0
 10
95.67374672087324
 20
-119.2959051893601
 30
0.0
 10
95.67374672087324
 20
-119.2959051893601
 30
0.0
 10
95.67374672087324
 20
-119.2959051893601
 30
0.0
 10
94.99058428614819
 20
-117.9108045495154
 30
0.0
 10
94.99058428614819
 20
-117.9108045495154
 30
0.0
 10
94.99058428614819
 20
-117.9108045495154
 30
0.0
 10
95.60725637800792
 20
-117.6066026181678
 30
0.0
 10
95.60725637800792
 20
-117.6066026181678
 30
0.0
 10
95.86563853940164
 20
-117.4794785947621
 30
0.0
 10
96.12160913395572
 20
-117.5347723773003
 30
0.0
 10
96.25355629104078
 20
-117.8024562965042
 30
0.0
 10
96.36311032747173
 20
-118.0243204457543
 30
0.0
 10
96.30936683790183
 20
-118.2796020212114
 30
0.0
 10
96.01171058797624
 20
-118.4265353436573
 30
0.0
  0
SPLINE
  5
8C
330
82
100
AcDbEntity
  8
_U+30EC_U+30A4_U+30E4_U+30FC 1
370
     0
100
AcDbSpline
210
0.0
220
0.0
230
1.0
 70
    11
 71
     3
 72
    20
 73
    16
 74
     0
 42
0.0000000001
 43
0.0000000001
 12
1.0
 22
0.0
 32
0.0
 13
1.0
 23
0.0
 33
0.0
 40
0.0
 40
0.0
 40
0.0
 40
0.0
 40
1.0
 40
1.0
 40
1.0
 40
2.0
 40
2.0
 40
2.0
 40
3.0
 40
3.0
 40
3.0
 40
4.0
 40
4.0
 40
4.0
 40
5.0
 40
5.0
 40
5.0
 40
5.0
 10
95.69338376513916
 20
-117.8002169844388
 30
0.0
 10
95.69338376513916
 20
-117.8002169844388
 30
0.0
 10
95.29513072704428
 20
-117.9965874270981
 30
0.0
 10
95.29513072704428
 20
-117.9965874270981
 30
0.0
 10
95.29513072704428
 20
-117.9965874270981
 30
0.0
 10
95.51217174261502
 20
-118.436870630113
 30
0.0
 10
95.51217174261502
 20
-118.436870630113
 30
0.0
 10
95.51217174261502
 20
-118.436870630113
 30
0.0
 10
95.9104247807099
 20
-118.2405001874538
 30
0.0
 10
95.9104247807099
 20
-118.2405001874538
 30
0.0
 10
96.0606309438668
 20
-118.1664306345209
 30
0.0
 10
96.09335935097667
 20
-118.0324164201447
 30
0.0
 10
96.03169214179069
 20
-117.9071871992558
 30
0.0
 10
95.98104923815752
 20
-117.8046956085697
 30
0.0
 10
95.8621934439164
 20
-117.7168456736958
 30
0.0
 10
95.69338376513916
 20
-117.8002169844388
 30
0.0
  0
HATCH
  5
8D
330
82
100
AcDbEntity
  8
_U+30EC_U+30A4_U+30E4_U+30FC 1
 62
   179
420
  2234388
100
AcDbHatch
 10
0.0
 20
0.0
 30
0.0
210
0.0
220
0.0
230
1.0
  2
SOLID
 70
     1
 71
     0
 91
        2
 92
        1
 93
        1
 72
     4
 94
        3
 73
     0
 74
     1
 95
       26
 96
       22
 40
0.0
 40
0.0
 40
0.0
 40
0.0
 40
1.0
 40
1.0
 40
1.0
 40
2.0
 40
2.0
 40
2.0
 40
3.0
 40
3.0
 40
3.0
 40
4.0
 40
4.0
 40
4.0
 40
5.0
 40
5.0
 40
5.0
 40
6.0
 40
6.0
 40
6.0
 40
7.0
 40
7.0
 40
7.0
 40
7.0
 10
96.01171058797624
 20
-118.4265353436573
 10
96.01171058797624
 20
-118.4265353436573
 10
95.60587833981381
 20
-118.6266953913503
 10
95.60587833981381
 20
-118.6266953913503
 10
95.60587833981381
 20
-118.6266953913503
 10
95.88458656457053
 20
-119.1920355604798
 10
95.88458656457053
 20
-119.1920355604798
 10
95.88458656457053
 20
-119.1920355604798
 10
95.67374672087324
 20
-119.2959051893601
 10
95.67374672087324
 20
-119.2959051893601
 10
95.67374672087324
 20
-119.2959051893601
 10
94.99058428614819
 20
-117.9108045495154
 10
94.99058428614819
 20
-117.9108045495154
 10
94.99058428614819
 20
-117.9108045495154
 10
95.60725637800792
 20
-117.6066026181678
 10
95.60725637800792
 20
-117.6066026181678
 10
95.86563853940164
 20
-117.4794785947621
 10
96.12160913395572
 20
-117.5347723773003
 10
96.25355629104078
 20
-117.8024562965042
 10
96.36311032747173
 20
-118.0243204457543
 10
96.30936683790183
 20
-118.2796020212114
 10
96.01171058797624
 20
-118.4265353436573
 97
        0
 97
        0
 92
        1
 93
        1
 72
     4
 94
        3
 73
     0
 74
     1
 95
       20
 96
       16
 40
0.0
 40
0.0
 40
0.0
 40
0.0
 40
1.0
 40
1.0
 40
1.0
 40
2.0
 40
2.0
 40
2.0
 40
3.0
 40
3.0
 40
3.0
 40
4.0
 40
4.0
 40
4.0
 40
5.0
 40
5.0
 40
5.0
 40
5.0
 10
95.69338376513916
 20
-117.8002169844388
 10
95.69338376513916
 20
-117.8002169844388
 10
95.29513072704428
 20
-117.9965874270981
 10
95.29513072704428
 20
-117.9965874270981
 10
95.29513072704428
 20
-117.9965874270981
 10
95.51217174261502
 20
-118.436870630113
 10
95.51217174261502
 20
-118.436870630113
 10
95.51217174261502
 20
-118.436870630113
 10
95.9104247807099
 20
-118.2405001874538
 10
95.9104247807099
 20
-118.2405001874538
 10
96.0606309438668
 20
-118.1664306345209
 10
96.09335935097667
 20
-118.0324164201447
 10
96.03169214179069
 20
-117.9071871992558
 10
95.98104923815752
 20
-117.8046956085697
 10
95.8621934439164
 20
-117.7168456736958
 10
95.69338376513916
 20
-117.8002169844388
 97
        0
 97
        0
 75
     2
 76
     1
 98
        0
  0
POLYLINE
  5
8E
330
82
100
AcDbEntity
  8
_U+30EC_U+30A4_U+30E4_U+30FC 1
370
     0
100
AcDb2dPolyline
 66
     1
 10
0.0
 20
0.0
 30
0.0
  0
VERTEX
  5
8F
330
8E
100
AcDbEntity
  8
_U+30EC_U+30A4_U+30E4_U+30FC 1
370
     0
100
AcDbVertex
100
AcDb2dVertex
 10
96.65353187687829
 20
-118.3152587594837
 30
0.0
  0
VERTEX
  5
90
330
8E
100
AcDbEntity
  8
_U+30EC_U+30A4_U+30E4_U+30FC 1
370
     0
100
AcDbVertex
100
AcDb2dVertex
 10
96.55810273193687
 20
-118.1216443932126
 30
0.0
  0
VERTEX
  5
91
330
8E
100
AcDbEntity
  8
_U+30EC_U+30A4_U+30E4_U+30FC 1
370
     0
100
AcDbVertex
100
AcDb2dVertex
 10
97.08347979343746
 20
-117.8625732127219
 30
0.0
  0
VERTEX
  5
92
330
8E
100
AcDbEntity
  8
_U+30EC_U+30A4_U+30E4_U+30FC 1
370
     0
100
AcDbVertex
100
AcDb2dVertex
 10
97.17890893837888
 20
-118.0558430694444
 30
0.0
  0
VERTEX
  5
93
330
8E
100
AcDbEntity
  8
_U+30EC_U+30A4_U+30E4_U+30FC 1
370
     0
100
AcDbVertex
100
AcDb2dVertex
 10
96.65353187687829
 20
-118.3152587594837
 30
0.0
  0
SEQEND
  5
94
330
8E
100
AcDbEntity
  8
_U+30EC_U+30A4_U+30E4_U+30FC 1
370
     0
  0
HATCH
  5
95
330
82
100
AcDbEntity
  8
_U+30EC_U+30A4_U+30E4_U+30FC 1
 62
   179
420
  2234388
100
AcDbHatch
 10
0.0
 20
0.0
 30
0.0
210
0.0
220
0.0
230
1.0
  2
SOLID
 70
     1
 71
     0
 91
        1
 92
        1
 93
        4
 72
     1
 10
96.65353187687829
 20
-118.3152587594837
 11
96.55810273193687
 21
-118.1216443932126
 72
     1
 10
96.55810273193687
 20
-118.1216443932126
 11
97.08347979343746
 21
-117.8625732127219
 72
     1
 10
97.08347979343746
 20
-117.8625732127219
 11
97.17890893837888
 21
-118.0558430694444
 72
     1
 10
97.17890893837888
 20
-118.0558430694444
 11
96.65353187687829
 21
-118.3152587594837
 97
        0
 75
     2
 76
     1
 98
        0
  0
SPLINE
  5
96
330
82
100
AcDbEntity
  8
_U+30EC_U+30A4_U+30E4_U+30FC 1
370
     0
100
AcDbSpline
210
0.0
220
0.0
230
1.0
 70
    11
 71
     3
 72
    62
 73
    58
 74
     0
 42
0.0000000001
 43
0.0000000001
 12
1.0
 22
0.0
 32
0.0
 13
1.0
 23
0.0
 33
0.0
 40
0.0
 40
0.0
 40
0.0
 40
0.0
 40
1.0
 40
1.0
 40
1.0
 40
2.0
 40
2.0
 40
2.0
 40
3.0
 40
3.0
 40
3.0
 40
4.0
 40
4.0
 40
4.0
 40
5.0
 40
5.0
 40
5.0
 40
6.0
 40
6.0
 40
6.0
 40
7.0
 40
7.0
 40
7.0
 40
8.0
 40
8.0
 40
8.0
 40
9.0
 40
9.0
 40
9.0
 40
10.0
 40
10.0
 40
10.0
 40
11.0
 40
11.0
 40
11.0
 40
12.0
 40
12.0
 40
12.0
 40
13.0
 40
13.0
 40
13.0
 40
14.0
 40
14.0
 40
14.0
 40
15.0
 40
15.0
 40
15.0
 40
16.0
 40
16.0
 40
16.0
 40
17.0
 40
17.0
 40
17.0
 40
18.0
 40
18.0
 40
18.0
 40
19.0
 40
19.0
 40
19.0
 40
19.0
 10
97.95508895120568
 20
-118.2274088246098
 30
0.0
 10
97.86965058317148
 20
-118.2696112443041
 30
0.0
 10
97.66466740179912
 20
-118.346953637948
 30
0.0
 10
97.47070852597955
 20
-118.2355047990002
 30
0.0
 10
97.35460880812663
 20
-118.1674641631665
 30
0.0
 10
97.30706649043019
 20
-118.0804755021639
 30
0.0
 10
97.26572534460719
 20
-118.0062336944568
 30
0.0
 10
97.26572534460719
 20
-118.0062336944568
 30
0.0
 10
97.463129315912
 20
-117.9089097469985
 30
0.0
 10
97.463129315912
 20
-117.9089097469985
 30
0.0
 10
97.4975802707645
 20
-117.9745388159925
 30
0.0
 10
97.61092391222921
 20
-118.1800387616876
 30
0.0
 10
97.86517195904065
 20
-118.0548095407988
 30
0.0
 10
97.9885063774126
 20
-117.9938313507099
 30
0.0
 10
98.09427080880977
 20
-117.8641235056902
 30
0.0
 10
97.99332951109194
 20
-117.6593125790921
 30
0.0
 10
97.9416530788132
 20
-117.554926185889
 30
0.0
 10
97.88584253195215
 20
-117.5282266958784
 30
0.0
 10
97.84346785748359
 20
-117.5139295496146
 30
0.0
 10
97.7445936170569
 20
-117.4801676138591
 30
0.0
 10
97.63435056152892
 20
-117.520130721488
 30
0.0
 10
97.58508569608985
 20
-117.5445908994333
 30
0.0
 10
97.56820472821212
 20
-117.5528591285979
 30
0.0
 10
97.53650984974782
 20
-117.5704291155727
 30
0.0
 10
97.51377221954517
 20
-117.5866210643534
 30
0.0
 10
97.51377221954517
 20
-117.5866210643534
 30
0.0
 10
97.42764483241393
 20
-117.4119547232512
 30
0.0
 10
97.42764483241393
 20
-117.4119547232512
 30
0.0
 10
97.46485186365463
 20
-117.4009304176984
 30
0.0
 10
97.50378144263794
 20
-117.3840494498207
 30
0.0
 10
97.50963810496287
 20
-117.3812933734325
 30
0.0
 10
97.56820472821212
 20
-117.3523545713564
 30
0.0
 10
97.73701440698936
 20
-117.2452121017651
 30
0.0
 10
97.63262801378629
 20
-117.0329942198737
 30
0.0
 10
97.55373532717407
 20
-116.8734862989066
 30
0.0
 10
97.41179739318177
 20
-116.8820990376198
 30
0.0
 10
97.31326766230363
 20
-116.9306748839618
 30
0.0
 10
97.07590058336991
 20
-117.0474636209118
 30
0.0
 10
97.17132972831133
 20
-117.2603705219002
 30
0.0
 10
97.19923500174187
 20
-117.326516355217
 30
0.0
 10
97.19923500174187
 20
-117.326516355217
 30
0.0
 10
97.01698945057214
 20
-117.4162610926077
 30
0.0
 10
97.01698945057214
 20
-117.4162610926077
 30
0.0
 10
96.9694471328757
 20
-117.3006781390776
 30
0.0
 10
96.82785370843193
 20
-116.9506564377762
 30
0.0
 10
97.23747556162813
 20
-116.7487738423406
 30
0.0
 10
97.43866913796673
 20
-116.6495550923654
 30
0.0
 10
97.71117619084998
 20
-116.6567897928844
 30
0.0
 10
97.84208981928948
 20
-116.9224066547972
 30
0.0
 10
97.92442760138695
 20
-117.0894937858318
 30
0.0
 10
97.87550724549641
 20
-117.2052489941362
 30
0.0
 10
97.81349552676191
 20
-117.3042954893371
 30
0.0
 10
97.88067488872429
 20
-117.3020561772717
 30
0.0
 10
98.0794568982232
 20
-117.2934434385586
 30
0.0
 10
98.20210229749809
 20
-117.5421793325936
 30
0.0
 10
98.35161944155793
 20
-117.8456922448441
 30
0.0
 10
98.20348033569219
 20
-118.1049356801092
 30
0.0
 10
97.95508895120568
 20
-118.2274088246098
 30
0.0
  0
HATCH
  5
97
330
82
100
AcDbEntity
  8
_U+30EC_U+30A4_U+30E4_U+30FC 1
 62
   179
420
  2234388
100
AcDbHatch
 10
0.0
 20
0.0
 30
0.0
210
0.0
220
0.0
230
1.0
  2
SOLID
 70
     1
 71
     0
 91
        1
 92
        1
 93
        1
 72
     4
 94
        3
 73
     0
 74
     1
 95
       62
 96
       58
 40
0.0
 40
0.0
 40
0.0
 40
0.0
 40
1.0
 40
1.0
 40
1.0
 40
2.0
 40
2.0
 40
2.0
 40
3.0
 40
3.0
 40
3.0
 40
4.0
 40
4.0
 40
4.0
 40
5.0
 40
5.0
 40
5.0
 40
6.0
 40
6.0
 40
6.0
 40
7.0
 40
7.0
 40
7.0
 40
8.0
 40
8.0
 40
8.0
 40
9.0
 40
9.0
 40
9.0
 40
10.0
 40
10.0
 40
10.0
 40
11.0
 40
11.0
 40
11.0
 40
12.0
 40
12.0
 40
12.0
 40
13.0
 40
13.0
 40
13.0
 40
14.0
 40
14.0
 40
14.0
 40
15.0
 40
15.0
 40
15.0
 40
16.0
 40
16.0
 40
16.0
 40
17.0
 40
17.0
 40
17.0
 40
18.0
 40
18.0
 40
18.0
 40
19.0
 40
19.0
 40
19.0
 40
19.0
 10
97.95508895120568
 20
-118.2274088246098
 10
97.86965058317148
 20
-118.2696112443041
 10
97.66466740179912
 20
-118.346953637948
 10
97.47070852597955
 20
-118.2355047990002
 10
97.35460880812663
 20
-118.1674641631665
 10
97.30706649043019
 20
-118.0804755021639
 10
97.26572534460719
 20
-118.0062336944568
 10
97.26572534460719
 20
-118.0062336944568
 10
97.463129315912
 20
-117.9089097469985
 10
97.463129315912
 20
-117.9089097469985
 10
97.4975802707645
 20
-117.9745388159925
 10
97.61092391222921
 20
-118.1800387616876
 10
97.86517195904065
 20
-118.0548095407988
 10
97.9885063774126
 20
-117.9938313507099
 10
98.09427080880977
 20
-117.8641235056902
 10
97.99332951109194
 20
-117.6593125790921
 10
97.9416530788132
 20
-117.554926185889
 10
97.88584253195215
 20
-117.5282266958784
 10
97.84346785748359
 20
-117.5139295496146
 10
97.7445936170569
 20
-117.4801676138591
 10
97.63435056152892
 20
-117.520130721488
 10
97.58508569608985
 20
-117.5445908994333
 10
97.56820472821212
 20
-117.5528591285979
 10
97.53650984974782
 20
-117.5704291155727
 10
97.51377221954517
 20
-117.5866210643534
 10
97.51377221954517
 20
-117.5866210643534
 10
97.42764483241393
 20
-117.4119547232512
 10
97.42764483241393
 20
-117.4119547232512
 10
97.46485186365463
 20
-117.4009304176984
 10
97.50378144263794
 20
-117.3840494498207
 10
97.50963810496287
 20
-117.3812933734325
 10
97.56820472821212
 20
-117.3523545713564
 10
97.73701440698936
 20
-117.2452121017651
 10
97.63262801378629
 20
-117.0329942198737
 10
97.55373532717407
 20
-116.8734862989066
 10
97.41179739318177
 20
-116.8820990376198
 10
97.31326766230363
 20
-116.9306748839618
 10
97.07590058336991
 20
-117.0474636209118
 10
97.17132972831133
 20
-117.2603705219002
 10
97.19923500174187
 20
-117.326516355217
 10
97.19923500174187
 20
-117.326516355217
 10
97.01698945057214
 20
-117.4162610926077
 10
97.01698945057214
 20
-117.4162610926077
 10
96.9694471328757
 20
-117.3006781390776
 10
96.82785370843193
 20
-116.9506564377762
 10
97.23747556162813
 20
-116.7487738423406
 10
97.43866913796673
 20
-116.6495550923654
 10
97.71117619084998
 20
-116.6567897928844
 10
97.84208981928948
 20
-116.9224066547972
 10
97.92442760138695
 20
-117.0894937858318
 10
97.87550724549641
 20
-117.2052489941362
 10
97.81349552676191
 20
-117.3042954893371
 10
97.88067488872429
 20
-117.3020561772717
 10
98.0794568982232
 20
-117.2934434385586
 10
98.20210229749809
 20
-117.5421793325936
 10
98.35161944155793
 20
-117.8456922448441
 10
98.20348033569219
 20
-118.1049356801092
 10
97.95508895120568
 20
-118.2274088246098
 97
        0
 97
        0
 75
     2
 76
     1
 98
        0
  0
SPLINE
  5
98
330
82
100
AcDbEntity
  8
_U+30EC_U+30A4_U+30E4_U+30FC 1
370
     0
100
AcDbSpline
210
0.0
220
0.0
230
1.0
 70
    11
 71
     3
 72
    29
 73
    25
 74
     0
 42
0.0000000001
 43
0.0000000001
 12
1.0
 22
0.0
 32
0.0
 13
1.0
 23
0.0
 33
0.0
 40
0.0
 40
0.0
 40
0.0
 40
0.0
 40
1.0
 40
1.0
 40
1.0
 40
2.0
 40
2.0
 40
2.0
 40
3.0
 40
3.0
 40
3.0
 40
4.0
 40
4.0
 40
4.0
 40
5.0
 40
5.0
 40
5.0
 40
6.0
 40
6.0
 40
6.0
 40
7.0
 40
7.0
 40
7.0
 40
8.0
 40
8.0
 40
8.0
 40
8.0
 10
99.27387150295931
 20
-117.3223822406347
 30
0.0
 10
99.26973738837701
 20
-117.5580267718258
 30
0.0
 10
99.12263181115685
 20
-117.6517333690246
 30
0.0
 10
99.01824541795378
 20
-117.7030652917548
 30
0.0
 10
98.87389591712181
 20
-117.7743787682995
 30
0.0
 10
98.72644583035311
 20
-117.7953938507595
 30
0.0
 10
98.56039222796407
 20
-117.674298744453
 30
0.0
 10
98.3815917722796
 20
-117.5452799185304
 30
0.0
 10
98.25963539210176
 20
-117.3416747753521
 30
0.0
 10
98.18763289646004
 20
-117.1954304720032
 30
0.0
 10
98.12389862998292
 20
-117.0664116460806
 30
0.0
 10
98.02778046594445
 20
-116.8328341721807
 30
0.0
 10
98.03467065691495
 20
-116.6078694369939
 30
0.0
 10
98.04156084788545
 20
-116.3780815681277
 30
0.0
 10
98.17557506226167
 20
-116.2860975186715
 30
0.0
 10
98.29133027056606
 20
-116.2289089336164
 30
0.0
 10
98.43361271410689
 20
-116.1589734952658
 30
0.0
 10
98.58209632952115
 20
-116.1350300816433
 30
0.0
 10
98.74814993191019
 20
-116.2561251879499
 30
0.0
 10
98.9221272539153
 20
-116.384799504324
 30
0.0
 10
99.04408363409316
 20
-116.5792751444663
 30
0.0
 10
99.12090926341422
 20
-116.7349934603996
 30
0.0
 10
99.19670136408972
 20
-116.8886447190417
 30
0.0
 10
99.27972816528424
 20
-117.1046522059669
 30
0.0
 10
99.27387150295931
 20
-117.3223822406347
 30
0.0
  0
SPLINE
  5
99
330
82
100
AcDbEntity
  8
_U+30EC_U+30A4_U+30E4_U+30FC 1
370
     0
100
AcDbSpline
210
0.0
220
0.0
230
1.0
 70
    11
 71
     3
 72
    17
 73
    13
 74
     0
 42
0.0000000001
 43
0.0000000001
 12
1.0
 22
0.0
 32
0.0
 13
1.0
 23
0.0
 33
0.0
 40
0.0
 40
0.0
 40
0.0
 40
0.0
 40
1.0
 40
1.0
 40
1.0
 40
2.0
 40
2.0
 40
2.0
 40
3.0
 40
3.0
 40
3.0
 40
4.0
 40
4.0
 40
4.0
 40
4.0
 10
98.37642412905173
 20
-116.4018527269759
 30
0.0
 10
98.15249292251049
 20
-116.5120957825039
 30
0.0
 10
98.23620874280206
 20
-116.7870144022269
 30
0.0
 10
98.38882647279863
 20
-117.096211722028
 30
0.0
 10
98.53007538769387
 20
-117.3826714116266
 30
0.0
 10
98.69888506647112
 20
-117.64346513986
 30
0.0
 10
98.93211803082254
 20
-117.5283989506526
 30
0.0
 10
99.15432668962114
 20
-117.4190171689959
 30
0.0
 10
99.0737114552663
 20
-117.1454765874671
 30
0.0
 10
98.92006019662415
 20
-116.8342122103748
 30
0.0
 10
98.7788112817289
 20
-116.547580266002
 30
0.0
 10
98.60793454566053
 20
-116.2874755568656
 30
0.0
 10
98.37642412905173
 20
-116.4018527269759
 30
0.0
  0
HATCH
  5
9A
330
82
100
AcDbEntity
  8
_U+30EC_U+30A4_U+30E4_U+30FC 1
 62
   179
420
  2234388
100
AcDbHatch
 10
0.0
 20
0.0
 30
0.0
210
0.0
220
0.0
230
1.0
  2
SOLID
 70
     1
 71
     0
 91
        2
 92
        1
 93
        1
 72
     4
 94
        3
 73
     0
 74
     1
 95
       29
 96
       25
 40
0.0
 40
0.0
 40
0.0
 40
0.0
 40
1.0
 40
1.0
 40
1.0
 40
2.0
 40
2.0
 40
2.0
 40
3.0
 40
3.0
 40
3.0
 40
4.0
 40
4.0
 40
4.0
 40
5.0
 40
5.0
 40
5.0
 40
6.0
 40
6.0
 40
6.0
 40
7.0
 40
7.0
 40
7.0
 40
8.0
 40
8.0
 40
8.0
 40
8.0
 10
99.27387150295931
 20
-117.3223822406347
 10
99.26973738837701
 20
-117.5580267718258
 10
99.12263181115685
 20
-117.6517333690246
 10
99.01824541795378
 20
-117.7030652917548
 10
98.87389591712181
 20
-117.7743787682995
 10
98.72644583035311
 20
-117.7953938507595
 10
98.56039222796407
 20
-117.674298744453
 10
98.3815917722796
 20
-117.5452799185304
 10
98.25963539210176
 20
-117.3416747753521
 10
98.18763289646004
 20
-117.1954304720032
 10
98.12389862998292
 20
-117.0664116460806
 10
98.02778046594445
 20
-116.8328341721807
 10
98.03467065691495
 20
-116.6078694369939
 10
98.04156084788545
 20
-116.3780815681277
 10
98.17557506226167
 20
-116.2860975186715
 10
98.29133027056606
 20
-116.2289089336164
 10
98.43361271410689
 20
-116.1589734952658
 10
98.58209632952115
 20
-116.1350300816433
 10
98.74814993191019
 20
-116.2561251879499
 10
98.9221272539153
 20
-116.384799504324
 10
99.04408363409316
 20
-116.5792751444663
 10
99.12090926341422
 20
-116.7349934603996
 10
99.19670136408972
 20
-116.8886447190417
 10
99.27972816528424
 20
-117.1046522059669
 10
99.27387150295931
 20
-117.3223822406347
 97
        0
 97
        0
 92
        1
 93
        1
 72
     4
 94
        3
 73
     0
 74
     1
 95
       17
 96
       13
 40
0.0
 40
0.0
 40
0.0
 40
0.0
 40
1.0
 40
1.0
 40
1.0
 40
2.0
 40
2.0
 40
2.0
 40
3.0
 40
3.0
 40
3.0
 40
4.0
 40
4.0
 40
4.0
 40
4.0
 10
98.37642412905173
 20
-116.4018527269759
 10
98.15249292251049
 20
-116.5120957825039
 10
98.23620874280206
 20
-116.7870144022269
 10
98.38882647279863
 20
-117.096211722028
 10
98.53007538769387
 20
-117.3826714116266
 10
98.69888506647112
 20
-117.64346513986
 10
98.93211803082254
 20
-117.5283989506526
 10
99.15432668962114
 20
-117.4190171689959
 10
99.0737114552663
 20
-117.1454765874671
 10
98.92006019662415
 20
-116.8342122103748
 10
98.7788112817289
 20
-116.547580266002
 10
98.60793454566053
 20
-116.2874755568656
 10
98.37642412905173
 20
-116.4018527269759
 97
        0
 97
        0
 75
     2
 76
     1
 98
        0
  0
POLYLINE
  5
9B
330
82
100
AcDbEntity
  8
_U+30EC_U+30A4_U+30E4_U+30FC 1
370
     0
100
AcDb2dPolyline
 66
     1
 10
0.0
 20
0.0
 30
0.0
  0
VERTEX
  5
9C
330
9B
100
AcDbEntity
  8
_U+30EC_U+30A4_U+30E4_U+30FC 1
370
     0
100
AcDbVertex
100
AcDb2dVertex
 10
100.806594484347
 20
-116.7646212815727
 30
0.0
  0
VERTEX
  5
9D
330
9B
100
AcDbEntity
  8
_U+30EC_U+30A4_U+30E4_U+30FC 1
370
     0
100
AcDbVertex
100
AcDb2dVertex
 10
100.3339273837707
 20
-115.8065402271248
 30
0.0
  0
VERTEX
  5
9E
330
9B
100
AcDbEntity
  8
_U+30EC_U+30A4_U+30E4_U+30FC 1
370
     0
100
AcDbVertex
100
AcDb2dVertex
 10
100.2674370409054
 20
-115.657712102162
 30
0.0
  0
VERTEX
  5
9F
330
9B
100
AcDbEntity
  8
_U+30EC_U+30A4_U+30E4_U+30FC 1
370
     0
100
AcDbVertex
100
AcDb2dVertex
 10
100.3036105435005
 20
-115.8120523799012
 30
0.0
  0
VERTEX
  5
A0
330
9B
100
AcDbEntity
  8
_U+30EC_U+30A4_U+30E4_U+30FC 1
370
     0
100
AcDbVertex
100
AcDb2dVertex
 10
100.4706976745351
 20
-116.9303303744133
 30
0.0
  0
VERTEX
  5
A1
330
9B
100
AcDbEntity
  8
_U+30EC_U+30A4_U+30E4_U+30FC 1
370
     0
100
AcDbVertex
100
AcDb2dVertex
 10
100.227818442825
 20
-117.0502196973
 30
0.0
  0
VERTEX
  5
A2
330
9B
100
AcDbEntity
  8
_U+30EC_U+30A4_U+30E4_U+30FC 1
370
     0
100
AcDbVertex
100
AcDb2dVertex
 10
99.44405921993065
 20
-116.2357991245869
 30
0.0
  0
VERTEX
  5
A3
330
9B
100
AcDbEntity
  8
_U+30EC_U+30A4_U+30E4_U+30FC 1
370
     0
100
AcDbVertex
100
AcDb2dVertex
 10
99.34346243176137
 20
-116.1133259800863
 30
0.0
  0
VERTEX
  5
A4
330
9B
100
AcDbEntity
  8
_U+30EC_U+30A4_U+30E4_U+30FC 1
370
     0
100
AcDbVertex
100
AcDb2dVertex
 10
99.41959904198538
 20
-116.2576754809182
 30
0.0
  0
VERTEX
  5
A5
330
9B
100
AcDbEntity
  8
_U+30EC_U+30A4_U+30E4_U+30FC 1
370
     0
100
AcDbVertex
100
AcDb2dVertex
 10
99.89192163301314
 20
-117.2157565353662
 30
0.0
  0
VERTEX
  5
A6
330
9B
100
AcDbEntity
  8
_U+30EC_U+30A4_U+30E4_U+30FC 1
370
     0
100
AcDbVertex
100
AcDb2dVertex
 10
99.69658471899947
 20
-117.3120469541789
 30
0.0
  0
VERTEX
  5
A7
330
9B
100
AcDbEntity
  8
_U+30EC_U+30A4_U+30E4_U+30FC 1
370
     0
100
AcDbVertex
100
AcDb2dVertex
 10
99.01342228427443
 20
-115.9271185691085
 30
0.0
  0
VERTEX
  5
A8
330
9B
100
AcDbEntity
  8
_U+30EC_U+30A4_U+30E4_U+30FC 1
370
     0
100
AcDbVertex
100
AcDb2dVertex
 10
99.29970971909869
 20
-115.7858696542133
 30
0.0
  0
VERTEX
  5
A9
330
9B
100
AcDbEntity
  8
_U+30EC_U+30A4_U+30E4_U+30FC 1
370
     0
100
AcDbVertex
100
AcDb2dVertex
 10
100.1399685079511
 20
-116.6524834235279
 30
0.0
  0
VERTEX
  5
AA
330
9B
100
AcDbEntity
  8
_U+30EC_U+30A4_U+30E4_U+30FC 1
370
     0
100
AcDbVertex
100
AcDb2dVertex
 10
100.2367756910866
 20
-116.7625542242816
 30
0.0
  0
VERTEX
  5
AB
330
9B
100
AcDbEntity
  8
_U+30EC_U+30A4_U+30E4_U+30FC 1
370
     0
100
AcDbVertex
100
AcDb2dVertex
 10
100.2085259081076
 20
-116.6188937425467
 30
0.0
  0
VERTEX
  5
AC
330
9B
100
AcDbEntity
  8
_U+30EC_U+30A4_U+30E4_U+30FC 1
370
     0
100
AcDbVertex
100
AcDb2dVertex
 10
100.0342040765539
 20
-115.4236178639392
 30
0.0
  0
VERTEX
  5
AD
330
9B
100
AcDbEntity
  8
_U+30EC_U+30A4_U+30E4_U+30FC 1
370
     0
100
AcDbVertex
100
AcDb2dVertex
 10
100.3187689636356
 20
-115.2832302229153
 30
0.0
  0
VERTEX
  5
AE
330
9B
100
AcDbEntity
  8
_U+30EC_U+30A4_U+30E4_U+30FC 1
370
     0
100
AcDbVertex
100
AcDb2dVertex
 10
101.0019313983606
 20
-116.6685031175343
 30
0.0
  0
VERTEX
  5
AF
330
9B
100
AcDbEntity
  8
_U+30EC_U+30A4_U+30E4_U+30FC 1
370
     0
100
AcDbVertex
100
AcDb2dVertex
 10
100.806594484347
 20
-116.7646212815727
 30
0.0
  0
SEQEND
  5
B0
330
9B
100
AcDbEntity
  8
_U+30EC_U+30A4_U+30E4_U+30FC 1
370
     0
  0
HATCH
  5
B1
330
82
100
AcDbEntity
  8
_U+30EC_U+30A4_U+30E4_U+30FC 1
 62
   179
420
  2234388
100
AcDbHatch
 10
0.0
 20
0.0
 30
0.0
210
0.0
220
0.0
230
1.0
  2
SOLID
 70
     1
 71
     0
 91
        1
 92
        1
 93
       19
 72
     1
 10
100.806594484347
 20
-116.7646212815727
 11
100.3339273837707
 21
-115.8065402271248
 72
     1
 10
100.3339273837707
 20
-115.8065402271248
 11
100.2674370409054
 21
-115.657712102162
 72
     1
 10
100.2674370409054
 20
-115.657712102162
 11
100.3036105435005
 21
-115.8120523799012
 72
     1
 10
100.3036105435005
 20
-115.8120523799012
 11
100.4706976745351
 21
-116.9303303744133
 72
     1
 10
100.4706976745351
 20
-116.9303303744133
 11
100.227818442825
 21
-117.0502196973
 72
     1
 10
100.227818442825
 20
-117.0502196973
 11
99.44405921993065
 21
-116.2357991245869
 72
     1
 10
99.44405921993065
 20
-116.2357991245869
 11
99.34346243176137
 21
-116.1133259800863
 72
     1
 10
99.34346243176137
 20
-116.1133259800863
 11
99.41959904198538
 21
-116.2576754809182
 72
     1
 10
99.41959904198538
 20
-116.2576754809182
 11
99.89192163301314
 21
-117.2157565353662
 72
     1
 10
99.89192163301314
 20
-117.2157565353662
 11
99.69658471899947
 21
-117.3120469541789
 72
     1
 10
99.69658471899947
 20
-117.3120469541789
 11
99.01342228427443
 21
-115.9271185691085
 72
     1
 10
99.01342228427443
 20
-115.9271185691085
 11
99.29970971909869
 21
-115.7858696542133
 72
     1
 10
99.29970971909869
 20
-115.7858696542133
 11
100.1399685079511
 21
-116.6524834235279
 72
     1
 10
100.1399685079511
 20
-116.6524834235279
 11
100.2367756910866
 21
-116.7625542242816
 72
     1
 10
100.2367756910866
 20
-116.7625542242816
 11
100.2085259081076
 21
-116.6188937425467
 72
     1
 10
100.2085259081076
 20
-116.6188937425467
 11
100.0342040765539
 21
-115.4236178639392
 72
     1
 10
100.0342040765539
 20
-115.4236178639392
 11
100.3187689636356
 21
-115.2832302229153
 72
     1
 10
100.3187689636356
 20
-115.2832302229153
 11
101.0019313983606
 21
-116.6685031175343
 72
     1
 10
101.0019313983606
 20
-116.6685031175343
 11
100.806594484347
 21
-116.7646212815727
 97
        0
 75
     2
 76
     1
 98
        0
  0
POLYLINE
  5
B2
330
82
100
AcDbEntity
  8
_U+30EC_U+30A4_U+30E4_U+30FC 1
370
     0
100
AcDb2dPolyline
 66
     1
 10
0.0
 20
0.0
 30
0.0
  0
VERTEX
  5
B3
330
B2
100
AcDbEntity
  8
_U+30EC_U+30A4_U+30E4_U+30FC 1
370
     0
100
AcDbVertex
100
AcDb2dVertex
 10
102.5697943536978
 20
-115.8950791810957
 30
0.0
  0
VERTEX
  5
B4
330
B2
100
AcDbEntity
  8
_U+30EC_U+30A4_U+30E4_U+30FC 1
370
     0
100
AcDbVertex
100
AcDb2dVertex
 10
102.3269151219877
 20
-116.0149685039824
 30
0.0
  0
VERTEX
  5
B5
330
B2
100
AcDbEntity
  8
_U+30EC_U+30A4_U+30E4_U+30FC 1
370
     0
100
AcDbVertex
100
AcDb2dVertex
 10
101.5076714155953
 20
-114.9990098453822
 30
0.0
  0
VERTEX
  5
B6
330
B2
100
AcDbEntity
  8
_U+30EC_U+30A4_U+30E4_U+30FC 1
370
     0
100
AcDbVertex
100
AcDb2dVertex
 10
101.8170409901707
 20
-116.2664604744056
 30
0.0
  0
VERTEX
  5
B7
330
B2
100
AcDbEntity
  8
_U+30EC_U+30A4_U+30E4_U+30FC 1
370
     0
100
AcDbVertex
100
AcDb2dVertex
 10
101.5741617584606
 20
-116.3863497972923
 30
0.0
  0
VERTEX
  5
B8
330
B2
100
AcDbEntity
  8
_U+30EC_U+30A4_U+30E4_U+30FC 1
370
     0
100
AcDbVertex
100
AcDb2dVertex
 10
100.5475233038562
 20
-115.1705756005476
 30
0.0
  0
VERTEX
  5
B9
330
B2
100
AcDbEntity
  8
_U+30EC_U+30A4_U+30E4_U+30FC 1
370
     0
100
AcDbVertex
100
AcDb2dVertex
 10
100.7562960902623
 20
-115.0675672455387
 30
0.0
  0
VERTEX
  5
BA
330
B2
100
AcDbEntity
  8
_U+30EC_U+30A4_U+30E4_U+30FC 1
370
     0
100
AcDbVertex
100
AcDb2dVertex
 10
101.5655490197475
 20
-116.0625108216788
 30
0.0
  0
VERTEX
  5
BB
330
B2
100
AcDbEntity
  8
_U+30EC_U+30A4_U+30E4_U+30FC 1
370
     0
100
AcDbVertex
100
AcDb2dVertex
 10
101.262725126594
 20
-114.8177978228581
 30
0.0
  0
VERTEX
  5
BC
330
B2
100
AcDbEntity
  8
_U+30EC_U+30A4_U+30E4_U+30FC 1
370
     0
100
AcDbVertex
100
AcDb2dVertex
 10
101.5131835683717
 20
-114.6941188949376
 30
0.0
  0
VERTEX
  5
BD
330
B2
100
AcDbEntity
  8
_U+30EC_U+30A4_U+30E4_U+30FC 1
370
     0
100
AcDbVertex
100
AcDb2dVertex
 10
102.316579835532
 20
-115.6919908022402
 30
0.0
  0
VERTEX
  5
BE
330
B2
100
AcDbEntity
  8
_U+30EC_U+30A4_U+30E4_U+30FC 1
370
     0
100
AcDbVertex
100
AcDb2dVertex
 10
102.0213351524461
 20
-114.4436604531599
 30
0.0
  0
VERTEX
  5
BF
330
B2
100
AcDbEntity
  8
_U+30EC_U+30A4_U+30E4_U+30FC 1
370
     0
100
AcDbVertex
100
AcDb2dVertex
 10
102.2304524484007
 20
-114.340652098151
 30
0.0
  0
VERTEX
  5
C0
330
B2
100
AcDbEntity
  8
_U+30EC_U+30A4_U+30E4_U+30FC 1
370
     0
100
AcDbVertex
100
AcDb2dVertex
 10
102.5697943536978
 20
-115.8950791810957
 30
0.0
  0
SEQEND
  5
C1
330
B2
100
AcDbEntity
  8
_U+30EC_U+30A4_U+30E4_U+30FC 1
370
     0
  0
HATCH
  5
C2
330
82
100
AcDbEntity
  8
_U+30EC_U+30A4_U+30E4_U+30FC 1
 62
   179
420
  2234388
100
AcDbHatch
 10
0.0
 20
0.0
 30
0.0
210
0.0
220
0.0
230
1.0
  2
SOLID
 70
     1
 71
     0
 91
        1
 92
        1
 93
       13
 72
     1
 10
102.5697943536978
 20
-115.8950791810957
 11
102.3269151219877
 21
-116.0149685039824
 72
     1
 10
102.3269151219877
 20
-116.0149685039824
 11
101.5076714155953
 21
-114.9990098453822
 72
     1
 10
101.5076714155953
 20
-114.9990098453822
 11
101.8170409901707
 21
-116.2664604744056
 72
     1
 10
101.8170409901707
 20
-116.2664604744056
 11
101.5741617584606
 21
-116.3863497972923
 72
     1
 10
101.5741617584606
 20
-116.3863497972923
 11
100.5475233038562
 21
-115.1705756005476
 72
     1
 10
100.5475233038562
 20
-115.1705756005476
 11
100.7562960902623
 21
-115.0675672455387
 72
     1
 10
100.7562960902623
 20
-115.0675672455387
 11
101.5655490197475
 21
-116.0625108216788
 72
     1
 10
101.5655490197475
 20
-116.0625108216788
 11
101.262725126594
 21
-114.8177978228581
 72
     1
 10
101.262725126594
 20
-114.8177978228581
 11
101.5131835683717
 21
-114.6941188949376
 72
     1
 10
101.5131835683717
 20
-114.6941188949376
 11
102.316579835532
 21
-115.6919908022402
 72
     1
 10
102.316579835532
 20
-115.6919908022402
 11
102.0213351524461
 21
-114.4436604531599
 72
     1
 10
102.0213351524461
 20
-114.4436604531599
 11
102.2304524484007
 21
-114.340652098151
 72
     1
 10
102.2304524484007
 20
-114.340652098151
 11
102.5697943536978
 21
-115.8950791810957
 97
        0
 75
     2
 76
     1
 98
        0
  0
ENDBLK
  5
85
330
82
100
AcDbEntity
  8
0
100
AcDbBlockEnd
  0
BLOCK
  5
C5
330
C3
100
AcDbEntity
  8
0
100
AcDbBlockBegin
  2
block 4
 70
     0
 10
0.0
 20
0.0
 30
0.0
  3
block 4
  1

  0
SPLINE
  5
C7
330
C3
100
AcDbEntity
  8
_U+30EC_U+30A4_U+30E4_U+30FC 1
370
     0
100
AcDbSpline
210
0.0
220
0.0
230
1.0
 70
    11
 71
     3
 72
    38
 73
    34
 74
     0
 42
0.0000000001
 43
0.0000000001
 12
1.0
 22
0.0
 32
0.0
 13
1.0
 23
0.0
 33
0.0
 40
0.0
 40
0.0
 40
0.0
 40
0.0
 40
1.0
 40
1.0
 40
1.0
 40
2.0
 40
2.0
 40
2.0
 40
3.0
 40
3.0
 40
3.0
 40
4.0
 40
4.0
 40
4.0
 40
5.0
 40
5.0
 40
5.0
 40
6.0
 40
6.0
 40
6.0
 40
7.0
 40
7.0
 40
7.0
 40
8.0
 40
8.0
 40
8.0
 40
9.0
 40
9.0
 40
9.0
 40
10.0
 40
10.0
 40
10.0
 40
11.0
 40
11.0
 40
11.0
 40
11.0
 10
79.64888507123362
 20
-116.1214219544766
 30
0.0
 10
79.23133949842133
 20
-115.9157497540072
 30
0.0
 10
79.14555662083862
 20
-115.4678873409247
 30
0.0
 10
79.35329587859918
 20
-115.0465521630786
 30
0.0
 10
79.58549531430502
 20
-114.5759521197935
 30
0.0
 10
80.01923283589797
 20
-114.4715657265904
 30
0.0
 10
80.3851019764315
 20
-114.6520887300175
 30
0.0
 10
80.69447155100694
 20
-114.8047064600141
 30
0.0
 10
80.85983613429893
 20
-115.0961615380662
 30
0.0
 10
80.73839651844388
 20
-115.390028182958
 30
0.0
 10
80.73839651844388
 20
-115.390028182958
 30
0.0
 10
80.53151853455462
 20
-115.2880533565947
 30
0.0
 10
80.53151853455462
 20
-115.2880533565947
 30
0.0
 10
80.58905162915829
 20
-115.0851372325134
 30
0.0
 10
80.42851017954565
 20
-114.9139159868965
 30
0.0
 10
80.28416067871369
 20
-114.8426025103519
 30
0.0
 10
80.19131535538621
 20
-114.7971272499466
 30
0.0
 10
80.07263181591935
 20
-114.7743896197439
 30
0.0
 10
79.95567082419511
 20
-114.8012613645289
 30
0.0
 10
79.75533852172784
 20
-114.843980548546
 30
0.0
 10
79.63338214154999
 20
-115.0241590424245
 30
0.0
 10
79.56310219365089
 20
-115.1664414859653
 30
0.0
 10
79.36845429873428
 20
-115.561249428575
 30
0.0
 10
79.5479437735158
 20
-115.8289333477789
 30
0.0
 10
79.7412136302383
 20
-115.9243624927203
 30
0.0
 10
79.86489255815879
 20
-115.9853406828092
 30
0.0
 10
80.14325627336697
 20
-116.0328830005057
 30
0.0
 10
80.31206595214421
 20
-115.762098495365
 30
0.0
 10
80.31206595214421
 20
-115.762098495365
 30
0.0
 10
80.5187716812592
 20
-115.8640733217284
 30
0.0
 10
80.5187716812592
 20
-115.8640733217284
 30
0.0
 10
80.44745820471452
 20
-115.9798285300328
 30
0.0
 10
80.19148761016046
 20
-116.3891058736805
 30
0.0
 10
79.64888507123362
 20
-116.1214219544766
 30
0.0
  0
HATCH
  5
C8
330
C3
100
AcDbEntity
  8
_U+30EC_U+30A4_U+30E4_U+30FC 1
 62
   179
420
  2234388
100
AcDbHatch
 10
0.0
 20
0.0
 30
0.0
210
0.0
220
0.0
230
1.0
  2
SOLID
 70
     1
 71
     0
 91
        1
 92
        1
 93
        1
 72
     4
 94
        3
 73
     0
 74
     1
 95
       38
 96
       34
 40
0.0
 40
0.0
 40
0.0
 40
0.0
 40
1.0
 40
1.0
 40
1.0
 40
2.0
 40
2.0
 40
2.0
 40
3.0
 40
3.0
 40
3.0
 40
4.0
 40
4.0
 40
4.0
 40
5.0
 40
5.0
 40
5.0
 40
6.0
 40
6.0
 40
6.0
 40
7.0
 40
7.0
 40
7.0
 40
8.0
 40
8.0
 40
8.0
 40
9.0
 40
9.0
 40
9.0
 40
10.0
 40
10.0
 40
10.0
 40
11.0
 40
11.0
 40
11.0
 40
11.0
 10
79.64888507123362
 20
-116.1214219544766
 10
79.23133949842133
 20
-115.9157497540072
 10
79.14555662083862
 20
-115.4678873409247
 10
79.35329587859918
 20
-115.0465521630786
 10
79.58549531430502
 20
-114.5759521197935
 10
80.01923283589797
 20
-114.4715657265904
 10
80.3851019764315
 20
-114.6520887300175
 10
80.69447155100694
 20
-114.8047064600141
 10
80.85983613429893
 20
-115.0961615380662
 10
80.73839651844388
 20
-115.390028182958
 10
80.73839651844388
 20
-115.390028182958
 10
80.53151853455462
 20
-115.2880533565947
 10
80.53151853455462
 20
-115.2880533565947
 10
80.58905162915829
 20
-115.0851372325134
 10
80.42851017954565
 20
-114.9139159868965
 10
80.28416067871369
 20
-114.8426025103519
 10
80.19131535538621
 20
-114.7971272499466
 10
80.07263181591935
 20
-114.7743896197439
 10
79.95567082419511
 20
-114.8012613645289
 10
79.75533852172784
 20
-114.843980548546
 10
79.63338214154999
 20
-115.0241590424245
 10
79.56310219365089
 20
-115.1664414859653
 10
79.36845429873428
 20
-115.561249428575
 10
79.5479437735158
 20
-115.8289333477789
 10
79.7412136302383
 20
-115.9243624927203
 10
79.86489255815879
 20
-115.9853406828092
 10
80.14325627336697
 20
-116.0328830005057
 10
80.31206595214421
 20
-115.762098495365
 10
80.31206595214421
 20
-115.762098495365
 10
80.5187716812592
 20
-115.8640733217284
 10
80.5187716812592
 20
-115.8640733217284
 10
80.44745820471452
 20
-115.9798285300328
 10
80.19148761016046
 20
-116.3891058736805
 10
79.64888507123362
 20
-116.1214219544766
 97
        0
 97
        0
 75
     2
 76
     1
 98
        0
  0
SPLINE
  5
C9
330
C3
100
AcDbEntity
  8
_U+30EC_U+30A4_U+30E4_U+30FC 1
370
     0
100
AcDbSpline
210
0.0
220
0.0
230
1.0
 70
    11
 71
     3
 72
    44
 73
    40
 74
     0
 42
0.0000000001
 43
0.0000000001
 12
1.0
 22
0.0
 32
0.0
 13
1.0
 23
0.0
 33
0.0
 40
0.0
 40
0.0
 40
0.0
 40
0.0
 40
1.0
 40
1.0
 40
1.0
 40
2.0
 40
2.0
 40
2.0
 40
3.0
 40
3.0
 40
3.0
 40
4.0
 40
4.0
 40
4.0
 40
5.0
 40
5.0
 40
5.0
 40
6.0
 40
6.0
 40
6.0
 40
7.0
 40
7.0
 40
7.0
 40
8.0
 40
8.0
 40
8.0
 40
9.0
 40
9.0
 40
9.0
 40
10.0
 40
10.0
 40
10.0
 40
11.0
 40
11.0
 40
11.0
 40
12.0
 40
12.0
 40
12.0
 40
13.0
 40
13.0
 40
13.0
 40
13.0
 10
81.3531738077867
 20
-116.9055256869195
 30
0.0
 10
81.35179576959261
 20
-116.8552272928348
 30
0.0
 10
81.35627439372344
 20
-116.7987277268767
 30
0.0
 10
81.45618216279568
 20
-116.5906439595676
 30
0.0
 10
81.56005179167596
 20
-116.3708468676087
 30
0.0
 10
81.5378309257961
 20
-116.2819634040892
 30
0.0
 10
81.37832300482903
 20
-116.203070717477
 30
0.0
 10
81.37832300482903
 20
-116.203070717477
 30
0.0
 10
81.0124538642955
 20
-116.0225477140499
 30
0.0
 10
81.0124538642955
 20
-116.0225477140499
 30
0.0
 10
81.0124538642955
 20
-116.0225477140499
 30
0.0
 10
80.72892250585944
 20
-116.5975341505381
 30
0.0
 10
80.72892250585944
 20
-116.5975341505381
 30
0.0
 10
80.72892250585944
 20
-116.5975341505381
 30
0.0
 10
80.51808266216214
 20
-116.4938367764321
 30
0.0
 10
80.51808266216214
 20
-116.4938367764321
 30
0.0
 10
80.51808266216214
 20
-116.4938367764321
 30
0.0
 10
81.20124509688719
 20
-115.1085638818131
 30
0.0
 10
81.20124509688719
 20
-115.1085638818131
 30
0.0
 10
81.20124509688719
 20
-115.1085638818131
 30
0.0
 10
81.80654837364558
 20
-115.4072536603843
 30
0.0
 10
81.80654837364558
 20
-115.4072536603843
 30
0.0
 10
82.08163924814279
 20
-115.5426459129546
 30
0.0
 10
82.15553654630139
 20
-115.7707112340782
 30
0.0
 10
82.04236515961094
 20
-116.0001545933958
 30
0.0
 10
82.01997203895682
 20
-116.0456298538011
 30
0.0
 10
81.97587481674562
 20
-116.1159098017002
 30
0.0
 10
81.90025497084439
 20
-116.168275253076
 30
0.0
 10
81.80172523996625
 20
-116.2351101054898
 30
0.0
 10
81.73420136845535
 20
-116.22339678084
 30
0.0
 10
81.67184514017232
 20
-116.2113389466416
 30
0.0
 10
81.7762315333754
 20
-116.3098686775198
 30
0.0
 10
81.8156778766815
 20
-116.3832492113556
 30
0.0
 10
81.68011336933692
 20
-116.6678140984372
 30
0.0
 10
81.564013651484
 20
-116.9127603874385
 30
0.0
 10
81.58227265755582
 20
-116.9572021191982
 30
0.0
 10
81.61879066969948
 20
-117.0364393153589
 30
0.0
 10
81.61879066969948
 20
-117.0364393153589
 30
0.0
 10
81.3531738077867
 20
-116.9055256869195
 30
0.0
 10
81.3531738077867
 20
-116.9055256869195
 30
0.0
  0
SPLINE
  5
CA
330
C3
100
AcDbEntity
  8
_U+30EC_U+30A4_U+30E4_U+30FC 1
370
     0
100
AcDbSpline
210
0.0
220
0.0
230
1.0
 70
    11
 71
     3
 72
    20
 73
    16
 74
     0
 42
0.0000000001
 43
0.0000000001
 12
1.0
 22
0.0
 32
0.0
 13
1.0
 23
0.0
 33
0.0
 40
0.0
 40
0.0
 40
0.0
 40
0.0
 40
1.0
 40
1.0
 40
1.0
 40
2.0
 40
2.0
 40
2.0
 40
3.0
 40
3.0
 40
3.0
 40
4.0
 40
4.0
 40
4.0
 40
5.0
 40
5.0
 40
5.0
 40
5.0
 10
81.71663138148057
 20
-115.5984564598157
 30
0.0
 10
81.71663138148057
 20
-115.5984564598157
 30
0.0
 10
81.31837834338569
 20
-115.4020860171564
 30
0.0
 10
81.31837834338569
 20
-115.4020860171564
 30
0.0
 10
81.31837834338569
 20
-115.4020860171564
 30
0.0
 10
81.10581595194577
 20
-115.8330674623612
 30
0.0
 10
81.10581595194577
 20
-115.8330674623612
 30
0.0
 10
81.10581595194577
 20
-115.8330674623612
 30
0.0
 10
81.50234644229803
 20
-116.0284043763749
 30
0.0
 10
81.50234644229803
 20
-116.0284043763749
 30
0.0
 10
81.591574415366
 20
-116.072501598586
 30
0.0
 10
81.7467759669765
 20
-116.0638888598729
 30
0.0
 10
81.82239581287774
 20
-115.9105821107793
 30
0.0
 10
81.85719127727876
 20
-115.8403021628802
 30
0.0
 10
81.89508732761651
 20
-115.6866509042381
 30
0.0
 10
81.71663138148057
 20
-115.5984564598157
 30
0.0
  0
HATCH
  5
CB
330
C3
100
AcDbEntity
  8
_U+30EC_U+30A4_U+30E4_U+30FC 1
 62
   179
420
  2234388
100
AcDbHatch
 10
0.0
 20
0.0
 30
0.0
210
0.0
220
0.0
230
1.0
  2
SOLID
 70
     1
 71
     0
 91
        2
 92
        1
 93
        1
 72
     4
 94
        3
 73
     0
 74
     1
 95
       44
 96
       40
 40
0.0
 40
0.0
 40
0.0
 40
0.0
 40
1.0
 40
1.0
 40
1.0
 40
2.0
 40
2.0
 40
2.0
 40
3.0
 40
3.0
 40
3.0
 40
4.0
 40
4.0
 40
4.0
 40
5.0
 40
5.0
 40
5.0
 40
6.0
 40
6.0
 40
6.0
 40
7.0
 40
7.0
 40
7.0
 40
8.0
 40
8.0
 40
8.0
 40
9.0
 40
9.0
 40
9.0
 40
10.0
 40
10.0
 40
10.0
 40
11.0
 40
11.0
 40
11.0
 40
12.0
 40
12.0
 40
12.0
 40
13.0
 40
13.0
 40
13.0
 40
13.0
 10
81.3531738077867
 20
-116.9055256869195
 10
81.35179576959261
 20
-116.8552272928348
 10
81.35627439372344
 20
-116.7987277268767
 10
81.45618216279568
 20
-116.5906439595676
 10
81.56005179167596
 20
-116.3708468676087
 10
81.5378309257961
 20
-116.2819634040892
 10
81.37832300482903
 20
-116.203070717477
 10
81.37832300482903
 20
-116.203070717477
 10
81.0124538642955
 20
-116.0225477140499
 10
81.0124538642955
 20
-116.0225477140499
 10
81.0124538642955
 20
-116.0225477140499
 10
80.72892250585944
 20
-116.5975341505381
 10
80.72892250585944
 20
-116.5975341505381
 10
80.72892250585944
 20
-116.5975341505381
 10
80.51808266216214
 20
-116.4938367764321
 10
80.51808266216214
 20
-116.4938367764321
 10
80.51808266216214
 20
-116.4938367764321
 10
81.20124509688719
 20
-115.1085638818131
 10
81.20124509688719
 20
-115.1085638818131
 10
81.20124509688719
 20
-115.1085638818131
 10
81.80654837364558
 20
-115.4072536603843
 10
81.80654837364558
 20
-115.4072536603843
 10
82.08163924814279
 20
-115.5426459129546
 10
82.15553654630139
 20
-115.7707112340782
 10
82.04236515961094
 20
-116.0001545933958
 10
82.01997203895682
 20
-116.0456298538011
 10
81.97587481674562
 20
-116.1159098017002
 10
81.90025497084439
 20
-116.168275253076
 10
81.80172523996625
 20
-116.2351101054898
 10
81.73420136845535
 20
-116.22339678084
 10
81.67184514017232
 20
-116.2113389466416
 10
81.7762315333754
 20
-116.3098686775198
 10
81.8156778766815
 20
-116.3832492113556
 10
81.68011336933692
 20
-116.6678140984372
 10
81.564013651484
 20
-116.9127603874385
 10
81.58227265755582
 20
-116.9572021191982
 10
81.61879066969948
 20
-117.0364393153589
 10
81.61879066969948
 20
-117.0364393153589
 10
81.3531738077867
 20
-116.9055256869195
 10
81.3531738077867
 20
-116.9055256869195
 97
        0
 97
        0
 92
        1
 93
        1
 72
     4
 94
        3
 73
     0
 74
     1
 95
       20
 96
       16
 40
0.0
 40
0.0
 40
0.0
 40
0.0
 40
1.0
 40
1.0
 40
1.0
 40
2.0
 40
2.0
 40
2.0
 40
3.0
 40
3.0
 40
3.0
 40
4.0
 40
4.0
 40
4.0
 40
5.0
 40
5.0
 40
5.0
 40
5.0
 10
81.71663138148057
 20
-115.5984564598157
 10
81.71663138148057
 20
-115.5984564598157
 10
81.31837834338569
 20
-115.4020860171564
 10
81.31837834338569
 20
-115.4020860171564
 10
81.31837834338569
 20
-115.4020860171564
 10
81.10581595194577
 20
-115.8330674623612
 10
81.10581595194577
 20
-115.8330674623612
 10
81.10581595194577
 20
-115.8330674623612
 10
81.50234644229803
 20
-116.0284043763749
 10
81.50234644229803
 20
-116.0284043763749
 10
81.591574415366
 20
-116.072501598586
 10
81.7467759669765
 20
-116.0638888598729
 10
81.82239581287774
 20
-115.9105821107793
 10
81.85719127727876
 20
-115.8403021628802
 10
81.89508732761651
 20
-115.6866509042381
 10
81.71663138148057
 20
-115.5984564598157
 97
        0
 97
        0
 75
     2
 76
     1
 98
        0
  0
SPLINE
  5
CC
330
C3
100
AcDbEntity
  8
_U+30EC_U+30A4_U+30E4_U+30FC 1
370
     0
100
AcDbSpline
210
0.0
220
0.0
230
1.0
 70
    11
 71
     3
 72
    26
 73
    22
 74
     0
 42
0.0000000001
 43
0.0000000001
 12
1.0
 22
0.0
 32
0.0
 13
1.0
 23
0.0
 33
0.0
 40
0.0
 40
0.0
 40
0.0
 40
0.0
 40
1.0
 40
1.0
 40
1.0
 40
2.0
 40
2.0
 40
2.0
 40
3.0
 40
3.0
 40
3.0
 40
4.0
 40
4.0
 40
4.0
 40
5.0
 40
5.0
 40
5.0
 40
6.0
 40
6.0
 40
6.0
 40
7.0
 40
7.0
 40
7.0
 40
7.0
 10
82.71984318678533
 20
-116.8765868848434
 30
0.0
 10
82.71984318678533
 20
-116.8765868848434
 30
0.0
 10
82.31383868384863
 20
-116.6764268371503
 30
0.0
 10
82.31383868384863
 20
-116.6764268371503
 30
0.0
 10
82.31383868384863
 20
-116.6764268371503
 30
0.0
 10
82.03495820431765
 20
-117.2417670062798
 30
0.0
 10
82.03495820431765
 20
-117.2417670062798
 30
0.0
 10
82.03495820431765
 20
-117.2417670062798
 30
0.0
 10
81.82446287016889
 20
-117.1377251226253
 30
0.0
 10
81.82446287016889
 20
-117.1377251226253
 30
0.0
 10
81.82446287016889
 20
-117.1377251226253
 30
0.0
 10
82.50745305011966
 20
-115.7527967375549
 30
0.0
 10
82.50745305011966
 20
-115.7527967375549
 30
0.0
 10
82.50745305011966
 20
-115.7527967375549
 30
0.0
 10
83.12412514197939
 20
-116.0569986689024
 30
0.0
 10
83.12412514197939
 20
-116.0569986689024
 30
0.0
 10
83.3821627938246
 20
-116.1841226923081
 30
0.0
 10
83.49430065186948
 20
-116.4211452616933
 30
0.0
 10
83.36235349478441
 20
-116.6884846713487
 30
0.0
 10
83.25279945835346
 20
-116.9103488205988
 30
0.0
 10
83.01767169148516
 20
-117.023347952515
 30
0.0
 10
82.71984318678533
 20
-116.8765868848434
 30
0.0
  0
SPLINE
  5
CD
330
C3
100
AcDbEntity
  8
_U+30EC_U+30A4_U+30E4_U+30FC 1
370
     0
100
AcDbSpline
210
0.0
220
0.0
230
1.0
 70
    11
 71
     3
 72
    20
 73
    16
 74
     0
 42
0.0000000001
 43
0.0000000001
 12
1.0
 22
0.0
 32
0.0
 13
1.0
 23
0.0
 33
0.0
 40
0.0
 40
0.0
 40
0.0
 40
0.0
 40
1.0
 40
1.0
 40
1.0
 40
2.0
 40
2.0
 40
2.0
 40
3.0
 40
3.0
 40
3.0
 40
4.0
 40
4.0
 40
4.0
 40
5.0
 40
5.0
 40
5.0
 40
5.0
 10
83.02301158948731
 20
-116.2426893155574
 30
0.0
 10
83.02301158948731
 20
-116.2426893155574
 30
0.0
 10
82.6244140418439
 20
-116.0463188728981
 30
0.0
 10
82.6244140418439
 20
-116.0463188728981
 30
0.0
 10
82.6244140418439
 20
-116.0463188728981
 30
0.0
 10
82.40737302627316
 20
-116.4866020759131
 30
0.0
 10
82.40737302627316
 20
-116.4866020759131
 30
0.0
 10
82.40737302627316
 20
-116.4866020759131
 30
0.0
 10
82.8057983191423
 20
-116.6829725185723
 30
0.0
 10
82.8057983191423
 20
-116.6829725185723
 30
0.0
 10
82.95565997275067
 20
-116.7570420715052
 30
0.0
 10
83.0822672318336
 20
-116.7015760341927
 30
0.0
 10
83.14393444101958
 20
-116.5761745585296
 30
0.0
 10
83.19457734465274
 20
-116.4738552226177
 30
0.0
 10
83.19182126826455
 20
-116.3260606263004
 30
0.0
 10
83.02301158948731
 20
-116.2426893155574
 30
0.0
  0
HATCH
  5
CE
330
C3
100
AcDbEntity
  8
_U+30EC_U+30A4_U+30E4_U+30FC 1
 62
   179
420
  2234388
100
AcDbHatch
 10
0.0
 20
0.0
 30
0.0
210
0.0
220
0.0
230
1.0
  2
SOLID
 70
     1
 71
     0
 91
        2
 92
        1
 93
        1
 72
     4
 94
        3
 73
     0
 74
     1
 95
       26
 96
       22
 40
0.0
 40
0.0
 40
0.0
 40
0.0
 40
1.0
 40
1.0
 40
1.0
 40
2.0
 40
2.0
 40
2.0
 40
3.0
 40
3.0
 40
3.0
 40
4.0
 40
4.0
 40
4.0
 40
5.0
 40
5.0
 40
5.0
 40
6.0
 40
6.0
 40
6.0
 40
7.0
 40
7.0
 40
7.0
 40
7.0
 10
82.71984318678533
 20
-116.8765868848434
 10
82.71984318678533
 20
-116.8765868848434
 10
82.31383868384863
 20
-116.6764268371503
 10
82.31383868384863
 20
-116.6764268371503
 10
82.31383868384863
 20
-116.6764268371503
 10
82.03495820431765
 20
-117.2417670062798
 10
82.03495820431765
 20
-117.2417670062798
 10
82.03495820431765
 20
-117.2417670062798
 10
81.82446287016889
 20
-117.1377251226253
 10
81.82446287016889
 20
-117.1377251226253
 10
81.82446287016889
 20
-117.1377251226253
 10
82.50745305011966
 20
-115.7527967375549
 10
82.50745305011966
 20
-115.7527967375549
 10
82.50745305011966
 20
-115.7527967375549
 10
83.12412514197939
 20
-116.0569986689024
 10
83.12412514197939
 20
-116.0569986689024
 10
83.3821627938246
 20
-116.1841226923081
 10
83.49430065186948
 20
-116.4211452616933
 10
83.36235349478441
 20
-116.6884846713487
 10
83.25279945835346
 20
-116.9103488205988
 10
83.01767169148516
 20
-117.023347952515
 10
82.71984318678533
 20
-116.8765868848434
 97
        0
 97
        0
 92
        1
 93
        1
 72
     4
 94
        3
 73
     0
 74
     1
 95
       20
 96
       16
 40
0.0
 40
0.0
 40
0.0
 40
0.0
 40
1.0
 40
1.0
 40
1.0
 40
2.0
 40
2.0
 40
2.0
 40
3.0
 40
3.0
 40
3.0
 40
4.0
 40
4.0
 40
4.0
 40
5.0
 40
5.0
 40
5.0
 40
5.0
 10
83.02301158948731
 20
-116.2426893155574
 10
83.02301158948731
 20
-116.2426893155574
 10
82.6244140418439
 20
-116.0463188728981
 10
82.6244140418439
 20
-116.0463188728981
 10
82.6244140418439
 20
-116.0463188728981
 10
82.40737302627316
 20
-116.4866020759131
 10
82.40737302627316
 20
-116.4866020759131
 10
82.40737302627316
 20
-116.4866020759131
 10
82.8057983191423
 20
-116.6829725185723
 10
82.8057983191423
 20
-116.6829725185723
 10
82.95565997275067
 20
-116.7570420715052
 10
83.0822672318336
 20
-116.7015760341927
 10
83.14393444101958
 20
-116.5761745585296
 10
83.19457734465274
 20
-116.4738552226177
 10
83.19182126826455
 20
-116.3260606263004
 10
83.02301158948731
 20
-116.2426893155574
 97
        0
 97
        0
 75
     2
 76
     1
 98
        0
  0
POLYLINE
  5
CF
330
C3
100
AcDbEntity
  8
_U+30EC_U+30A4_U+30E4_U+30FC 1
370
     0
100
AcDb2dPolyline
 66
     1
 10
0.0
 20
0.0
 30
0.0
  0
VERTEX
  5
D0
330
CF
100
AcDbEntity
  8
_U+30EC_U+30A4_U+30E4_U+30FC 1
370
     0
100
AcDbVertex
100
AcDb2dVertex
 10
83.19871145923504
 20
-117.3179036165039
 30
0.0
  0
VERTEX
  5
D1
330
CF
100
AcDbEntity
  8
_U+30EC_U+30A4_U+30E4_U+30FC 1
370
     0
100
AcDbVertex
100
AcDb2dVertex
 10
83.29414060417646
 20
-117.1246337597813
 30
0.0
  0
VERTEX
  5
D2
330
CF
100
AcDbEntity
  8
_U+30EC_U+30A4_U+30E4_U+30FC 1
370
     0
100
AcDbVertex
100
AcDb2dVertex
 10
83.8198621752256
 20
-117.3837049402721
 30
0.0
  0
VERTEX
  5
D3
330
CF
100
AcDbEntity
  8
_U+30EC_U+30A4_U+30E4_U+30FC 1
370
     0
100
AcDbVertex
100
AcDb2dVertex
 10
83.72443303028417
 20
-117.5773193065432
 30
0.0
  0
VERTEX
  5
D4
330
CF
100
AcDbEntity
  8
_U+30EC_U+30A4_U+30E4_U+30FC 1
370
     0
100
AcDbVertex
100
AcDb2dVertex
 10
83.19871145923504
 20
-117.3179036165039
 30
0.0
  0
SEQEND
  5
D5
330
CF
100
AcDbEntity
  8
_U+30EC_U+30A4_U+30E4_U+30FC 1
370
     0
  0
HATCH
  5
D6
330
C3
100
AcDbEntity
  8
_U+30EC_U+30A4_U+30E4_U+30FC 1
 62
   179
420
  2234388
100
AcDbHatch
 10
0.0
 20
0.0
 30
0.0
210
0.0
220
0.0
230
1.0
  2
SOLID
 70
     1
 71
     0
 91
        1
 92
        1
 93
        4
 72
     1
 10
83.19871145923504
 20
-117.3179036165039
 11
83.29414060417646
 21
-117.1246337597813
 72
     1
 10
83.29414060417646
 20
-117.1246337597813
 11
83.8198621752256
 21
-117.3837049402721
 72
     1
 10
83.8198621752256
 20
-117.3837049402721
 11
83.72443303028417
 21
-117.5773193065432
 72
     1
 10
83.72443303028417
 20
-117.5773193065432
 11
83.19871145923504
 21
-117.3179036165039
 97
        0
 75
     2
 76
     1
 98
        0
  0
SPLINE
  5
D7
330
C3
100
AcDbEntity
  8
_U+30EC_U+30A4_U+30E4_U+30FC 1
370
     0
100
AcDbSpline
210
0.0
220
0.0
230
1.0
 70
    11
 71
     3
 72
    62
 73
    58
 74
     0
 42
0.0000000001
 43
0.0000000001
 12
1.0
 22
0.0
 32
0.0
 13
1.0
 23
0.0
 33
0.0
 40
0.0
 40
0.0
 40
0.0
 40
0.0
 40
1.0
 40
1.0
 40
1.0
 40
2.0
 40
2.0
 40
2.0
 40
3.0
 40
3.0
 40
3.0
 40
4.0
 40
4.0
 40
4.0
 40
5.0
 40
5.0
 40
5.0
 40
6.0
 40
6.0
 40
6.0
 40
7.0
 40
7.0
 40
7.0
 40
8.0
 40
8.0
 40
8.0
 40
9.0
 40
9.0
 40
9.0
 40
10.0
 40
10.0
 40
10.0
 40
11.0
 40
11.0
 40
11.0
 40
12.0
 40
12.0
 40
12.0
 40
13.0
 40
13.0
 40
13.0
 40
14.0
 40
14.0
 40
14.0
 40
15.0
 40
15.0
 40
15.0
 40
16.0
 40
16.0
 40
16.0
 40
17.0
 40
17.0
 40
17.0
 40
18.0
 40
18.0
 40
18.0
 40
19.0
 40
19.0
 40
19.0
 40
19.0
 10
84.06067434964456
 20
-118.2973442629604
 30
0.0
 10
83.97523598161037
 20
-118.2553140980403
 30
0.0
 10
83.78902857063261
 20
-118.1399033992845
 30
0.0
 10
83.75957300423372
 20
-117.9176947404859
 30
0.0
 10
83.742692036356
 20
-117.7843695452067
 30
0.0
 10
83.78282739875915
 20
-117.6937635339446
 30
0.0
 10
83.81641707974035
 20
-117.6155598664295
 30
0.0
 10
83.81641707974035
 20
-117.6155598664295
 30
0.0
 10
84.01382105104516
 20
-117.713056068662
 30
0.0
 10
84.01382105104516
 20
-117.713056068662
 30
0.0
 10
83.98281519167791
 20
-117.7802354306244
 30
0.0
 10
83.88876408493059
 20
-117.9955538984525
 30
0.0
 10
84.14283987696777
 20
-118.1206108645671
 30
0.0
 10
84.26634655011398
 20
-118.181589054656
 30
0.0
 10
84.43377819069711
 20
-118.1864121883354
 30
0.0
 10
84.53471948841494
 20
-117.9817735165115
 30
0.0
 10
84.58622366591942
 20
-117.8773871233084
 30
0.0
 10
84.573476812624
 20
-117.8170979523166
 30
0.0
 10
84.55917966636021
 20
-117.7743787682995
 30
0.0
 10
84.52541773060476
 20
-117.6751600183243
 30
0.0
 10
84.42654349017809
 20
-117.6124592804927
 30
0.0
 10
84.37727862473902
 20
-117.5879991025475
 30
0.0
 10
84.3603976568613
 20
-117.5797308733829
 30
0.0
 10
84.32715248542863
 20
-117.5656059818933
 30
0.0
 10
84.30079750496647
 20
-117.5569932431802
 30
0.0
 10
84.30079750496647
 20
-117.5569932431802
 30
0.0
 10
84.38675263732345
 20
-117.382326902078
 30
0.0
 10
84.38675263732345
 20
-117.382326902078
 30
0.0
 10
84.41793075146497
 20
-117.4054090418292
 30
0.0
 10
84.45513778270566
 20
-117.4257351051922
 30
0.0
 10
84.46082219025632
 20
-117.4284911815804
 30
0.0
 10
84.51956106827984
 20
-117.4574299836565
 30
0.0
 10
84.70749102700022
 20
-117.5263318933615
 30
0.0
 10
84.81204967497754
 20
-117.3141140114701
 30
0.0
 10
84.89077010681551
 20
-117.154606090503
 30
0.0
 10
84.79723576439098
 20
-117.0471191113632
 30
0.0
 10
84.69870603351282
 20
-116.9985432650212
 30
0.0
 10
84.46168346412765
 20
-116.8817545280712
 30
0.0
 10
84.35075138950259
 20
-117.0867377094436
 30
0.0
 10
84.31561141555305
 20
-117.1490939377266
 30
0.0
 10
84.31561141555305
 20
-117.1490939377266
 30
0.0
 10
84.13336586438334
 20
-117.0591769455616
 30
0.0
 10
84.13336586438334
 20
-117.0591769455616
 30
0.0
 10
84.19606660221487
 20
-116.9513454568733
 30
0.0
 10
84.38726940164624
 20
-116.6257839335172
 30
0.0
 10
84.79689125484245
 20
-116.8276665289528
 30
0.0
 10
84.99808483118103
 20
-116.926885278928
 30
0.0
 10
85.15828177124516
 20
-117.1477158995325
 30
0.0
 10
85.02736814280566
 20
-117.4129882518968
 30
0.0
 10
84.94503036070819
 20
-117.5800753829314
 30
0.0
 10
84.82341849007886
 20
-117.6121147709442
 30
0.0
 10
84.70680200790316
 20
-117.6227945669485
 30
0.0
 10
84.74969344669452
 20
-117.6748155087758
 30
0.0
 10
84.87750648919729
 20
-117.8274332387723
 30
0.0
 10
84.7548610899224
 20
-118.0758246232588
 30
0.0
 10
84.60534394586256
 20
-118.3793375355093
 30
0.0
 10
84.30923798890534
 20
-118.4199896622353
 30
0.0
 10
84.06067434964456
 20
-118.2973442629604
 30
0.0
  0
HATCH
  5
D8
330
C3
100
AcDbEntity
  8
_U+30EC_U+30A4_U+30E4_U+30FC 1
 62
   179
420
  2234388
100
AcDbHatch
 10
0.0
 20
0.0
 30
0.0
210
0.0
220
0.0
230
1.0
  2
SOLID
 70
     1
 71
     0
 91
        1
 92
        1
 93
        1
 72
     4
 94
        3
 73
     0
 74
     1
 95
       62
 96
       58
 40
0.0
 40
0.0
 40
0.0
 40
0.0
 40
1.0
 40
1.0
 40
1.0
 40
2.0
 40
2.0
 40
2.0
 40
3.0
 40
3.0
 40
3.0
 40
4.0
 40
4.0
 40
4.0
 40
5.0
 40
5.0
 40
5.0
 40
6.0
 40
6.0
 40
6.0
 40
7.0
 40
7.0
 40
7.0
 40
8.0
 40
8.0
 40
8.0
 40
9.0
 40
9.0
 40
9.0
 40
10.0
 40
10.0
 40
10.0
 40
11.0
 40
11.0
 40
11.0
 40
12.0
 40
12.0
 40
12.0
 40
13.0
 40
13.0
 40
13.0
 40
14.0
 40
14.0
 40
14.0
 40
15.0
 40
15.0
 40
15.0
 40
16.0
 40
16.0
 40
16.0
 40
17.0
 40
17.0
 40
17.0
 40
18.0
 40
18.0
 40
18.0
 40
19.0
 40
19.0
 40
19.0
 40
19.0
 10
84.06067434964456
 20
-118.2973442629604
 10
83.97523598161037
 20
-118.2553140980403
 10
83.78902857063261
 20
-118.1399033992845
 10
83.75957300423372
 20
-117.9176947404859
 10
83.742692036356
 20
-117.7843695452067
 10
83.78282739875915
 20
-117.6937635339446
 10
83.81641707974035
 20
-117.6155598664295
 10
83.81641707974035
 20
-117.6155598664295
 10
84.01382105104516
 20
-117.713056068662
 10
84.01382105104516
 20
-117.713056068662
 10
83.98281519167791
 20
-117.7802354306244
 10
83.88876408493059
 20
-117.9955538984525
 10
84.14283987696777
 20
-118.1206108645671
 10
84.26634655011398
 20
-118.181589054656
 10
84.43377819069711
 20
-118.1864121883354
 10
84.53471948841494
 20
-117.9817735165115
 10
84.58622366591942
 20
-117.8773871233084
 10
84.573476812624
 20
-117.8170979523166
 10
84.55917966636021
 20
-117.7743787682995
 10
84.52541773060476
 20
-117.6751600183243
 10
84.42654349017809
 20
-117.6124592804927
 10
84.37727862473902
 20
-117.5879991025475
 10
84.3603976568613
 20
-117.5797308733829
 10
84.32715248542863
 20
-117.5656059818933
 10
84.30079750496647
 20
-117.5569932431802
 10
84.30079750496647
 20
-117.5569932431802
 10
84.38675263732345
 20
-117.382326902078
 10
84.38675263732345
 20
-117.382326902078
 10
84.41793075146497
 20
-117.4054090418292
 10
84.45513778270566
 20
-117.4257351051922
 10
84.46082219025632
 20
-117.4284911815804
 10
84.51956106827984
 20
-117.4574299836565
 10
84.70749102700022
 20
-117.5263318933615
 10
84.81204967497754
 20
-117.3141140114701
 10
84.89077010681551
 20
-117.154606090503
 10
84.79723576439098
 20
-117.0471191113632
 10
84.69870603351282
 20
-116.9985432650212
 10
84.46168346412765
 20
-116.8817545280712
 10
84.35075138950259
 20
-117.0867377094436
 10
84.31561141555305
 20
-117.1490939377266
 10
84.31561141555305
 20
-117.1490939377266
 10
84.13336586438334
 20
-117.0591769455616
 10
84.13336586438334
 20
-117.0591769455616
 10
84.19606660221487
 20
-116.9513454568733
 10
84.38726940164624
 20
-116.6257839335172
 10
84.79689125484245
 20
-116.8276665289528
 10
84.99808483118103
 20
-116.926885278928
 10
85.15828177124516
 20
-117.1477158995325
 10
85.02736814280566
 20
-117.4129882518968
 10
84.94503036070819
 20
-117.5800753829314
 10
84.82341849007886
 20
-117.6121147709442
 10
84.70680200790316
 20
-117.6227945669485
 10
84.74969344669452
 20
-117.6748155087758
 10
84.87750648919729
 20
-117.8274332387723
 10
84.7548610899224
 20
-118.0758246232588
 10
84.60534394586256
 20
-118.3793375355093
 10
84.30923798890534
 20
-118.4199896622353
 10
84.06067434964456
 20
-118.2973442629604
 97
        0
 97
        0
 75
     2
 76
     1
 98
        0
  0
SPLINE
  5
D9
330
C3
100
AcDbEntity
  8
_U+30EC_U+30A4_U+30E4_U+30FC 1
370
     0
100
AcDbSpline
210
0.0
220
0.0
230
1.0
 70
    11
 71
     3
 72
    29
 73
    25
 74
     0
 42
0.0000000001
 43
0.0000000001
 12
1.0
 22
0.0
 32
0.0
 13
1.0
 23
0.0
 33
0.0
 40
0.0
 40
0.0
 40
0.0
 40
0.0
 40
1.0
 40
1.0
 40
1.0
 40
2.0
 40
2.0
 40
2.0
 40
3.0
 40
3.0
 40
3.0
 40
4.0
 40
4.0
 40
4.0
 40
5.0
 40
5.0
 40
5.0
 40
6.0
 40
6.0
 40
6.0
 40
7.0
 40
7.0
 40
7.0
 40
8.0
 40
8.0
 40
8.0
 40
8.0
 10
85.58168400638236
 20
-118.7927489937393
 30
0.0
 10
85.39220375469363
 20
-118.9326198704405
 30
0.0
 10
85.22821720959573
 20
-118.8730197185456
 30
0.0
 10
85.12383081639265
 20
-118.8216877958154
 30
0.0
 10
84.97965357033495
 20
-118.7503743192707
 30
0.0
 10
84.87302786506648
 20
-118.6459879260677
 30
0.0
 10
84.86820473138712
 20
-118.4406602351468
 30
0.0
 10
84.86131454041661
 20
-118.2205186336393
 30
0.0
 10
84.94881996574196
 20
-117.9996880130348
 30
0.0
 10
85.02082246138369
 20
-117.8536159644602
 30
0.0
 10
85.08455672786081
 20
-117.7244248837633
 30
0.0
 10
85.21116398694375
 20
-117.5060058299985
 30
0.0
 10
85.39392630243624
 20
-117.374403182462
 30
0.0
 10
85.58065047773678
 20
-117.2403889680857
 30
0.0
 10
85.73499075547598
 20
-117.2903428526219
 30
0.0
 10
85.85074596378037
 20
-117.347531437677
 30
0.0
 10
85.99302840732119
 20
-117.4174668760276
 30
0.0
 10
86.10258244375214
 20
-117.5208197405851
 30
0.0
 10
86.10740557743149
 20
-117.726147431506
 30
0.0
 10
86.11136743723952
 20
-117.9431884470767
 30
0.0
 10
86.03126896720747
 20
-118.1581624053563
 30
0.0
 10
85.95444333788639
 20
-118.3138807212896
 30
0.0
 10
85.8786512372109
 20
-118.4675319799317
 30
0.0
 10
85.75790064045289
 20
-118.6649359512365
 30
0.0
 10
85.58168400638236
 20
-118.7927489937393
 30
0.0
  0
SPLINE
  5
DA
330
C3
100
AcDbEntity
  8
_U+30EC_U+30A4_U+30E4_U+30FC 1
370
     0
100
AcDbSpline
210
0.0
220
0.0
230
1.0
 70
    11
 71
     3
 72
    17
 73
    13
 74
     0
 42
0.0000000001
 43
0.0000000001
 12
1.0
 22
0.0
 32
0.0
 13
1.0
 23
0.0
 33
0.0
 40
0.0
 40
0.0
 40
0.0
 40
0.0
 40
1.0
 40
1.0
 40
1.0
 40
2.0
 40
2.0
 40
2.0
 40
3.0
 40
3.0
 40
3.0
 40
4.0
 40
4.0
 40
4.0
 40
4.0
 10
85.7656521052947
 20
-117.520130721488
 30
0.0
 10
85.54172089875347
 20
-117.40988766596
 30
0.0
 10
85.37463376771885
 20
-117.64346513986
 30
0.0
 10
85.22201603772228
 20
-117.9528347144354
 30
0.0
 10
85.08076712282704
 20
-118.2391221492597
 30
0.0
 10
84.9767252391725
 20
-118.5319552655059
 30
0.0
 10
85.2099582035239
 20
-118.6470214547133
 30
0.0
 10
85.43199460754826
 20
-118.7562309815957
 30
0.0
 10
85.60011526722845
 20
-118.526098603181
 30
0.0
 10
85.75359427109633
 20
-118.2146619713144
 30
0.0
 10
85.89484318599158
 20
-117.9280300269416
 30
0.0
 10
85.99716252190349
 20
-117.6345078915983
 30
0.0
 10
85.7656521052947
 20
-117.520130721488
 30
0.0
  0
HATCH
  5
DB
330
C3
100
AcDbEntity
  8
_U+30EC_U+30A4_U+30E4_U+30FC 1
 62
   179
420
  2234388
100
AcDbHatch
 10
0.0
 20
0.0
 30
0.0
210
0.0
220
0.0
230
1.0
  2
SOLID
 70
     1
 71
     0
 91
        2
 92
        1
 93
        1
 72
     4
 94
        3
 73
     0
 74
     1
 95
       29
 96
       25
 40
0.0
 40
0.0
 40
0.0
 40
0.0
 40
1.0
 40
1.0
 40
1.0
 40
2.0
 40
2.0
 40
2.0
 40
3.0
 40
3.0
 40
3.0
 40
4.0
 40
4.0
 40
4.0
 40
5.0
 40
5.0
 40
5.0
 40
6.0
 40
6.0
 40
6.0
 40
7.0
 40
7.0
 40
7.0
 40
8.0
 40
8.0
 40
8.0
 40
8.0
 10
85.58168400638236
 20
-118.7927489937393
 10
85.39220375469363
 20
-118.9326198704405
 10
85.22821720959573
 20
-118.8730197185456
 10
85.12383081639265
 20
-118.8216877958154
 10
84.97965357033495
 20
-118.7503743192707
 10
84.87302786506648
 20
-118.6459879260677
 10
84.86820473138712
 20
-118.4406602351468
 10
84.86131454041661
 20
-118.2205186336393
 10
84.94881996574196
 20
-117.9996880130348
 10
85.02082246138369
 20
-117.8536159644602
 10
85.08455672786081
 20
-117.7244248837633
 10
85.21116398694375
 20
-117.5060058299985
 10
85.39392630243624
 20
-117.374403182462
 10
85.58065047773678
 20
-117.2403889680857
 10
85.73499075547598
 20
-117.2903428526219
 10
85.85074596378037
 20
-117.347531437677
 10
85.99302840732119
 20
-117.4174668760276
 10
86.10258244375214
 20
-117.5208197405851
 10
86.10740557743149
 20
-117.726147431506
 10
86.11136743723952
 20
-117.9431884470767
 10
86.03126896720747
 20
-118.1581624053563
 10
85.95444333788639
 20
-118.3138807212896
 10
85.8786512372109
 20
-118.4675319799317
 10
85.75790064045289
 20
-118.6649359512365
 10
85.58168400638236
 20
-118.7927489937393
 97
        0
 97
        0
 92
        1
 93
        1
 72
     4
 94
        3
 73
     0
 74
     1
 95
       17
 96
       13
 40
0.0
 40
0.0
 40
0.0
 40
0.0
 40
1.0
 40
1.0
 40
1.0
 40
2.0
 40
2.0
 40
2.0
 40
3.0
 40
3.0
 40
3.0
 40
4.0
 40
4.0
 40
4.0
 40
4.0
 10
85.7656521052947
 20
-117.520130721488
 10
85.54172089875347
 20
-117.40988766596
 10
85.37463376771885
 20
-117.64346513986
 10
85.22201603772228
 20
-117.9528347144354
 10
85.08076712282704
 20
-118.2391221492597
 10
84.9767252391725
 20
-118.5319552655059
 10
85.2099582035239
 20
-118.6470214547133
 10
85.43199460754826
 20
-118.7562309815957
 10
85.60011526722845
 20
-118.526098603181
 10
85.75359427109633
 20
-118.2146619713144
 10
85.89484318599158
 20
-117.9280300269416
 10
85.99716252190349
 20
-117.6345078915983
 10
85.7656521052947
 20
-117.520130721488
 97
        0
 97
        0
 75
     2
 76
     1
 98
        0
  0
POLYLINE
  5
DC
330
C3
100
AcDbEntity
  8
_U+30EC_U+30A4_U+30E4_U+30FC 1
370
     0
100
AcDb2dPolyline
 66
     1
 10
0.0
 20
0.0
 30
0.0
  0
VERTEX
  5
DD
330
DC
100
AcDbEntity
  8
_U+30EC_U+30A4_U+30E4_U+30FC 1
370
     0
100
AcDbVertex
100
AcDb2dVertex
 10
86.9569661240941
 20
-119.6691812851869
 30
0.0
  0
VERTEX
  5
DE
330
DC
100
AcDbEntity
  8
_U+30EC_U+30A4_U+30E4_U+30FC 1
370
     0
100
AcDbVertex
100
AcDb2dVertex
 10
87.42963322467037
 20
-118.7111002307389
 30
0.0
  0
VERTEX
  5
DF
330
DC
100
AcDbEntity
  8
_U+30EC_U+30A4_U+30E4_U+30FC 1
370
     0
100
AcDbVertex
100
AcDb2dVertex
 10
87.5071478730885
 20
-118.567439749004
 30
0.0
  0
VERTEX
  5
E0
330
DC
100
AcDbEntity
  8
_U+30EC_U+30A4_U+30E4_U+30FC 1
370
     0
100
AcDbVertex
100
AcDb2dVertex
 10
87.40689559446773
 20
-118.6900851482789
 30
0.0
  0
VERTEX
  5
E1
330
DC
100
AcDbEntity
  8
_U+30EC_U+30A4_U+30E4_U+30FC 1
370
     0
100
AcDbVertex
100
AcDb2dVertex
 10
86.62106931428224
 20
-119.5034721923464
 30
0.0
  0
VERTEX
  5
E2
330
DC
100
AcDbEntity
  8
_U+30EC_U+30A4_U+30E4_U+30FC 1
370
     0
100
AcDbVertex
100
AcDb2dVertex
 10
86.37819008257212
 20
-119.3835828694597
 30
0.0
  0
VERTEX
  5
E3
330
DC
100
AcDbEntity
  8
_U+30EC_U+30A4_U+30E4_U+30FC 1
370
     0
100
AcDbVertex
100
AcDb2dVertex
 10
86.5473442708979
 20
-118.2663384035931
 30
0.0
  0
VERTEX
  5
E4
330
DC
100
AcDbEntity
  8
_U+30EC_U+30A4_U+30E4_U+30FC 1
370
     0
100
AcDbVertex
100
AcDb2dVertex
 10
86.58317326394449
 20
-118.1119981258539
 30
0.0
  0
VERTEX
  5
E5
330
DC
100
AcDbEntity
  8
_U+30EC_U+30A4_U+30E4_U+30FC 1
370
     0
100
AcDbVertex
100
AcDb2dVertex
 10
86.51496037333654
 20
-118.2601372317197
 30
0.0
  0
VERTEX
  5
E6
330
DC
100
AcDbEntity
  8
_U+30EC_U+30A4_U+30E4_U+30FC 1
370
     0
100
AcDbVertex
100
AcDb2dVertex
 10
86.04263778230879
 20
-119.2178737766191
 30
0.0
  0
VERTEX
  5
E7
330
DC
100
AcDbEntity
  8
_U+30EC_U+30A4_U+30E4_U+30FC 1
370
     0
100
AcDbVertex
100
AcDb2dVertex
 10
85.8469563587466
 20
-119.1217556125807
 30
0.0
  0
VERTEX
  5
E8
330
DC
100
AcDbEntity
  8
_U+30EC_U+30A4_U+30E4_U+30FC 1
370
     0
100
AcDbVertex
100
AcDb2dVertex
 10
86.53011879347164
 20
-117.7364827179617
 30
0.0
  0
VERTEX
  5
E9
330
DC
100
AcDbEntity
  8
_U+30EC_U+30A4_U+30E4_U+30FC 1
370
     0
100
AcDbVertex
100
AcDb2dVertex
 10
86.81657848307016
 20
-117.877731632857
 30
0.0
  0
VERTEX
  5
EA
330
DC
100
AcDbEntity
  8
_U+30EC_U+30A4_U+30E4_U+30FC 1
370
     0
100
AcDbVertex
100
AcDb2dVertex
 10
86.64036184899963
 20
-119.0718017280445
 30
0.0
  0
VERTEX
  5
EB
330
DC
100
AcDbEntity
  8
_U+30EC_U+30A4_U+30E4_U+30FC 1
370
     0
100
AcDbVertex
100
AcDb2dVertex
 10
86.61193981124633
 20
-119.215806719328
 30
0.0
  0
VERTEX
  5
EC
330
DC
100
AcDbEntity
  8
_U+30EC_U+30A4_U+30E4_U+30FC 1
370
     0
100
AcDbVertex
100
AcDb2dVertex
 10
86.70874699438184
 20
-119.1055636638
 30
0.0
  0
VERTEX
  5
ED
330
DC
100
AcDbEntity
  8
_U+30EC_U+30A4_U+30E4_U+30FC 1
370
     0
100
AcDbVertex
100
AcDb2dVertex
 10
87.55090058575117
 20
-118.2401556779052
 30
0.0
  0
VERTEX
  5
EE
330
DC
100
AcDbEntity
  8
_U+30EC_U+30A4_U+30E4_U+30FC 1
370
     0
100
AcDbVertex
100
AcDb2dVertex
 10
87.83546547283281
 20
-118.3803710641549
 30
0.0
  0
VERTEX
  5
EF
330
DC
100
AcDbEntity
  8
_U+30EC_U+30A4_U+30E4_U+30FC 1
370
     0
100
AcDbVertex
100
AcDb2dVertex
 10
87.15230303810776
 20
-119.7652994492254
 30
0.0
  0
VERTEX
  5
F0
330
DC
100
AcDbEntity
  8
_U+30EC_U+30A4_U+30E4_U+30FC 1
370
     0
100
AcDbVertex
100
AcDb2dVertex
 10
86.9569661240941
 20
-119.6691812851869
 30
0.0
  0
SEQEND
  5
F1
330
DC
100
AcDbEntity
  8
_U+30EC_U+30A4_U+30E4_U+30FC 1
370
     0
  0
HATCH
  5
F2
330
C3
100
AcDbEntity
  8
_U+30EC_U+30A4_U+30E4_U+30FC 1
 62
   179
420
  2234388
100
AcDbHatch
 10
0.0
 20
0.0
 30
0.0
210
0.0
220
0.0
230
1.0
  2
SOLID
 70
     1
 71
     0
 91
        1
 92
        1
 93
       19
 72
     1
 10
86.9569661240941
 20
-119.6691812851869
 11
87.42963322467037
 21
-118.7111002307389
 72
     1
 10
87.42963322467037
 20
-118.7111002307389
 11
87.5071478730885
 21
-118.567439749004
 72
     1
 10
87.5071478730885
 20
-118.567439749004
 11
87.40689559446773
 21
-118.6900851482789
 72
     1
 10
87.40689559446773
 20
-118.6900851482789
 11
86.62106931428224
 21
-119.5034721923464
 72
     1
 10
86.62106931428224
 20
-119.5034721923464
 11
86.37819008257212
 21
-119.3835828694597
 72
     1
 10
86.37819008257212
 20
-119.3835828694597
 11
86.5473442708979
 21
-118.2663384035931
 72
     1
 10
86.5473442708979
 20
-118.2663384035931
 11
86.58317326394449
 21
-118.1119981258539
 72
     1
 10
86.58317326394449
 20
-118.1119981258539
 11
86.51496037333654
 21
-118.2601372317197
 72
     1
 10
86.51496037333654
 20
-118.2601372317197
 11
86.04263778230879
 21
-119.2178737766191
 72
     1
 10
86.04263778230879
 20
-119.2178737766191
 11
85.8469563587466
 21
-119.1217556125807
 72
     1
 10
85.8469563587466
 20
-119.1217556125807
 11
86.53011879347164
 21
-117.7364827179617
 72
     1
 10
86.53011879347164
 20
-117.7364827179617
 11
86.81657848307016
 21
-117.877731632857
 72
     1
 10
86.81657848307016
 20
-117.877731632857
 11
86.64036184899963
 21
-119.0718017280445
 72
     1
 10
86.64036184899963
 20
-119.0718017280445
 11
86.61193981124633
 21
-119.215806719328
 72
     1
 10
86.61193981124633
 20
-119.215806719328
 11
86.70874699438184
 21
-119.1055636638
 72
     1
 10
86.70874699438184
 20
-119.1055636638
 11
87.55090058575117
 21
-118.2401556779052
 72
     1
 10
87.55090058575117
 20
-118.2401556779052
 11
87.83546547283281
 21
-118.3803710641549
 72
     1
 10
87.83546547283281
 20
-118.3803710641549
 11
87.15230303810776
 21
-119.7652994492254
 72
     1
 10
87.15230303810776
 20
-119.7652994492254
 11
86.9569661240941
 21
-119.6691812851869
 97
        0
 75
     2
 76
     1
 98
        0
  0
POLYLINE
  5
F3
330
C3
100
AcDbEntity
  8
_U+30EC_U+30A4_U+30E4_U+30FC 1
370
     0
100
AcDb2dPolyline
 66
     1
 10
0.0
 20
0.0
 30
0.0
  0
VERTEX
  5
F4
330
F3
100
AcDbEntity
  8
_U+30EC_U+30A4_U+30E4_U+30FC 1
370
     0
100
AcDbVertex
100
AcDb2dVertex
 10
88.72051050299349
 20
-120.5387233856639
 30
0.0
  0
VERTEX
  5
F5
330
F3
100
AcDbEntity
  8
_U+30EC_U+30A4_U+30E4_U+30FC 1
370
     0
100
AcDbVertex
100
AcDb2dVertex
 10
88.47763127128337
 20
-120.4188340627772
 30
0.0
  0
VERTEX
  5
F6
330
F3
100
AcDbEntity
  8
_U+30EC_U+30A4_U+30E4_U+30FC 1
370
     0
100
AcDbVertex
100
AcDb2dVertex
 10
88.78458927901913
 20
-119.1503499051083
 30
0.0
  0
VERTEX
  5
F7
330
F3
100
AcDbEntity
  8
_U+30EC_U+30A4_U+30E4_U+30FC 1
370
     0
100
AcDbVertex
100
AcDb2dVertex
 10
87.96741262991787
 20
-120.167342092354
 30
0.0
  0
VERTEX
  5
F8
330
F3
100
AcDbEntity
  8
_U+30EC_U+30A4_U+30E4_U+30FC 1
370
     0
100
AcDbVertex
100
AcDb2dVertex
 10
87.72453339820775
 20
-120.0474527694673
 30
0.0
  0
VERTEX
  5
F9
330
F3
100
AcDbEntity
  8
_U+30EC_U+30A4_U+30E4_U+30FC 1
370
     0
100
AcDbVertex
100
AcDb2dVertex
 10
88.06404755827913
 20
-118.4930256865226
 30
0.0
  0
VERTEX
  5
FA
330
F3
100
AcDbEntity
  8
_U+30EC_U+30A4_U+30E4_U+30FC 1
370
     0
100
AcDbVertex
100
AcDb2dVertex
 10
88.27299259945953
 20
-118.5960340415316
 30
0.0
  0
VERTEX
  5
FB
330
F3
100
AcDbEntity
  8
_U+30EC_U+30A4_U+30E4_U+30FC 1
370
     0
100
AcDbVertex
100
AcDb2dVertex
 10
87.976025368631
 20
-119.8435031167405
 30
0.0
  0
VERTEX
  5
FC
330
F3
100
AcDbEntity
  8
_U+30EC_U+30A4_U+30E4_U+30FC 1
370
     0
100
AcDbVertex
100
AcDb2dVertex
 10
88.77942163579127
 20
-118.8458034642122
 30
0.0
  0
VERTEX
  5
FD
330
F3
100
AcDbEntity
  8
_U+30EC_U+30A4_U+30E4_U+30FC 1
370
     0
100
AcDbVertex
100
AcDb2dVertex
 10
89.02988007756892
 20
-118.9694823921326
 30
0.0
  0
VERTEX
  5
FE
330
F3
100
AcDbEntity
  8
_U+30EC_U+30A4_U+30E4_U+30FC 1
370
     0
100
AcDbVertex
100
AcDb2dVertex
 10
88.72705618441546
 20
-120.2141953909534
 30
0.0
  0
VERTEX
  5
FF
330
F3
100
AcDbEntity
  8
_U+30EC_U+30A4_U+30E4_U+30FC 1
370
     0
100
AcDbVertex
100
AcDb2dVertex
 10
89.53820391641753
 20
-119.2199408339103
 30
0.0
  0
VERTEX
  5
100
330
F3
100
AcDbEntity
  8
_U+30EC_U+30A4_U+30E4_U+30FC 1
370
     0
100
AcDbVertex
100
AcDb2dVertex
 10
89.74714895759794
 20
-119.3229491889193
 30
0.0
  0
VERTEX
  5
101
330
F3
100
AcDbEntity
  8
_U+30EC_U+30A4_U+30E4_U+30FC 1
370
     0
100
AcDbVertex
100
AcDb2dVertex
 10
88.72051050299349
 20
-120.5387233856639
 30
0.0
  0
SEQEND
  5
102
330
F3
100
AcDbEntity
  8
_U+30EC_U+30A4_U+30E4_U+30FC 1
370
     0
  0
HATCH
  5
103
330
C3
100
AcDbEntity
  8
_U+30EC_U+30A4_U+30E4_U+30FC 1
 62
   179
420
  2234388
100
AcDbHatch
 10
0.0
 20
0.0
 30
0.0
210
0.0
220
0.0
230
1.0
  2
SOLID
 70
     1
 71
     0
 91
        1
 92
        1
 93
       13
 72
     1
 10
88.72051050299349
 20
-120.5387233856639
 11
88.47763127128337
 21
-120.4188340627772
 72
     1
 10
88.47763127128337
 20
-120.4188340627772
 11
88.78458927901913
 21
-119.1503499051083
 72
     1
 10
88.78458927901913
 20
-119.1503499051083
 11
87.96741262991787
 21
-120.167342092354
 72
     1
 10
87.96741262991787
 20
-120.167342092354
 11
87.72453339820775
 21
-120.0474527694673
 72
     1
 10
87.72453339820775
 20
-120.0474527694673
 11
88.06404755827913
 21
-118.4930256865226
 72
     1
 10
88.06404755827913
 20
-118.4930256865226
 11
88.27299259945953
 21
-118.5960340415316
 72
     1
 10
88.27299259945953
 20
-118.5960340415316
 11
87.976025368631
 21
-119.8435031167405
 72
     1
 10
87.976025368631
 20
-119.8435031167405
 11
88.77942163579127
 21
-118.8458034642122
 72
     1
 10
88.77942163579127
 20
-118.8458034642122
 11
89.02988007756892
 21
-118.9694823921326
 72
     1
 10
89.02988007756892
 20
-118.9694823921326
 11
88.72705618441546
 21
-120.2141953909534
 72
     1
 10
88.72705618441546
 20
-120.2141953909534
 11
89.53820391641753
 21
-119.2199408339103
 72
     1
 10
89.53820391641753
 20
-119.2199408339103
 11
89.74714895759794
 21
-119.3229491889193
 72
     1
 10
89.74714895759794
 20
-119.3229491889193
 11
88.72051050299349
 21
-120.5387233856639
 97
        0
 75
     2
 76
     1
 98
        0
  0
ENDBLK
  5
C6
330
C3
100
AcDbEntity
  8
0
100
AcDbBlockEnd
  0
ENDSEC
  0
SECTION
  2
ENTITIES
  0
INSERT
  5
42
330
1F
100
AcDbEntity
  8
_U+30EC_U+30A4_U+30E4_U+30FC 1
100
AcDbBlockReference
  2
block 2
 10
0.0
 20
0.0
 30
0.0
  0
INSERT
  5
83
330
1F
100
AcDbEntity
  8
_U+30EC_U+30A4_U+30E4_U+30FC 1
100
AcDbBlockReference
  2
block 3
 10
0.0
 20
0.0
 30
0.0
  0
INSERT
  5
C4
330
1F
100
AcDbEntity
  8
_U+30EC_U+30A4_U+30E4_U+30FC 1
100
AcDbBlockReference
  2
block 4
 10
0.0
 20
0.0
 30
0.0
  0
SPLINE
  5
104
330
1F
100
AcDbEntity
  8
_U+30EC_U+30A4_U+30E4_U+30FC 1
 62
   179
420
  2234388
370
    15
100
AcDbSpline
210
0.0
220
0.0
230
1.0
 70
     8
 71
     3
 72
     8
 73
     4
 74
     0
 42
0.0000000001
 43
0.0000000001
 12
1.0
 22
0.0
 32
0.0
 13
1.0
 23
0.0
 33
0.0
 40
0.0
 40
0.0
 40
0.0
 40
0.0
 40
1.0
 40
1.0
 40
1.0
 40
1.0
 10
75.83723667634202
 20
-119.909660525578
 30
0.0
 10
75.59399640476981
 20
-118.3324969148613
 30
0.0
 10
76.41427527273164
 20
-116.9301699707676
 30
0.0
 10
77.72237523935924
 20
-116.6449138597276
 30
0.0
  0
SPLINE
  5
105
330
1F
100
AcDbEntity
  8
_U+30EC_U+30A4_U+30E4_U+30FC 1
 62
   179
420
  2234388
370
    15
100
AcDbSpline
210
0.0
220
0.0
230
1.0
 70
     8
 71
     3
 72
     8
 73
     4
 74
     0
 42
0.0000000001
 43
0.0000000001
 12
1.0
 22
0.0
 32
0.0
 13
1.0
 23
0.0
 33
0.0
 40
0.0
 40
0.0
 40
0.0
 40
0.0
 40
1.0
 40
1.0
 40
1.0
 40
1.0
 10
92.73437457859345
 20
-142.9232246864911
 30
0.0
 10
92.2344884802355
 20
-143.4234635752555
 30
0.0
 10
89.67169910117326
 20
-143.4234635752555
 30
0.0
 10
89.1718130028153
 20
-142.9232246864911
 30
0.0
  0
SPLINE
  5
106
330
1F
100
AcDbEntity
  8
_U+30EC_U+30A4_U+30E4_U+30FC 1
 62
   179
420
  2234388
370
    15
100
AcDbSpline
210
0.0
220
0.0
230
1.0
 70
     8
 71
     3
 72
     8
 73
     4
 74
     0
 42
0.0000000001
 43
0.0000000001
 12
1.0
 22
0.0
 32
0.0
 13
1.0
 23
0.0
 33
0.0
 40
0.0
 40
0.0
 40
0.0
 40
0.0
 40
1.0
 40
1.0
 40
1.0
 40
1.0
 10
106.0686360845938
 20
-119.909978025578
 30
0.0
 10
106.3118383988702
 20
-118.3328144148612
 30
0.0
 10
105.4915948086852
 20
-116.9304874707675
 30
0.0
 10
104.1838123420495
 20
-116.6452313597276
 30
0.0
  0
SPLINE
  5
107
330
1F
100
AcDbEntity
  8
_U+30EC_U+30A4_U+30E4_U+30FC 1
 62
   179
420
  2234388
370
    15
100
AcDbSpline
210
0.0
220
0.0
230
1.0
 70
     8
 71
     3
 72
     8
 73
     4
 74
     0
 42
0.0000000001
 43
0.0000000001
 12
1.0
 22
0.0
 32
0.0
 13
1.0
 23
0.0
 33
0.0
 40
0.0
 40
0.0
 40
0.0
 40
0.0
 40
1.0
 40
1.0
 40
1.0
 40
1.0
 10
90.95291740181999
 20
-124.7506888577011
 30
0.0
 10
91.22751961703652
 20
-125.6362669130353
 30
0.0
 10
91.87416126720599
 20
-126.3082380239785
 30
0.0
 10
92.73437457859345
 20
-126.4958099683762
 30
0.0
  0
SPLINE
  5
108
330
1F
100
AcDbEntity
  8
_U+30EC_U+30A4_U+30E4_U+30FC 1
 62
   179
420
  2234388
370
    15
100
AcDbSpline
210
0.0
220
0.0
230
1.0
 70
     8
 71
     3
 72
     8
 73
     4
 74
     0
 42
0.0000000001
 43
0.0000000001
 12
1.0
 22
0.0
 32
0.0
 13
1.0
 23
0.0
 33
0.0
 40
0.0
 40
0.0
 40
0.0
 40
0.0
 40
1.0
 40
1.0
 40
1.0
 40
1.0
 10
89.1718130028153
 20
-126.4959863572648
 30
0.0
 10
90.03171108860306
 20
-126.3084144128674
 30
0.0
 10
90.67835275510825
 20
-125.6364433019242
 30
0.0
 10
90.95291740181999
 20
-124.7506888577011
 30
0.0
  0
POLYLINE
  5
109
330
1F
100
AcDbEntity
  8
_U+30EC_U+30A4_U+30E4_U+30FC 1
 62
   179
420
  2234388
370
    15
100
AcDb2dPolyline
 66
     1
 10
0.0
 20
0.0
 30
0.0
  0
VERTEX
  5
10A
330
109
100
AcDbEntity
  8
_U+30EC_U+30A4_U+30E4_U+30FC 1
 62
   179
420
  2234388
370
    15
100
AcDbVertex
100
AcDb2dVertex
 10
88.67192690445735
 20
-126.9689908015909
 30
0.0
  0
VERTEX
  5
10B
330
109
100
AcDbEntity
  8
_U+30EC_U+30A4_U+30E4_U+30FC 1
 62
   179
420
  2234388
370
    15
100
AcDbVertex
100
AcDb2dVertex
 10
75.51409224014168
 20
-120.4698363587715
 30
0.0
  0
VERTEX
  5
10C
330
109
100
AcDbEntity
  8
_U+30EC_U+30A4_U+30E4_U+30FC 1
 62
   179
420
  2234388
370
    15
100
AcDbVertex
100
AcDb2dVertex
 10
75.83723667634202
 20
-119.909660525578
 30
0.0
  0
SEQEND
  5
10D
330
109
100
AcDbEntity
  8
_U+30EC_U+30A4_U+30E4_U+30FC 1
 62
   179
420
  2234388
370
    15
  0
POLYLINE
  5
10E
330
1F
100
AcDbEntity
  8
_U+30EC_U+30A4_U+30E4_U+30FC 1
 62
   179
420
  2234388
370
    15
100
AcDb2dPolyline
 66
     1
 10
0.0
 20
0.0
 30
0.0
  0
VERTEX
  5
10F
330
10E
100
AcDbEntity
  8
_U+30EC_U+30A4_U+30E4_U+30FC 1
 62
   179
420
  2234388
370
    15
100
AcDbVertex
100
AcDb2dVertex
 10
93.23426067695141
 20
-126.9688144127024
 30
0.0
  0
VERTEX
  5
110
330
10E
100
AcDbEntity
  8
_U+30EC_U+30A4_U+30E4_U+30FC 1
 62
   179
420
  2234388
370
    15
100
AcDbVertex
100
AcDb2dVertex
 10
106.4055714520344
 20
-120.4634510809952
 30
0.0
  0
VERTEX
  5
111
330
10E
100
AcDbEntity
  8
_U+30EC_U+30A4_U+30E4_U+30FC 1
 62
   179
420
  2234388
370
    15
100
AcDbVertex
100
AcDb2dVertex
 10
106.0686360845938
 20
-119.909978025578
 30
0.0
  0
SEQEND
  5
112
330
10E
100
AcDbEntity
  8
_U+30EC_U+30A4_U+30E4_U+30FC 1
 62
   179
420
  2234388
370
    15
  0
POLYLINE
  5
113
330
1F
100
AcDbEntity
  8
_U+30EC_U+30A4_U+30E4_U+30FC 1
 62
   179
420
  2234388
370
    15
100
AcDb2dPolyline
 66
     1
 10
0.0
 20
0.0
 30
0.0
  0
VERTEX
  5
114
330
113
100
AcDbEntity
  8
_U+30EC_U+30A4_U+30E4_U+30FC 1
 62
   179
420
  2234388
370
    15
100
AcDbVertex
100
AcDb2dVertex
 10
75.83723667634202
 20
-119.909660525578
 30
0.0
  0
VERTEX
  5
115
330
113
100
AcDbEntity
  8
_U+30EC_U+30A4_U+30E4_U+30FC 1
 62
   179
420
  2234388
370
    15
100
AcDbVertex
100
AcDb2dVertex
 10
89.1718130028153
 20
-126.4959863572648
 30
0.0
  0
SEQEND
  5
116
330
113
100
AcDbEntity
  8
_U+30EC_U+30A4_U+30E4_U+30FC 1
 62
   179
420
  2234388
370
    15
  0
POLYLINE
  5
117
330
1F
100
AcDbEntity
  8
_U+30EC_U+30A4_U+30E4_U+30FC 1
 62
   179
420
  2234388
370
    15
100
AcDb2dPolyline
 66
     1
 10
0.0
 20
0.0
 30
0.0
  0
VERTEX
  5
118
330
117
100
AcDbEntity
  8
_U+30EC_U+30A4_U+30E4_U+30FC 1
 62
   179
420
  2234388
370
    15
100
AcDbVertex
100
AcDb2dVertex
 10
92.73437457859345
 20
-126.4958099683762
 30
0.0
  0
VERTEX
  5
119
330
117
100
AcDbEntity
  8
_U+30EC_U+30A4_U+30E4_U+30FC 1
 62
   179
420
  2234388
370
    15
100
AcDbVertex
100
AcDb2dVertex
 10
106.0686360845938
 20
-119.909978025578
 30
0.0
  0
SEQEND
  5
11A
330
117
100
AcDbEntity
  8
_U+30EC_U+30A4_U+30E4_U+30FC 1
 62
   179
420
  2234388
370
    15
  0
POLYLINE
  5
11B
330
1F
100
AcDbEntity
  8
_U+30EC_U+30A4_U+30E4_U+30FC 1
 62
   179
420
  2234388
370
    15
100
AcDb2dPolyline
 66
     1
 10
0.0
 20
0.0
 30
0.0
  0
VERTEX
  5
11C
330
11B
100
AcDbEntity
  8
_U+30EC_U+30A4_U+30E4_U+30FC 1
 62
   179
420
  2234388
370
    15
100
AcDbVertex
100
AcDb2dVertex
 10
90.95291740181999
 20
-122.4598910804961
 30
0.0
  0
VERTEX
  5
11D
330
11B
100
AcDbEntity
  8
_U+30EC_U+30A4_U+30E4_U+30FC 1
 62
   179
420
  2234388
370
    15
100
AcDbVertex
100
AcDb2dVertex
 10
78.04587245332836
 20
-116.0849144154231
 30
0.0
  0
VERTEX
  5
11E
330
11B
100
AcDbEntity
  8
_U+30EC_U+30A4_U+30E4_U+30FC 1
 62
   179
420
  2234388
370
    15
100
AcDbVertex
100
AcDb2dVertex
 10
77.72237523935924
 20
-116.6449138597276
 30
0.0
  0
SEQEND
  5
11F
330
11B
100
AcDbEntity
  8
_U+30EC_U+30A4_U+30E4_U+30FC 1
 62
   179
420
  2234388
370
    15
  0
POLYLINE
  5
120
330
1F
100
AcDbEntity
  8
_U+30EC_U+30A4_U+30E4_U+30FC 1
 62
   179
420
  2234388
370
    15
100
AcDb2dPolyline
 66
     1
 10
0.0
 20
0.0
 30
0.0
  0
VERTEX
  5
121
330
120
100
AcDbEntity
  8
_U+30EC_U+30A4_U+30E4_U+30FC 1
 62
   179
420
  2234388
370
    15
100
AcDbVertex
100
AcDb2dVertex
 10
90.95291740181999
 20
-122.4598910804961
 30
0.0
  0
VERTEX
  5
122
330
120
100
AcDbEntity
  8
_U+30EC_U+30A4_U+30E4_U+30FC 1
 62
   179
420
  2234388
370
    15
100
AcDbVertex
100
AcDb2dVertex
 10
103.8603151280804
 20
-116.0843852487568
 30
0.0
  0
VERTEX
  5
123
330
120
100
AcDbEntity
  8
_U+30EC_U+30A4_U+30E4_U+30FC 1
 62
   179
420
  2234388
370
    15
100
AcDbVertex
100
AcDb2dVertex
 10
104.1838123420495
 20
-116.6452313597276
 30
0.0
  0
SEQEND
  5
124
330
120
100
AcDbEntity
  8
_U+30EC_U+30A4_U+30E4_U+30FC 1
 62
   179
420
  2234388
370
    15
  0
POLYLINE
  5
125
330
1F
100
AcDbEntity
  8
_U+30EC_U+30A4_U+30E4_U+30FC 1
 62
   179
420
  2234388
370
    15
100
AcDb2dPolyline
 66
     1
 10
0.0
 20
0.0
 30
0.0
  0
VERTEX
  5
126
330
125
100
AcDbEntity
  8
_U+30EC_U+30A4_U+30E4_U+30FC 1
 62
   179
420
  2234388
370
    15
100
AcDbVertex
100
AcDb2dVertex
 10
77.72237523935924
 20
-116.6449138597276
 30
0.0
  0
VERTEX
  5
127
330
125
100
AcDbEntity
  8
_U+30EC_U+30A4_U+30E4_U+30FC 1
 62
   179
420
  2234388
370
    15
100
AcDbVertex
100
AcDb2dVertex
 10
90.95291740181999
 20
-123.1799105247606
 30
0.0
  0
SEQEND
  5
128
330
125
100
AcDbEntity
  8
_U+30EC_U+30A4_U+30E4_U+30FC 1
 62
   179
420
  2234388
370
    15
  0
POLYLINE
  5
129
330
1F
100
AcDbEntity
  8
_U+30EC_U+30A4_U+30E4_U+30FC 1
 62
   179
420
  2234388
370
    15
100
AcDb2dPolyline
 66
     1
 10
0.0
 20
0.0
 30
0.0
  0
VERTEX
  5
12A
330
129
100
AcDbEntity
  8
_U+30EC_U+30A4_U+30E4_U+30FC 1
 62
   179
420
  2234388
370
    15
100
AcDbVertex
100
AcDb2dVertex
 10
90.95291740181999
 20
-123.1799105247606
 30
0.0
  0
VERTEX
  5
12B
330
129
100
AcDbEntity
  8
_U+30EC_U+30A4_U+30E4_U+30FC 1
 62
   179
420
  2234388
370
    15
100
AcDbVertex
100
AcDb2dVertex
 10
104.188292619713
 20
-116.6428324708392
 30
0.0
  0
SEQEND
  5
12C
330
129
100
AcDbEntity
  8
_U+30EC_U+30A4_U+30E4_U+30FC 1
 62
   179
420
  2234388
370
    15
  0
POLYLINE
  5
12D
330
1F
100
AcDbEntity
  8
_U+30EC_U+30A4_U+30E4_U+30FC 1
 62
   179
420
  2234388
370
    15
100
AcDb2dPolyline
 66
     1
 10
0.0
 20
0.0
 30
0.0
  0
VERTEX
  5
12E
330
12D
100
AcDbEntity
  8
_U+30EC_U+30A4_U+30E4_U+30FC 1
 62
   179
420
  2234388
370
    15
100
AcDbVertex
100
AcDb2dVertex
 10
75.75419278957176
 20
-119.3288119146122
 30
0.0
  0
VERTEX
  5
12F
330
12D
100
AcDbEntity
  8
_U+30EC_U+30A4_U+30E4_U+30FC 1
 62
   179
420
  2234388
370
    15
100
AcDbVertex
100
AcDb2dVertex
 10
75.27155752410702
 20
-119.0900519146718
 30
0.0
  0
VERTEX
  5
130
330
12D
100
AcDbEntity
  8
_U+30EC_U+30A4_U+30E4_U+30FC 1
 62
   179
420
  2234388
370
    15
100
AcDbVertex
100
AcDb2dVertex
 10
75.51409224014168
 20
-120.4698363587715
 30
0.0
  0
SEQEND
  5
131
330
12D
100
AcDbEntity
  8
_U+30EC_U+30A4_U+30E4_U+30FC 1
 62
   179
420
  2234388
370
    15
  0
POLYLINE
  5
132
330
1F
100
AcDbEntity
  8
_U+30EC_U+30A4_U+30E4_U+30FC 1
 62
   179
420
  2234388
370
    15
100
AcDb2dPolyline
 66
     1
 10
0.0
 20
0.0
 30
0.0
  0
VERTEX
  5
133
330
132
100
AcDbEntity
  8
_U+30EC_U+30A4_U+30E4_U+30FC 1
 62
   179
420
  2234388
370
    15
100
AcDbVertex
100
AcDb2dVertex
 10
106.1265242369312
 20
-119.3512133034956
 30
0.0
  0
VERTEX
  5
134
330
132
100
AcDbEntity
  8
_U+30EC_U+30A4_U+30E4_U+30FC 1
 62
   179
420
  2234388
370
    15
100
AcDbVertex
100
AcDb2dVertex
 10
106.6343125573098
 20
-119.0904046924496
 30
0.0
  0
VERTEX
  5
135
330
132
100
AcDbEntity
  8
_U+30EC_U+30A4_U+30E4_U+30FC 1
 62
   179
420
  2234388
370
    15
100
AcDbVertex
100
AcDb2dVertex
 10
106.4055714520344
 20
-120.4634510809952
 30
0.0
  0
SEQEND
  5
136
330
132
100
AcDbEntity
  8
_U+30EC_U+30A4_U+30E4_U+30FC 1
 62
   179
420
  2234388
370
    15
  0
POLYLINE
  5
137
330
1F
100
AcDbEntity
  8
_U+30EC_U+30A4_U+30E4_U+30FC 1
 62
   179
420
  2234388
370
    15
100
AcDb2dPolyline
 66
     1
 10
0.0
 20
0.0
 30
0.0
  0
VERTEX
  5
138
330
137
100
AcDbEntity
  8
_U+30EC_U+30A4_U+30E4_U+30FC 1
 62
   179
420
  2234388
370
    15
100
AcDbVertex
100
AcDb2dVertex
 10
78.04587245332836
 20
-116.0849144154231
 30
0.0
  0
VERTEX
  5
139
330
137
100
AcDbEntity
  8
_U+30EC_U+30A4_U+30E4_U+30FC 1
 62
   179
420
  2234388
370
    15
100
AcDbVertex
100
AcDb2dVertex
 10
76.67095831416562
 20
-116.6654102486115
 30
0.0
  0
VERTEX
  5
13A
330
137
100
AcDbEntity
  8
_U+30EC_U+30A4_U+30E4_U+30FC 1
 62
   179
420
  2234388
370
    15
100
AcDbVertex
100
AcDb2dVertex
 10
77.09019747770965
 20
-116.872808304115
 30
0.0
  0
SEQEND
  5
13B
330
137
100
AcDbEntity
  8
_U+30EC_U+30A4_U+30E4_U+30FC 1
 62
   179
420
  2234388
370
    15
  0
POLYLINE
  5
13C
330
1F
100
AcDbEntity
  8
_U+30EC_U+30A4_U+30E4_U+30FC 1
 62
   179
420
  2234388
370
    15
100
AcDb2dPolyline
 66
     1
 10
0.0
 20
0.0
 30
0.0
  0
VERTEX
  5
13D
330
13C
100
AcDbEntity
  8
_U+30EC_U+30A4_U+30E4_U+30FC 1
 62
   179
420
  2234388
370
    15
100
AcDbVertex
100
AcDb2dVertex
 10
103.8603151280804
 20
-116.0843852487568
 30
0.0
  0
VERTEX
  5
13E
330
13C
100
AcDbEntity
  8
_U+30EC_U+30A4_U+30E4_U+30FC 1
 62
   179
420
  2234388
370
    15
100
AcDbVertex
100
AcDb2dVertex
 10
105.2349137041226
 20
-116.6655866375004
 30
0.0
  0
VERTEX
  5
13F
330
13C
100
AcDbEntity
  8
_U+30EC_U+30A4_U+30E4_U+30FC 1
 62
   179
420
  2234388
370
    15
100
AcDbVertex
100
AcDb2dVertex
 10
104.8039277515769
 20
-116.8838149707791
 30
0.0
  0
SEQEND
  5
140
330
13C
100
AcDbEntity
  8
_U+30EC_U+30A4_U+30E4_U+30FC 1
 62
   179
420
  2234388
370
    15
  0
POLYLINE
  5
141
330
1F
100
AcDbEntity
  8
_U+30EC_U+30A4_U+30E4_U+30FC 1
 62
   179
420
  2234388
370
    15
100
AcDb2dPolyline
 66
     1
 10
0.0
 20
0.0
 30
0.0
  0
VERTEX
  5
142
330
141
100
AcDbEntity
  8
_U+30EC_U+30A4_U+30E4_U+30FC 1
 62
   179
420
  2234388
370
    15
100
AcDbVertex
100
AcDb2dVertex
 10
90.95291740181999
 20
-122.4598910804961
 30
0.0
  0
VERTEX
  5
143
330
141
100
AcDbEntity
  8
_U+30EC_U+30A4_U+30E4_U+30FC 1
 62
   179
420
  2234388
370
    15
100
AcDbVertex
100
AcDb2dVertex
 10
90.95291740181999
 20
-124.7506888577011
 30
0.0
  0
SEQEND
  5
144
330
141
100
AcDbEntity
  8
_U+30EC_U+30A4_U+30E4_U+30FC 1
 62
   179
420
  2234388
370
    15
  0
POLYLINE
  5
145
330
1F
100
AcDbEntity
  8
_U+30EC_U+30A4_U+30E4_U+30FC 1
 62
   179
420
  2234388
370
    15
100
AcDb2dPolyline
 66
     1
 10
0.0
 20
0.0
 30
0.0
  0
VERTEX
  5
146
330
145
100
AcDbEntity
  8
_U+30EC_U+30A4_U+30E4_U+30FC 1
 62
   179
420
  2234388
370
    15
100
AcDbVertex
100
AcDb2dVertex
 10
88.67192690445735
 20
-126.9689908015909
 30
0.0
  0
VERTEX
  5
147
330
145
100
AcDbEntity
  8
_U+30EC_U+30A4_U+30E4_U+30FC 1
 62
   179
420
  2234388
370
    15
100
AcDbVertex
100
AcDb2dVertex
 10
88.67192690445735
 20
-142.9232246864911
 30
0.0
  0
SEQEND
  5
148
330
145
100
AcDbEntity
  8
_U+30EC_U+30A4_U+30E4_U+30FC 1
 62
   179
420
  2234388
370
    15
  0
POLYLINE
  5
149
330
1F
100
AcDbEntity
  8
_U+30EC_U+30A4_U+30E4_U+30FC 1
 62
   179
420
  2234388
370
    15
100
AcDb2dPolyline
 66
     1
 10
0.0
 20
0.0
 30
0.0
  0
VERTEX
  5
14A
330
149
100
AcDbEntity
  8
_U+30EC_U+30A4_U+30E4_U+30FC 1
 62
   179
420
  2234388
370
    15
100
AcDbVertex
100
AcDb2dVertex
 10
89.1718130028153
 20
-126.4959863572648
 30
0.0
  0
VERTEX
  5
14B
330
149
100
AcDbEntity
  8
_U+30EC_U+30A4_U+30E4_U+30FC 1
 62
   179
420
  2234388
370
    15
100
AcDbVertex
100
AcDb2dVertex
 10
89.1718130028153
 20
-142.9232246864911
 30
0.0
  0
SEQEND
  5
14C
330
149
100
AcDbEntity
  8
_U+30EC_U+30A4_U+30E4_U+30FC 1
 62
   179
420
  2234388
370
    15
  0
POLYLINE
  5
14D
330
1F
100
AcDbEntity
  8
_U+30EC_U+30A4_U+30E4_U+30FC 1
 62
   179
420
  2234388
370
    15
100
AcDb2dPolyline
 66
     1
 10
0.0
 20
0.0
 30
0.0
  0
VERTEX
  5
14E
330
14D
100
AcDbEntity
  8
_U+30EC_U+30A4_U+30E4_U+30FC 1
 62
   179
420
  2234388
370
    15
100
AcDbVertex
100
AcDb2dVertex
 10
92.73437457859345
 20
-126.4958099683762
 30
0.0
  0
VERTEX
  5
14F
330
14D
100
AcDbEntity
  8
_U+30EC_U+30A4_U+30E4_U+30FC 1
 62
   179
420
  2234388
370
    15
100
AcDbVertex
100
AcDb2dVertex
 10
92.73437457859345
 20
-142.9232246864911
 30
0.0
  0
SEQEND
  5
150
330
14D
100
AcDbEntity
  8
_U+30EC_U+30A4_U+30E4_U+30FC 1
 62
   179
420
  2234388
370
    15
  0
POLYLINE
  5
151
330
1F
100
AcDbEntity
  8
_U+30EC_U+30A4_U+30E4_U+30FC 1
 62
   179
420
  2234388
370
    15
100
AcDb2dPolyline
 66
     1
 10
0.0
 20
0.0
 30
0.0
  0
VERTEX
  5
152
330
151
100
AcDbEntity
  8
_U+30EC_U+30A4_U+30E4_U+30FC 1
 62
   179
420
  2234388
370
    15
100
AcDbVertex
100
AcDb2dVertex
 10
93.23426067695141
 20
-126.9688144127024
 30
0.0
  0
VERTEX
  5
153
330
151
100
AcDbEntity
  8
_U+30EC_U+30A4_U+30E4_U+30FC 1
 62
   179
420
  2234388
370
    15
100
AcDbVertex
100
AcDb2dVertex
 10
93.23426067695141
 20
-142.9232246864911
 30
0.0
  0
SEQEND
  5
154
330
151
100
AcDbEntity
  8
_U+30EC_U+30A4_U+30E4_U+30FC 1
 62
   179
420
  2234388
370
    15
  0
POLYLINE
  5
155
330
1F
100
AcDbEntity
  8
_U+30EC_U+30A4_U+30E4_U+30FC 1
 62
   179
420
  2234388
370
    15
100
AcDb2dPolyline
 66
     1
 10
0.0
 20
0.0
 30
0.0
  0
VERTEX
  5
156
330
155
100
AcDbEntity
  8
_U+30EC_U+30A4_U+30E4_U+30FC 1
 62
   179
420
  2234388
370
    15
100
AcDbVertex
100
AcDb2dVertex
 10
88.67192690445735
 20
-142.9232246864911
 30
0.0
  0
VERTEX
  5
157
330
155
100
AcDbEntity
  8
_U+30EC_U+30A4_U+30E4_U+30FC 1
 62
   179
420
  2234388
370
    15
100
AcDbVertex
100
AcDb2dVertex
 10
89.1718130028153
 20
-142.9232246864911
 30
0.0
  0
SEQEND
  5
158
330
155
100
AcDbEntity
  8
_U+30EC_U+30A4_U+30E4_U+30FC 1
 62
   179
420
  2234388
370
    15
  0
POLYLINE
  5
159
330
1F
100
AcDbEntity
  8
_U+30EC_U+30A4_U+30E4_U+30FC 1
 62
   179
420
  2234388
370
    15
100
AcDb2dPolyline
 66
     1
 10
0.0
 20
0.0
 30
0.0
  0
VERTEX
  5
15A
330
159
100
AcDbEntity
  8
_U+30EC_U+30A4_U+30E4_U+30FC 1
 62
   179
420
  2234388
370
    15
100
AcDbVertex
100
AcDb2dVertex
 10
93.23426067695141
 20
-142.9232246864911
 30
0.0
  0
VERTEX
  5
15B
330
159
100
AcDbEntity
  8
_U+30EC_U+30A4_U+30E4_U+30FC 1
 62
   179
420
  2234388
370
    15
100
AcDbVertex
100
AcDb2dVertex
 10
92.73437457859345
 20
-142.9232246864911
 30
0.0
  0
SEQEND
  5
15C
330
159
100
AcDbEntity
  8
_U+30EC_U+30A4_U+30E4_U+30FC 1
 62
   179
420
  2234388
370
    15
  0
POLYLINE
  5
15D
330
1F
100
AcDbEntity
  8
_U+30EC_U+30A4_U+30E4_U+30FC 1
 62
   179
420
  2234388
370
    15
100
AcDb2dPolyline
 66
     1
 10
0.0
 20
0.0
 30
0.0
  0
VERTEX
  5
15E
330
15D
100
AcDbEntity
  8
_U+30EC_U+30A4_U+30E4_U+30FC 1
 62
   179
420
  2234388
370
    15
100
AcDbVertex
100
AcDb2dVertex
 10
88.67192690445735
 20
-142.9232246864911
 30
0.0
  0
VERTEX
  5
15F
330
15D
100
AcDbEntity
  8
_U+30EC_U+30A4_U+30E4_U+30FC 1
 62
   179
420
  2234388
370
    15
100
AcDbVertex
100
AcDb2dVertex
 10
89.67169910117326
 20
-143.4234635752555
 30
0.0
  0
VERTEX
  5
160
330
15D
100
AcDbEntity
  8
_U+30EC_U+30A4_U+30E4_U+30FC 1
 62
   179
420
  2234388
370
    15
100
AcDbVertex
100
AcDb2dVertex
 10
89.67169910117326
 20
-143.1657594086527
 30
0.0
  0
SEQEND
  5
161
330
15D
100
AcDbEntity
  8
_U+30EC_U+30A4_U+30E4_U+30FC 1
 62
   179
420
  2234388
370
    15
  0
POLYLINE
  5
162
330
1F
100
AcDbEntity
  8
_U+30EC_U+30A4_U+30E4_U+30FC 1
 62
   179
420
  2234388
370
    15
100
AcDb2dPolyline
 66
     1
 10
0.0
 20
0.0
 30
0.0
  0
VERTEX
  5
163
330
162
100
AcDbEntity
  8
_U+30EC_U+30A4_U+30E4_U+30FC 1
 62
   179
420
  2234388
370
    15
100
AcDbVertex
100
AcDb2dVertex
 10
93.23426067695141
 20
-142.9232246864911
 30
0.0
  0
VERTEX
  5
164
330
162
100
AcDbEntity
  8
_U+30EC_U+30A4_U+30E4_U+30FC 1
 62
   179
420
  2234388
370
    15
100
AcDbVertex
100
AcDb2dVertex
 10
92.2344884802355
 20
-143.4234635752555
 30
0.0
  0
VERTEX
  5
165
330
162
100
AcDbEntity
  8
_U+30EC_U+30A4_U+30E4_U+30FC 1
 62
   179
420
  2234388
370
    15
100
AcDbVertex
100
AcDb2dVertex
 10
92.2344884802355
 20
-143.1657594086527
 30
0.0
  0
SEQEND
  5
166
330
162
100
AcDbEntity
  8
_U+30EC_U+30A4_U+30E4_U+30FC 1
 62
   179
420
  2234388
370
    15
  0
POLYLINE
  5
167
330
1F
100
AcDbEntity
  8
_U+30EC_U+30A4_U+30E4_U+30FC 1
 62
   179
420
  2234388
370
    15
100
AcDb2dPolyline
 66
     1
 10
0.0
 20
0.0
 30
0.0
  0
VERTEX
  5
168
330
167
100
AcDbEntity
  8
_U+30EC_U+30A4_U+30E4_U+30FC 1
 62
   179
420
  2234388
370
    15
100
AcDbVertex
100
AcDb2dVertex
 10
92.73437457859345
 20
-126.4958099683762
 30
0.0
  0
VERTEX
  5
169
330
167
100
AcDbEntity
  8
_U+30EC_U+30A4_U+30E4_U+30FC 1
 62
   179
420
  2234388
370
    15
100
AcDbVertex
100
AcDb2dVertex
 10
93.23426067695141
 20
-126.9688144127024
 30
0.0
  0
SEQEND
  5
16A
330
167
100
AcDbEntity
  8
_U+30EC_U+30A4_U+30E4_U+30FC 1
 62
   179
420
  2234388
370
    15
  0
POLYLINE
  5
16B
330
1F
100
AcDbEntity
  8
_U+30EC_U+30A4_U+30E4_U+30FC 1
 62
   179
420
  2234388
370
    15
100
AcDb2dPolyline
 66
     1
 10
0.0
 20
0.0
 30
0.0
  0
VERTEX
  5
16C
330
16B
100
AcDbEntity
  8
_U+30EC_U+30A4_U+30E4_U+30FC 1
 62
   179
420
  2234388
370
    15
100
AcDbVertex
100
AcDb2dVertex
 10
88.67192690445735
 20
-126.9689908015909
 30
0.0
  0
VERTEX
  5
16D
330
16B
100
AcDbEntity
  8
_U+30EC_U+30A4_U+30E4_U+30FC 1
 62
   179
420
  2234388
370
    15
100
AcDbVertex
100
AcDb2dVertex
 10
89.1718130028153
 20
-126.4959863572648
 30
0.0
  0
SEQEND
  5
16E
330
16B
100
AcDbEntity
  8
_U+30EC_U+30A4_U+30E4_U+30FC 1
 62
   179
420
  2234388
370
    15
  0
ENDSEC
  0
SECTION
  2
OBJECTS
  0
DICTIONARY
  5
C
330
0
100
AcDbDictionary
281
     1
  3
ACAD_GROUP
350
D
  3
ACAD_LAYOUT
350
1A
  3
ACAD_MATERIAL
350
3B
  3
ACAD_MLEADERSTYLE
350
170
  3
ACAD_MLINESTYLE
350
17
  3
ACAD_PLOTSETTINGS
350
19
  3
ACAD_PLOTSTYLENAME
350
E
  3
ACAD_TABLESTYLE
350
16F
  3
ACAD_VISUALSTYLE
350
2A
  0
SUN
  5
3F
330
29
100
AcDbSun
 90
        1
290
     0
 63
     7
421
 16777215
 40
1.0
291
     1
 91
  2455826
 92
 54000000
292
     0
 70
     2
 71
   256
280
     1
  0
DICTIONARY
  5
D
102
{ACAD_REACTORS
330
C
102
}
330
C
100
AcDbDictionary
281
     1
  0
DICTIONARY
  5
1A
102
{ACAD_REACTORS
330
C
102
}
330
C
100
AcDbDictionary
281
     1
  3
Layout1
350
1E
  3
Layout2
350
26
  3
Model
350
22
  0
DICTIONARY
  5
3B
102
{ACAD_REACTORS
330
C
102
}
330
C
100
AcDbDictionary
281
     1
  3
ByBlock
350
3D
  3
ByLayer
350
3C
  3
Global
350
3E
  0
DICTIONARY
  5
170
102
{ACAD_REACTORS
330
C
102
}
330
C
100
AcDbDictionary
281
     1
  0
DICTIONARY
  5
17
102
{ACAD_REACTORS
330
C
102
}
330
C
100
AcDbDictionary
281
     1
  3
Standard
350
18
  0
DICTIONARY
  5
19
102
{ACAD_REACTORS
330
C
102
}
330
C
100
AcDbDictionary
281
     1
  0
ACDBDICTIONARYWDFLT
  5
E
102
{ACAD_REACTORS
330
C
102
}
330
C
100
AcDbDictionary
281
     1
  3
Normal
350
F
100
AcDbDictionaryWithDefault
340
F
  0
DICTIONARY
  5
16F
102
{ACAD_REACTORS
330
C
102
}
330
C
100
AcDbDictionary
281
     1
  0
DICTIONARY
  5
2A
102
{ACAD_REACTORS
330
C
102
}
330
C
100
AcDbDictionary
281
     1
  3
2dWireframe
350
2F
  3
3D Hidden
350
31
  3
3dWireframe
350
30
  3
Basic
350
32
  3
Brighten
350
36
  3
ColorChange
350
3A
  3
Conceptual
350
34
  3
Dim
350
35
  3
Facepattern
350
39
  3
Flat
350
2B
  3
FlatWithEdges
350
2C
  3
Gouraud
350
2D
  3
GouraudWithEdges
350
2E
  3
Linepattern
350
38
  3
Realistic
350
33
  3
Thicken
350
37
  0
LAYOUT
  5
1E
102
{ACAD_REACTORS
330
1A
102
}
330
1A
100
AcDbPlotSettings
  1

  2
none_device
  4

  6

 40
0.0
 41
0.0
 42
0.0
 43
0.0
 44
0.0
 45
0.0
 46
0.0
 47
0.0
 48
0.0
 49
0.0
140
0.0
141
0.0
142
1.0
143
1.0
 70
   688
 72
     0
 73
     0
 74
     5
  7

 75
    16
 76
     0
 77
     2
 78
   300
147
1.0
148
0.0
149
0.0
100
AcDbLayout
  1
Layout1
 70
     1
 71
     1
 10
0.0
 20
0.0
 11
12.0
 21
9.0
 12
0.0
 22
0.0
 32
0.0
 14
1.000000000000000E+20
 24
1.000000000000000E+20
 34
1.000000000000000E+20
 15
-1.000000000000000E+20
 25
-1.000000000000000E+20
 35
-1.000000000000000E+20
146
0.0
 13
0.0
 23
0.0
 33
0.0
 16
1.0
 26
0.0
 36
0.0
 17
0.0
 27
1.0
 37
0.0
 76
     0
330
1B
  0
LAYOUT
  5
26
102
{ACAD_REACTORS
330
1A
102
}
330
1A
100
AcDbPlotSettings
  1

  2
none_device
  4

  6

 40
0.0
 41
0.0
 42
0.0
 43
0.0
 44
0.0
 45
0.0
 46
0.0
 47
0.0
 48
0.0
 49
0.0
140
0.0
141
0.0
142
1.0
143
1.0
 70
   688
 72
     0
 73
     0
 74
     5
  7

 75
    16
 76
     0
 77
     2
 78
   300
147
1.0
148
0.0
149
0.0
100
AcDbLayout
  1
Layout2
 70
     1
 71
     2
 10
0.0
 20
0.0
 11
0.0
 21
0.0
 12
0.0
 22
0.0
 32
0.0
 14
0.0
 24
0.0
 34
0.0
 15
0.0
 25
0.0
 35
0.0
146
0.0
 13
0.0
 23
0.0
 33
0.0
 16
1.0
 26
0.0
 36
0.0
 17
0.0
 27
1.0
 37
0.0
 76
     0
330
23
  0
LAYOUT
  5
22
102
{ACAD_REACTORS
330
1A
102
}
330
1A
100
AcDbPlotSettings
  1

  2
none_device
  4

  6

 40
0.0
 41
0.0
 42
0.0
 43
0.0
 44
0.0
 45
0.0
 46
0.0
 47
0.0
 48
0.0
 49
0.0
140
0.0
141
0.0
142
1.0
143
1.0
 70
  1712
 72
     0
 73
     0
 74
     0
  7

 75
     0
 76
     0
 77
     2
 78
   300
147
1.0
148
0.0
149
0.0
100
AcDbLayout
  1
Model
 70
     1
 71
     0
 10
0.0
 20
0.0
 11
12.0
 21
9.0
 12
0.0
 22
0.0
 32
0.0
 14
1.000000000000000E+20
 24
1.000000000000000E+20
 34
1.000000000000000E+20
 15
-1.000000000000000E+20
 25
-1.000000000000000E+20
 35
-1.000000000000000E+20
146
0.0
 13
0.0
 23
0.0
 33
0.0
 16
1.0
 26
0.0
 36
0.0
 17
0.0
 27
1.0
 37
0.0
 76
     0
330
1F
331
29
  0
MATERIAL
  5
3D
102
{ACAD_REACTORS
330
3B
102
}
330
3B
100
AcDbMaterial
  1
ByBlock
 72
     1
 94
      127
  0
MATERIAL
  5
3C
102
{ACAD_REACTORS
330
3B
102
}
330
3B
100
AcDbMaterial
  1
ByLayer
 72
     1
 94
      127
  0
MATERIAL
  5
3E
102
{ACAD_REACTORS
330
3B
102
}
330
3B
100
AcDbMaterial
  1
Global
 72
     1
 94
      127
  0
MLINESTYLE
  5
18
102
{ACAD_REACTORS
330
17
102
}
330
17
100
AcDbMlineStyle
  2
Standard
 70
     0
  3

 62
   256
 51
90.0
 52
90.0
 71
     2
 49
0.5
 62
   256
  6
BYLAYER
 49
-0.5
 62
   256
  6
BYLAYER
  0
ACDBPLACEHOLDER
  5
F
102
{ACAD_REACTORS
330
E
102
}
330
E
  0
VISUALSTYLE
  5
2F
102
{ACAD_REACTORS
330
2A
102
}
330
2A
100
AcDbVisualStyle
  2
2dWireframe
 70
     4
177
     2
291
     0
 71
     0
176
     1
 72
     2
176
     1
 73
     0
176
     1
 90
        0
176
     1
 40
-0.6
176
     1
 41
-30.0
176
     1
 62
     5
 63
     7
421
 16777215
176
     1
 74
     1
176
     1
 91
        4
176
     1
 64
     7
176
     1
 65
   257
176
     1
 75
     1
176
     1
175
     1
176
     1
 42
1.0
176
     1
 92
        0
176
     1
 66
   257
176
     1
 43
1.0
176
     1
 76
     1
176
     1
 77
     6
176
     1
 78
     2
176
     1
 67
     7
176
     1
 79
     5
176
     1
170
     0
176
     1
171
     0
176
     1
290
     0
176
     1
 93
        1
176
     1
 44
0.0
176
     1
173
     0
176
     1
  0
VISUALSTYLE
  5
31
102
{ACAD_REACTORS
330
2A
102
}
330
2A
100
AcDbVisualStyle
  2
3D Hidden
 70
     6
177
     2
291
     0
 71
     1
176
     1
 72
     2
176
     1
 73
     2
176
     1
 90
        0
176
     1
 40
-0.6
176
     1
 41
-30.0
176
     1
 62
     5
 63
     7
421
 16777215
176
     1
 74
     2
176
     1
 91
        2
176
     1
 64
     7
176
     1
 65
   257
176
     1
 75
     2
176
     1
175
     1
176
     1
 42
40.0
176
     1
 92
        0
176
     1
 66
   257
176
     1
 43
1.0
176
     1
 76
     1
176
     1
 77
     6
176
     1
 78
     2
176
     1
 67
     7
176
     1
 79
     3
176
     1
170
     0
176
     1
171
     0
176
     1
290
     0
176
     1
 93
        1
176
     1
 44
0.0
176
     1
173
     0
176
     1
  0
VISUALSTYLE
  5
30
102
{ACAD_REACTORS
330
2A
102
}
330
2A
100
AcDbVisualStyle
  2
3dWireframe
 70
     5
177
     2
291
     0
 71
     0
176
     1
 72
     2
176
     1
 73
     0
176
     1
 90
        0
176
     1
 40
-0.6
176
     1
 41
-30.0
176
     1
 62
     5
 63
     7
421
 16777215
176
     1
 74
     1
176
     1
 91
        4
176
     1
 64
     7
176
     1
 65
   257
176
     1
 75
     1
176
     1
175
     1
176
     1
 42
1.0
176
     1
 92
        0
176
     1
 66
   257
176
     1
 43
1.0
176
     1
 76
     1
176
     1
 77
     6
176
     1
 78
     2
176
     1
 67
     7
176
     1
 79
     5
176
     1
170
     0
176
     1
171
     0
176
     1
290
     0
176
     1
 93
        1
176
     1
 44
0.0
176
     1
173
     0
176
     1
  0
VISUALSTYLE
  5
32
102
{ACAD_REACTORS
330
2A
102
}
330
2A
100
AcDbVisualStyle
  2
Basic
 70
     7
177
     2
291
     1
 71
     1
176
     1
 72
     0
176
     1
 73
     1
176
     1
 90
        0
176
     1
 40
-0.6
176
     1
 41
-30.0
176
     1
 62
     5
 63
     7
421
 16777215
176
     1
 74
     0
176
     1
 91
        4
176
     1
 64
     7
176
     1
 65
   257
176
     1
 75
     1
176
     1
175
     1
176
     1
 42
1.0
176
     1
 92
        8
176
     1
 66
     7
176
     1
 43
1.0
176
     1
 76
     1
176
     1
 77
     6
176
     1
 78
     2
176
     1
 67
     7
176
     1
 79
     5
176
     1
170
     0
176
     1
171
     0
176
     1
290
     0
176
     1
 93
        1
176
     1
 44
0.0
176
     1
173
     0
176
     1
  0
VISUALSTYLE
  5
36
102
{ACAD_REACTORS
330
2A
102
}
330
2A
100
AcDbVisualStyle
  2
Brighten
 70
    12
177
     2
291
     1
 71
     2
176
     1
 72
     2
176
     1
 73
     0
176
     1
 90
        0
176
     1
 40
-0.6
176
     1
 41
-30.0
176
     1
 62
     5
 63
     7
421
 16777215
176
     1
 74
     1
176
     1
 91
        4
176
     1
 64
     7
176
     1
 65
   257
176
     1
 75
     1
176
     1
175
     1
176
     1
 42
1.0
176
     1
 92
        8
176
     1
 66
     7
176
     1
 43
1.0
176
     1
 76
     1
176
     1
 77
     6
176
     1
 78
     2
176
     1
 67
     7
176
     1
 79
     5
176
     1
170
     0
176
     1
171
     0
176
     1
290
     0
176
     1
 93
        1
176
     1
 44
50.0
176
     1
173
     0
176
     1
  0
VISUALSTYLE
  5
3A
102
{ACAD_REACTORS
330
2A
102
}
330
2A
100
AcDbVisualStyle
  2
ColorChange
 70
    16
177
     2
291
     1
 71
     2
176
     1
 72
     2
176
     1
 73
     3
176
     1
 90
        0
176
     1
 40
-0.6
176
     1
 41
-30.0
176
     1
 62
     5
 63
     8
421
  8421504
176
     1
 74
     1
176
     1
 91
        4
176
     1
 64
     7
176
     1
 65
   257
176
     1
 75
     1
176
     1
175
     1
176
     1
 42
1.0
176
     1
 92
        8
176
     1
 66
     8
424
  8421504
176
     1
 43
1.0
176
     1
 76
     1
176
     1
 77
     6
176
     1
 78
     2
176
     1
 67
     7
176
     1
 79
     5
176
     1
170
     0
176
     1
171
     0
176
     1
290
     0
176
     1
 93
        1
176
     1
 44
0.0
176
     1
173
     0
176
     1
  0
VISUALSTYLE
  5
34
102
{ACAD_REACTORS
330
2A
102
}
330
2A
100
AcDbVisualStyle
  2
Conceptual
 70
     9
177
     2
291
     0
 71
     3
176
     1
 72
     2
176
     1
 73
     0
176
     1
 90
        0
176
     1
 40
-0.6
176
     1
 41
-30.0
176
     1
 62
     5
 63
     7
421
 16777215
176
     1
 74
     2
176
     1
 91
        2
176
     1
 64
     7
176
     1
 65
   257
176
     1
 75
     1
176
     1
175
     1
176
     1
 42
40.0
176
     1
 92
        8
176
     1
 66
     7
176
     1
 43
1.0
176
     1
 76
     1
176
     1
 77
     6
176
     1
 78
     2
176
     1
 67
     7
176
     1
 79
     3
176
     1
170
     0
176
     1
171
     0
176
     1
290
     0
176
     1
 93
        1
176
     1
 44
0.0
176
     1
173
     0
176
     1
  0
VISUALSTYLE
  5
35
102
{ACAD_REACTORS
330
2A
102
}
330
2A
100
AcDbVisualStyle
  2
Dim
 70
    11
177
     2
291
     1
 71
     2
176
     1
 72
     2
176
     1
 73
     0
176
     1
 90
        0
176
     1
 40
-0.6
176
     1
 41
-30.0
176
     1
 62
     5
 63
     7
421
 16777215
176
     1
 74
     1
176
     1
 91
        4
176
     1
 64
     7
176
     1
 65
   257
176
     1
 75
     1
176
     1
175
     1
176
     1
 42
1.0
176
     1
 92
        8
176
     1
 66
     7
176
     1
 43
1.0
176
     1
 76
     1
176
     1
 77
     6
176
     1
 78
     2
176
     1
 67
     7
176
     1
 79
     5
176
     1
170
     0
176
     1
171
     0
176
     1
290
     0
176
     1
 93
        1
176
     1
 44
-50.0
176
     1
173
     0
176
     1
  0
VISUALSTYLE
  5
39
102
{ACAD_REACTORS
330
2A
102
}
330
2A
100
AcDbVisualStyle
  2
Facepattern
 70
    15
177
     2
291
     1
 71
     2
176
     1
 72
     2
176
     1
 73
     0
176
     1
 90
        0
176
     1
 40
-0.6
176
     1
 41
-30.0
176
     1
 62
     5
 63
     7
421
 16777215
176
     1
 74
     1
176
     1
 91
        4
176
     1
 64
     7
176
     1
 65
   257
176
     1
 75
     1
176
     1
175
     1
176
     1
 42
1.0
176
     1
 92
        8
176
     1
 66
     7
176
     1
 43
1.0
176
     1
 76
     1
176
     1
 77
     6
176
     1
 78
     2
176
     1
 67
     7
176
     1
 79
     5
176
     1
170
     0
176
     1
171
     0
176
     1
290
     0
176
     1
 93
        1
176
     1
 44
0.0
176
     1
173
     0
176
     1
  0
VISUALSTYLE
  5
2B
102
{ACAD_REACTORS
330
2A
102
}
330
2A
100
AcDbVisualStyle
  2
Flat
 70
     0
177
     2
291
     1
 71
     2
176
     1
 72
     1
176
     1
 73
     1
176
     1
 90
        2
176
     1
 40
-0.6
176
     1
 41
30.0
176
     1
 62
     5
 63
     7
421
 16777215
176
     1
 74
     0
176
     1
 91
        4
176
     1
 64
     7
176
     1
 65
   257
176
     1
 75
     1
176
     1
175
     1
176
     1
 42
1.0
176
     1
 92
        8
176
     1
 66
     7
176
     1
 43
1.0
176
     1
 76
     1
176
     1
 77
     6
176
     1
 78
     2
176
     1
 67
     7
176
     1
 79
     5
176
     1
170
     0
176
     1
171
     0
176
     1
290
     0
176
     1
 93
       13
176
     1
 44
0.0
176
     1
173
     0
176
     1
  0
VISUALSTYLE
  5
2C
102
{ACAD_REACTORS
330
2A
102
}
330
2A
100
AcDbVisualStyle
  2
FlatWithEdges
 70
     1
177
     2
291
     1
 71
     2
176
     1
 72
     1
176
     1
 73
     1
176
     1
 90
        2
176
     1
 40
-0.6
176
     1
 41
30.0
176
     1
 62
     5
 63
     7
421
 16777215
176
     1
 74
     1
176
     1
 91
        4
176
     1
 64
     7
176
     1
 65
   257
176
     1
 75
     1
176
     1
175
     1
176
     1
 42
1.0
176
     1
 92
        0
176
     1
 66
   257
176
     1
 43
1.0
176
     1
 76
     1
176
     1
 77
     6
176
     1
 78
     2
176
     1
 67
     7
176
     1
 79
     5
176
     1
170
     0
176
     1
171
     0
176
     1
290
     0
176
     1
 93
       13
176
     1
 44
0.0
176
     1
173
     0
176
     1
  0
VISUALSTYLE
  5
2D
102
{ACAD_REACTORS
330
2A
102
}
330
2A
100
AcDbVisualStyle
  2
Gouraud
 70
     2
177
     2
291
     1
 71
     2
176
     1
 72
     2
176
     1
 73
     1
176
     1
 90
        2
176
     1
 40
-0.6
176
     1
 41
30.0
176
     1
 62
     5
 63
     7
421
 16777215
176
     1
 74
     0
176
     1
 91
        4
176
     1
 64
     7
176
     1
 65
   257
176
     1
 75
     1
176
     1
175
     1
176
     1
 42
1.0
176
     1
 92
        0
176
     1
 66
     7
176
     1
 43
1.0
176
     1
 76
     1
176
     1
 77
     6
176
     1
 78
     2
176
     1
 67
     7
176
     1
 79
     5
176
     1
170
     0
176
     1
171
     0
176
     1
290
     0
176
     1
 93
       13
176
     1
 44
0.0
176
     1
173
     0
176
     1
  0
VISUALSTYLE
  5
2E
102
{ACAD_REACTORS
330
2A
102
}
330
2A
100
AcDbVisualStyle
  2
GouraudWithEdges
 70
     3
177
     2
291
     1
 71
     2
176
     1
 72
     2
176
     1
 73
     1
176
     1
 90
        2
176
     1
 40
-0.6
176
     1
 41
30.0
176
     1
 62
     5
 63
     7
421
 16777215
176
     1
 74
     1
176
     1
 91
        4
176
     1
 64
     7
176
     1
 65
   257
176
     1
 75
     1
176
     1
175
     1
176
     1
 42
1.0
176
     1
 92
        0
176
     1
 66
   257
176
     1
 43
1.0
176
     1
 76
     1
176
     1
 77
     6
176
     1
 78
     2
176
     1
 67
     7
176
     1
 79
     5
176
     1
170
     0
176
     1
171
     0
176
     1
290
     0
176
     1
 93
       13
176
     1
 44
0.0
176
     1
173
     0
176
     1
  0
VISUALSTYLE
  5
38
102
{ACAD_REACTORS
330
2A
102
}
330
2A
100
AcDbVisualStyle
  2
Linepattern
 70
    14
177
     2
291
     1
 71
     2
176
     1
 72
     2
176
     1
 73
     0
176
     1
 90
        0
176
     1
 40
-0.6
176
     1
 41
-30.0
176
     1
 62
     5
 63
     7
421
 16777215
176
     1
 74
     1
176
     1
 91
        4
176
     1
 64
     7
176
     1
 65
   257
176
     1
 75
     7
176
     1
175
     7
176
     1
 42
1.0
176
     1
 92
        8
176
     1
 66
     7
176
     1
 43
1.0
176
     1
 76
     1
176
     1
 77
     6
176
     1
 78
     2
176
     1
 67
     7
176
     1
 79
     5
176
     1
170
     0
176
     1
171
     0
176
     1
290
     0
176
     1
 93
        1
176
     1
 44
0.0
176
     1
173
     0
176
     1
  0
VISUALSTYLE
  5
33
102
{ACAD_REACTORS
330
2A
102
}
330
2A
100
AcDbVisualStyle
  2
Realistic
 70
     8
177
     2
291
     0
 71
     2
176
     1
 72
     2
176
     1
 73
     0
176
     1
 90
        0
176
     1
 40
-0.6
176
     1
 41
-30.0
176
     1
 62
     5
 63
     7
421
 16777215
176
     1
 74
     1
176
     1
 91
        0
176
     1
 64
     7
176
     1
 65
   257
176
     1
 75
     1
176
     1
175
     1
176
     1
 42
1.0
176
     1
 92
        8
176
     1
 66
     8
424
  7895160
176
     1
 43
1.0
176
     1
 76
     1
176
     1
 77
     6
176
     1
 78
     2
176
     1
 67
     7
176
     1
 79
     5
176
     1
170
     0
176
     1
171
     0
176
     1
290
     0
176
     1
 93
       13
176
     1
 44
0.0
176
     1
173
     0
176
     1
  0
VISUALSTYLE
  5
37
102
{ACAD_REACTORS
330
2A
102
}
330
2A
100
AcDbVisualStyle
  2
Thicken
 70
    13
177
     2
291
     1
 71
     2
176
     1
 72
     2
176
     1
 73
     0
176
     1
 90
        0
176
     1
 40
-0.6
176
     1
 41
-30.0
176
     1
 62
     5
 63
     7
421
 16777215
176
     1
 74
     1
176
     1
 91
        4
176
     1
 64
     7
176
     1
 65
   257
176
     1
 75
     1
176
     1
175
     1
176
     1
 42
1.0
176
     1
 92
       12
176
     1
 66
     7
176
     1
 43
1.0
176
     1
 76
     1
176
     1
 77
     6
176
     1
 78
     2
176
     1
 67
     7
176
     1
 79
     5
176
     1
170
     0
176
     1
171
     0
176
     1
290
     0
176
     1
 93
        1
176
     1
 44
0.0
176
     1
173
     0
176
     1
  0
ENDSEC
  0
EOF
