  0
SECTION
  2
HEADER
  9
$ACADVER
  1
AC1024
  9
$ACADMAINTVER
 70
     6
  9
$DWGCODEPAGE
  3
UNDEFINED
  9
$INSBASE
 10
0.0
 20
0.0
 30
0.0
  9
$EXTMIN
 10
1.000000000000000E+20
 20
1.000000000000000E+20
 30
1.000000000000000E+20
  9
$EXTMAX
 10
-1.000000000000000E+20
 20
-1.000000000000000E+20
 30
-1.000000000000000E+20
  9
$LIMMIN
 10
0.0
 20
0.0
  9
$LIMMAX
 10
12.0
 20
9.0
  9
$ORTHOMODE
 70
     0
  9
$REGENMODE
 70
     1
  9
$FILLMODE
 70
     1
  9
$QTEXTMODE
 70
     0
  9
$MIRRTEXT
 70
     1
  9
$LTSCALE
 40
1.0
  9
$ATTMODE
 70
     1
  9
$TEXTSIZE
 40
0.2
  9
$TRACEWID
 40
0.05
  9
$TEXTSTYLE
  7
Standard
  9
$CLAYER
  8
0
  9
$CELTYPE
  6
ByLayer
  9
$CECOLOR
 62
   256
  9
$CELTSCALE
 40
1.0
  9
$DISPSILH
 70
     0
  9
$DIMSCALE
 40
1.0
  9
$DIMASZ
 40
0.18
  9
$DIMEXO
 40
0.0625
  9
$DIMDLI
 40
0.38
  9
$DIMRND
 40
0.0
  9
$DIMDLE
 40
0.0
  9
$DIMEXE
 40
0.18
  9
$DIMTP
 40
0.0
  9
$DIMTM
 40
0.0
  9
$DIMTXT
 40
0.18
  9
$DIMCEN
 40
0.09
  9
$DIMTSZ
 40
0.0
  9
$DIMTOL
 70
     0
  9
$DIMLIM
 70
     0
  9
$DIMTIH
 70
     1
  9
$DIMTOH
 70
     1
  9
$DIMSE1
 70
     0
  9
$DIMSE2
 70
     0
  9
$DIMTAD
 70
     0
  9
$DIMZIN
 70
     0
  9
$DIMBLK
  1

  9
$DIMASO
 70
     1
  9
$DIMSHO
 70
     1
  9
$DIMPOST
  1

  9
$DIMAPOST
  1

  9
$DIMALT
 70
     0
  9
$DIMALTD
 70
     2
  9
$DIMALTF
 40
25.4
  9
$DIMLFAC
 40
1.0
  9
$DIMTOFL
 70
     0
  9
$DIMTVP
 40
0.0
  9
$DIMTIX
 70
     0
  9
$DIMSOXD
 70
     0
  9
$DIMSAH
 70
     0
  9
$DIMBLK1
  1

  9
$DIMBLK2
  1

  9
$DIMSTYLE
  2
Standard
  9
$DIMCLRD
 70
     0
  9
$DIMCLRE
 70
     0
  9
$DIMCLRT
 70
     0
  9
$DIMTFAC
 40
1.0
  9
$DIMGAP
 40
0.09
  9
$DIMJUST
 70
     0
  9
$DIMSD1
 70
     0
  9
$DIMSD2
 70
     0
  9
$DIMTOLJ
 70
     1
  9
$DIMTZIN
 70
     0
  9
$DIMALTZ
 70
     0
  9
$DIMALTTZ
 70
     0
  9
$DIMUPT
 70
     0
  9
$DIMDEC
 70
     4
  9
$DIMTDEC
 70
     4
  9
$DIMALTU
 70
     2
  9
$DIMALTTD
 70
     2
  9
$DIMTXSTY
  7
Standard
  9
$DIMAUNIT
 70
     0
  9
$DIMADEC
 70
     0
  9
$DIMALTRND
 40
0.0
  9
$DIMAZIN
 70
     0
  9
$DIMDSEP
 70
    46
  9
$DIMATFIT
 70
     3
  9
$DIMFRAC
 70
     0
  9
$DIMLDRBLK
  1

  9
$DIMLUNIT
 70
     2
  9
$DIMLWD
 70
    -2
  9
$DIMLWE
 70
    -2
  9
$DIMTMOVE
 70
     0
  9
$DIMFXL
 40
1.0
  9
$DIMFXLON
 70
     0
  9
$DIMJOGANG
 40
0.7853981633974483
  9
$DIMTFILL
 70
     0
  9
$DIMTFILLCLR
 70
     0
  9
$DIMARCSYM
 70
     0
  9
$DIMLTYPE
  6

  9
$DIMLTEX1
  6

  9
$DIMLTEX2
  6

  9
$DIMTXTDIRECTION
 70
     0
  9
$LUNITS
 70
     2
  9
$LUPREC
 70
     4
  9
$SKETCHINC
 40
0.1
  9
$FILLETRAD
 40
0.5
  9
$AUNITS
 70
     0
  9
$AUPREC
 70
     0
  9
$MENU
  1
.
  9
$ELEVATION
 40
0.0
  9
$PELEVATION
 40
0.0
  9
$THICKNESS
 40
0.0
  9
$LIMCHECK
 70
     0
  9
$CHAMFERA
 40
0.5
  9
$CHAMFERB
 40
0.5
  9
$CHAMFERC
 40
1.0
  9
$CHAMFERD
 40
0.0
  9
$SKPOLY
 70
     0
  9
$TDCREATE
 40
2457917.611608785
  9
$TDUCREATE
 40
2457917.236608796
  9
$TDUPDATE
 40
2457917.611608785
  9
$TDUUPDATE
 40
2457917.236608796
  9
$TDINDWG
 40
0.0000000116
  9
$TDUSRTIMER
 40
0.0000000116
  9
$USRTIMER
 70
     1
  9
$ANGBASE
 50
0.0
  9
$ANGDIR
 70
     0
  9
$PDMODE
 70
     0
  9
$PDSIZE
 40
0.0
  9
$PLINEWID
 40
0.0
  9
$SPLFRAME
 70
     0
  9
$SPLINETYPE
 70
     6
  9
$SPLINESEGS
 70
     8
  9
$HANDSEED
  5
DB
  9
$SURFTAB1
 70
     6
  9
$SURFTAB2
 70
     6
  9
$SURFTYPE
 70
     6
  9
$SURFU
 70
     6
  9
$SURFV
 70
     6
  9
$UCSBASE
  2

  9
$UCSNAME
  2

  9
$UCSORG
 10
0.0
 20
0.0
 30
0.0
  9
$UCSXDIR
 10
1.0
 20
0.0
 30
0.0
  9
$UCSYDIR
 10
0.0
 20
1.0
 30
0.0
  9
$UCSORTHOREF
  2

  9
$UCSORTHOVIEW
 70
     0
  9
$UCSORGTOP
 10
0.0
 20
0.0
 30
0.0
  9
$UCSORGBOTTOM
 10
0.0
 20
0.0
 30
0.0
  9
$UCSORGLEFT
 10
0.0
 20
0.0
 30
0.0
  9
$UCSORGRIGHT
 10
0.0
 20
0.0
 30
0.0
  9
$UCSORGFRONT
 10
0.0
 20
0.0
 30
0.0
  9
$UCSORGBACK
 10
0.0
 20
0.0
 30
0.0
  9
$PUCSBASE
  2

  9
$PUCSNAME
  2

  9
$PUCSORG
 10
0.0
 20
0.0
 30
0.0
  9
$PUCSXDIR
 10
1.0
 20
0.0
 30
0.0
  9
$PUCSYDIR
 10
0.0
 20
1.0
 30
0.0
  9
$PUCSORTHOREF
  2

  9
$PUCSORTHOVIEW
 70
     0
  9
$PUCSORGTOP
 10
0.0
 20
0.0
 30
0.0
  9
$PUCSORGBOTTOM
 10
0.0
 20
0.0
 30
0.0
  9
$PUCSORGLEFT
 10
0.0
 20
0.0
 30
0.0
  9
$PUCSORGRIGHT
 10
0.0
 20
0.0
 30
0.0
  9
$PUCSORGFRONT
 10
0.0
 20
0.0
 30
0.0
  9
$PUCSORGBACK
 10
0.0
 20
0.0
 30
0.0
  9
$USERI1
 70
     0
  9
$USERI2
 70
     0
  9
$USERI3
 70
     0
  9
$USERI4
 70
     0
  9
$USERI5
 70
     0
  9
$USERR1
 40
0.0
  9
$USERR2
 40
0.0
  9
$USERR3
 40
0.0
  9
$USERR4
 40
0.0
  9
$USERR5
 40
0.0
  9
$WORLDVIEW
 70
     1
  9
$SHADEDGE
 70
     3
  9
$SHADEDIF
 70
    70
  9
$TILEMODE
 70
     1
  9
$MAXACTVP
 70
    64
  9
$PINSBASE
 10
0.0
 20
0.0
 30
0.0
  9
$PLIMCHECK
 70
     0
  9
$PEXTMIN
 10
1.000000000000000E+20
 20
1.000000000000000E+20
 30
1.000000000000000E+20
  9
$PEXTMAX
 10
-1.000000000000000E+20
 20
-1.000000000000000E+20
 30
-1.000000000000000E+20
  9
$PLIMMIN
 10
0.0
 20
0.0
  9
$PLIMMAX
 10
12.0
 20
9.0
  9
$UNITMODE
 70
     0
  9
$VISRETAIN
 70
     1
  9
$PLINEGEN
 70
     0
  9
$PSLTSCALE
 70
     1
  9
$TREEDEPTH
 70
  3020
  9
$CMLSTYLE
  2
Standard
  9
$CMLJUST
 70
     0
  9
$CMLSCALE
 40
1.0
  9
$PROXYGRAPHICS
 70
     1
  9
$MEASUREMENT
 70
     0
  9
$CELWEIGHT
370
    -1
  9
$ENDCAPS
280
     0
  9
$JOINSTYLE
280
     0
  9
$LWDISPLAY
290
     1
  9
$INSUNITS
 70
     1
  9
$HYPERLINKBASE
  1

  9
$STYLESHEET
  1

  9
$XEDIT
290
     1
  9
$CEPSNTYPE
380
     0
  9
$PSTYLEMODE
290
     1
  9
$FINGERPRINTGUID
  2
{3FC00D50-E9AA-FB45-CA98-F317D3A80087}
  9
$VERSIONGUID
  2
{FAEB1C32-E019-11D5-929B-00C0DF256EC4}
  9
$EXTNAMES
290
     1
  9
$PSVPSCALE
 40
0.0
  9
$OLESTARTUP
290
     0
  9
$SORTENTS
280
   127
  9
$INDEXCTL
280
     0
  9
$HIDETEXT
280
     1
  9
$XCLIPFRAME
280
     2
  9
$HALOGAP
280
     0
  9
$OBSCOLOR
 70
   257
  9
$OBSLTYPE
280
     0
  9
$INTERSECTIONDISPLAY
280
     0
  9
$INTERSECTIONCOLOR
 70
   257
  9
$DIMASSOC
280
     2
  9
$PROJECTNAME
  1

  9
$CAMERADISPLAY
290
     0
  9
$LENSLENGTH
 40
50.0
  9
$CAMERAHEIGHT
 40
0.0
  9
$STEPSPERSEC
 40
2.0
  9
$STEPSIZE
 40
6.0
  9
$3DDWFPREC
 40
2.0
  9
$PSOLWIDTH
 40
0.25
  9
$PSOLHEIGHT
 40
4.0
  9
$LOFTANG1
 40
1.570796326794897
  9
$LOFTANG2
 40
1.570796326794897
  9
$LOFTMAG1
 40
0.0
  9
$LOFTMAG2
 40
0.0
  9
$LOFTPARAM
 70
     7
  9
$LOFTNORMALS
280
     1
  9
$LATITUDE
 40
37.795
  9
$LONGITUDE
 40
-122.394
  9
$NORTHDIRECTION
 40
0.0
  9
$TIMEZONE
 70
 -8000
  9
$LIGHTGLYPHDISPLAY
280
     1
  9
$TILEMODELIGHTSYNCH
280
     1
  9
$CMATERIAL
347
3C
  9
$SOLIDHIST
280
     1
  9
$SHOWHIST
280
     1
  9
$DWFFRAME
280
     2
  9
$DGNFRAME
280
     2
  9
$REALWORLDSCALE
290
     1
  9
$INTERFERECOLOR
 62
   256
  9
$CSHADOW
280
     0
  9
$SHADOWPLANELOCATION
 40
0.0
  0
ENDSEC
  0
SECTION
  2
CLASSES
  0
CLASS
  1
ACDBDICTIONARYWDFLT
  2
AcDbDictionaryWithDefault
  3
ObjectDBX Classes
 90
        0
 91
        4
280
     0
281
     0
  0
CLASS
  1
VISUALSTYLE
  2
AcDbVisualStyle
  3
ObjectDBX Classes
 90
     4095
 91
        4
280
     0
281
     0
  0
CLASS
  1
MATERIAL
  2
AcDbMaterial
  3
ObjectDBX Classes
 90
     1153
 91
        4
280
     0
281
     0
  0
CLASS
  1
SUN
  2
AcDbSun
  3
SCENEOE
 90
     1024
 91
        4
280
     0
281
     0
  0
ENDSEC
  0
SECTION
  2
TABLES
  0
TABLE
  2
VPORT
  5
8
330
0
100
AcDbSymbolTable
 70
     1
  0
VPORT
  5
29
330
8
100
AcDbSymbolTableRecord
100
AcDbViewportTableRecord
  2
*Active
 70
     0
 10
0.0
 20
0.0
 11
1.0
 21
1.0
 12
0.0
 22
0.0
 13
0.0
 23
0.0
 14
0.5
 24
0.5
 15
0.5
 25
0.5
 16
0.0
 26
0.0
 36
1.0
 17
91.00082462281999
 27
-128.4993055234307
 37
0.0
 40
256.9986110468615
 41
0.7081814508812795
 42
50.0
 43
0.0
 44
0.0
 50
0.0
 51
0.0
 71
     0
 72
   100
 73
     1
 74
     3
 75
     0
 76
     0
 77
     0
 78
     0
281
     0
 65
     1
110
0.0
120
0.0
130
0.0
111
1.0
121
0.0
131
0.0
112
0.0
122
1.0
132
0.0
 79
     0
146
0.0
 60
     3
 61
     5
292
     1
282
     1
141
0.0
142
0.0
 63
   250
361
3F
  0
ENDTAB
  0
TABLE
  2
LTYPE
  5
5
330
0
100
AcDbSymbolTable
 70
     1
  0
LTYPE
  5
14
330
5
100
AcDbSymbolTableRecord
100
AcDbLinetypeTableRecord
  2
ByBlock
 70
     0
  3

 72
    65
 73
     0
 40
0.0
  0
LTYPE
  5
15
330
5
100
AcDbSymbolTableRecord
100
AcDbLinetypeTableRecord
  2
ByLayer
 70
     0
  3

 72
    65
 73
     0
 40
0.0
  0
LTYPE
  5
16
330
5
100
AcDbSymbolTableRecord
100
AcDbLinetypeTableRecord
  2
Continuous
 70
     0
  3
Solid line
 72
    65
 73
     0
 40
0.0
  0
ENDTAB
  0
TABLE
  2
LAYER
  5
2
330
0
100
AcDbSymbolTable
 70
     2
  0
LAYER
  5
10
330
2
100
AcDbSymbolTableRecord
100
AcDbLayerTableRecord
  2
0
 70
     0
 62
     7
  6
Continuous
370
    -3
390
F
347
3E
  0
LAYER
  5
40
330
2
100
AcDbSymbolTableRecord
100
AcDbLayerTableRecord
  2
_U+30EC_U+30A4_U+30E4_U+30FC 1
 70
     0
 62
     7
  6
Continuous
370
    -3
390
F
347
3E
  0
ENDTAB
  0
TABLE
  2
STYLE
  5
3
330
0
100
AcDbSymbolTable
 70
     1
  0
STYLE
  5
11
330
3
100
AcDbSymbolTableRecord
100
AcDbTextStyleTableRecord
  2
Standard
 70
     0
 40
0.0
 41
1.0
 50
0.0
 71
     0
 42
0.2
  3
txt
  4

  0
ENDTAB
  0
TABLE
  2
VIEW
  5
6
330
0
100
AcDbSymbolTable
 70
     0
  0
ENDTAB
  0
TABLE
  2
UCS
  5
7
330
0
100
AcDbSymbolTable
 70
     0
  0
ENDTAB
  0
TABLE
  2
APPID
  5
9
330
0
100
AcDbSymbolTable
 70
     1
  0
APPID
  5
12
330
9
100
AcDbSymbolTableRecord
100
AcDbRegAppTableRecord
  2
ACAD
 70
     0
  0
ENDTAB
  0
TABLE
  2
DIMSTYLE
  5
A
330
0
100
AcDbSymbolTable
 70
     1
100
AcDbDimStyleTable
  0
DIMSTYLE
105
27
330
A
100
AcDbSymbolTableRecord
100
AcDbDimStyleTableRecord
  2
Standard
 70
     0
178
     0
340
11
  0
ENDTAB
  0
TABLE
  2
BLOCK_RECORD
  5
1
330
0
100
AcDbSymbolTable
 70
     3
  0
BLOCK_RECORD
  5
1F
330
1
100
AcDbSymbolTableRecord
100
AcDbBlockTableRecord
  2
*Model_Space
340
22
 70
     0
280
     1
281
     0
  0
BLOCK_RECORD
  5
1B
330
1
100
AcDbSymbolTableRecord
100
AcDbBlockTableRecord
  2
*Paper_Space
340
1E
 70
     0
280
     1
281
     0
  0
BLOCK_RECORD
  5
23
330
1
100
AcDbSymbolTableRecord
100
AcDbBlockTableRecord
  2
*Paper_Space0
340
26
 70
     0
280
     1
281
     0
  0
BLOCK_RECORD
  5
41
330
1
100
AcDbSymbolTableRecord
100
AcDbBlockTableRecord
  2
block 2
340
0
102
{BLKREFS
331
42
102
}
 70
     0
280
     1
281
     0
  0
BLOCK_RECORD
  5
6E
330
1
100
AcDbSymbolTableRecord
100
AcDbBlockTableRecord
  2
block 3
340
0
102
{BLKREFS
331
6F
102
}
 70
     0
280
     1
281
     0
  0
ENDTAB
  0
ENDSEC
  0
SECTION
  2
BLOCKS
  0
BLOCK
  5
20
330
1F
100
AcDbEntity
  8
0
100
AcDbBlockBegin
  2
*Model_Space
 70
     0
 10
0.0
 20
0.0
 30
0.0
  3
*Model_Space
  1

  0
ENDBLK
  5
21
330
1F
100
AcDbEntity
  8
0
100
AcDbBlockEnd
  0
BLOCK
  5
1C
330
1B
100
AcDbEntity
 67
     1
  8
0
100
AcDbBlockBegin
  2
*Paper_Space
 70
     0
 10
0.0
 20
0.0
 30
0.0
  3
*Paper_Space
  1

  0
ENDBLK
  5
1D
330
1B
100
AcDbEntity
 67
     1
  8
0
100
AcDbBlockEnd
  0
BLOCK
  5
24
330
23
100
AcDbEntity
  8
0
100
AcDbBlockBegin
  2
*Paper_Space0
 70
     0
 10
0.0
 20
0.0
 30
0.0
  3
*Paper_Space0
  1

  0
ENDBLK
  5
25
330
23
100
AcDbEntity
  8
0
100
AcDbBlockEnd
  0
BLOCK
  5
43
330
41
100
AcDbEntity
  8
0
100
AcDbBlockBegin
  2
block 2
 70
     0
 10
0.0
 20
0.0
 30
0.0
  3
block 2
  1

  0
SPLINE
  5
45
330
41
100
AcDbEntity
  8
_U+30EC_U+30A4_U+30E4_U+30FC 1
370
     0
100
AcDbSpline
210
0.0
220
0.0
230
1.0
 70
    11
 71
     3
 72
    38
 73
    34
 74
     0
 42
0.0000000001
 43
0.0000000001
 12
1.0
 22
0.0
 32
0.0
 13
1.0
 23
0.0
 33
0.0
 40
0.0
 40
0.0
 40
0.0
 40
0.0
 40
1.0
 40
1.0
 40
1.0
 40
2.0
 40
2.0
 40
2.0
 40
3.0
 40
3.0
 40
3.0
 40
4.0
 40
4.0
 40
4.0
 40
5.0
 40
5.0
 40
5.0
 40
6.0
 40
6.0
 40
6.0
 40
7.0
 40
7.0
 40
7.0
 40
8.0
 40
8.0
 40
8.0
 40
9.0
 40
9.0
 40
9.0
 40
10.0
 40
10.0
 40
10.0
 40
11.0
 40
11.0
 40
11.0
 40
11.0
 10
93.40894094887
 20
-127.4768011834086
 30
0.0
 10
92.99139537605771
 20
-127.6828178934265
 30
0.0
 10
92.58384058015265
 20
-127.4781792216027
 30
0.0
 10
92.37610132239209
 20
-127.0570162985309
 30
0.0
 10
92.14424639623478
 20
-126.5864162552458
 30
0.0
 10
92.32511390921039
 20
-126.1786892045664
 30
0.0
 10
92.69132755929245
 20
-125.9981662011394
 30
0.0
 10
93.00069713386789
 20
-125.8455484711428
 30
0.0
 10
93.33280433864597
 20
-125.8920572601937
 30
0.0
 10
93.49196775006452
 20
-126.1671481346909
 30
0.0
 10
93.49196775006452
 20
-126.1671481346909
 30
0.0
 10
93.28491751140099
 20
-126.2692952158285
 30
0.0
 10
93.28491751140099
 20
-126.2692952158285
 30
0.0
 10
93.15917152618938
 20
-126.0999687727285
 30
0.0
 10
92.92524954274091
 20
-126.1232231672539
 30
0.0
 10
92.78124455145748
 20
-126.1943643890243
 30
0.0
 10
92.68822697335573
 20
-126.2401841589782
 30
0.0
 10
92.59796547164218
 20
-126.3204548837845
 30
0.0
 10
92.54835609665459
 20
-126.4298366654412
 30
0.0
 10
92.46016165223219
 20
-126.6146660382248
 30
0.0
 10
92.52871905238865
 20
-126.8211995125655
 30
0.0
 10
92.59899900028775
 20
-126.9636542108806
 30
0.0
 10
92.79364689520438
 20
-127.358289898716
 30
0.0
 10
93.1154188135267
 20
-127.3789604716275
 30
0.0
 10
93.30868867024923
 20
-127.2835313266861
 30
0.0
 10
93.43202308862116
 20
-127.2225531365971
 30
0.0
 10
93.6394178368332
 20
-127.030833572843
 30
0.0
 10
93.52745223356258
 20
-126.7319715394976
 30
0.0
 10
93.52745223356258
 20
-126.7319715394976
 30
0.0
 10
93.73415796267757
 20
-126.6299967131342
 30
0.0
 10
93.73415796267757
 20
-126.6299967131342
 30
0.0
 10
93.7827338090196
 20
-126.7569484817656
 30
0.0
 10
93.95154348779684
 20
-127.2094617737532
 30
0.0
 10
93.40894094887
 20
-127.4768011834086
 30
0.0
  0
HATCH
  5
46
330
41
100
AcDbEntity
  8
_U+30EC_U+30A4_U+30E4_U+30FC 1
 62
   179
420
  2234388
100
AcDbHatch
 10
0.0
 20
0.0
 30
0.0
210
0.0
220
0.0
230
1.0
  2
SOLID
 70
     1
 71
     0
 91
        1
 92
        1
 93
        1
 72
     4
 94
        3
 73
     0
 74
     1
 95
       38
 96
       34
 40
0.0
 40
0.0
 40
0.0
 40
0.0
 40
1.0
 40
1.0
 40
1.0
 40
2.0
 40
2.0
 40
2.0
 40
3.0
 40
3.0
 40
3.0
 40
4.0
 40
4.0
 40
4.0
 40
5.0
 40
5.0
 40
5.0
 40
6.0
 40
6.0
 40
6.0
 40
7.0
 40
7.0
 40
7.0
 40
8.0
 40
8.0
 40
8.0
 40
9.0
 40
9.0
 40
9.0
 40
10.0
 40
10.0
 40
10.0
 40
11.0
 40
11.0
 40
11.0
 40
11.0
 10
93.40894094887
 20
-127.4768011834086
 10
92.99139537605771
 20
-127.6828178934265
 10
92.58384058015265
 20
-127.4781792216027
 10
92.37610132239209
 20
-127.0570162985309
 10
92.14424639623478
 20
-126.5864162552458
 10
92.32511390921039
 20
-126.1786892045664
 10
92.69132755929245
 20
-125.9981662011394
 10
93.00069713386789
 20
-125.8455484711428
 10
93.33280433864597
 20
-125.8920572601937
 10
93.49196775006452
 20
-126.1671481346909
 10
93.49196775006452
 20
-126.1671481346909
 10
93.28491751140099
 20
-126.2692952158285
 10
93.28491751140099
 20
-126.2692952158285
 10
93.15917152618938
 20
-126.0999687727285
 10
92.92524954274091
 20
-126.1232231672539
 10
92.78124455145748
 20
-126.1943643890243
 10
92.68822697335573
 20
-126.2401841589782
 10
92.59796547164218
 20
-126.3204548837845
 10
92.54835609665459
 20
-126.4298366654412
 10
92.46016165223219
 20
-126.6146660382248
 10
92.52871905238865
 20
-126.8211995125655
 10
92.59899900028775
 20
-126.9636542108806
 10
92.79364689520438
 20
-127.358289898716
 10
93.1154188135267
 20
-127.3789604716275
 10
93.30868867024923
 20
-127.2835313266861
 10
93.43202308862116
 20
-127.2225531365971
 10
93.6394178368332
 20
-127.030833572843
 10
93.52745223356258
 20
-126.7319715394976
 10
93.52745223356258
 20
-126.7319715394976
 10
93.73415796267757
 20
-126.6299967131342
 10
93.73415796267757
 20
-126.6299967131342
 10
93.7827338090196
 20
-126.7569484817656
 10
93.95154348779684
 20
-127.2094617737532
 10
93.40894094887
 20
-127.4768011834086
 97
        0
 97
        0
 75
     2
 76
     1
 98
        0
  0
SPLINE
  5
47
330
41
100
AcDbEntity
  8
_U+30EC_U+30A4_U+30E4_U+30FC 1
370
     0
100
AcDbSpline
210
0.0
220
0.0
230
1.0
 70
    11
 71
     3
 72
    44
 73
    40
 74
     0
 42
0.0000000001
 43
0.0000000001
 12
1.0
 22
0.0
 32
0.0
 13
1.0
 23
0.0
 33
0.0
 40
0.0
 40
0.0
 40
0.0
 40
0.0
 40
1.0
 40
1.0
 40
1.0
 40
2.0
 40
2.0
 40
2.0
 40
3.0
 40
3.0
 40
3.0
 40
4.0
 40
4.0
 40
4.0
 40
5.0
 40
5.0
 40
5.0
 40
6.0
 40
6.0
 40
6.0
 40
7.0
 40
7.0
 40
7.0
 40
8.0
 40
8.0
 40
8.0
 40
9.0
 40
9.0
 40
9.0
 40
10.0
 40
10.0
 40
10.0
 40
11.0
 40
11.0
 40
11.0
 40
12.0
 40
12.0
 40
12.0
 40
13.0
 40
13.0
 40
13.0
 40
13.0
 10
95.06844344411483
 20
-126.6020914397037
 30
0.0
 10
95.02779131738889
 20
-126.5726358733048
 30
0.0
 10
94.98541664292031
 20
-126.5345675681928
 30
0.0
 10
94.88137475926577
 20
-126.3285508581748
 30
0.0
 10
94.7700981750922
 20
-126.1121988617011
 30
0.0
 10
94.6860378452521
 20
-126.0756808495575
 30
0.0
 10
94.52652992428504
 20
-126.1544012813954
 30
0.0
 10
94.52652992428504
 20
-126.1544012813954
 30
0.0
 10
94.16031627420298
 20
-126.3349242848225
 30
0.0
 10
94.16031627420298
 20
-126.3349242848225
 30
0.0
 10
94.16031627420298
 20
-126.3349242848225
 30
0.0
 10
94.44384763263905
 20
-126.9099107213107
 30
0.0
 10
94.44384763263905
 20
-126.9099107213107
 30
0.0
 10
94.44384763263905
 20
-126.9099107213107
 30
0.0
 10
94.23335229849027
 20
-127.013780350191
 30
0.0
 10
94.23335229849027
 20
-127.013780350191
 30
0.0
 10
94.23335229849027
 20
-127.013780350191
 30
0.0
 10
93.55018986376524
 20
-125.6286797103463
 30
0.0
 10
93.55018986376524
 20
-125.6286797103463
 30
0.0
 10
93.55018986376524
 20
-125.6286797103463
 30
0.0
 10
94.15549314052363
 20
-125.3301621865494
 30
0.0
 10
94.15549314052363
 20
-125.3301621865494
 30
0.0
 10
94.4307562697951
 20
-125.1945976792048
 30
0.0
 10
94.65641002407895
 20
-125.2743516396884
 30
0.0
 10
94.76975366554367
 20
-125.5041395085545
 30
0.0
 10
94.7921467861978
 20
-125.5496147689598
 30
0.0
 10
94.82074107872538
 20
-125.6274739269265
 30
0.0
 10
94.81660696414308
 20
-125.7191134668341
 30
0.0
 10
94.80937226362406
 20
-125.8383137706238
 30
0.0
 10
94.7590738695394
 20
-125.8843057953518
 30
0.0
 10
94.71153155184295
 20
-125.9265082150462
 30
0.0
 10
94.85346948583525
 20
-125.9037705848435
 30
0.0
 10
94.93580726793272
 20
-125.917206457236
 30
0.0
 10
95.07912324011912
 20
-126.1979817392838
 30
0.0
 10
95.20245765849106
 20
-126.4391384232513
 30
0.0
 10
95.2486219379934
 20
-126.4515407669982
 30
0.0
 10
95.33371579647907
 20
-126.4711778112642
 30
0.0
 10
95.33371579647907
 20
-126.4711778112642
 30
0.0
 10
95.06844344411483
 20
-126.6020914397037
 30
0.0
 10
95.06844344411483
 20
-126.6020914397037
 30
0.0
  0
SPLINE
  5
48
330
41
100
AcDbEntity
  8
_U+30EC_U+30A4_U+30E4_U+30FC 1
370
     0
100
AcDbSpline
210
0.0
220
0.0
230
1.0
 70
    11
 71
     3
 72
    20
 73
    16
 74
     0
 42
0.0000000001
 43
0.0000000001
 12
1.0
 22
0.0
 32
0.0
 13
1.0
 23
0.0
 33
0.0
 40
0.0
 40
0.0
 40
0.0
 40
0.0
 40
1.0
 40
1.0
 40
1.0
 40
2.0
 40
2.0
 40
2.0
 40
3.0
 40
3.0
 40
3.0
 40
4.0
 40
4.0
 40
4.0
 40
5.0
 40
5.0
 40
5.0
 40
5.0
 10
94.2529893427562
 20
-125.5179198904955
 30
0.0
 10
94.2529893427562
 20
-125.5179198904955
 30
0.0
 10
93.85439179511279
 20
-125.714462587929
 30
0.0
 10
93.85439179511279
 20
-125.714462587929
 30
0.0
 10
93.85439179511279
 20
-125.714462587929
 30
0.0
 10
94.0669541865527
 20
-126.1452717783595
 30
0.0
 10
94.0669541865527
 20
-126.1452717783595
 30
0.0
 10
94.0669541865527
 20
-126.1452717783595
 30
0.0
 10
94.46348467690497
 20
-125.9497626095716
 30
0.0
 10
94.46348467690497
 20
-125.9497626095716
 30
0.0
 10
94.55271264997293
 20
-125.9058376421347
 30
0.0
 10
94.64021807529828
 20
-125.7775078353091
 30
0.0
 10
94.5647704841713
 20
-125.6240288314412
 30
0.0
 10
94.52997501977029
 20
-125.5539211383164
 30
0.0
 10
94.43144528889215
 20
-125.4300699556217
 30
0.0
 10
94.2529893427562
 20
-125.5179198904955
 30
0.0
  0
HATCH
  5
49
330
41
100
AcDbEntity
  8
_U+30EC_U+30A4_U+30E4_U+30FC 1
 62
   179
420
  2234388
100
AcDbHatch
 10
0.0
 20
0.0
 30
0.0
210
0.0
220
0.0
230
1.0
  2
SOLID
 70
     1
 71
     0
 91
        2
 92
        1
 93
        1
 72
     4
 94
        3
 73
     0
 74
     1
 95
       44
 96
       40
 40
0.0
 40
0.0
 40
0.0
 40
0.0
 40
1.0
 40
1.0
 40
1.0
 40
2.0
 40
2.0
 40
2.0
 40
3.0
 40
3.0
 40
3.0
 40
4.0
 40
4.0
 40
4.0
 40
5.0
 40
5.0
 40
5.0
 40
6.0
 40
6.0
 40
6.0
 40
7.0
 40
7.0
 40
7.0
 40
8.0
 40
8.0
 40
8.0
 40
9.0
 40
9.0
 40
9.0
 40
10.0
 40
10.0
 40
10.0
 40
11.0
 40
11.0
 40
11.0
 40
12.0
 40
12.0
 40
12.0
 40
13.0
 40
13.0
 40
13.0
 40
13.0
 10
95.06844344411483
 20
-126.6020914397037
 10
95.02779131738889
 20
-126.5726358733048
 10
94.98541664292031
 20
-126.5345675681928
 10
94.88137475926577
 20
-126.3285508581748
 10
94.7700981750922
 20
-126.1121988617011
 10
94.6860378452521
 20
-126.0756808495575
 10
94.52652992428504
 20
-126.1544012813954
 10
94.52652992428504
 20
-126.1544012813954
 10
94.16031627420298
 20
-126.3349242848225
 10
94.16031627420298
 20
-126.3349242848225
 10
94.16031627420298
 20
-126.3349242848225
 10
94.44384763263905
 20
-126.9099107213107
 10
94.44384763263905
 20
-126.9099107213107
 10
94.44384763263905
 20
-126.9099107213107
 10
94.23335229849027
 20
-127.013780350191
 10
94.23335229849027
 20
-127.013780350191
 10
94.23335229849027
 20
-127.013780350191
 10
93.55018986376524
 20
-125.6286797103463
 10
93.55018986376524
 20
-125.6286797103463
 10
93.55018986376524
 20
-125.6286797103463
 10
94.15549314052363
 20
-125.3301621865494
 10
94.15549314052363
 20
-125.3301621865494
 10
94.4307562697951
 20
-125.1945976792048
 10
94.65641002407895
 20
-125.2743516396884
 10
94.76975366554367
 20
-125.5041395085545
 10
94.7921467861978
 20
-125.5496147689598
 10
94.82074107872538
 20
-125.6274739269265
 10
94.81660696414308
 20
-125.7191134668341
 10
94.80937226362406
 20
-125.8383137706238
 10
94.7590738695394
 20
-125.8843057953518
 10
94.71153155184295
 20
-125.9265082150462
 10
94.85346948583525
 20
-125.9037705848435
 10
94.93580726793272
 20
-125.917206457236
 10
95.07912324011912
 20
-126.1979817392838
 10
95.20245765849106
 20
-126.4391384232513
 10
95.2486219379934
 20
-126.4515407669982
 10
95.33371579647907
 20
-126.4711778112642
 10
95.33371579647907
 20
-126.4711778112642
 10
95.06844344411483
 20
-126.6020914397037
 10
95.06844344411483
 20
-126.6020914397037
 97
        0
 97
        0
 92
        1
 93
        1
 72
     4
 94
        3
 73
     0
 74
     1
 95
       20
 96
       16
 40
0.0
 40
0.0
 40
0.0
 40
0.0
 40
1.0
 40
1.0
 40
1.0
 40
2.0
 40
2.0
 40
2.0
 40
3.0
 40
3.0
 40
3.0
 40
4.0
 40
4.0
 40
4.0
 40
5.0
 40
5.0
 40
5.0
 40
5.0
 10
94.2529893427562
 20
-125.5179198904955
 10
94.2529893427562
 20
-125.5179198904955
 10
93.85439179511279
 20
-125.714462587929
 10
93.85439179511279
 20
-125.714462587929
 10
93.85439179511279
 20
-125.714462587929
 10
94.0669541865527
 20
-126.1452717783595
 10
94.0669541865527
 20
-126.1452717783595
 10
94.0669541865527
 20
-126.1452717783595
 10
94.46348467690497
 20
-125.9497626095716
 10
94.46348467690497
 20
-125.9497626095716
 10
94.55271264997293
 20
-125.9058376421347
 10
94.64021807529828
 20
-125.7775078353091
 10
94.5647704841713
 20
-125.6240288314412
 10
94.52997501977029
 20
-125.5539211383164
 10
94.43144528889215
 20
-125.4300699556217
 10
94.2529893427562
 20
-125.5179198904955
 97
        0
 97
        0
 75
     2
 76
     1
 98
        0
  0
SPLINE
  5
4A
330
41
100
AcDbEntity
  8
_U+30EC_U+30A4_U+30E4_U+30FC 1
370
     0
100
AcDbSpline
210
0.0
220
0.0
230
1.0
 70
    11
 71
     3
 72
    26
 73
    22
 74
     0
 42
0.0000000001
 43
0.0000000001
 12
1.0
 22
0.0
 32
0.0
 13
1.0
 23
0.0
 33
0.0
 40
0.0
 40
0.0
 40
0.0
 40
0.0
 40
1.0
 40
1.0
 40
1.0
 40
2.0
 40
2.0
 40
2.0
 40
3.0
 40
3.0
 40
3.0
 40
4.0
 40
4.0
 40
4.0
 40
5.0
 40
5.0
 40
5.0
 40
6.0
 40
6.0
 40
6.0
 40
7.0
 40
7.0
 40
7.0
 40
7.0
 10
95.8773518640515
 20
-125.5003499035208
 30
0.0
 10
95.8773518640515
 20
-125.5003499035208
 30
0.0
 10
95.47117510634054
 20
-125.7005099512138
 30
0.0
 10
95.47117510634054
 20
-125.7005099512138
 30
0.0
 10
95.47117510634054
 20
-125.7005099512138
 30
0.0
 10
95.75022784064578
 20
-126.2658501203433
 30
0.0
 10
95.75022784064578
 20
-126.2658501203433
 30
0.0
 10
95.75022784064578
 20
-126.2658501203433
 30
0.0
 10
95.53973250649702
 20
-126.3695474944493
 30
0.0
 10
95.53973250649702
 20
-126.3695474944493
 30
0.0
 10
95.53973250649702
 20
-126.3695474944493
 30
0.0
 10
94.85657007177197
 20
-124.9846191093789
 30
0.0
 10
94.85657007177197
 20
-124.9846191093789
 30
0.0
 10
94.85657007177197
 20
-124.9846191093789
 30
0.0
 10
95.4732421636317
 20
-124.6804171780313
 30
0.0
 10
95.4732421636317
 20
-124.6804171780313
 30
0.0
 10
95.73093530592838
 20
-124.5532931546256
 30
0.0
 10
95.98725041003097
 20
-124.6084146823896
 30
0.0
 10
96.11919756711603
 20
-124.8760986015935
 30
0.0
 10
96.22875160354698
 20
-125.0979627508436
 30
0.0
 10
96.17535262352561
 20
-125.3532443263006
 30
0.0
 10
95.8773518640515
 20
-125.5003499035208
 30
0.0
  0
SPLINE
  5
4B
330
41
100
AcDbEntity
  8
_U+30EC_U+30A4_U+30E4_U+30FC 1
370
     0
100
AcDbSpline
210
0.0
220
0.0
230
1.0
 70
    11
 71
     3
 72
    20
 73
    16
 74
     0
 42
0.0000000001
 43
0.0000000001
 12
1.0
 22
0.0
 32
0.0
 13
1.0
 23
0.0
 33
0.0
 40
0.0
 40
0.0
 40
0.0
 40
0.0
 40
1.0
 40
1.0
 40
1.0
 40
2.0
 40
2.0
 40
2.0
 40
3.0
 40
3.0
 40
3.0
 40
4.0
 40
4.0
 40
4.0
 40
5.0
 40
5.0
 40
5.0
 40
5.0
 10
95.55902504121441
 20
-124.8738592895281
 30
0.0
 10
95.55902504121441
 20
-124.8738592895281
 30
0.0
 10
95.16077200311953
 20
-125.0704019869616
 30
0.0
 10
95.16077200311953
 20
-125.0704019869616
 30
0.0
 10
95.16077200311953
 20
-125.0704019869616
 30
0.0
 10
95.37781301869028
 20
-125.5106851899765
 30
0.0
 10
95.37781301869028
 20
-125.5106851899765
 30
0.0
 10
95.37781301869028
 20
-125.5106851899765
 30
0.0
 10
95.77641056633368
 20
-125.314142492543
 30
0.0
 10
95.77641056633368
 20
-125.314142492543
 30
0.0
 10
95.92592771039352
 20
-125.2402451943844
 30
0.0
 10
95.95900062705192
 20
-125.1062309800082
 30
0.0
 10
95.89733341786595
 20
-124.9808295043451
 30
0.0
 10
95.84669051423278
 20
-124.8785101684332
 30
0.0
 10
95.72817922954019
 20
-124.7906602335593
 30
0.0
 10
95.55902504121441
 20
-124.8738592895281
 30
0.0
  0
HATCH
  5
4C
330
41
100
AcDbEntity
  8
_U+30EC_U+30A4_U+30E4_U+30FC 1
 62
   179
420
  2234388
100
AcDbHatch
 10
0.0
 20
0.0
 30
0.0
210
0.0
220
0.0
230
1.0
  2
SOLID
 70
     1
 71
     0
 91
        2
 92
        1
 93
        1
 72
     4
 94
        3
 73
     0
 74
     1
 95
       26
 96
       22
 40
0.0
 40
0.0
 40
0.0
 40
0.0
 40
1.0
 40
1.0
 40
1.0
 40
2.0
 40
2.0
 40
2.0
 40
3.0
 40
3.0
 40
3.0
 40
4.0
 40
4.0
 40
4.0
 40
5.0
 40
5.0
 40
5.0
 40
6.0
 40
6.0
 40
6.0
 40
7.0
 40
7.0
 40
7.0
 40
7.0
 10
95.8773518640515
 20
-125.5003499035208
 10
95.8773518640515
 20
-125.5003499035208
 10
95.47117510634054
 20
-125.7005099512138
 10
95.47117510634054
 20
-125.7005099512138
 10
95.47117510634054
 20
-125.7005099512138
 10
95.75022784064578
 20
-126.2658501203433
 10
95.75022784064578
 20
-126.2658501203433
 10
95.75022784064578
 20
-126.2658501203433
 10
95.53973250649702
 20
-126.3695474944493
 10
95.53973250649702
 20
-126.3695474944493
 10
95.53973250649702
 20
-126.3695474944493
 10
94.85657007177197
 20
-124.9846191093789
 10
94.85657007177197
 20
-124.9846191093789
 10
94.85657007177197
 20
-124.9846191093789
 10
95.4732421636317
 20
-124.6804171780313
 10
95.4732421636317
 20
-124.6804171780313
 10
95.73093530592838
 20
-124.5532931546256
 10
95.98725041003097
 20
-124.6084146823896
 10
96.11919756711603
 20
-124.8760986015935
 10
96.22875160354698
 20
-125.0979627508436
 10
96.17535262352561
 20
-125.3532443263006
 10
95.8773518640515
 20
-125.5003499035208
 97
        0
 97
        0
 92
        1
 93
        1
 72
     4
 94
        3
 73
     0
 74
     1
 95
       20
 96
       16
 40
0.0
 40
0.0
 40
0.0
 40
0.0
 40
1.0
 40
1.0
 40
1.0
 40
2.0
 40
2.0
 40
2.0
 40
3.0
 40
3.0
 40
3.0
 40
4.0
 40
4.0
 40
4.0
 40
5.0
 40
5.0
 40
5.0
 40
5.0
 10
95.55902504121441
 20
-124.8738592895281
 10
95.55902504121441
 20
-124.8738592895281
 10
95.16077200311953
 20
-125.0704019869616
 10
95.16077200311953
 20
-125.0704019869616
 10
95.16077200311953
 20
-125.0704019869616
 10
95.37781301869028
 20
-125.5106851899765
 10
95.37781301869028
 20
-125.5106851899765
 10
95.37781301869028
 20
-125.5106851899765
 10
95.77641056633368
 20
-125.314142492543
 10
95.77641056633368
 20
-125.314142492543
 10
95.92592771039352
 20
-125.2402451943844
 10
95.95900062705192
 20
-125.1062309800082
 10
95.89733341786595
 20
-124.9808295043451
 10
95.84669051423278
 20
-124.8785101684332
 10
95.72817922954019
 20
-124.7906602335593
 10
95.55902504121441
 20
-124.8738592895281
 97
        0
 97
        0
 75
     2
 76
     1
 98
        0
  0
POLYLINE
  5
4D
330
41
100
AcDbEntity
  8
_U+30EC_U+30A4_U+30E4_U+30FC 1
370
     0
100
AcDb2dPolyline
 66
     1
 10
0.0
 20
0.0
 30
0.0
  0
VERTEX
  5
4E
330
4D
100
AcDbEntity
  8
_U+30EC_U+30A4_U+30E4_U+30FC 1
370
     0
100
AcDbVertex
100
AcDb2dVertex
 10
96.51917315295354
 20
-125.3889010645729
 30
0.0
  0
VERTEX
  5
4F
330
4D
100
AcDbEntity
  8
_U+30EC_U+30A4_U+30E4_U+30FC 1
370
     0
100
AcDbVertex
100
AcDb2dVertex
 10
96.42374400801212
 20
-125.1954589530761
 30
0.0
  0
VERTEX
  5
50
330
4D
100
AcDbEntity
  8
_U+30EC_U+30A4_U+30E4_U+30FC 1
370
     0
100
AcDbVertex
100
AcDb2dVertex
 10
96.94946557906125
 20
-124.9363877725853
 30
0.0
  0
VERTEX
  5
51
330
4D
100
AcDbEntity
  8
_U+30EC_U+30A4_U+30E4_U+30FC 1
370
     0
100
AcDbVertex
100
AcDb2dVertex
 10
97.04489472400267
 20
-125.1296576293079
 30
0.0
  0
VERTEX
  5
52
330
4D
100
AcDbEntity
  8
_U+30EC_U+30A4_U+30E4_U+30FC 1
370
     0
100
AcDbVertex
100
AcDb2dVertex
 10
96.51917315295354
 20
-125.3889010645729
 30
0.0
  0
SEQEND
  5
53
330
4D
100
AcDbEntity
  8
_U+30EC_U+30A4_U+30E4_U+30FC 1
370
     0
  0
HATCH
  5
54
330
41
100
AcDbEntity
  8
_U+30EC_U+30A4_U+30E4_U+30FC 1
 62
   179
420
  2234388
100
AcDbHatch
 10
0.0
 20
0.0
 30
0.0
210
0.0
220
0.0
230
1.0
  2
SOLID
 70
     1
 71
     0
 91
        1
 92
        1
 93
        4
 72
     1
 10
96.51917315295354
 20
-125.3889010645729
 11
96.42374400801212
 21
-125.1954589530761
 72
     1
 10
96.42374400801212
 20
-125.1954589530761
 11
96.94946557906125
 21
-124.9363877725853
 72
     1
 10
96.94946557906125
 20
-124.9363877725853
 11
97.04489472400267
 21
-125.1296576293079
 72
     1
 10
97.04489472400267
 20
-125.1296576293079
 11
96.51917315295354
 21
-125.3889010645729
 97
        0
 75
     2
 76
     1
 98
        0
  0
SPLINE
  5
55
330
41
100
AcDbEntity
  8
_U+30EC_U+30A4_U+30E4_U+30FC 1
370
     0
100
AcDbSpline
210
0.0
220
0.0
230
1.0
 70
    11
 71
     3
 72
    62
 73
    58
 74
     0
 42
0.0000000001
 43
0.0000000001
 12
1.0
 22
0.0
 32
0.0
 13
1.0
 23
0.0
 33
0.0
 40
0.0
 40
0.0
 40
0.0
 40
0.0
 40
1.0
 40
1.0
 40
1.0
 40
2.0
 40
2.0
 40
2.0
 40
3.0
 40
3.0
 40
3.0
 40
4.0
 40
4.0
 40
4.0
 40
5.0
 40
5.0
 40
5.0
 40
6.0
 40
6.0
 40
6.0
 40
7.0
 40
7.0
 40
7.0
 40
8.0
 40
8.0
 40
8.0
 40
9.0
 40
9.0
 40
9.0
 40
10.0
 40
10.0
 40
10.0
 40
11.0
 40
11.0
 40
11.0
 40
12.0
 40
12.0
 40
12.0
 40
13.0
 40
13.0
 40
13.0
 40
14.0
 40
14.0
 40
14.0
 40
15.0
 40
15.0
 40
15.0
 40
16.0
 40
16.0
 40
16.0
 40
17.0
 40
17.0
 40
17.0
 40
18.0
 40
18.0
 40
18.0
 40
19.0
 40
19.0
 40
19.0
 40
19.0
 10
97.82073022728093
 20
-125.3012233844733
 30
0.0
 10
97.73529185924674
 20
-125.3432535493934
 30
0.0
 10
97.5306531874229
 20
-125.4207681978115
 30
0.0
 10
97.33634980205481
 20
-125.3091471040894
 30
0.0
 10
97.2205945937504
 20
-125.2411064682557
 30
0.0
 10
97.17270776650544
 20
-125.1541178072531
 30
0.0
 10
97.13171113023097
 20
-125.079875999546
 30
0.0
 10
97.13171113023097
 20
-125.079875999546
 30
0.0
 10
97.32877059198725
 20
-124.9825520520877
 30
0.0
 10
97.32877059198725
 20
-124.9825520520877
 30
0.0
 10
97.36356605638828
 20
-125.0481811210817
 30
0.0
 10
97.476909697853
 20
-125.2536810667769
 30
0.0
 10
97.73115774466444
 20
-125.128451845888
 30
0.0
 10
97.85449216303638
 20
-125.0676459105734
 30
0.0
 10
97.96025659443355
 20
-124.9377658107795
 30
0.0
 10
97.85931529671574
 20
-124.7331271389556
 30
0.0
 10
97.80763886443698
 20
-124.6287407457525
 30
0.0
 10
97.75182831757594
 20
-124.6018690009676
 30
0.0
 10
97.70945364310737
 20
-124.5873995999295
 30
0.0
 10
97.61023489313217
 20
-124.5536376641741
 30
0.0
 10
97.5003363471527
 20
-124.5939452813515
 30
0.0
 10
97.45107148171363
 20
-124.6182332045225
 30
0.0
 10
97.4341905138359
 20
-124.6266736884614
 30
0.0
 10
97.40249563537161
 20
-124.6442436754362
 30
0.0
 10
97.37975800516895
 20
-124.6600911146683
 30
0.0
 10
97.37975800516895
 20
-124.6600911146683
 30
0.0
 10
97.29363061803771
 20
-124.4854247735662
 30
0.0
 10
97.29363061803771
 20
-124.4854247735662
 30
0.0
 10
97.33049313972988
 20
-124.4747449775619
 30
0.0
 10
97.36942271871321
 20
-124.4576917549099
 30
0.0
 10
97.37527938103813
 20
-124.4547634237474
 30
0.0
 10
97.4341905138359
 20
-124.4258246216713
 30
0.0
 10
97.60300019261314
 20
-124.3188544068543
 30
0.0
 10
97.49826928986155
 20
-124.1066365249629
 30
0.0
 10
97.41972111279784
 20
-123.9471286039959
 30
0.0
 10
97.27778317880556
 20
-123.955741342709
 30
0.0
 10
97.17890893837888
 20
-124.004317189051
 30
0.0
 10
96.94188636899369
 20
-124.1212781807752
 30
0.0
 10
97.03731551393513
 20
-124.3340128269894
 30
0.0
 10
97.06522078736565
 20
-124.3999864055319
 30
0.0
 10
97.06522078736565
 20
-124.3999864055319
 30
0.0
 10
96.88297523619593
 20
-124.489903397697
 30
0.0
 10
96.88297523619593
 20
-124.489903397697
 30
0.0
 10
96.83543291849948
 20
-124.3744926989411
 30
0.0
 10
96.69349498450718
 20
-124.0244709976397
 30
0.0
 10
97.10346134725192
 20
-123.8224161474298
 30
0.0
 10
97.3046549235905
 20
-123.7231973974546
 30
0.0
 10
97.57681746692525
 20
-123.7306043527479
 30
0.0
 10
97.70773109536474
 20
-123.9958767051122
 30
0.0
 10
97.79041338701073
 20
-124.1629638361468
 30
0.0
 10
97.74149303112019
 20
-124.2790635539997
 30
0.0
 10
97.67948131238569
 20
-124.3779377944264
 30
0.0
 10
97.74666067434806
 20
-124.3755262275867
 30
0.0
 10
97.94544268384698
 20
-124.3672579984221
 30
0.0
 10
98.06808808312186
 20
-124.6156493829086
 30
0.0
 10
98.21760522718172
 20
-124.9191622951591
 30
0.0
 10
98.06946612131597
 20
-125.1785779851984
 30
0.0
 10
97.82073022728093
 20
-125.3012233844733
 30
0.0
  0
HATCH
  5
56
330
41
100
AcDbEntity
  8
_U+30EC_U+30A4_U+30E4_U+30FC 1
 62
   179
420
  2234388
100
AcDbHatch
 10
0.0
 20
0.0
 30
0.0
210
0.0
220
0.0
230
1.0
  2
SOLID
 70
     1
 71
     0
 91
        1
 92
        1
 93
        1
 72
     4
 94
        3
 73
     0
 74
     1
 95
       62
 96
       58
 40
0.0
 40
0.0
 40
0.0
 40
0.0
 40
1.0
 40
1.0
 40
1.0
 40
2.0
 40
2.0
 40
2.0
 40
3.0
 40
3.0
 40
3.0
 40
4.0
 40
4.0
 40
4.0
 40
5.0
 40
5.0
 40
5.0
 40
6.0
 40
6.0
 40
6.0
 40
7.0
 40
7.0
 40
7.0
 40
8.0
 40
8.0
 40
8.0
 40
9.0
 40
9.0
 40
9.0
 40
10.0
 40
10.0
 40
10.0
 40
11.0
 40
11.0
 40
11.0
 40
12.0
 40
12.0
 40
12.0
 40
13.0
 40
13.0
 40
13.0
 40
14.0
 40
14.0
 40
14.0
 40
15.0
 40
15.0
 40
15.0
 40
16.0
 40
16.0
 40
16.0
 40
17.0
 40
17.0
 40
17.0
 40
18.0
 40
18.0
 40
18.0
 40
19.0
 40
19.0
 40
19.0
 40
19.0
 10
97.82073022728093
 20
-125.3012233844733
 10
97.73529185924674
 20
-125.3432535493934
 10
97.5306531874229
 20
-125.4207681978115
 10
97.33634980205481
 20
-125.3091471040894
 10
97.2205945937504
 20
-125.2411064682557
 10
97.17270776650544
 20
-125.1541178072531
 10
97.13171113023097
 20
-125.079875999546
 10
97.13171113023097
 20
-125.079875999546
 10
97.32877059198725
 20
-124.9825520520877
 10
97.32877059198725
 20
-124.9825520520877
 10
97.36356605638828
 20
-125.0481811210817
 10
97.476909697853
 20
-125.2536810667769
 10
97.73115774466444
 20
-125.128451845888
 10
97.85449216303638
 20
-125.0676459105734
 10
97.96025659443355
 20
-124.9377658107795
 10
97.85931529671574
 20
-124.7331271389556
 10
97.80763886443698
 20
-124.6287407457525
 10
97.75182831757594
 20
-124.6018690009676
 10
97.70945364310737
 20
-124.5873995999295
 10
97.61023489313217
 20
-124.5536376641741
 10
97.5003363471527
 20
-124.5939452813515
 10
97.45107148171363
 20
-124.6182332045225
 10
97.4341905138359
 20
-124.6266736884614
 10
97.40249563537161
 20
-124.6442436754362
 10
97.37975800516895
 20
-124.6600911146683
 10
97.37975800516895
 20
-124.6600911146683
 10
97.29363061803771
 20
-124.4854247735662
 10
97.29363061803771
 20
-124.4854247735662
 10
97.33049313972988
 20
-124.4747449775619
 10
97.36942271871321
 20
-124.4576917549099
 10
97.37527938103813
 20
-124.4547634237474
 10
97.4341905138359
 20
-124.4258246216713
 10
97.60300019261314
 20
-124.3188544068543
 10
97.49826928986155
 20
-124.1066365249629
 10
97.41972111279784
 20
-123.9471286039959
 10
97.27778317880556
 20
-123.955741342709
 10
97.17890893837888
 20
-124.004317189051
 10
96.94188636899369
 20
-124.1212781807752
 10
97.03731551393513
 20
-124.3340128269894
 10
97.06522078736565
 20
-124.3999864055319
 10
97.06522078736565
 20
-124.3999864055319
 10
96.88297523619593
 20
-124.489903397697
 10
96.88297523619593
 20
-124.489903397697
 10
96.83543291849948
 20
-124.3744926989411
 10
96.69349498450718
 20
-124.0244709976397
 10
97.10346134725192
 20
-123.8224161474298
 10
97.3046549235905
 20
-123.7231973974546
 10
97.57681746692525
 20
-123.7306043527479
 10
97.70773109536474
 20
-123.9958767051122
 10
97.79041338701073
 20
-124.1629638361468
 10
97.74149303112019
 20
-124.2790635539997
 10
97.67948131238569
 20
-124.3779377944264
 10
97.74666067434806
 20
-124.3755262275867
 10
97.94544268384698
 20
-124.3672579984221
 10
98.06808808312186
 20
-124.6156493829086
 10
98.21760522718172
 20
-124.9191622951591
 10
98.06946612131597
 20
-125.1785779851984
 10
97.82073022728093
 20
-125.3012233844733
 97
        0
 97
        0
 75
     2
 76
     1
 98
        0
  0
SPLINE
  5
57
330
41
100
AcDbEntity
  8
_U+30EC_U+30A4_U+30E4_U+30FC 1
370
     0
100
AcDbSpline
210
0.0
220
0.0
230
1.0
 70
    11
 71
     3
 72
    29
 73
    25
 74
     0
 42
0.0000000001
 43
0.0000000001
 12
1.0
 22
0.0
 32
0.0
 13
1.0
 23
0.0
 33
0.0
 40
0.0
 40
0.0
 40
0.0
 40
0.0
 40
1.0
 40
1.0
 40
1.0
 40
2.0
 40
2.0
 40
2.0
 40
3.0
 40
3.0
 40
3.0
 40
4.0
 40
4.0
 40
4.0
 40
5.0
 40
5.0
 40
5.0
 40
6.0
 40
6.0
 40
6.0
 40
7.0
 40
7.0
 40
7.0
 40
8.0
 40
8.0
 40
8.0
 40
8.0
 10
99.13951277903458
 20
-124.3961968004982
 30
0.0
 10
99.13537866445228
 20
-124.631669076915
 30
0.0
 10
98.98861759678063
 20
-124.7255479288881
 30
0.0
 10
98.88388669402903
 20
-124.7768798516183
 30
0.0
 10
98.73988170274559
 20
-124.8480210733887
 30
0.0
 10
98.59208710642837
 20
-124.8690361558487
 30
0.0
 10
98.42637801358785
 20
-124.7479410495422
 30
0.0
 10
98.24723304835486
 20
-124.6190944783938
 30
0.0
 10
98.12527666817702
 20
-124.4154893352156
 30
0.0
 10
98.0532741725353
 20
-124.2690727770925
 30
0.0
 10
97.98953990605817
 20
-124.1402262059441
 30
0.0
 10
97.89342174201971
 20
-123.9066487320442
 30
0.0
 10
97.9003119329902
 20
-123.6816839968574
 30
0.0
 10
97.90754663350923
 20
-123.4518961279912
 30
0.0
 10
98.04121633833692
 20
-123.359912078535
 30
0.0
 10
98.15697154664132
 20
-123.3027234934799
 30
0.0
 10
98.29925399018214
 20
-123.232615800355
 30
0.0
 10
98.4477376055964
 20
-123.2086723867326
 30
0.0
 10
98.61379120798544
 20
-123.3297674930391
 30
0.0
 10
98.78811303953908
 20
-123.4586140641874
 30
0.0
 10
98.91006941971693
 20
-123.6530897043298
 30
0.0
 10
98.986895049038
 20
-123.8088080202631
 30
0.0
 10
99.06234264016497
 20
-123.9624592789052
 30
0.0
 10
99.14571395090802
 20
-124.1784667658304
 30
0.0
 10
99.13951277903458
 20
-124.3961968004982
 30
0.0
  0
SPLINE
  5
58
330
41
100
AcDbEntity
  8
_U+30EC_U+30A4_U+30E4_U+30FC 1
370
     0
100
AcDbSpline
210
0.0
220
0.0
230
1.0
 70
    11
 71
     3
 72
    17
 73
    13
 74
     0
 42
0.0000000001
 43
0.0000000001
 12
1.0
 22
0.0
 32
0.0
 13
1.0
 23
0.0
 33
0.0
 40
0.0
 40
0.0
 40
0.0
 40
0.0
 40
1.0
 40
1.0
 40
1.0
 40
2.0
 40
2.0
 40
2.0
 40
3.0
 40
3.0
 40
3.0
 40
4.0
 40
4.0
 40
4.0
 40
4.0
 10
98.242065405127
 20
-123.4756672868394
 30
0.0
 10
98.01847870813427
 20
-123.5859103423674
 30
0.0
 10
98.10185001887731
 20
-123.8608289620904
 30
0.0
 10
98.25446774887389
 20
-124.1698540271173
 30
0.0
 10
98.39571666376914
 20
-124.4564859714901
 30
0.0
 10
98.56452634254637
 20
-124.7172796997235
 30
0.0
 10
98.79775930689779
 20
-124.6022135105161
 30
0.0
 10
99.01962345614788
 20
-124.4928317288594
 30
0.0
 10
98.93900822179303
 20
-124.2191188925563
 30
0.0
 10
98.78570147269942
 20
-123.9080267702383
 30
0.0
 10
98.64445255780417
 20
-123.6213948258655
 30
0.0
 10
98.47357582173578
 20
-123.3614623715034
 30
0.0
 10
98.242065405127
 20
-123.4756672868394
 30
0.0
  0
HATCH
  5
59
330
41
100
AcDbEntity
  8
_U+30EC_U+30A4_U+30E4_U+30FC 1
 62
   179
420
  2234388
100
AcDbHatch
 10
0.0
 20
0.0
 30
0.0
210
0.0
220
0.0
230
1.0
  2
SOLID
 70
     1
 71
     0
 91
        2
 92
        1
 93
        1
 72
     4
 94
        3
 73
     0
 74
     1
 95
       29
 96
       25
 40
0.0
 40
0.0
 40
0.0
 40
0.0
 40
1.0
 40
1.0
 40
1.0
 40
2.0
 40
2.0
 40
2.0
 40
3.0
 40
3.0
 40
3.0
 40
4.0
 40
4.0
 40
4.0
 40
5.0
 40
5.0
 40
5.0
 40
6.0
 40
6.0
 40
6.0
 40
7.0
 40
7.0
 40
7.0
 40
8.0
 40
8.0
 40
8.0
 40
8.0
 10
99.13951277903458
 20
-124.3961968004982
 10
99.13537866445228
 20
-124.631669076915
 10
98.98861759678063
 20
-124.7255479288881
 10
98.88388669402903
 20
-124.7768798516183
 10
98.73988170274559
 20
-124.8480210733887
 10
98.59208710642837
 20
-124.8690361558487
 10
98.42637801358785
 20
-124.7479410495422
 10
98.24723304835486
 20
-124.6190944783938
 10
98.12527666817702
 20
-124.4154893352156
 10
98.0532741725353
 20
-124.2690727770925
 10
97.98953990605817
 20
-124.1402262059441
 10
97.89342174201971
 20
-123.9066487320442
 10
97.9003119329902
 20
-123.6816839968574
 10
97.90754663350923
 20
-123.4518961279912
 10
98.04121633833692
 20
-123.359912078535
 10
98.15697154664132
 20
-123.3027234934799
 10
98.29925399018214
 20
-123.232615800355
 10
98.4477376055964
 20
-123.2086723867326
 10
98.61379120798544
 20
-123.3297674930391
 10
98.78811303953908
 20
-123.4586140641874
 10
98.91006941971693
 20
-123.6530897043298
 10
98.986895049038
 20
-123.8088080202631
 10
99.06234264016497
 20
-123.9624592789052
 10
99.14571395090802
 20
-124.1784667658304
 10
99.13951277903458
 20
-124.3961968004982
 97
        0
 97
        0
 92
        1
 93
        1
 72
     4
 94
        3
 73
     0
 74
     1
 95
       17
 96
       13
 40
0.0
 40
0.0
 40
0.0
 40
0.0
 40
1.0
 40
1.0
 40
1.0
 40
2.0
 40
2.0
 40
2.0
 40
3.0
 40
3.0
 40
3.0
 40
4.0
 40
4.0
 40
4.0
 40
4.0
 10
98.242065405127
 20
-123.4756672868394
 10
98.01847870813427
 20
-123.5859103423674
 10
98.10185001887731
 20
-123.8608289620904
 10
98.25446774887389
 20
-124.1698540271173
 10
98.39571666376914
 20
-124.4564859714901
 10
98.56452634254637
 20
-124.7172796997235
 10
98.79775930689779
 20
-124.6022135105161
 10
99.01962345614788
 20
-124.4928317288594
 10
98.93900822179303
 20
-124.2191188925563
 10
98.78570147269942
 20
-123.9080267702383
 10
98.64445255780417
 20
-123.6213948258655
 10
98.47357582173578
 20
-123.3614623715034
 10
98.242065405127
 20
-123.4756672868394
 97
        0
 97
        0
 75
     2
 76
     1
 98
        0
  0
POLYLINE
  5
5A
330
41
100
AcDbEntity
  8
_U+30EC_U+30A4_U+30E4_U+30FC 1
370
     0
100
AcDb2dPolyline
 66
     1
 10
0.0
 20
0.0
 30
0.0
  0
VERTEX
  5
5B
330
5A
100
AcDbEntity
  8
_U+30EC_U+30A4_U+30E4_U+30FC 1
370
     0
100
AcDbVertex
100
AcDb2dVertex
 10
100.4462374965898
 20
-123.9500569351583
 30
0.0
  0
VERTEX
  5
5C
330
5A
100
AcDbEntity
  8
_U+30EC_U+30A4_U+30E4_U+30FC 1
370
     0
100
AcDbVertex
100
AcDb2dVertex
 10
100.1348008647232
 20
-123.3182264231635
 30
0.0
  0
VERTEX
  5
5D
330
5A
100
AcDbEntity
  8
_U+30EC_U+30A4_U+30E4_U+30FC 1
370
     0
100
AcDbVertex
100
AcDb2dVertex
 10
99.46335175464806
 20
-123.649300099296
 30
0.0
  0
VERTEX
  5
5E
330
5A
100
AcDbEntity
  8
_U+30EC_U+30A4_U+30E4_U+30FC 1
370
     0
100
AcDbVertex
100
AcDb2dVertex
 10
99.77478838651464
 20
-124.2811306112908
 30
0.0
  0
VERTEX
  5
5F
330
5A
100
AcDbEntity
  8
_U+30EC_U+30A4_U+30E4_U+30FC 1
370
     0
100
AcDbVertex
100
AcDb2dVertex
 10
99.56394854281736
 20
-124.3850002401711
 30
0.0
  0
VERTEX
  5
60
330
5A
100
AcDbEntity
  8
_U+30EC_U+30A4_U+30E4_U+30FC 1
370
     0
100
AcDbVertex
100
AcDb2dVertex
 10
98.88113061764084
 20
-122.9998996003264
 30
0.0
  0
VERTEX
  5
61
330
5A
100
AcDbEntity
  8
_U+30EC_U+30A4_U+30E4_U+30FC 1
370
     0
100
AcDbVertex
100
AcDb2dVertex
 10
99.09197046133812
 20
-122.8958577166719
 30
0.0
  0
VERTEX
  5
62
330
5A
100
AcDbEntity
  8
_U+30EC_U+30A4_U+30E4_U+30FC 1
370
     0
100
AcDbVertex
100
AcDb2dVertex
 10
99.36964515744926
 20
-123.4594753380588
 30
0.0
  0
VERTEX
  5
63
330
5A
100
AcDbEntity
  8
_U+30EC_U+30A4_U+30E4_U+30FC 1
370
     0
100
AcDbVertex
100
AcDb2dVertex
 10
100.0410942675245
 20
-123.1284016619262
 30
0.0
  0
VERTEX
  5
64
330
5A
100
AcDbEntity
  8
_U+30EC_U+30A4_U+30E4_U+30FC 1
370
     0
100
AcDbVertex
100
AcDb2dVertex
 10
99.7630750618648
 20
-122.5647840405394
 30
0.0
  0
VERTEX
  5
65
330
5A
100
AcDbEntity
  8
_U+30EC_U+30A4_U+30E4_U+30FC 1
370
     0
100
AcDbVertex
100
AcDb2dVertex
 10
99.97391490556208
 20
-122.4609144116591
 30
0.0
  0
VERTEX
  5
66
330
5A
100
AcDbEntity
  8
_U+30EC_U+30A4_U+30E4_U+30FC 1
370
     0
100
AcDbVertex
100
AcDb2dVertex
 10
100.6570773402871
 20
-123.8460150515038
 30
0.0
  0
VERTEX
  5
67
330
5A
100
AcDbEntity
  8
_U+30EC_U+30A4_U+30E4_U+30FC 1
370
     0
100
AcDbVertex
100
AcDb2dVertex
 10
100.4462374965898
 20
-123.9500569351583
 30
0.0
  0
SEQEND
  5
68
330
5A
100
AcDbEntity
  8
_U+30EC_U+30A4_U+30E4_U+30FC 1
370
     0
  0
HATCH
  5
69
330
41
100
AcDbEntity
  8
_U+30EC_U+30A4_U+30E4_U+30FC 1
 62
   179
420
  2234388
100
AcDbHatch
 10
0.0
 20
0.0
 30
0.0
210
0.0
220
0.0
230
1.0
  2
SOLID
 70
     1
 71
     0
 91
        1
 92
        1
 93
       12
 72
     1
 10
100.4462374965898
 20
-123.9500569351583
 11
100.1348008647232
 21
-123.3182264231635
 72
     1
 10
100.1348008647232
 20
-123.3182264231635
 11
99.46335175464806
 21
-123.649300099296
 72
     1
 10
99.46335175464806
 20
-123.649300099296
 11
99.77478838651464
 21
-124.2811306112908
 72
     1
 10
99.77478838651464
 20
-124.2811306112908
 11
99.56394854281736
 21
-124.3850002401711
 72
     1
 10
99.56394854281736
 20
-124.3850002401711
 11
98.88113061764084
 21
-122.9998996003264
 72
     1
 10
98.88113061764084
 20
-122.9998996003264
 11
99.09197046133812
 21
-122.8958577166719
 72
     1
 10
99.09197046133812
 20
-122.8958577166719
 11
99.36964515744926
 21
-123.4594753380588
 72
     1
 10
99.36964515744926
 20
-123.4594753380588
 11
100.0410942675245
 21
-123.1284016619262
 72
     1
 10
100.0410942675245
 20
-123.1284016619262
 11
99.7630750618648
 21
-122.5647840405394
 72
     1
 10
99.7630750618648
 20
-122.5647840405394
 11
99.97391490556208
 21
-122.4609144116591
 72
     1
 10
99.97391490556208
 20
-122.4609144116591
 11
100.6570773402871
 21
-123.8460150515038
 72
     1
 10
100.6570773402871
 20
-123.8460150515038
 11
100.4462374965898
 21
-123.9500569351583
 97
        0
 75
     2
 76
     1
 98
        0
  0
SPLINE
  5
6A
330
41
100
AcDbEntity
  8
_U+30EC_U+30A4_U+30E4_U+30FC 1
370
     0
100
AcDbSpline
210
0.0
220
0.0
230
1.0
 70
    11
 71
     3
 72
    26
 73
    22
 74
     0
 42
0.0000000001
 43
0.0000000001
 12
1.0
 22
0.0
 32
0.0
 13
1.0
 23
0.0
 33
0.0
 40
0.0
 40
0.0
 40
0.0
 40
0.0
 40
1.0
 40
1.0
 40
1.0
 40
2.0
 40
2.0
 40
2.0
 40
3.0
 40
3.0
 40
3.0
 40
4.0
 40
4.0
 40
4.0
 40
5.0
 40
5.0
 40
5.0
 40
6.0
 40
6.0
 40
6.0
 40
7.0
 40
7.0
 40
7.0
 40
7.0
 10
101.6158474138322
 20
-123.3731756961532
 30
0.0
 10
101.6158474138322
 20
-123.3731756961532
 30
0.0
 10
101.0050319842974
 20
-123.6744492963383
 30
0.0
 10
101.0050319842974
 20
-123.6744492963383
 30
0.0
 10
101.0050319842974
 20
-123.6744492963383
 30
0.0
 10
100.3218695495723
 20
-122.2893486564936
 30
0.0
 10
100.3218695495723
 20
-122.2893486564936
 30
0.0
 10
100.3218695495723
 20
-122.2893486564936
 30
0.0
 10
100.9213161640058
 20
-121.9937594638592
 30
0.0
 10
100.9213161640058
 20
-121.9937594638592
 30
0.0
 10
101.1128634729857
 20
-121.8991915927891
 30
0.0
 10
101.3533311378561
 20
-121.9034979621457
 30
0.0
 10
101.4725314416458
 20
-122.1444823913389
 30
0.0
 10
101.5772623443974
 20
-122.3567002732303
 30
0.0
 10
101.4628851742871
 20
-122.4934705639947
 30
0.0
 10
101.4149983470421
 20
-122.5499701299528
 30
0.0
 10
101.4849337853927
 20
-122.5341226907206
 30
0.0
 10
101.7160996924529
 20
-122.4864081182499
 30
0.0
 10
101.8508029259262
 20
-122.7596041902302
 30
0.0
 10
101.9527777522896
 20
-122.9664821741195
 30
0.0
 10
101.9062689632387
 20
-123.2300319787411
 30
0.0
 10
101.6158474138322
 20
-123.3731756961532
 30
0.0
  0
SPLINE
  5
6B
330
41
100
AcDbEntity
  8
_U+30EC_U+30A4_U+30E4_U+30FC 1
370
     0
100
AcDbSpline
210
0.0
220
0.0
230
1.0
 70
    11
 71
     3
 72
    20
 73
    16
 74
     0
 42
0.0000000001
 43
0.0000000001
 12
1.0
 22
0.0
 32
0.0
 13
1.0
 23
0.0
 33
0.0
 40
0.0
 40
0.0
 40
0.0
 40
0.0
 40
1.0
 40
1.0
 40
1.0
 40
2.0
 40
2.0
 40
2.0
 40
3.0
 40
3.0
 40
3.0
 40
4.0
 40
4.0
 40
4.0
 40
5.0
 40
5.0
 40
5.0
 40
5.0
 10
100.952322023373
 20
-122.2140733201409
 30
0.0
 10
100.952322023373
 20
-122.2140733201409
 30
0.0
 10
100.6260714809199
 20
-122.3749592793021
 30
0.0
 10
100.6260714809199
 20
-122.3749592793021
 30
0.0
 10
100.6260714809199
 20
-122.3749592793021
 30
0.0
 10
100.8103840893807
 20
-122.7490966490002
 30
0.0
 10
100.8103840893807
 20
-122.7490966490002
 30
0.0
 10
100.8103840893807
 20
-122.7490966490002
 30
0.0
 10
101.1366346318339
 20
-122.5882106898391
 30
0.0
 10
101.1366346318339
 20
-122.5882106898391
 30
0.0
 10
101.262036107497
 20
-122.5265434806531
 30
0.0
 10
101.338172717721
 20
-122.4274969854522
 30
0.0
 10
101.2699598271131
 20
-122.2890041469451
 30
0.0
 10
101.1958902741802
 20
-122.1391424933367
 30
0.0
 10
101.0567084165761
 20
-122.1627413974107
 30
0.0
 10
100.952322023373
 20
-122.2140733201409
 30
0.0
  0
SPLINE
  5
6C
330
41
100
AcDbEntity
  8
_U+30EC_U+30A4_U+30E4_U+30FC 1
370
     0
100
AcDbSpline
210
0.0
220
0.0
230
1.0
 70
    11
 71
     3
 72
    20
 73
    16
 74
     0
 42
0.0000000001
 43
0.0000000001
 12
1.0
 22
0.0
 32
0.0
 13
1.0
 23
0.0
 33
0.0
 40
0.0
 40
0.0
 40
0.0
 40
0.0
 40
1.0
 40
1.0
 40
1.0
 40
2.0
 40
2.0
 40
2.0
 40
3.0
 40
3.0
 40
3.0
 40
4.0
 40
4.0
 40
4.0
 40
5.0
 40
5.0
 40
5.0
 40
5.0
 10
101.2775390371806
 20
-122.7546088017766
 30
0.0
 10
101.2775390371806
 20
-122.7546088017766
 30
0.0
 10
100.9040906865795
 20
-122.938576900689
 30
0.0
 10
100.9040906865795
 20
-122.938576900689
 30
0.0
 10
100.9040906865795
 20
-122.938576900689
 30
0.0
 10
101.1221652307959
 20
-123.3809271609951
 30
0.0
 10
101.1221652307959
 20
-123.3809271609951
 30
0.0
 10
101.1221652307959
 20
-123.3809271609951
 30
0.0
 10
101.4956135813969
 20
-123.1966145525342
 30
0.0
 10
101.4956135813969
 20
-123.1966145525342
 30
0.0
 10
101.6382405344863
 20
-123.1263346046351
 30
0.0
 10
101.696462648187
 20
-122.9961099952926
 30
0.0
 10
101.6261827002879
 20
-122.8538275517518
 30
0.0
 10
101.5655490197475
 20
-122.7304931333799
 30
0.0
 10
101.4332573531139
 20
-122.6777831724556
 30
0.0
 10
101.2775390371806
 20
-122.7546088017766
 30
0.0
  0
HATCH
  5
6D
330
41
100
AcDbEntity
  8
_U+30EC_U+30A4_U+30E4_U+30FC 1
 62
   179
420
  2234388
100
AcDbHatch
 10
0.0
 20
0.0
 30
0.0
210
0.0
220
0.0
230
1.0
  2
SOLID
 70
     1
 71
     0
 91
        3
 92
        1
 93
        1
 72
     4
 94
        3
 73
     0
 74
     1
 95
       26
 96
       22
 40
0.0
 40
0.0
 40
0.0
 40
0.0
 40
1.0
 40
1.0
 40
1.0
 40
2.0
 40
2.0
 40
2.0
 40
3.0
 40
3.0
 40
3.0
 40
4.0
 40
4.0
 40
4.0
 40
5.0
 40
5.0
 40
5.0
 40
6.0
 40
6.0
 40
6.0
 40
7.0
 40
7.0
 40
7.0
 40
7.0
 10
101.6158474138322
 20
-123.3731756961532
 10
101.6158474138322
 20
-123.3731756961532
 10
101.0050319842974
 20
-123.6744492963383
 10
101.0050319842974
 20
-123.6744492963383
 10
101.0050319842974
 20
-123.6744492963383
 10
100.3218695495723
 20
-122.2893486564936
 10
100.3218695495723
 20
-122.2893486564936
 10
100.3218695495723
 20
-122.2893486564936
 10
100.9213161640058
 20
-121.9937594638592
 10
100.9213161640058
 20
-121.9937594638592
 10
101.1128634729857
 20
-121.8991915927891
 10
101.3533311378561
 20
-121.9034979621457
 10
101.4725314416458
 20
-122.1444823913389
 10
101.5772623443974
 20
-122.3567002732303
 10
101.4628851742871
 20
-122.4934705639947
 10
101.4149983470421
 20
-122.5499701299528
 10
101.4849337853927
 20
-122.5341226907206
 10
101.7160996924529
 20
-122.4864081182499
 10
101.8508029259262
 20
-122.7596041902302
 10
101.9527777522896
 20
-122.9664821741195
 10
101.9062689632387
 20
-123.2300319787411
 10
101.6158474138322
 20
-123.3731756961532
 97
        0
 97
        0
 92
        1
 93
        1
 72
     4
 94
        3
 73
     0
 74
     1
 95
       20
 96
       16
 40
0.0
 40
0.0
 40
0.0
 40
0.0
 40
1.0
 40
1.0
 40
1.0
 40
2.0
 40
2.0
 40
2.0
 40
3.0
 40
3.0
 40
3.0
 40
4.0
 40
4.0
 40
4.0
 40
5.0
 40
5.0
 40
5.0
 40
5.0
 10
100.952322023373
 20
-122.2140733201409
 10
100.952322023373
 20
-122.2140733201409
 10
100.6260714809199
 20
-122.3749592793021
 10
100.6260714809199
 20
-122.3749592793021
 10
100.6260714809199
 20
-122.3749592793021
 10
100.8103840893807
 20
-122.7490966490002
 10
100.8103840893807
 20
-122.7490966490002
 10
100.8103840893807
 20
-122.7490966490002
 10
101.1366346318339
 20
-122.5882106898391
 10
101.1366346318339
 20
-122.5882106898391
 10
101.262036107497
 20
-122.5265434806531
 10
101.338172717721
 20
-122.4274969854522
 10
101.2699598271131
 20
-122.2890041469451
 10
101.1958902741802
 20
-122.1391424933367
 10
101.0567084165761
 20
-122.1627413974107
 10
100.952322023373
 20
-122.2140733201409
 97
        0
 97
        0
 92
        1
 93
        1
 72
     4
 94
        3
 73
     0
 74
     1
 95
       20
 96
       16
 40
0.0
 40
0.0
 40
0.0
 40
0.0
 40
1.0
 40
1.0
 40
1.0
 40
2.0
 40
2.0
 40
2.0
 40
3.0
 40
3.0
 40
3.0
 40
4.0
 40
4.0
 40
4.0
 40
5.0
 40
5.0
 40
5.0
 40
5.0
 10
101.2775390371806
 20
-122.7546088017766
 10
101.2775390371806
 20
-122.7546088017766
 10
100.9040906865795
 20
-122.938576900689
 10
100.9040906865795
 20
-122.938576900689
 10
100.9040906865795
 20
-122.938576900689
 10
101.1221652307959
 20
-123.3809271609951
 10
101.1221652307959
 20
-123.3809271609951
 10
101.1221652307959
 20
-123.3809271609951
 10
101.4956135813969
 20
-123.1966145525342
 10
101.4956135813969
 20
-123.1966145525342
 10
101.6382405344863
 20
-123.1263346046351
 10
101.696462648187
 20
-122.9961099952926
 10
101.6261827002879
 20
-122.8538275517518
 10
101.5655490197475
 20
-122.7304931333799
 10
101.4332573531139
 20
-122.6777831724556
 10
101.2775390371806
 20
-122.7546088017766
 97
        0
 97
        0
 75
     2
 76
     1
 98
        0
  0
ENDBLK
  5
44
330
41
100
AcDbEntity
  8
0
100
AcDbBlockEnd
  0
BLOCK
  5
70
330
6E
100
AcDbEntity
  8
0
100
AcDbBlockBegin
  2
block 3
 70
     0
 10
0.0
 20
0.0
 30
0.0
  3
block 3
  1

  0
SPLINE
  5
72
330
6E
100
AcDbEntity
  8
_U+30EC_U+30A4_U+30E4_U+30FC 1
370
     0
100
AcDbSpline
210
0.0
220
0.0
230
1.0
 70
    11
 71
     3
 72
    38
 73
    34
 74
     0
 42
0.0000000001
 43
0.0000000001
 12
1.0
 22
0.0
 32
0.0
 13
1.0
 23
0.0
 33
0.0
 40
0.0
 40
0.0
 40
0.0
 40
0.0
 40
1.0
 40
1.0
 40
1.0
 40
2.0
 40
2.0
 40
2.0
 40
3.0
 40
3.0
 40
3.0
 40
4.0
 40
4.0
 40
4.0
 40
5.0
 40
5.0
 40
5.0
 40
6.0
 40
6.0
 40
6.0
 40
7.0
 40
7.0
 40
7.0
 40
8.0
 40
8.0
 40
8.0
 40
9.0
 40
9.0
 40
9.0
 40
10.0
 40
10.0
 40
10.0
 40
11.0
 40
11.0
 40
11.0
 40
11.0
 10
80.51480982145117
 20
-123.5411241010592
 30
0.0
 10
80.09743650341315
 20
-123.3354519005898
 30
0.0
 10
80.01165362583042
 20
-122.8875894875073
 30
0.0
 10
80.21939288359098
 20
-122.4662543096612
 30
0.0
 10
80.45159231929682
 20
-121.9956542663761
 30
0.0
 10
80.88498533134126
 20
-121.891267873173
 30
0.0
 10
81.25119898142331
 20
-122.0717908766001
 30
0.0
 10
81.56056855599876
 20
-122.2240640970482
 30
0.0
 10
81.72593313929075
 20
-122.5158636846488
 30
0.0
 10
81.60449352343569
 20
-122.8097303295406
 30
0.0
 10
81.60449352343569
 20
-122.8097303295406
 30
0.0
 10
81.39761553954644
 20
-122.7077555031772
 30
0.0
 10
81.39761553954644
 20
-122.7077555031772
 30
0.0
 10
81.4551486341501
 20
-122.504839379096
 30
0.0
 10
81.29460718453747
 20
-122.3336181334791
 30
0.0
 10
81.15025768370549
 20
-122.2623046569344
 30
0.0
 10
81.05741236037801
 20
-122.2164848869806
 30
0.0
 10
80.93872882091115
 20
-122.193747256778
 30
0.0
 10
80.82159557441265
 20
-122.2209635111114
 30
0.0
 10
80.62143552671965
 20
-122.26333818558
 30
0.0
 10
80.49930689176753
 20
-122.4438611890071
 30
0.0
 10
80.42902694386844
 20
-122.5861436325479
 30
0.0
 10
80.2345513037261
 20
-122.980607065609
 30
0.0
 10
80.4140407785076
 20
-123.2486354943615
 30
0.0
 10
80.60731063523012
 20
-123.3440646393029
 30
0.0
 10
80.73064505360206
 20
-123.4046983198433
 30
0.0
 10
81.00900876881025
 20
-123.4525851470882
 30
0.0
 10
81.17799070236175
 20
-123.1818006419476
 30
0.0
 10
81.17799070236175
 20
-123.1818006419476
 30
0.0
 10
81.38469643147674
 20
-123.283775468311
 30
0.0
 10
81.38469643147674
 20
-123.283775468311
 30
0.0
 10
81.31355520970634
 20
-123.3995306766154
 30
0.0
 10
81.05741236037801
 20
-123.8088080202631
 30
0.0
 10
80.51480982145117
 20
-123.5411241010592
 30
0.0
  0
HATCH
  5
73
330
6E
100
AcDbEntity
  8
_U+30EC_U+30A4_U+30E4_U+30FC 1
 62
   179
420
  2234388
100
AcDbHatch
 10
0.0
 20
0.0
 30
0.0
210
0.0
220
0.0
230
1.0
  2
SOLID
 70
     1
 71
     0
 91
        1
 92
        1
 93
        1
 72
     4
 94
        3
 73
     0
 74
     1
 95
       38
 96
       34
 40
0.0
 40
0.0
 40
0.0
 40
0.0
 40
1.0
 40
1.0
 40
1.0
 40
2.0
 40
2.0
 40
2.0
 40
3.0
 40
3.0
 40
3.0
 40
4.0
 40
4.0
 40
4.0
 40
5.0
 40
5.0
 40
5.0
 40
6.0
 40
6.0
 40
6.0
 40
7.0
 40
7.0
 40
7.0
 40
8.0
 40
8.0
 40
8.0
 40
9.0
 40
9.0
 40
9.0
 40
10.0
 40
10.0
 40
10.0
 40
11.0
 40
11.0
 40
11.0
 40
11.0
 10
80.51480982145117
 20
-123.5411241010592
 10
80.09743650341315
 20
-123.3354519005898
 10
80.01165362583042
 20
-122.8875894875073
 10
80.21939288359098
 20
-122.4662543096612
 10
80.45159231929682
 20
-121.9956542663761
 10
80.88498533134126
 20
-121.891267873173
 10
81.25119898142331
 20
-122.0717908766001
 10
81.56056855599876
 20
-122.2240640970482
 10
81.72593313929075
 20
-122.5158636846488
 10
81.60449352343569
 20
-122.8097303295406
 10
81.60449352343569
 20
-122.8097303295406
 10
81.39761553954644
 20
-122.7077555031772
 10
81.39761553954644
 20
-122.7077555031772
 10
81.4551486341501
 20
-122.504839379096
 10
81.29460718453747
 20
-122.3336181334791
 10
81.15025768370549
 20
-122.2623046569344
 10
81.05741236037801
 20
-122.2164848869806
 10
80.93872882091115
 20
-122.193747256778
 10
80.82159557441265
 20
-122.2209635111114
 10
80.62143552671965
 20
-122.26333818558
 10
80.49930689176753
 20
-122.4438611890071
 10
80.42902694386844
 20
-122.5861436325479
 10
80.2345513037261
 20
-122.980607065609
 10
80.4140407785076
 20
-123.2486354943615
 10
80.60731063523012
 20
-123.3440646393029
 10
80.73064505360206
 20
-123.4046983198433
 10
81.00900876881025
 20
-123.4525851470882
 10
81.17799070236175
 20
-123.1818006419476
 10
81.17799070236175
 20
-123.1818006419476
 10
81.38469643147674
 20
-123.283775468311
 10
81.38469643147674
 20
-123.283775468311
 10
81.31355520970634
 20
-123.3995306766154
 10
81.05741236037801
 20
-123.8088080202631
 10
80.51480982145117
 20
-123.5411241010592
 97
        0
 97
        0
 75
     2
 76
     1
 98
        0
  0
SPLINE
  5
74
330
6E
100
AcDbEntity
  8
_U+30EC_U+30A4_U+30E4_U+30FC 1
370
     0
100
AcDbSpline
210
0.0
220
0.0
230
1.0
 70
    11
 71
     3
 72
    44
 73
    40
 74
     0
 42
0.0000000001
 43
0.0000000001
 12
1.0
 22
0.0
 32
0.0
 13
1.0
 23
0.0
 33
0.0
 40
0.0
 40
0.0
 40
0.0
 40
0.0
 40
1.0
 40
1.0
 40
1.0
 40
2.0
 40
2.0
 40
2.0
 40
3.0
 40
3.0
 40
3.0
 40
4.0
 40
4.0
 40
4.0
 40
5.0
 40
5.0
 40
5.0
 40
6.0
 40
6.0
 40
6.0
 40
7.0
 40
7.0
 40
7.0
 40
8.0
 40
8.0
 40
8.0
 40
9.0
 40
9.0
 40
9.0
 40
10.0
 40
10.0
 40
10.0
 40
11.0
 40
11.0
 40
11.0
 40
12.0
 40
12.0
 40
12.0
 40
13.0
 40
13.0
 40
13.0
 40
13.0
 10
82.21927081277852
 20
-124.3248833239535
 30
0.0
 10
82.21789277458441
 20
-124.2749294394174
 30
0.0
 10
82.22202688916671
 20
-124.2180853639108
 30
0.0
 10
82.32227916778749
 20
-124.0103461061502
 30
0.0
 10
82.42614879666777
 20
-123.7902045046427
 30
0.0
 10
82.40392793078792
 20
-123.7013210411233
 30
0.0
 10
82.24442000982084
 20
-123.6227728640596
 30
0.0
 10
82.24442000982084
 20
-123.6227728640596
 30
0.0
 10
81.87820635973878
 20
-123.4422498606325
 30
0.0
 10
81.87820635973878
 20
-123.4422498606325
 30
0.0
 10
81.87820635973878
 20
-123.4422498606325
 30
0.0
 10
81.59467500130272
 20
-124.0172362971207
 30
0.0
 10
81.59467500130272
 20
-124.0172362971207
 30
0.0
 10
81.59467500130272
 20
-124.0172362971207
 30
0.0
 10
81.38417966715396
 20
-123.9135389230147
 30
0.0
 10
81.38417966715396
 20
-123.9135389230147
 30
0.0
 10
81.38417966715396
 20
-123.9135389230147
 30
0.0
 10
82.067342101879
 20
-122.5282660283957
 30
0.0
 10
82.067342101879
 20
-122.5282660283957
 30
0.0
 10
82.067342101879
 20
-122.5282660283957
 30
0.0
 10
82.67247312386314
 20
-122.8266112974184
 30
0.0
 10
82.67247312386314
 20
-122.8266112974184
 30
0.0
 10
82.94756399836034
 20
-122.9623480595372
 30
0.0
 10
83.0216335512932
 20
-123.1900688711122
 30
0.0
 10
82.90846216460275
 20
-123.4198567399784
 30
0.0
 10
82.88606904394862
 20
-123.4653320003837
 30
0.0
 10
82.84179956696316
 20
-123.5356119482828
 30
0.0
 10
82.76635197583619
 20
-123.5879773996586
 30
0.0
 10
82.66747773540952
 20
-123.6548122520724
 30
0.0
 10
82.60029837344715
 20
-123.642754417874
 30
0.0
 10
82.53794214516412
 20
-123.6306965836757
 30
0.0
 10
82.6423285383672
 20
-123.7295708241023
 30
0.0
 10
82.6817748816733
 20
-123.8029513579382
 30
0.0
 10
82.54621037432872
 20
-124.0875162450198
 30
0.0
 10
82.42993840170155
 20
-124.3324625340211
 30
0.0
 10
82.44836966254763
 20
-124.3765597562323
 30
0.0
 10
82.48454316514275
 20
-124.4561414619415
 30
0.0
 10
82.48454316514275
 20
-124.4561414619415
 30
0.0
 10
82.21927081277852
 20
-124.3248833239535
 30
0.0
 10
82.21927081277852
 20
-124.3248833239535
 30
0.0
  0
SPLINE
  5
75
330
6E
100
AcDbEntity
  8
_U+30EC_U+30A4_U+30E4_U+30FC 1
370
     0
100
AcDbSpline
210
0.0
220
0.0
230
1.0
 70
    11
 71
     3
 72
    20
 73
    16
 74
     0
 42
0.0000000001
 43
0.0000000001
 12
1.0
 22
0.0
 32
0.0
 13
1.0
 23
0.0
 33
0.0
 40
0.0
 40
0.0
 40
0.0
 40
0.0
 40
1.0
 40
1.0
 40
1.0
 40
2.0
 40
2.0
 40
2.0
 40
3.0
 40
3.0
 40
3.0
 40
4.0
 40
4.0
 40
4.0
 40
5.0
 40
5.0
 40
5.0
 40
5.0
 10
82.58272838647238
 20
-123.0181586063982
 30
0.0
 10
82.58272838647238
 20
-123.0181586063982
 30
0.0
 10
82.18413083882898
 20
-122.821788163739
 30
0.0
 10
82.18413083882898
 20
-122.821788163739
 30
0.0
 10
82.18413083882898
 20
-122.821788163739
 30
0.0
 10
81.97191295693759
 20
-123.2527696089438
 30
0.0
 10
81.97191295693759
 20
-123.2527696089438
 30
0.0
 10
81.97191295693759
 20
-123.2527696089438
 30
0.0
 10
82.36844344728983
 20
-123.4481065229574
 30
0.0
 10
82.36844344728983
 20
-123.4481065229574
 30
0.0
 10
82.45767142035781
 20
-123.4922037451686
 30
0.0
 10
82.61270071719404
 20
-123.4835910064555
 30
0.0
 10
82.68849281786954
 20
-123.3299397478134
 30
0.0
 10
82.72294377272205
 20
-123.2600043094628
 30
0.0
 10
82.76118433260832
 20
-123.1063530508206
 30
0.0
 10
82.58272838647238
 20
-123.0181586063982
 30
0.0
  0
HATCH
  5
76
330
6E
100
AcDbEntity
  8
_U+30EC_U+30A4_U+30E4_U+30FC 1
 62
   179
420
  2234388
100
AcDbHatch
 10
0.0
 20
0.0
 30
0.0
210
0.0
220
0.0
230
1.0
  2
SOLID
 70
     1
 71
     0
 91
        2
 92
        1
 93
        1
 72
     4
 94
        3
 73
     0
 74
     1
 95
       44
 96
       40
 40
0.0
 40
0.0
 40
0.0
 40
0.0
 40
1.0
 40
1.0
 40
1.0
 40
2.0
 40
2.0
 40
2.0
 40
3.0
 40
3.0
 40
3.0
 40
4.0
 40
4.0
 40
4.0
 40
5.0
 40
5.0
 40
5.0
 40
6.0
 40
6.0
 40
6.0
 40
7.0
 40
7.0
 40
7.0
 40
8.0
 40
8.0
 40
8.0
 40
9.0
 40
9.0
 40
9.0
 40
10.0
 40
10.0
 40
10.0
 40
11.0
 40
11.0
 40
11.0
 40
12.0
 40
12.0
 40
12.0
 40
13.0
 40
13.0
 40
13.0
 40
13.0
 10
82.21927081277852
 20
-124.3248833239535
 10
82.21789277458441
 20
-124.2749294394174
 10
82.22202688916671
 20
-124.2180853639108
 10
82.32227916778749
 20
-124.0103461061502
 10
82.42614879666777
 20
-123.7902045046427
 10
82.40392793078792
 20
-123.7013210411233
 10
82.24442000982084
 20
-123.6227728640596
 10
82.24442000982084
 20
-123.6227728640596
 10
81.87820635973878
 20
-123.4422498606325
 10
81.87820635973878
 20
-123.4422498606325
 10
81.87820635973878
 20
-123.4422498606325
 10
81.59467500130272
 20
-124.0172362971207
 10
81.59467500130272
 20
-124.0172362971207
 10
81.59467500130272
 20
-124.0172362971207
 10
81.38417966715396
 20
-123.9135389230147
 10
81.38417966715396
 20
-123.9135389230147
 10
81.38417966715396
 20
-123.9135389230147
 10
82.067342101879
 20
-122.5282660283957
 10
82.067342101879
 20
-122.5282660283957
 10
82.067342101879
 20
-122.5282660283957
 10
82.67247312386314
 20
-122.8266112974184
 10
82.67247312386314
 20
-122.8266112974184
 10
82.94756399836034
 20
-122.9623480595372
 10
83.0216335512932
 20
-123.1900688711122
 10
82.90846216460275
 20
-123.4198567399784
 10
82.88606904394862
 20
-123.4653320003837
 10
82.84179956696316
 20
-123.5356119482828
 10
82.76635197583619
 20
-123.5879773996586
 10
82.66747773540952
 20
-123.6548122520724
 10
82.60029837344715
 20
-123.642754417874
 10
82.53794214516412
 20
-123.6306965836757
 10
82.6423285383672
 20
-123.7295708241023
 10
82.6817748816733
 20
-123.8029513579382
 10
82.54621037432872
 20
-124.0875162450198
 10
82.42993840170155
 20
-124.3324625340211
 10
82.44836966254763
 20
-124.3765597562323
 10
82.48454316514275
 20
-124.4561414619415
 10
82.48454316514275
 20
-124.4561414619415
 10
82.21927081277852
 20
-124.3248833239535
 10
82.21927081277852
 20
-124.3248833239535
 97
        0
 97
        0
 92
        1
 93
        1
 72
     4
 94
        3
 73
     0
 74
     1
 95
       20
 96
       16
 40
0.0
 40
0.0
 40
0.0
 40
0.0
 40
1.0
 40
1.0
 40
1.0
 40
2.0
 40
2.0
 40
2.0
 40
3.0
 40
3.0
 40
3.0
 40
4.0
 40
4.0
 40
4.0
 40
5.0
 40
5.0
 40
5.0
 40
5.0
 10
82.58272838647238
 20
-123.0181586063982
 10
82.58272838647238
 20
-123.0181586063982
 10
82.18413083882898
 20
-122.821788163739
 10
82.18413083882898
 20
-122.821788163739
 10
82.18413083882898
 20
-122.821788163739
 10
81.97191295693759
 20
-123.2527696089438
 10
81.97191295693759
 20
-123.2527696089438
 10
81.97191295693759
 20
-123.2527696089438
 10
82.36844344728983
 20
-123.4481065229574
 10
82.36844344728983
 20
-123.4481065229574
 10
82.45767142035781
 20
-123.4922037451686
 10
82.61270071719404
 20
-123.4835910064555
 10
82.68849281786954
 20
-123.3299397478134
 10
82.72294377272205
 20
-123.2600043094628
 10
82.76118433260832
 20
-123.1063530508206
 10
82.58272838647238
 20
-123.0181586063982
 97
        0
 97
        0
 75
     2
 76
     1
 98
        0
  0
SPLINE
  5
77
330
6E
100
AcDbEntity
  8
_U+30EC_U+30A4_U+30E4_U+30FC 1
370
     0
100
AcDbSpline
210
0.0
220
0.0
230
1.0
 70
    11
 71
     3
 72
    26
 73
    22
 74
     0
 42
0.0000000001
 43
0.0000000001
 12
1.0
 22
0.0
 32
0.0
 13
1.0
 23
0.0
 33
0.0
 40
0.0
 40
0.0
 40
0.0
 40
0.0
 40
1.0
 40
1.0
 40
1.0
 40
2.0
 40
2.0
 40
2.0
 40
3.0
 40
3.0
 40
3.0
 40
4.0
 40
4.0
 40
4.0
 40
5.0
 40
5.0
 40
5.0
 40
6.0
 40
6.0
 40
6.0
 40
7.0
 40
7.0
 40
7.0
 40
7.0
 10
83.58576793700287
 20
-124.2962890314259
 30
0.0
 10
83.58576793700287
 20
-124.2962890314259
 30
0.0
 10
83.17976343406617
 20
-124.0961289837329
 30
0.0
 10
83.17976343406617
 20
-124.0961289837329
 30
0.0
 10
83.17976343406617
 20
-124.0961289837329
 30
0.0
 10
82.90105520930946
 20
-124.6614691528624
 30
0.0
 10
82.90105520930946
 20
-124.6614691528624
 30
0.0
 10
82.90105520930946
 20
-124.6614691528624
 30
0.0
 10
82.6905598751607
 20
-124.5574272692079
 30
0.0
 10
82.6905598751607
 20
-124.5574272692079
 30
0.0
 10
82.6905598751607
 20
-124.5574272692079
 30
0.0
 10
83.37355005511148
 20
-123.1724988841374
 30
0.0
 10
83.37355005511148
 20
-123.1724988841374
 30
0.0
 10
83.37355005511148
 20
-123.1724988841374
 30
0.0
 10
83.99004989219694
 20
-123.4763563059365
 30
0.0
 10
83.99004989219694
 20
-123.4763563059365
 30
0.0
 10
84.24808754404215
 20
-123.6038248388907
 30
0.0
 10
84.36005314731277
 20
-123.8405028987274
 30
0.0
 10
84.2281059902277
 20
-124.1081868179313
 30
0.0
 10
84.11889646334528
 20
-124.3300509671814
 30
0.0
 10
83.88376869647698
 20
-124.4430500990976
 30
0.0
 10
83.58576793700287
 20
-124.2962890314259
 30
0.0
  0
SPLINE
  5
78
330
6E
100
AcDbEntity
  8
_U+30EC_U+30A4_U+30E4_U+30FC 1
370
     0
100
AcDbSpline
210
0.0
220
0.0
230
1.0
 70
    11
 71
     3
 72
    20
 73
    16
 74
     0
 42
0.0000000001
 43
0.0000000001
 12
1.0
 22
0.0
 32
0.0
 13
1.0
 23
0.0
 33
0.0
 40
0.0
 40
0.0
 40
0.0
 40
0.0
 40
1.0
 40
1.0
 40
1.0
 40
2.0
 40
2.0
 40
2.0
 40
3.0
 40
3.0
 40
3.0
 40
4.0
 40
4.0
 40
4.0
 40
5.0
 40
5.0
 40
5.0
 40
5.0
 10
83.88876408493059
 20
-123.66239146214
 30
0.0
 10
83.88876408493059
 20
-123.66239146214
 30
0.0
 10
83.4905110468357
 20
-123.4660210194807
 30
0.0
 10
83.4905110468357
 20
-123.4660210194807
 30
0.0
 10
83.4905110468357
 20
-123.4660210194807
 30
0.0
 10
83.27329777649071
 20
-123.9063042224956
 30
0.0
 10
83.27329777649071
 20
-123.9063042224956
 30
0.0
 10
83.27329777649071
 20
-123.9063042224956
 30
0.0
 10
83.67172306935986
 20
-124.1026746651549
 30
0.0
 10
83.67172306935986
 20
-124.1026746651549
 30
0.0
 10
83.82158472296823
 20
-124.1767442180878
 30
0.0
 10
83.94819198205116
 20
-124.1212781807752
 30
0.0
 10
84.00985919123713
 20
-123.9958767051122
 30
0.0
 10
84.06032984009603
 20
-123.8935573692002
 30
0.0
 10
84.05791827325636
 20
-123.745762772883
 30
0.0
 10
83.88876408493059
 20
-123.66239146214
 30
0.0
  0
HATCH
  5
79
330
6E
100
AcDbEntity
  8
_U+30EC_U+30A4_U+30E4_U+30FC 1
 62
   179
420
  2234388
100
AcDbHatch
 10
0.0
 20
0.0
 30
0.0
210
0.0
220
0.0
230
1.0
  2
SOLID
 70
     1
 71
     0
 91
        2
 92
        1
 93
        1
 72
     4
 94
        3
 73
     0
 74
     1
 95
       26
 96
       22
 40
0.0
 40
0.0
 40
0.0
 40
0.0
 40
1.0
 40
1.0
 40
1.0
 40
2.0
 40
2.0
 40
2.0
 40
3.0
 40
3.0
 40
3.0
 40
4.0
 40
4.0
 40
4.0
 40
5.0
 40
5.0
 40
5.0
 40
6.0
 40
6.0
 40
6.0
 40
7.0
 40
7.0
 40
7.0
 40
7.0
 10
83.58576793700287
 20
-124.2962890314259
 10
83.58576793700287
 20
-124.2962890314259
 10
83.17976343406617
 20
-124.0961289837329
 10
83.17976343406617
 20
-124.0961289837329
 10
83.17976343406617
 20
-124.0961289837329
 10
82.90105520930946
 20
-124.6614691528624
 10
82.90105520930946
 20
-124.6614691528624
 10
82.90105520930946
 20
-124.6614691528624
 10
82.6905598751607
 20
-124.5574272692079
 10
82.6905598751607
 20
-124.5574272692079
 10
82.6905598751607
 20
-124.5574272692079
 10
83.37355005511148
 20
-123.1724988841374
 10
83.37355005511148
 20
-123.1724988841374
 10
83.37355005511148
 20
-123.1724988841374
 10
83.99004989219694
 20
-123.4763563059365
 10
83.99004989219694
 20
-123.4763563059365
 10
84.24808754404215
 20
-123.6038248388907
 10
84.36005314731277
 20
-123.8405028987274
 10
84.2281059902277
 20
-124.1081868179313
 10
84.11889646334528
 20
-124.3300509671814
 10
83.88376869647698
 20
-124.4430500990976
 10
83.58576793700287
 20
-124.2962890314259
 97
        0
 97
        0
 92
        1
 93
        1
 72
     4
 94
        3
 73
     0
 74
     1
 95
       20
 96
       16
 40
0.0
 40
0.0
 40
0.0
 40
0.0
 40
1.0
 40
1.0
 40
1.0
 40
2.0
 40
2.0
 40
2.0
 40
3.0
 40
3.0
 40
3.0
 40
4.0
 40
4.0
 40
4.0
 40
5.0
 40
5.0
 40
5.0
 40
5.0
 10
83.88876408493059
 20
-123.66239146214
 10
83.88876408493059
 20
-123.66239146214
 10
83.4905110468357
 20
-123.4660210194807
 10
83.4905110468357
 20
-123.4660210194807
 10
83.4905110468357
 20
-123.4660210194807
 10
83.27329777649071
 20
-123.9063042224956
 10
83.27329777649071
 20
-123.9063042224956
 10
83.27329777649071
 20
-123.9063042224956
 10
83.67172306935986
 20
-124.1026746651549
 10
83.67172306935986
 20
-124.1026746651549
 10
83.82158472296823
 20
-124.1767442180878
 10
83.94819198205116
 20
-124.1212781807752
 10
84.00985919123713
 20
-123.9958767051122
 10
84.06032984009603
 20
-123.8935573692002
 10
84.05791827325636
 20
-123.745762772883
 10
83.88876408493059
 20
-123.66239146214
 97
        0
 97
        0
 75
     2
 76
     1
 98
        0
  0
POLYLINE
  5
7A
330
6E
100
AcDbEntity
  8
_U+30EC_U+30A4_U+30E4_U+30FC 1
370
     0
100
AcDb2dPolyline
 66
     1
 10
0.0
 20
0.0
 30
0.0
  0
VERTEX
  5
7B
330
7A
100
AcDbEntity
  8
_U+30EC_U+30A4_U+30E4_U+30FC 1
370
     0
100
AcDbVertex
100
AcDb2dVertex
 10
84.06480846422686
 20
-124.7376057630864
 30
0.0
  0
VERTEX
  5
7C
330
7A
100
AcDbEntity
  8
_U+30EC_U+30A4_U+30E4_U+30FC 1
370
     0
100
AcDbVertex
100
AcDb2dVertex
 10
84.16023760916828
 20
-124.5439913968154
 30
0.0
  0
VERTEX
  5
7D
330
7A
100
AcDbEntity
  8
_U+30EC_U+30A4_U+30E4_U+30FC 1
370
     0
100
AcDbVertex
100
AcDb2dVertex
 10
84.68595918021741
 20
-124.8034070868547
 30
0.0
  0
VERTEX
  5
7E
330
7A
100
AcDbEntity
  8
_U+30EC_U+30A4_U+30E4_U+30FC 1
370
     0
100
AcDbVertex
100
AcDb2dVertex
 10
84.59053003527599
 20
-124.9966769435772
 30
0.0
  0
VERTEX
  5
7F
330
7A
100
AcDbEntity
  8
_U+30EC_U+30A4_U+30E4_U+30FC 1
370
     0
100
AcDbVertex
100
AcDb2dVertex
 10
84.06480846422686
 20
-124.7376057630864
 30
0.0
  0
SEQEND
  5
80
330
7A
100
AcDbEntity
  8
_U+30EC_U+30A4_U+30E4_U+30FC 1
370
     0
  0
HATCH
  5
81
330
6E
100
AcDbEntity
  8
_U+30EC_U+30A4_U+30E4_U+30FC 1
 62
   179
420
  2234388
100
AcDbHatch
 10
0.0
 20
0.0
 30
0.0
210
0.0
220
0.0
230
1.0
  2
SOLID
 70
     1
 71
     0
 91
        1
 92
        1
 93
        4
 72
     1
 10
84.06480846422686
 20
-124.7376057630864
 11
84.16023760916828
 21
-124.5439913968154
 72
     1
 10
84.16023760916828
 20
-124.5439913968154
 11
84.68595918021741
 21
-124.8034070868547
 72
     1
 10
84.68595918021741
 20
-124.8034070868547
 11
84.59053003527599
 21
-124.9966769435772
 72
     1
 10
84.59053003527599
 20
-124.9966769435772
 11
84.06480846422686
 21
-124.7376057630864
 97
        0
 75
     2
 76
     1
 98
        0
  0
SPLINE
  5
82
330
6E
100
AcDbEntity
  8
_U+30EC_U+30A4_U+30E4_U+30FC 1
370
     0
100
AcDbSpline
210
0.0
220
0.0
230
1.0
 70
    11
 71
     3
 72
    62
 73
    58
 74
     0
 42
0.0000000001
 43
0.0000000001
 12
1.0
 22
0.0
 32
0.0
 13
1.0
 23
0.0
 33
0.0
 40
0.0
 40
0.0
 40
0.0
 40
0.0
 40
1.0
 40
1.0
 40
1.0
 40
2.0
 40
2.0
 40
2.0
 40
3.0
 40
3.0
 40
3.0
 40
4.0
 40
4.0
 40
4.0
 40
5.0
 40
5.0
 40
5.0
 40
6.0
 40
6.0
 40
6.0
 40
7.0
 40
7.0
 40
7.0
 40
8.0
 40
8.0
 40
8.0
 40
9.0
 40
9.0
 40
9.0
 40
10.0
 40
10.0
 40
10.0
 40
11.0
 40
11.0
 40
11.0
 40
12.0
 40
12.0
 40
12.0
 40
13.0
 40
13.0
 40
13.0
 40
14.0
 40
14.0
 40
14.0
 40
15.0
 40
15.0
 40
15.0
 40
16.0
 40
16.0
 40
16.0
 40
17.0
 40
17.0
 40
17.0
 40
18.0
 40
18.0
 40
18.0
 40
19.0
 40
19.0
 40
19.0
 40
19.0
 10
84.92677135463637
 20
-125.717046409543
 30
0.0
 10
84.84133298660217
 20
-125.6746717350744
 30
0.0
 10
84.65529783039868
 20
-125.559605545867
 30
0.0
 10
84.62567000922553
 20
-125.337741396617
 30
0.0
 10
84.60913355089633
 20
-125.2040716917893
 30
0.0
 10
84.64892440375097
 20
-125.1131211709787
 30
0.0
 10
84.68285859428067
 20
-125.035262013012
 30
0.0
 10
84.68285859428067
 20
-125.035262013012
 30
0.0
 10
84.87991805603697
 20
-125.1324137056961
 30
0.0
 10
84.87991805603697
 20
-125.1324137056961
 30
0.0
 10
84.84925670621824
 20
-125.199937577207
 30
0.0
 10
84.7548610899224
 20
-125.4149115354866
 30
0.0
 10
85.00910913673384
 20
-125.5403130111496
 30
0.0
 10
85.13244355510578
 20
-125.6012912012386
 30
0.0
 10
85.29987519568893
 20
-125.6061143349179
 30
0.0
 10
85.40081649340675
 20
-125.4014756630941
 30
0.0
 10
85.45232067091123
 20
-125.297089269891
 30
0.0
 10
85.43974607239007
 20
-125.2364555893506
 30
0.0
 10
85.42527667135202
 20
-125.194080914882
 30
0.0
 10
85.39151473559657
 20
-125.0948621649068
 30
0.0
 10
85.29281274994416
 20
-125.0321614270753
 30
0.0
 10
85.24354788450509
 20
-125.00770124913
 30
0.0
 10
85.2264946618531
 20
-124.9994330199654
 30
0.0
 10
85.1934217451947
 20
-124.9849636189274
 30
0.0
 10
85.16689450995828
 20
-124.9766953897628
 30
0.0
 10
85.16689450995828
 20
-124.9766953897628
 30
0.0
 10
85.25284964231527
 20
-124.8020290486606
 30
0.0
 10
85.25284964231527
 20
-124.8020290486606
 30
0.0
 10
85.28402775645678
 20
-124.8251111884118
 30
0.0
 10
85.32123478769748
 20
-124.8454372517748
 30
0.0
 10
85.32691919524814
 20
-124.848193328163
 30
0.0
 10
85.38565807327164
 20
-124.8771321302391
 30
0.0
 10
85.57358803199202
 20
-124.9460340399441
 30
0.0
 10
85.67814667996936
 20
-124.7338161580527
 30
0.0
 10
85.75686711180731
 20
-124.5743082370856
 30
0.0
 10
85.6636772789313
 20
-124.4668212579458
 30
0.0
 10
85.56480303850464
 20
-124.4182454116038
 30
0.0
 10
85.32778046911945
 20
-124.3014566746538
 30
0.0
 10
85.21719290404293
 20
-124.5064398560262
 30
0.0
 10
85.18170842054485
 20
-124.5687960843092
 30
0.0
 10
85.18170842054485
 20
-124.5687960843092
 30
0.0
 10
84.99946286937514
 20
-124.4792236016927
 30
0.0
 10
84.99946286937514
 20
-124.4792236016927
 30
0.0
 10
85.06216360720668
 20
-124.3710476034558
 30
0.0
 10
85.25336640663805
 20
-124.0454860800997
 30
0.0
 10
85.66333276938278
 20
-124.2473686755354
 30
0.0
 10
85.86452634572137
 20
-124.3465874255106
 30
0.0
 10
86.02437877623696
 20
-124.5674180461151
 30
0.0
 10
85.89346514779747
 20
-124.8326903984793
 30
0.0
 10
85.8111273657
 20
-124.9997775295139
 30
0.0
 10
85.68951549507068
 20
-125.0318169175268
 30
0.0
 10
85.57307126766923
 20
-125.0424967135311
 30
0.0
 10
85.61596270646059
 20
-125.0945176553583
 30
0.0
 10
85.7436034941891
 20
-125.2471353853549
 30
0.0
 10
85.62095809491422
 20
-125.4955267698414
 30
0.0
 10
85.47144095085437
 20
-125.7990396820919
 30
0.0
 10
85.17533499389714
 20
-125.8393472992693
 30
0.0
 10
84.92677135463637
 20
-125.717046409543
 30
0.0
  0
HATCH
  5
83
330
6E
100
AcDbEntity
  8
_U+30EC_U+30A4_U+30E4_U+30FC 1
 62
   179
420
  2234388
100
AcDbHatch
 10
0.0
 20
0.0
 30
0.0
210
0.0
220
0.0
230
1.0
  2
SOLID
 70
     1
 71
     0
 91
        1
 92
        1
 93
        1
 72
     4
 94
        3
 73
     0
 74
     1
 95
       62
 96
       58
 40
0.0
 40
0.0
 40
0.0
 40
0.0
 40
1.0
 40
1.0
 40
1.0
 40
2.0
 40
2.0
 40
2.0
 40
3.0
 40
3.0
 40
3.0
 40
4.0
 40
4.0
 40
4.0
 40
5.0
 40
5.0
 40
5.0
 40
6.0
 40
6.0
 40
6.0
 40
7.0
 40
7.0
 40
7.0
 40
8.0
 40
8.0
 40
8.0
 40
9.0
 40
9.0
 40
9.0
 40
10.0
 40
10.0
 40
10.0
 40
11.0
 40
11.0
 40
11.0
 40
12.0
 40
12.0
 40
12.0
 40
13.0
 40
13.0
 40
13.0
 40
14.0
 40
14.0
 40
14.0
 40
15.0
 40
15.0
 40
15.0
 40
16.0
 40
16.0
 40
16.0
 40
17.0
 40
17.0
 40
17.0
 40
18.0
 40
18.0
 40
18.0
 40
19.0
 40
19.0
 40
19.0
 40
19.0
 10
84.92677135463637
 20
-125.717046409543
 10
84.84133298660217
 20
-125.6746717350744
 10
84.65529783039868
 20
-125.559605545867
 10
84.62567000922553
 20
-125.337741396617
 10
84.60913355089633
 20
-125.2040716917893
 10
84.64892440375097
 20
-125.1131211709787
 10
84.68285859428067
 20
-125.035262013012
 10
84.68285859428067
 20
-125.035262013012
 10
84.87991805603697
 20
-125.1324137056961
 10
84.87991805603697
 20
-125.1324137056961
 10
84.84925670621824
 20
-125.199937577207
 10
84.7548610899224
 20
-125.4149115354866
 10
85.00910913673384
 20
-125.5403130111496
 10
85.13244355510578
 20
-125.6012912012386
 10
85.29987519568893
 20
-125.6061143349179
 10
85.40081649340675
 20
-125.4014756630941
 10
85.45232067091123
 20
-125.297089269891
 10
85.43974607239007
 20
-125.2364555893506
 10
85.42527667135202
 20
-125.194080914882
 10
85.39151473559657
 20
-125.0948621649068
 10
85.29281274994416
 20
-125.0321614270753
 10
85.24354788450509
 20
-125.00770124913
 10
85.2264946618531
 20
-124.9994330199654
 10
85.1934217451947
 20
-124.9849636189274
 10
85.16689450995828
 20
-124.9766953897628
 10
85.16689450995828
 20
-124.9766953897628
 10
85.25284964231527
 20
-124.8020290486606
 10
85.25284964231527
 20
-124.8020290486606
 10
85.28402775645678
 20
-124.8251111884118
 10
85.32123478769748
 20
-124.8454372517748
 10
85.32691919524814
 20
-124.848193328163
 10
85.38565807327164
 20
-124.8771321302391
 10
85.57358803199202
 20
-124.9460340399441
 10
85.67814667996936
 20
-124.7338161580527
 10
85.75686711180731
 20
-124.5743082370856
 10
85.6636772789313
 20
-124.4668212579458
 10
85.56480303850464
 20
-124.4182454116038
 10
85.32778046911945
 20
-124.3014566746538
 10
85.21719290404293
 20
-124.5064398560262
 10
85.18170842054485
 20
-124.5687960843092
 10
85.18170842054485
 20
-124.5687960843092
 10
84.99946286937514
 20
-124.4792236016927
 10
84.99946286937514
 20
-124.4792236016927
 10
85.06216360720668
 20
-124.3710476034558
 10
85.25336640663805
 20
-124.0454860800997
 10
85.66333276938278
 20
-124.2473686755354
 10
85.86452634572137
 20
-124.3465874255106
 10
86.02437877623696
 20
-124.5674180461151
 10
85.89346514779747
 20
-124.8326903984793
 10
85.8111273657
 20
-124.9997775295139
 10
85.68951549507068
 20
-125.0318169175268
 10
85.57307126766923
 20
-125.0424967135311
 10
85.61596270646059
 20
-125.0945176553583
 10
85.7436034941891
 20
-125.2471353853549
 10
85.62095809491422
 20
-125.4955267698414
 10
85.47144095085437
 20
-125.7990396820919
 10
85.17533499389714
 20
-125.8393472992693
 10
84.92677135463637
 20
-125.717046409543
 97
        0
 97
        0
 75
     2
 76
     1
 98
        0
  0
SPLINE
  5
84
330
6E
100
AcDbEntity
  8
_U+30EC_U+30A4_U+30E4_U+30FC 1
370
     0
100
AcDbSpline
210
0.0
220
0.0
230
1.0
 70
    11
 71
     3
 72
    29
 73
    25
 74
     0
 42
0.0000000001
 43
0.0000000001
 12
1.0
 22
0.0
 32
0.0
 13
1.0
 23
0.0
 33
0.0
 40
0.0
 40
0.0
 40
0.0
 40
0.0
 40
1.0
 40
1.0
 40
1.0
 40
2.0
 40
2.0
 40
2.0
 40
3.0
 40
3.0
 40
3.0
 40
4.0
 40
4.0
 40
4.0
 40
5.0
 40
5.0
 40
5.0
 40
6.0
 40
6.0
 40
6.0
 40
7.0
 40
7.0
 40
7.0
 40
8.0
 40
8.0
 40
8.0
 40
8.0
 10
86.44743650182565
 20
-126.2121066307734
 30
0.0
 10
86.25830075968543
 20
-126.352322017023
 30
0.0
 10
86.09431421458754
 20
-126.2927218651282
 30
0.0
 10
85.9897555666102
 20
-126.2410454328495
 30
0.0
 10
85.84575057532676
 20
-126.1700764658533
 30
0.0
 10
85.73912487005828
 20
-126.0656900726503
 30
0.0
 10
85.73430173637892
 20
-125.8603623817294
 30
0.0
 10
85.72741154540843
 20
-125.6398762706734
 30
0.0
 10
85.81491697073378
 20
-125.4193901596174
 30
0.0
 10
85.8869194663755
 20
-125.2729736014943
 30
0.0
 10
85.95065373285262
 20
-125.1441270303459
 30
0.0
 10
86.07726099193555
 20
-124.9257079765811
 30
0.0
 10
86.26002330742806
 20
-124.7941053290445
 30
0.0
 10
86.4467474827286
 20
-124.6597466051198
 30
0.0
 10
86.60108776046779
 20
-124.7100449992044
 30
0.0
 10
86.71684296877218
 20
-124.7668890747111
 30
0.0
 10
86.859125412313
 20
-124.8371690226102
 30
0.0
 10
86.96833493919542
 20
-124.9405218871676
 30
0.0
 10
86.9735025824233
 20
-125.1458495780885
 30
0.0
 10
86.97746444223134
 20
-125.3625460841108
 30
0.0
 10
86.89736597219927
 20
-125.5775200423903
 30
0.0
 10
86.8205403428782
 20
-125.7332383583236
 30
0.0
 10
86.7447482422027
 20
-125.8868896169658
 30
0.0
 10
86.6239976454447
 20
-126.0846380978191
 30
0.0
 10
86.44743650182565
 20
-126.2121066307734
 30
0.0
  0
SPLINE
  5
85
330
6E
100
AcDbEntity
  8
_U+30EC_U+30A4_U+30E4_U+30FC 1
370
     0
100
AcDbSpline
210
0.0
220
0.0
230
1.0
 70
    11
 71
     3
 72
    17
 73
    13
 74
     0
 42
0.0000000001
 43
0.0000000001
 12
1.0
 22
0.0
 32
0.0
 13
1.0
 23
0.0
 33
0.0
 40
0.0
 40
0.0
 40
0.0
 40
0.0
 40
1.0
 40
1.0
 40
1.0
 40
2.0
 40
2.0
 40
2.0
 40
3.0
 40
3.0
 40
3.0
 40
4.0
 40
4.0
 40
4.0
 40
4.0
 10
86.63157685551225
 20
-124.9398328680706
 30
0.0
 10
86.40781790374527
 20
-124.8292453029941
 30
0.0
 10
86.24073077271065
 20
-125.0631672864425
 30
0.0
 10
86.08811304271408
 20
-125.3721923514695
 30
0.0
 10
85.94686412781884
 20
-125.6588242958422
 30
0.0
 10
85.84264998939004
 20
-125.9516574120885
 30
0.0
 10
86.07588295374146
 20
-126.0663790917473
 30
0.0
 10
86.2979193577658
 20
-126.1759331281782
 30
0.0
 10
86.46604001744599
 20
-125.945456240215
 30
0.0
 10
86.6193467665396
 20
-125.634364117897
 30
0.0
 10
86.76094019098338
 20
-125.3477321735242
 30
0.0
 10
86.86308727212104
 20
-125.0538655286324
 30
0.0
 10
86.63157685551225
 20
-124.9398328680706
 30
0.0
  0
HATCH
  5
86
330
6E
100
AcDbEntity
  8
_U+30EC_U+30A4_U+30E4_U+30FC 1
 62
   179
420
  2234388
100
AcDbHatch
 10
0.0
 20
0.0
 30
0.0
210
0.0
220
0.0
230
1.0
  2
SOLID
 70
     1
 71
     0
 91
        2
 92
        1
 93
        1
 72
     4
 94
        3
 73
     0
 74
     1
 95
       29
 96
       25
 40
0.0
 40
0.0
 40
0.0
 40
0.0
 40
1.0
 40
1.0
 40
1.0
 40
2.0
 40
2.0
 40
2.0
 40
3.0
 40
3.0
 40
3.0
 40
4.0
 40
4.0
 40
4.0
 40
5.0
 40
5.0
 40
5.0
 40
6.0
 40
6.0
 40
6.0
 40
7.0
 40
7.0
 40
7.0
 40
8.0
 40
8.0
 40
8.0
 40
8.0
 10
86.44743650182565
 20
-126.2121066307734
 10
86.25830075968543
 20
-126.352322017023
 10
86.09431421458754
 20
-126.2927218651282
 10
85.9897555666102
 20
-126.2410454328495
 10
85.84575057532676
 20
-126.1700764658533
 10
85.73912487005828
 20
-126.0656900726503
 10
85.73430173637892
 20
-125.8603623817294
 10
85.72741154540843
 20
-125.6398762706734
 10
85.81491697073378
 20
-125.4193901596174
 10
85.8869194663755
 20
-125.2729736014943
 10
85.95065373285262
 20
-125.1441270303459
 10
86.07726099193555
 20
-124.9257079765811
 10
86.26002330742806
 20
-124.7941053290445
 10
86.4467474827286
 20
-124.6597466051198
 10
86.60108776046779
 20
-124.7100449992044
 10
86.71684296877218
 20
-124.7668890747111
 10
86.859125412313
 20
-124.8371690226102
 10
86.96833493919542
 20
-124.9405218871676
 10
86.9735025824233
 20
-125.1458495780885
 10
86.97746444223134
 20
-125.3625460841108
 10
86.89736597219927
 20
-125.5775200423903
 10
86.8205403428782
 20
-125.7332383583236
 10
86.7447482422027
 20
-125.8868896169658
 10
86.6239976454447
 20
-126.0846380978191
 10
86.44743650182565
 20
-126.2121066307734
 97
        0
 97
        0
 92
        1
 93
        1
 72
     4
 94
        3
 73
     0
 74
     1
 95
       17
 96
       13
 40
0.0
 40
0.0
 40
0.0
 40
0.0
 40
1.0
 40
1.0
 40
1.0
 40
2.0
 40
2.0
 40
2.0
 40
3.0
 40
3.0
 40
3.0
 40
4.0
 40
4.0
 40
4.0
 40
4.0
 10
86.63157685551225
 20
-124.9398328680706
 10
86.40781790374527
 20
-124.8292453029941
 10
86.24073077271065
 20
-125.0631672864425
 10
86.08811304271408
 20
-125.3721923514695
 10
85.94686412781884
 20
-125.6588242958422
 10
85.84264998939004
 20
-125.9516574120885
 10
86.07588295374146
 20
-126.0663790917473
 10
86.2979193577658
 20
-126.1759331281782
 10
86.46604001744599
 20
-125.945456240215
 10
86.6193467665396
 20
-125.634364117897
 10
86.76094019098338
 20
-125.3477321735242
 10
86.86308727212104
 20
-125.0538655286324
 10
86.63157685551225
 20
-124.9398328680706
 97
        0
 97
        0
 75
     2
 76
     1
 98
        0
  0
POLYLINE
  5
87
330
6E
100
AcDbEntity
  8
_U+30EC_U+30A4_U+30E4_U+30FC 1
370
     0
100
AcDb2dPolyline
 66
     1
 10
0.0
 20
0.0
 30
0.0
  0
VERTEX
  5
88
330
87
100
AcDbEntity
  8
_U+30EC_U+30A4_U+30E4_U+30FC 1
370
     0
100
AcDbVertex
100
AcDb2dVertex
 10
87.59706486525351
 20
-126.9772623380474
 30
0.0
  0
VERTEX
  5
89
330
87
100
AcDbEntity
  8
_U+30EC_U+30A4_U+30E4_U+30FC 1
370
     0
100
AcDbVertex
100
AcDb2dVertex
 10
87.90867375189437
 20
-126.3454318260525
 30
0.0
  0
VERTEX
  5
8A
330
87
100
AcDbEntity
  8
_U+30EC_U+30A4_U+30E4_U+30FC 1
370
     0
100
AcDbVertex
100
AcDb2dVertex
 10
87.23722464181917
 20
-126.01435814992
 30
0.0
  0
VERTEX
  5
8B
330
87
100
AcDbEntity
  8
_U+30EC_U+30A4_U+30E4_U+30FC 1
370
     0
100
AcDbVertex
100
AcDb2dVertex
 10
86.92561575517833
 20
-126.6461886619148
 30
0.0
  0
VERTEX
  5
8C
330
87
100
AcDbEntity
  8
_U+30EC_U+30A4_U+30E4_U+30FC 1
370
     0
100
AcDbVertex
100
AcDb2dVertex
 10
86.71477591148103
 20
-126.5421467782603
 30
0.0
  0
VERTEX
  5
8D
330
87
100
AcDbEntity
  8
_U+30EC_U+30A4_U+30E4_U+30FC 1
370
     0
100
AcDbVertex
100
AcDb2dVertex
 10
87.39793834620608
 20
-125.1572183931899
 30
0.0
  0
VERTEX
  5
8E
330
87
100
AcDbEntity
  8
_U+30EC_U+30A4_U+30E4_U+30FC 1
370
     0
100
AcDbVertex
100
AcDb2dVertex
 10
87.60877818990336
 20
-125.2609157672959
 30
0.0
  0
VERTEX
  5
8F
330
87
100
AcDbEntity
  8
_U+30EC_U+30A4_U+30E4_U+30FC 1
370
     0
100
AcDbVertex
100
AcDb2dVertex
 10
87.3307589842437
 20
-125.8245333886828
 30
0.0
  0
VERTEX
  5
90
330
87
100
AcDbEntity
  8
_U+30EC_U+30A4_U+30E4_U+30FC 1
370
     0
100
AcDbVertex
100
AcDb2dVertex
 10
88.0022080943189
 20
-126.1556070648153
 30
0.0
  0
VERTEX
  5
91
330
87
100
AcDbEntity
  8
_U+30EC_U+30A4_U+30E4_U+30FC 1
370
     0
100
AcDbVertex
100
AcDb2dVertex
 10
88.28022729997856
 20
-125.5919894434284
 30
0.0
  0
VERTEX
  5
92
330
87
100
AcDbEntity
  8
_U+30EC_U+30A4_U+30E4_U+30FC 1
370
     0
100
AcDbVertex
100
AcDb2dVertex
 10
88.49089488890158
 20
-125.6960313270829
 30
0.0
  0
VERTEX
  5
93
330
87
100
AcDbEntity
  8
_U+30EC_U+30A4_U+30E4_U+30FC 1
370
     0
100
AcDbVertex
100
AcDb2dVertex
 10
87.8079047089508
 20
-127.0809597121534
 30
0.0
  0
VERTEX
  5
94
330
87
100
AcDbEntity
  8
_U+30EC_U+30A4_U+30E4_U+30FC 1
370
     0
100
AcDbVertex
100
AcDb2dVertex
 10
87.59706486525351
 20
-126.9772623380474
 30
0.0
  0
SEQEND
  5
95
330
87
100
AcDbEntity
  8
_U+30EC_U+30A4_U+30E4_U+30FC 1
370
     0
  0
HATCH
  5
96
330
6E
100
AcDbEntity
  8
_U+30EC_U+30A4_U+30E4_U+30FC 1
 62
   179
420
  2234388
100
AcDbHatch
 10
0.0
 20
0.0
 30
0.0
210
0.0
220
0.0
230
1.0
  2
SOLID
 70
     1
 71
     0
 91
        1
 92
        1
 93
       12
 72
     1
 10
87.59706486525351
 20
-126.9772623380474
 11
87.90867375189437
 21
-126.3454318260525
 72
     1
 10
87.90867375189437
 20
-126.3454318260525
 11
87.23722464181917
 21
-126.01435814992
 72
     1
 10
87.23722464181917
 20
-126.01435814992
 11
86.92561575517833
 21
-126.6461886619148
 72
     1
 10
86.92561575517833
 20
-126.6461886619148
 11
86.71477591148103
 21
-126.5421467782603
 72
     1
 10
86.71477591148103
 20
-126.5421467782603
 11
87.39793834620608
 21
-125.1572183931899
 72
     1
 10
87.39793834620608
 20
-125.1572183931899
 11
87.60877818990336
 21
-125.2609157672959
 72
     1
 10
87.60877818990336
 20
-125.2609157672959
 11
87.3307589842437
 21
-125.8245333886828
 72
     1
 10
87.3307589842437
 20
-125.8245333886828
 11
88.0022080943189
 21
-126.1556070648153
 72
     1
 10
88.0022080943189
 20
-126.1556070648153
 11
88.28022729997856
 21
-125.5919894434284
 72
     1
 10
88.28022729997856
 20
-125.5919894434284
 11
88.49089488890158
 21
-125.6960313270829
 72
     1
 10
88.49089488890158
 20
-125.6960313270829
 11
87.8079047089508
 21
-127.0809597121534
 72
     1
 10
87.8079047089508
 20
-127.0809597121534
 11
87.59706486525351
 21
-126.9772623380474
 97
        0
 75
     2
 76
     1
 98
        0
  0
SPLINE
  5
97
330
6E
100
AcDbEntity
  8
_U+30EC_U+30A4_U+30E4_U+30FC 1
370
     0
100
AcDbSpline
210
0.0
220
0.0
230
1.0
 70
    11
 71
     3
 72
    26
 73
    22
 74
     0
 42
0.0000000001
 43
0.0000000001
 12
1.0
 22
0.0
 32
0.0
 13
1.0
 23
0.0
 33
0.0
 40
0.0
 40
0.0
 40
0.0
 40
0.0
 40
1.0
 40
1.0
 40
1.0
 40
2.0
 40
2.0
 40
2.0
 40
3.0
 40
3.0
 40
3.0
 40
4.0
 40
4.0
 40
4.0
 40
5.0
 40
5.0
 40
5.0
 40
6.0
 40
6.0
 40
6.0
 40
7.0
 40
7.0
 40
7.0
 40
7.0
 10
88.76667478249584
 20
-127.5539713222782
 30
0.0
 10
88.76667478249584
 20
-127.5539713222782
 30
0.0
 10
88.15585935296104
 20
-127.2525254673188
 30
0.0
 10
88.15585935296104
 20
-127.2525254673188
 30
0.0
 10
88.15585935296104
 20
-127.2525254673188
 30
0.0
 10
88.83884953291182
 20
-125.8675970822484
 30
0.0
 10
88.83884953291182
 20
-125.8675970822484
 30
0.0
 10
88.83884953291182
 20
-125.8675970822484
 30
0.0
 10
89.4382961473453
 20
-126.1631862748828
 30
0.0
 10
89.4382961473453
 20
-126.1631862748828
 30
0.0
 10
89.63001571109945
 20
-126.2579264007272
 30
0.0
 10
89.7729871737373
 20
-126.4511962574497
 30
0.0
 10
89.65413137949619
 20
-126.6923529414172
 30
0.0
 10
89.5494004767446
 20
-126.9045708233086
 30
0.0
 10
89.37128904015718
 20
-126.896991613241
 30
0.0
 10
89.29739174199857
 20
-126.8935465177558
 30
0.0
 10
89.35268552453684
 20
-126.9393662877096
 30
0.0
 10
89.53114147067278
 20
-127.0937065654488
 30
0.0
 10
89.3964382371995
 20
-127.3669026374291
 30
0.0
 10
89.29446341083612
 20
-127.5736083665441
 30
0.0
 10
89.0570963319024
 20
-127.6972872944646
 30
0.0
 10
88.76667478249584
 20
-127.5539713222782
 30
0.0
  0
SPLINE
  5
98
330
6E
100
AcDbEntity
  8
_U+30EC_U+30A4_U+30E4_U+30FC 1
370
     0
100
AcDbSpline
210
0.0
220
0.0
230
1.0
 70
    11
 71
     3
 72
    20
 73
    16
 74
     0
 42
0.0000000001
 43
0.0000000001
 12
1.0
 22
0.0
 32
0.0
 13
1.0
 23
0.0
 33
0.0
 40
0.0
 40
0.0
 40
0.0
 40
0.0
 40
1.0
 40
1.0
 40
1.0
 40
2.0
 40
2.0
 40
2.0
 40
3.0
 40
3.0
 40
3.0
 40
4.0
 40
4.0
 40
4.0
 40
5.0
 40
5.0
 40
5.0
 40
5.0
 10
89.051584179126
 20
-126.9090494474394
 30
0.0
 10
89.051584179126
 20
-126.9090494474394
 30
0.0
 10
88.67796357375065
 20
-126.7247368389785
 30
0.0
 10
88.67796357375065
 20
-126.7247368389785
 30
0.0
 10
88.67796357375065
 20
-126.7247368389785
 30
0.0
 10
88.4600612843086
 20
-127.1670870992846
 30
0.0
 10
88.4600612843086
 20
-127.1670870992846
 30
0.0
 10
88.4600612843086
 20
-127.1670870992846
 30
0.0
 10
88.83350963490969
 20
-127.351055198197
 30
0.0
 10
88.83350963490969
 20
-127.351055198197
 30
0.0
 10
88.97613658799902
 20
-127.4213351460961
 30
0.0
 10
89.11480168128033
 20
-127.3882622294377
 30
0.0
 10
89.18490937440517
 20
-127.2459797858968
 30
0.0
 10
89.24588756449408
 20
-127.1226453675249
 30
0.0
 10
89.2073024950593
 20
-126.9858750767605
 30
0.0
 10
89.051584179126
 20
-126.9090494474394
 30
0.0
  0
SPLINE
  5
99
330
6E
100
AcDbEntity
  8
_U+30EC_U+30A4_U+30E4_U+30FC 1
370
     0
100
AcDbSpline
210
0.0
220
0.0
230
1.0
 70
    11
 71
     3
 72
    20
 73
    16
 74
     0
 42
0.0000000001
 43
0.0000000001
 12
1.0
 22
0.0
 32
0.0
 13
1.0
 23
0.0
 33
0.0
 40
0.0
 40
0.0
 40
0.0
 40
0.0
 40
1.0
 40
1.0
 40
1.0
 40
2.0
 40
2.0
 40
2.0
 40
3.0
 40
3.0
 40
3.0
 40
4.0
 40
4.0
 40
4.0
 40
5.0
 40
5.0
 40
5.0
 40
5.0
 10
89.28206106708922
 20
-126.3220051767528
 30
0.0
 10
89.28206106708922
 20
-126.3220051767528
 30
0.0
 10
88.95581052463605
 20
-126.1611192175917
 30
0.0
 10
88.95581052463605
 20
-126.1611192175917
 30
0.0
 10
88.95581052463605
 20
-126.1611192175917
 30
0.0
 10
88.77149791617518
 20
-126.5352565872898
 30
0.0
 10
88.77149791617518
 20
-126.5352565872898
 30
0.0
 10
88.77149791617518
 20
-126.5352565872898
 30
0.0
 10
89.09774845862835
 20
-126.696142546451
 30
0.0
 10
89.09774845862835
 20
-126.696142546451
 30
0.0
 10
89.22314993429144
 20
-126.7578097556369
 30
0.0
 10
89.34786239085749
 20
-126.7578097556369
 30
0.0
 10
89.41607528146542
 20
-126.6193169171299
 30
0.0
 10
89.48997257962404
 20
-126.4694552635215
 30
0.0
 10
89.38644746029227
 20
-126.3733370994831
 30
0.0
 10
89.28206106708922
 20
-126.3220051767528
 30
0.0
  0
HATCH
  5
9A
330
6E
100
AcDbEntity
  8
_U+30EC_U+30A4_U+30E4_U+30FC 1
 62
   179
420
  2234388
100
AcDbHatch
 10
0.0
 20
0.0
 30
0.0
210
0.0
220
0.0
230
1.0
  2
SOLID
 70
     1
 71
     0
 91
        3
 92
        1
 93
        1
 72
     4
 94
        3
 73
     0
 74
     1
 95
       26
 96
       22
 40
0.0
 40
0.0
 40
0.0
 40
0.0
 40
1.0
 40
1.0
 40
1.0
 40
2.0
 40
2.0
 40
2.0
 40
3.0
 40
3.0
 40
3.0
 40
4.0
 40
4.0
 40
4.0
 40
5.0
 40
5.0
 40
5.0
 40
6.0
 40
6.0
 40
6.0
 40
7.0
 40
7.0
 40
7.0
 40
7.0
 10
88.76667478249584
 20
-127.5539713222782
 10
88.76667478249584
 20
-127.5539713222782
 10
88.15585935296104
 20
-127.2525254673188
 10
88.15585935296104
 20
-127.2525254673188
 10
88.15585935296104
 20
-127.2525254673188
 10
88.83884953291182
 20
-125.8675970822484
 10
88.83884953291182
 20
-125.8675970822484
 10
88.83884953291182
 20
-125.8675970822484
 10
89.4382961473453
 20
-126.1631862748828
 10
89.4382961473453
 20
-126.1631862748828
 10
89.63001571109945
 20
-126.2579264007272
 10
89.7729871737373
 20
-126.4511962574497
 10
89.65413137949619
 20
-126.6923529414172
 10
89.5494004767446
 20
-126.9045708233086
 10
89.37128904015718
 20
-126.896991613241
 10
89.29739174199857
 20
-126.8935465177558
 10
89.35268552453684
 20
-126.9393662877096
 10
89.53114147067278
 20
-127.0937065654488
 10
89.3964382371995
 20
-127.3669026374291
 10
89.29446341083612
 20
-127.5736083665441
 10
89.0570963319024
 20
-127.6972872944646
 10
88.76667478249584
 20
-127.5539713222782
 97
        0
 97
        0
 92
        1
 93
        1
 72
     4
 94
        3
 73
     0
 74
     1
 95
       20
 96
       16
 40
0.0
 40
0.0
 40
0.0
 40
0.0
 40
1.0
 40
1.0
 40
1.0
 40
2.0
 40
2.0
 40
2.0
 40
3.0
 40
3.0
 40
3.0
 40
4.0
 40
4.0
 40
4.0
 40
5.0
 40
5.0
 40
5.0
 40
5.0
 10
89.051584179126
 20
-126.9090494474394
 10
89.051584179126
 20
-126.9090494474394
 10
88.67796357375065
 20
-126.7247368389785
 10
88.67796357375065
 20
-126.7247368389785
 10
88.67796357375065
 20
-126.7247368389785
 10
88.4600612843086
 20
-127.1670870992846
 10
88.4600612843086
 20
-127.1670870992846
 10
88.4600612843086
 20
-127.1670870992846
 10
88.83350963490969
 20
-127.351055198197
 10
88.83350963490969
 20
-127.351055198197
 10
88.97613658799902
 20
-127.4213351460961
 10
89.11480168128033
 20
-127.3882622294377
 10
89.18490937440517
 20
-127.2459797858968
 10
89.24588756449408
 20
-127.1226453675249
 10
89.2073024950593
 20
-126.9858750767605
 10
89.051584179126
 20
-126.9090494474394
 97
        0
 97
        0
 92
        1
 93
        1
 72
     4
 94
        3
 73
     0
 74
     1
 95
       20
 96
       16
 40
0.0
 40
0.0
 40
0.0
 40
0.0
 40
1.0
 40
1.0
 40
1.0
 40
2.0
 40
2.0
 40
2.0
 40
3.0
 40
3.0
 40
3.0
 40
4.0
 40
4.0
 40
4.0
 40
5.0
 40
5.0
 40
5.0
 40
5.0
 10
89.28206106708922
 20
-126.3220051767528
 10
89.28206106708922
 20
-126.3220051767528
 10
88.95581052463605
 20
-126.1611192175917
 10
88.95581052463605
 20
-126.1611192175917
 10
88.95581052463605
 20
-126.1611192175917
 10
88.77149791617518
 20
-126.5352565872898
 10
88.77149791617518
 20
-126.5352565872898
 10
88.77149791617518
 20
-126.5352565872898
 10
89.09774845862835
 20
-126.696142546451
 10
89.09774845862835
 20
-126.696142546451
 10
89.22314993429144
 20
-126.7578097556369
 10
89.34786239085749
 20
-126.7578097556369
 10
89.41607528146542
 20
-126.6193169171299
 10
89.48997257962404
 20
-126.4694552635215
 10
89.38644746029227
 20
-126.3733370994831
 10
89.28206106708922
 20
-126.3220051767528
 97
        0
 97
        0
 75
     2
 76
     1
 98
        0
  0
ENDBLK
  5
71
330
6E
100
AcDbEntity
  8
0
100
AcDbBlockEnd
  0
ENDSEC
  0
SECTION
  2
ENTITIES
  0
INSERT
  5
42
330
1F
100
AcDbEntity
  8
_U+30EC_U+30A4_U+30E4_U+30FC 1
100
AcDbBlockReference
  2
block 2
 10
0.0
 20
0.0
 30
0.0
  0
INSERT
  5
6F
330
1F
100
AcDbEntity
  8
_U+30EC_U+30A4_U+30E4_U+30FC 1
100
AcDbBlockReference
  2
block 3
 10
0.0
 20
0.0
 30
0.0
  0
SPLINE
  5
9B
330
1F
100
AcDbEntity
  8
_U+30EC_U+30A4_U+30E4_U+30FC 1
 62
   179
420
  2234388
370
    15
100
AcDbSpline
210
0.0
220
0.0
230
1.0
 70
     8
 71
     3
 72
     8
 73
     4
 74
     0
 42
0.0000000001
 43
0.0000000001
 12
1.0
 22
0.0
 32
0.0
 13
1.0
 23
0.0
 33
0.0
 40
0.0
 40
0.0
 40
0.0
 40
0.0
 40
1.0
 40
1.0
 40
1.0
 40
1.0
 10
74.83728809074172
 20
-127.004127468249
 30
0.0
 10
76.11025139159905
 20
-126.8201538571839
 30
0.0
 10
77.03629303464042
 20
-125.1224108020528
 30
0.0
 10
76.93155331509034
 20
-123.3771485802667
 30
0.0
  0
POLYLINE
  5
9C
330
1F
100
AcDbEntity
  8
_U+30EC_U+30A4_U+30E4_U+30FC 1
 62
   179
420
  2234388
370
    15
100
AcDb2dPolyline
 66
     1
 10
0.0
 20
0.0
 30
0.0
  0
VERTEX
  5
9D
330
9C
100
AcDbEntity
  8
_U+30EC_U+30A4_U+30E4_U+30FC 1
 62
   179
420
  2234388
370
    15
100
AcDbVertex
100
AcDb2dVertex
 10
90.9682632347618
 20
-135.7718899660571
 30
0.0
  0
VERTEX
  5
9E
330
9C
100
AcDbEntity
  8
_U+30EC_U+30A4_U+30E4_U+30FC 1
 62
   179
420
  2234388
370
    15
100
AcDbVertex
100
AcDb2dVertex
 10
74.47798393324166
 20
-127.6263216347602
 30
0.0
  0
VERTEX
  5
9F
330
9C
100
AcDbEntity
  8
_U+30EC_U+30A4_U+30E4_U+30FC 1
 62
   179
420
  2234388
370
    15
100
AcDbVertex
100
AcDb2dVertex
 10
74.83728809074172
 20
-127.004127468249
 30
0.0
  0
SEQEND
  5
A0
330
9C
100
AcDbEntity
  8
_U+30EC_U+30A4_U+30E4_U+30FC 1
 62
   179
420
  2234388
370
    15
  0
POLYLINE
  5
A1
330
1F
100
AcDbEntity
  8
_U+30EC_U+30A4_U+30E4_U+30FC 1
 62
   179
420
  2234388
370
    15
100
AcDb2dPolyline
 66
     1
 10
0.0
 20
0.0
 30
0.0
  0
VERTEX
  5
A2
330
A1
100
AcDbEntity
  8
_U+30EC_U+30A4_U+30E4_U+30FC 1
 62
   179
420
  2234388
370
    15
100
AcDbVertex
100
AcDb2dVertex
 10
74.83728809074172
 20
-127.004127468249
 30
0.0
  0
VERTEX
  5
A3
330
A1
100
AcDbEntity
  8
_U+30EC_U+30A4_U+30E4_U+30FC 1
 62
   179
420
  2234388
370
    15
100
AcDbVertex
100
AcDb2dVertex
 10
90.9682632347618
 20
-134.971966355146
 30
0.0
  0
SEQEND
  5
A4
330
A1
100
AcDbEntity
  8
_U+30EC_U+30A4_U+30E4_U+30FC 1
 62
   179
420
  2234388
370
    15
  0
POLYLINE
  5
A5
330
1F
100
AcDbEntity
  8
_U+30EC_U+30A4_U+30E4_U+30FC 1
 62
   179
420
  2234388
370
    15
100
AcDb2dPolyline
 66
     1
 10
0.0
 20
0.0
 30
0.0
  0
VERTEX
  5
A6
330
A5
100
AcDbEntity
  8
_U+30EC_U+30A4_U+30E4_U+30FC 1
 62
   179
420
  2234388
370
    15
100
AcDbVertex
100
AcDb2dVertex
 10
90.9682632347618
 20
-129.510084412067
 30
0.0
  0
VERTEX
  5
A7
330
A5
100
AcDbEntity
  8
_U+30EC_U+30A4_U+30E4_U+30FC 1
 62
   179
420
  2234388
370
    15
100
AcDbVertex
100
AcDb2dVertex
 10
77.29106913925166
 20
-122.7542488582002
 30
0.0
  0
VERTEX
  5
A8
330
A5
100
AcDbEntity
  8
_U+30EC_U+30A4_U+30E4_U+30FC 1
 62
   179
420
  2234388
370
    15
100
AcDbVertex
100
AcDb2dVertex
 10
76.93172970397472
 20
-123.3764430247115
 30
0.0
  0
SEQEND
  5
A9
330
A5
100
AcDbEntity
  8
_U+30EC_U+30A4_U+30E4_U+30FC 1
 62
   179
420
  2234388
370
    15
  0
POLYLINE
  5
AA
330
1F
100
AcDbEntity
  8
_U+30EC_U+30A4_U+30E4_U+30FC 1
 62
   179
420
  2234388
370
    15
100
AcDb2dPolyline
 66
     1
 10
0.0
 20
0.0
 30
0.0
  0
VERTEX
  5
AB
330
AA
100
AcDbEntity
  8
_U+30EC_U+30A4_U+30E4_U+30FC 1
 62
   179
420
  2234388
370
    15
100
AcDbVertex
100
AcDb2dVertex
 10
76.93172970397472
 20
-123.3764430247115
 30
0.0
  0
VERTEX
  5
AC
330
AA
100
AcDbEntity
  8
_U+30EC_U+30A4_U+30E4_U+30FC 1
 62
   179
420
  2234388
370
    15
100
AcDbVertex
100
AcDb2dVertex
 10
90.9682632347618
 20
-130.3100433007556
 30
0.0
  0
SEQEND
  5
AD
330
AA
100
AcDbEntity
  8
_U+30EC_U+30A4_U+30E4_U+30FC 1
 62
   179
420
  2234388
370
    15
  0
POLYLINE
  5
AE
330
1F
100
AcDbEntity
  8
_U+30EC_U+30A4_U+30E4_U+30FC 1
 62
   179
420
  2234388
370
    15
100
AcDb2dPolyline
 66
     1
 10
0.0
 20
0.0
 30
0.0
  0
VERTEX
  5
AF
330
AE
100
AcDbEntity
  8
_U+30EC_U+30A4_U+30E4_U+30FC 1
 62
   179
420
  2234388
370
    15
100
AcDbVertex
100
AcDb2dVertex
 10
75.51631664778756
 20
-126.7402496905373
 30
0.0
  0
VERTEX
  5
B0
330
AE
100
AcDbEntity
  8
_U+30EC_U+30A4_U+30E4_U+30FC 1
 62
   179
420
  2234388
370
    15
100
AcDbVertex
100
AcDb2dVertex
 10
74.20839116234177
 20
-126.0932552462544
 30
0.0
  0
VERTEX
  5
B1
330
AE
100
AcDbEntity
  8
_U+30EC_U+30A4_U+30E4_U+30FC 1
 62
   179
420
  2234388
370
    15
100
AcDbVertex
100
AcDb2dVertex
 10
74.47798393324166
 20
-127.6263216347602
 30
0.0
  0
SEQEND
  5
B2
330
AE
100
AcDbEntity
  8
_U+30EC_U+30A4_U+30E4_U+30FC 1
 62
   179
420
  2234388
370
    15
  0
POLYLINE
  5
B3
330
1F
100
AcDbEntity
  8
_U+30EC_U+30A4_U+30E4_U+30FC 1
 62
   179
420
  2234388
370
    15
100
AcDb2dPolyline
 66
     1
 10
0.0
 20
0.0
 30
0.0
  0
VERTEX
  5
B4
330
B3
100
AcDbEntity
  8
_U+30EC_U+30A4_U+30E4_U+30FC 1
 62
   179
420
  2234388
370
    15
100
AcDbVertex
100
AcDb2dVertex
 10
77.29106913925166
 20
-122.7542488582002
 30
0.0
  0
VERTEX
  5
B5
330
B3
100
AcDbEntity
  8
_U+30EC_U+30A4_U+30E4_U+30FC 1
 62
   179
420
  2234388
370
    15
100
AcDbVertex
100
AcDb2dVertex
 10
75.76385890043626
 20
-123.3991971913723
 30
0.0
  0
VERTEX
  5
B6
330
B3
100
AcDbEntity
  8
_U+30EC_U+30A4_U+30E4_U+30FC 1
 62
   179
420
  2234388
370
    15
100
AcDbVertex
100
AcDb2dVertex
 10
76.91504331551154
 20
-123.9648763578976
 30
0.0
  0
SEQEND
  5
B7
330
B3
100
AcDbEntity
  8
_U+30EC_U+30A4_U+30E4_U+30FC 1
 62
   179
420
  2234388
370
    15
  0
SPLINE
  5
B8
330
1F
100
AcDbEntity
  8
_U+30EC_U+30A4_U+30E4_U+30FC 1
 62
   179
420
  2234388
370
    15
100
AcDbSpline
210
0.0
220
0.0
230
1.0
 70
     8
 71
     3
 72
     8
 73
     4
 74
     0
 42
0.0000000001
 43
0.0000000001
 12
1.0
 22
0.0
 32
0.0
 13
1.0
 23
0.0
 33
0.0
 40
0.0
 40
0.0
 40
0.0
 40
0.0
 40
1.0
 40
1.0
 40
1.0
 40
1.0
 10
107.0990619898975
 20
-127.004127468249
 30
0.0
 10
105.826451466809
 20
-126.8201538571839
 30
0.0
 10
104.9004098237676
 20
-125.1224108020528
 30
0.0
 10
105.0051142655408
 20
-123.3771485802667
 30
0.0
  0
POLYLINE
  5
B9
330
1F
100
AcDbEntity
  8
_U+30EC_U+30A4_U+30E4_U+30FC 1
 62
   179
420
  2234388
370
    15
100
AcDb2dPolyline
 66
     1
 10
0.0
 20
0.0
 30
0.0
  0
VERTEX
  5
BA
330
B9
100
AcDbEntity
  8
_U+30EC_U+30A4_U+30E4_U+30FC 1
 62
   179
420
  2234388
370
    15
100
AcDbVertex
100
AcDb2dVertex
 10
90.9682632347618
 20
-135.7718899660571
 30
0.0
  0
VERTEX
  5
BB
330
B9
100
AcDbEntity
  8
_U+30EC_U+30A4_U+30E4_U+30FC 1
 62
   179
420
  2234388
370
    15
100
AcDbVertex
100
AcDb2dVertex
 10
107.4587189251664
 20
-127.6263216347602
 30
0.0
  0
VERTEX
  5
BC
330
B9
100
AcDbEntity
  8
_U+30EC_U+30A4_U+30E4_U+30FC 1
 62
   179
420
  2234388
370
    15
100
AcDbVertex
100
AcDb2dVertex
 10
107.0990619898975
 20
-127.004127468249
 30
0.0
  0
SEQEND
  5
BD
330
B9
100
AcDbEntity
  8
_U+30EC_U+30A4_U+30E4_U+30FC 1
 62
   179
420
  2234388
370
    15
  0
POLYLINE
  5
BE
330
1F
100
AcDbEntity
  8
_U+30EC_U+30A4_U+30E4_U+30FC 1
 62
   179
420
  2234388
370
    15
100
AcDb2dPolyline
 66
     1
 10
0.0
 20
0.0
 30
0.0
  0
VERTEX
  5
BF
330
BE
100
AcDbEntity
  8
_U+30EC_U+30A4_U+30E4_U+30FC 1
 62
   179
420
  2234388
370
    15
100
AcDbVertex
100
AcDb2dVertex
 10
107.0990619898975
 20
-127.004127468249
 30
0.0
  0
VERTEX
  5
C0
330
BE
100
AcDbEntity
  8
_U+30EC_U+30A4_U+30E4_U+30FC 1
 62
   179
420
  2234388
370
    15
100
AcDbVertex
100
AcDb2dVertex
 10
90.9682632347618
 20
-134.971966355146
 30
0.0
  0
SEQEND
  5
C1
330
BE
100
AcDbEntity
  8
_U+30EC_U+30A4_U+30E4_U+30FC 1
 62
   179
420
  2234388
370
    15
  0
POLYLINE
  5
C2
330
1F
100
AcDbEntity
  8
_U+30EC_U+30A4_U+30E4_U+30FC 1
 62
   179
420
  2234388
370
    15
100
AcDb2dPolyline
 66
     1
 10
0.0
 20
0.0
 30
0.0
  0
VERTEX
  5
C3
330
C2
100
AcDbEntity
  8
_U+30EC_U+30A4_U+30E4_U+30FC 1
 62
   179
420
  2234388
370
    15
100
AcDbVertex
100
AcDb2dVertex
 10
90.9682632347618
 20
-129.510084412067
 30
0.0
  0
VERTEX
  5
C4
330
C2
100
AcDbEntity
  8
_U+30EC_U+30A4_U+30E4_U+30FC 1
 62
   179
420
  2234388
370
    15
100
AcDbVertex
100
AcDb2dVertex
 10
104.645457330272
 20
-122.7542488582002
 30
0.0
  0
VERTEX
  5
C5
330
C2
100
AcDbEntity
  8
_U+30EC_U+30A4_U+30E4_U+30FC 1
 62
   179
420
  2234388
370
    15
100
AcDbVertex
100
AcDb2dVertex
 10
105.0051142655408
 20
-123.3764430247115
 30
0.0
  0
SEQEND
  5
C6
330
C2
100
AcDbEntity
  8
_U+30EC_U+30A4_U+30E4_U+30FC 1
 62
   179
420
  2234388
370
    15
  0
POLYLINE
  5
C7
330
1F
100
AcDbEntity
  8
_U+30EC_U+30A4_U+30E4_U+30FC 1
 62
   179
420
  2234388
370
    15
100
AcDb2dPolyline
 66
     1
 10
0.0
 20
0.0
 30
0.0
  0
VERTEX
  5
C8
330
C7
100
AcDbEntity
  8
_U+30EC_U+30A4_U+30E4_U+30FC 1
 62
   179
420
  2234388
370
    15
100
AcDbVertex
100
AcDb2dVertex
 10
105.0051142655408
 20
-123.3764430247115
 30
0.0
  0
VERTEX
  5
C9
330
C7
100
AcDbEntity
  8
_U+30EC_U+30A4_U+30E4_U+30FC 1
 62
   179
420
  2234388
370
    15
100
AcDbVertex
100
AcDb2dVertex
 10
90.9682632347618
 20
-130.3100433007556
 30
0.0
  0
SEQEND
  5
CA
330
C7
100
AcDbEntity
  8
_U+30EC_U+30A4_U+30E4_U+30FC 1
 62
   179
420
  2234388
370
    15
  0
POLYLINE
  5
CB
330
1F
100
AcDbEntity
  8
_U+30EC_U+30A4_U+30E4_U+30FC 1
 62
   179
420
  2234388
370
    15
100
AcDb2dPolyline
 66
     1
 10
0.0
 20
0.0
 30
0.0
  0
VERTEX
  5
CC
330
CB
100
AcDbEntity
  8
_U+30EC_U+30A4_U+30E4_U+30FC 1
 62
   179
420
  2234388
370
    15
100
AcDbVertex
100
AcDb2dVertex
 10
106.420388118323
 20
-126.7402496905373
 30
0.0
  0
VERTEX
  5
CD
330
CB
100
AcDbEntity
  8
_U+30EC_U+30A4_U+30E4_U+30FC 1
 62
   179
420
  2234388
370
    15
100
AcDbVertex
100
AcDb2dVertex
 10
107.7281353071819
 20
-126.0932552462544
 30
0.0
  0
VERTEX
  5
CE
330
CB
100
AcDbEntity
  8
_U+30EC_U+30A4_U+30E4_U+30FC 1
 62
   179
420
  2234388
370
    15
100
AcDbVertex
100
AcDb2dVertex
 10
107.4587189251664
 20
-127.6263216347602
 30
0.0
  0
SEQEND
  5
CF
330
CB
100
AcDbEntity
  8
_U+30EC_U+30A4_U+30E4_U+30FC 1
 62
   179
420
  2234388
370
    15
  0
POLYLINE
  5
D0
330
1F
100
AcDbEntity
  8
_U+30EC_U+30A4_U+30E4_U+30FC 1
 62
   179
420
  2234388
370
    15
100
AcDb2dPolyline
 66
     1
 10
0.0
 20
0.0
 30
0.0
  0
VERTEX
  5
D1
330
D0
100
AcDbEntity
  8
_U+30EC_U+30A4_U+30E4_U+30FC 1
 62
   179
420
  2234388
370
    15
100
AcDbVertex
100
AcDb2dVertex
 10
104.645457330272
 20
-122.7542488582002
 30
0.0
  0
VERTEX
  5
D2
330
D0
100
AcDbEntity
  8
_U+30EC_U+30A4_U+30E4_U+30FC 1
 62
   179
420
  2234388
370
    15
100
AcDbVertex
100
AcDb2dVertex
 10
106.1730203468561
 20
-123.3991971913723
 30
0.0
  0
VERTEX
  5
D3
330
D0
100
AcDbEntity
  8
_U+30EC_U+30A4_U+30E4_U+30FC 1
 62
   179
420
  2234388
370
    15
100
AcDbVertex
100
AcDb2dVertex
 10
105.0271628760894
 20
-123.9648763578976
 30
0.0
  0
SEQEND
  5
D4
330
D0
100
AcDbEntity
  8
_U+30EC_U+30A4_U+30E4_U+30FC 1
 62
   179
420
  2234388
370
    15
  0
POLYLINE
  5
D5
330
1F
100
AcDbEntity
  8
_U+30EC_U+30A4_U+30E4_U+30FC 1
 62
   179
420
  2234388
370
    15
100
AcDb2dPolyline
 66
     1
 10
0.0
 20
0.0
 30
0.0
  0
VERTEX
  5
D6
330
D5
100
AcDbEntity
  8
_U+30EC_U+30A4_U+30E4_U+30FC 1
 62
   179
420
  2234388
370
    15
100
AcDbVertex
100
AcDb2dVertex
 10
90.9682632347618
 20
-129.510084412067
 30
0.0
  0
VERTEX
  5
D7
330
D5
100
AcDbEntity
  8
_U+30EC_U+30A4_U+30E4_U+30FC 1
 62
   179
420
  2234388
370
    15
100
AcDbVertex
100
AcDb2dVertex
 10
90.9682632347618
 20
-135.7718899660571
 30
0.0
  0
SEQEND
  5
D8
330
D5
100
AcDbEntity
  8
_U+30EC_U+30A4_U+30E4_U+30FC 1
 62
   179
420
  2234388
370
    15
  0
ENDSEC
  0
SECTION
  2
OBJECTS
  0
DICTIONARY
  5
C
330
0
100
AcDbDictionary
281
     1
  3
ACAD_GROUP
350
D
  3
ACAD_LAYOUT
350
1A
  3
ACAD_MATERIAL
350
3B
  3
ACAD_MLEADERSTYLE
350
DA
  3
ACAD_MLINESTYLE
350
17
  3
ACAD_PLOTSETTINGS
350
19
  3
ACAD_PLOTSTYLENAME
350
E
  3
ACAD_TABLESTYLE
350
D9
  3
ACAD_VISUALSTYLE
350
2A
  0
SUN
  5
3F
330
29
100
AcDbSun
 90
        1
290
     0
 63
     7
421
 16777215
 40
1.0
291
     1
 91
  2455826
 92
 54000000
292
     0
 70
     2
 71
   256
280
     1
  0
DICTIONARY
  5
D
102
{ACAD_REACTORS
330
C
102
}
330
C
100
AcDbDictionary
281
     1
  0
DICTIONARY
  5
1A
102
{ACAD_REACTORS
330
C
102
}
330
C
100
AcDbDictionary
281
     1
  3
Layout1
350
1E
  3
Layout2
350
26
  3
Model
350
22
  0
DICTIONARY
  5
3B
102
{ACAD_REACTORS
330
C
102
}
330
C
100
AcDbDictionary
281
     1
  3
ByBlock
350
3D
  3
ByLayer
350
3C
  3
Global
350
3E
  0
DICTIONARY
  5
DA
102
{ACAD_REACTORS
330
C
102
}
330
C
100
AcDbDictionary
281
     1
  0
DICTIONARY
  5
17
102
{ACAD_REACTORS
330
C
102
}
330
C
100
AcDbDictionary
281
     1
  3
Standard
350
18
  0
DICTIONARY
  5
19
102
{ACAD_REACTORS
330
C
102
}
330
C
100
AcDbDictionary
281
     1
  0
ACDBDICTIONARYWDFLT
  5
E
102
{ACAD_REACTORS
330
C
102
}
330
C
100
AcDbDictionary
281
     1
  3
Normal
350
F
100
AcDbDictionaryWithDefault
340
F
  0
DICTIONARY
  5
D9
102
{ACAD_REACTORS
330
C
102
}
330
C
100
AcDbDictionary
281
     1
  0
DICTIONARY
  5
2A
102
{ACAD_REACTORS
330
C
102
}
330
C
100
AcDbDictionary
281
     1
  3
2dWireframe
350
2F
  3
3D Hidden
350
31
  3
3dWireframe
350
30
  3
Basic
350
32
  3
Brighten
350
36
  3
ColorChange
350
3A
  3
Conceptual
350
34
  3
Dim
350
35
  3
Facepattern
350
39
  3
Flat
350
2B
  3
FlatWithEdges
350
2C
  3
Gouraud
350
2D
  3
GouraudWithEdges
350
2E
  3
Linepattern
350
38
  3
Realistic
350
33
  3
Thicken
350
37
  0
LAYOUT
  5
1E
102
{ACAD_REACTORS
330
1A
102
}
330
1A
100
AcDbPlotSettings
  1

  2
none_device
  4

  6

 40
0.0
 41
0.0
 42
0.0
 43
0.0
 44
0.0
 45
0.0
 46
0.0
 47
0.0
 48
0.0
 49
0.0
140
0.0
141
0.0
142
1.0
143
1.0
 70
   688
 72
     0
 73
     0
 74
     5
  7

 75
    16
 76
     0
 77
     2
 78
   300
147
1.0
148
0.0
149
0.0
100
AcDbLayout
  1
Layout1
 70
     1
 71
     1
 10
0.0
 20
0.0
 11
12.0
 21
9.0
 12
0.0
 22
0.0
 32
0.0
 14
1.000000000000000E+20
 24
1.000000000000000E+20
 34
1.000000000000000E+20
 15
-1.000000000000000E+20
 25
-1.000000000000000E+20
 35
-1.000000000000000E+20
146
0.0
 13
0.0
 23
0.0
 33
0.0
 16
1.0
 26
0.0
 36
0.0
 17
0.0
 27
1.0
 37
0.0
 76
     0
330
1B
  0
LAYOUT
  5
26
102
{ACAD_REACTORS
330
1A
102
}
330
1A
100
AcDbPlotSettings
  1

  2
none_device
  4

  6

 40
0.0
 41
0.0
 42
0.0
 43
0.0
 44
0.0
 45
0.0
 46
0.0
 47
0.0
 48
0.0
 49
0.0
140
0.0
141
0.0
142
1.0
143
1.0
 70
   688
 72
     0
 73
     0
 74
     5
  7

 75
    16
 76
     0
 77
     2
 78
   300
147
1.0
148
0.0
149
0.0
100
AcDbLayout
  1
Layout2
 70
     1
 71
     2
 10
0.0
 20
0.0
 11
0.0
 21
0.0
 12
0.0
 22
0.0
 32
0.0
 14
0.0
 24
0.0
 34
0.0
 15
0.0
 25
0.0
 35
0.0
146
0.0
 13
0.0
 23
0.0
 33
0.0
 16
1.0
 26
0.0
 36
0.0
 17
0.0
 27
1.0
 37
0.0
 76
     0
330
23
  0
LAYOUT
  5
22
102
{ACAD_REACTORS
330
1A
102
}
330
1A
100
AcDbPlotSettings
  1

  2
none_device
  4

  6

 40
0.0
 41
0.0
 42
0.0
 43
0.0
 44
0.0
 45
0.0
 46
0.0
 47
0.0
 48
0.0
 49
0.0
140
0.0
141
0.0
142
1.0
143
1.0
 70
  1712
 72
     0
 73
     0
 74
     0
  7

 75
     0
 76
     0
 77
     2
 78
   300
147
1.0
148
0.0
149
0.0
100
AcDbLayout
  1
Model
 70
     1
 71
     0
 10
0.0
 20
0.0
 11
12.0
 21
9.0
 12
0.0
 22
0.0
 32
0.0
 14
1.000000000000000E+20
 24
1.000000000000000E+20
 34
1.000000000000000E+20
 15
-1.000000000000000E+20
 25
-1.000000000000000E+20
 35
-1.000000000000000E+20
146
0.0
 13
0.0
 23
0.0
 33
0.0
 16
1.0
 26
0.0
 36
0.0
 17
0.0
 27
1.0
 37
0.0
 76
     0
330
1F
331
29
  0
MATERIAL
  5
3D
102
{ACAD_REACTORS
330
3B
102
}
330
3B
100
AcDbMaterial
  1
ByBlock
 72
     1
 94
      127
  0
MATERIAL
  5
3C
102
{ACAD_REACTORS
330
3B
102
}
330
3B
100
AcDbMaterial
  1
ByLayer
 72
     1
 94
      127
  0
MATERIAL
  5
3E
102
{ACAD_REACTORS
330
3B
102
}
330
3B
100
AcDbMaterial
  1
Global
 72
     1
 94
      127
  0
MLINESTYLE
  5
18
102
{ACAD_REACTORS
330
17
102
}
330
17
100
AcDbMlineStyle
  2
Standard
 70
     0
  3

 62
   256
 51
90.0
 52
90.0
 71
     2
 49
0.5
 62
   256
  6
BYLAYER
 49
-0.5
 62
   256
  6
BYLAYER
  0
ACDBPLACEHOLDER
  5
F
102
{ACAD_REACTORS
330
E
102
}
330
E
  0
VISUALSTYLE
  5
2F
102
{ACAD_REACTORS
330
2A
102
}
330
2A
100
AcDbVisualStyle
  2
2dWireframe
 70
     4
177
     2
291
     0
 71
     0
176
     1
 72
     2
176
     1
 73
     0
176
     1
 90
        0
176
     1
 40
-0.6
176
     1
 41
-30.0
176
     1
 62
     5
 63
     7
421
 16777215
176
     1
 74
     1
176
     1
 91
        4
176
     1
 64
     7
176
     1
 65
   257
176
     1
 75
     1
176
     1
175
     1
176
     1
 42
1.0
176
     1
 92
        0
176
     1
 66
   257
176
     1
 43
1.0
176
     1
 76
     1
176
     1
 77
     6
176
     1
 78
     2
176
     1
 67
     7
176
     1
 79
     5
176
     1
170
     0
176
     1
171
     0
176
     1
290
     0
176
     1
 93
        1
176
     1
 44
0.0
176
     1
173
     0
176
     1
  0
VISUALSTYLE
  5
31
102
{ACAD_REACTORS
330
2A
102
}
330
2A
100
AcDbVisualStyle
  2
3D Hidden
 70
     6
177
     2
291
     0
 71
     1
176
     1
 72
     2
176
     1
 73
     2
176
     1
 90
        0
176
     1
 40
-0.6
176
     1
 41
-30.0
176
     1
 62
     5
 63
     7
421
 16777215
176
     1
 74
     2
176
     1
 91
        2
176
     1
 64
     7
176
     1
 65
   257
176
     1
 75
     2
176
     1
175
     1
176
     1
 42
40.0
176
     1
 92
        0
176
     1
 66
   257
176
     1
 43
1.0
176
     1
 76
     1
176
     1
 77
     6
176
     1
 78
     2
176
     1
 67
     7
176
     1
 79
     3
176
     1
170
     0
176
     1
171
     0
176
     1
290
     0
176
     1
 93
        1
176
     1
 44
0.0
176
     1
173
     0
176
     1
  0
VISUALSTYLE
  5
30
102
{ACAD_REACTORS
330
2A
102
}
330
2A
100
AcDbVisualStyle
  2
3dWireframe
 70
     5
177
     2
291
     0
 71
     0
176
     1
 72
     2
176
     1
 73
     0
176
     1
 90
        0
176
     1
 40
-0.6
176
     1
 41
-30.0
176
     1
 62
     5
 63
     7
421
 16777215
176
     1
 74
     1
176
     1
 91
        4
176
     1
 64
     7
176
     1
 65
   257
176
     1
 75
     1
176
     1
175
     1
176
     1
 42
1.0
176
     1
 92
        0
176
     1
 66
   257
176
     1
 43
1.0
176
     1
 76
     1
176
     1
 77
     6
176
     1
 78
     2
176
     1
 67
     7
176
     1
 79
     5
176
     1
170
     0
176
     1
171
     0
176
     1
290
     0
176
     1
 93
        1
176
     1
 44
0.0
176
     1
173
     0
176
     1
  0
VISUALSTYLE
  5
32
102
{ACAD_REACTORS
330
2A
102
}
330
2A
100
AcDbVisualStyle
  2
Basic
 70
     7
177
     2
291
     1
 71
     1
176
     1
 72
     0
176
     1
 73
     1
176
     1
 90
        0
176
     1
 40
-0.6
176
     1
 41
-30.0
176
     1
 62
     5
 63
     7
421
 16777215
176
     1
 74
     0
176
     1
 91
        4
176
     1
 64
     7
176
     1
 65
   257
176
     1
 75
     1
176
     1
175
     1
176
     1
 42
1.0
176
     1
 92
        8
176
     1
 66
     7
176
     1
 43
1.0
176
     1
 76
     1
176
     1
 77
     6
176
     1
 78
     2
176
     1
 67
     7
176
     1
 79
     5
176
     1
170
     0
176
     1
171
     0
176
     1
290
     0
176
     1
 93
        1
176
     1
 44
0.0
176
     1
173
     0
176
     1
  0
VISUALSTYLE
  5
36
102
{ACAD_REACTORS
330
2A
102
}
330
2A
100
AcDbVisualStyle
  2
Brighten
 70
    12
177
     2
291
     1
 71
     2
176
     1
 72
     2
176
     1
 73
     0
176
     1
 90
        0
176
     1
 40
-0.6
176
     1
 41
-30.0
176
     1
 62
     5
 63
     7
421
 16777215
176
     1
 74
     1
176
     1
 91
        4
176
     1
 64
     7
176
     1
 65
   257
176
     1
 75
     1
176
     1
175
     1
176
     1
 42
1.0
176
     1
 92
        8
176
     1
 66
     7
176
     1
 43
1.0
176
     1
 76
     1
176
     1
 77
     6
176
     1
 78
     2
176
     1
 67
     7
176
     1
 79
     5
176
     1
170
     0
176
     1
171
     0
176
     1
290
     0
176
     1
 93
        1
176
     1
 44
50.0
176
     1
173
     0
176
     1
  0
VISUALSTYLE
  5
3A
102
{ACAD_REACTORS
330
2A
102
}
330
2A
100
AcDbVisualStyle
  2
ColorChange
 70
    16
177
     2
291
     1
 71
     2
176
     1
 72
     2
176
     1
 73
     3
176
     1
 90
        0
176
     1
 40
-0.6
176
     1
 41
-30.0
176
     1
 62
     5
 63
     8
421
  8421504
176
     1
 74
     1
176
     1
 91
        4
176
     1
 64
     7
176
     1
 65
   257
176
     1
 75
     1
176
     1
175
     1
176
     1
 42
1.0
176
     1
 92
        8
176
     1
 66
     8
424
  8421504
176
     1
 43
1.0
176
     1
 76
     1
176
     1
 77
     6
176
     1
 78
     2
176
     1
 67
     7
176
     1
 79
     5
176
     1
170
     0
176
     1
171
     0
176
     1
290
     0
176
     1
 93
        1
176
     1
 44
0.0
176
     1
173
     0
176
     1
  0
VISUALSTYLE
  5
34
102
{ACAD_REACTORS
330
2A
102
}
330
2A
100
AcDbVisualStyle
  2
Conceptual
 70
     9
177
     2
291
     0
 71
     3
176
     1
 72
     2
176
     1
 73
     0
176
     1
 90
        0
176
     1
 40
-0.6
176
     1
 41
-30.0
176
     1
 62
     5
 63
     7
421
 16777215
176
     1
 74
     2
176
     1
 91
        2
176
     1
 64
     7
176
     1
 65
   257
176
     1
 75
     1
176
     1
175
     1
176
     1
 42
40.0
176
     1
 92
        8
176
     1
 66
     7
176
     1
 43
1.0
176
     1
 76
     1
176
     1
 77
     6
176
     1
 78
     2
176
     1
 67
     7
176
     1
 79
     3
176
     1
170
     0
176
     1
171
     0
176
     1
290
     0
176
     1
 93
        1
176
     1
 44
0.0
176
     1
173
     0
176
     1
  0
VISUALSTYLE
  5
35
102
{ACAD_REACTORS
330
2A
102
}
330
2A
100
AcDbVisualStyle
  2
Dim
 70
    11
177
     2
291
     1
 71
     2
176
     1
 72
     2
176
     1
 73
     0
176
     1
 90
        0
176
     1
 40
-0.6
176
     1
 41
-30.0
176
     1
 62
     5
 63
     7
421
 16777215
176
     1
 74
     1
176
     1
 91
        4
176
     1
 64
     7
176
     1
 65
   257
176
     1
 75
     1
176
     1
175
     1
176
     1
 42
1.0
176
     1
 92
        8
176
     1
 66
     7
176
     1
 43
1.0
176
     1
 76
     1
176
     1
 77
     6
176
     1
 78
     2
176
     1
 67
     7
176
     1
 79
     5
176
     1
170
     0
176
     1
171
     0
176
     1
290
     0
176
     1
 93
        1
176
     1
 44
-50.0
176
     1
173
     0
176
     1
  0
VISUALSTYLE
  5
39
102
{ACAD_REACTORS
330
2A
102
}
330
2A
100
AcDbVisualStyle
  2
Facepattern
 70
    15
177
     2
291
     1
 71
     2
176
     1
 72
     2
176
     1
 73
     0
176
     1
 90
        0
176
     1
 40
-0.6
176
     1
 41
-30.0
176
     1
 62
     5
 63
     7
421
 16777215
176
     1
 74
     1
176
     1
 91
        4
176
     1
 64
     7
176
     1
 65
   257
176
     1
 75
     1
176
     1
175
     1
176
     1
 42
1.0
176
     1
 92
        8
176
     1
 66
     7
176
     1
 43
1.0
176
     1
 76
     1
176
     1
 77
     6
176
     1
 78
     2
176
     1
 67
     7
176
     1
 79
     5
176
     1
170
     0
176
     1
171
     0
176
     1
290
     0
176
     1
 93
        1
176
     1
 44
0.0
176
     1
173
     0
176
     1
  0
VISUALSTYLE
  5
2B
102
{ACAD_REACTORS
330
2A
102
}
330
2A
100
AcDbVisualStyle
  2
Flat
 70
     0
177
     2
291
     1
 71
     2
176
     1
 72
     1
176
     1
 73
     1
176
     1
 90
        2
176
     1
 40
-0.6
176
     1
 41
30.0
176
     1
 62
     5
 63
     7
421
 16777215
176
     1
 74
     0
176
     1
 91
        4
176
     1
 64
     7
176
     1
 65
   257
176
     1
 75
     1
176
     1
175
     1
176
     1
 42
1.0
176
     1
 92
        8
176
     1
 66
     7
176
     1
 43
1.0
176
     1
 76
     1
176
     1
 77
     6
176
     1
 78
     2
176
     1
 67
     7
176
     1
 79
     5
176
     1
170
     0
176
     1
171
     0
176
     1
290
     0
176
     1
 93
       13
176
     1
 44
0.0
176
     1
173
     0
176
     1
  0
VISUALSTYLE
  5
2C
102
{ACAD_REACTORS
330
2A
102
}
330
2A
100
AcDbVisualStyle
  2
FlatWithEdges
 70
     1
177
     2
291
     1
 71
     2
176
     1
 72
     1
176
     1
 73
     1
176
     1
 90
        2
176
     1
 40
-0.6
176
     1
 41
30.0
176
     1
 62
     5
 63
     7
421
 16777215
176
     1
 74
     1
176
     1
 91
        4
176
     1
 64
     7
176
     1
 65
   257
176
     1
 75
     1
176
     1
175
     1
176
     1
 42
1.0
176
     1
 92
        0
176
     1
 66
   257
176
     1
 43
1.0
176
     1
 76
     1
176
     1
 77
     6
176
     1
 78
     2
176
     1
 67
     7
176
     1
 79
     5
176
     1
170
     0
176
     1
171
     0
176
     1
290
     0
176
     1
 93
       13
176
     1
 44
0.0
176
     1
173
     0
176
     1
  0
VISUALSTYLE
  5
2D
102
{ACAD_REACTORS
330
2A
102
}
330
2A
100
AcDbVisualStyle
  2
Gouraud
 70
     2
177
     2
291
     1
 71
     2
176
     1
 72
     2
176
     1
 73
     1
176
     1
 90
        2
176
     1
 40
-0.6
176
     1
 41
30.0
176
     1
 62
     5
 63
     7
421
 16777215
176
     1
 74
     0
176
     1
 91
        4
176
     1
 64
     7
176
     1
 65
   257
176
     1
 75
     1
176
     1
175
     1
176
     1
 42
1.0
176
     1
 92
        0
176
     1
 66
     7
176
     1
 43
1.0
176
     1
 76
     1
176
     1
 77
     6
176
     1
 78
     2
176
     1
 67
     7
176
     1
 79
     5
176
     1
170
     0
176
     1
171
     0
176
     1
290
     0
176
     1
 93
       13
176
     1
 44
0.0
176
     1
173
     0
176
     1
  0
VISUALSTYLE
  5
2E
102
{ACAD_REACTORS
330
2A
102
}
330
2A
100
AcDbVisualStyle
  2
GouraudWithEdges
 70
     3
177
     2
291
     1
 71
     2
176
     1
 72
     2
176
     1
 73
     1
176
     1
 90
        2
176
     1
 40
-0.6
176
     1
 41
30.0
176
     1
 62
     5
 63
     7
421
 16777215
176
     1
 74
     1
176
     1
 91
        4
176
     1
 64
     7
176
     1
 65
   257
176
     1
 75
     1
176
     1
175
     1
176
     1
 42
1.0
176
     1
 92
        0
176
     1
 66
   257
176
     1
 43
1.0
176
     1
 76
     1
176
     1
 77
     6
176
     1
 78
     2
176
     1
 67
     7
176
     1
 79
     5
176
     1
170
     0
176
     1
171
     0
176
     1
290
     0
176
     1
 93
       13
176
     1
 44
0.0
176
     1
173
     0
176
     1
  0
VISUALSTYLE
  5
38
102
{ACAD_REACTORS
330
2A
102
}
330
2A
100
AcDbVisualStyle
  2
Linepattern
 70
    14
177
     2
291
     1
 71
     2
176
     1
 72
     2
176
     1
 73
     0
176
     1
 90
        0
176
     1
 40
-0.6
176
     1
 41
-30.0
176
     1
 62
     5
 63
     7
421
 16777215
176
     1
 74
     1
176
     1
 91
        4
176
     1
 64
     7
176
     1
 65
   257
176
     1
 75
     7
176
     1
175
     7
176
     1
 42
1.0
176
     1
 92
        8
176
     1
 66
     7
176
     1
 43
1.0
176
     1
 76
     1
176
     1
 77
     6
176
     1
 78
     2
176
     1
 67
     7
176
     1
 79
     5
176
     1
170
     0
176
     1
171
     0
176
     1
290
     0
176
     1
 93
        1
176
     1
 44
0.0
176
     1
173
     0
176
     1
  0
VISUALSTYLE
  5
33
102
{ACAD_REACTORS
330
2A
102
}
330
2A
100
AcDbVisualStyle
  2
Realistic
 70
     8
177
     2
291
     0
 71
     2
176
     1
 72
     2
176
     1
 73
     0
176
     1
 90
        0
176
     1
 40
-0.6
176
     1
 41
-30.0
176
     1
 62
     5
 63
     7
421
 16777215
176
     1
 74
     1
176
     1
 91
        0
176
     1
 64
     7
176
     1
 65
   257
176
     1
 75
     1
176
     1
175
     1
176
     1
 42
1.0
176
     1
 92
        8
176
     1
 66
     8
424
  7895160
176
     1
 43
1.0
176
     1
 76
     1
176
     1
 77
     6
176
     1
 78
     2
176
     1
 67
     7
176
     1
 79
     5
176
     1
170
     0
176
     1
171
     0
176
     1
290
     0
176
     1
 93
       13
176
     1
 44
0.0
176
     1
173
     0
176
     1
  0
VISUALSTYLE
  5
37
102
{ACAD_REACTORS
330
2A
102
}
330
2A
100
AcDbVisualStyle
  2
Thicken
 70
    13
177
     2
291
     1
 71
     2
176
     1
 72
     2
176
     1
 73
     0
176
     1
 90
        0
176
     1
 40
-0.6
176
     1
 41
-30.0
176
     1
 62
     5
 63
     7
421
 16777215
176
     1
 74
     1
176
     1
 91
        4
176
     1
 64
     7
176
     1
 65
   257
176
     1
 75
     1
176
     1
175
     1
176
     1
 42
1.0
176
     1
 92
       12
176
     1
 66
     7
176
     1
 43
1.0
176
     1
 76
     1
176
     1
 77
     6
176
     1
 78
     2
176
     1
 67
     7
176
     1
 79
     5
176
     1
170
     0
176
     1
171
     0
176
     1
290
     0
176
     1
 93
        1
176
     1
 44
0.0
176
     1
173
     0
176
     1
  0
ENDSEC
  0
EOF
