  0
SECTION
  2
HEADER
  9
$ACADVER
  1
AC1024
  9
$ACADMAINTVER
 70
     6
  9
$DWGCODEPAGE
  3
UNDEFINED
  9
$INSBASE
 10
0.0
 20
0.0
 30
0.0
  9
$EXTMIN
 10
1.000000000000000E+20
 20
1.000000000000000E+20
 30
1.000000000000000E+20
  9
$EXTMAX
 10
-1.000000000000000E+20
 20
-1.000000000000000E+20
 30
-1.000000000000000E+20
  9
$LIMMIN
 10
0.0
 20
0.0
  9
$LIMMAX
 10
12.0
 20
9.0
  9
$ORTHOMODE
 70
     0
  9
$REGENMODE
 70
     1
  9
$FILLMODE
 70
     1
  9
$QTEXTMODE
 70
     0
  9
$MIRRTEXT
 70
     1
  9
$LTSCALE
 40
1.0
  9
$ATTMODE
 70
     1
  9
$TEXTSIZE
 40
0.2
  9
$TRACEWID
 40
0.05
  9
$TEXTSTYLE
  7
Standard
  9
$CLAYER
  8
0
  9
$CELTYPE
  6
ByLayer
  9
$CECOLOR
 62
   256
  9
$CELTSCALE
 40
1.0
  9
$DISPSILH
 70
     0
  9
$DIMSCALE
 40
1.0
  9
$DIMASZ
 40
0.18
  9
$DIMEXO
 40
0.0625
  9
$DIMDLI
 40
0.38
  9
$DIMRND
 40
0.0
  9
$DIMDLE
 40
0.0
  9
$DIMEXE
 40
0.18
  9
$DIMTP
 40
0.0
  9
$DIMTM
 40
0.0
  9
$DIMTXT
 40
0.18
  9
$DIMCEN
 40
0.09
  9
$DIMTSZ
 40
0.0
  9
$DIMTOL
 70
     0
  9
$DIMLIM
 70
     0
  9
$DIMTIH
 70
     1
  9
$DIMTOH
 70
     1
  9
$DIMSE1
 70
     0
  9
$DIMSE2
 70
     0
  9
$DIMTAD
 70
     0
  9
$DIMZIN
 70
     0
  9
$DIMBLK
  1

  9
$DIMASO
 70
     1
  9
$DIMSHO
 70
     1
  9
$DIMPOST
  1

  9
$DIMAPOST
  1

  9
$DIMALT
 70
     0
  9
$DIMALTD
 70
     2
  9
$DIMALTF
 40
25.4
  9
$DIMLFAC
 40
1.0
  9
$DIMTOFL
 70
     0
  9
$DIMTVP
 40
0.0
  9
$DIMTIX
 70
     0
  9
$DIMSOXD
 70
     0
  9
$DIMSAH
 70
     0
  9
$DIMBLK1
  1

  9
$DIMBLK2
  1

  9
$DIMSTYLE
  2
Standard
  9
$DIMCLRD
 70
     0
  9
$DIMCLRE
 70
     0
  9
$DIMCLRT
 70
     0
  9
$DIMTFAC
 40
1.0
  9
$DIMGAP
 40
0.09
  9
$DIMJUST
 70
     0
  9
$DIMSD1
 70
     0
  9
$DIMSD2
 70
     0
  9
$DIMTOLJ
 70
     1
  9
$DIMTZIN
 70
     0
  9
$DIMALTZ
 70
     0
  9
$DIMALTTZ
 70
     0
  9
$DIMUPT
 70
     0
  9
$DIMDEC
 70
     4
  9
$DIMTDEC
 70
     4
  9
$DIMALTU
 70
     2
  9
$DIMALTTD
 70
     2
  9
$DIMTXSTY
  7
Standard
  9
$DIMAUNIT
 70
     0
  9
$DIMADEC
 70
     0
  9
$DIMALTRND
 40
0.0
  9
$DIMAZIN
 70
     0
  9
$DIMDSEP
 70
    46
  9
$DIMATFIT
 70
     3
  9
$DIMFRAC
 70
     0
  9
$DIMLDRBLK
  1

  9
$DIMLUNIT
 70
     2
  9
$DIMLWD
 70
    -2
  9
$DIMLWE
 70
    -2
  9
$DIMTMOVE
 70
     0
  9
$DIMFXL
 40
1.0
  9
$DIMFXLON
 70
     0
  9
$DIMJOGANG
 40
0.7853981633974483
  9
$DIMTFILL
 70
     0
  9
$DIMTFILLCLR
 70
     0
  9
$DIMARCSYM
 70
     0
  9
$DIMLTYPE
  6

  9
$DIMLTEX1
  6

  9
$DIMLTEX2
  6

  9
$DIMTXTDIRECTION
 70
     0
  9
$LUNITS
 70
     2
  9
$LUPREC
 70
     4
  9
$SKETCHINC
 40
0.1
  9
$FILLETRAD
 40
0.5
  9
$AUNITS
 70
     0
  9
$AUPREC
 70
     0
  9
$MENU
  1
.
  9
$ELEVATION
 40
0.0
  9
$PELEVATION
 40
0.0
  9
$THICKNESS
 40
0.0
  9
$LIMCHECK
 70
     0
  9
$CHAMFERA
 40
0.5
  9
$CHAMFERB
 40
0.5
  9
$CHAMFERC
 40
1.0
  9
$CHAMFERD
 40
0.0
  9
$SKPOLY
 70
     0
  9
$TDCREATE
 40
2457917.611527766
  9
$TDUCREATE
 40
2457917.236527778
  9
$TDUPDATE
 40
2457917.611527766
  9
$TDUUPDATE
 40
2457917.236527778
  9
$TDINDWG
 40
0.0000000116
  9
$TDUSRTIMER
 40
0.0000000116
  9
$USRTIMER
 70
     1
  9
$ANGBASE
 50
0.0
  9
$ANGDIR
 70
     0
  9
$PDMODE
 70
     0
  9
$PDSIZE
 40
0.0
  9
$PLINEWID
 40
0.0
  9
$SPLFRAME
 70
     0
  9
$SPLINETYPE
 70
     6
  9
$SPLINESEGS
 70
     8
  9
$HANDSEED
  5
103
  9
$SURFTAB1
 70
     6
  9
$SURFTAB2
 70
     6
  9
$SURFTYPE
 70
     6
  9
$SURFU
 70
     6
  9
$SURFV
 70
     6
  9
$UCSBASE
  2

  9
$UCSNAME
  2

  9
$UCSORG
 10
0.0
 20
0.0
 30
0.0
  9
$UCSXDIR
 10
1.0
 20
0.0
 30
0.0
  9
$UCSYDIR
 10
0.0
 20
1.0
 30
0.0
  9
$UCSORTHOREF
  2

  9
$UCSORTHOVIEW
 70
     0
  9
$UCSORGTOP
 10
0.0
 20
0.0
 30
0.0
  9
$UCSORGBOTTOM
 10
0.0
 20
0.0
 30
0.0
  9
$UCSORGLEFT
 10
0.0
 20
0.0
 30
0.0
  9
$UCSORGRIGHT
 10
0.0
 20
0.0
 30
0.0
  9
$UCSORGFRONT
 10
0.0
 20
0.0
 30
0.0
  9
$UCSORGBACK
 10
0.0
 20
0.0
 30
0.0
  9
$PUCSBASE
  2

  9
$PUCSNAME
  2

  9
$PUCSORG
 10
0.0
 20
0.0
 30
0.0
  9
$PUCSXDIR
 10
1.0
 20
0.0
 30
0.0
  9
$PUCSYDIR
 10
0.0
 20
1.0
 30
0.0
  9
$PUCSORTHOREF
  2

  9
$PUCSORTHOVIEW
 70
     0
  9
$PUCSORGTOP
 10
0.0
 20
0.0
 30
0.0
  9
$PUCSORGBOTTOM
 10
0.0
 20
0.0
 30
0.0
  9
$PUCSORGLEFT
 10
0.0
 20
0.0
 30
0.0
  9
$PUCSORGRIGHT
 10
0.0
 20
0.0
 30
0.0
  9
$PUCSORGFRONT
 10
0.0
 20
0.0
 30
0.0
  9
$PUCSORGBACK
 10
0.0
 20
0.0
 30
0.0
  9
$USERI1
 70
     0
  9
$USERI2
 70
     0
  9
$USERI3
 70
     0
  9
$USERI4
 70
     0
  9
$USERI5
 70
     0
  9
$USERR1
 40
0.0
  9
$USERR2
 40
0.0
  9
$USERR3
 40
0.0
  9
$USERR4
 40
0.0
  9
$USERR5
 40
0.0
  9
$WORLDVIEW
 70
     1
  9
$SHADEDGE
 70
     3
  9
$SHADEDIF
 70
    70
  9
$TILEMODE
 70
     1
  9
$MAXACTVP
 70
    64
  9
$PINSBASE
 10
0.0
 20
0.0
 30
0.0
  9
$PLIMCHECK
 70
     0
  9
$PEXTMIN
 10
1.000000000000000E+20
 20
1.000000000000000E+20
 30
1.000000000000000E+20
  9
$PEXTMAX
 10
-1.000000000000000E+20
 20
-1.000000000000000E+20
 30
-1.000000000000000E+20
  9
$PLIMMIN
 10
0.0
 20
0.0
  9
$PLIMMAX
 10
12.0
 20
9.0
  9
$UNITMODE
 70
     0
  9
$VISRETAIN
 70
     1
  9
$PLINEGEN
 70
     0
  9
$PSLTSCALE
 70
     1
  9
$TREEDEPTH
 70
  3020
  9
$CMLSTYLE
  2
Standard
  9
$CMLJUST
 70
     0
  9
$CMLSCALE
 40
1.0
  9
$PROXYGRAPHICS
 70
     1
  9
$MEASUREMENT
 70
     0
  9
$CELWEIGHT
370
    -1
  9
$ENDCAPS
280
     0
  9
$JOINSTYLE
280
     0
  9
$LWDISPLAY
290
     1
  9
$INSUNITS
 70
     1
  9
$HYPERLINKBASE
  1

  9
$STYLESHEET
  1

  9
$XEDIT
290
     1
  9
$CEPSNTYPE
380
     0
  9
$PSTYLEMODE
290
     1
  9
$FINGERPRINTGUID
  2
{DC37697D-7588-E6E6-415F-8319EA60BEF4}
  9
$VERSIONGUID
  2
{FAEB1C32-E019-11D5-929B-00C0DF256EC4}
  9
$EXTNAMES
290
     1
  9
$PSVPSCALE
 40
0.0
  9
$OLESTARTUP
290
     0
  9
$SORTENTS
280
   127
  9
$INDEXCTL
280
     0
  9
$HIDETEXT
280
     1
  9
$XCLIPFRAME
280
     2
  9
$HALOGAP
280
     0
  9
$OBSCOLOR
 70
   257
  9
$OBSLTYPE
280
     0
  9
$INTERSECTIONDISPLAY
280
     0
  9
$INTERSECTIONCOLOR
 70
   257
  9
$DIMASSOC
280
     2
  9
$PROJECTNAME
  1

  9
$CAMERADISPLAY
290
     0
  9
$LENSLENGTH
 40
50.0
  9
$CAMERAHEIGHT
 40
0.0
  9
$STEPSPERSEC
 40
2.0
  9
$STEPSIZE
 40
6.0
  9
$3DDWFPREC
 40
2.0
  9
$PSOLWIDTH
 40
0.25
  9
$PSOLHEIGHT
 40
4.0
  9
$LOFTANG1
 40
1.570796326794897
  9
$LOFTANG2
 40
1.570796326794897
  9
$LOFTMAG1
 40
0.0
  9
$LOFTMAG2
 40
0.0
  9
$LOFTPARAM
 70
     7
  9
$LOFTNORMALS
280
     1
  9
$LATITUDE
 40
37.795
  9
$LONGITUDE
 40
-122.394
  9
$NORTHDIRECTION
 40
0.0
  9
$TIMEZONE
 70
 -8000
  9
$LIGHTGLYPHDISPLAY
280
     1
  9
$TILEMODELIGHTSYNCH
280
     1
  9
$CMATERIAL
347
3C
  9
$SOLIDHIST
280
     1
  9
$SHOWHIST
280
     1
  9
$DWFFRAME
280
     2
  9
$DGNFRAME
280
     2
  9
$REALWORLDSCALE
290
     1
  9
$INTERFERECOLOR
 62
   256
  9
$CSHADOW
280
     0
  9
$SHADOWPLANELOCATION
 40
0.0
  0
ENDSEC
  0
SECTION
  2
CLASSES
  0
CLASS
  1
ACDBDICTIONARYWDFLT
  2
AcDbDictionaryWithDefault
  3
ObjectDBX Classes
 90
        0
 91
        4
280
     0
281
     0
  0
CLASS
  1
VISUALSTYLE
  2
AcDbVisualStyle
  3
ObjectDBX Classes
 90
     4095
 91
        4
280
     0
281
     0
  0
CLASS
  1
MATERIAL
  2
AcDbMaterial
  3
ObjectDBX Classes
 90
     1153
 91
        4
280
     0
281
     0
  0
CLASS
  1
SUN
  2
AcDbSun
  3
SCENEOE
 90
     1024
 91
        4
280
     0
281
     0
  0
ENDSEC
  0
SECTION
  2
TABLES
  0
TABLE
  2
VPORT
  5
8
330
0
100
AcDbSymbolTable
 70
     1
  0
VPORT
  5
29
330
8
100
AcDbSymbolTableRecord
100
AcDbViewportTableRecord
  2
*Active
 70
     0
 10
0.0
 20
0.0
 11
1.0
 21
1.0
 12
0.0
 22
0.0
 13
0.0
 23
0.0
 14
0.5
 24
0.5
 15
0.5
 25
0.5
 16
0.0
 26
0.0
 36
1.0
 17
91.00082462281999
 27
-128.4993055234307
 37
0.0
 40
256.9986110468615
 41
0.7081814508812795
 42
50.0
 43
0.0
 44
0.0
 50
0.0
 51
0.0
 71
     0
 72
   100
 73
     1
 74
     3
 75
     0
 76
     0
 77
     0
 78
     0
281
     0
 65
     1
110
0.0
120
0.0
130
0.0
111
1.0
121
0.0
131
0.0
112
0.0
122
1.0
132
0.0
 79
     0
146
0.0
 60
     3
 61
     5
292
     1
282
     1
141
0.0
142
0.0
 63
   250
361
3F
  0
ENDTAB
  0
TABLE
  2
LTYPE
  5
5
330
0
100
AcDbSymbolTable
 70
     1
  0
LTYPE
  5
14
330
5
100
AcDbSymbolTableRecord
100
AcDbLinetypeTableRecord
  2
ByBlock
 70
     0
  3

 72
    65
 73
     0
 40
0.0
  0
LTYPE
  5
15
330
5
100
AcDbSymbolTableRecord
100
AcDbLinetypeTableRecord
  2
ByLayer
 70
     0
  3

 72
    65
 73
     0
 40
0.0
  0
LTYPE
  5
16
330
5
100
AcDbSymbolTableRecord
100
AcDbLinetypeTableRecord
  2
Continuous
 70
     0
  3
Solid line
 72
    65
 73
     0
 40
0.0
  0
ENDTAB
  0
TABLE
  2
LAYER
  5
2
330
0
100
AcDbSymbolTable
 70
     2
  0
LAYER
  5
10
330
2
100
AcDbSymbolTableRecord
100
AcDbLayerTableRecord
  2
0
 70
     0
 62
     7
  6
Continuous
370
    -3
390
F
347
3E
  0
LAYER
  5
40
330
2
100
AcDbSymbolTableRecord
100
AcDbLayerTableRecord
  2
_U+30EC_U+30A4_U+30E4_U+30FC 1
 70
     0
 62
     7
  6
Continuous
370
    -3
390
F
347
3E
  0
ENDTAB
  0
TABLE
  2
STYLE
  5
3
330
0
100
AcDbSymbolTable
 70
     1
  0
STYLE
  5
11
330
3
100
AcDbSymbolTableRecord
100
AcDbTextStyleTableRecord
  2
Standard
 70
     0
 40
0.0
 41
1.0
 50
0.0
 71
     0
 42
0.2
  3
txt
  4

  0
ENDTAB
  0
TABLE
  2
VIEW
  5
6
330
0
100
AcDbSymbolTable
 70
     0
  0
ENDTAB
  0
TABLE
  2
UCS
  5
7
330
0
100
AcDbSymbolTable
 70
     0
  0
ENDTAB
  0
TABLE
  2
APPID
  5
9
330
0
100
AcDbSymbolTable
 70
     1
  0
APPID
  5
12
330
9
100
AcDbSymbolTableRecord
100
AcDbRegAppTableRecord
  2
ACAD
 70
     0
  0
ENDTAB
  0
TABLE
  2
DIMSTYLE
  5
A
330
0
100
AcDbSymbolTable
 70
     1
100
AcDbDimStyleTable
  0
DIMSTYLE
105
27
330
A
100
AcDbSymbolTableRecord
100
AcDbDimStyleTableRecord
  2
Standard
 70
     0
178
     0
340
11
  0
ENDTAB
  0
TABLE
  2
BLOCK_RECORD
  5
1
330
0
100
AcDbSymbolTable
 70
     3
  0
BLOCK_RECORD
  5
1F
330
1
100
AcDbSymbolTableRecord
100
AcDbBlockTableRecord
  2
*Model_Space
340
22
 70
     0
280
     1
281
     0
  0
BLOCK_RECORD
  5
1B
330
1
100
AcDbSymbolTableRecord
100
AcDbBlockTableRecord
  2
*Paper_Space
340
1E
 70
     0
280
     1
281
     0
  0
BLOCK_RECORD
  5
23
330
1
100
AcDbSymbolTableRecord
100
AcDbBlockTableRecord
  2
*Paper_Space0
340
26
 70
     0
280
     1
281
     0
  0
BLOCK_RECORD
  5
41
330
1
100
AcDbSymbolTableRecord
100
AcDbBlockTableRecord
  2
block 2
340
0
102
{BLKREFS
331
42
102
}
 70
     0
280
     1
281
     0
  0
BLOCK_RECORD
  5
82
330
1
100
AcDbSymbolTableRecord
100
AcDbBlockTableRecord
  2
block 3
340
0
102
{BLKREFS
331
83
102
}
 70
     0
280
     1
281
     0
  0
ENDTAB
  0
ENDSEC
  0
SECTION
  2
BLOCKS
  0
BLOCK
  5
20
330
1F
100
AcDbEntity
  8
0
100
AcDbBlockBegin
  2
*Model_Space
 70
     0
 10
0.0
 20
0.0
 30
0.0
  3
*Model_Space
  1

  0
ENDBLK
  5
21
330
1F
100
AcDbEntity
  8
0
100
AcDbBlockEnd
  0
BLOCK
  5
1C
330
1B
100
AcDbEntity
 67
     1
  8
0
100
AcDbBlockBegin
  2
*Paper_Space
 70
     0
 10
0.0
 20
0.0
 30
0.0
  3
*Paper_Space
  1

  0
ENDBLK
  5
1D
330
1B
100
AcDbEntity
 67
     1
  8
0
100
AcDbBlockEnd
  0
BLOCK
  5
24
330
23
100
AcDbEntity
  8
0
100
AcDbBlockBegin
  2
*Paper_Space0
 70
     0
 10
0.0
 20
0.0
 30
0.0
  3
*Paper_Space0
  1

  0
ENDBLK
  5
25
330
23
100
AcDbEntity
  8
0
100
AcDbBlockEnd
  0
BLOCK
  5
43
330
41
100
AcDbEntity
  8
0
100
AcDbBlockBegin
  2
block 2
 70
     0
 10
0.0
 20
0.0
 30
0.0
  3
block 2
  1

  0
SPLINE
  5
45
330
41
100
AcDbEntity
  8
_U+30EC_U+30A4_U+30E4_U+30FC 1
370
     0
100
AcDbSpline
210
0.0
220
0.0
230
1.0
 70
    11
 71
     3
 72
    38
 73
    34
 74
     0
 42
0.0000000001
 43
0.0000000001
 12
1.0
 22
0.0
 32
0.0
 13
1.0
 23
0.0
 33
0.0
 40
0.0
 40
0.0
 40
0.0
 40
0.0
 40
1.0
 40
1.0
 40
1.0
 40
2.0
 40
2.0
 40
2.0
 40
3.0
 40
3.0
 40
3.0
 40
4.0
 40
4.0
 40
4.0
 40
5.0
 40
5.0
 40
5.0
 40
6.0
 40
6.0
 40
6.0
 40
7.0
 40
7.0
 40
7.0
 40
8.0
 40
8.0
 40
8.0
 40
9.0
 40
9.0
 40
9.0
 40
10.0
 40
10.0
 40
10.0
 40
11.0
 40
11.0
 40
11.0
 40
11.0
 10
77.37167695548348
 20
-128.1215508034731
 30
0.0
 10
76.95413138267119
 20
-128.3273952587168
 30
0.0
 10
76.54657658676614
 20
-128.1227565868929
 30
0.0
 10
76.33883732900557
 20
-127.7017659185954
 30
0.0
 10
76.10663789329973
 20
-127.2311658753103
 30
0.0
 10
76.28784991582387
 20
-126.8232665698567
 30
0.0
 10
76.65406356590593
 20
-126.6427435664296
 30
0.0
 10
76.96343314048137
 20
-126.490125836433
 30
0.0
 10
77.29519583571093
 20
-126.5366346254839
 30
0.0
 10
77.454703756678
 20
-126.8118977547554
 30
0.0
 10
77.454703756678
 20
-126.8118977547554
 30
0.0
 10
77.24765351801447
 20
-126.9138725811188
 30
0.0
 10
77.24765351801447
 20
-126.9138725811188
 30
0.0
 10
77.12190753280287
 20
-126.744718392793
 30
0.0
 10
76.8879855493544
 20
-126.7678005325442
 30
0.0
 10
76.74363604852243
 20
-126.8391140090888
 30
0.0
 10
76.65061847042068
 20
-126.8847615242684
 30
0.0
 10
76.56070147825567
 20
-126.9650322490747
 30
0.0
 10
76.51074759371954
 20
-127.0744140307314
 30
0.0
 10
76.42255314929714
 20
-127.2592434035151
 30
0.0
 10
76.49145505900213
 20
-127.4657768778558
 30
0.0
 10
76.56173500690123
 20
-127.6082315761709
 30
0.0
 10
76.75638290181786
 20
-128.0028672640062
 30
0.0
 10
77.07781031059166
 20
-128.0235378369177
 30
0.0
 10
77.27142467686271
 20
-127.9281086919763
 30
0.0
 10
77.39475909523465
 20
-127.8671305018874
 30
0.0
 10
77.60215384344669
 20
-127.6755831929075
 30
0.0
 10
77.49018824017607
 20
-127.3765489047878
 30
0.0
 10
77.49018824017607
 20
-127.3765489047878
 30
0.0
 10
77.69689396929105
 20
-127.2745740784244
 30
0.0
 10
77.69689396929105
 20
-127.2745740784244
 30
0.0
 10
77.74546981563309
 20
-127.4016981018301
 30
0.0
 10
77.91427949441032
 20
-127.8540391390434
 30
0.0
 10
77.37167695548348
 20
-128.1215508034731
 30
0.0
  0
HATCH
  5
46
330
41
100
AcDbEntity
  8
_U+30EC_U+30A4_U+30E4_U+30FC 1
 62
   179
420
  2234388
100
AcDbHatch
 10
0.0
 20
0.0
 30
0.0
210
0.0
220
0.0
230
1.0
  2
SOLID
 70
     1
 71
     0
 91
        1
 92
        1
 93
        1
 72
     4
 94
        3
 73
     0
 74
     1
 95
       38
 96
       34
 40
0.0
 40
0.0
 40
0.0
 40
0.0
 40
1.0
 40
1.0
 40
1.0
 40
2.0
 40
2.0
 40
2.0
 40
3.0
 40
3.0
 40
3.0
 40
4.0
 40
4.0
 40
4.0
 40
5.0
 40
5.0
 40
5.0
 40
6.0
 40
6.0
 40
6.0
 40
7.0
 40
7.0
 40
7.0
 40
8.0
 40
8.0
 40
8.0
 40
9.0
 40
9.0
 40
9.0
 40
10.0
 40
10.0
 40
10.0
 40
11.0
 40
11.0
 40
11.0
 40
11.0
 10
77.37167695548348
 20
-128.1215508034731
 10
76.95413138267119
 20
-128.3273952587168
 10
76.54657658676614
 20
-128.1227565868929
 10
76.33883732900557
 20
-127.7017659185954
 10
76.10663789329973
 20
-127.2311658753103
 10
76.28784991582387
 20
-126.8232665698567
 10
76.65406356590593
 20
-126.6427435664296
 10
76.96343314048137
 20
-126.490125836433
 10
77.29519583571093
 20
-126.5366346254839
 10
77.454703756678
 20
-126.8118977547554
 10
77.454703756678
 20
-126.8118977547554
 10
77.24765351801447
 20
-126.9138725811188
 10
77.24765351801447
 20
-126.9138725811188
 10
77.12190753280287
 20
-126.744718392793
 10
76.8879855493544
 20
-126.7678005325442
 10
76.74363604852243
 20
-126.8391140090888
 10
76.65061847042068
 20
-126.8847615242684
 10
76.56070147825567
 20
-126.9650322490747
 10
76.51074759371954
 20
-127.0744140307314
 10
76.42255314929714
 20
-127.2592434035151
 10
76.49145505900213
 20
-127.4657768778558
 10
76.56173500690123
 20
-127.6082315761709
 10
76.75638290181786
 20
-128.0028672640062
 10
77.07781031059166
 20
-128.0235378369177
 10
77.27142467686271
 20
-127.9281086919763
 10
77.39475909523465
 20
-127.8671305018874
 10
77.60215384344669
 20
-127.6755831929075
 10
77.49018824017607
 20
-127.3765489047878
 10
77.49018824017607
 20
-127.3765489047878
 10
77.69689396929105
 20
-127.2745740784244
 10
77.69689396929105
 20
-127.2745740784244
 10
77.74546981563309
 20
-127.4016981018301
 10
77.91427949441032
 20
-127.8540391390434
 10
77.37167695548348
 20
-128.1215508034731
 97
        0
 97
        0
 75
     2
 76
     1
 98
        0
  0
SPLINE
  5
47
330
41
100
AcDbEntity
  8
_U+30EC_U+30A4_U+30E4_U+30FC 1
370
     0
100
AcDbSpline
210
0.0
220
0.0
230
1.0
 70
    11
 71
     3
 72
    44
 73
    40
 74
     0
 42
0.0000000001
 43
0.0000000001
 12
1.0
 22
0.0
 32
0.0
 13
1.0
 23
0.0
 33
0.0
 40
0.0
 40
0.0
 40
0.0
 40
0.0
 40
1.0
 40
1.0
 40
1.0
 40
2.0
 40
2.0
 40
2.0
 40
3.0
 40
3.0
 40
3.0
 40
4.0
 40
4.0
 40
4.0
 40
5.0
 40
5.0
 40
5.0
 40
6.0
 40
6.0
 40
6.0
 40
7.0
 40
7.0
 40
7.0
 40
8.0
 40
8.0
 40
8.0
 40
9.0
 40
9.0
 40
9.0
 40
10.0
 40
10.0
 40
10.0
 40
11.0
 40
11.0
 40
11.0
 40
12.0
 40
12.0
 40
12.0
 40
13.0
 40
13.0
 40
13.0
 40
13.0
 10
79.03083494117979
 20
-127.2466688049939
 30
0.0
 10
78.99018281445385
 20
-127.2173854933693
 30
0.0
 10
78.9481526495338
 20
-127.179144933483
 30
0.0
 10
78.84411076587925
 20
-126.9733004782393
 30
0.0
 10
78.73283418170568
 20
-126.7567762269914
 30
0.0
 10
78.64877385186558
 20
-126.720430469622
 30
0.0
 10
78.48926593089853
 20
-126.7991509014599
 30
0.0
 10
78.48926593089853
 20
-126.7991509014599
 30
0.0
 10
78.12305228081647
 20
-126.979673904887
 30
0.0
 10
78.12305228081647
 20
-126.979673904887
 30
0.0
 10
78.12305228081647
 20
-126.979673904887
 30
0.0
 10
78.40658363925253
 20
-127.5546603413752
 30
0.0
 10
78.40658363925253
 20
-127.5546603413752
 30
0.0
 10
78.40658363925253
 20
-127.5546603413752
 30
0.0
 10
78.19608830510376
 20
-127.6583577154812
 30
0.0
 10
78.19608830510376
 20
-127.6583577154812
 30
0.0
 10
78.19608830510376
 20
-127.6583577154812
 30
0.0
 10
77.51292587037872
 20
-126.2734293304108
 30
0.0
 10
77.51292587037872
 20
-126.2734293304108
 30
0.0
 10
77.51292587037872
 20
-126.2734293304108
 30
0.0
 10
78.11822914713711
 20
-125.9747395518396
 30
0.0
 10
78.11822914713711
 20
-125.9747395518396
 30
0.0
 10
78.39314776686005
 20
-125.8391750444951
 30
0.0
 10
78.61914603069243
 20
-125.9191012597529
 30
0.0
 10
78.73214516260863
 20
-126.1487168738448
 30
0.0
 10
78.75488279281129
 20
-126.1941921342501
 30
0.0
 10
78.78382159488739
 20
-126.2720512922167
 30
0.0
 10
78.77934297075656
 20
-126.3636908321244
 30
0.0
 10
78.77210827023754
 20
-126.482891135914
 30
0.0
 10
78.72180987615289
 20
-126.5288831606421
 30
0.0
 10
78.67426755845644
 20
-126.5710855803364
 30
0.0
 10
78.81620549244873
 20
-126.5483479501337
 30
0.0
 10
78.89819876499767
 20
-126.5619560773005
 30
0.0
 10
79.04151473718407
 20
-126.8427313593483
 30
0.0
 10
79.16519366510454
 20
-127.0837157885416
 30
0.0
 10
79.21135794460689
 20
-127.0961181322885
 30
0.0
 10
79.29645180309255
 20
-127.1157551765544
 30
0.0
 10
79.29645180309255
 20
-127.1157551765544
 30
0.0
 10
79.03083494117979
 20
-127.2466688049939
 30
0.0
 10
79.03083494117979
 20
-127.2466688049939
 30
0.0
  0
SPLINE
  5
48
330
41
100
AcDbEntity
  8
_U+30EC_U+30A4_U+30E4_U+30FC 1
370
     0
100
AcDbSpline
210
0.0
220
0.0
230
1.0
 70
    11
 71
     3
 72
    20
 73
    16
 74
     0
 42
0.0000000001
 43
0.0000000001
 12
1.0
 22
0.0
 32
0.0
 13
1.0
 23
0.0
 33
0.0
 40
0.0
 40
0.0
 40
0.0
 40
0.0
 40
1.0
 40
1.0
 40
1.0
 40
2.0
 40
2.0
 40
2.0
 40
3.0
 40
3.0
 40
3.0
 40
4.0
 40
4.0
 40
4.0
 40
5.0
 40
5.0
 40
5.0
 40
5.0
 10
78.21572534936968
 20
-126.16266951056
 30
0.0
 10
78.21572534936968
 20
-126.16266951056
 30
0.0
 10
77.81712780172627
 20
-126.3592122079935
 30
0.0
 10
77.81712780172627
 20
-126.3592122079935
 30
0.0
 10
77.81712780172627
 20
-126.3592122079935
 30
0.0
 10
78.02969019316619
 20
-126.7898491436498
 30
0.0
 10
78.02969019316619
 20
-126.7898491436498
 30
0.0
 10
78.02969019316619
 20
-126.7898491436498
 30
0.0
 10
78.42622068351845
 20
-126.5943399748618
 30
0.0
 10
78.42622068351845
 20
-126.5943399748618
 30
0.0
 10
78.51544865658641
 20
-126.5504150074249
 30
0.0
 10
78.60329859146029
 20
-126.4222574553736
 30
0.0
 10
78.52750649078479
 20
-126.2686061967315
 30
0.0
 10
78.49271102638377
 20
-126.1986707583809
 30
0.0
 10
78.3938367859571
 20
-126.0746473209119
 30
0.0
 10
78.21572534936968
 20
-126.16266951056
 30
0.0
  0
HATCH
  5
49
330
41
100
AcDbEntity
  8
_U+30EC_U+30A4_U+30E4_U+30FC 1
 62
   179
420
  2234388
100
AcDbHatch
 10
0.0
 20
0.0
 30
0.0
210
0.0
220
0.0
230
1.0
  2
SOLID
 70
     1
 71
     0
 91
        2
 92
        1
 93
        1
 72
     4
 94
        3
 73
     0
 74
     1
 95
       44
 96
       40
 40
0.0
 40
0.0
 40
0.0
 40
0.0
 40
1.0
 40
1.0
 40
1.0
 40
2.0
 40
2.0
 40
2.0
 40
3.0
 40
3.0
 40
3.0
 40
4.0
 40
4.0
 40
4.0
 40
5.0
 40
5.0
 40
5.0
 40
6.0
 40
6.0
 40
6.0
 40
7.0
 40
7.0
 40
7.0
 40
8.0
 40
8.0
 40
8.0
 40
9.0
 40
9.0
 40
9.0
 40
10.0
 40
10.0
 40
10.0
 40
11.0
 40
11.0
 40
11.0
 40
12.0
 40
12.0
 40
12.0
 40
13.0
 40
13.0
 40
13.0
 40
13.0
 10
79.03083494117979
 20
-127.2466688049939
 10
78.99018281445385
 20
-127.2173854933693
 10
78.9481526495338
 20
-127.179144933483
 10
78.84411076587925
 20
-126.9733004782393
 10
78.73283418170568
 20
-126.7567762269914
 10
78.64877385186558
 20
-126.720430469622
 10
78.48926593089853
 20
-126.7991509014599
 10
78.48926593089853
 20
-126.7991509014599
 10
78.12305228081647
 20
-126.979673904887
 10
78.12305228081647
 20
-126.979673904887
 10
78.12305228081647
 20
-126.979673904887
 10
78.40658363925253
 20
-127.5546603413752
 10
78.40658363925253
 20
-127.5546603413752
 10
78.40658363925253
 20
-127.5546603413752
 10
78.19608830510376
 20
-127.6583577154812
 10
78.19608830510376
 20
-127.6583577154812
 10
78.19608830510376
 20
-127.6583577154812
 10
77.51292587037872
 20
-126.2734293304108
 10
77.51292587037872
 20
-126.2734293304108
 10
77.51292587037872
 20
-126.2734293304108
 10
78.11822914713711
 20
-125.9747395518396
 10
78.11822914713711
 20
-125.9747395518396
 10
78.39314776686005
 20
-125.8391750444951
 10
78.61914603069243
 20
-125.9191012597529
 10
78.73214516260863
 20
-126.1487168738448
 10
78.75488279281129
 20
-126.1941921342501
 10
78.78382159488739
 20
-126.2720512922167
 10
78.77934297075656
 20
-126.3636908321244
 10
78.77210827023754
 20
-126.482891135914
 10
78.72180987615289
 20
-126.5288831606421
 10
78.67426755845644
 20
-126.5710855803364
 10
78.81620549244873
 20
-126.5483479501337
 10
78.89819876499767
 20
-126.5619560773005
 10
79.04151473718407
 20
-126.8427313593483
 10
79.16519366510454
 20
-127.0837157885416
 10
79.21135794460689
 20
-127.0961181322885
 10
79.29645180309255
 20
-127.1157551765544
 10
79.29645180309255
 20
-127.1157551765544
 10
79.03083494117979
 20
-127.2466688049939
 10
79.03083494117979
 20
-127.2466688049939
 97
        0
 97
        0
 92
        1
 93
        1
 72
     4
 94
        3
 73
     0
 74
     1
 95
       20
 96
       16
 40
0.0
 40
0.0
 40
0.0
 40
0.0
 40
1.0
 40
1.0
 40
1.0
 40
2.0
 40
2.0
 40
2.0
 40
3.0
 40
3.0
 40
3.0
 40
4.0
 40
4.0
 40
4.0
 40
5.0
 40
5.0
 40
5.0
 40
5.0
 10
78.21572534936968
 20
-126.16266951056
 10
78.21572534936968
 20
-126.16266951056
 10
77.81712780172627
 20
-126.3592122079935
 10
77.81712780172627
 20
-126.3592122079935
 10
77.81712780172627
 20
-126.3592122079935
 10
78.02969019316619
 20
-126.7898491436498
 10
78.02969019316619
 20
-126.7898491436498
 10
78.02969019316619
 20
-126.7898491436498
 10
78.42622068351845
 20
-126.5943399748618
 10
78.42622068351845
 20
-126.5943399748618
 10
78.51544865658641
 20
-126.5504150074249
 10
78.60329859146029
 20
-126.4222574553736
 10
78.52750649078479
 20
-126.2686061967315
 10
78.49271102638377
 20
-126.1986707583809
 10
78.3938367859571
 20
-126.0746473209119
 10
78.21572534936968
 20
-126.16266951056
 97
        0
 97
        0
 75
     2
 76
     1
 98
        0
  0
SPLINE
  5
4A
330
41
100
AcDbEntity
  8
_U+30EC_U+30A4_U+30E4_U+30FC 1
370
     0
100
AcDbSpline
210
0.0
220
0.0
230
1.0
 70
    11
 71
     3
 72
    26
 73
    22
 74
     0
 42
0.0000000001
 43
0.0000000001
 12
1.0
 22
0.0
 32
0.0
 13
1.0
 23
0.0
 33
0.0
 40
0.0
 40
0.0
 40
0.0
 40
0.0
 40
1.0
 40
1.0
 40
1.0
 40
2.0
 40
2.0
 40
2.0
 40
3.0
 40
3.0
 40
3.0
 40
4.0
 40
4.0
 40
4.0
 40
5.0
 40
5.0
 40
5.0
 40
6.0
 40
6.0
 40
6.0
 40
7.0
 40
7.0
 40
7.0
 40
7.0
 10
79.84008787066499
 20
-126.144927268811
 30
0.0
 10
79.84008787066499
 20
-126.144927268811
 30
0.0
 10
79.43425562250255
 20
-126.345087316504
 30
0.0
 10
79.43425562250255
 20
-126.345087316504
 30
0.0
 10
79.43425562250255
 20
-126.345087316504
 30
0.0
 10
79.71296384725926
 20
-126.9104274856335
 30
0.0
 10
79.71296384725926
 20
-126.9104274856335
 30
0.0
 10
79.71296384725926
 20
-126.9104274856335
 30
0.0
 10
79.50212400356197
 20
-127.0142971145138
 30
0.0
 10
79.50212400356197
 20
-127.0142971145138
 30
0.0
 10
79.50212400356197
 20
-127.0142971145138
 30
0.0
 10
78.81896156883693
 20
-125.6291964746691
 30
0.0
 10
78.81896156883693
 20
-125.6291964746691
 30
0.0
 10
78.81896156883693
 20
-125.6291964746691
 30
0.0
 10
79.43563366069665
 20
-125.3249945433215
 30
0.0
 10
79.43563366069665
 20
-125.3249945433215
 30
0.0
 10
79.69401582209039
 20
-125.1978705199158
 30
0.0
 10
79.94998641664445
 20
-125.2531643024541
 30
0.0
 10
80.08193357372951
 20
-125.520848221658
 30
0.0
 10
80.19148761016046
 20
-125.7427123709081
 30
0.0
 10
80.13774412059057
 20
-125.9979939463651
 30
0.0
 10
79.84008787066499
 20
-126.144927268811
 30
0.0
  0
SPLINE
  5
4B
330
41
100
AcDbEntity
  8
_U+30EC_U+30A4_U+30E4_U+30FC 1
370
     0
100
AcDbSpline
210
0.0
220
0.0
230
1.0
 70
    11
 71
     3
 72
    20
 73
    16
 74
     0
 42
0.0000000001
 43
0.0000000001
 12
1.0
 22
0.0
 32
0.0
 13
1.0
 23
0.0
 33
0.0
 40
0.0
 40
0.0
 40
0.0
 40
0.0
 40
1.0
 40
1.0
 40
1.0
 40
2.0
 40
2.0
 40
2.0
 40
3.0
 40
3.0
 40
3.0
 40
4.0
 40
4.0
 40
4.0
 40
5.0
 40
5.0
 40
5.0
 40
5.0
 10
79.5217610478279
 20
-125.5186089095926
 30
0.0
 10
79.5217610478279
 20
-125.5186089095926
 30
0.0
 10
79.12350800973302
 20
-125.7149793522518
 30
0.0
 10
79.12350800973302
 20
-125.7149793522518
 30
0.0
 10
79.12350800973302
 20
-125.7149793522518
 30
0.0
 10
79.34054902530376
 20
-126.1552625552667
 30
0.0
 10
79.34054902530376
 20
-126.1552625552667
 30
0.0
 10
79.34054902530376
 20
-126.1552625552667
 30
0.0
 10
79.73880206339864
 20
-125.9588921126075
 30
0.0
 10
79.73880206339864
 20
-125.9588921126075
 30
0.0
 10
79.88900822655553
 20
-125.8848225596746
 30
0.0
 10
79.9217366336654
 20
-125.7508083452984
 30
0.0
 10
79.86006942447943
 20
-125.6255791244096
 30
0.0
 10
79.80942652084626
 20
-125.5230875337234
 30
0.0
 10
79.69057072660515
 20
-125.4352375988495
 30
0.0
 10
79.5217610478279
 20
-125.5186089095926
 30
0.0
  0
HATCH
  5
4C
330
41
100
AcDbEntity
  8
_U+30EC_U+30A4_U+30E4_U+30FC 1
 62
   179
420
  2234388
100
AcDbHatch
 10
0.0
 20
0.0
 30
0.0
210
0.0
220
0.0
230
1.0
  2
SOLID
 70
     1
 71
     0
 91
        2
 92
        1
 93
        1
 72
     4
 94
        3
 73
     0
 74
     1
 95
       26
 96
       22
 40
0.0
 40
0.0
 40
0.0
 40
0.0
 40
1.0
 40
1.0
 40
1.0
 40
2.0
 40
2.0
 40
2.0
 40
3.0
 40
3.0
 40
3.0
 40
4.0
 40
4.0
 40
4.0
 40
5.0
 40
5.0
 40
5.0
 40
6.0
 40
6.0
 40
6.0
 40
7.0
 40
7.0
 40
7.0
 40
7.0
 10
79.84008787066499
 20
-126.144927268811
 10
79.84008787066499
 20
-126.144927268811
 10
79.43425562250255
 20
-126.345087316504
 10
79.43425562250255
 20
-126.345087316504
 10
79.43425562250255
 20
-126.345087316504
 10
79.71296384725926
 20
-126.9104274856335
 10
79.71296384725926
 20
-126.9104274856335
 10
79.71296384725926
 20
-126.9104274856335
 10
79.50212400356197
 20
-127.0142971145138
 10
79.50212400356197
 20
-127.0142971145138
 10
79.50212400356197
 20
-127.0142971145138
 10
78.81896156883693
 20
-125.6291964746691
 10
78.81896156883693
 20
-125.6291964746691
 10
78.81896156883693
 20
-125.6291964746691
 10
79.43563366069665
 20
-125.3249945433215
 10
79.43563366069665
 20
-125.3249945433215
 10
79.69401582209039
 20
-125.1978705199158
 10
79.94998641664445
 20
-125.2531643024541
 10
80.08193357372951
 20
-125.520848221658
 10
80.19148761016046
 20
-125.7427123709081
 10
80.13774412059057
 20
-125.9979939463651
 10
79.84008787066499
 20
-126.144927268811
 97
        0
 97
        0
 92
        1
 93
        1
 72
     4
 94
        3
 73
     0
 74
     1
 95
       20
 96
       16
 40
0.0
 40
0.0
 40
0.0
 40
0.0
 40
1.0
 40
1.0
 40
1.0
 40
2.0
 40
2.0
 40
2.0
 40
3.0
 40
3.0
 40
3.0
 40
4.0
 40
4.0
 40
4.0
 40
5.0
 40
5.0
 40
5.0
 40
5.0
 10
79.5217610478279
 20
-125.5186089095926
 10
79.5217610478279
 20
-125.5186089095926
 10
79.12350800973302
 20
-125.7149793522518
 10
79.12350800973302
 20
-125.7149793522518
 10
79.12350800973302
 20
-125.7149793522518
 10
79.34054902530376
 20
-126.1552625552667
 10
79.34054902530376
 20
-126.1552625552667
 10
79.34054902530376
 20
-126.1552625552667
 10
79.73880206339864
 20
-125.9588921126075
 10
79.73880206339864
 20
-125.9588921126075
 10
79.88900822655553
 20
-125.8848225596746
 10
79.9217366336654
 20
-125.7508083452984
 10
79.86006942447943
 20
-125.6255791244096
 10
79.80942652084626
 20
-125.5230875337234
 10
79.69057072660515
 20
-125.4352375988495
 10
79.5217610478279
 20
-125.5186089095926
 97
        0
 97
        0
 75
     2
 76
     1
 98
        0
  0
POLYLINE
  5
4D
330
41
100
AcDbEntity
  8
_U+30EC_U+30A4_U+30E4_U+30FC 1
370
     0
100
AcDb2dPolyline
 66
     1
 10
0.0
 20
0.0
 30
0.0
  0
VERTEX
  5
4E
330
4D
100
AcDbEntity
  8
_U+30EC_U+30A4_U+30E4_U+30FC 1
370
     0
100
AcDbVertex
100
AcDb2dVertex
 10
80.48190915956702
 20
-126.0336506846374
 30
0.0
  0
VERTEX
  5
4F
330
4D
100
AcDbEntity
  8
_U+30EC_U+30A4_U+30E4_U+30FC 1
370
     0
100
AcDbVertex
100
AcDb2dVertex
 10
80.3864800146256
 20
-125.8400363183664
 30
0.0
  0
VERTEX
  5
50
330
4D
100
AcDbEntity
  8
_U+30EC_U+30A4_U+30E4_U+30FC 1
370
     0
100
AcDbVertex
100
AcDb2dVertex
 10
80.91185707612621
 20
-125.5809651378756
 30
0.0
  0
VERTEX
  5
51
330
4D
100
AcDbEntity
  8
_U+30EC_U+30A4_U+30E4_U+30FC 1
370
     0
100
AcDbVertex
100
AcDb2dVertex
 10
81.00728622106763
 20
-125.7742349945981
 30
0.0
  0
VERTEX
  5
52
330
4D
100
AcDbEntity
  8
_U+30EC_U+30A4_U+30E4_U+30FC 1
370
     0
100
AcDbVertex
100
AcDb2dVertex
 10
80.48190915956702
 20
-126.0336506846374
 30
0.0
  0
SEQEND
  5
53
330
4D
100
AcDbEntity
  8
_U+30EC_U+30A4_U+30E4_U+30FC 1
370
     0
  0
HATCH
  5
54
330
41
100
AcDbEntity
  8
_U+30EC_U+30A4_U+30E4_U+30FC 1
 62
   179
420
  2234388
100
AcDbHatch
 10
0.0
 20
0.0
 30
0.0
210
0.0
220
0.0
230
1.0
  2
SOLID
 70
     1
 71
     0
 91
        1
 92
        1
 93
        4
 72
     1
 10
80.48190915956702
 20
-126.0336506846374
 11
80.3864800146256
 21
-125.8400363183664
 72
     1
 10
80.3864800146256
 20
-125.8400363183664
 11
80.91185707612621
 21
-125.5809651378756
 72
     1
 10
80.91185707612621
 20
-125.5809651378756
 11
81.00728622106763
 21
-125.7742349945981
 72
     1
 10
81.00728622106763
 20
-125.7742349945981
 11
80.48190915956702
 21
-126.0336506846374
 97
        0
 75
     2
 76
     1
 98
        0
  0
SPLINE
  5
55
330
41
100
AcDbEntity
  8
_U+30EC_U+30A4_U+30E4_U+30FC 1
370
     0
100
AcDbSpline
210
0.0
220
0.0
230
1.0
 70
    11
 71
     3
 72
    62
 73
    58
 74
     0
 42
0.0000000001
 43
0.0000000001
 12
1.0
 22
0.0
 32
0.0
 13
1.0
 23
0.0
 33
0.0
 40
0.0
 40
0.0
 40
0.0
 40
0.0
 40
1.0
 40
1.0
 40
1.0
 40
2.0
 40
2.0
 40
2.0
 40
3.0
 40
3.0
 40
3.0
 40
4.0
 40
4.0
 40
4.0
 40
5.0
 40
5.0
 40
5.0
 40
6.0
 40
6.0
 40
6.0
 40
7.0
 40
7.0
 40
7.0
 40
8.0
 40
8.0
 40
8.0
 40
9.0
 40
9.0
 40
9.0
 40
10.0
 40
10.0
 40
10.0
 40
11.0
 40
11.0
 40
11.0
 40
12.0
 40
12.0
 40
12.0
 40
13.0
 40
13.0
 40
13.0
 40
14.0
 40
14.0
 40
14.0
 40
15.0
 40
15.0
 40
15.0
 40
16.0
 40
16.0
 40
16.0
 40
17.0
 40
17.0
 40
17.0
 40
18.0
 40
18.0
 40
18.0
 40
19.0
 40
19.0
 40
19.0
 40
19.0
 10
81.78346623389442
 20
-125.9458007497635
 30
0.0
 10
81.69802786586023
 20
-125.9880031694579
 30
0.0
 10
81.49304468448786
 20
-126.0653455631017
 30
0.0
 10
81.2990858086683
 20
-125.9538967241539
 30
0.0
 10
81.18298609081536
 20
-125.8858560883202
 30
0.0
 10
81.13544377311892
 20
-125.7988674273176
 30
0.0
 10
81.09410262729592
 20
-125.7246256196105
 30
0.0
 10
81.09410262729592
 20
-125.7246256196105
 30
0.0
 10
81.29150659860073
 20
-125.6273016721522
 30
0.0
 10
81.29150659860073
 20
-125.6273016721522
 30
0.0
 10
81.32595755345324
 20
-125.6929307411462
 30
0.0
 10
81.43930119491796
 20
-125.8984306868414
 30
0.0
 10
81.6935492417294
 20
-125.7732014659525
 30
0.0
 10
81.81688366010134
 20
-125.7122232758636
 30
0.0
 10
81.9226480914985
 20
-125.582515430844
 30
0.0
 10
81.82170679378069
 20
-125.3777045042459
 30
0.0
 10
81.77003036150194
 20
-125.2733181110428
 30
0.0
 10
81.7142198146409
 20
-125.2466186210321
 30
0.0
 10
81.67184514017232
 20
-125.2323214747683
 30
0.0
 10
81.57297089974566
 20
-125.1985595390129
 30
0.0
 10
81.46272784421765
 20
-125.2385226466418
 30
0.0
 10
81.41346297877858
 20
-125.262982824587
 30
0.0
 10
81.39658201090086
 20
-125.2712510537516
 30
0.0
 10
81.36488713243656
 20
-125.2888210407264
 30
0.0
 10
81.34214950223391
 20
-125.3050129895071
 30
0.0
 10
81.34214950223391
 20
-125.3050129895071
 30
0.0
 10
81.25602211510267
 20
-125.1303466484049
 30
0.0
 10
81.25602211510267
 20
-125.1303466484049
 30
0.0
 10
81.29322914634336
 20
-125.1193223428521
 30
0.0
 10
81.33215872532669
 20
-125.1024413749744
 30
0.0
 10
81.33801538765161
 20
-125.0996852985862
 30
0.0
 10
81.39658201090086
 20
-125.0707464965101
 30
0.0
 10
81.5653916896781
 20
-124.9636040269188
 30
0.0
 10
81.46100529647504
 20
-124.7513861450274
 30
0.0
 10
81.38211260986282
 20
-124.5918782240604
 30
0.0
 10
81.24017467587052
 20
-124.6004909627735
 30
0.0
 10
81.14164494499236
 20
-124.6490668091155
 30
0.0
 10
80.90427786605866
 20
-124.7658555460655
 30
0.0
 10
80.99970701100008
 20
-124.9787624470539
 30
0.0
 10
81.0276122844306
 20
-125.0449082803707
 30
0.0
 10
81.0276122844306
 20
-125.0449082803707
 30
0.0
 10
80.84536673326089
 20
-125.1346530177615
 30
0.0
 10
80.84536673326089
 20
-125.1346530177615
 30
0.0
 10
80.79782441556443
 20
-125.0190700642313
 30
0.0
 10
80.65623099112067
 20
-124.66904836293
 30
0.0
 10
81.06585284431688
 20
-124.4671657674943
 30
0.0
 10
81.26704642065546
 20
-124.3679470175191
 30
0.0
 10
81.53955347353873
 20
-124.3751817180381
 30
0.0
 10
81.67046710197822
 20
-124.6407985799509
 30
0.0
 10
81.75280488407569
 20
-124.8078857109855
 30
0.0
 10
81.70388452818514
 20
-124.9236409192899
 30
0.0
 10
81.64187280945065
 20
-125.0226874144909
 30
0.0
 10
81.70905217141302
 20
-125.0204481024254
 30
0.0
 10
81.90783418091193
 20
-125.0118353637123
 30
0.0
 10
82.03047958018684
 20
-125.2605712577474
 30
0.0
 10
82.17999672424668
 20
-125.5640841699979
 30
0.0
 10
82.03185761838093
 20
-125.8233276052629
 30
0.0
 10
81.78346623389442
 20
-125.9458007497635
 30
0.0
  0
HATCH
  5
56
330
41
100
AcDbEntity
  8
_U+30EC_U+30A4_U+30E4_U+30FC 1
 62
   179
420
  2234388
100
AcDbHatch
 10
0.0
 20
0.0
 30
0.0
210
0.0
220
0.0
230
1.0
  2
SOLID
 70
     1
 71
     0
 91
        1
 92
        1
 93
        1
 72
     4
 94
        3
 73
     0
 74
     1
 95
       62
 96
       58
 40
0.0
 40
0.0
 40
0.0
 40
0.0
 40
1.0
 40
1.0
 40
1.0
 40
2.0
 40
2.0
 40
2.0
 40
3.0
 40
3.0
 40
3.0
 40
4.0
 40
4.0
 40
4.0
 40
5.0
 40
5.0
 40
5.0
 40
6.0
 40
6.0
 40
6.0
 40
7.0
 40
7.0
 40
7.0
 40
8.0
 40
8.0
 40
8.0
 40
9.0
 40
9.0
 40
9.0
 40
10.0
 40
10.0
 40
10.0
 40
11.0
 40
11.0
 40
11.0
 40
12.0
 40
12.0
 40
12.0
 40
13.0
 40
13.0
 40
13.0
 40
14.0
 40
14.0
 40
14.0
 40
15.0
 40
15.0
 40
15.0
 40
16.0
 40
16.0
 40
16.0
 40
17.0
 40
17.0
 40
17.0
 40
18.0
 40
18.0
 40
18.0
 40
19.0
 40
19.0
 40
19.0
 40
19.0
 10
81.78346623389442
 20
-125.9458007497635
 10
81.69802786586023
 20
-125.9880031694579
 10
81.49304468448786
 20
-126.0653455631017
 10
81.2990858086683
 20
-125.9538967241539
 10
81.18298609081536
 20
-125.8858560883202
 10
81.13544377311892
 20
-125.7988674273176
 10
81.09410262729592
 20
-125.7246256196105
 10
81.09410262729592
 20
-125.7246256196105
 10
81.29150659860073
 20
-125.6273016721522
 10
81.29150659860073
 20
-125.6273016721522
 10
81.32595755345324
 20
-125.6929307411462
 10
81.43930119491796
 20
-125.8984306868414
 10
81.6935492417294
 20
-125.7732014659525
 10
81.81688366010134
 20
-125.7122232758636
 10
81.9226480914985
 20
-125.582515430844
 10
81.82170679378069
 20
-125.3777045042459
 10
81.77003036150194
 20
-125.2733181110428
 10
81.7142198146409
 20
-125.2466186210321
 10
81.67184514017232
 20
-125.2323214747683
 10
81.57297089974566
 20
-125.1985595390129
 10
81.46272784421765
 20
-125.2385226466418
 10
81.41346297877858
 20
-125.262982824587
 10
81.39658201090086
 20
-125.2712510537516
 10
81.36488713243656
 20
-125.2888210407264
 10
81.34214950223391
 20
-125.3050129895071
 10
81.34214950223391
 20
-125.3050129895071
 10
81.25602211510267
 20
-125.1303466484049
 10
81.25602211510267
 20
-125.1303466484049
 10
81.29322914634336
 20
-125.1193223428521
 10
81.33215872532669
 20
-125.1024413749744
 10
81.33801538765161
 20
-125.0996852985862
 10
81.39658201090086
 20
-125.0707464965101
 10
81.5653916896781
 20
-124.9636040269188
 10
81.46100529647504
 20
-124.7513861450274
 10
81.38211260986282
 20
-124.5918782240604
 10
81.24017467587052
 20
-124.6004909627735
 10
81.14164494499236
 20
-124.6490668091155
 10
80.90427786605866
 20
-124.7658555460655
 10
80.99970701100008
 20
-124.9787624470539
 10
81.0276122844306
 20
-125.0449082803707
 10
81.0276122844306
 20
-125.0449082803707
 10
80.84536673326089
 20
-125.1346530177615
 10
80.84536673326089
 20
-125.1346530177615
 10
80.79782441556443
 20
-125.0190700642313
 10
80.65623099112067
 20
-124.66904836293
 10
81.06585284431688
 20
-124.4671657674943
 10
81.26704642065546
 20
-124.3679470175191
 10
81.53955347353873
 20
-124.3751817180381
 10
81.67046710197822
 20
-124.6407985799509
 10
81.75280488407569
 20
-124.8078857109855
 10
81.70388452818514
 20
-124.9236409192899
 10
81.64187280945065
 20
-125.0226874144909
 10
81.70905217141302
 20
-125.0204481024254
 10
81.90783418091193
 20
-125.0118353637123
 10
82.03047958018684
 20
-125.2605712577474
 10
82.17999672424668
 20
-125.5640841699979
 10
82.03185761838093
 20
-125.8233276052629
 10
81.78346623389442
 20
-125.9458007497635
 97
        0
 97
        0
 75
     2
 76
     1
 98
        0
  0
SPLINE
  5
57
330
41
100
AcDbEntity
  8
_U+30EC_U+30A4_U+30E4_U+30FC 1
370
     0
100
AcDbSpline
210
0.0
220
0.0
230
1.0
 70
    11
 71
     3
 72
    29
 73
    25
 74
     0
 42
0.0000000001
 43
0.0000000001
 12
1.0
 22
0.0
 32
0.0
 13
1.0
 23
0.0
 33
0.0
 40
0.0
 40
0.0
 40
0.0
 40
0.0
 40
1.0
 40
1.0
 40
1.0
 40
2.0
 40
2.0
 40
2.0
 40
3.0
 40
3.0
 40
3.0
 40
4.0
 40
4.0
 40
4.0
 40
5.0
 40
5.0
 40
5.0
 40
6.0
 40
6.0
 40
6.0
 40
7.0
 40
7.0
 40
7.0
 40
8.0
 40
8.0
 40
8.0
 40
8.0
 10
83.10224878564806
 20
-125.0407741657884
 30
0.0
 10
83.09811467106576
 20
-125.2764186969795
 30
0.0
 10
82.95100909384558
 20
-125.3701252941783
 30
0.0
 10
82.84662270064251
 20
-125.4214572169085
 30
0.0
 10
82.70227319981055
 20
-125.4927706934532
 30
0.0
 10
82.55482311304185
 20
-125.5137857759132
 30
0.0
 10
82.3887695106528
 20
-125.3926906696067
 30
0.0
 10
82.20996905496834
 20
-125.2636718436841
 30
0.0
 10
82.0880126747905
 20
-125.0600667005058
 30
0.0
 10
82.01601017914878
 20
-124.913822397157
 30
0.0
 10
81.95227591267165
 20
-124.7848035712344
 30
0.0
 10
81.85615774863318
 20
-124.5512260973344
 30
0.0
 10
81.86304793960369
 20
-124.3262613621476
 30
0.0
 10
81.86993813057418
 20
-124.0964734932814
 30
0.0
 10
82.0039523449504
 20
-124.0044894438253
 30
0.0
 10
82.1197075532548
 20
-123.9473008587701
 30
0.0
 10
82.26198999679562
 20
-123.8773654204196
 30
0.0
 10
82.41047361220988
 20
-123.8534220067971
 30
0.0
 10
82.57652721459893
 20
-123.9745171131036
 30
0.0
 10
82.75050453660404
 20
-124.1031914294777
 30
0.0
 10
82.87246091678189
 20
-124.29766706962
 30
0.0
 10
82.94928654610295
 20
-124.4533853855533
 30
0.0
 10
83.02507864677845
 20
-124.6070366441955
 30
0.0
 10
83.10810544797297
 20
-124.8230441311206
 30
0.0
 10
83.10224878564806
 20
-125.0407741657884
 30
0.0
  0
SPLINE
  5
58
330
41
100
AcDbEntity
  8
_U+30EC_U+30A4_U+30E4_U+30FC 1
370
     0
100
AcDbSpline
210
0.0
220
0.0
230
1.0
 70
    11
 71
     3
 72
    17
 73
    13
 74
     0
 42
0.0000000001
 43
0.0000000001
 12
1.0
 22
0.0
 32
0.0
 13
1.0
 23
0.0
 33
0.0
 40
0.0
 40
0.0
 40
0.0
 40
0.0
 40
1.0
 40
1.0
 40
1.0
 40
2.0
 40
2.0
 40
2.0
 40
3.0
 40
3.0
 40
3.0
 40
4.0
 40
4.0
 40
4.0
 40
4.0
 10
82.20480141174048
 20
-124.1202446521297
 30
0.0
 10
81.98087020519922
 20
-124.2304877076577
 30
0.0
 10
82.0645860254908
 20
-124.5054063273806
 30
0.0
 10
82.21720375548738
 20
-124.8146036471818
 30
0.0
 10
82.35845267038262
 20
-125.1010633367803
 30
0.0
 10
82.52726234915986
 20
-125.3618570650137
 30
0.0
 10
82.76049531351127
 20
-125.2467908758064
 30
0.0
 10
82.98270397230988
 20
-125.1374090941497
 30
0.0
 10
82.90208873795504
 20
-124.8638685126208
 30
0.0
 10
82.7484374793129
 20
-124.5526041355285
 30
0.0
 10
82.60718856441765
 20
-124.2659721911557
 30
0.0
 10
82.43631182834926
 20
-124.0058674820194
 30
0.0
 10
82.20480141174048
 20
-124.1202446521297
 30
0.0
  0
HATCH
  5
59
330
41
100
AcDbEntity
  8
_U+30EC_U+30A4_U+30E4_U+30FC 1
 62
   179
420
  2234388
100
AcDbHatch
 10
0.0
 20
0.0
 30
0.0
210
0.0
220
0.0
230
1.0
  2
SOLID
 70
     1
 71
     0
 91
        2
 92
        1
 93
        1
 72
     4
 94
        3
 73
     0
 74
     1
 95
       29
 96
       25
 40
0.0
 40
0.0
 40
0.0
 40
0.0
 40
1.0
 40
1.0
 40
1.0
 40
2.0
 40
2.0
 40
2.0
 40
3.0
 40
3.0
 40
3.0
 40
4.0
 40
4.0
 40
4.0
 40
5.0
 40
5.0
 40
5.0
 40
6.0
 40
6.0
 40
6.0
 40
7.0
 40
7.0
 40
7.0
 40
8.0
 40
8.0
 40
8.0
 40
8.0
 10
83.10224878564806
 20
-125.0407741657884
 10
83.09811467106576
 20
-125.2764186969795
 10
82.95100909384558
 20
-125.3701252941783
 10
82.84662270064251
 20
-125.4214572169085
 10
82.70227319981055
 20
-125.4927706934532
 10
82.55482311304185
 20
-125.5137857759132
 10
82.3887695106528
 20
-125.3926906696067
 10
82.20996905496834
 20
-125.2636718436841
 10
82.0880126747905
 20
-125.0600667005058
 10
82.01601017914878
 20
-124.913822397157
 10
81.95227591267165
 20
-124.7848035712344
 10
81.85615774863318
 20
-124.5512260973344
 10
81.86304793960369
 20
-124.3262613621476
 10
81.86993813057418
 20
-124.0964734932814
 10
82.0039523449504
 20
-124.0044894438253
 10
82.1197075532548
 20
-123.9473008587701
 10
82.26198999679562
 20
-123.8773654204196
 10
82.41047361220988
 20
-123.8534220067971
 10
82.57652721459893
 20
-123.9745171131036
 10
82.75050453660404
 20
-124.1031914294777
 10
82.87246091678189
 20
-124.29766706962
 10
82.94928654610295
 20
-124.4533853855533
 10
83.02507864677845
 20
-124.6070366441955
 10
83.10810544797297
 20
-124.8230441311206
 10
83.10224878564806
 20
-125.0407741657884
 97
        0
 97
        0
 92
        1
 93
        1
 72
     4
 94
        3
 73
     0
 74
     1
 95
       17
 96
       13
 40
0.0
 40
0.0
 40
0.0
 40
0.0
 40
1.0
 40
1.0
 40
1.0
 40
2.0
 40
2.0
 40
2.0
 40
3.0
 40
3.0
 40
3.0
 40
4.0
 40
4.0
 40
4.0
 40
4.0
 10
82.20480141174048
 20
-124.1202446521297
 10
81.98087020519922
 20
-124.2304877076577
 10
82.0645860254908
 20
-124.5054063273806
 10
82.21720375548738
 20
-124.8146036471818
 10
82.35845267038262
 20
-125.1010633367803
 10
82.52726234915986
 20
-125.3618570650137
 10
82.76049531351127
 20
-125.2467908758064
 10
82.98270397230988
 20
-125.1374090941497
 10
82.90208873795504
 20
-124.8638685126208
 10
82.7484374793129
 20
-124.5526041355285
 10
82.60718856441765
 20
-124.2659721911557
 10
82.43631182834926
 20
-124.0058674820194
 10
82.20480141174048
 20
-124.1202446521297
 97
        0
 97
        0
 75
     2
 76
     1
 98
        0
  0
POLYLINE
  5
5A
330
41
100
AcDbEntity
  8
_U+30EC_U+30A4_U+30E4_U+30FC 1
370
     0
100
AcDb2dPolyline
 66
     1
 10
0.0
 20
0.0
 30
0.0
  0
VERTEX
  5
5B
330
5A
100
AcDbEntity
  8
_U+30EC_U+30A4_U+30E4_U+30FC 1
370
     0
100
AcDbVertex
100
AcDb2dVertex
 10
84.63497176703571
 20
-124.4830132067265
 30
0.0
  0
VERTEX
  5
5C
330
5A
100
AcDbEntity
  8
_U+30EC_U+30A4_U+30E4_U+30FC 1
370
     0
100
AcDbVertex
100
AcDb2dVertex
 10
84.16230466645943
 20
-123.5249321522785
 30
0.0
  0
VERTEX
  5
5D
330
5A
100
AcDbEntity
  8
_U+30EC_U+30A4_U+30E4_U+30FC 1
370
     0
100
AcDbVertex
100
AcDb2dVertex
 10
84.09581432359411
 20
-123.3761040273157
 30
0.0
  0
VERTEX
  5
5E
330
5A
100
AcDbEntity
  8
_U+30EC_U+30A4_U+30E4_U+30FC 1
370
     0
100
AcDbVertex
100
AcDb2dVertex
 10
84.13198782618923
 20
-123.5304443050549
 30
0.0
  0
VERTEX
  5
5F
330
5A
100
AcDbEntity
  8
_U+30EC_U+30A4_U+30E4_U+30FC 1
370
     0
100
AcDbVertex
100
AcDb2dVertex
 10
84.29907495722385
 20
-124.648722299567
 30
0.0
  0
VERTEX
  5
60
330
5A
100
AcDbEntity
  8
_U+30EC_U+30A4_U+30E4_U+30FC 1
370
     0
100
AcDbVertex
100
AcDb2dVertex
 10
84.05619572551373
 20
-124.7686116224537
 30
0.0
  0
VERTEX
  5
61
330
5A
100
AcDbEntity
  8
_U+30EC_U+30A4_U+30E4_U+30FC 1
370
     0
100
AcDbVertex
100
AcDb2dVertex
 10
83.2724365026194
 20
-123.9541910497406
 30
0.0
  0
VERTEX
  5
62
330
5A
100
AcDbEntity
  8
_U+30EC_U+30A4_U+30E4_U+30FC 1
370
     0
100
AcDbVertex
100
AcDb2dVertex
 10
83.1718397144501
 20
-123.83171790524
 30
0.0
  0
VERTEX
  5
63
330
5A
100
AcDbEntity
  8
_U+30EC_U+30A4_U+30E4_U+30FC 1
370
     0
100
AcDbVertex
100
AcDb2dVertex
 10
83.24797632467413
 20
-123.976067406072
 30
0.0
  0
VERTEX
  5
64
330
5A
100
AcDbEntity
  8
_U+30EC_U+30A4_U+30E4_U+30FC 1
370
     0
100
AcDbVertex
100
AcDb2dVertex
 10
83.72029891570187
 20
-124.9341484605199
 30
0.0
  0
VERTEX
  5
65
330
5A
100
AcDbEntity
  8
_U+30EC_U+30A4_U+30E4_U+30FC 1
370
     0
100
AcDbVertex
100
AcDb2dVertex
 10
83.52496200168821
 20
-125.0304388793327
 30
0.0
  0
VERTEX
  5
66
330
5A
100
AcDbEntity
  8
_U+30EC_U+30A4_U+30E4_U+30FC 1
370
     0
100
AcDbVertex
100
AcDb2dVertex
 10
82.84179956696316
 20
-123.6455104942622
 30
0.0
  0
VERTEX
  5
67
330
5A
100
AcDbEntity
  8
_U+30EC_U+30A4_U+30E4_U+30FC 1
370
     0
100
AcDbVertex
100
AcDb2dVertex
 10
83.12808700178742
 20
-123.504261579367
 30
0.0
  0
VERTEX
  5
68
330
5A
100
AcDbEntity
  8
_U+30EC_U+30A4_U+30E4_U+30FC 1
370
     0
100
AcDbVertex
100
AcDb2dVertex
 10
83.96834579063986
 20
-124.3708753486816
 30
0.0
  0
VERTEX
  5
69
330
5A
100
AcDbEntity
  8
_U+30EC_U+30A4_U+30E4_U+30FC 1
370
     0
100
AcDbVertex
100
AcDb2dVertex
 10
84.06515297377538
 20
-124.4809461494353
 30
0.0
  0
VERTEX
  5
6A
330
5A
100
AcDbEntity
  8
_U+30EC_U+30A4_U+30E4_U+30FC 1
370
     0
100
AcDbVertex
100
AcDb2dVertex
 10
84.03690319079634
 20
-124.3372856677004
 30
0.0
  0
VERTEX
  5
6B
330
5A
100
AcDbEntity
  8
_U+30EC_U+30A4_U+30E4_U+30FC 1
370
     0
100
AcDbVertex
100
AcDb2dVertex
 10
83.8625813592427
 20
-123.142009789093
 30
0.0
  0
VERTEX
  5
6C
330
5A
100
AcDbEntity
  8
_U+30EC_U+30A4_U+30E4_U+30FC 1
370
     0
100
AcDbVertex
100
AcDb2dVertex
 10
84.14714624632433
 20
-123.001622148069
 30
0.0
  0
VERTEX
  5
6D
330
5A
100
AcDbEntity
  8
_U+30EC_U+30A4_U+30E4_U+30FC 1
370
     0
100
AcDbVertex
100
AcDb2dVertex
 10
84.83030868104937
 20
-124.386895042688
 30
0.0
  0
VERTEX
  5
6E
330
5A
100
AcDbEntity
  8
_U+30EC_U+30A4_U+30E4_U+30FC 1
370
     0
100
AcDbVertex
100
AcDb2dVertex
 10
84.63497176703571
 20
-124.4830132067265
 30
0.0
  0
SEQEND
  5
6F
330
5A
100
AcDbEntity
  8
_U+30EC_U+30A4_U+30E4_U+30FC 1
370
     0
  0
HATCH
  5
70
330
41
100
AcDbEntity
  8
_U+30EC_U+30A4_U+30E4_U+30FC 1
 62
   179
420
  2234388
100
AcDbHatch
 10
0.0
 20
0.0
 30
0.0
210
0.0
220
0.0
230
1.0
  2
SOLID
 70
     1
 71
     0
 91
        1
 92
        1
 93
       19
 72
     1
 10
84.63497176703571
 20
-124.4830132067265
 11
84.16230466645943
 21
-123.5249321522785
 72
     1
 10
84.16230466645943
 20
-123.5249321522785
 11
84.09581432359411
 21
-123.3761040273157
 72
     1
 10
84.09581432359411
 20
-123.3761040273157
 11
84.13198782618923
 21
-123.5304443050549
 72
     1
 10
84.13198782618923
 20
-123.5304443050549
 11
84.29907495722385
 21
-124.648722299567
 72
     1
 10
84.29907495722385
 20
-124.648722299567
 11
84.05619572551373
 21
-124.7686116224537
 72
     1
 10
84.05619572551373
 20
-124.7686116224537
 11
83.2724365026194
 21
-123.9541910497406
 72
     1
 10
83.2724365026194
 20
-123.9541910497406
 11
83.1718397144501
 21
-123.83171790524
 72
     1
 10
83.1718397144501
 20
-123.83171790524
 11
83.24797632467413
 21
-123.976067406072
 72
     1
 10
83.24797632467413
 20
-123.976067406072
 11
83.72029891570187
 21
-124.9341484605199
 72
     1
 10
83.72029891570187
 20
-124.9341484605199
 11
83.52496200168821
 21
-125.0304388793327
 72
     1
 10
83.52496200168821
 20
-125.0304388793327
 11
82.84179956696316
 21
-123.6455104942622
 72
     1
 10
82.84179956696316
 20
-123.6455104942622
 11
83.12808700178742
 21
-123.504261579367
 72
     1
 10
83.12808700178742
 20
-123.504261579367
 11
83.96834579063986
 21
-124.3708753486816
 72
     1
 10
83.96834579063986
 20
-124.3708753486816
 11
84.06515297377538
 21
-124.4809461494353
 72
     1
 10
84.06515297377538
 20
-124.4809461494353
 11
84.03690319079634
 21
-124.3372856677004
 72
     1
 10
84.03690319079634
 20
-124.3372856677004
 11
83.8625813592427
 21
-123.142009789093
 72
     1
 10
83.8625813592427
 20
-123.142009789093
 11
84.14714624632433
 21
-123.001622148069
 72
     1
 10
84.14714624632433
 20
-123.001622148069
 11
84.83030868104937
 21
-124.386895042688
 72
     1
 10
84.83030868104937
 20
-124.386895042688
 11
84.63497176703571
 21
-124.4830132067265
 97
        0
 75
     2
 76
     1
 98
        0
  0
POLYLINE
  5
71
330
41
100
AcDbEntity
  8
_U+30EC_U+30A4_U+30E4_U+30FC 1
370
     0
100
AcDb2dPolyline
 66
     1
 10
0.0
 20
0.0
 30
0.0
  0
VERTEX
  5
72
330
71
100
AcDbEntity
  8
_U+30EC_U+30A4_U+30E4_U+30FC 1
370
     0
100
AcDbVertex
100
AcDb2dVertex
 10
86.39817163638658
 20
-123.6134711062494
 30
0.0
  0
VERTEX
  5
73
330
71
100
AcDbEntity
  8
_U+30EC_U+30A4_U+30E4_U+30FC 1
370
     0
100
AcDbVertex
100
AcDb2dVertex
 10
86.15529240467646
 20
-123.7333604291361
 30
0.0
  0
VERTEX
  5
74
330
71
100
AcDbEntity
  8
_U+30EC_U+30A4_U+30E4_U+30FC 1
370
     0
100
AcDbVertex
100
AcDb2dVertex
 10
85.33604869828405
 20
-122.7174017705359
 30
0.0
  0
VERTEX
  5
75
330
71
100
AcDbEntity
  8
_U+30EC_U+30A4_U+30E4_U+30FC 1
370
     0
100
AcDbVertex
100
AcDb2dVertex
 10
85.64541827285949
 20
-123.9848523995593
 30
0.0
  0
VERTEX
  5
76
330
71
100
AcDbEntity
  8
_U+30EC_U+30A4_U+30E4_U+30FC 1
370
     0
100
AcDbVertex
100
AcDb2dVertex
 10
85.40253904114937
 20
-124.104741722446
 30
0.0
  0
VERTEX
  5
77
330
71
100
AcDbEntity
  8
_U+30EC_U+30A4_U+30E4_U+30FC 1
370
     0
100
AcDbVertex
100
AcDb2dVertex
 10
84.37590058654492
 20
-122.8889675257014
 30
0.0
  0
VERTEX
  5
78
330
71
100
AcDbEntity
  8
_U+30EC_U+30A4_U+30E4_U+30FC 1
370
     0
100
AcDbVertex
100
AcDb2dVertex
 10
84.58467337295106
 20
-122.7859591706924
 30
0.0
  0
VERTEX
  5
79
330
71
100
AcDbEntity
  8
_U+30EC_U+30A4_U+30E4_U+30FC 1
370
     0
100
AcDbVertex
100
AcDb2dVertex
 10
85.39392630243624
 20
-123.7809027468326
 30
0.0
  0
VERTEX
  5
7A
330
71
100
AcDbEntity
  8
_U+30EC_U+30A4_U+30E4_U+30FC 1
370
     0
100
AcDbVertex
100
AcDb2dVertex
 10
85.09110240928278
 20
-122.5361897480118
 30
0.0
  0
VERTEX
  5
7B
330
71
100
AcDbEntity
  8
_U+30EC_U+30A4_U+30E4_U+30FC 1
370
     0
100
AcDbVertex
100
AcDb2dVertex
 10
85.34156085106045
 20
-122.4125108200913
 30
0.0
  0
VERTEX
  5
7C
330
71
100
AcDbEntity
  8
_U+30EC_U+30A4_U+30E4_U+30FC 1
370
     0
100
AcDbVertex
100
AcDb2dVertex
 10
86.1449571182207
 20
-123.4103827273939
 30
0.0
  0
VERTEX
  5
7D
330
71
100
AcDbEntity
  8
_U+30EC_U+30A4_U+30E4_U+30FC 1
370
     0
100
AcDbVertex
100
AcDb2dVertex
 10
85.8497124351348
 20
-122.1620523783137
 30
0.0
  0
VERTEX
  5
7E
330
71
100
AcDbEntity
  8
_U+30EC_U+30A4_U+30E4_U+30FC 1
370
     0
100
AcDbVertex
100
AcDb2dVertex
 10
86.05882973108946
 20
-122.0590440233047
 30
0.0
  0
VERTEX
  5
7F
330
71
100
AcDbEntity
  8
_U+30EC_U+30A4_U+30E4_U+30FC 1
370
     0
100
AcDbVertex
100
AcDb2dVertex
 10
86.39817163638658
 20
-123.6134711062494
 30
0.0
  0
SEQEND
  5
80
330
71
100
AcDbEntity
  8
_U+30EC_U+30A4_U+30E4_U+30FC 1
370
     0
  0
HATCH
  5
81
330
41
100
AcDbEntity
  8
_U+30EC_U+30A4_U+30E4_U+30FC 1
 62
   179
420
  2234388
100
AcDbHatch
 10
0.0
 20
0.0
 30
0.0
210
0.0
220
0.0
230
1.0
  2
SOLID
 70
     1
 71
     0
 91
        1
 92
        1
 93
       13
 72
     1
 10
86.39817163638658
 20
-123.6134711062494
 11
86.15529240467646
 21
-123.7333604291361
 72
     1
 10
86.15529240467646
 20
-123.7333604291361
 11
85.33604869828405
 21
-122.7174017705359
 72
     1
 10
85.33604869828405
 20
-122.7174017705359
 11
85.64541827285949
 21
-123.9848523995593
 72
     1
 10
85.64541827285949
 20
-123.9848523995593
 11
85.40253904114937
 21
-124.104741722446
 72
     1
 10
85.40253904114937
 20
-124.104741722446
 11
84.37590058654492
 21
-122.8889675257014
 72
     1
 10
84.37590058654492
 20
-122.8889675257014
 11
84.58467337295106
 21
-122.7859591706924
 72
     1
 10
84.58467337295106
 20
-122.7859591706924
 11
85.39392630243624
 21
-123.7809027468326
 72
     1
 10
85.39392630243624
 20
-123.7809027468326
 11
85.09110240928278
 21
-122.5361897480118
 72
     1
 10
85.09110240928278
 20
-122.5361897480118
 11
85.34156085106045
 21
-122.4125108200913
 72
     1
 10
85.34156085106045
 20
-122.4125108200913
 11
86.1449571182207
 21
-123.4103827273939
 72
     1
 10
86.1449571182207
 20
-123.4103827273939
 11
85.8497124351348
 21
-122.1620523783137
 72
     1
 10
85.8497124351348
 20
-122.1620523783137
 11
86.05882973108946
 21
-122.0590440233047
 72
     1
 10
86.05882973108946
 20
-122.0590440233047
 11
86.39817163638658
 21
-123.6134711062494
 97
        0
 75
     2
 76
     1
 98
        0
  0
ENDBLK
  5
44
330
41
100
AcDbEntity
  8
0
100
AcDbBlockEnd
  0
BLOCK
  5
84
330
82
100
AcDbEntity
  8
0
100
AcDbBlockBegin
  2
block 3
 70
     0
 10
0.0
 20
0.0
 30
0.0
  3
block 3
  1

  0
SPLINE
  5
86
330
82
100
AcDbEntity
  8
_U+30EC_U+30A4_U+30E4_U+30FC 1
370
     0
100
AcDbSpline
210
0.0
220
0.0
230
1.0
 70
    11
 71
     3
 72
    38
 73
    34
 74
     0
 42
0.0000000001
 43
0.0000000001
 12
1.0
 22
0.0
 32
0.0
 13
1.0
 23
0.0
 33
0.0
 40
0.0
 40
0.0
 40
0.0
 40
0.0
 40
1.0
 40
1.0
 40
1.0
 40
2.0
 40
2.0
 40
2.0
 40
3.0
 40
3.0
 40
3.0
 40
4.0
 40
4.0
 40
4.0
 40
5.0
 40
5.0
 40
5.0
 40
6.0
 40
6.0
 40
6.0
 40
7.0
 40
7.0
 40
7.0
 40
8.0
 40
8.0
 40
8.0
 40
9.0
 40
9.0
 40
9.0
 40
10.0
 40
10.0
 40
10.0
 40
11.0
 40
11.0
 40
11.0
 40
11.0
 10
95.9503878883388
 20
-123.8398138796303
 30
0.0
 10
95.53284231552652
 20
-123.6341416791609
 30
0.0
 10
95.44705943794379
 20
-123.1862792660784
 30
0.0
 10
95.65479869570436
 20
-122.7649440882324
 30
0.0
 10
95.8869981314102
 20
-122.2943440449473
 30
0.0
 10
96.32073565300315
 20
-122.1899576517442
 30
0.0
 10
96.68660479353669
 20
-122.3704806551713
 30
0.0
 10
96.99597436811212
 20
-122.5230983851678
 30
0.0
 10
97.16133895140412
 20
-122.81455346322
 30
0.0
 10
97.04007159032332
 20
-123.1084201081118
 30
0.0
 10
97.04007159032332
 20
-123.1084201081118
 30
0.0
 10
96.83302135165981
 20
-123.0064452817484
 30
0.0
 10
96.83302135165981
 20
-123.0064452817484
 30
0.0
 10
96.89055444626348
 20
-122.8035291576672
 30
0.0
 10
96.73001299665083
 20
-122.6323079120503
 30
0.0
 10
96.58566349581886
 20
-122.5609944355056
 30
0.0
 10
96.49299042726564
 20
-122.5155191751003
 30
0.0
 10
96.37413463302452
 20
-122.4927815448976
 30
0.0
 10
96.25734589607455
 20
-122.5196532896826
 30
0.0
 10
96.05684133883301
 20
-122.5623724736997
 30
0.0
 10
95.93488495865518
 20
-122.7425509675783
 30
0.0
 10
95.86460501075608
 20
-122.8848334111191
 30
0.0
 10
95.66995711583947
 20
-123.2796413537287
 30
0.0
 10
95.84944659062097
 20
-123.5473252729326
 30
0.0
 10
96.0427164473435
 20
-123.642754417874
 30
0.0
 10
96.16639537526396
 20
-123.703732607963
 30
0.0
 10
96.44475909047215
 20
-123.7512749256594
 30
0.0
 10
96.61356876924938
 20
-123.4804904205188
 30
0.0
 10
96.61356876924938
 20
-123.4804904205188
 30
0.0
 10
96.82027449836438
 20
-123.5824652468822
 30
0.0
 10
96.82027449836438
 20
-123.5824652468822
 30
0.0
 10
96.74896102181971
 20
-123.6982204551866
 30
0.0
 10
96.49299042726564
 20
-124.1074977988342
 30
0.0
 10
95.9503878883388
 20
-123.8398138796303
 30
0.0
  0
HATCH
  5
87
330
82
100
AcDbEntity
  8
_U+30EC_U+30A4_U+30E4_U+30FC 1
 62
   179
420
  2234388
100
AcDbHatch
 10
0.0
 20
0.0
 30
0.0
210
0.0
220
0.0
230
1.0
  2
SOLID
 70
     1
 71
     0
 91
        1
 92
        1
 93
        1
 72
     4
 94
        3
 73
     0
 74
     1
 95
       38
 96
       34
 40
0.0
 40
0.0
 40
0.0
 40
0.0
 40
1.0
 40
1.0
 40
1.0
 40
2.0
 40
2.0
 40
2.0
 40
3.0
 40
3.0
 40
3.0
 40
4.0
 40
4.0
 40
4.0
 40
5.0
 40
5.0
 40
5.0
 40
6.0
 40
6.0
 40
6.0
 40
7.0
 40
7.0
 40
7.0
 40
8.0
 40
8.0
 40
8.0
 40
9.0
 40
9.0
 40
9.0
 40
10.0
 40
10.0
 40
10.0
 40
11.0
 40
11.0
 40
11.0
 40
11.0
 10
95.9503878883388
 20
-123.8398138796303
 10
95.53284231552652
 20
-123.6341416791609
 10
95.44705943794379
 20
-123.1862792660784
 10
95.65479869570436
 20
-122.7649440882324
 10
95.8869981314102
 20
-122.2943440449473
 10
96.32073565300315
 20
-122.1899576517442
 10
96.68660479353669
 20
-122.3704806551713
 10
96.99597436811212
 20
-122.5230983851678
 10
97.16133895140412
 20
-122.81455346322
 10
97.04007159032332
 20
-123.1084201081118
 10
97.04007159032332
 20
-123.1084201081118
 10
96.83302135165981
 20
-123.0064452817484
 10
96.83302135165981
 20
-123.0064452817484
 10
96.89055444626348
 20
-122.8035291576672
 10
96.73001299665083
 20
-122.6323079120503
 10
96.58566349581886
 20
-122.5609944355056
 10
96.49299042726564
 20
-122.5155191751003
 10
96.37413463302452
 20
-122.4927815448976
 10
96.25734589607455
 20
-122.5196532896826
 10
96.05684133883301
 20
-122.5623724736997
 10
95.93488495865518
 20
-122.7425509675783
 10
95.86460501075608
 20
-122.8848334111191
 10
95.66995711583947
 20
-123.2796413537287
 10
95.84944659062097
 20
-123.5473252729326
 10
96.0427164473435
 20
-123.642754417874
 10
96.16639537526396
 20
-123.703732607963
 10
96.44475909047215
 20
-123.7512749256594
 10
96.61356876924938
 20
-123.4804904205188
 10
96.61356876924938
 20
-123.4804904205188
 10
96.82027449836438
 20
-123.5824652468822
 10
96.82027449836438
 20
-123.5824652468822
 10
96.74896102181971
 20
-123.6982204551866
 10
96.49299042726564
 20
-124.1074977988342
 10
95.9503878883388
 20
-123.8398138796303
 97
        0
 97
        0
 75
     2
 76
     1
 98
        0
  0
SPLINE
  5
88
330
82
100
AcDbEntity
  8
_U+30EC_U+30A4_U+30E4_U+30FC 1
370
     0
100
AcDbSpline
210
0.0
220
0.0
230
1.0
 70
    11
 71
     3
 72
    44
 73
    40
 74
     0
 42
0.0000000001
 43
0.0000000001
 12
1.0
 22
0.0
 32
0.0
 13
1.0
 23
0.0
 33
0.0
 40
0.0
 40
0.0
 40
0.0
 40
0.0
 40
1.0
 40
1.0
 40
1.0
 40
2.0
 40
2.0
 40
2.0
 40
3.0
 40
3.0
 40
3.0
 40
4.0
 40
4.0
 40
4.0
 40
5.0
 40
5.0
 40
5.0
 40
6.0
 40
6.0
 40
6.0
 40
7.0
 40
7.0
 40
7.0
 40
8.0
 40
8.0
 40
8.0
 40
9.0
 40
9.0
 40
9.0
 40
10.0
 40
10.0
 40
10.0
 40
11.0
 40
11.0
 40
11.0
 40
12.0
 40
12.0
 40
12.0
 40
13.0
 40
13.0
 40
13.0
 40
13.0
 10
97.65467662489189
 20
-124.6239176120732
 30
0.0
 10
97.65329858669779
 20
-124.5736192179886
 30
0.0
 10
97.65777721082861
 20
-124.5171196520304
 30
0.0
 10
97.75768497990086
 20
-124.3090358847214
 30
0.0
 10
97.86138235400688
 20
-124.0892387927624
 30
0.0
 10
97.83933374290129
 20
-124.000355329243
 30
0.0
 10
97.67982582193422
 20
-123.9214626426308
 30
0.0
 10
97.67982582193422
 20
-123.9214626426308
 30
0.0
 10
97.31395668140068
 20
-123.7409396392037
 30
0.0
 10
97.31395668140068
 20
-123.7409396392037
 30
0.0
 10
97.31395668140068
 20
-123.7409396392037
 30
0.0
 10
97.03042532296462
 20
-124.3159260756919
 30
0.0
 10
97.03042532296462
 20
-124.3159260756919
 30
0.0
 10
97.03042532296462
 20
-124.3159260756919
 30
0.0
 10
96.81958547926733
 20
-124.2122287015858
 30
0.0
 10
96.81958547926733
 20
-124.2122287015858
 30
0.0
 10
96.81958547926733
 20
-124.2122287015858
 30
0.0
 10
97.50274791399238
 20
-122.8269558069669
 30
0.0
 10
97.50274791399238
 20
-122.8269558069669
 30
0.0
 10
97.50274791399238
 20
-122.8269558069669
 30
0.0
 10
98.10805119075077
 20
-123.125645585538
 30
0.0
 10
98.10805119075077
 20
-123.125645585538
 30
0.0
 10
98.38296981047371
 20
-123.2610378381084
 30
0.0
 10
98.45703936340658
 20
-123.4891031592319
 30
0.0
 10
98.34369572194186
 20
-123.7185465185495
 30
0.0
 10
98.32164711083625
 20
-123.7640217789548
 30
0.0
 10
98.27754988862506
 20
-123.8343017268539
 30
0.0
 10
98.20175778794956
 20
-123.8866671782297
 30
0.0
 10
98.10322805707142
 20
-123.9535020306436
 30
0.0
 10
98.03570418556052
 20
-123.9417887059937
 30
0.0
 10
97.9733479572775
 20
-123.9297308717954
 30
0.0
 10
98.07773435048057
 20
-124.0282606026735
 30
0.0
 10
98.11700843901242
 20
-124.1016411365093
 30
0.0
 10
97.9816161864421
 20
-124.386206023591
 30
0.0
 10
97.86551646858918
 20
-124.6311523125922
 30
0.0
 10
97.88377547466101
 20
-124.6755940443519
 30
0.0
 10
97.92029348680465
 20
-124.7548312405127
 30
0.0
 10
97.92029348680465
 20
-124.7548312405127
 30
0.0
 10
97.65467662489189
 20
-124.6239176120732
 30
0.0
 10
97.65467662489189
 20
-124.6239176120732
 30
0.0
  0
SPLINE
  5
89
330
82
100
AcDbEntity
  8
_U+30EC_U+30A4_U+30E4_U+30FC 1
370
     0
100
AcDbSpline
210
0.0
220
0.0
230
1.0
 70
    11
 71
     3
 72
    20
 73
    16
 74
     0
 42
0.0000000001
 43
0.0000000001
 12
1.0
 22
0.0
 32
0.0
 13
1.0
 23
0.0
 33
0.0
 40
0.0
 40
0.0
 40
0.0
 40
0.0
 40
1.0
 40
1.0
 40
1.0
 40
2.0
 40
2.0
 40
2.0
 40
3.0
 40
3.0
 40
3.0
 40
4.0
 40
4.0
 40
4.0
 40
5.0
 40
5.0
 40
5.0
 40
5.0
 10
98.01813419858576
 20
-123.3168483849694
 30
0.0
 10
98.01813419858576
 20
-123.3168483849694
 30
0.0
 10
97.61988116049086
 20
-123.1204779423102
 30
0.0
 10
97.61988116049086
 20
-123.1204779423102
 30
0.0
 10
97.61988116049086
 20
-123.1204779423102
 30
0.0
 10
97.40731876905095
 20
-123.5514593875149
 30
0.0
 10
97.40731876905095
 20
-123.5514593875149
 30
0.0
 10
97.40731876905095
 20
-123.5514593875149
 30
0.0
 10
97.80384925940321
 20
-123.7467963015286
 30
0.0
 10
97.80384925940321
 20
-123.7467963015286
 30
0.0
 10
97.89307723247119
 20
-123.7908935237398
 30
0.0
 10
98.04810652930742
 20
-123.7822807850267
 30
0.0
 10
98.12389862998292
 20
-123.628974035933
 30
0.0
 10
98.15869409438395
 20
-123.5586940880339
 30
0.0
 10
98.1965901447217
 20
-123.4050428293918
 30
0.0
 10
98.01813419858576
 20
-123.3168483849694
 30
0.0
  0
HATCH
  5
8A
330
82
100
AcDbEntity
  8
_U+30EC_U+30A4_U+30E4_U+30FC 1
 62
   179
420
  2234388
100
AcDbHatch
 10
0.0
 20
0.0
 30
0.0
210
0.0
220
0.0
230
1.0
  2
SOLID
 70
     1
 71
     0
 91
        2
 92
        1
 93
        1
 72
     4
 94
        3
 73
     0
 74
     1
 95
       44
 96
       40
 40
0.0
 40
0.0
 40
0.0
 40
0.0
 40
1.0
 40
1.0
 40
1.0
 40
2.0
 40
2.0
 40
2.0
 40
3.0
 40
3.0
 40
3.0
 40
4.0
 40
4.0
 40
4.0
 40
5.0
 40
5.0
 40
5.0
 40
6.0
 40
6.0
 40
6.0
 40
7.0
 40
7.0
 40
7.0
 40
8.0
 40
8.0
 40
8.0
 40
9.0
 40
9.0
 40
9.0
 40
10.0
 40
10.0
 40
10.0
 40
11.0
 40
11.0
 40
11.0
 40
12.0
 40
12.0
 40
12.0
 40
13.0
 40
13.0
 40
13.0
 40
13.0
 10
97.65467662489189
 20
-124.6239176120732
 10
97.65329858669779
 20
-124.5736192179886
 10
97.65777721082861
 20
-124.5171196520304
 10
97.75768497990086
 20
-124.3090358847214
 10
97.86138235400688
 20
-124.0892387927624
 10
97.83933374290129
 20
-124.000355329243
 10
97.67982582193422
 20
-123.9214626426308
 10
97.67982582193422
 20
-123.9214626426308
 10
97.31395668140068
 20
-123.7409396392037
 10
97.31395668140068
 20
-123.7409396392037
 10
97.31395668140068
 20
-123.7409396392037
 10
97.03042532296462
 20
-124.3159260756919
 10
97.03042532296462
 20
-124.3159260756919
 10
97.03042532296462
 20
-124.3159260756919
 10
96.81958547926733
 20
-124.2122287015858
 10
96.81958547926733
 20
-124.2122287015858
 10
96.81958547926733
 20
-124.2122287015858
 10
97.50274791399238
 20
-122.8269558069669
 10
97.50274791399238
 20
-122.8269558069669
 10
97.50274791399238
 20
-122.8269558069669
 10
98.10805119075077
 20
-123.125645585538
 10
98.10805119075077
 20
-123.125645585538
 10
98.38296981047371
 20
-123.2610378381084
 10
98.45703936340658
 20
-123.4891031592319
 10
98.34369572194186
 20
-123.7185465185495
 10
98.32164711083625
 20
-123.7640217789548
 10
98.27754988862506
 20
-123.8343017268539
 10
98.20175778794956
 20
-123.8866671782297
 10
98.10322805707142
 20
-123.9535020306436
 10
98.03570418556052
 20
-123.9417887059937
 10
97.9733479572775
 20
-123.9297308717954
 10
98.07773435048057
 20
-124.0282606026735
 10
98.11700843901242
 20
-124.1016411365093
 10
97.9816161864421
 20
-124.386206023591
 10
97.86551646858918
 20
-124.6311523125922
 10
97.88377547466101
 20
-124.6755940443519
 10
97.92029348680465
 20
-124.7548312405127
 10
97.92029348680465
 20
-124.7548312405127
 10
97.65467662489189
 20
-124.6239176120732
 10
97.65467662489189
 20
-124.6239176120732
 97
        0
 97
        0
 92
        1
 93
        1
 72
     4
 94
        3
 73
     0
 74
     1
 95
       20
 96
       16
 40
0.0
 40
0.0
 40
0.0
 40
0.0
 40
1.0
 40
1.0
 40
1.0
 40
2.0
 40
2.0
 40
2.0
 40
3.0
 40
3.0
 40
3.0
 40
4.0
 40
4.0
 40
4.0
 40
5.0
 40
5.0
 40
5.0
 40
5.0
 10
98.01813419858576
 20
-123.3168483849694
 10
98.01813419858576
 20
-123.3168483849694
 10
97.61988116049086
 20
-123.1204779423102
 10
97.61988116049086
 20
-123.1204779423102
 10
97.61988116049086
 20
-123.1204779423102
 10
97.40731876905095
 20
-123.5514593875149
 10
97.40731876905095
 20
-123.5514593875149
 10
97.40731876905095
 20
-123.5514593875149
 10
97.80384925940321
 20
-123.7467963015286
 10
97.80384925940321
 20
-123.7467963015286
 10
97.89307723247119
 20
-123.7908935237398
 10
98.04810652930742
 20
-123.7822807850267
 10
98.12389862998292
 20
-123.628974035933
 10
98.15869409438395
 20
-123.5586940880339
 10
98.1965901447217
 20
-123.4050428293918
 10
98.01813419858576
 20
-123.3168483849694
 97
        0
 97
        0
 75
     2
 76
     1
 98
        0
  0
SPLINE
  5
8B
330
82
100
AcDbEntity
  8
_U+30EC_U+30A4_U+30E4_U+30FC 1
370
     0
100
AcDbSpline
210
0.0
220
0.0
230
1.0
 70
    11
 71
     3
 72
    26
 73
    22
 74
     0
 42
0.0000000001
 43
0.0000000001
 12
1.0
 22
0.0
 32
0.0
 13
1.0
 23
0.0
 33
0.0
 40
0.0
 40
0.0
 40
0.0
 40
0.0
 40
1.0
 40
1.0
 40
1.0
 40
2.0
 40
2.0
 40
2.0
 40
3.0
 40
3.0
 40
3.0
 40
4.0
 40
4.0
 40
4.0
 40
5.0
 40
5.0
 40
5.0
 40
6.0
 40
6.0
 40
6.0
 40
7.0
 40
7.0
 40
7.0
 40
7.0
 10
99.0213460038905
 20
-124.5949788099971
 30
0.0
 10
99.0213460038905
 20
-124.5949788099971
 30
0.0
 10
98.61516924617955
 20
-124.3948187623041
 30
0.0
 10
98.61516924617955
 20
-124.3948187623041
 30
0.0
 10
98.61516924617955
 20
-124.3948187623041
 30
0.0
 10
98.33646102142283
 20
-124.9601589314336
 30
0.0
 10
98.33646102142283
 20
-124.9601589314336
 30
0.0
 10
98.33646102142283
 20
-124.9601589314336
 30
0.0
 10
98.12596568727407
 20
-124.856117047779
 30
0.0
 10
98.12596568727407
 20
-124.856117047779
 30
0.0
 10
98.12596568727407
 20
-124.856117047779
 30
0.0
 10
98.80878361245058
 20
-123.4711886627086
 30
0.0
 10
98.80878361245058
 20
-123.4711886627086
 30
0.0
 10
98.80878361245058
 20
-123.4711886627086
 30
0.0
 10
99.42545570431031
 20
-123.7753905940562
 30
0.0
 10
99.42545570431031
 20
-123.7753905940562
 30
0.0
 10
99.68383786570405
 20
-123.9025146174619
 30
0.0
 10
99.79580346897467
 20
-124.1395371868471
 30
0.0
 10
99.6638563118896
 20
-124.4068765965025
 30
0.0
 10
99.55430227545865
 20
-124.6287407457525
 30
0.0
 10
99.3193467633646
 20
-124.7417398776687
 30
0.0
 10
99.0213460038905
 20
-124.5949788099971
 30
0.0
  0
SPLINE
  5
8C
330
82
100
AcDbEntity
  8
_U+30EC_U+30A4_U+30E4_U+30FC 1
370
     0
100
AcDbSpline
210
0.0
220
0.0
230
1.0
 70
    11
 71
     3
 72
    20
 73
    16
 74
     0
 42
0.0000000001
 43
0.0000000001
 12
1.0
 22
0.0
 32
0.0
 13
1.0
 23
0.0
 33
0.0
 40
0.0
 40
0.0
 40
0.0
 40
0.0
 40
1.0
 40
1.0
 40
1.0
 40
2.0
 40
2.0
 40
2.0
 40
3.0
 40
3.0
 40
3.0
 40
4.0
 40
4.0
 40
4.0
 40
5.0
 40
5.0
 40
5.0
 40
5.0
 10
99.32451440659248
 20
-123.9610812407111
 30
0.0
 10
99.32451440659248
 20
-123.9610812407111
 30
0.0
 10
98.92591685894908
 20
-123.7647107980519
 30
0.0
 10
98.92591685894908
 20
-123.7647107980519
 30
0.0
 10
98.92591685894908
 20
-123.7647107980519
 30
0.0
 10
98.70887584337834
 20
-124.2049940010668
 30
0.0
 10
98.70887584337834
 20
-124.2049940010668
 30
0.0
 10
98.70887584337834
 20
-124.2049940010668
 30
0.0
 10
99.10712888147322
 20
-124.4013644437261
 30
0.0
 10
99.10712888147322
 20
-124.4013644437261
 30
0.0
 10
99.25733504463011
 20
-124.4754339966589
 30
0.0
 10
99.38377004893879
 20
-124.4199679593464
 30
0.0
 10
99.44543725812476
 20
-124.2945664836833
 30
0.0
 10
99.49608016175793
 20
-124.1922471477714
 30
0.0
 10
99.49332408536974
 20
-124.0444525514542
 30
0.0
 10
99.32451440659248
 20
-123.9610812407111
 30
0.0
  0
HATCH
  5
8D
330
82
100
AcDbEntity
  8
_U+30EC_U+30A4_U+30E4_U+30FC 1
 62
   179
420
  2234388
100
AcDbHatch
 10
0.0
 20
0.0
 30
0.0
210
0.0
220
0.0
230
1.0
  2
SOLID
 70
     1
 71
     0
 91
        2
 92
        1
 93
        1
 72
     4
 94
        3
 73
     0
 74
     1
 95
       26
 96
       22
 40
0.0
 40
0.0
 40
0.0
 40
0.0
 40
1.0
 40
1.0
 40
1.0
 40
2.0
 40
2.0
 40
2.0
 40
3.0
 40
3.0
 40
3.0
 40
4.0
 40
4.0
 40
4.0
 40
5.0
 40
5.0
 40
5.0
 40
6.0
 40
6.0
 40
6.0
 40
7.0
 40
7.0
 40
7.0
 40
7.0
 10
99.0213460038905
 20
-124.5949788099971
 10
99.0213460038905
 20
-124.5949788099971
 10
98.61516924617955
 20
-124.3948187623041
 10
98.61516924617955
 20
-124.3948187623041
 10
98.61516924617955
 20
-124.3948187623041
 10
98.33646102142283
 20
-124.9601589314336
 10
98.33646102142283
 20
-124.9601589314336
 10
98.33646102142283
 20
-124.9601589314336
 10
98.12596568727407
 20
-124.856117047779
 10
98.12596568727407
 20
-124.856117047779
 10
98.12596568727407
 20
-124.856117047779
 10
98.80878361245058
 20
-123.4711886627086
 10
98.80878361245058
 20
-123.4711886627086
 10
98.80878361245058
 20
-123.4711886627086
 10
99.42545570431031
 20
-123.7753905940562
 10
99.42545570431031
 20
-123.7753905940562
 10
99.68383786570405
 20
-123.9025146174619
 10
99.79580346897467
 20
-124.1395371868471
 10
99.6638563118896
 20
-124.4068765965025
 10
99.55430227545865
 20
-124.6287407457525
 10
99.3193467633646
 20
-124.7417398776687
 10
99.0213460038905
 20
-124.5949788099971
 97
        0
 97
        0
 92
        1
 93
        1
 72
     4
 94
        3
 73
     0
 74
     1
 95
       20
 96
       16
 40
0.0
 40
0.0
 40
0.0
 40
0.0
 40
1.0
 40
1.0
 40
1.0
 40
2.0
 40
2.0
 40
2.0
 40
3.0
 40
3.0
 40
3.0
 40
4.0
 40
4.0
 40
4.0
 40
5.0
 40
5.0
 40
5.0
 40
5.0
 10
99.32451440659248
 20
-123.9610812407111
 10
99.32451440659248
 20
-123.9610812407111
 10
98.92591685894908
 20
-123.7647107980519
 10
98.92591685894908
 20
-123.7647107980519
 10
98.92591685894908
 20
-123.7647107980519
 10
98.70887584337834
 20
-124.2049940010668
 10
98.70887584337834
 20
-124.2049940010668
 10
98.70887584337834
 20
-124.2049940010668
 10
99.10712888147322
 20
-124.4013644437261
 10
99.10712888147322
 20
-124.4013644437261
 10
99.25733504463011
 20
-124.4754339966589
 10
99.38377004893879
 20
-124.4199679593464
 10
99.44543725812476
 20
-124.2945664836833
 10
99.49608016175793
 20
-124.1922471477714
 10
99.49332408536974
 20
-124.0444525514542
 10
99.32451440659248
 20
-123.9610812407111
 97
        0
 97
        0
 75
     2
 76
     1
 98
        0
  0
POLYLINE
  5
8E
330
82
100
AcDbEntity
  8
_U+30EC_U+30A4_U+30E4_U+30FC 1
370
     0
100
AcDb2dPolyline
 66
     1
 10
0.0
 20
0.0
 30
0.0
  0
VERTEX
  5
8F
330
8E
100
AcDbEntity
  8
_U+30EC_U+30A4_U+30E4_U+30FC 1
370
     0
100
AcDbVertex
100
AcDb2dVertex
 10
99.50021427634023
 20
-125.0362955416576
 30
0.0
  0
VERTEX
  5
90
330
8E
100
AcDbEntity
  8
_U+30EC_U+30A4_U+30E4_U+30FC 1
370
     0
100
AcDbVertex
100
AcDb2dVertex
 10
99.59564342128165
 20
-124.8430256849351
 30
0.0
  0
VERTEX
  5
91
330
8E
100
AcDbEntity
  8
_U+30EC_U+30A4_U+30E4_U+30FC 1
370
     0
100
AcDbVertex
100
AcDb2dVertex
 10
100.1213649923308
 20
-125.1020968654259
 30
0.0
  0
VERTEX
  5
92
330
8E
100
AcDbEntity
  8
_U+30EC_U+30A4_U+30E4_U+30FC 1
370
     0
100
AcDbVertex
100
AcDb2dVertex
 10
100.0259358473893
 20
-125.2957112316969
 30
0.0
  0
VERTEX
  5
93
330
8E
100
AcDbEntity
  8
_U+30EC_U+30A4_U+30E4_U+30FC 1
370
     0
100
AcDbVertex
100
AcDb2dVertex
 10
99.50021427634023
 20
-125.0362955416576
 30
0.0
  0
SEQEND
  5
94
330
8E
100
AcDbEntity
  8
_U+30EC_U+30A4_U+30E4_U+30FC 1
370
     0
  0
HATCH
  5
95
330
82
100
AcDbEntity
  8
_U+30EC_U+30A4_U+30E4_U+30FC 1
 62
   179
420
  2234388
100
AcDbHatch
 10
0.0
 20
0.0
 30
0.0
210
0.0
220
0.0
230
1.0
  2
SOLID
 70
     1
 71
     0
 91
        1
 92
        1
 93
        4
 72
     1
 10
99.50021427634023
 20
-125.0362955416576
 11
99.59564342128165
 21
-124.8430256849351
 72
     1
 10
99.59564342128165
 20
-124.8430256849351
 11
100.1213649923308
 21
-125.1020968654259
 72
     1
 10
100.1213649923308
 20
-125.1020968654259
 11
100.0259358473893
 21
-125.2957112316969
 72
     1
 10
100.0259358473893
 20
-125.2957112316969
 11
99.50021427634023
 21
-125.0362955416576
 97
        0
 75
     2
 76
     1
 98
        0
  0
SPLINE
  5
96
330
82
100
AcDbEntity
  8
_U+30EC_U+30A4_U+30E4_U+30FC 1
370
     0
100
AcDbSpline
210
0.0
220
0.0
230
1.0
 70
    11
 71
     3
 72
    62
 73
    58
 74
     0
 42
0.0000000001
 43
0.0000000001
 12
1.0
 22
0.0
 32
0.0
 13
1.0
 23
0.0
 33
0.0
 40
0.0
 40
0.0
 40
0.0
 40
0.0
 40
1.0
 40
1.0
 40
1.0
 40
2.0
 40
2.0
 40
2.0
 40
3.0
 40
3.0
 40
3.0
 40
4.0
 40
4.0
 40
4.0
 40
5.0
 40
5.0
 40
5.0
 40
6.0
 40
6.0
 40
6.0
 40
7.0
 40
7.0
 40
7.0
 40
8.0
 40
8.0
 40
8.0
 40
9.0
 40
9.0
 40
9.0
 40
10.0
 40
10.0
 40
10.0
 40
11.0
 40
11.0
 40
11.0
 40
12.0
 40
12.0
 40
12.0
 40
13.0
 40
13.0
 40
13.0
 40
14.0
 40
14.0
 40
14.0
 40
15.0
 40
15.0
 40
15.0
 40
16.0
 40
16.0
 40
16.0
 40
17.0
 40
17.0
 40
17.0
 40
18.0
 40
18.0
 40
18.0
 40
19.0
 40
19.0
 40
19.0
 40
19.0
 10
100.3621771667497
 20
-126.0157361881141
 30
0.0
 10
100.2767387987155
 20
-125.9737060231941
 30
0.0
 10
100.0903591329635
 20
-125.8582953244382
 30
0.0
 10
100.0610758213389
 20
-125.6360866656396
 30
0.0
 10
100.0441948534612
 20
-125.5027614703604
 30
0.0
 10
100.0841579610901
 20
-125.4121554590984
 30
0.0
 10
100.1179198968455
 20
-125.3339517915832
 30
0.0
 10
100.1179198968455
 20
-125.3339517915832
 30
0.0
 10
100.3153238681503
 20
-125.4314479938158
 30
0.0
 10
100.3153238681503
 20
-125.4314479938158
 30
0.0
 10
100.2843180087831
 20
-125.4986273557781
 30
0.0
 10
100.1902669020358
 20
-125.7139458236062
 30
0.0
 10
100.4445149488472
 20
-125.8390027897208
 30
0.0
 10
100.5678493672192
 20
-125.8999809798097
 30
0.0
 10
100.7352810078023
 20
-125.9048041134891
 30
0.0
 10
100.8362223055201
 20
-125.7001654416652
 30
0.0
 10
100.8875542282503
 20
-125.5957790484622
 30
0.0
 10
100.8751518845034
 20
-125.5354898774703
 30
0.0
 10
100.8606824834654
 20
-125.4927706934532
 30
0.0
 10
100.8269205477099
 20
-125.393551943478
 30
0.0
 10
100.7280463072833
 20
-125.3308512056465
 30
0.0
 10
100.6787814418442
 20
-125.3063910277012
 30
0.0
 10
100.6619004739665
 20
-125.2981227985366
 30
0.0
 10
100.6284830477595
 20
-125.2839979070471
 30
0.0
 10
100.6023003220717
 20
-125.2753851683339
 30
0.0
 10
100.6023003220717
 20
-125.2753851683339
 30
0.0
 10
100.6884277092029
 20
-125.1007188272318
 30
0.0
 10
100.6884277092029
 20
-125.1007188272318
 30
0.0
 10
100.7194335685702
 20
-125.1238009669829
 30
0.0
 10
100.7566405998109
 20
-125.1441270303459
 30
0.0
 10
100.7621527525872
 20
-125.1468831067341
 30
0.0
 10
100.821063885385
 20
-125.1758219088102
 30
0.0
 10
101.0088215893311
 20
-125.2447238185152
 30
0.0
 10
101.1135524920827
 20
-125.0325059366238
 30
0.0
 10
101.1921006691464
 20
-124.8729980156568
 30
0.0
 10
101.0987385814961
 20
-124.765511036517
 30
0.0
 10
101.000208850618
 20
-124.7169351901749
 30
0.0
 10
100.7631862812328
 20
-124.600146453225
 30
0.0
 10
100.6522542066078
 20
-124.8051296345973
 30
0.0
 10
100.6171142326582
 20
-124.8674858628804
 30
0.0
 10
100.6171142326582
 20
-124.8674858628804
 30
0.0
 10
100.4348686814885
 20
-124.7775688707153
 30
0.0
 10
100.4348686814885
 20
-124.7775688707153
 30
0.0
 10
100.4975694193201
 20
-124.669737382027
 30
0.0
 10
100.6887722187514
 20
-124.3441758586709
 30
0.0
 10
101.0983940719476
 20
-124.5460584541065
 30
0.0
 10
101.2995876482862
 20
-124.6452772040817
 30
0.0
 10
101.4597845883503
 20
-124.8661078246863
 30
0.0
 10
101.3288709599108
 20
-125.1313801770505
 30
0.0
 10
101.2465331778134
 20
-125.2984673080851
 30
0.0
 10
101.1249213071841
 20
-125.3305066960979
 30
0.0
 10
101.0081325702341
 20
-125.3411864921022
 30
0.0
 10
101.0511962637997
 20
-125.3932074339295
 30
0.0
 10
101.1790093063025
 20
-125.5458251639261
 30
0.0
 10
101.0563639070276
 20
-125.7942165484126
 30
0.0
 10
100.9068467629677
 20
-126.0977294606631
 30
0.0
 10
100.6105685512363
 20
-126.138381587389
 30
0.0
 10
100.3621771667497
 20
-126.0157361881141
 30
0.0
  0
HATCH
  5
97
330
82
100
AcDbEntity
  8
_U+30EC_U+30A4_U+30E4_U+30FC 1
 62
   179
420
  2234388
100
AcDbHatch
 10
0.0
 20
0.0
 30
0.0
210
0.0
220
0.0
230
1.0
  2
SOLID
 70
     1
 71
     0
 91
        1
 92
        1
 93
        1
 72
     4
 94
        3
 73
     0
 74
     1
 95
       62
 96
       58
 40
0.0
 40
0.0
 40
0.0
 40
0.0
 40
1.0
 40
1.0
 40
1.0
 40
2.0
 40
2.0
 40
2.0
 40
3.0
 40
3.0
 40
3.0
 40
4.0
 40
4.0
 40
4.0
 40
5.0
 40
5.0
 40
5.0
 40
6.0
 40
6.0
 40
6.0
 40
7.0
 40
7.0
 40
7.0
 40
8.0
 40
8.0
 40
8.0
 40
9.0
 40
9.0
 40
9.0
 40
10.0
 40
10.0
 40
10.0
 40
11.0
 40
11.0
 40
11.0
 40
12.0
 40
12.0
 40
12.0
 40
13.0
 40
13.0
 40
13.0
 40
14.0
 40
14.0
 40
14.0
 40
15.0
 40
15.0
 40
15.0
 40
16.0
 40
16.0
 40
16.0
 40
17.0
 40
17.0
 40
17.0
 40
18.0
 40
18.0
 40
18.0
 40
19.0
 40
19.0
 40
19.0
 40
19.0
 10
100.3621771667497
 20
-126.0157361881141
 10
100.2767387987155
 20
-125.9737060231941
 10
100.0903591329635
 20
-125.8582953244382
 10
100.0610758213389
 20
-125.6360866656396
 10
100.0441948534612
 20
-125.5027614703604
 10
100.0841579610901
 20
-125.4121554590984
 10
100.1179198968455
 20
-125.3339517915832
 10
100.1179198968455
 20
-125.3339517915832
 10
100.3153238681503
 20
-125.4314479938158
 10
100.3153238681503
 20
-125.4314479938158
 10
100.2843180087831
 20
-125.4986273557781
 10
100.1902669020358
 20
-125.7139458236062
 10
100.4445149488472
 20
-125.8390027897208
 10
100.5678493672192
 20
-125.8999809798097
 10
100.7352810078023
 20
-125.9048041134891
 10
100.8362223055201
 20
-125.7001654416652
 10
100.8875542282503
 20
-125.5957790484622
 10
100.8751518845034
 20
-125.5354898774703
 10
100.8606824834654
 20
-125.4927706934532
 10
100.8269205477099
 20
-125.393551943478
 10
100.7280463072833
 20
-125.3308512056465
 10
100.6787814418442
 20
-125.3063910277012
 10
100.6619004739665
 20
-125.2981227985366
 10
100.6284830477595
 20
-125.2839979070471
 10
100.6023003220717
 20
-125.2753851683339
 10
100.6023003220717
 20
-125.2753851683339
 10
100.6884277092029
 20
-125.1007188272318
 10
100.6884277092029
 20
-125.1007188272318
 10
100.7194335685702
 20
-125.1238009669829
 10
100.7566405998109
 20
-125.1441270303459
 10
100.7621527525872
 20
-125.1468831067341
 10
100.821063885385
 20
-125.1758219088102
 10
101.0088215893311
 20
-125.2447238185152
 10
101.1135524920827
 20
-125.0325059366238
 10
101.1921006691464
 20
-124.8729980156568
 10
101.0987385814961
 20
-124.765511036517
 10
101.000208850618
 20
-124.7169351901749
 10
100.7631862812328
 20
-124.600146453225
 10
100.6522542066078
 20
-124.8051296345973
 10
100.6171142326582
 20
-124.8674858628804
 10
100.6171142326582
 20
-124.8674858628804
 10
100.4348686814885
 20
-124.7775688707153
 10
100.4348686814885
 20
-124.7775688707153
 10
100.4975694193201
 20
-124.669737382027
 10
100.6887722187514
 20
-124.3441758586709
 10
101.0983940719476
 20
-124.5460584541065
 10
101.2995876482862
 20
-124.6452772040817
 10
101.4597845883503
 20
-124.8661078246863
 10
101.3288709599108
 20
-125.1313801770505
 10
101.2465331778134
 20
-125.2984673080851
 10
101.1249213071841
 20
-125.3305066960979
 10
101.0081325702341
 20
-125.3411864921022
 10
101.0511962637997
 20
-125.3932074339295
 10
101.1790093063025
 20
-125.5458251639261
 10
101.0563639070276
 20
-125.7942165484126
 10
100.9068467629677
 20
-126.0977294606631
 10
100.6105685512363
 20
-126.138381587389
 10
100.3621771667497
 20
-126.0157361881141
 97
        0
 97
        0
 75
     2
 76
     1
 98
        0
  0
SPLINE
  5
98
330
82
100
AcDbEntity
  8
_U+30EC_U+30A4_U+30E4_U+30FC 1
370
     0
100
AcDbSpline
210
0.0
220
0.0
230
1.0
 70
    11
 71
     3
 72
    29
 73
    25
 74
     0
 42
0.0000000001
 43
0.0000000001
 12
1.0
 22
0.0
 32
0.0
 13
1.0
 23
0.0
 33
0.0
 40
0.0
 40
0.0
 40
0.0
 40
0.0
 40
1.0
 40
1.0
 40
1.0
 40
2.0
 40
2.0
 40
2.0
 40
3.0
 40
3.0
 40
3.0
 40
4.0
 40
4.0
 40
4.0
 40
5.0
 40
5.0
 40
5.0
 40
6.0
 40
6.0
 40
6.0
 40
7.0
 40
7.0
 40
7.0
 40
8.0
 40
8.0
 40
8.0
 40
8.0
 10
101.8831868234875
 20
-126.511140918893
 30
0.0
 10
101.6937065717988
 20
-126.6510117955942
 30
0.0
 10
101.5297200267009
 20
-126.5914116436994
 30
0.0
 10
101.4253336334978
 20
-126.5400797209691
 30
0.0
 10
101.2809841326659
 20
-126.4687662444245
 30
0.0
 10
101.1745306821716
 20
-126.3643798512214
 30
0.0
 10
101.1697075484923
 20
-126.1590521603005
 30
0.0
 10
101.1628173575218
 20
-125.9389105587931
 30
0.0
 10
101.2503227828471
 20
-125.7180799381885
 30
0.0
 10
101.3223252784889
 20
-125.5720078896139
 30
0.0
 10
101.386059544966
 20
-125.4428168089171
 30
0.0
 10
101.5124945492747
 20
-125.2243977551522
 30
0.0
 10
101.6954291195414
 20
-125.0927951076157
 30
0.0
 10
101.882153294842
 20
-124.9587808932395
 30
0.0
 10
102.0364935725812
 20
-125.0087347777756
 30
0.0
 10
102.1522487808856
 20
-125.0659233628307
 30
0.0
 10
102.2945312244264
 20
-125.1358588011813
 30
0.0
 10
102.4040852608573
 20
-125.2392116657388
 30
0.0
 10
102.4089083945367
 20
-125.4445393566597
 30
0.0
 10
102.413042509119
 20
-125.6615803722304
 30
0.0
 10
102.3327717843126
 20
-125.87655433051
 30
0.0
 10
102.2559461549916
 20
-126.0322726464433
 30
0.0
 10
102.1801540543161
 20
-126.1859239050855
 30
0.0
 10
102.0595757123323
 20
-126.3833278763903
 30
0.0
 10
101.8831868234875
 20
-126.511140918893
 30
0.0
  0
SPLINE
  5
99
330
82
100
AcDbEntity
  8
_U+30EC_U+30A4_U+30E4_U+30FC 1
370
     0
100
AcDbSpline
210
0.0
220
0.0
230
1.0
 70
    11
 71
     3
 72
    17
 73
    13
 74
     0
 42
0.0000000001
 43
0.0000000001
 12
1.0
 22
0.0
 32
0.0
 13
1.0
 23
0.0
 33
0.0
 40
0.0
 40
0.0
 40
0.0
 40
0.0
 40
1.0
 40
1.0
 40
1.0
 40
2.0
 40
2.0
 40
2.0
 40
3.0
 40
3.0
 40
3.0
 40
4.0
 40
4.0
 40
4.0
 40
4.0
 10
102.0671549223999
 20
-125.2385226466418
 30
0.0
 10
101.8432237158586
 20
-125.1282795911138
 30
0.0
 10
101.676136584824
 20
-125.3618570650137
 30
0.0
 10
101.5235188548275
 20
-125.6712266395892
 30
0.0
 10
101.3822699399322
 20
-125.9575140744134
 30
0.0
 10
101.2782280562777
 20
-126.2503471906596
 30
0.0
 10
101.5114610206291
 20
-126.365413379867
 30
0.0
 10
101.7336696794277
 20
-126.4746229067494
 30
0.0
 10
101.9017903391079
 20
-126.2444905283347
 30
0.0
 10
102.0550970882015
 20
-125.9330538964681
 30
0.0
 10
102.1963460030967
 20
-125.6464219520953
 30
0.0
 10
102.2986653390087
 20
-125.3528998167521
 30
0.0
 10
102.0671549223999
 20
-125.2385226466418
 30
0.0
  0
HATCH
  5
9A
330
82
100
AcDbEntity
  8
_U+30EC_U+30A4_U+30E4_U+30FC 1
 62
   179
420
  2234388
100
AcDbHatch
 10
0.0
 20
0.0
 30
0.0
210
0.0
220
0.0
230
1.0
  2
SOLID
 70
     1
 71
     0
 91
        2
 92
        1
 93
        1
 72
     4
 94
        3
 73
     0
 74
     1
 95
       29
 96
       25
 40
0.0
 40
0.0
 40
0.0
 40
0.0
 40
1.0
 40
1.0
 40
1.0
 40
2.0
 40
2.0
 40
2.0
 40
3.0
 40
3.0
 40
3.0
 40
4.0
 40
4.0
 40
4.0
 40
5.0
 40
5.0
 40
5.0
 40
6.0
 40
6.0
 40
6.0
 40
7.0
 40
7.0
 40
7.0
 40
8.0
 40
8.0
 40
8.0
 40
8.0
 10
101.8831868234875
 20
-126.511140918893
 10
101.6937065717988
 20
-126.6510117955942
 10
101.5297200267009
 20
-126.5914116436994
 10
101.4253336334978
 20
-126.5400797209691
 10
101.2809841326659
 20
-126.4687662444245
 10
101.1745306821716
 20
-126.3643798512214
 10
101.1697075484923
 20
-126.1590521603005
 10
101.1628173575218
 20
-125.9389105587931
 10
101.2503227828471
 20
-125.7180799381885
 10
101.3223252784889
 20
-125.5720078896139
 10
101.386059544966
 20
-125.4428168089171
 10
101.5124945492747
 20
-125.2243977551522
 10
101.6954291195414
 20
-125.0927951076157
 10
101.882153294842
 20
-124.9587808932395
 10
102.0364935725812
 20
-125.0087347777756
 10
102.1522487808856
 20
-125.0659233628307
 10
102.2945312244264
 20
-125.1358588011813
 10
102.4040852608573
 20
-125.2392116657388
 10
102.4089083945367
 20
-125.4445393566597
 10
102.413042509119
 20
-125.6615803722304
 10
102.3327717843126
 20
-125.87655433051
 10
102.2559461549916
 20
-126.0322726464433
 10
102.1801540543161
 20
-126.1859239050855
 10
102.0595757123323
 20
-126.3833278763903
 10
101.8831868234875
 20
-126.511140918893
 97
        0
 97
        0
 92
        1
 93
        1
 72
     4
 94
        3
 73
     0
 74
     1
 95
       17
 96
       13
 40
0.0
 40
0.0
 40
0.0
 40
0.0
 40
1.0
 40
1.0
 40
1.0
 40
2.0
 40
2.0
 40
2.0
 40
3.0
 40
3.0
 40
3.0
 40
4.0
 40
4.0
 40
4.0
 40
4.0
 10
102.0671549223999
 20
-125.2385226466418
 10
101.8432237158586
 20
-125.1282795911138
 10
101.676136584824
 20
-125.3618570650137
 10
101.5235188548275
 20
-125.6712266395892
 10
101.3822699399322
 20
-125.9575140744134
 10
101.2782280562777
 20
-126.2503471906596
 10
101.5114610206291
 20
-126.365413379867
 10
101.7336696794277
 20
-126.4746229067494
 10
101.9017903391079
 20
-126.2444905283347
 10
102.0550970882015
 20
-125.9330538964681
 10
102.1963460030967
 20
-125.6464219520953
 10
102.2986653390087
 20
-125.3528998167521
 10
102.0671549223999
 20
-125.2385226466418
 97
        0
 97
        0
 75
     2
 76
     1
 98
        0
  0
POLYLINE
  5
9B
330
82
100
AcDbEntity
  8
_U+30EC_U+30A4_U+30E4_U+30FC 1
370
     0
100
AcDb2dPolyline
 66
     1
 10
0.0
 20
0.0
 30
0.0
  0
VERTEX
  5
9C
330
9B
100
AcDbEntity
  8
_U+30EC_U+30A4_U+30E4_U+30FC 1
370
     0
100
AcDbVertex
100
AcDb2dVertex
 10
103.2584689411993
 20
-127.3875732103406
 30
0.0
  0
VERTEX
  5
9D
330
9B
100
AcDbEntity
  8
_U+30EC_U+30A4_U+30E4_U+30FC 1
370
     0
100
AcDbVertex
100
AcDb2dVertex
 10
103.7311360417756
 20
-126.4294921558926
 30
0.0
  0
VERTEX
  5
9E
330
9B
100
AcDbEntity
  8
_U+30EC_U+30A4_U+30E4_U+30FC 1
370
     0
100
AcDbVertex
100
AcDb2dVertex
 10
103.8086506901937
 20
-126.2858316741577
 30
0.0
  0
VERTEX
  5
9F
330
9B
100
AcDbEntity
  8
_U+30EC_U+30A4_U+30E4_U+30FC 1
370
     0
100
AcDbVertex
100
AcDb2dVertex
 10
103.7083984115729
 20
-126.4084770734326
 30
0.0
  0
VERTEX
  5
A0
330
9B
100
AcDbEntity
  8
_U+30EC_U+30A4_U+30E4_U+30FC 1
370
     0
100
AcDbVertex
100
AcDb2dVertex
 10
102.9225721313874
 20
-127.2218641175001
 30
0.0
  0
VERTEX
  5
A1
330
9B
100
AcDbEntity
  8
_U+30EC_U+30A4_U+30E4_U+30FC 1
370
     0
100
AcDbVertex
100
AcDb2dVertex
 10
102.6796928996773
 20
-127.1019747946134
 30
0.0
  0
VERTEX
  5
A2
330
9B
100
AcDbEntity
  8
_U+30EC_U+30A4_U+30E4_U+30FC 1
370
     0
100
AcDbVertex
100
AcDb2dVertex
 10
102.8488470880031
 20
-125.9847303287469
 30
0.0
  0
VERTEX
  5
A3
330
9B
100
AcDbEntity
  8
_U+30EC_U+30A4_U+30E4_U+30FC 1
370
     0
100
AcDbVertex
100
AcDb2dVertex
 10
102.8846760810497
 20
-125.8303900510077
 30
0.0
  0
VERTEX
  5
A4
330
9B
100
AcDbEntity
  8
_U+30EC_U+30A4_U+30E4_U+30FC 1
370
     0
100
AcDbVertex
100
AcDb2dVertex
 10
102.8164631904417
 20
-125.9785291568734
 30
0.0
  0
VERTEX
  5
A5
330
9B
100
AcDbEntity
  8
_U+30EC_U+30A4_U+30E4_U+30FC 1
370
     0
100
AcDbVertex
100
AcDb2dVertex
 10
102.344140599414
 20
-126.9362657017729
 30
0.0
  0
VERTEX
  5
A6
330
9B
100
AcDbEntity
  8
_U+30EC_U+30A4_U+30E4_U+30FC 1
370
     0
100
AcDbVertex
100
AcDb2dVertex
 10
102.1484591758518
 20
-126.8401475377344
 30
0.0
  0
VERTEX
  5
A7
330
9B
100
AcDbEntity
  8
_U+30EC_U+30A4_U+30E4_U+30FC 1
370
     0
100
AcDbVertex
100
AcDb2dVertex
 10
102.8316216105768
 20
-125.4548746431155
 30
0.0
  0
VERTEX
  5
A8
330
9B
100
AcDbEntity
  8
_U+30EC_U+30A4_U+30E4_U+30FC 1
370
     0
100
AcDbVertex
100
AcDb2dVertex
 10
103.1179090454011
 20
-125.5961235580107
 30
0.0
  0
VERTEX
  5
A9
330
9B
100
AcDbEntity
  8
_U+30EC_U+30A4_U+30E4_U+30FC 1
370
     0
100
AcDbVertex
100
AcDb2dVertex
 10
102.9418646661048
 20
-126.7901936531983
 30
0.0
  0
VERTEX
  5
AA
330
9B
100
AcDbEntity
  8
_U+30EC_U+30A4_U+30E4_U+30FC 1
370
     0
100
AcDbVertex
100
AcDb2dVertex
 10
102.9132703735772
 20
-126.9341986444817
 30
0.0
  0
VERTEX
  5
AB
330
9B
100
AcDbEntity
  8
_U+30EC_U+30A4_U+30E4_U+30FC 1
370
     0
100
AcDbVertex
100
AcDb2dVertex
 10
103.0104220662613
 20
-126.8239555889537
 30
0.0
  0
VERTEX
  5
AC
330
9B
100
AcDbEntity
  8
_U+30EC_U+30A4_U+30E4_U+30FC 1
370
     0
100
AcDbVertex
100
AcDb2dVertex
 10
103.8524034028564
 20
-125.958547603059
 30
0.0
  0
VERTEX
  5
AD
330
9B
100
AcDbEntity
  8
_U+30EC_U+30A4_U+30E4_U+30FC 1
370
     0
100
AcDbVertex
100
AcDb2dVertex
 10
104.136968289938
 20
-126.0987629893087
 30
0.0
  0
VERTEX
  5
AE
330
9B
100
AcDbEntity
  8
_U+30EC_U+30A4_U+30E4_U+30FC 1
370
     0
100
AcDbVertex
100
AcDb2dVertex
 10
103.4538058552129
 20
-127.4836913743791
 30
0.0
  0
VERTEX
  5
AF
330
9B
100
AcDbEntity
  8
_U+30EC_U+30A4_U+30E4_U+30FC 1
370
     0
100
AcDbVertex
100
AcDb2dVertex
 10
103.2584689411993
 20
-127.3875732103406
 30
0.0
  0
SEQEND
  5
B0
330
9B
100
AcDbEntity
  8
_U+30EC_U+30A4_U+30E4_U+30FC 1
370
     0
  0
HATCH
  5
B1
330
82
100
AcDbEntity
  8
_U+30EC_U+30A4_U+30E4_U+30FC 1
 62
   179
420
  2234388
100
AcDbHatch
 10
0.0
 20
0.0
 30
0.0
210
0.0
220
0.0
230
1.0
  2
SOLID
 70
     1
 71
     0
 91
        1
 92
        1
 93
       19
 72
     1
 10
103.2584689411993
 20
-127.3875732103406
 11
103.7311360417756
 21
-126.4294921558926
 72
     1
 10
103.7311360417756
 20
-126.4294921558926
 11
103.8086506901937
 21
-126.2858316741577
 72
     1
 10
103.8086506901937
 20
-126.2858316741577
 11
103.7083984115729
 21
-126.4084770734326
 72
     1
 10
103.7083984115729
 20
-126.4084770734326
 11
102.9225721313874
 21
-127.2218641175001
 72
     1
 10
102.9225721313874
 20
-127.2218641175001
 11
102.6796928996773
 21
-127.1019747946134
 72
     1
 10
102.6796928996773
 20
-127.1019747946134
 11
102.8488470880031
 21
-125.9847303287469
 72
     1
 10
102.8488470880031
 20
-125.9847303287469
 11
102.8846760810497
 21
-125.8303900510077
 72
     1
 10
102.8846760810497
 20
-125.8303900510077
 11
102.8164631904417
 21
-125.9785291568734
 72
     1
 10
102.8164631904417
 20
-125.9785291568734
 11
102.344140599414
 21
-126.9362657017729
 72
     1
 10
102.344140599414
 20
-126.9362657017729
 11
102.1484591758518
 21
-126.8401475377344
 72
     1
 10
102.1484591758518
 20
-126.8401475377344
 11
102.8316216105768
 21
-125.4548746431155
 72
     1
 10
102.8316216105768
 20
-125.4548746431155
 11
103.1179090454011
 21
-125.5961235580107
 72
     1
 10
103.1179090454011
 20
-125.5961235580107
 11
102.9418646661048
 21
-126.7901936531983
 72
     1
 10
102.9418646661048
 20
-126.7901936531983
 11
102.9132703735772
 21
-126.9341986444817
 72
     1
 10
102.9132703735772
 20
-126.9341986444817
 11
103.0104220662613
 21
-126.8239555889537
 72
     1
 10
103.0104220662613
 20
-126.8239555889537
 11
103.8524034028564
 21
-125.958547603059
 72
     1
 10
103.8524034028564
 20
-125.958547603059
 11
104.136968289938
 21
-126.0987629893087
 72
     1
 10
104.136968289938
 20
-126.0987629893087
 11
103.4538058552129
 21
-127.4836913743791
 72
     1
 10
103.4538058552129
 20
-127.4836913743791
 11
103.2584689411993
 21
-127.3875732103406
 97
        0
 75
     2
 76
     1
 98
        0
  0
POLYLINE
  5
B2
330
82
100
AcDbEntity
  8
_U+30EC_U+30A4_U+30E4_U+30FC 1
370
     0
100
AcDb2dPolyline
 66
     1
 10
0.0
 20
0.0
 30
0.0
  0
VERTEX
  5
B3
330
B2
100
AcDbEntity
  8
_U+30EC_U+30A4_U+30E4_U+30FC 1
370
     0
100
AcDbVertex
100
AcDb2dVertex
 10
105.0220133200987
 20
-128.2571153108177
 30
0.0
  0
VERTEX
  5
B4
330
B2
100
AcDbEntity
  8
_U+30EC_U+30A4_U+30E4_U+30FC 1
370
     0
100
AcDbVertex
100
AcDb2dVertex
 10
104.7791340883886
 20
-128.137225987931
 30
0.0
  0
VERTEX
  5
B5
330
B2
100
AcDbEntity
  8
_U+30EC_U+30A4_U+30E4_U+30FC 1
370
     0
100
AcDbVertex
100
AcDb2dVertex
 10
105.0860920961243
 20
-126.868741830262
 30
0.0
  0
VERTEX
  5
B6
330
B2
100
AcDbEntity
  8
_U+30EC_U+30A4_U+30E4_U+30FC 1
370
     0
100
AcDbVertex
100
AcDb2dVertex
 10
104.268915447023
 20
-127.8857340175077
 30
0.0
  0
VERTEX
  5
B7
330
B2
100
AcDbEntity
  8
_U+30EC_U+30A4_U+30E4_U+30FC 1
370
     0
100
AcDbVertex
100
AcDb2dVertex
 10
104.0260362153129
 20
-127.7658446946211
 30
0.0
  0
VERTEX
  5
B8
330
B2
100
AcDbEntity
  8
_U+30EC_U+30A4_U+30E4_U+30FC 1
370
     0
100
AcDbVertex
100
AcDb2dVertex
 10
104.3657226301586
 20
-126.2114176116763
 30
0.0
  0
VERTEX
  5
B9
330
B2
100
AcDbEntity
  8
_U+30EC_U+30A4_U+30E4_U+30FC 1
370
     0
100
AcDbVertex
100
AcDb2dVertex
 10
104.5744954165647
 20
-126.3144259666853
 30
0.0
  0
VERTEX
  5
BA
330
B2
100
AcDbEntity
  8
_U+30EC_U+30A4_U+30E4_U+30FC 1
370
     0
100
AcDbVertex
100
AcDb2dVertex
 10
104.2775281857362
 20
-127.5618950418943
 30
0.0
  0
VERTEX
  5
BB
330
B2
100
AcDbEntity
  8
_U+30EC_U+30A4_U+30E4_U+30FC 1
370
     0
100
AcDbVertex
100
AcDb2dVertex
 10
105.0809244528964
 20
-126.5641953893659
 30
0.0
  0
VERTEX
  5
BC
330
B2
100
AcDbEntity
  8
_U+30EC_U+30A4_U+30E4_U+30FC 1
370
     0
100
AcDbVertex
100
AcDb2dVertex
 10
105.3313828946741
 20
-126.6878743172864
 30
0.0
  0
VERTEX
  5
BD
330
B2
100
AcDbEntity
  8
_U+30EC_U+30A4_U+30E4_U+30FC 1
370
     0
100
AcDbVertex
100
AcDb2dVertex
 10
105.0285590015206
 20
-127.9325873161071
 30
0.0
  0
VERTEX
  5
BE
330
B2
100
AcDbEntity
  8
_U+30EC_U+30A4_U+30E4_U+30FC 1
370
     0
100
AcDbVertex
100
AcDb2dVertex
 10
105.8395344787484
 20
-126.938332759064
 30
0.0
  0
VERTEX
  5
BF
330
B2
100
AcDbEntity
  8
_U+30EC_U+30A4_U+30E4_U+30FC 1
370
     0
100
AcDbVertex
100
AcDb2dVertex
 10
106.0486517747031
 20
-127.041341114073
 30
0.0
  0
VERTEX
  5
C0
330
B2
100
AcDbEntity
  8
_U+30EC_U+30A4_U+30E4_U+30FC 1
370
     0
100
AcDbVertex
100
AcDb2dVertex
 10
105.0220133200987
 20
-128.2571153108177
 30
0.0
  0
SEQEND
  5
C1
330
B2
100
AcDbEntity
  8
_U+30EC_U+30A4_U+30E4_U+30FC 1
370
     0
  0
HATCH
  5
C2
330
82
100
AcDbEntity
  8
_U+30EC_U+30A4_U+30E4_U+30FC 1
 62
   179
420
  2234388
100
AcDbHatch
 10
0.0
 20
0.0
 30
0.0
210
0.0
220
0.0
230
1.0
  2
SOLID
 70
     1
 71
     0
 91
        1
 92
        1
 93
       13
 72
     1
 10
105.0220133200987
 20
-128.2571153108177
 11
104.7791340883886
 21
-128.137225987931
 72
     1
 10
104.7791340883886
 20
-128.137225987931
 11
105.0860920961243
 21
-126.868741830262
 72
     1
 10
105.0860920961243
 20
-126.868741830262
 11
104.268915447023
 21
-127.8857340175077
 72
     1
 10
104.268915447023
 20
-127.8857340175077
 11
104.0260362153129
 21
-127.7658446946211
 72
     1
 10
104.0260362153129
 20
-127.7658446946211
 11
104.3657226301586
 21
-126.2114176116763
 72
     1
 10
104.3657226301586
 20
-126.2114176116763
 11
104.5744954165647
 21
-126.3144259666853
 72
     1
 10
104.5744954165647
 20
-126.3144259666853
 11
104.2775281857362
 21
-127.5618950418943
 72
     1
 10
104.2775281857362
 20
-127.5618950418943
 11
105.0809244528964
 21
-126.5641953893659
 72
     1
 10
105.0809244528964
 20
-126.5641953893659
 11
105.3313828946741
 21
-126.6878743172864
 72
     1
 10
105.3313828946741
 20
-126.6878743172864
 11
105.0285590015206
 21
-127.9325873161071
 72
     1
 10
105.0285590015206
 20
-127.9325873161071
 11
105.8395344787484
 21
-126.938332759064
 72
     1
 10
105.8395344787484
 20
-126.938332759064
 11
106.0486517747031
 21
-127.041341114073
 72
     1
 10
106.0486517747031
 20
-127.041341114073
 11
105.0220133200987
 21
-128.2571153108177
 97
        0
 75
     2
 76
     1
 98
        0
  0
ENDBLK
  5
85
330
82
100
AcDbEntity
  8
0
100
AcDbBlockEnd
  0
ENDSEC
  0
SECTION
  2
ENTITIES
  0
INSERT
  5
42
330
1F
100
AcDbEntity
  8
_U+30EC_U+30A4_U+30E4_U+30FC 1
100
AcDbBlockReference
  2
block 2
 10
0.0
 20
0.0
 30
0.0
  0
INSERT
  5
83
330
1F
100
AcDbEntity
  8
_U+30EC_U+30A4_U+30E4_U+30FC 1
100
AcDbBlockReference
  2
block 3
 10
0.0
 20
0.0
 30
0.0
  0
SPLINE
  5
C3
330
1F
100
AcDbEntity
  8
_U+30EC_U+30A4_U+30E4_U+30FC 1
 62
   179
420
  2234388
370
    15
100
AcDbSpline
210
0.0
220
0.0
230
1.0
 70
     8
 71
     3
 72
     8
 73
     4
 74
     0
 42
0.0000000001
 43
0.0000000001
 12
1.0
 22
0.0
 32
0.0
 13
1.0
 23
0.0
 33
0.0
 40
0.0
 40
0.0
 40
0.0
 40
0.0
 40
1.0
 40
1.0
 40
1.0
 40
1.0
 10
74.83728809074172
 20
-131.2419410783007
 30
0.0
 10
76.11025139159905
 20
-131.4259146893654
 30
0.0
 10
77.03629303464042
 20
-133.1236577444966
 30
0.0
 10
76.93155331509034
 20
-134.8692727440604
 30
0.0
  0
POLYLINE
  5
C4
330
1F
100
AcDbEntity
  8
_U+30EC_U+30A4_U+30E4_U+30FC 1
 62
   179
420
  2234388
370
    15
100
AcDb2dPolyline
 66
     1
 10
0.0
 20
0.0
 30
0.0
  0
VERTEX
  5
C5
330
C4
100
AcDbEntity
  8
_U+30EC_U+30A4_U+30E4_U+30FC 1
 62
   179
420
  2234388
370
    15
100
AcDbVertex
100
AcDb2dVertex
 10
90.9682632347618
 20
-122.4743549693815
 30
0.0
  0
VERTEX
  5
C6
330
C4
100
AcDbEntity
  8
_U+30EC_U+30A4_U+30E4_U+30FC 1
 62
   179
420
  2234388
370
    15
100
AcDbVertex
100
AcDb2dVertex
 10
74.47798393324166
 20
-130.6197469117898
 30
0.0
  0
VERTEX
  5
C7
330
C4
100
AcDbEntity
  8
_U+30EC_U+30A4_U+30E4_U+30FC 1
 62
   179
420
  2234388
370
    15
100
AcDbVertex
100
AcDb2dVertex
 10
74.83728809074172
 20
-131.2419410783007
 30
0.0
  0
SEQEND
  5
C8
330
C4
100
AcDbEntity
  8
_U+30EC_U+30A4_U+30E4_U+30FC 1
 62
   179
420
  2234388
370
    15
  0
POLYLINE
  5
C9
330
1F
100
AcDbEntity
  8
_U+30EC_U+30A4_U+30E4_U+30FC 1
 62
   179
420
  2234388
370
    15
100
AcDb2dPolyline
 66
     1
 10
0.0
 20
0.0
 30
0.0
  0
VERTEX
  5
CA
330
C9
100
AcDbEntity
  8
_U+30EC_U+30A4_U+30E4_U+30FC 1
 62
   179
420
  2234388
370
    15
100
AcDbVertex
100
AcDb2dVertex
 10
74.83728809074172
 20
-131.2419410783007
 30
0.0
  0
VERTEX
  5
CB
330
C9
100
AcDbEntity
  8
_U+30EC_U+30A4_U+30E4_U+30FC 1
 62
   179
420
  2234388
370
    15
100
AcDbVertex
100
AcDb2dVertex
 10
90.9682632347618
 20
-123.2744902469593
 30
0.0
  0
SEQEND
  5
CC
330
C9
100
AcDbEntity
  8
_U+30EC_U+30A4_U+30E4_U+30FC 1
 62
   179
420
  2234388
370
    15
  0
POLYLINE
  5
CD
330
1F
100
AcDbEntity
  8
_U+30EC_U+30A4_U+30E4_U+30FC 1
 62
   179
420
  2234388
370
    15
100
AcDb2dPolyline
 66
     1
 10
0.0
 20
0.0
 30
0.0
  0
VERTEX
  5
CE
330
CD
100
AcDbEntity
  8
_U+30EC_U+30A4_U+30E4_U+30FC 1
 62
   179
420
  2234388
370
    15
100
AcDbVertex
100
AcDb2dVertex
 10
90.9682632347618
 20
-128.7363369122605
 30
0.0
  0
VERTEX
  5
CF
330
CD
100
AcDbEntity
  8
_U+30EC_U+30A4_U+30E4_U+30FC 1
 62
   179
420
  2234388
370
    15
100
AcDbVertex
100
AcDb2dVertex
 10
77.29106913925166
 20
-135.4918196883491
 30
0.0
  0
VERTEX
  5
D0
330
CD
100
AcDbEntity
  8
_U+30EC_U+30A4_U+30E4_U+30FC 1
 62
   179
420
  2234388
370
    15
100
AcDbVertex
100
AcDb2dVertex
 10
76.93172970397472
 20
-134.8696255218382
 30
0.0
  0
SEQEND
  5
D1
330
CD
100
AcDbEntity
  8
_U+30EC_U+30A4_U+30E4_U+30FC 1
 62
   179
420
  2234388
370
    15
  0
POLYLINE
  5
D2
330
1F
100
AcDbEntity
  8
_U+30EC_U+30A4_U+30E4_U+30FC 1
 62
   179
420
  2234388
370
    15
100
AcDb2dPolyline
 66
     1
 10
0.0
 20
0.0
 30
0.0
  0
VERTEX
  5
D3
330
D2
100
AcDbEntity
  8
_U+30EC_U+30A4_U+30E4_U+30FC 1
 62
   179
420
  2234388
370
    15
100
AcDbVertex
100
AcDb2dVertex
 10
76.93172970397472
 20
-134.8696255218382
 30
0.0
  0
VERTEX
  5
D4
330
D2
100
AcDbEntity
  8
_U+30EC_U+30A4_U+30E4_U+30FC 1
 62
   179
420
  2234388
370
    15
100
AcDbVertex
100
AcDb2dVertex
 10
90.9682632347618
 20
-127.9363780235715
 30
0.0
  0
SEQEND
  5
D5
330
D2
100
AcDbEntity
  8
_U+30EC_U+30A4_U+30E4_U+30FC 1
 62
   179
420
  2234388
370
    15
  0
POLYLINE
  5
D6
330
1F
100
AcDbEntity
  8
_U+30EC_U+30A4_U+30E4_U+30FC 1
 62
   179
420
  2234388
370
    15
100
AcDb2dPolyline
 66
     1
 10
0.0
 20
0.0
 30
0.0
  0
VERTEX
  5
D7
330
D6
100
AcDbEntity
  8
_U+30EC_U+30A4_U+30E4_U+30FC 1
 62
   179
420
  2234388
370
    15
100
AcDbVertex
100
AcDb2dVertex
 10
75.51631664778756
 20
-131.5058541337899
 30
0.0
  0
VERTEX
  5
D8
330
D6
100
AcDbEntity
  8
_U+30EC_U+30A4_U+30E4_U+30FC 1
 62
   179
420
  2234388
370
    15
100
AcDbVertex
100
AcDb2dVertex
 10
74.20839116234177
 20
-132.1528133002953
 30
0.0
  0
VERTEX
  5
D9
330
D6
100
AcDbEntity
  8
_U+30EC_U+30A4_U+30E4_U+30FC 1
 62
   179
420
  2234388
370
    15
100
AcDbVertex
100
AcDb2dVertex
 10
74.47798393324166
 20
-130.6197469117898
 30
0.0
  0
SEQEND
  5
DA
330
D6
100
AcDbEntity
  8
_U+30EC_U+30A4_U+30E4_U+30FC 1
 62
   179
420
  2234388
370
    15
  0
POLYLINE
  5
DB
330
1F
100
AcDbEntity
  8
_U+30EC_U+30A4_U+30E4_U+30FC 1
 62
   179
420
  2234388
370
    15
100
AcDb2dPolyline
 66
     1
 10
0.0
 20
0.0
 30
0.0
  0
VERTEX
  5
DC
330
DB
100
AcDbEntity
  8
_U+30EC_U+30A4_U+30E4_U+30FC 1
 62
   179
420
  2234388
370
    15
100
AcDbVertex
100
AcDb2dVertex
 10
77.29106913925166
 20
-135.4918196883491
 30
0.0
  0
VERTEX
  5
DD
330
DB
100
AcDbEntity
  8
_U+30EC_U+30A4_U+30E4_U+30FC 1
 62
   179
420
  2234388
370
    15
100
AcDbVertex
100
AcDb2dVertex
 10
75.76385890043626
 20
-134.8469066329552
 30
0.0
  0
VERTEX
  5
DE
330
DB
100
AcDbEntity
  8
_U+30EC_U+30A4_U+30E4_U+30FC 1
 62
   179
420
  2234388
370
    15
100
AcDbVertex
100
AcDb2dVertex
 10
76.91504331551154
 20
-134.2811921886521
 30
0.0
  0
SEQEND
  5
DF
330
DB
100
AcDbEntity
  8
_U+30EC_U+30A4_U+30E4_U+30FC 1
 62
   179
420
  2234388
370
    15
  0
SPLINE
  5
E0
330
1F
100
AcDbEntity
  8
_U+30EC_U+30A4_U+30E4_U+30FC 1
 62
   179
420
  2234388
370
    15
100
AcDbSpline
210
0.0
220
0.0
230
1.0
 70
     8
 71
     3
 72
     8
 73
     4
 74
     0
 42
0.0000000001
 43
0.0000000001
 12
1.0
 22
0.0
 32
0.0
 13
1.0
 23
0.0
 33
0.0
 40
0.0
 40
0.0
 40
0.0
 40
0.0
 40
1.0
 40
1.0
 40
1.0
 40
1.0
 10
107.0990619898975
 20
-131.2419410783007
 30
0.0
 10
105.826451466809
 20
-131.4259146893654
 30
0.0
 10
104.9004098237676
 20
-133.1236577444966
 30
0.0
 10
105.0051142655408
 20
-134.8692727440604
 30
0.0
  0
POLYLINE
  5
E1
330
1F
100
AcDbEntity
  8
_U+30EC_U+30A4_U+30E4_U+30FC 1
 62
   179
420
  2234388
370
    15
100
AcDb2dPolyline
 66
     1
 10
0.0
 20
0.0
 30
0.0
  0
VERTEX
  5
E2
330
E1
100
AcDbEntity
  8
_U+30EC_U+30A4_U+30E4_U+30FC 1
 62
   179
420
  2234388
370
    15
100
AcDbVertex
100
AcDb2dVertex
 10
90.9682632347618
 20
-122.4743549693815
 30
0.0
  0
VERTEX
  5
E3
330
E1
100
AcDbEntity
  8
_U+30EC_U+30A4_U+30E4_U+30FC 1
 62
   179
420
  2234388
370
    15
100
AcDbVertex
100
AcDb2dVertex
 10
107.4587189251664
 20
-130.6197469117898
 30
0.0
  0
VERTEX
  5
E4
330
E1
100
AcDbEntity
  8
_U+30EC_U+30A4_U+30E4_U+30FC 1
 62
   179
420
  2234388
370
    15
100
AcDbVertex
100
AcDb2dVertex
 10
107.0990619898975
 20
-131.2419410783007
 30
0.0
  0
SEQEND
  5
E5
330
E1
100
AcDbEntity
  8
_U+30EC_U+30A4_U+30E4_U+30FC 1
 62
   179
420
  2234388
370
    15
  0
POLYLINE
  5
E6
330
1F
100
AcDbEntity
  8
_U+30EC_U+30A4_U+30E4_U+30FC 1
 62
   179
420
  2234388
370
    15
100
AcDb2dPolyline
 66
     1
 10
0.0
 20
0.0
 30
0.0
  0
VERTEX
  5
E7
330
E6
100
AcDbEntity
  8
_U+30EC_U+30A4_U+30E4_U+30FC 1
 62
   179
420
  2234388
370
    15
100
AcDbVertex
100
AcDb2dVertex
 10
107.0990619898975
 20
-131.2419410783007
 30
0.0
  0
VERTEX
  5
E8
330
E6
100
AcDbEntity
  8
_U+30EC_U+30A4_U+30E4_U+30FC 1
 62
   179
420
  2234388
370
    15
100
AcDbVertex
100
AcDb2dVertex
 10
90.9682632347618
 20
-123.2744902469593
 30
0.0
  0
SEQEND
  5
E9
330
E6
100
AcDbEntity
  8
_U+30EC_U+30A4_U+30E4_U+30FC 1
 62
   179
420
  2234388
370
    15
  0
POLYLINE
  5
EA
330
1F
100
AcDbEntity
  8
_U+30EC_U+30A4_U+30E4_U+30FC 1
 62
   179
420
  2234388
370
    15
100
AcDb2dPolyline
 66
     1
 10
0.0
 20
0.0
 30
0.0
  0
VERTEX
  5
EB
330
EA
100
AcDbEntity
  8
_U+30EC_U+30A4_U+30E4_U+30FC 1
 62
   179
420
  2234388
370
    15
100
AcDbVertex
100
AcDb2dVertex
 10
90.9682632347618
 20
-128.7363369122605
 30
0.0
  0
VERTEX
  5
EC
330
EA
100
AcDbEntity
  8
_U+30EC_U+30A4_U+30E4_U+30FC 1
 62
   179
420
  2234388
370
    15
100
AcDbVertex
100
AcDb2dVertex
 10
104.645457330272
 20
-135.4918196883491
 30
0.0
  0
VERTEX
  5
ED
330
EA
100
AcDbEntity
  8
_U+30EC_U+30A4_U+30E4_U+30FC 1
 62
   179
420
  2234388
370
    15
100
AcDbVertex
100
AcDb2dVertex
 10
105.0051142655408
 20
-134.8696255218382
 30
0.0
  0
SEQEND
  5
EE
330
EA
100
AcDbEntity
  8
_U+30EC_U+30A4_U+30E4_U+30FC 1
 62
   179
420
  2234388
370
    15
  0
POLYLINE
  5
EF
330
1F
100
AcDbEntity
  8
_U+30EC_U+30A4_U+30E4_U+30FC 1
 62
   179
420
  2234388
370
    15
100
AcDb2dPolyline
 66
     1
 10
0.0
 20
0.0
 30
0.0
  0
VERTEX
  5
F0
330
EF
100
AcDbEntity
  8
_U+30EC_U+30A4_U+30E4_U+30FC 1
 62
   179
420
  2234388
370
    15
100
AcDbVertex
100
AcDb2dVertex
 10
105.0051142655408
 20
-134.8696255218382
 30
0.0
  0
VERTEX
  5
F1
330
EF
100
AcDbEntity
  8
_U+30EC_U+30A4_U+30E4_U+30FC 1
 62
   179
420
  2234388
370
    15
100
AcDbVertex
100
AcDb2dVertex
 10
90.9682632347618
 20
-127.9363780235715
 30
0.0
  0
SEQEND
  5
F2
330
EF
100
AcDbEntity
  8
_U+30EC_U+30A4_U+30E4_U+30FC 1
 62
   179
420
  2234388
370
    15
  0
POLYLINE
  5
F3
330
1F
100
AcDbEntity
  8
_U+30EC_U+30A4_U+30E4_U+30FC 1
 62
   179
420
  2234388
370
    15
100
AcDb2dPolyline
 66
     1
 10
0.0
 20
0.0
 30
0.0
  0
VERTEX
  5
F4
330
F3
100
AcDbEntity
  8
_U+30EC_U+30A4_U+30E4_U+30FC 1
 62
   179
420
  2234388
370
    15
100
AcDbVertex
100
AcDb2dVertex
 10
106.420388118323
 20
-131.5058541337899
 30
0.0
  0
VERTEX
  5
F5
330
F3
100
AcDbEntity
  8
_U+30EC_U+30A4_U+30E4_U+30FC 1
 62
   179
420
  2234388
370
    15
100
AcDbVertex
100
AcDb2dVertex
 10
107.7281353071819
 20
-132.1528133002953
 30
0.0
  0
VERTEX
  5
F6
330
F3
100
AcDbEntity
  8
_U+30EC_U+30A4_U+30E4_U+30FC 1
 62
   179
420
  2234388
370
    15
100
AcDbVertex
100
AcDb2dVertex
 10
107.4587189251664
 20
-130.6197469117898
 30
0.0
  0
SEQEND
  5
F7
330
F3
100
AcDbEntity
  8
_U+30EC_U+30A4_U+30E4_U+30FC 1
 62
   179
420
  2234388
370
    15
  0
POLYLINE
  5
F8
330
1F
100
AcDbEntity
  8
_U+30EC_U+30A4_U+30E4_U+30FC 1
 62
   179
420
  2234388
370
    15
100
AcDb2dPolyline
 66
     1
 10
0.0
 20
0.0
 30
0.0
  0
VERTEX
  5
F9
330
F8
100
AcDbEntity
  8
_U+30EC_U+30A4_U+30E4_U+30FC 1
 62
   179
420
  2234388
370
    15
100
AcDbVertex
100
AcDb2dVertex
 10
104.645457330272
 20
-135.4918196883491
 30
0.0
  0
VERTEX
  5
FA
330
F8
100
AcDbEntity
  8
_U+30EC_U+30A4_U+30E4_U+30FC 1
 62
   179
420
  2234388
370
    15
100
AcDbVertex
100
AcDb2dVertex
 10
106.1730203468561
 20
-134.8469066329552
 30
0.0
  0
VERTEX
  5
FB
330
F8
100
AcDbEntity
  8
_U+30EC_U+30A4_U+30E4_U+30FC 1
 62
   179
420
  2234388
370
    15
100
AcDbVertex
100
AcDb2dVertex
 10
105.0271628760894
 20
-134.2811921886521
 30
0.0
  0
SEQEND
  5
FC
330
F8
100
AcDbEntity
  8
_U+30EC_U+30A4_U+30E4_U+30FC 1
 62
   179
420
  2234388
370
    15
  0
POLYLINE
  5
FD
330
1F
100
AcDbEntity
  8
_U+30EC_U+30A4_U+30E4_U+30FC 1
 62
   179
420
  2234388
370
    15
100
AcDb2dPolyline
 66
     1
 10
0.0
 20
0.0
 30
0.0
  0
VERTEX
  5
FE
330
FD
100
AcDbEntity
  8
_U+30EC_U+30A4_U+30E4_U+30FC 1
 62
   179
420
  2234388
370
    15
100
AcDbVertex
100
AcDb2dVertex
 10
90.9682632347618
 20
-128.7363369122605
 30
0.0
  0
VERTEX
  5
FF
330
FD
100
AcDbEntity
  8
_U+30EC_U+30A4_U+30E4_U+30FC 1
 62
   179
420
  2234388
370
    15
100
AcDbVertex
100
AcDb2dVertex
 10
90.9682632347618
 20
-122.4743549693815
 30
0.0
  0
SEQEND
  5
100
330
FD
100
AcDbEntity
  8
_U+30EC_U+30A4_U+30E4_U+30FC 1
 62
   179
420
  2234388
370
    15
  0
ENDSEC
  0
SECTION
  2
OBJECTS
  0
DICTIONARY
  5
C
330
0
100
AcDbDictionary
281
     1
  3
ACAD_GROUP
350
D
  3
ACAD_LAYOUT
350
1A
  3
ACAD_MATERIAL
350
3B
  3
ACAD_MLEADERSTYLE
350
102
  3
ACAD_MLINESTYLE
350
17
  3
ACAD_PLOTSETTINGS
350
19
  3
ACAD_PLOTSTYLENAME
350
E
  3
ACAD_TABLESTYLE
350
101
  3
ACAD_VISUALSTYLE
350
2A
  0
SUN
  5
3F
330
29
100
AcDbSun
 90
        1
290
     0
 63
     7
421
 16777215
 40
1.0
291
     1
 91
  2455826
 92
 54000000
292
     0
 70
     2
 71
   256
280
     1
  0
DICTIONARY
  5
D
102
{ACAD_REACTORS
330
C
102
}
330
C
100
AcDbDictionary
281
     1
  0
DICTIONARY
  5
1A
102
{ACAD_REACTORS
330
C
102
}
330
C
100
AcDbDictionary
281
     1
  3
Layout1
350
1E
  3
Layout2
350
26
  3
Model
350
22
  0
DICTIONARY
  5
3B
102
{ACAD_REACTORS
330
C
102
}
330
C
100
AcDbDictionary
281
     1
  3
ByBlock
350
3D
  3
ByLayer
350
3C
  3
Global
350
3E
  0
DICTIONARY
  5
102
102
{ACAD_REACTORS
330
C
102
}
330
C
100
AcDbDictionary
281
     1
  0
DICTIONARY
  5
17
102
{ACAD_REACTORS
330
C
102
}
330
C
100
AcDbDictionary
281
     1
  3
Standard
350
18
  0
DICTIONARY
  5
19
102
{ACAD_REACTORS
330
C
102
}
330
C
100
AcDbDictionary
281
     1
  0
ACDBDICTIONARYWDFLT
  5
E
102
{ACAD_REACTORS
330
C
102
}
330
C
100
AcDbDictionary
281
     1
  3
Normal
350
F
100
AcDbDictionaryWithDefault
340
F
  0
DICTIONARY
  5
101
102
{ACAD_REACTORS
330
C
102
}
330
C
100
AcDbDictionary
281
     1
  0
DICTIONARY
  5
2A
102
{ACAD_REACTORS
330
C
102
}
330
C
100
AcDbDictionary
281
     1
  3
2dWireframe
350
2F
  3
3D Hidden
350
31
  3
3dWireframe
350
30
  3
Basic
350
32
  3
Brighten
350
36
  3
ColorChange
350
3A
  3
Conceptual
350
34
  3
Dim
350
35
  3
Facepattern
350
39
  3
Flat
350
2B
  3
FlatWithEdges
350
2C
  3
Gouraud
350
2D
  3
GouraudWithEdges
350
2E
  3
Linepattern
350
38
  3
Realistic
350
33
  3
Thicken
350
37
  0
LAYOUT
  5
1E
102
{ACAD_REACTORS
330
1A
102
}
330
1A
100
AcDbPlotSettings
  1

  2
none_device
  4

  6

 40
0.0
 41
0.0
 42
0.0
 43
0.0
 44
0.0
 45
0.0
 46
0.0
 47
0.0
 48
0.0
 49
0.0
140
0.0
141
0.0
142
1.0
143
1.0
 70
   688
 72
     0
 73
     0
 74
     5
  7

 75
    16
 76
     0
 77
     2
 78
   300
147
1.0
148
0.0
149
0.0
100
AcDbLayout
  1
Layout1
 70
     1
 71
     1
 10
0.0
 20
0.0
 11
12.0
 21
9.0
 12
0.0
 22
0.0
 32
0.0
 14
1.000000000000000E+20
 24
1.000000000000000E+20
 34
1.000000000000000E+20
 15
-1.000000000000000E+20
 25
-1.000000000000000E+20
 35
-1.000000000000000E+20
146
0.0
 13
0.0
 23
0.0
 33
0.0
 16
1.0
 26
0.0
 36
0.0
 17
0.0
 27
1.0
 37
0.0
 76
     0
330
1B
  0
LAYOUT
  5
26
102
{ACAD_REACTORS
330
1A
102
}
330
1A
100
AcDbPlotSettings
  1

  2
none_device
  4

  6

 40
0.0
 41
0.0
 42
0.0
 43
0.0
 44
0.0
 45
0.0
 46
0.0
 47
0.0
 48
0.0
 49
0.0
140
0.0
141
0.0
142
1.0
143
1.0
 70
   688
 72
     0
 73
     0
 74
     5
  7

 75
    16
 76
     0
 77
     2
 78
   300
147
1.0
148
0.0
149
0.0
100
AcDbLayout
  1
Layout2
 70
     1
 71
     2
 10
0.0
 20
0.0
 11
0.0
 21
0.0
 12
0.0
 22
0.0
 32
0.0
 14
0.0
 24
0.0
 34
0.0
 15
0.0
 25
0.0
 35
0.0
146
0.0
 13
0.0
 23
0.0
 33
0.0
 16
1.0
 26
0.0
 36
0.0
 17
0.0
 27
1.0
 37
0.0
 76
     0
330
23
  0
LAYOUT
  5
22
102
{ACAD_REACTORS
330
1A
102
}
330
1A
100
AcDbPlotSettings
  1

  2
none_device
  4

  6

 40
0.0
 41
0.0
 42
0.0
 43
0.0
 44
0.0
 45
0.0
 46
0.0
 47
0.0
 48
0.0
 49
0.0
140
0.0
141
0.0
142
1.0
143
1.0
 70
  1712
 72
     0
 73
     0
 74
     0
  7

 75
     0
 76
     0
 77
     2
 78
   300
147
1.0
148
0.0
149
0.0
100
AcDbLayout
  1
Model
 70
     1
 71
     0
 10
0.0
 20
0.0
 11
12.0
 21
9.0
 12
0.0
 22
0.0
 32
0.0
 14
1.000000000000000E+20
 24
1.000000000000000E+20
 34
1.000000000000000E+20
 15
-1.000000000000000E+20
 25
-1.000000000000000E+20
 35
-1.000000000000000E+20
146
0.0
 13
0.0
 23
0.0
 33
0.0
 16
1.0
 26
0.0
 36
0.0
 17
0.0
 27
1.0
 37
0.0
 76
     0
330
1F
331
29
  0
MATERIAL
  5
3D
102
{ACAD_REACTORS
330
3B
102
}
330
3B
100
AcDbMaterial
  1
ByBlock
 72
     1
 94
      127
  0
MATERIAL
  5
3C
102
{ACAD_REACTORS
330
3B
102
}
330
3B
100
AcDbMaterial
  1
ByLayer
 72
     1
 94
      127
  0
MATERIAL
  5
3E
102
{ACAD_REACTORS
330
3B
102
}
330
3B
100
AcDbMaterial
  1
Global
 72
     1
 94
      127
  0
MLINESTYLE
  5
18
102
{ACAD_REACTORS
330
17
102
}
330
17
100
AcDbMlineStyle
  2
Standard
 70
     0
  3

 62
   256
 51
90.0
 52
90.0
 71
     2
 49
0.5
 62
   256
  6
BYLAYER
 49
-0.5
 62
   256
  6
BYLAYER
  0
ACDBPLACEHOLDER
  5
F
102
{ACAD_REACTORS
330
E
102
}
330
E
  0
VISUALSTYLE
  5
2F
102
{ACAD_REACTORS
330
2A
102
}
330
2A
100
AcDbVisualStyle
  2
2dWireframe
 70
     4
177
     2
291
     0
 71
     0
176
     1
 72
     2
176
     1
 73
     0
176
     1
 90
        0
176
     1
 40
-0.6
176
     1
 41
-30.0
176
     1
 62
     5
 63
     7
421
 16777215
176
     1
 74
     1
176
     1
 91
        4
176
     1
 64
     7
176
     1
 65
   257
176
     1
 75
     1
176
     1
175
     1
176
     1
 42
1.0
176
     1
 92
        0
176
     1
 66
   257
176
     1
 43
1.0
176
     1
 76
     1
176
     1
 77
     6
176
     1
 78
     2
176
     1
 67
     7
176
     1
 79
     5
176
     1
170
     0
176
     1
171
     0
176
     1
290
     0
176
     1
 93
        1
176
     1
 44
0.0
176
     1
173
     0
176
     1
  0
VISUALSTYLE
  5
31
102
{ACAD_REACTORS
330
2A
102
}
330
2A
100
AcDbVisualStyle
  2
3D Hidden
 70
     6
177
     2
291
     0
 71
     1
176
     1
 72
     2
176
     1
 73
     2
176
     1
 90
        0
176
     1
 40
-0.6
176
     1
 41
-30.0
176
     1
 62
     5
 63
     7
421
 16777215
176
     1
 74
     2
176
     1
 91
        2
176
     1
 64
     7
176
     1
 65
   257
176
     1
 75
     2
176
     1
175
     1
176
     1
 42
40.0
176
     1
 92
        0
176
     1
 66
   257
176
     1
 43
1.0
176
     1
 76
     1
176
     1
 77
     6
176
     1
 78
     2
176
     1
 67
     7
176
     1
 79
     3
176
     1
170
     0
176
     1
171
     0
176
     1
290
     0
176
     1
 93
        1
176
     1
 44
0.0
176
     1
173
     0
176
     1
  0
VISUALSTYLE
  5
30
102
{ACAD_REACTORS
330
2A
102
}
330
2A
100
AcDbVisualStyle
  2
3dWireframe
 70
     5
177
     2
291
     0
 71
     0
176
     1
 72
     2
176
     1
 73
     0
176
     1
 90
        0
176
     1
 40
-0.6
176
     1
 41
-30.0
176
     1
 62
     5
 63
     7
421
 16777215
176
     1
 74
     1
176
     1
 91
        4
176
     1
 64
     7
176
     1
 65
   257
176
     1
 75
     1
176
     1
175
     1
176
     1
 42
1.0
176
     1
 92
        0
176
     1
 66
   257
176
     1
 43
1.0
176
     1
 76
     1
176
     1
 77
     6
176
     1
 78
     2
176
     1
 67
     7
176
     1
 79
     5
176
     1
170
     0
176
     1
171
     0
176
     1
290
     0
176
     1
 93
        1
176
     1
 44
0.0
176
     1
173
     0
176
     1
  0
VISUALSTYLE
  5
32
102
{ACAD_REACTORS
330
2A
102
}
330
2A
100
AcDbVisualStyle
  2
Basic
 70
     7
177
     2
291
     1
 71
     1
176
     1
 72
     0
176
     1
 73
     1
176
     1
 90
        0
176
     1
 40
-0.6
176
     1
 41
-30.0
176
     1
 62
     5
 63
     7
421
 16777215
176
     1
 74
     0
176
     1
 91
        4
176
     1
 64
     7
176
     1
 65
   257
176
     1
 75
     1
176
     1
175
     1
176
     1
 42
1.0
176
     1
 92
        8
176
     1
 66
     7
176
     1
 43
1.0
176
     1
 76
     1
176
     1
 77
     6
176
     1
 78
     2
176
     1
 67
     7
176
     1
 79
     5
176
     1
170
     0
176
     1
171
     0
176
     1
290
     0
176
     1
 93
        1
176
     1
 44
0.0
176
     1
173
     0
176
     1
  0
VISUALSTYLE
  5
36
102
{ACAD_REACTORS
330
2A
102
}
330
2A
100
AcDbVisualStyle
  2
Brighten
 70
    12
177
     2
291
     1
 71
     2
176
     1
 72
     2
176
     1
 73
     0
176
     1
 90
        0
176
     1
 40
-0.6
176
     1
 41
-30.0
176
     1
 62
     5
 63
     7
421
 16777215
176
     1
 74
     1
176
     1
 91
        4
176
     1
 64
     7
176
     1
 65
   257
176
     1
 75
     1
176
     1
175
     1
176
     1
 42
1.0
176
     1
 92
        8
176
     1
 66
     7
176
     1
 43
1.0
176
     1
 76
     1
176
     1
 77
     6
176
     1
 78
     2
176
     1
 67
     7
176
     1
 79
     5
176
     1
170
     0
176
     1
171
     0
176
     1
290
     0
176
     1
 93
        1
176
     1
 44
50.0
176
     1
173
     0
176
     1
  0
VISUALSTYLE
  5
3A
102
{ACAD_REACTORS
330
2A
102
}
330
2A
100
AcDbVisualStyle
  2
ColorChange
 70
    16
177
     2
291
     1
 71
     2
176
     1
 72
     2
176
     1
 73
     3
176
     1
 90
        0
176
     1
 40
-0.6
176
     1
 41
-30.0
176
     1
 62
     5
 63
     8
421
  8421504
176
     1
 74
     1
176
     1
 91
        4
176
     1
 64
     7
176
     1
 65
   257
176
     1
 75
     1
176
     1
175
     1
176
     1
 42
1.0
176
     1
 92
        8
176
     1
 66
     8
424
  8421504
176
     1
 43
1.0
176
     1
 76
     1
176
     1
 77
     6
176
     1
 78
     2
176
     1
 67
     7
176
     1
 79
     5
176
     1
170
     0
176
     1
171
     0
176
     1
290
     0
176
     1
 93
        1
176
     1
 44
0.0
176
     1
173
     0
176
     1
  0
VISUALSTYLE
  5
34
102
{ACAD_REACTORS
330
2A
102
}
330
2A
100
AcDbVisualStyle
  2
Conceptual
 70
     9
177
     2
291
     0
 71
     3
176
     1
 72
     2
176
     1
 73
     0
176
     1
 90
        0
176
     1
 40
-0.6
176
     1
 41
-30.0
176
     1
 62
     5
 63
     7
421
 16777215
176
     1
 74
     2
176
     1
 91
        2
176
     1
 64
     7
176
     1
 65
   257
176
     1
 75
     1
176
     1
175
     1
176
     1
 42
40.0
176
     1
 92
        8
176
     1
 66
     7
176
     1
 43
1.0
176
     1
 76
     1
176
     1
 77
     6
176
     1
 78
     2
176
     1
 67
     7
176
     1
 79
     3
176
     1
170
     0
176
     1
171
     0
176
     1
290
     0
176
     1
 93
        1
176
     1
 44
0.0
176
     1
173
     0
176
     1
  0
VISUALSTYLE
  5
35
102
{ACAD_REACTORS
330
2A
102
}
330
2A
100
AcDbVisualStyle
  2
Dim
 70
    11
177
     2
291
     1
 71
     2
176
     1
 72
     2
176
     1
 73
     0
176
     1
 90
        0
176
     1
 40
-0.6
176
     1
 41
-30.0
176
     1
 62
     5
 63
     7
421
 16777215
176
     1
 74
     1
176
     1
 91
        4
176
     1
 64
     7
176
     1
 65
   257
176
     1
 75
     1
176
     1
175
     1
176
     1
 42
1.0
176
     1
 92
        8
176
     1
 66
     7
176
     1
 43
1.0
176
     1
 76
     1
176
     1
 77
     6
176
     1
 78
     2
176
     1
 67
     7
176
     1
 79
     5
176
     1
170
     0
176
     1
171
     0
176
     1
290
     0
176
     1
 93
        1
176
     1
 44
-50.0
176
     1
173
     0
176
     1
  0
VISUALSTYLE
  5
39
102
{ACAD_REACTORS
330
2A
102
}
330
2A
100
AcDbVisualStyle
  2
Facepattern
 70
    15
177
     2
291
     1
 71
     2
176
     1
 72
     2
176
     1
 73
     0
176
     1
 90
        0
176
     1
 40
-0.6
176
     1
 41
-30.0
176
     1
 62
     5
 63
     7
421
 16777215
176
     1
 74
     1
176
     1
 91
        4
176
     1
 64
     7
176
     1
 65
   257
176
     1
 75
     1
176
     1
175
     1
176
     1
 42
1.0
176
     1
 92
        8
176
     1
 66
     7
176
     1
 43
1.0
176
     1
 76
     1
176
     1
 77
     6
176
     1
 78
     2
176
     1
 67
     7
176
     1
 79
     5
176
     1
170
     0
176
     1
171
     0
176
     1
290
     0
176
     1
 93
        1
176
     1
 44
0.0
176
     1
173
     0
176
     1
  0
VISUALSTYLE
  5
2B
102
{ACAD_REACTORS
330
2A
102
}
330
2A
100
AcDbVisualStyle
  2
Flat
 70
     0
177
     2
291
     1
 71
     2
176
     1
 72
     1
176
     1
 73
     1
176
     1
 90
        2
176
     1
 40
-0.6
176
     1
 41
30.0
176
     1
 62
     5
 63
     7
421
 16777215
176
     1
 74
     0
176
     1
 91
        4
176
     1
 64
     7
176
     1
 65
   257
176
     1
 75
     1
176
     1
175
     1
176
     1
 42
1.0
176
     1
 92
        8
176
     1
 66
     7
176
     1
 43
1.0
176
     1
 76
     1
176
     1
 77
     6
176
     1
 78
     2
176
     1
 67
     7
176
     1
 79
     5
176
     1
170
     0
176
     1
171
     0
176
     1
290
     0
176
     1
 93
       13
176
     1
 44
0.0
176
     1
173
     0
176
     1
  0
VISUALSTYLE
  5
2C
102
{ACAD_REACTORS
330
2A
102
}
330
2A
100
AcDbVisualStyle
  2
FlatWithEdges
 70
     1
177
     2
291
     1
 71
     2
176
     1
 72
     1
176
     1
 73
     1
176
     1
 90
        2
176
     1
 40
-0.6
176
     1
 41
30.0
176
     1
 62
     5
 63
     7
421
 16777215
176
     1
 74
     1
176
     1
 91
        4
176
     1
 64
     7
176
     1
 65
   257
176
     1
 75
     1
176
     1
175
     1
176
     1
 42
1.0
176
     1
 92
        0
176
     1
 66
   257
176
     1
 43
1.0
176
     1
 76
     1
176
     1
 77
     6
176
     1
 78
     2
176
     1
 67
     7
176
     1
 79
     5
176
     1
170
     0
176
     1
171
     0
176
     1
290
     0
176
     1
 93
       13
176
     1
 44
0.0
176
     1
173
     0
176
     1
  0
VISUALSTYLE
  5
2D
102
{ACAD_REACTORS
330
2A
102
}
330
2A
100
AcDbVisualStyle
  2
Gouraud
 70
     2
177
     2
291
     1
 71
     2
176
     1
 72
     2
176
     1
 73
     1
176
     1
 90
        2
176
     1
 40
-0.6
176
     1
 41
30.0
176
     1
 62
     5
 63
     7
421
 16777215
176
     1
 74
     0
176
     1
 91
        4
176
     1
 64
     7
176
     1
 65
   257
176
     1
 75
     1
176
     1
175
     1
176
     1
 42
1.0
176
     1
 92
        0
176
     1
 66
     7
176
     1
 43
1.0
176
     1
 76
     1
176
     1
 77
     6
176
     1
 78
     2
176
     1
 67
     7
176
     1
 79
     5
176
     1
170
     0
176
     1
171
     0
176
     1
290
     0
176
     1
 93
       13
176
     1
 44
0.0
176
     1
173
     0
176
     1
  0
VISUALSTYLE
  5
2E
102
{ACAD_REACTORS
330
2A
102
}
330
2A
100
AcDbVisualStyle
  2
GouraudWithEdges
 70
     3
177
     2
291
     1
 71
     2
176
     1
 72
     2
176
     1
 73
     1
176
     1
 90
        2
176
     1
 40
-0.6
176
     1
 41
30.0
176
     1
 62
     5
 63
     7
421
 16777215
176
     1
 74
     1
176
     1
 91
        4
176
     1
 64
     7
176
     1
 65
   257
176
     1
 75
     1
176
     1
175
     1
176
     1
 42
1.0
176
     1
 92
        0
176
     1
 66
   257
176
     1
 43
1.0
176
     1
 76
     1
176
     1
 77
     6
176
     1
 78
     2
176
     1
 67
     7
176
     1
 79
     5
176
     1
170
     0
176
     1
171
     0
176
     1
290
     0
176
     1
 93
       13
176
     1
 44
0.0
176
     1
173
     0
176
     1
  0
VISUALSTYLE
  5
38
102
{ACAD_REACTORS
330
2A
102
}
330
2A
100
AcDbVisualStyle
  2
Linepattern
 70
    14
177
     2
291
     1
 71
     2
176
     1
 72
     2
176
     1
 73
     0
176
     1
 90
        0
176
     1
 40
-0.6
176
     1
 41
-30.0
176
     1
 62
     5
 63
     7
421
 16777215
176
     1
 74
     1
176
     1
 91
        4
176
     1
 64
     7
176
     1
 65
   257
176
     1
 75
     7
176
     1
175
     7
176
     1
 42
1.0
176
     1
 92
        8
176
     1
 66
     7
176
     1
 43
1.0
176
     1
 76
     1
176
     1
 77
     6
176
     1
 78
     2
176
     1
 67
     7
176
     1
 79
     5
176
     1
170
     0
176
     1
171
     0
176
     1
290
     0
176
     1
 93
        1
176
     1
 44
0.0
176
     1
173
     0
176
     1
  0
VISUALSTYLE
  5
33
102
{ACAD_REACTORS
330
2A
102
}
330
2A
100
AcDbVisualStyle
  2
Realistic
 70
     8
177
     2
291
     0
 71
     2
176
     1
 72
     2
176
     1
 73
     0
176
     1
 90
        0
176
     1
 40
-0.6
176
     1
 41
-30.0
176
     1
 62
     5
 63
     7
421
 16777215
176
     1
 74
     1
176
     1
 91
        0
176
     1
 64
     7
176
     1
 65
   257
176
     1
 75
     1
176
     1
175
     1
176
     1
 42
1.0
176
     1
 92
        8
176
     1
 66
     8
424
  7895160
176
     1
 43
1.0
176
     1
 76
     1
176
     1
 77
     6
176
     1
 78
     2
176
     1
 67
     7
176
     1
 79
     5
176
     1
170
     0
176
     1
171
     0
176
     1
290
     0
176
     1
 93
       13
176
     1
 44
0.0
176
     1
173
     0
176
     1
  0
VISUALSTYLE
  5
37
102
{ACAD_REACTORS
330
2A
102
}
330
2A
100
AcDbVisualStyle
  2
Thicken
 70
    13
177
     2
291
     1
 71
     2
176
     1
 72
     2
176
     1
 73
     0
176
     1
 90
        0
176
     1
 40
-0.6
176
     1
 41
-30.0
176
     1
 62
     5
 63
     7
421
 16777215
176
     1
 74
     1
176
     1
 91
        4
176
     1
 64
     7
176
     1
 65
   257
176
     1
 75
     1
176
     1
175
     1
176
     1
 42
1.0
176
     1
 92
       12
176
     1
 66
     7
176
     1
 43
1.0
176
     1
 76
     1
176
     1
 77
     6
176
     1
 78
     2
176
     1
 67
     7
176
     1
 79
     5
176
     1
170
     0
176
     1
171
     0
176
     1
290
     0
176
     1
 93
        1
176
     1
 44
0.0
176
     1
173
     0
176
     1
  0
ENDSEC
  0
EOF
