  0
SECTION
  2
HEADER
  9
$ACADVER
  1
AC1024
  9
$ACADMAINTVER
 70
     6
  9
$DWGCODEPAGE
  3
UNDEFINED
  9
$INSBASE
 10
0.0
 20
0.0
 30
0.0
  9
$EXTMIN
 10
1.000000000000000E+20
 20
1.000000000000000E+20
 30
1.000000000000000E+20
  9
$EXTMAX
 10
-1.000000000000000E+20
 20
-1.000000000000000E+20
 30
-1.000000000000000E+20
  9
$LIMMIN
 10
0.0
 20
0.0
  9
$LIMMAX
 10
12.0
 20
9.0
  9
$ORTHOMODE
 70
     0
  9
$REGENMODE
 70
     1
  9
$FILLMODE
 70
     1
  9
$QTEXTMODE
 70
     0
  9
$MIRRTEXT
 70
     1
  9
$LTSCALE
 40
1.0
  9
$ATTMODE
 70
     1
  9
$TEXTSIZE
 40
0.2
  9
$TRACEWID
 40
0.05
  9
$TEXTSTYLE
  7
Standard
  9
$CLAYER
  8
0
  9
$CELTYPE
  6
ByLayer
  9
$CECOLOR
 62
   256
  9
$CELTSCALE
 40
1.0
  9
$DISPSILH
 70
     0
  9
$DIMSCALE
 40
1.0
  9
$DIMASZ
 40
0.18
  9
$DIMEXO
 40
0.0625
  9
$DIMDLI
 40
0.38
  9
$DIMRND
 40
0.0
  9
$DIMDLE
 40
0.0
  9
$DIMEXE
 40
0.18
  9
$DIMTP
 40
0.0
  9
$DIMTM
 40
0.0
  9
$DIMTXT
 40
0.18
  9
$DIMCEN
 40
0.09
  9
$DIMTSZ
 40
0.0
  9
$DIMTOL
 70
     0
  9
$DIMLIM
 70
     0
  9
$DIMTIH
 70
     1
  9
$DIMTOH
 70
     1
  9
$DIMSE1
 70
     0
  9
$DIMSE2
 70
     0
  9
$DIMTAD
 70
     0
  9
$DIMZIN
 70
     0
  9
$DIMBLK
  1

  9
$DIMASO
 70
     1
  9
$DIMSHO
 70
     1
  9
$DIMPOST
  1

  9
$DIMAPOST
  1

  9
$DIMALT
 70
     0
  9
$DIMALTD
 70
     2
  9
$DIMALTF
 40
25.4
  9
$DIMLFAC
 40
1.0
  9
$DIMTOFL
 70
     0
  9
$DIMTVP
 40
0.0
  9
$DIMTIX
 70
     0
  9
$DIMSOXD
 70
     0
  9
$DIMSAH
 70
     0
  9
$DIMBLK1
  1

  9
$DIMBLK2
  1

  9
$DIMSTYLE
  2
Standard
  9
$DIMCLRD
 70
     0
  9
$DIMCLRE
 70
     0
  9
$DIMCLRT
 70
     0
  9
$DIMTFAC
 40
1.0
  9
$DIMGAP
 40
0.09
  9
$DIMJUST
 70
     0
  9
$DIMSD1
 70
     0
  9
$DIMSD2
 70
     0
  9
$DIMTOLJ
 70
     1
  9
$DIMTZIN
 70
     0
  9
$DIMALTZ
 70
     0
  9
$DIMALTTZ
 70
     0
  9
$DIMUPT
 70
     0
  9
$DIMDEC
 70
     4
  9
$DIMTDEC
 70
     4
  9
$DIMALTU
 70
     2
  9
$DIMALTTD
 70
     2
  9
$DIMTXSTY
  7
Standard
  9
$DIMAUNIT
 70
     0
  9
$DIMADEC
 70
     0
  9
$DIMALTRND
 40
0.0
  9
$DIMAZIN
 70
     0
  9
$DIMDSEP
 70
    46
  9
$DIMATFIT
 70
     3
  9
$DIMFRAC
 70
     0
  9
$DIMLDRBLK
  1

  9
$DIMLUNIT
 70
     2
  9
$DIMLWD
 70
    -2
  9
$DIMLWE
 70
    -2
  9
$DIMTMOVE
 70
     0
  9
$DIMFXL
 40
1.0
  9
$DIMFXLON
 70
     0
  9
$DIMJOGANG
 40
0.7853981633974483
  9
$DIMTFILL
 70
     0
  9
$DIMTFILLCLR
 70
     0
  9
$DIMARCSYM
 70
     0
  9
$DIMLTYPE
  6

  9
$DIMLTEX1
  6

  9
$DIMLTEX2
  6

  9
$DIMTXTDIRECTION
 70
     0
  9
$LUNITS
 70
     2
  9
$LUPREC
 70
     4
  9
$SKETCHINC
 40
0.1
  9
$FILLETRAD
 40
0.5
  9
$AUNITS
 70
     0
  9
$AUPREC
 70
     0
  9
$MENU
  1
.
  9
$ELEVATION
 40
0.0
  9
$PELEVATION
 40
0.0
  9
$THICKNESS
 40
0.0
  9
$LIMCHECK
 70
     0
  9
$CHAMFERA
 40
0.5
  9
$CHAMFERB
 40
0.5
  9
$CHAMFERC
 40
1.0
  9
$CHAMFERD
 40
0.0
  9
$SKPOLY
 70
     0
  9
$TDCREATE
 40
2457917.611388877
  9
$TDUCREATE
 40
2457917.236388889
  9
$TDUPDATE
 40
2457917.611388877
  9
$TDUUPDATE
 40
2457917.236388889
  9
$TDINDWG
 40
0.0000000116
  9
$TDUSRTIMER
 40
0.0000000116
  9
$USRTIMER
 70
     1
  9
$ANGBASE
 50
0.0
  9
$ANGDIR
 70
     0
  9
$PDMODE
 70
     0
  9
$PDSIZE
 40
0.0
  9
$PLINEWID
 40
0.0
  9
$SPLFRAME
 70
     0
  9
$SPLINETYPE
 70
     6
  9
$SPLINESEGS
 70
     8
  9
$HANDSEED
  5
F4
  9
$SURFTAB1
 70
     6
  9
$SURFTAB2
 70
     6
  9
$SURFTYPE
 70
     6
  9
$SURFU
 70
     6
  9
$SURFV
 70
     6
  9
$UCSBASE
  2

  9
$UCSNAME
  2

  9
$UCSORG
 10
0.0
 20
0.0
 30
0.0
  9
$UCSXDIR
 10
1.0
 20
0.0
 30
0.0
  9
$UCSYDIR
 10
0.0
 20
1.0
 30
0.0
  9
$UCSORTHOREF
  2

  9
$UCSORTHOVIEW
 70
     0
  9
$UCSORGTOP
 10
0.0
 20
0.0
 30
0.0
  9
$UCSORGBOTTOM
 10
0.0
 20
0.0
 30
0.0
  9
$UCSORGLEFT
 10
0.0
 20
0.0
 30
0.0
  9
$UCSORGRIGHT
 10
0.0
 20
0.0
 30
0.0
  9
$UCSORGFRONT
 10
0.0
 20
0.0
 30
0.0
  9
$UCSORGBACK
 10
0.0
 20
0.0
 30
0.0
  9
$PUCSBASE
  2

  9
$PUCSNAME
  2

  9
$PUCSORG
 10
0.0
 20
0.0
 30
0.0
  9
$PUCSXDIR
 10
1.0
 20
0.0
 30
0.0
  9
$PUCSYDIR
 10
0.0
 20
1.0
 30
0.0
  9
$PUCSORTHOREF
  2

  9
$PUCSORTHOVIEW
 70
     0
  9
$PUCSORGTOP
 10
0.0
 20
0.0
 30
0.0
  9
$PUCSORGBOTTOM
 10
0.0
 20
0.0
 30
0.0
  9
$PUCSORGLEFT
 10
0.0
 20
0.0
 30
0.0
  9
$PUCSORGRIGHT
 10
0.0
 20
0.0
 30
0.0
  9
$PUCSORGFRONT
 10
0.0
 20
0.0
 30
0.0
  9
$PUCSORGBACK
 10
0.0
 20
0.0
 30
0.0
  9
$USERI1
 70
     0
  9
$USERI2
 70
     0
  9
$USERI3
 70
     0
  9
$USERI4
 70
     0
  9
$USERI5
 70
     0
  9
$USERR1
 40
0.0
  9
$USERR2
 40
0.0
  9
$USERR3
 40
0.0
  9
$USERR4
 40
0.0
  9
$USERR5
 40
0.0
  9
$WORLDVIEW
 70
     1
  9
$SHADEDGE
 70
     3
  9
$SHADEDIF
 70
    70
  9
$TILEMODE
 70
     1
  9
$MAXACTVP
 70
    64
  9
$PINSBASE
 10
0.0
 20
0.0
 30
0.0
  9
$PLIMCHECK
 70
     0
  9
$PEXTMIN
 10
1.000000000000000E+20
 20
1.000000000000000E+20
 30
1.000000000000000E+20
  9
$PEXTMAX
 10
-1.000000000000000E+20
 20
-1.000000000000000E+20
 30
-1.000000000000000E+20
  9
$PLIMMIN
 10
0.0
 20
0.0
  9
$PLIMMAX
 10
12.0
 20
9.0
  9
$UNITMODE
 70
     0
  9
$VISRETAIN
 70
     1
  9
$PLINEGEN
 70
     0
  9
$PSLTSCALE
 70
     1
  9
$TREEDEPTH
 70
  3020
  9
$CMLSTYLE
  2
Standard
  9
$CMLJUST
 70
     0
  9
$CMLSCALE
 40
1.0
  9
$PROXYGRAPHICS
 70
     1
  9
$MEASUREMENT
 70
     0
  9
$CELWEIGHT
370
    -1
  9
$ENDCAPS
280
     0
  9
$JOINSTYLE
280
     0
  9
$LWDISPLAY
290
     1
  9
$INSUNITS
 70
     1
  9
$HYPERLINKBASE
  1

  9
$STYLESHEET
  1

  9
$XEDIT
290
     1
  9
$CEPSNTYPE
380
     0
  9
$PSTYLEMODE
290
     1
  9
$FINGERPRINTGUID
  2
{1134BBED-522F-93A4-9BDF-CC6A69089473}
  9
$VERSIONGUID
  2
{FAEB1C32-E019-11D5-929B-00C0DF256EC4}
  9
$EXTNAMES
290
     1
  9
$PSVPSCALE
 40
0.0
  9
$OLESTARTUP
290
     0
  9
$SORTENTS
280
   127
  9
$INDEXCTL
280
     0
  9
$HIDETEXT
280
     1
  9
$XCLIPFRAME
280
     2
  9
$HALOGAP
280
     0
  9
$OBSCOLOR
 70
   257
  9
$OBSLTYPE
280
     0
  9
$INTERSECTIONDISPLAY
280
     0
  9
$INTERSECTIONCOLOR
 70
   257
  9
$DIMASSOC
280
     2
  9
$PROJECTNAME
  1

  9
$CAMERADISPLAY
290
     0
  9
$LENSLENGTH
 40
50.0
  9
$CAMERAHEIGHT
 40
0.0
  9
$STEPSPERSEC
 40
2.0
  9
$STEPSIZE
 40
6.0
  9
$3DDWFPREC
 40
2.0
  9
$PSOLWIDTH
 40
0.25
  9
$PSOLHEIGHT
 40
4.0
  9
$LOFTANG1
 40
1.570796326794897
  9
$LOFTANG2
 40
1.570796326794897
  9
$LOFTMAG1
 40
0.0
  9
$LOFTMAG2
 40
0.0
  9
$LOFTPARAM
 70
     7
  9
$LOFTNORMALS
280
     1
  9
$LATITUDE
 40
37.795
  9
$LONGITUDE
 40
-122.394
  9
$NORTHDIRECTION
 40
0.0
  9
$TIMEZONE
 70
 -8000
  9
$LIGHTGLYPHDISPLAY
280
     1
  9
$TILEMODELIGHTSYNCH
280
     1
  9
$CMATERIAL
347
3C
  9
$SOLIDHIST
280
     1
  9
$SHOWHIST
280
     1
  9
$DWFFRAME
280
     2
  9
$DGNFRAME
280
     2
  9
$REALWORLDSCALE
290
     1
  9
$INTERFERECOLOR
 62
   256
  9
$CSHADOW
280
     0
  9
$SHADOWPLANELOCATION
 40
0.0
  0
ENDSEC
  0
SECTION
  2
CLASSES
  0
CLASS
  1
ACDBDICTIONARYWDFLT
  2
AcDbDictionaryWithDefault
  3
ObjectDBX Classes
 90
        0
 91
        4
280
     0
281
     0
  0
CLASS
  1
VISUALSTYLE
  2
AcDbVisualStyle
  3
ObjectDBX Classes
 90
     4095
 91
        4
280
     0
281
     0
  0
CLASS
  1
MATERIAL
  2
AcDbMaterial
  3
ObjectDBX Classes
 90
     1153
 91
        4
280
     0
281
     0
  0
CLASS
  1
SUN
  2
AcDbSun
  3
SCENEOE
 90
     1024
 91
        4
280
     0
281
     0
  0
ENDSEC
  0
SECTION
  2
TABLES
  0
TABLE
  2
VPORT
  5
8
330
0
100
AcDbSymbolTable
 70
     1
  0
VPORT
  5
29
330
8
100
AcDbSymbolTableRecord
100
AcDbViewportTableRecord
  2
*Active
 70
     0
 10
0.0
 20
0.0
 11
1.0
 21
1.0
 12
0.0
 22
0.0
 13
0.0
 23
0.0
 14
0.5
 24
0.5
 15
0.5
 25
0.5
 16
0.0
 26
0.0
 36
1.0
 17
91.00082462281999
 27
-128.4993055234307
 37
0.0
 40
256.9986110468615
 41
0.7081814508812795
 42
50.0
 43
0.0
 44
0.0
 50
0.0
 51
0.0
 71
     0
 72
   100
 73
     1
 74
     3
 75
     0
 76
     0
 77
     0
 78
     0
281
     0
 65
     1
110
0.0
120
0.0
130
0.0
111
1.0
121
0.0
131
0.0
112
0.0
122
1.0
132
0.0
 79
     0
146
0.0
 60
     3
 61
     5
292
     1
282
     1
141
0.0
142
0.0
 63
   250
361
3F
  0
ENDTAB
  0
TABLE
  2
LTYPE
  5
5
330
0
100
AcDbSymbolTable
 70
     1
  0
LTYPE
  5
14
330
5
100
AcDbSymbolTableRecord
100
AcDbLinetypeTableRecord
  2
ByBlock
 70
     0
  3

 72
    65
 73
     0
 40
0.0
  0
LTYPE
  5
15
330
5
100
AcDbSymbolTableRecord
100
AcDbLinetypeTableRecord
  2
ByLayer
 70
     0
  3

 72
    65
 73
     0
 40
0.0
  0
LTYPE
  5
16
330
5
100
AcDbSymbolTableRecord
100
AcDbLinetypeTableRecord
  2
Continuous
 70
     0
  3
Solid line
 72
    65
 73
     0
 40
0.0
  0
ENDTAB
  0
TABLE
  2
LAYER
  5
2
330
0
100
AcDbSymbolTable
 70
     2
  0
LAYER
  5
10
330
2
100
AcDbSymbolTableRecord
100
AcDbLayerTableRecord
  2
0
 70
     0
 62
     7
  6
Continuous
370
    -3
390
F
347
3E
  0
LAYER
  5
40
330
2
100
AcDbSymbolTableRecord
100
AcDbLayerTableRecord
  2
_U+30EC_U+30A4_U+30E4_U+30FC 1
 70
     0
 62
     7
  6
Continuous
370
    -3
390
F
347
3E
  0
ENDTAB
  0
TABLE
  2
STYLE
  5
3
330
0
100
AcDbSymbolTable
 70
     1
  0
STYLE
  5
11
330
3
100
AcDbSymbolTableRecord
100
AcDbTextStyleTableRecord
  2
Standard
 70
     0
 40
0.0
 41
1.0
 50
0.0
 71
     0
 42
0.2
  3
txt
  4

  0
ENDTAB
  0
TABLE
  2
VIEW
  5
6
330
0
100
AcDbSymbolTable
 70
     0
  0
ENDTAB
  0
TABLE
  2
UCS
  5
7
330
0
100
AcDbSymbolTable
 70
     0
  0
ENDTAB
  0
TABLE
  2
APPID
  5
9
330
0
100
AcDbSymbolTable
 70
     1
  0
APPID
  5
12
330
9
100
AcDbSymbolTableRecord
100
AcDbRegAppTableRecord
  2
ACAD
 70
     0
  0
ENDTAB
  0
TABLE
  2
DIMSTYLE
  5
A
330
0
100
AcDbSymbolTable
 70
     1
100
AcDbDimStyleTable
  0
DIMSTYLE
105
27
330
A
100
AcDbSymbolTableRecord
100
AcDbDimStyleTableRecord
  2
Standard
 70
     0
178
     0
340
11
  0
ENDTAB
  0
TABLE
  2
BLOCK_RECORD
  5
1
330
0
100
AcDbSymbolTable
 70
     3
  0
BLOCK_RECORD
  5
1F
330
1
100
AcDbSymbolTableRecord
100
AcDbBlockTableRecord
  2
*Model_Space
340
22
 70
     0
280
     1
281
     0
  0
BLOCK_RECORD
  5
1B
330
1
100
AcDbSymbolTableRecord
100
AcDbBlockTableRecord
  2
*Paper_Space
340
1E
 70
     0
280
     1
281
     0
  0
BLOCK_RECORD
  5
23
330
1
100
AcDbSymbolTableRecord
100
AcDbBlockTableRecord
  2
*Paper_Space0
340
26
 70
     0
280
     1
281
     0
  0
BLOCK_RECORD
  5
B8
330
1
100
AcDbSymbolTableRecord
100
AcDbBlockTableRecord
  2
block 2
340
0
102
{BLKREFS
331
B9
102
}
 70
     0
280
     1
281
     0
  0
BLOCK_RECORD
  5
D5
330
1
100
AcDbSymbolTableRecord
100
AcDbBlockTableRecord
  2
block 3
340
0
102
{BLKREFS
331
D6
102
}
 70
     0
280
     1
281
     0
  0
ENDTAB
  0
ENDSEC
  0
SECTION
  2
BLOCKS
  0
BLOCK
  5
20
330
1F
100
AcDbEntity
  8
0
100
AcDbBlockBegin
  2
*Model_Space
 70
     0
 10
0.0
 20
0.0
 30
0.0
  3
*Model_Space
  1

  0
ENDBLK
  5
21
330
1F
100
AcDbEntity
  8
0
100
AcDbBlockEnd
  0
BLOCK
  5
1C
330
1B
100
AcDbEntity
 67
     1
  8
0
100
AcDbBlockBegin
  2
*Paper_Space
 70
     0
 10
0.0
 20
0.0
 30
0.0
  3
*Paper_Space
  1

  0
ENDBLK
  5
1D
330
1B
100
AcDbEntity
 67
     1
  8
0
100
AcDbBlockEnd
  0
BLOCK
  5
24
330
23
100
AcDbEntity
  8
0
100
AcDbBlockBegin
  2
*Paper_Space0
 70
     0
 10
0.0
 20
0.0
 30
0.0
  3
*Paper_Space0
  1

  0
ENDBLK
  5
25
330
23
100
AcDbEntity
  8
0
100
AcDbBlockEnd
  0
BLOCK
  5
BA
330
B8
100
AcDbEntity
  8
0
100
AcDbBlockBegin
  2
block 2
 70
     0
 10
0.0
 20
0.0
 30
0.0
  3
block 2
  1

  0
POLYLINE
  5
BC
330
B8
100
AcDbEntity
  8
_U+30EC_U+30A4_U+30E4_U+30FC 1
370
     0
100
AcDb2dPolyline
 66
     1
 10
0.0
 20
0.0
 30
0.0
  0
VERTEX
  5
BD
330
BC
100
AcDbEntity
  8
_U+30EC_U+30A4_U+30E4_U+30FC 1
370
     0
100
AcDbVertex
100
AcDb2dVertex
 10
76.35950790191707
 20
-135.1462727526718
 30
0.0
  0
VERTEX
  5
BE
330
BC
100
AcDbEntity
  8
_U+30EC_U+30A4_U+30E4_U+30FC 1
370
     0
100
AcDbVertex
100
AcDb2dVertex
 10
76.35950790191707
 20
-135.4928493584879
 30
0.0
  0
VERTEX
  5
BF
330
BC
100
AcDbEntity
  8
_U+30EC_U+30A4_U+30E4_U+30FC 1
370
     0
100
AcDbVertex
100
AcDb2dVertex
 10
76.12661944711418
 20
-135.4928493584879
 30
0.0
  0
VERTEX
  5
C0
330
BC
100
AcDbEntity
  8
_U+30EC_U+30A4_U+30E4_U+30FC 1
370
     0
100
AcDbVertex
100
AcDb2dVertex
 10
76.12661944711418
 20
-135.1462727526718
 30
0.0
  0
VERTEX
  5
C1
330
BC
100
AcDbEntity
  8
_U+30EC_U+30A4_U+30E4_U+30FC 1
370
     0
100
AcDbVertex
100
AcDb2dVertex
 10
75.42554251586584
 20
-135.1462727526718
 30
0.0
  0
VERTEX
  5
C2
330
BC
100
AcDbEntity
  8
_U+30EC_U+30A4_U+30E4_U+30FC 1
370
     0
100
AcDbVertex
100
AcDb2dVertex
 10
75.42554251586584
 20
-134.9216525270335
 30
0.0
  0
VERTEX
  5
C3
330
BC
100
AcDbEntity
  8
_U+30EC_U+30A4_U+30E4_U+30FC 1
370
     0
100
AcDbVertex
100
AcDb2dVertex
 10
76.15142413460798
 20
-133.9487575619989
 30
0.0
  0
VERTEX
  5
C4
330
BC
100
AcDbEntity
  8
_U+30EC_U+30A4_U+30E4_U+30FC 1
370
     0
100
AcDbVertex
100
AcDb2dVertex
 10
76.35950790191707
 20
-133.9487575619989
 30
0.0
  0
VERTEX
  5
C5
330
BC
100
AcDbEntity
  8
_U+30EC_U+30A4_U+30E4_U+30FC 1
370
     0
100
AcDbVertex
100
AcDb2dVertex
 10
76.35950790191707
 20
-134.9471462336243
 30
0.0
  0
VERTEX
  5
C6
330
BC
100
AcDbEntity
  8
_U+30EC_U+30A4_U+30E4_U+30FC 1
370
     0
100
AcDbVertex
100
AcDb2dVertex
 10
76.58102754161864
 20
-134.9471462336243
 30
0.0
  0
VERTEX
  5
C7
330
BC
100
AcDbEntity
  8
_U+30EC_U+30A4_U+30E4_U+30FC 1
370
     0
100
AcDbVertex
100
AcDb2dVertex
 10
76.58102754161864
 20
-135.1462727526718
 30
0.0
  0
VERTEX
  5
C8
330
BC
100
AcDbEntity
  8
_U+30EC_U+30A4_U+30E4_U+30FC 1
370
     0
100
AcDbVertex
100
AcDb2dVertex
 10
76.35950790191707
 20
-135.1462727526718
 30
0.0
  0
SEQEND
  5
C9
330
BC
100
AcDbEntity
  8
_U+30EC_U+30A4_U+30E4_U+30FC 1
370
     0
  0
POLYLINE
  5
CA
330
B8
100
AcDbEntity
  8
_U+30EC_U+30A4_U+30E4_U+30FC 1
370
     0
100
AcDb2dPolyline
 66
     1
 10
0.0
 20
0.0
 30
0.0
  0
VERTEX
  5
CB
330
CA
100
AcDbEntity
  8
_U+30EC_U+30A4_U+30E4_U+30FC 1
370
     0
100
AcDbVertex
100
AcDb2dVertex
 10
76.12661944711418
 20
-134.2912000532328
 30
0.0
  0
VERTEX
  5
CC
330
CA
100
AcDbEntity
  8
_U+30EC_U+30A4_U+30E4_U+30FC 1
370
     0
100
AcDbVertex
100
AcDb2dVertex
 10
75.63810490730576
 20
-134.9471462336243
 30
0.0
  0
VERTEX
  5
CD
330
CA
100
AcDbEntity
  8
_U+30EC_U+30A4_U+30E4_U+30FC 1
370
     0
100
AcDbVertex
100
AcDb2dVertex
 10
76.12661944711418
 20
-134.9471462336243
 30
0.0
  0
VERTEX
  5
CE
330
CA
100
AcDbEntity
  8
_U+30EC_U+30A4_U+30E4_U+30FC 1
370
     0
100
AcDbVertex
100
AcDb2dVertex
 10
76.12661944711418
 20
-134.2912000532328
 30
0.0
  0
SEQEND
  5
CF
330
CA
100
AcDbEntity
  8
_U+30EC_U+30A4_U+30E4_U+30FC 1
370
     0
  0
HATCH
  5
D0
330
B8
100
AcDbEntity
  8
_U+30EC_U+30A4_U+30E4_U+30FC 1
 62
   179
420
  2234388
100
AcDbHatch
 10
0.0
 20
0.0
 30
0.0
210
0.0
220
0.0
230
1.0
  2
SOLID
 70
     1
 71
     0
 91
        2
 92
        1
 93
       11
 72
     1
 10
76.35950790191707
 20
-135.1462727526718
 11
76.35950790191707
 21
-135.4928493584879
 72
     1
 10
76.35950790191707
 20
-135.4928493584879
 11
76.12661944711418
 21
-135.4928493584879
 72
     1
 10
76.12661944711418
 20
-135.4928493584879
 11
76.12661944711418
 21
-135.1462727526718
 72
     1
 10
76.12661944711418
 20
-135.1462727526718
 11
75.42554251586584
 21
-135.1462727526718
 72
     1
 10
75.42554251586584
 20
-135.1462727526718
 11
75.42554251586584
 21
-134.9216525270335
 72
     1
 10
75.42554251586584
 20
-134.9216525270335
 11
76.15142413460798
 21
-133.9487575619989
 72
     1
 10
76.15142413460798
 20
-133.9487575619989
 11
76.35950790191707
 21
-133.9487575619989
 72
     1
 10
76.35950790191707
 20
-133.9487575619989
 11
76.35950790191707
 21
-134.9471462336243
 72
     1
 10
76.35950790191707
 20
-134.9471462336243
 11
76.58102754161864
 21
-134.9471462336243
 72
     1
 10
76.58102754161864
 20
-134.9471462336243
 11
76.58102754161864
 21
-135.1462727526718
 72
     1
 10
76.58102754161864
 20
-135.1462727526718
 11
76.35950790191707
 21
-135.1462727526718
 97
        0
 92
        1
 93
        3
 72
     1
 10
76.12661944711418
 20
-134.2912000532328
 11
75.63810490730576
 21
-134.9471462336243
 72
     1
 10
75.63810490730576
 20
-134.9471462336243
 11
76.12661944711418
 21
-134.9471462336243
 72
     1
 10
76.12661944711418
 20
-134.9471462336243
 11
76.12661944711418
 21
-134.2912000532328
 97
        0
 75
     2
 76
     1
 98
        0
  0
SPLINE
  5
D1
330
B8
100
AcDbEntity
  8
_U+30EC_U+30A4_U+30E4_U+30FC 1
370
     0
100
AcDbSpline
210
0.0
220
0.0
230
1.0
 70
    11
 71
     3
 72
    53
 73
    49
 74
     0
 42
0.0000000001
 43
0.0000000001
 12
1.0
 22
0.0
 32
0.0
 13
1.0
 23
0.0
 33
0.0
 40
0.0
 40
0.0
 40
0.0
 40
0.0
 40
1.0
 40
1.0
 40
1.0
 40
2.0
 40
2.0
 40
2.0
 40
3.0
 40
3.0
 40
3.0
 40
4.0
 40
4.0
 40
4.0
 40
5.0
 40
5.0
 40
5.0
 40
6.0
 40
6.0
 40
6.0
 40
7.0
 40
7.0
 40
7.0
 40
8.0
 40
8.0
 40
8.0
 40
9.0
 40
9.0
 40
9.0
 40
10.0
 40
10.0
 40
10.0
 40
11.0
 40
11.0
 40
11.0
 40
12.0
 40
12.0
 40
12.0
 40
13.0
 40
13.0
 40
13.0
 40
14.0
 40
14.0
 40
14.0
 40
15.0
 40
15.0
 40
15.0
 40
16.0
 40
16.0
 40
16.0
 40
16.0
 10
77.24179685568956
 20
-135.5438367716696
 30
0.0
 10
77.15808103539798
 20
-135.5438367716696
 30
0.0
 10
77.04990503716114
 20
-135.5266112942434
 30
0.0
 10
76.94104001982724
 20
-135.4632215373148
 30
0.0
 10
76.7556938827208
 20
-135.3536675008838
 30
0.0
 10
76.73330076206668
 20
-135.2220648533473
 30
0.0
 10
76.7129746987037
 20
-135.1145778742075
 30
0.0
 10
76.7129746987037
 20
-135.1145778742075
 30
0.0
 10
76.95034177763742
 20
-135.1145778742075
 30
0.0
 10
76.95034177763742
 20
-135.1145778742075
 30
0.0
 10
77.00890840088667
 20
-135.3130153741579
 30
0.0
 10
77.1446451630055
 20
-135.342643195331
 30
0.0
 10
77.24420842252923
 20
-135.342643195331
 30
0.0
 10
77.39338105704054
 20
-135.342643195331
 30
0.0
 10
77.55633407349286
 20
-135.2434244453558
 30
0.0
 10
77.55633407349286
 20
-135.0105359905529
 30
0.0
 10
77.55633407349286
 20
-134.7549099055474
 30
0.0
 10
77.36409774541592
 20
-134.6846299576483
 30
0.0
 10
77.23525117426757
 20
-134.6846299576483
 30
0.0
 10
77.20114472896361
 20
-134.6846299576483
 30
0.0
 10
77.04990503716114
 20
-134.6846299576483
 30
0.0
 10
76.95482040176825
 20
-134.8141655478937
 30
0.0
 10
76.95482040176825
 20
-134.8141655478937
 30
0.0
 10
76.76706269782213
 20
-134.7948730131763
 30
0.0
 10
76.76706269782213
 20
-134.7948730131763
 30
0.0
 10
76.76706269782213
 20
-134.7948730131763
 30
0.0
 10
76.89590926897047
 20
-133.9487575619989
 30
0.0
 10
76.89590926897047
 20
-133.9487575619989
 30
0.0
 10
76.89590926897047
 20
-133.9487575619989
 30
0.0
 10
77.72789982865831
 20
-133.9487575619989
 30
0.0
 10
77.72789982865831
 20
-133.9487575619989
 30
0.0
 10
77.72789982865831
 20
-133.9487575619989
 30
0.0
 10
77.72789982865831
 20
-134.143060947367
 30
0.0
 10
77.72789982865831
 20
-134.143060947367
 30
0.0
 10
77.72789982865831
 20
-134.143060947367
 30
0.0
 10
77.07023110052411
 20
-134.143060947367
 30
0.0
 10
77.07023110052411
 20
-134.143060947367
 30
0.0
 10
77.07023110052411
 20
-134.143060947367
 30
0.0
 10
76.99995115262502
 20
-134.5661186729557
 30
0.0
 10
76.99995115262502
 20
-134.5661186729557
 30
0.0
 10
77.06540796684476
 20
-134.5323567372002
 30
0.0
 10
77.15360241126716
 20
-134.4923936295714
 30
0.0
 10
77.28038192512436
 20
-134.4923936295714
 30
0.0
 10
77.55151093981351
 20
-134.4923936295714
 30
0.0
 10
77.80472545797937
 20
-134.6784287857749
 30
0.0
 10
77.80472545797937
 20
-134.9919324749326
 30
0.0
 10
77.80472545797937
 20
-135.3088812595756
 30
0.0
 10
77.56529132175451
 20
-135.5438367716696
 30
0.0
 10
77.24179685568956
 20
-135.5438367716696
 30
0.0
  0
HATCH
  5
D2
330
B8
100
AcDbEntity
  8
_U+30EC_U+30A4_U+30E4_U+30FC 1
 62
   179
420
  2234388
100
AcDbHatch
 10
0.0
 20
0.0
 30
0.0
210
0.0
220
0.0
230
1.0
  2
SOLID
 70
     1
 71
     0
 91
        1
 92
        1
 93
        1
 72
     4
 94
        3
 73
     0
 74
     1
 95
       53
 96
       49
 40
0.0
 40
0.0
 40
0.0
 40
0.0
 40
1.0
 40
1.0
 40
1.0
 40
2.0
 40
2.0
 40
2.0
 40
3.0
 40
3.0
 40
3.0
 40
4.0
 40
4.0
 40
4.0
 40
5.0
 40
5.0
 40
5.0
 40
6.0
 40
6.0
 40
6.0
 40
7.0
 40
7.0
 40
7.0
 40
8.0
 40
8.0
 40
8.0
 40
9.0
 40
9.0
 40
9.0
 40
10.0
 40
10.0
 40
10.0
 40
11.0
 40
11.0
 40
11.0
 40
12.0
 40
12.0
 40
12.0
 40
13.0
 40
13.0
 40
13.0
 40
14.0
 40
14.0
 40
14.0
 40
15.0
 40
15.0
 40
15.0
 40
16.0
 40
16.0
 40
16.0
 40
16.0
 10
77.24179685568956
 20
-135.5438367716696
 10
77.15808103539798
 20
-135.5438367716696
 10
77.04990503716114
 20
-135.5266112942434
 10
76.94104001982724
 20
-135.4632215373148
 10
76.7556938827208
 20
-135.3536675008838
 10
76.73330076206668
 20
-135.2220648533473
 10
76.7129746987037
 20
-135.1145778742075
 10
76.7129746987037
 20
-135.1145778742075
 10
76.95034177763742
 20
-135.1145778742075
 10
76.95034177763742
 20
-135.1145778742075
 10
77.00890840088667
 20
-135.3130153741579
 10
77.1446451630055
 20
-135.342643195331
 10
77.24420842252923
 20
-135.342643195331
 10
77.39338105704054
 20
-135.342643195331
 10
77.55633407349286
 20
-135.2434244453558
 10
77.55633407349286
 20
-135.0105359905529
 10
77.55633407349286
 20
-134.7549099055474
 10
77.36409774541592
 20
-134.6846299576483
 10
77.23525117426757
 20
-134.6846299576483
 10
77.20114472896361
 20
-134.6846299576483
 10
77.04990503716114
 20
-134.6846299576483
 10
76.95482040176825
 20
-134.8141655478937
 10
76.95482040176825
 20
-134.8141655478937
 10
76.76706269782213
 20
-134.7948730131763
 10
76.76706269782213
 20
-134.7948730131763
 10
76.76706269782213
 20
-134.7948730131763
 10
76.89590926897047
 20
-133.9487575619989
 10
76.89590926897047
 20
-133.9487575619989
 10
76.89590926897047
 20
-133.9487575619989
 10
77.72789982865831
 20
-133.9487575619989
 10
77.72789982865831
 20
-133.9487575619989
 10
77.72789982865831
 20
-133.9487575619989
 10
77.72789982865831
 20
-134.143060947367
 10
77.72789982865831
 20
-134.143060947367
 10
77.72789982865831
 20
-134.143060947367
 10
77.07023110052411
 20
-134.143060947367
 10
77.07023110052411
 20
-134.143060947367
 10
77.07023110052411
 20
-134.143060947367
 10
76.99995115262502
 20
-134.5661186729557
 10
76.99995115262502
 20
-134.5661186729557
 10
77.06540796684476
 20
-134.5323567372002
 10
77.15360241126716
 20
-134.4923936295714
 10
77.28038192512436
 20
-134.4923936295714
 10
77.55151093981351
 20
-134.4923936295714
 10
77.80472545797937
 20
-134.6784287857749
 10
77.80472545797937
 20
-134.9919324749326
 10
77.80472545797937
 20
-135.3088812595756
 10
77.56529132175451
 20
-135.5438367716696
 10
77.24179685568956
 20
-135.5438367716696
 97
        0
 97
        0
 75
     2
 76
     1
 98
        0
  0
SPLINE
  5
D3
330
B8
100
AcDbEntity
  8
_U+30EC_U+30A4_U+30E4_U+30FC 1
370
     0
100
AcDbSpline
210
0.0
220
0.0
230
1.0
 70
    11
 71
     3
 72
    53
 73
    49
 74
     0
 42
0.0000000001
 43
0.0000000001
 12
1.0
 22
0.0
 32
0.0
 13
1.0
 23
0.0
 33
0.0
 40
0.0
 40
0.0
 40
0.0
 40
0.0
 40
1.0
 40
1.0
 40
1.0
 40
2.0
 40
2.0
 40
2.0
 40
3.0
 40
3.0
 40
3.0
 40
4.0
 40
4.0
 40
4.0
 40
5.0
 40
5.0
 40
5.0
 40
6.0
 40
6.0
 40
6.0
 40
7.0
 40
7.0
 40
7.0
 40
8.0
 40
8.0
 40
8.0
 40
9.0
 40
9.0
 40
9.0
 40
10.0
 40
10.0
 40
10.0
 40
11.0
 40
11.0
 40
11.0
 40
12.0
 40
12.0
 40
12.0
 40
13.0
 40
13.0
 40
13.0
 40
14.0
 40
14.0
 40
14.0
 40
15.0
 40
15.0
 40
15.0
 40
16.0
 40
16.0
 40
16.0
 40
16.0
 10
78.49960121735427
 20
-135.5438367716696
 30
0.0
 10
78.41622990661122
 20
-135.5438367716696
 30
0.0
 10
78.30736488927732
 20
-135.5266112942434
 30
0.0
 10
78.19918889104048
 20
-135.4632215373148
 30
0.0
 10
78.01349824438552
 20
-135.3536675008838
 30
0.0
 10
77.99110512373139
 20
-135.2220648533473
 30
0.0
 10
77.97077906036841
 20
-135.1145778742075
 30
0.0
 10
77.97077906036841
 20
-135.1145778742075
 30
0.0
 10
78.20814613930213
 20
-135.1145778742075
 30
0.0
 10
78.20814613930213
 20
-135.1145778742075
 30
0.0
 10
78.26671276255138
 20
-135.3130153741579
 30
0.0
 10
78.40244952467023
 20
-135.342643195331
 30
0.0
 10
78.50201278419395
 20
-135.342643195331
 30
0.0
 10
78.65118541870527
 20
-135.342643195331
 30
0.0
 10
78.81379392560906
 20
-135.2434244453558
 30
0.0
 10
78.81379392560906
 20
-135.0105359905529
 30
0.0
 10
78.81379392560906
 20
-134.7549099055474
 30
0.0
 10
78.62190210708064
 20
-134.6846299576483
 30
0.0
 10
78.4930555359323
 20
-134.6846299576483
 30
0.0
 10
78.45894909062832
 20
-134.6846299576483
 30
0.0
 10
78.30736488927732
 20
-134.6846299576483
 30
0.0
 10
78.21262476343296
 20
-134.8141655478937
 30
0.0
 10
78.21262476343296
 20
-134.8141655478937
 30
0.0
 10
78.02486705948684
 20
-134.7948730131763
 30
0.0
 10
78.02486705948684
 20
-134.7948730131763
 30
0.0
 10
78.02486705948684
 20
-134.7948730131763
 30
0.0
 10
78.15371363063518
 20
-133.9487575619989
 30
0.0
 10
78.15371363063518
 20
-133.9487575619989
 30
0.0
 10
78.15371363063518
 20
-133.9487575619989
 30
0.0
 10
78.98570419032302
 20
-133.9487575619989
 30
0.0
 10
78.98570419032302
 20
-133.9487575619989
 30
0.0
 10
78.98570419032302
 20
-133.9487575619989
 30
0.0
 10
78.98570419032302
 20
-134.143060947367
 30
0.0
 10
78.98570419032302
 20
-134.143060947367
 30
0.0
 10
78.98570419032302
 20
-134.143060947367
 30
0.0
 10
78.32803546218882
 20
-134.143060947367
 30
0.0
 10
78.32803546218882
 20
-134.143060947367
 30
0.0
 10
78.32803546218882
 20
-134.143060947367
 30
0.0
 10
78.25775551428973
 20
-134.5661186729557
 30
0.0
 10
78.25775551428973
 20
-134.5661186729557
 30
0.0
 10
78.32321232850948
 20
-134.5323567372002
 30
0.0
 10
78.41140677293187
 20
-134.4923936295714
 30
0.0
 10
78.53818628678907
 20
-134.4923936295714
 30
0.0
 10
78.80931530147824
 20
-134.4923936295714
 30
0.0
 10
79.0625298196441
 20
-134.6784287857749
 30
0.0
 10
79.0625298196441
 20
-134.9919324749326
 30
0.0
 10
79.0625298196441
 20
-135.3088812595756
 30
0.0
 10
78.82309568341923
 20
-135.5438367716696
 30
0.0
 10
78.49960121735427
 20
-135.5438367716696
 30
0.0
  0
HATCH
  5
D4
330
B8
100
AcDbEntity
  8
_U+30EC_U+30A4_U+30E4_U+30FC 1
 62
   179
420
  2234388
100
AcDbHatch
 10
0.0
 20
0.0
 30
0.0
210
0.0
220
0.0
230
1.0
  2
SOLID
 70
     1
 71
     0
 91
        1
 92
        1
 93
        1
 72
     4
 94
        3
 73
     0
 74
     1
 95
       53
 96
       49
 40
0.0
 40
0.0
 40
0.0
 40
0.0
 40
1.0
 40
1.0
 40
1.0
 40
2.0
 40
2.0
 40
2.0
 40
3.0
 40
3.0
 40
3.0
 40
4.0
 40
4.0
 40
4.0
 40
5.0
 40
5.0
 40
5.0
 40
6.0
 40
6.0
 40
6.0
 40
7.0
 40
7.0
 40
7.0
 40
8.0
 40
8.0
 40
8.0
 40
9.0
 40
9.0
 40
9.0
 40
10.0
 40
10.0
 40
10.0
 40
11.0
 40
11.0
 40
11.0
 40
12.0
 40
12.0
 40
12.0
 40
13.0
 40
13.0
 40
13.0
 40
14.0
 40
14.0
 40
14.0
 40
15.0
 40
15.0
 40
15.0
 40
16.0
 40
16.0
 40
16.0
 40
16.0
 10
78.49960121735427
 20
-135.5438367716696
 10
78.41622990661122
 20
-135.5438367716696
 10
78.30736488927732
 20
-135.5266112942434
 10
78.19918889104048
 20
-135.4632215373148
 10
78.01349824438552
 20
-135.3536675008838
 10
77.99110512373139
 20
-135.2220648533473
 10
77.97077906036841
 20
-135.1145778742075
 10
77.97077906036841
 20
-135.1145778742075
 10
78.20814613930213
 20
-135.1145778742075
 10
78.20814613930213
 20
-135.1145778742075
 10
78.26671276255138
 20
-135.3130153741579
 10
78.40244952467023
 20
-135.342643195331
 10
78.50201278419395
 20
-135.342643195331
 10
78.65118541870527
 20
-135.342643195331
 10
78.81379392560906
 20
-135.2434244453558
 10
78.81379392560906
 20
-135.0105359905529
 10
78.81379392560906
 20
-134.7549099055474
 10
78.62190210708064
 20
-134.6846299576483
 10
78.4930555359323
 20
-134.6846299576483
 10
78.45894909062832
 20
-134.6846299576483
 10
78.30736488927732
 20
-134.6846299576483
 10
78.21262476343296
 20
-134.8141655478937
 10
78.21262476343296
 20
-134.8141655478937
 10
78.02486705948684
 20
-134.7948730131763
 10
78.02486705948684
 20
-134.7948730131763
 10
78.02486705948684
 20
-134.7948730131763
 10
78.15371363063518
 20
-133.9487575619989
 10
78.15371363063518
 20
-133.9487575619989
 10
78.15371363063518
 20
-133.9487575619989
 10
78.98570419032302
 20
-133.9487575619989
 10
78.98570419032302
 20
-133.9487575619989
 10
78.98570419032302
 20
-133.9487575619989
 10
78.98570419032302
 20
-134.143060947367
 10
78.98570419032302
 20
-134.143060947367
 10
78.98570419032302
 20
-134.143060947367
 10
78.32803546218882
 20
-134.143060947367
 10
78.32803546218882
 20
-134.143060947367
 10
78.32803546218882
 20
-134.143060947367
 10
78.25775551428973
 20
-134.5661186729557
 10
78.25775551428973
 20
-134.5661186729557
 10
78.32321232850948
 20
-134.5323567372002
 10
78.41140677293187
 20
-134.4923936295714
 10
78.53818628678907
 20
-134.4923936295714
 10
78.80931530147824
 20
-134.4923936295714
 10
79.0625298196441
 20
-134.6784287857749
 10
79.0625298196441
 20
-134.9919324749326
 10
79.0625298196441
 20
-135.3088812595756
 10
78.82309568341923
 20
-135.5438367716696
 10
78.49960121735427
 20
-135.5438367716696
 97
        0
 97
        0
 75
     2
 76
     1
 98
        0
  0
ENDBLK
  5
BB
330
B8
100
AcDbEntity
  8
0
100
AcDbBlockEnd
  0
BLOCK
  5
D7
330
D5
100
AcDbEntity
  8
0
100
AcDbBlockBegin
  2
block 3
 70
     0
 10
0.0
 20
0.0
 30
0.0
  3
block 3
  1

  0
POLYLINE
  5
D9
330
D5
100
AcDbEntity
  8
_U+30EC_U+30A4_U+30E4_U+30FC 1
370
     0
100
AcDb2dPolyline
 66
     1
 10
0.0
 20
0.0
 30
0.0
  0
VERTEX
  5
DA
330
D9
100
AcDbEntity
  8
_U+30EC_U+30A4_U+30E4_U+30FC 1
370
     0
100
AcDbVertex
100
AcDb2dVertex
 10
101.5831190067223
 20
-132.8532171976895
 30
0.0
  0
VERTEX
  5
DB
330
D9
100
AcDbEntity
  8
_U+30EC_U+30A4_U+30E4_U+30FC 1
370
     0
100
AcDbVertex
100
AcDb2dVertex
 10
101.5831190067223
 20
-133.1997938035056
 30
0.0
  0
VERTEX
  5
DC
330
D9
100
AcDbEntity
  8
_U+30EC_U+30A4_U+30E4_U+30FC 1
370
     0
100
AcDbVertex
100
AcDb2dVertex
 10
101.3502305519194
 20
-133.1997938035056
 30
0.0
  0
VERTEX
  5
DD
330
D9
100
AcDbEntity
  8
_U+30EC_U+30A4_U+30E4_U+30FC 1
370
     0
100
AcDbVertex
100
AcDb2dVertex
 10
101.3502305519194
 20
-132.8532171976895
 30
0.0
  0
VERTEX
  5
DE
330
D9
100
AcDbEntity
  8
_U+30EC_U+30A4_U+30E4_U+30FC 1
370
     0
100
AcDbVertex
100
AcDb2dVertex
 10
100.649153620671
 20
-132.8532171976895
 30
0.0
  0
VERTEX
  5
DF
330
D9
100
AcDbEntity
  8
_U+30EC_U+30A4_U+30E4_U+30FC 1
370
     0
100
AcDbVertex
100
AcDb2dVertex
 10
100.649153620671
 20
-132.6285969720512
 30
0.0
  0
VERTEX
  5
E0
330
D9
100
AcDbEntity
  8
_U+30EC_U+30A4_U+30E4_U+30FC 1
370
     0
100
AcDbVertex
100
AcDb2dVertex
 10
101.3750352394132
 20
-131.6557020070166
 30
0.0
  0
VERTEX
  5
E1
330
D9
100
AcDbEntity
  8
_U+30EC_U+30A4_U+30E4_U+30FC 1
370
     0
100
AcDbVertex
100
AcDb2dVertex
 10
101.5831190067223
 20
-131.6557020070166
 30
0.0
  0
VERTEX
  5
E2
330
D9
100
AcDbEntity
  8
_U+30EC_U+30A4_U+30E4_U+30FC 1
370
     0
100
AcDbVertex
100
AcDb2dVertex
 10
101.5831190067223
 20
-132.654090678642
 30
0.0
  0
VERTEX
  5
E3
330
D9
100
AcDbEntity
  8
_U+30EC_U+30A4_U+30E4_U+30FC 1
370
     0
100
AcDbVertex
100
AcDb2dVertex
 10
101.8046386464238
 20
-132.654090678642
 30
0.0
  0
VERTEX
  5
E4
330
D9
100
AcDbEntity
  8
_U+30EC_U+30A4_U+30E4_U+30FC 1
370
     0
100
AcDbVertex
100
AcDb2dVertex
 10
101.8046386464238
 20
-132.8532171976895
 30
0.0
  0
VERTEX
  5
E5
330
D9
100
AcDbEntity
  8
_U+30EC_U+30A4_U+30E4_U+30FC 1
370
     0
100
AcDbVertex
100
AcDb2dVertex
 10
101.5831190067223
 20
-132.8532171976895
 30
0.0
  0
SEQEND
  5
E6
330
D9
100
AcDbEntity
  8
_U+30EC_U+30A4_U+30E4_U+30FC 1
370
     0
  0
POLYLINE
  5
E7
330
D5
100
AcDbEntity
  8
_U+30EC_U+30A4_U+30E4_U+30FC 1
370
     0
100
AcDb2dPolyline
 66
     1
 10
0.0
 20
0.0
 30
0.0
  0
VERTEX
  5
E8
330
E7
100
AcDbEntity
  8
_U+30EC_U+30A4_U+30E4_U+30FC 1
370
     0
100
AcDbVertex
100
AcDb2dVertex
 10
101.3502305519194
 20
-131.9981444982505
 30
0.0
  0
VERTEX
  5
E9
330
E7
100
AcDbEntity
  8
_U+30EC_U+30A4_U+30E4_U+30FC 1
370
     0
100
AcDbVertex
100
AcDb2dVertex
 10
100.861716012111
 20
-132.654090678642
 30
0.0
  0
VERTEX
  5
EA
330
E7
100
AcDbEntity
  8
_U+30EC_U+30A4_U+30E4_U+30FC 1
370
     0
100
AcDbVertex
100
AcDb2dVertex
 10
101.3502305519194
 20
-132.654090678642
 30
0.0
  0
VERTEX
  5
EB
330
E7
100
AcDbEntity
  8
_U+30EC_U+30A4_U+30E4_U+30FC 1
370
     0
100
AcDbVertex
100
AcDb2dVertex
 10
101.3502305519194
 20
-131.9981444982505
 30
0.0
  0
SEQEND
  5
EC
330
E7
100
AcDbEntity
  8
_U+30EC_U+30A4_U+30E4_U+30FC 1
370
     0
  0
HATCH
  5
ED
330
D5
100
AcDbEntity
  8
_U+30EC_U+30A4_U+30E4_U+30FC 1
 62
   179
420
  2234388
100
AcDbHatch
 10
0.0
 20
0.0
 30
0.0
210
0.0
220
0.0
230
1.0
  2
SOLID
 70
     1
 71
     0
 91
        2
 92
        1
 93
       11
 72
     1
 10
101.5831190067223
 20
-132.8532171976895
 11
101.5831190067223
 21
-133.1997938035056
 72
     1
 10
101.5831190067223
 20
-133.1997938035056
 11
101.3502305519194
 21
-133.1997938035056
 72
     1
 10
101.3502305519194
 20
-133.1997938035056
 11
101.3502305519194
 21
-132.8532171976895
 72
     1
 10
101.3502305519194
 20
-132.8532171976895
 11
100.649153620671
 21
-132.8532171976895
 72
     1
 10
100.649153620671
 20
-132.8532171976895
 11
100.649153620671
 21
-132.6285969720512
 72
     1
 10
100.649153620671
 20
-132.6285969720512
 11
101.3750352394132
 21
-131.6557020070166
 72
     1
 10
101.3750352394132
 20
-131.6557020070166
 11
101.5831190067223
 21
-131.6557020070166
 72
     1
 10
101.5831190067223
 20
-131.6557020070166
 11
101.5831190067223
 21
-132.654090678642
 72
     1
 10
101.5831190067223
 20
-132.654090678642
 11
101.8046386464238
 21
-132.654090678642
 72
     1
 10
101.8046386464238
 20
-132.654090678642
 11
101.8046386464238
 21
-132.8532171976895
 72
     1
 10
101.8046386464238
 20
-132.8532171976895
 11
101.5831190067223
 21
-132.8532171976895
 97
        0
 92
        1
 93
        3
 72
     1
 10
101.3502305519194
 20
-131.9981444982505
 11
100.861716012111
 21
-132.654090678642
 72
     1
 10
100.861716012111
 20
-132.654090678642
 11
101.3502305519194
 21
-132.654090678642
 72
     1
 10
101.3502305519194
 20
-132.654090678642
 11
101.3502305519194
 21
-131.9981444982505
 97
        0
 75
     2
 76
     1
 98
        0
  0
SPLINE
  5
EE
330
D5
100
AcDbEntity
  8
_U+30EC_U+30A4_U+30E4_U+30FC 1
370
     0
100
AcDbSpline
210
0.0
220
0.0
230
1.0
 70
    11
 71
     3
 72
    53
 73
    49
 74
     0
 42
0.0000000001
 43
0.0000000001
 12
1.0
 22
0.0
 32
0.0
 13
1.0
 23
0.0
 33
0.0
 40
0.0
 40
0.0
 40
0.0
 40
0.0
 40
1.0
 40
1.0
 40
1.0
 40
2.0
 40
2.0
 40
2.0
 40
3.0
 40
3.0
 40
3.0
 40
4.0
 40
4.0
 40
4.0
 40
5.0
 40
5.0
 40
5.0
 40
6.0
 40
6.0
 40
6.0
 40
7.0
 40
7.0
 40
7.0
 40
8.0
 40
8.0
 40
8.0
 40
9.0
 40
9.0
 40
9.0
 40
10.0
 40
10.0
 40
10.0
 40
11.0
 40
11.0
 40
11.0
 40
12.0
 40
12.0
 40
12.0
 40
13.0
 40
13.0
 40
13.0
 40
14.0
 40
14.0
 40
14.0
 40
15.0
 40
15.0
 40
15.0
 40
16.0
 40
16.0
 40
16.0
 40
16.0
 10
102.4654079604948
 20
-133.2507812166873
 30
0.0
 10
102.3816921402032
 20
-133.2507812166873
 30
0.0
 10
102.2735161419664
 20
-133.233555739261
 30
0.0
 10
102.1646511246325
 20
-133.1701659823325
 30
0.0
 10
101.979304987526
 20
-133.0606119459015
 30
0.0
 10
101.9569118668719
 20
-132.929009298365
 30
0.0
 10
101.9365858035089
 20
-132.8215223192252
 30
0.0
 10
101.9365858035089
 20
-132.8215223192252
 30
0.0
 10
102.1739528824426
 20
-132.8215223192252
 30
0.0
 10
102.1739528824426
 20
-132.8215223192252
 30
0.0
 10
102.2325195056919
 20
-133.0199598191756
 30
0.0
 10
102.3682562678107
 20
-133.0495876403487
 30
0.0
 10
102.4678195273344
 20
-133.0495876403487
 30
0.0
 10
102.6169921618458
 20
-133.0495876403487
 30
0.0
 10
102.7799451782981
 20
-132.9503688903735
 30
0.0
 10
102.7799451782981
 20
-132.7174804355706
 30
0.0
 10
102.7799451782981
 20
-132.4618543505651
 30
0.0
 10
102.5877088502211
 20
-132.391574402666
 30
0.0
 10
102.4588622790728
 20
-132.391574402666
 30
0.0
 10
102.4247558337688
 20
-132.391574402666
 30
0.0
 10
102.2735161419664
 20
-132.391574402666
 30
0.0
 10
102.1784315065734
 20
-132.5211099929114
 30
0.0
 10
102.1784315065734
 20
-132.5211099929114
 30
0.0
 10
101.9906738026273
 20
-132.501817458194
 30
0.0
 10
101.9906738026273
 20
-132.501817458194
 30
0.0
 10
101.9906738026273
 20
-132.501817458194
 30
0.0
 10
102.1195203737757
 20
-131.6557020070166
 30
0.0
 10
102.1195203737757
 20
-131.6557020070166
 30
0.0
 10
102.1195203737757
 20
-131.6557020070166
 30
0.0
 10
102.9515109334635
 20
-131.6557020070166
 30
0.0
 10
102.9515109334635
 20
-131.6557020070166
 30
0.0
 10
102.9515109334635
 20
-131.6557020070166
 30
0.0
 10
102.9515109334635
 20
-131.8500053923847
 30
0.0
 10
102.9515109334635
 20
-131.8500053923847
 30
0.0
 10
102.9515109334635
 20
-131.8500053923847
 30
0.0
 10
102.2938422053293
 20
-131.8500053923847
 30
0.0
 10
102.2938422053293
 20
-131.8500053923847
 30
0.0
 10
102.2938422053293
 20
-131.8500053923847
 30
0.0
 10
102.2235622574302
 20
-132.2730631179734
 30
0.0
 10
102.2235622574302
 20
-132.2730631179734
 30
0.0
 10
102.28901907165
 20
-132.239301182218
 30
0.0
 10
102.3772135160724
 20
-132.1993380745891
 30
0.0
 10
102.5039930299296
 20
-132.1993380745891
 30
0.0
 10
102.7751220446187
 20
-132.1993380745891
 30
0.0
 10
103.0283365627846
 20
-132.3853732307925
 30
0.0
 10
103.0283365627846
 20
-132.6988769199503
 30
0.0
 10
103.0283365627846
 20
-133.0158257045933
 30
0.0
 10
102.7889024265597
 20
-133.2507812166873
 30
0.0
 10
102.4654079604948
 20
-133.2507812166873
 30
0.0
  0
HATCH
  5
EF
330
D5
100
AcDbEntity
  8
_U+30EC_U+30A4_U+30E4_U+30FC 1
 62
   179
420
  2234388
100
AcDbHatch
 10
0.0
 20
0.0
 30
0.0
210
0.0
220
0.0
230
1.0
  2
SOLID
 70
     1
 71
     0
 91
        1
 92
        1
 93
        1
 72
     4
 94
        3
 73
     0
 74
     1
 95
       53
 96
       49
 40
0.0
 40
0.0
 40
0.0
 40
0.0
 40
1.0
 40
1.0
 40
1.0
 40
2.0
 40
2.0
 40
2.0
 40
3.0
 40
3.0
 40
3.0
 40
4.0
 40
4.0
 40
4.0
 40
5.0
 40
5.0
 40
5.0
 40
6.0
 40
6.0
 40
6.0
 40
7.0
 40
7.0
 40
7.0
 40
8.0
 40
8.0
 40
8.0
 40
9.0
 40
9.0
 40
9.0
 40
10.0
 40
10.0
 40
10.0
 40
11.0
 40
11.0
 40
11.0
 40
12.0
 40
12.0
 40
12.0
 40
13.0
 40
13.0
 40
13.0
 40
14.0
 40
14.0
 40
14.0
 40
15.0
 40
15.0
 40
15.0
 40
16.0
 40
16.0
 40
16.0
 40
16.0
 10
102.4654079604948
 20
-133.2507812166873
 10
102.3816921402032
 20
-133.2507812166873
 10
102.2735161419664
 20
-133.233555739261
 10
102.1646511246325
 20
-133.1701659823325
 10
101.979304987526
 20
-133.0606119459015
 10
101.9569118668719
 20
-132.929009298365
 10
101.9365858035089
 20
-132.8215223192252
 10
101.9365858035089
 20
-132.8215223192252
 10
102.1739528824426
 20
-132.8215223192252
 10
102.1739528824426
 20
-132.8215223192252
 10
102.2325195056919
 20
-133.0199598191756
 10
102.3682562678107
 20
-133.0495876403487
 10
102.4678195273344
 20
-133.0495876403487
 10
102.6169921618458
 20
-133.0495876403487
 10
102.7799451782981
 20
-132.9503688903735
 10
102.7799451782981
 20
-132.7174804355706
 10
102.7799451782981
 20
-132.4618543505651
 10
102.5877088502211
 20
-132.391574402666
 10
102.4588622790728
 20
-132.391574402666
 10
102.4247558337688
 20
-132.391574402666
 10
102.2735161419664
 20
-132.391574402666
 10
102.1784315065734
 20
-132.5211099929114
 10
102.1784315065734
 20
-132.5211099929114
 10
101.9906738026273
 20
-132.501817458194
 10
101.9906738026273
 20
-132.501817458194
 10
101.9906738026273
 20
-132.501817458194
 10
102.1195203737757
 20
-131.6557020070166
 10
102.1195203737757
 20
-131.6557020070166
 10
102.1195203737757
 20
-131.6557020070166
 10
102.9515109334635
 20
-131.6557020070166
 10
102.9515109334635
 20
-131.6557020070166
 10
102.9515109334635
 20
-131.6557020070166
 10
102.9515109334635
 20
-131.8500053923847
 10
102.9515109334635
 20
-131.8500053923847
 10
102.9515109334635
 20
-131.8500053923847
 10
102.2938422053293
 20
-131.8500053923847
 10
102.2938422053293
 20
-131.8500053923847
 10
102.2938422053293
 20
-131.8500053923847
 10
102.2235622574302
 20
-132.2730631179734
 10
102.2235622574302
 20
-132.2730631179734
 10
102.28901907165
 20
-132.239301182218
 10
102.3772135160724
 20
-132.1993380745891
 10
102.5039930299296
 20
-132.1993380745891
 10
102.7751220446187
 20
-132.1993380745891
 10
103.0283365627846
 20
-132.3853732307925
 10
103.0283365627846
 20
-132.6988769199503
 10
103.0283365627846
 20
-133.0158257045933
 10
102.7889024265597
 20
-133.2507812166873
 10
102.4654079604948
 20
-133.2507812166873
 97
        0
 97
        0
 75
     2
 76
     1
 98
        0
  0
SPLINE
  5
F0
330
D5
100
AcDbEntity
  8
_U+30EC_U+30A4_U+30E4_U+30FC 1
370
     0
100
AcDbSpline
210
0.0
220
0.0
230
1.0
 70
    11
 71
     3
 72
    53
 73
    49
 74
     0
 42
0.0000000001
 43
0.0000000001
 12
1.0
 22
0.0
 32
0.0
 13
1.0
 23
0.0
 33
0.0
 40
0.0
 40
0.0
 40
0.0
 40
0.0
 40
1.0
 40
1.0
 40
1.0
 40
2.0
 40
2.0
 40
2.0
 40
3.0
 40
3.0
 40
3.0
 40
4.0
 40
4.0
 40
4.0
 40
5.0
 40
5.0
 40
5.0
 40
6.0
 40
6.0
 40
6.0
 40
7.0
 40
7.0
 40
7.0
 40
8.0
 40
8.0
 40
8.0
 40
9.0
 40
9.0
 40
9.0
 40
10.0
 40
10.0
 40
10.0
 40
11.0
 40
11.0
 40
11.0
 40
12.0
 40
12.0
 40
12.0
 40
13.0
 40
13.0
 40
13.0
 40
14.0
 40
14.0
 40
14.0
 40
15.0
 40
15.0
 40
15.0
 40
16.0
 40
16.0
 40
16.0
 40
16.0
 10
103.7232123221595
 20
-133.2507812166873
 30
0.0
 10
103.6398410114164
 20
-133.2507812166873
 30
0.0
 10
103.5309759940825
 20
-133.233555739261
 30
0.0
 10
103.4227999958457
 20
-133.1701659823325
 30
0.0
 10
103.2371093491907
 20
-133.0606119459015
 30
0.0
 10
103.2147162285366
 20
-132.929009298365
 30
0.0
 10
103.1943901651736
 20
-132.8215223192252
 30
0.0
 10
103.1943901651736
 20
-132.8215223192252
 30
0.0
 10
103.4317572441073
 20
-132.8215223192252
 30
0.0
 10
103.4317572441073
 20
-132.8215223192252
 30
0.0
 10
103.4903238673566
 20
-133.0199598191756
 30
0.0
 10
103.6260606294754
 20
-133.0495876403487
 30
0.0
 10
103.7256238889992
 20
-133.0495876403487
 30
0.0
 10
103.8747965235105
 20
-133.0495876403487
 30
0.0
 10
104.0374050304143
 20
-132.9503688903735
 30
0.0
 10
104.0374050304143
 20
-132.7174804355706
 30
0.0
 10
104.0374050304143
 20
-132.4618543505651
 30
0.0
 10
103.8455132118858
 20
-132.391574402666
 30
0.0
 10
103.7166666407375
 20
-132.391574402666
 30
0.0
 10
103.6825601954335
 20
-132.391574402666
 30
0.0
 10
103.5309759940825
 20
-132.391574402666
 30
0.0
 10
103.4362358682382
 20
-132.5211099929114
 30
0.0
 10
103.4362358682382
 20
-132.5211099929114
 30
0.0
 10
103.2484781642921
 20
-132.501817458194
 30
0.0
 10
103.2484781642921
 20
-132.501817458194
 30
0.0
 10
103.2484781642921
 20
-132.501817458194
 30
0.0
 10
103.3773247354404
 20
-131.6557020070166
 30
0.0
 10
103.3773247354404
 20
-131.6557020070166
 30
0.0
 10
103.3773247354404
 20
-131.6557020070166
 30
0.0
 10
104.2093152951282
 20
-131.6557020070166
 30
0.0
 10
104.2093152951282
 20
-131.6557020070166
 30
0.0
 10
104.2093152951282
 20
-131.6557020070166
 30
0.0
 10
104.2093152951282
 20
-131.8500053923847
 30
0.0
 10
104.2093152951282
 20
-131.8500053923847
 30
0.0
 10
104.2093152951282
 20
-131.8500053923847
 30
0.0
 10
103.551646566994
 20
-131.8500053923847
 30
0.0
 10
103.551646566994
 20
-131.8500053923847
 30
0.0
 10
103.551646566994
 20
-131.8500053923847
 30
0.0
 10
103.4813666190949
 20
-132.2730631179734
 30
0.0
 10
103.4813666190949
 20
-132.2730631179734
 30
0.0
 10
103.5468234333147
 20
-132.239301182218
 30
0.0
 10
103.6350178777371
 20
-132.1993380745891
 30
0.0
 10
103.7617973915943
 20
-132.1993380745891
 30
0.0
 10
104.0329264062834
 20
-132.1993380745891
 30
0.0
 10
104.2861409244493
 20
-132.3853732307925
 30
0.0
 10
104.2861409244493
 20
-132.6988769199503
 30
0.0
 10
104.2861409244493
 20
-133.0158257045933
 30
0.0
 10
104.0467067882244
 20
-133.2507812166873
 30
0.0
 10
103.7232123221595
 20
-133.2507812166873
 30
0.0
  0
HATCH
  5
F1
330
D5
100
AcDbEntity
  8
_U+30EC_U+30A4_U+30E4_U+30FC 1
 62
   179
420
  2234388
100
AcDbHatch
 10
0.0
 20
0.0
 30
0.0
210
0.0
220
0.0
230
1.0
  2
SOLID
 70
     1
 71
     0
 91
        1
 92
        1
 93
        1
 72
     4
 94
        3
 73
     0
 74
     1
 95
       53
 96
       49
 40
0.0
 40
0.0
 40
0.0
 40
0.0
 40
1.0
 40
1.0
 40
1.0
 40
2.0
 40
2.0
 40
2.0
 40
3.0
 40
3.0
 40
3.0
 40
4.0
 40
4.0
 40
4.0
 40
5.0
 40
5.0
 40
5.0
 40
6.0
 40
6.0
 40
6.0
 40
7.0
 40
7.0
 40
7.0
 40
8.0
 40
8.0
 40
8.0
 40
9.0
 40
9.0
 40
9.0
 40
10.0
 40
10.0
 40
10.0
 40
11.0
 40
11.0
 40
11.0
 40
12.0
 40
12.0
 40
12.0
 40
13.0
 40
13.0
 40
13.0
 40
14.0
 40
14.0
 40
14.0
 40
15.0
 40
15.0
 40
15.0
 40
16.0
 40
16.0
 40
16.0
 40
16.0
 10
103.7232123221595
 20
-133.2507812166873
 10
103.6398410114164
 20
-133.2507812166873
 10
103.5309759940825
 20
-133.233555739261
 10
103.4227999958457
 20
-133.1701659823325
 10
103.2371093491907
 20
-133.0606119459015
 10
103.2147162285366
 20
-132.929009298365
 10
103.1943901651736
 20
-132.8215223192252
 10
103.1943901651736
 20
-132.8215223192252
 10
103.4317572441073
 20
-132.8215223192252
 10
103.4317572441073
 20
-132.8215223192252
 10
103.4903238673566
 20
-133.0199598191756
 10
103.6260606294754
 20
-133.0495876403487
 10
103.7256238889992
 20
-133.0495876403487
 10
103.8747965235105
 20
-133.0495876403487
 10
104.0374050304143
 20
-132.9503688903735
 10
104.0374050304143
 20
-132.7174804355706
 10
104.0374050304143
 20
-132.4618543505651
 10
103.8455132118858
 20
-132.391574402666
 10
103.7166666407375
 20
-132.391574402666
 10
103.6825601954335
 20
-132.391574402666
 10
103.5309759940825
 20
-132.391574402666
 10
103.4362358682382
 20
-132.5211099929114
 10
103.4362358682382
 20
-132.5211099929114
 10
103.2484781642921
 20
-132.501817458194
 10
103.2484781642921
 20
-132.501817458194
 10
103.2484781642921
 20
-132.501817458194
 10
103.3773247354404
 20
-131.6557020070166
 10
103.3773247354404
 20
-131.6557020070166
 10
103.3773247354404
 20
-131.6557020070166
 10
104.2093152951282
 20
-131.6557020070166
 10
104.2093152951282
 20
-131.6557020070166
 10
104.2093152951282
 20
-131.6557020070166
 10
104.2093152951282
 20
-131.8500053923847
 10
104.2093152951282
 20
-131.8500053923847
 10
104.2093152951282
 20
-131.8500053923847
 10
103.551646566994
 20
-131.8500053923847
 10
103.551646566994
 20
-131.8500053923847
 10
103.551646566994
 20
-131.8500053923847
 10
103.4813666190949
 20
-132.2730631179734
 10
103.4813666190949
 20
-132.2730631179734
 10
103.5468234333147
 20
-132.239301182218
 10
103.6350178777371
 20
-132.1993380745891
 10
103.7617973915943
 20
-132.1993380745891
 10
104.0329264062834
 20
-132.1993380745891
 10
104.2861409244493
 20
-132.3853732307925
 10
104.2861409244493
 20
-132.6988769199503
 10
104.2861409244493
 20
-133.0158257045933
 10
104.0467067882244
 20
-133.2507812166873
 10
103.7232123221595
 20
-133.2507812166873
 97
        0
 97
        0
 75
     2
 76
     1
 98
        0
  0
ENDBLK
  5
D8
330
D5
100
AcDbEntity
  8
0
100
AcDbBlockEnd
  0
ENDSEC
  0
SECTION
  2
ENTITIES
  0
SPLINE
  5
41
330
1F
100
AcDbEntity
  8
_U+30EC_U+30A4_U+30E4_U+30FC 1
370
     0
100
AcDbSpline
210
0.0
220
0.0
230
1.0
 70
    11
 71
     3
 72
    17
 73
    13
 74
     0
 42
0.0000000001
 43
0.0000000001
 12
1.0
 22
0.0
 32
0.0
 13
1.0
 23
0.0
 33
0.0
 40
0.0
 40
0.0
 40
0.0
 40
0.0
 40
1.0
 40
1.0
 40
1.0
 40
2.0
 40
2.0
 40
2.0
 40
3.0
 40
3.0
 40
3.0
 40
4.0
 40
4.0
 40
4.0
 40
4.0
 10
63.96337197926954
 20
-142.8822319087241
 30
0.0
 10
63.96337197926954
 20
-142.9649230198143
 30
0.0
 10
63.89585031432549
 20
-143.0320919086862
 30
0.0
 10
63.81315920532401
 20
-143.0320919086862
 30
0.0
 10
63.7308208740913
 20
-143.0320919086862
 30
0.0
 10
63.66365198691604
 20
-142.9649230198143
 30
0.0
 10
63.66365198691604
 20
-142.8822319087241
 30
0.0
 10
63.66365198691604
 20
-142.7995407976332
 30
0.0
 10
63.7308208740913
 20
-142.7323719087613
 30
0.0
 10
63.81315920532401
 20
-142.7323719087613
 30
0.0
 10
63.89585031432549
 20
-142.7323719087613
 30
0.0
 10
63.96337197926954
 20
-142.7995407976332
 30
0.0
 10
63.96337197926954
 20
-142.8822319087241
 30
0.0
  0
HATCH
  5
42
330
1F
100
AcDbEntity
  8
_U+30EC_U+30A4_U+30E4_U+30FC 1
 62
   179
420
  2234388
100
AcDbHatch
 10
0.0
 20
0.0
 30
0.0
210
0.0
220
0.0
230
1.0
  2
SOLID
 70
     1
 71
     0
 91
        1
 92
        1
 93
        2
 72
     4
 94
        3
 73
     0
 74
     0
 95
       17
 96
       13
 40
0.0
 40
0.0
 40
0.0
 40
0.0
 40
0.3527777776895833
 40
0.3527777776895833
 40
0.3527777776895833
 40
0.7055555553791667
 40
0.7055555553791667
 40
0.7055555553791667
 40
1.05833333306875
 40
1.05833333306875
 40
1.05833333306875
 40
1.411111110758333
 40
1.411111110758333
 40
1.411111110758333
 40
1.411111110758333
 10
63.96337197926954
 20
-142.8822319087241
 10
63.96337197926954
 20
-142.9649230198143
 10
63.89585031432549
 20
-143.0320919086862
 10
63.81315920532401
 20
-143.0320919086862
 10
63.7308208740913
 20
-143.0320919086862
 10
63.66365198691604
 20
-142.9649230198143
 10
63.66365198691604
 20
-142.8822319087241
 10
63.66365198691604
 20
-142.7995407976332
 10
63.7308208740913
 20
-142.7323719087613
 10
63.81315920532401
 20
-142.7323719087613
 10
63.89585031432549
 20
-142.7323719087613
 10
63.96337197926954
 20
-142.7995407976332
 10
63.96337197926954
 20
-142.8822319087241
 97
        0
 72
     1
 10
63.96337197926954
 20
-142.8822319087241
 11
63.96337197926954
 21
-142.8822319087241
 97
        0
 75
     2
 76
     1
 98
        0
  0
SPLINE
  5
43
330
1F
100
AcDbEntity
  8
_U+30EC_U+30A4_U+30E4_U+30FC 1
370
     0
100
AcDbSpline
210
0.0
220
0.0
230
1.0
 70
    11
 71
     3
 72
    17
 73
    13
 74
     0
 42
0.0000000001
 43
0.0000000001
 12
1.0
 22
0.0
 32
0.0
 13
1.0
 23
0.0
 33
0.0
 40
0.0
 40
0.0
 40
0.0
 40
0.0
 40
1.0
 40
1.0
 40
1.0
 40
2.0
 40
2.0
 40
2.0
 40
3.0
 40
3.0
 40
3.0
 40
4.0
 40
4.0
 40
4.0
 40
4.0
 10
85.33433171182871
 20
-125.2371341353575
 30
0.0
 10
85.33433171182871
 20
-125.3198252464477
 30
0.0
 10
85.26681004688467
 20
-125.38699413532
 30
0.0
 10
85.18482449342073
 20
-125.38699413532
 30
0.0
 10
85.10178060665048
 20
-125.38699413532
 30
0.0
 10
85.03461386763013
 20
-125.3198252464477
 30
0.0
 10
85.03461386763013
 20
-125.2371341353575
 30
0.0
 10
85.03461386763013
 20
-125.1541255242671
 30
0.0
 10
85.10178060665048
 20
-125.0872741353948
 30
0.0
 10
85.18482449342073
 20
-125.0872741353948
 30
0.0
 10
85.26681004688467
 20
-125.0872741353948
 30
0.0
 10
85.33433171182871
 20
-125.1541255242671
 30
0.0
 10
85.33433171182871
 20
-125.2371341353575
 30
0.0
  0
HATCH
  5
44
330
1F
100
AcDbEntity
  8
_U+30EC_U+30A4_U+30E4_U+30FC 1
 62
   179
420
  2234388
100
AcDbHatch
 10
0.0
 20
0.0
 30
0.0
210
0.0
220
0.0
230
1.0
  2
SOLID
 70
     1
 71
     0
 91
        1
 92
        1
 93
        2
 72
     4
 94
        3
 73
     0
 74
     0
 95
       17
 96
       13
 40
0.0
 40
0.0
 40
0.0
 40
0.0
 40
0.3527777776895833
 40
0.3527777776895833
 40
0.3527777776895833
 40
0.7055555553791667
 40
0.7055555553791667
 40
0.7055555553791667
 40
1.05833333306875
 40
1.05833333306875
 40
1.05833333306875
 40
1.411111110758333
 40
1.411111110758333
 40
1.411111110758333
 40
1.411111110758333
 10
85.33433171182871
 20
-125.2371341353575
 10
85.33433171182871
 20
-125.3198252464477
 10
85.26681004688467
 20
-125.38699413532
 10
85.18482449342073
 20
-125.38699413532
 10
85.10178060665048
 20
-125.38699413532
 10
85.03461386763013
 20
-125.3198252464477
 10
85.03461386763013
 20
-125.2371341353575
 10
85.03461386763013
 20
-125.1541255242671
 10
85.10178060665048
 20
-125.0872741353948
 10
85.18482449342073
 20
-125.0872741353948
 10
85.26681004688467
 20
-125.0872741353948
 10
85.33433171182871
 20
-125.1541255242671
 10
85.33433171182871
 20
-125.2371341353575
 97
        0
 72
     1
 10
85.33433171182871
 20
-125.2371341353575
 11
85.33433171182871
 21
-125.2371341353575
 97
        0
 75
     2
 76
     1
 98
        0
  0
SPLINE
  5
45
330
1F
100
AcDbEntity
  8
_U+30EC_U+30A4_U+30E4_U+30FC 1
370
     0
100
AcDbSpline
210
0.0
220
0.0
230
1.0
 70
    11
 71
     3
 72
    17
 73
    13
 74
     0
 42
0.0000000001
 43
0.0000000001
 12
1.0
 22
0.0
 32
0.0
 13
1.0
 23
0.0
 33
0.0
 40
0.0
 40
0.0
 40
0.0
 40
0.0
 40
1.0
 40
1.0
 40
1.0
 40
2.0
 40
2.0
 40
2.0
 40
3.0
 40
3.0
 40
3.0
 40
4.0
 40
4.0
 40
4.0
 40
4.0
 10
121.5826002315028
 20
-135.5655502438865
 30
0.0
 10
121.5826002315028
 20
-135.6475357994212
 30
0.0
 10
121.5157488443194
 20
-135.7150574660715
 30
0.0
 10
121.4330577353179
 20
-135.7150574660715
 30
0.0
 10
121.3496963485558
 20
-135.7150574660715
 30
0.0
 10
121.2828449613724
 20
-135.6475357994212
 30
0.0
 10
121.2828449613724
 20
-135.5655502438865
 30
0.0
 10
121.2828449613724
 20
-135.4825063550186
 30
0.0
 10
121.3496963485558
 20
-135.415337466146
 30
0.0
 10
121.4330577353179
 20
-135.415337466146
 30
0.0
 10
121.5157488443194
 20
-135.415337466146
 30
0.0
 10
121.5826002315028
 20
-135.4825063550186
 30
0.0
 10
121.5826002315028
 20
-135.5655502438865
 30
0.0
  0
HATCH
  5
46
330
1F
100
AcDbEntity
  8
_U+30EC_U+30A4_U+30E4_U+30FC 1
 62
   179
420
  2234388
100
AcDbHatch
 10
0.0
 20
0.0
 30
0.0
210
0.0
220
0.0
230
1.0
  2
SOLID
 70
     1
 71
     0
 91
        1
 92
        1
 93
        2
 72
     4
 94
        3
 73
     0
 74
     0
 95
       17
 96
       13
 40
0.0
 40
0.0
 40
0.0
 40
0.0
 40
0.3527777776895833
 40
0.3527777776895833
 40
0.3527777776895833
 40
0.7055555553791667
 40
0.7055555553791667
 40
0.7055555553791667
 40
1.05833333306875
 40
1.05833333306875
 40
1.05833333306875
 40
1.411111110758333
 40
1.411111110758333
 40
1.411111110758333
 40
1.411111110758333
 10
121.5826002315028
 20
-135.5655502438865
 10
121.5826002315028
 20
-135.6475357994212
 10
121.5157488443194
 20
-135.7150574660715
 10
121.4330577353179
 20
-135.7150574660715
 10
121.3496963485558
 20
-135.7150574660715
 10
121.2828449613724
 20
-135.6475357994212
 10
121.2828449613724
 20
-135.5655502438865
 10
121.2828449613724
 20
-135.4825063550186
 10
121.3496963485558
 20
-135.415337466146
 10
121.4330577353179
 20
-135.415337466146
 10
121.5157488443194
 20
-135.415337466146
 10
121.5826002315028
 20
-135.4825063550186
 10
121.5826002315028
 20
-135.5655502438865
 97
        0
 72
     1
 10
121.5826002315028
 20
-135.5655502438865
 11
121.5826002315028
 21
-135.5655502438865
 97
        0
 75
     2
 76
     1
 98
        0
  0
POLYLINE
  5
47
330
1F
100
AcDbEntity
  8
_U+30EC_U+30A4_U+30E4_U+30FC 1
 62
   179
420
  2234388
370
    25
100
AcDb2dPolyline
 66
     1
 10
0.0
 20
0.0
 30
0.0
  0
VERTEX
  5
48
330
47
100
AcDbEntity
  8
_U+30EC_U+30A4_U+30E4_U+30FC 1
 62
   179
420
  2234388
370
    25
100
AcDbVertex
100
AcDb2dVertex
 10
125.4693292990107
 20
-124.9577341354273
 30
0.0
  0
VERTEX
  5
49
330
47
100
AcDbEntity
  8
_U+30EC_U+30A4_U+30E4_U+30FC 1
 62
   179
420
  2234388
370
    25
100
AcDbVertex
100
AcDb2dVertex
 10
125.6071595732722
 20
-125.399059135317
 30
0.0
  0
VERTEX
  5
4A
330
47
100
AcDbEntity
  8
_U+30EC_U+30A4_U+30E4_U+30FC 1
 62
   179
420
  2234388
370
    25
100
AcDbVertex
100
AcDb2dVertex
 10
125.6071595732722
 20
-125.5037988575128
 30
0.0
  0
VERTEX
  5
4B
330
47
100
AcDbEntity
  8
_U+30EC_U+30A4_U+30E4_U+30FC 1
 62
   179
420
  2234388
370
    25
100
AcDbVertex
100
AcDb2dVertex
 10
122.1089799402959
 20
-128.3907910790134
 30
0.0
  0
VERTEX
  5
4C
330
47
100
AcDbEntity
  8
_U+30EC_U+30A4_U+30E4_U+30FC 1
 62
   179
420
  2234388
370
    25
100
AcDbVertex
100
AcDb2dVertex
 10
122.1089799402959
 20
-128.4927438567656
 30
0.0
  0
VERTEX
  5
4D
330
47
100
AcDbEntity
  8
_U+30EC_U+30A4_U+30E4_U+30FC 1
 62
   179
420
  2234388
370
    25
100
AcDbVertex
100
AcDb2dVertex
 10
122.1062282736995
 20
-128.5258344123131
 30
0.0
  0
VERTEX
  5
4E
330
47
100
AcDbEntity
  8
_U+30EC_U+30A4_U+30E4_U+30FC 1
 62
   179
420
  2234388
370
    25
100
AcDbVertex
100
AcDb2dVertex
 10
122.0986435516708
 20
-128.5568435789718
 30
0.0
  0
VERTEX
  5
4F
330
47
100
AcDbEntity
  8
_U+30EC_U+30A4_U+30E4_U+30FC 1
 62
   179
420
  2234388
370
    25
100
AcDbVertex
100
AcDb2dVertex
 10
122.0855554964491
 20
-128.5843955234096
 30
0.0
  0
VERTEX
  5
50
330
47
100
AcDbEntity
  8
_U+30EC_U+30A4_U+30E4_U+30FC 1
 62
   179
420
  2234388
370
    25
100
AcDbVertex
100
AcDb2dVertex
 10
122.0690454968703
 20
-128.6016110789607
 30
0.0
  0
SEQEND
  5
51
330
47
100
AcDbEntity
  8
_U+30EC_U+30A4_U+30E4_U+30FC 1
 62
   179
420
  2234388
370
    25
  0
POLYLINE
  5
52
330
1F
100
AcDbEntity
  8
_U+30EC_U+30A4_U+30E4_U+30FC 1
 62
   179
420
  2234388
370
    25
100
AcDb2dPolyline
 66
     1
 10
0.0
 20
0.0
 30
0.0
  0
VERTEX
  5
53
330
52
100
AcDbEntity
  8
_U+30EC_U+30A4_U+30E4_U+30FC 1
 62
   179
420
  2234388
370
    25
100
AcDbVertex
100
AcDb2dVertex
 10
121.6583768962362
 20
-130.4309755229477
 30
0.0
  0
VERTEX
  5
54
330
52
100
AcDbEntity
  8
_U+30EC_U+30A4_U+30E4_U+30FC 1
 62
   179
420
  2234388
370
    25
100
AcDbVertex
100
AcDb2dVertex
 10
121.648040507611
 20
-130.459233022941
 30
0.0
  0
VERTEX
  5
55
330
52
100
AcDbEntity
  8
_U+30EC_U+30A4_U+30E4_U+30FC 1
 62
   179
420
  2234388
370
    25
100
AcDbVertex
100
AcDb2dVertex
 10
121.6363282856876
 20
-130.4805760784911
 30
0.0
  0
VERTEX
  5
56
330
52
100
AcDbEntity
  8
_U+30EC_U+30A4_U+30E4_U+30FC 1
 62
   179
420
  2234388
370
    25
100
AcDbVertex
100
AcDb2dVertex
 10
121.6273677303607
 20
-130.4922883007104
 30
0.0
  0
VERTEX
  5
57
330
52
100
AcDbEntity
  8
_U+30EC_U+30A4_U+30E4_U+30FC 1
 62
   179
420
  2234388
370
    25
100
AcDbVertex
100
AcDb2dVertex
 10
121.6184071750337
 20
-130.5047060784851
 30
0.0
  0
VERTEX
  5
58
330
52
100
AcDbEntity
  8
_U+30EC_U+30A4_U+30E4_U+30FC 1
 62
   179
420
  2234388
370
    25
100
AcDbVertex
100
AcDb2dVertex
 10
121.6101521752443
 20
-130.5115852451502
 30
0.0
  0
VERTEX
  5
59
330
52
100
AcDbEntity
  8
_U+30EC_U+30A4_U+30E4_U+30FC 1
 62
   179
420
  2234388
370
    25
100
AcDbVertex
100
AcDb2dVertex
 10
121.6074005086479
 20
-130.5150424673715
 30
0.0
  0
VERTEX
  5
5A
330
52
100
AcDbEntity
  8
_U+30EC_U+30A4_U+30E4_U+30FC 1
 62
   179
420
  2234388
370
    25
100
AcDbVertex
100
AcDb2dVertex
 10
121.0909721919495
 20
-130.836811078402
 30
0.0
  0
SEQEND
  5
5B
330
52
100
AcDbEntity
  8
_U+30EC_U+30A4_U+30E4_U+30FC 1
 62
   179
420
  2234388
370
    25
  0
POLYLINE
  5
5C
330
1F
100
AcDbEntity
  8
_U+30EC_U+30A4_U+30E4_U+30FC 1
 62
   179
420
  2234388
370
    25
100
AcDb2dPolyline
 66
     1
 10
0.0
 20
0.0
 30
0.0
  0
VERTEX
  5
5D
330
5C
100
AcDbEntity
  8
_U+30EC_U+30A4_U+30E4_U+30FC 1
 62
   179
420
  2234388
370
    25
100
AcDbVertex
100
AcDb2dVertex
 10
84.8196289471821
 20
-117.9731574705066
 30
0.0
  0
VERTEX
  5
5E
330
5C
100
AcDbEntity
  8
_U+30EC_U+30A4_U+30E4_U+30FC 1
 62
   179
420
  2234388
370
    25
100
AcDbVertex
100
AcDb2dVertex
 10
82.25440540151529
 20
-113.1503677494903
 30
0.0
  0
SEQEND
  5
5F
330
5C
100
AcDbEntity
  8
_U+30EC_U+30A4_U+30E4_U+30FC 1
 62
   179
420
  2234388
370
    25
  0
POLYLINE
  5
60
330
1F
100
AcDbEntity
  8
_U+30EC_U+30A4_U+30E4_U+30FC 1
 62
   179
420
  2234388
370
    25
100
AcDb2dPolyline
 66
     1
 10
0.0
 20
0.0
 30
0.0
  0
VERTEX
  5
61
330
60
100
AcDbEntity
  8
_U+30EC_U+30A4_U+30E4_U+30FC 1
 62
   179
420
  2234388
370
    25
100
AcDbVertex
100
AcDb2dVertex
 10
63.42005893757506
 20
-137.800044687772
 30
0.0
  0
VERTEX
  5
62
330
60
100
AcDbEntity
  8
_U+30EC_U+30A4_U+30E4_U+30FC 1
 62
   179
420
  2234388
370
    25
100
AcDbVertex
100
AcDb2dVertex
 10
63.43247671503603
 20
-137.824844965544
 30
0.0
  0
VERTEX
  5
63
330
60
100
AcDbEntity
  8
_U+30EC_U+30A4_U+30E4_U+30FC 1
 62
   179
420
  2234388
370
    25
100
AcDbVertex
100
AcDb2dVertex
 10
63.44831643685415
 20
-137.8489396877598
 30
0.0
  0
VERTEX
  5
64
330
60
100
AcDbEntity
  8
_U+30EC_U+30A4_U+30E4_U+30FC 1
 62
   179
420
  2234388
370
    25
100
AcDbVertex
100
AcDb2dVertex
 10
63.46761338080628
 20
-137.8675663544223
 30
0.0
  0
VERTEX
  5
65
330
60
100
AcDbEntity
  8
_U+30EC_U+30A4_U+30E4_U+30FC 1
 62
   179
420
  2234388
370
    25
100
AcDbVertex
100
AcDb2dVertex
 10
63.48278282486373
 20
-137.8765269099751
 30
0.0
  0
VERTEX
  5
66
330
60
100
AcDbEntity
  8
_U+30EC_U+30A4_U+30E4_U+30FC 1
 62
   179
420
  2234388
370
    25
100
AcDbVertex
100
AcDb2dVertex
 10
63.49862254668184
 20
-137.8847819099731
 30
0.0
  0
VERTEX
  5
67
330
60
100
AcDbEntity
  8
_U+30EC_U+30A4_U+30E4_U+30FC 1
 62
   179
420
  2234388
370
    25
100
AcDbVertex
100
AcDb2dVertex
 10
63.51104032414282
 20
-137.8882391321944
 30
0.0
  0
VERTEX
  5
68
330
60
100
AcDbEntity
  8
_U+30EC_U+30A4_U+30E4_U+30FC 1
 62
   179
420
  2234388
370
    25
100
AcDbVertex
100
AcDb2dVertex
 10
63.51516942856554
 20
-137.8916610766381
 30
0.0
  0
VERTEX
  5
69
330
60
100
AcDbEntity
  8
_U+30EC_U+30A4_U+30E4_U+30FC 1
 62
   179
420
  2234388
370
    25
100
AcDbVertex
100
AcDb2dVertex
 10
64.07947114297427
 20
-138.1534927432396
 30
0.0
  0
SEQEND
  5
6A
330
60
100
AcDbEntity
  8
_U+30EC_U+30A4_U+30E4_U+30FC 1
 62
   179
420
  2234388
370
    25
  0
POLYLINE
  5
6B
330
1F
100
AcDbEntity
  8
_U+30EC_U+30A4_U+30E4_U+30FC 1
 62
   179
420
  2234388
370
    25
100
AcDb2dPolyline
 66
     1
 10
0.0
 20
0.0
 30
0.0
  0
VERTEX
  5
6C
330
6B
100
AcDbEntity
  8
_U+30EC_U+30A4_U+30E4_U+30FC 1
 62
   179
420
  2234388
370
    25
100
AcDbVertex
100
AcDb2dVertex
 10
56.70973331915604
 20
-134.1378938553541
 30
0.0
  0
VERTEX
  5
6D
330
6B
100
AcDbEntity
  8
_U+30EC_U+30A4_U+30E4_U+30FC 1
 62
   179
420
  2234388
370
    25
100
AcDbVertex
100
AcDb2dVertex
 10
56.70973331915604
 20
-134.2419280219951
 30
0.0
  0
VERTEX
  5
6E
330
6B
100
AcDbEntity
  8
_U+30EC_U+30A4_U+30E4_U+30FC 1
 62
   179
420
  2234388
370
    25
100
AcDbVertex
100
AcDb2dVertex
 10
62.66144720655672
 20
-135.9390007993488
 30
0.0
  0
VERTEX
  5
6F
330
6B
100
AcDbEntity
  8
_U+30EC_U+30A4_U+30E4_U+30FC 1
 62
   179
420
  2234388
370
    25
100
AcDbVertex
100
AcDb2dVertex
 10
62.66144720655672
 20
-136.0416591326562
 30
0.0
  0
VERTEX
  5
70
330
6B
100
AcDbEntity
  8
_U+30EC_U+30A4_U+30E4_U+30FC 1
 62
   179
420
  2234388
370
    25
100
AcDbVertex
100
AcDb2dVertex
 10
62.66765451232605
 20
-136.0733385770927
 30
0.0
  0
VERTEX
  5
71
330
6B
100
AcDbEntity
  8
_U+30EC_U+30A4_U+30E4_U+30FC 1
 62
   179
420
  2234388
370
    25
100
AcDbVertex
100
AcDb2dVertex
 10
62.6807425675477
 20
-136.101596077086
 30
0.0
  0
VERTEX
  5
72
330
6B
100
AcDbEntity
  8
_U+30EC_U+30A4_U+30E4_U+30FC 1
 62
   179
420
  2234388
370
    25
100
AcDbVertex
100
AcDb2dVertex
 10
62.70349673363386
 20
-136.122268854858
 30
0.0
  0
SEQEND
  5
73
330
6B
100
AcDbEntity
  8
_U+30EC_U+30A4_U+30E4_U+30FC 1
 62
   179
420
  2234388
370
    25
  0
POLYLINE
  5
74
330
1F
100
AcDbEntity
  8
_U+30EC_U+30A4_U+30E4_U+30FC 1
 62
   179
420
  2234388
370
    25
100
AcDb2dPolyline
 66
     1
 10
0.0
 20
0.0
 30
0.0
  0
VERTEX
  5
75
330
74
100
AcDbEntity
  8
_U+30EC_U+30A4_U+30E4_U+30FC 1
 62
   179
420
  2234388
370
    25
100
AcDbVertex
100
AcDb2dVertex
 10
121.0909721919495
 20
-130.836811078402
 30
0.0
  0
VERTEX
  5
76
330
74
100
AcDbEntity
  8
_U+30EC_U+30A4_U+30E4_U+30FC 1
 62
   179
420
  2234388
370
    25
100
AcDbVertex
100
AcDb2dVertex
 10
85.28402775645678
 20
-120.6944499698265
 30
0.0
  0
SEQEND
  5
77
330
74
100
AcDbEntity
  8
_U+30EC_U+30A4_U+30E4_U+30FC 1
 62
   179
420
  2234388
370
    25
  0
POLYLINE
  5
78
330
1F
100
AcDbEntity
  8
_U+30EC_U+30A4_U+30E4_U+30FC 1
 62
   179
420
  2234388
370
    25
100
AcDb2dPolyline
 66
     1
 10
0.0
 20
0.0
 30
0.0
  0
VERTEX
  5
79
330
78
100
AcDbEntity
  8
_U+30EC_U+30A4_U+30E4_U+30FC 1
 62
   179
420
  2234388
370
    25
100
AcDbVertex
100
AcDb2dVertex
 10
121.6184071750337
 20
-130.4509427451649
 30
0.0
  0
VERTEX
  5
7A
330
78
100
AcDbEntity
  8
_U+30EC_U+30A4_U+30E4_U+30FC 1
 62
   179
420
  2234388
370
    25
100
AcDbVertex
100
AcDb2dVertex
 10
85.04424255256284
 20
-120.028158581104
 30
0.0
  0
SEQEND
  5
7B
330
78
100
AcDbEntity
  8
_U+30EC_U+30A4_U+30E4_U+30FC 1
 62
   179
420
  2234388
370
    25
  0
SPLINE
  5
7C
330
1F
100
AcDbEntity
  8
_U+30EC_U+30A4_U+30E4_U+30FC 1
 62
   179
420
  2234388
370
    25
100
AcDbSpline
210
0.0
220
0.0
230
1.0
 70
     8
 71
     3
 72
    20
 73
    16
 74
     0
 42
0.0000000001
 43
0.0000000001
 12
1.0
 22
0.0
 32
0.0
 13
1.0
 23
0.0
 33
0.0
 40
0.0
 40
0.0
 40
0.0
 40
0.0
 40
1.0
 40
1.0
 40
1.0
 40
2.0
 40
2.0
 40
2.0
 40
3.0
 40
3.0
 40
3.0
 40
4.0
 40
4.0
 40
4.0
 40
5.0
 40
5.0
 40
5.0
 40
5.0
 10
85.02840283074472
 20
-119.993692192224
 30
0.0
 10
85.02840283074472
 20
-119.993692192224
 30
0.0
 10
121.6900563398725
 20
-130.4323513562806
 30
0.0
 10
121.6900563398725
 20
-130.4323513562806
 30
0.0
 10
121.6900563398725
 20
-130.4323513562806
 30
0.0
 10
121.723149969569
 20
-130.428223856282
 30
0.0
 10
121.7527833028952
 20
-130.4027180229551
 30
0.0
 10
121.7527833028952
 20
-130.4027180229551
 30
0.0
 10
122.1386132728733
 20
-130.0850769119232
 30
0.0
 10
122.1386132728733
 20
-130.0850769119232
 30
0.0
 10
122.1386132728733
 20
-130.0850769119232
 30
0.0
 10
122.1386132728733
 20
-128.6319499678421
 30
0.0
 10
122.1386132728733
 20
-128.6319499678421
 30
0.0
 10
122.1386132728733
 20
-128.6319499678421
 30
0.0
 10
84.71834644976603
 20
-117.9638441371756
 30
0.0
 10
84.71834644976603
 20
-117.9638441371756
 30
0.0
  0
POLYLINE
  5
7D
330
1F
100
AcDbEntity
  8
_U+30EC_U+30A4_U+30E4_U+30FC 1
 62
   179
420
  2234388
370
    25
100
AcDb2dPolyline
 66
     1
 10
0.0
 20
0.0
 30
0.0
  0
VERTEX
  5
7E
330
7D
100
AcDbEntity
  8
_U+30EC_U+30A4_U+30E4_U+30FC 1
 62
   179
420
  2234388
370
    25
100
AcDbVertex
100
AcDb2dVertex
 10
82.34588067695934
 20
-113.1813769161491
 30
0.0
  0
VERTEX
  5
7F
330
7D
100
AcDbEntity
  8
_U+30EC_U+30A4_U+30E4_U+30FC 1
 62
   179
420
  2234388
370
    25
100
AcDbVertex
100
AcDb2dVertex
 10
125.6071595732722
 20
-125.5037988575128
 30
0.0
  0
SEQEND
  5
80
330
7D
100
AcDbEntity
  8
_U+30EC_U+30A4_U+30E4_U+30FC 1
 62
   179
420
  2234388
370
    25
  0
POLYLINE
  5
81
330
1F
100
AcDbEntity
  8
_U+30EC_U+30A4_U+30E4_U+30FC 1
 62
   179
420
  2234388
370
    25
100
AcDb2dPolyline
 66
     1
 10
0.0
 20
0.0
 30
0.0
  0
VERTEX
  5
82
330
81
100
AcDbEntity
  8
_U+30EC_U+30A4_U+30E4_U+30FC 1
 62
   179
420
  2234388
370
    25
100
AcDbVertex
100
AcDb2dVertex
 10
125.4755381877412
 20
-124.9605210798709
 30
0.0
  0
VERTEX
  5
83
330
81
100
AcDbEntity
  8
_U+30EC_U+30A4_U+30E4_U+30FC 1
 62
   179
420
  2234388
370
    25
100
AcDbVertex
100
AcDb2dVertex
 10
83.2621150980287
 20
-112.9130188606607
 30
0.0
  0
VERTEX
  5
84
330
81
100
AcDbEntity
  8
_U+30EC_U+30A4_U+30E4_U+30FC 1
 62
   179
420
  2234388
370
    25
100
AcDbVertex
100
AcDb2dVertex
 10
82.25440540151529
 20
-113.1503677494903
 30
0.0
  0
SEQEND
  5
85
330
81
100
AcDbEntity
  8
_U+30EC_U+30A4_U+30E4_U+30FC 1
 62
   179
420
  2234388
370
    25
  0
POLYLINE
  5
86
330
1F
100
AcDbEntity
  8
_U+30EC_U+30A4_U+30E4_U+30FC 1
 62
   179
420
  2234388
370
    25
100
AcDb2dPolyline
 66
     1
 10
0.0
 20
0.0
 30
0.0
  0
VERTEX
  5
87
330
86
100
AcDbEntity
  8
_U+30EC_U+30A4_U+30E4_U+30FC 1
 62
   179
420
  2234388
370
    25
100
AcDbVertex
100
AcDb2dVertex
 10
122.1386132728733
 20
-130.0850769119232
 30
0.0
  0
VERTEX
  5
88
330
86
100
AcDbEntity
  8
_U+30EC_U+30A4_U+30E4_U+30FC 1
 62
   179
420
  2234388
370
    25
100
AcDbVertex
100
AcDb2dVertex
 10
84.71834644976603
 20
-119.4128788590356
 30
0.0
  0
SEQEND
  5
89
330
86
100
AcDbEntity
  8
_U+30EC_U+30A4_U+30E4_U+30FC 1
 62
   179
420
  2234388
370
    25
  0
POLYLINE
  5
8A
330
1F
100
AcDbEntity
  8
_U+30EC_U+30A4_U+30E4_U+30FC 1
 62
   179
420
  2234388
370
    25
100
AcDb2dPolyline
 66
     1
 10
0.0
 20
0.0
 30
0.0
  0
VERTEX
  5
8B
330
8A
100
AcDbEntity
  8
_U+30EC_U+30A4_U+30E4_U+30FC 1
 62
   179
420
  2234388
370
    25
100
AcDbVertex
100
AcDb2dVertex
 10
84.71834644976603
 20
-117.9638441371756
 30
0.0
  0
VERTEX
  5
8C
330
8A
100
AcDbEntity
  8
_U+30EC_U+30A4_U+30E4_U+30FC 1
 62
   179
420
  2234388
370
    25
100
AcDbVertex
100
AcDb2dVertex
 10
84.71834644976603
 20
-119.4128788590356
 30
0.0
  0
VERTEX
  5
8D
330
8A
100
AcDbEntity
  8
_U+30EC_U+30A4_U+30E4_U+30FC 1
 62
   179
420
  2234388
370
    25
100
AcDbVertex
100
AcDb2dVertex
 10
85.02840283074472
 20
-119.993692192224
 30
0.0
  0
SEQEND
  5
8E
330
8A
100
AcDbEntity
  8
_U+30EC_U+30A4_U+30E4_U+30FC 1
 62
   179
420
  2234388
370
    25
  0
POLYLINE
  5
8F
330
1F
100
AcDbEntity
  8
_U+30EC_U+30A4_U+30E4_U+30FC 1
 62
   179
420
  2234388
370
    25
100
AcDb2dPolyline
 66
     1
 10
0.0
 20
0.0
 30
0.0
  0
VERTEX
  5
90
330
8F
100
AcDbEntity
  8
_U+30EC_U+30A4_U+30E4_U+30FC 1
 62
   179
420
  2234388
370
    25
100
AcDbVertex
100
AcDb2dVertex
 10
85.28402775645678
 20
-120.6944499698265
 30
0.0
  0
VERTEX
  5
91
330
8F
100
AcDbEntity
  8
_U+30EC_U+30A4_U+30E4_U+30FC 1
 62
   179
420
  2234388
370
    25
100
AcDbVertex
100
AcDb2dVertex
 10
85.04907775651546
 20
-120.0701744144268
 30
0.0
  0
SEQEND
  5
92
330
8F
100
AcDbEntity
  8
_U+30EC_U+30A4_U+30E4_U+30FC 1
 62
   179
420
  2234388
370
    25
  0
POLYLINE
  5
93
330
1F
100
AcDbEntity
  8
_U+30EC_U+30A4_U+30E4_U+30FC 1
 62
   179
420
  2234388
370
    25
100
AcDb2dPolyline
 66
     1
 10
0.0
 20
0.0
 30
0.0
  0
VERTEX
  5
94
330
93
100
AcDbEntity
  8
_U+30EC_U+30A4_U+30E4_U+30FC 1
 62
   179
420
  2234388
370
    25
100
AcDbVertex
100
AcDb2dVertex
 10
64.07947114297427
 20
-138.1534927432396
 30
0.0
  0
VERTEX
  5
95
330
93
100
AcDbEntity
  8
_U+30EC_U+30A4_U+30E4_U+30FC 1
 62
   179
420
  2234388
370
    25
100
AcDbVertex
100
AcDb2dVertex
 10
85.21632754817259
 20
-120.7120183031553
 30
0.0
  0
SEQEND
  5
96
330
93
100
AcDbEntity
  8
_U+30EC_U+30A4_U+30E4_U+30FC 1
 62
   179
420
  2234388
370
    25
  0
POLYLINE
  5
97
330
1F
100
AcDbEntity
  8
_U+30EC_U+30A4_U+30E4_U+30FC 1
 62
   179
420
  2234388
370
    25
100
AcDb2dPolyline
 66
     1
 10
0.0
 20
0.0
 30
0.0
  0
VERTEX
  5
98
330
97
100
AcDbEntity
  8
_U+30EC_U+30A4_U+30E4_U+30FC 1
 62
   179
420
  2234388
370
    25
100
AcDbVertex
100
AcDb2dVertex
 10
63.47382226953678
 20
-137.831724132209
 30
0.0
  0
VERTEX
  5
99
330
97
100
AcDbEntity
  8
_U+30EC_U+30A4_U+30E4_U+30FC 1
 62
   179
420
  2234388
370
    25
100
AcDbVertex
100
AcDb2dVertex
 10
85.02840283074472
 20
-120.0536644144309
 30
0.0
  0
SEQEND
  5
9A
330
97
100
AcDbEntity
  8
_U+30EC_U+30A4_U+30E4_U+30FC 1
 62
   179
420
  2234388
370
    25
  0
SPLINE
  5
9B
330
1F
100
AcDbEntity
  8
_U+30EC_U+30A4_U+30E4_U+30FC 1
 62
   179
420
  2234388
370
    25
100
AcDbSpline
210
0.0
220
0.0
230
1.0
 70
     8
 71
     3
 72
    20
 73
    16
 74
     0
 42
0.0000000001
 43
0.0000000001
 12
1.0
 22
0.0
 32
0.0
 13
1.0
 23
0.0
 33
0.0
 40
0.0
 40
0.0
 40
0.0
 40
0.0
 40
1.0
 40
1.0
 40
1.0
 40
2.0
 40
2.0
 40
2.0
 40
3.0
 40
3.0
 40
3.0
 40
4.0
 40
4.0
 40
4.0
 40
5.0
 40
5.0
 40
5.0
 40
5.0
 10
85.02840283074472
 20
-119.993692192224
 30
0.0
 10
85.02840283074472
 20
-119.993692192224
 30
0.0
 10
63.40972254894987
 20
-137.8089699655479
 30
0.0
 10
63.40972254894987
 20
-137.8089699655479
 30
0.0
 10
63.40972254894987
 20
-137.8089699655479
 30
0.0
 10
63.35116143933278
 20
-137.8468935766496
 30
0.0
 10
63.32223366229301
 20
-137.8455177433167
 30
0.0
 10
63.32223366229301
 20
-137.8455177433167
 30
0.0
 10
62.61184506930542
 20
-137.6422471878115
 30
0.0
 10
62.61184506930542
 20
-137.6422471878115
 30
0.0
 10
62.61184506930542
 20
-137.6422471878115
 30
0.0
 10
62.61184506930542
 20
-136.1897905215083
 30
0.0
 10
62.61184506930542
 20
-136.1897905215083
 30
0.0
 10
62.61184506930542
 20
-136.1897905215083
 30
0.0
 10
84.71005831215568
 20
-117.9666310816196
 30
0.0
 10
84.71005831215568
 20
-117.9666310816196
 30
0.0
  0
POLYLINE
  5
9C
330
1F
100
AcDbEntity
  8
_U+30EC_U+30A4_U+30E4_U+30FC 1
 62
   179
420
  2234388
370
    25
100
AcDb2dPolyline
 66
     1
 10
0.0
 20
0.0
 30
0.0
  0
VERTEX
  5
9D
330
9C
100
AcDbEntity
  8
_U+30EC_U+30A4_U+30E4_U+30FC 1
 62
   179
420
  2234388
370
    25
100
AcDbVertex
100
AcDb2dVertex
 10
62.61184506930542
 20
-137.6422471878115
 30
0.0
  0
VERTEX
  5
9E
330
9C
100
AcDbEntity
  8
_U+30EC_U+30A4_U+30E4_U+30FC 1
 62
   179
420
  2234388
370
    25
100
AcDbVertex
100
AcDb2dVertex
 10
84.69008895048694
 20
-119.4128788590356
 30
0.0
  0
SEQEND
  5
9F
330
9C
100
AcDbEntity
  8
_U+30EC_U+30A4_U+30E4_U+30FC 1
 62
   179
420
  2234388
370
    25
  0
POLYLINE
  5
A0
330
1F
100
AcDbEntity
  8
_U+30EC_U+30A4_U+30E4_U+30FC 1
 62
   179
420
  2234388
370
    25
100
AcDb2dPolyline
 66
     1
 10
0.0
 20
0.0
 30
0.0
  0
VERTEX
  5
A1
330
A0
100
AcDbEntity
  8
_U+30EC_U+30A4_U+30E4_U+30FC 1
 62
   179
420
  2234388
370
    25
100
AcDbVertex
100
AcDb2dVertex
 10
56.70973331915604
 20
-134.2419280219951
 30
0.0
  0
VERTEX
  5
A2
330
A0
100
AcDbEntity
  8
_U+30EC_U+30A4_U+30E4_U+30FC 1
 62
   179
420
  2234388
370
    25
100
AcDbVertex
100
AcDb2dVertex
 10
82.25440540151529
 20
-113.1503677494903
 30
0.0
  0
SEQEND
  5
A3
330
A0
100
AcDbEntity
  8
_U+30EC_U+30A4_U+30E4_U+30FC 1
 62
   179
420
  2234388
370
    25
  0
POLYLINE
  5
A4
330
1F
100
AcDbEntity
  8
_U+30EC_U+30A4_U+30E4_U+30FC 1
 62
   179
420
  2234388
370
     9
100
AcDb2dPolyline
 66
     1
 10
0.0
 20
0.0
 30
0.0
  0
VERTEX
  5
A5
330
A4
100
AcDbEntity
  8
_U+30EC_U+30A4_U+30E4_U+30FC 1
 62
   179
420
  2234388
370
     9
100
AcDbVertex
100
AcDb2dVertex
 10
121.4330577353179
 20
-136.3658266325754
 30
0.0
  0
VERTEX
  5
A6
330
A4
100
AcDbEntity
  8
_U+30EC_U+30A4_U+30E4_U+30FC 1
 62
   179
420
  2234388
370
     9
100
AcDbVertex
100
AcDb2dVertex
 10
121.4330577353179
 20
-131.4872274671281
 30
0.0
  0
SEQEND
  5
A7
330
A4
100
AcDbEntity
  8
_U+30EC_U+30A4_U+30E4_U+30FC 1
 62
   179
420
  2234388
370
     9
  0
POLYLINE
  5
A8
330
1F
100
AcDbEntity
  8
_U+30EC_U+30A4_U+30E4_U+30FC 1
 62
   179
420
  2234388
370
     9
100
AcDb2dPolyline
 66
     1
 10
0.0
 20
0.0
 30
0.0
  0
VERTEX
  5
A9
330
A8
100
AcDbEntity
  8
_U+30EC_U+30A4_U+30E4_U+30FC 1
 62
   179
420
  2234388
370
     9
100
AcDbVertex
100
AcDb2dVertex
 10
85.18549477118141
 20
-125.2364638575798
 30
0.0
  0
VERTEX
  5
AA
330
A8
100
AcDbEntity
  8
_U+30EC_U+30A4_U+30E4_U+30FC 1
 62
   179
420
  2234388
370
     9
100
AcDbVertex
100
AcDb2dVertex
 10
121.4330577353179
 20
-135.5655502438865
 30
0.0
  0
SEQEND
  5
AB
330
A8
100
AcDbEntity
  8
_U+30EC_U+30A4_U+30E4_U+30FC 1
 62
   179
420
  2234388
370
     9
  0
POLYLINE
  5
AC
330
1F
100
AcDbEntity
  8
_U+30EC_U+30A4_U+30E4_U+30FC 1
 62
   179
420
  2234388
370
     9
100
AcDb2dPolyline
 66
     1
 10
0.0
 20
0.0
 30
0.0
  0
VERTEX
  5
AD
330
AC
100
AcDbEntity
  8
_U+30EC_U+30A4_U+30E4_U+30FC 1
 62
   179
420
  2234388
370
     9
100
AcDbVertex
100
AcDb2dVertex
 10
85.18549477118141
 20
-126.0367402462687
 30
0.0
  0
VERTEX
  5
AE
330
AC
100
AcDbEntity
  8
_U+30EC_U+30A4_U+30E4_U+30FC 1
 62
   179
420
  2234388
370
     9
100
AcDbVertex
100
AcDb2dVertex
 10
85.18549477118141
 20
-121.157470803044
 30
0.0
  0
SEQEND
  5
AF
330
AC
100
AcDbEntity
  8
_U+30EC_U+30A4_U+30E4_U+30FC 1
 62
   179
420
  2234388
370
     9
  0
POLYLINE
  5
B0
330
1F
100
AcDbEntity
  8
_U+30EC_U+30A4_U+30E4_U+30FC 1
 62
   179
420
  2234388
370
     9
100
AcDb2dPolyline
 66
     1
 10
0.0
 20
0.0
 30
0.0
  0
VERTEX
  5
B1
330
B0
100
AcDbEntity
  8
_U+30EC_U+30A4_U+30E4_U+30FC 1
 62
   179
420
  2234388
370
     9
100
AcDbVertex
100
AcDb2dVertex
 10
63.81488781639102
 20
-142.8822319087241
 30
0.0
  0
VERTEX
  5
B2
330
B0
100
AcDbEntity
  8
_U+30EC_U+30A4_U+30E4_U+30FC 1
 62
   179
420
  2234388
370
     9
100
AcDbVertex
100
AcDb2dVertex
 10
85.18549477118141
 20
-125.2364638575798
 30
0.0
  0
SEQEND
  5
B3
330
B0
100
AcDbEntity
  8
_U+30EC_U+30A4_U+30E4_U+30FC 1
 62
   179
420
  2234388
370
     9
  0
POLYLINE
  5
B4
330
1F
100
AcDbEntity
  8
_U+30EC_U+30A4_U+30E4_U+30FC 1
 62
   179
420
  2234388
370
     9
100
AcDb2dPolyline
 66
     1
 10
0.0
 20
0.0
 30
0.0
  0
VERTEX
  5
B5
330
B4
100
AcDbEntity
  8
_U+30EC_U+30A4_U+30E4_U+30FC 1
 62
   179
420
  2234388
370
     9
100
AcDbVertex
100
AcDb2dVertex
 10
63.81488781639102
 20
-143.6825435751905
 30
0.0
  0
VERTEX
  5
B6
330
B4
100
AcDbEntity
  8
_U+30EC_U+30A4_U+30E4_U+30FC 1
 62
   179
420
  2234388
370
     9
100
AcDbVertex
100
AcDb2dVertex
 10
63.81488781639102
 20
-138.8053202430767
 30
0.0
  0
SEQEND
  5
B7
330
B4
100
AcDbEntity
  8
_U+30EC_U+30A4_U+30E4_U+30FC 1
 62
   179
420
  2234388
370
     9
  0
INSERT
  5
B9
330
1F
100
AcDbEntity
  8
_U+30EC_U+30A4_U+30E4_U+30FC 1
100
AcDbBlockReference
  2
block 2
 10
0.0
 20
0.0
 30
0.0
  0
INSERT
  5
D6
330
1F
100
AcDbEntity
  8
_U+30EC_U+30A4_U+30E4_U+30FC 1
100
AcDbBlockReference
  2
block 3
 10
0.0
 20
0.0
 30
0.0
  0
ENDSEC
  0
SECTION
  2
OBJECTS
  0
DICTIONARY
  5
C
330
0
100
AcDbDictionary
281
     1
  3
ACAD_GROUP
350
D
  3
ACAD_LAYOUT
350
1A
  3
ACAD_MATERIAL
350
3B
  3
ACAD_MLEADERSTYLE
350
F3
  3
ACAD_MLINESTYLE
350
17
  3
ACAD_PLOTSETTINGS
350
19
  3
ACAD_PLOTSTYLENAME
350
E
  3
ACAD_TABLESTYLE
350
F2
  3
ACAD_VISUALSTYLE
350
2A
  0
SUN
  5
3F
330
29
100
AcDbSun
 90
        1
290
     0
 63
     7
421
 16777215
 40
1.0
291
     1
 91
  2455826
 92
 54000000
292
     0
 70
     2
 71
   256
280
     1
  0
DICTIONARY
  5
D
102
{ACAD_REACTORS
330
C
102
}
330
C
100
AcDbDictionary
281
     1
  0
DICTIONARY
  5
1A
102
{ACAD_REACTORS
330
C
102
}
330
C
100
AcDbDictionary
281
     1
  3
Layout1
350
1E
  3
Layout2
350
26
  3
Model
350
22
  0
DICTIONARY
  5
3B
102
{ACAD_REACTORS
330
C
102
}
330
C
100
AcDbDictionary
281
     1
  3
ByBlock
350
3D
  3
ByLayer
350
3C
  3
Global
350
3E
  0
DICTIONARY
  5
F3
102
{ACAD_REACTORS
330
C
102
}
330
C
100
AcDbDictionary
281
     1
  0
DICTIONARY
  5
17
102
{ACAD_REACTORS
330
C
102
}
330
C
100
AcDbDictionary
281
     1
  3
Standard
350
18
  0
DICTIONARY
  5
19
102
{ACAD_REACTORS
330
C
102
}
330
C
100
AcDbDictionary
281
     1
  0
ACDBDICTIONARYWDFLT
  5
E
102
{ACAD_REACTORS
330
C
102
}
330
C
100
AcDbDictionary
281
     1
  3
Normal
350
F
100
AcDbDictionaryWithDefault
340
F
  0
DICTIONARY
  5
F2
102
{ACAD_REACTORS
330
C
102
}
330
C
100
AcDbDictionary
281
     1
  0
DICTIONARY
  5
2A
102
{ACAD_REACTORS
330
C
102
}
330
C
100
AcDbDictionary
281
     1
  3
2dWireframe
350
2F
  3
3D Hidden
350
31
  3
3dWireframe
350
30
  3
Basic
350
32
  3
Brighten
350
36
  3
ColorChange
350
3A
  3
Conceptual
350
34
  3
Dim
350
35
  3
Facepattern
350
39
  3
Flat
350
2B
  3
FlatWithEdges
350
2C
  3
Gouraud
350
2D
  3
GouraudWithEdges
350
2E
  3
Linepattern
350
38
  3
Realistic
350
33
  3
Thicken
350
37
  0
LAYOUT
  5
1E
102
{ACAD_REACTORS
330
1A
102
}
330
1A
100
AcDbPlotSettings
  1

  2
none_device
  4

  6

 40
0.0
 41
0.0
 42
0.0
 43
0.0
 44
0.0
 45
0.0
 46
0.0
 47
0.0
 48
0.0
 49
0.0
140
0.0
141
0.0
142
1.0
143
1.0
 70
   688
 72
     0
 73
     0
 74
     5
  7

 75
    16
 76
     0
 77
     2
 78
   300
147
1.0
148
0.0
149
0.0
100
AcDbLayout
  1
Layout1
 70
     1
 71
     1
 10
0.0
 20
0.0
 11
12.0
 21
9.0
 12
0.0
 22
0.0
 32
0.0
 14
1.000000000000000E+20
 24
1.000000000000000E+20
 34
1.000000000000000E+20
 15
-1.000000000000000E+20
 25
-1.000000000000000E+20
 35
-1.000000000000000E+20
146
0.0
 13
0.0
 23
0.0
 33
0.0
 16
1.0
 26
0.0
 36
0.0
 17
0.0
 27
1.0
 37
0.0
 76
     0
330
1B
  0
LAYOUT
  5
26
102
{ACAD_REACTORS
330
1A
102
}
330
1A
100
AcDbPlotSettings
  1

  2
none_device
  4

  6

 40
0.0
 41
0.0
 42
0.0
 43
0.0
 44
0.0
 45
0.0
 46
0.0
 47
0.0
 48
0.0
 49
0.0
140
0.0
141
0.0
142
1.0
143
1.0
 70
   688
 72
     0
 73
     0
 74
     5
  7

 75
    16
 76
     0
 77
     2
 78
   300
147
1.0
148
0.0
149
0.0
100
AcDbLayout
  1
Layout2
 70
     1
 71
     2
 10
0.0
 20
0.0
 11
0.0
 21
0.0
 12
0.0
 22
0.0
 32
0.0
 14
0.0
 24
0.0
 34
0.0
 15
0.0
 25
0.0
 35
0.0
146
0.0
 13
0.0
 23
0.0
 33
0.0
 16
1.0
 26
0.0
 36
0.0
 17
0.0
 27
1.0
 37
0.0
 76
     0
330
23
  0
LAYOUT
  5
22
102
{ACAD_REACTORS
330
1A
102
}
330
1A
100
AcDbPlotSettings
  1

  2
none_device
  4

  6

 40
0.0
 41
0.0
 42
0.0
 43
0.0
 44
0.0
 45
0.0
 46
0.0
 47
0.0
 48
0.0
 49
0.0
140
0.0
141
0.0
142
1.0
143
1.0
 70
  1712
 72
     0
 73
     0
 74
     0
  7

 75
     0
 76
     0
 77
     2
 78
   300
147
1.0
148
0.0
149
0.0
100
AcDbLayout
  1
Model
 70
     1
 71
     0
 10
0.0
 20
0.0
 11
12.0
 21
9.0
 12
0.0
 22
0.0
 32
0.0
 14
1.000000000000000E+20
 24
1.000000000000000E+20
 34
1.000000000000000E+20
 15
-1.000000000000000E+20
 25
-1.000000000000000E+20
 35
-1.000000000000000E+20
146
0.0
 13
0.0
 23
0.0
 33
0.0
 16
1.0
 26
0.0
 36
0.0
 17
0.0
 27
1.0
 37
0.0
 76
     0
330
1F
331
29
  0
MATERIAL
  5
3D
102
{ACAD_REACTORS
330
3B
102
}
330
3B
100
AcDbMaterial
  1
ByBlock
 72
     1
 94
      127
  0
MATERIAL
  5
3C
102
{ACAD_REACTORS
330
3B
102
}
330
3B
100
AcDbMaterial
  1
ByLayer
 72
     1
 94
      127
  0
MATERIAL
  5
3E
102
{ACAD_REACTORS
330
3B
102
}
330
3B
100
AcDbMaterial
  1
Global
 72
     1
 94
      127
  0
MLINESTYLE
  5
18
102
{ACAD_REACTORS
330
17
102
}
330
17
100
AcDbMlineStyle
  2
Standard
 70
     0
  3

 62
   256
 51
90.0
 52
90.0
 71
     2
 49
0.5
 62
   256
  6
BYLAYER
 49
-0.5
 62
   256
  6
BYLAYER
  0
ACDBPLACEHOLDER
  5
F
102
{ACAD_REACTORS
330
E
102
}
330
E
  0
VISUALSTYLE
  5
2F
102
{ACAD_REACTORS
330
2A
102
}
330
2A
100
AcDbVisualStyle
  2
2dWireframe
 70
     4
177
     2
291
     0
 71
     0
176
     1
 72
     2
176
     1
 73
     0
176
     1
 90
        0
176
     1
 40
-0.6
176
     1
 41
-30.0
176
     1
 62
     5
 63
     7
421
 16777215
176
     1
 74
     1
176
     1
 91
        4
176
     1
 64
     7
176
     1
 65
   257
176
     1
 75
     1
176
     1
175
     1
176
     1
 42
1.0
176
     1
 92
        0
176
     1
 66
   257
176
     1
 43
1.0
176
     1
 76
     1
176
     1
 77
     6
176
     1
 78
     2
176
     1
 67
     7
176
     1
 79
     5
176
     1
170
     0
176
     1
171
     0
176
     1
290
     0
176
     1
 93
        1
176
     1
 44
0.0
176
     1
173
     0
176
     1
  0
VISUALSTYLE
  5
31
102
{ACAD_REACTORS
330
2A
102
}
330
2A
100
AcDbVisualStyle
  2
3D Hidden
 70
     6
177
     2
291
     0
 71
     1
176
     1
 72
     2
176
     1
 73
     2
176
     1
 90
        0
176
     1
 40
-0.6
176
     1
 41
-30.0
176
     1
 62
     5
 63
     7
421
 16777215
176
     1
 74
     2
176
     1
 91
        2
176
     1
 64
     7
176
     1
 65
   257
176
     1
 75
     2
176
     1
175
     1
176
     1
 42
40.0
176
     1
 92
        0
176
     1
 66
   257
176
     1
 43
1.0
176
     1
 76
     1
176
     1
 77
     6
176
     1
 78
     2
176
     1
 67
     7
176
     1
 79
     3
176
     1
170
     0
176
     1
171
     0
176
     1
290
     0
176
     1
 93
        1
176
     1
 44
0.0
176
     1
173
     0
176
     1
  0
VISUALSTYLE
  5
30
102
{ACAD_REACTORS
330
2A
102
}
330
2A
100
AcDbVisualStyle
  2
3dWireframe
 70
     5
177
     2
291
     0
 71
     0
176
     1
 72
     2
176
     1
 73
     0
176
     1
 90
        0
176
     1
 40
-0.6
176
     1
 41
-30.0
176
     1
 62
     5
 63
     7
421
 16777215
176
     1
 74
     1
176
     1
 91
        4
176
     1
 64
     7
176
     1
 65
   257
176
     1
 75
     1
176
     1
175
     1
176
     1
 42
1.0
176
     1
 92
        0
176
     1
 66
   257
176
     1
 43
1.0
176
     1
 76
     1
176
     1
 77
     6
176
     1
 78
     2
176
     1
 67
     7
176
     1
 79
     5
176
     1
170
     0
176
     1
171
     0
176
     1
290
     0
176
     1
 93
        1
176
     1
 44
0.0
176
     1
173
     0
176
     1
  0
VISUALSTYLE
  5
32
102
{ACAD_REACTORS
330
2A
102
}
330
2A
100
AcDbVisualStyle
  2
Basic
 70
     7
177
     2
291
     1
 71
     1
176
     1
 72
     0
176
     1
 73
     1
176
     1
 90
        0
176
     1
 40
-0.6
176
     1
 41
-30.0
176
     1
 62
     5
 63
     7
421
 16777215
176
     1
 74
     0
176
     1
 91
        4
176
     1
 64
     7
176
     1
 65
   257
176
     1
 75
     1
176
     1
175
     1
176
     1
 42
1.0
176
     1
 92
        8
176
     1
 66
     7
176
     1
 43
1.0
176
     1
 76
     1
176
     1
 77
     6
176
     1
 78
     2
176
     1
 67
     7
176
     1
 79
     5
176
     1
170
     0
176
     1
171
     0
176
     1
290
     0
176
     1
 93
        1
176
     1
 44
0.0
176
     1
173
     0
176
     1
  0
VISUALSTYLE
  5
36
102
{ACAD_REACTORS
330
2A
102
}
330
2A
100
AcDbVisualStyle
  2
Brighten
 70
    12
177
     2
291
     1
 71
     2
176
     1
 72
     2
176
     1
 73
     0
176
     1
 90
        0
176
     1
 40
-0.6
176
     1
 41
-30.0
176
     1
 62
     5
 63
     7
421
 16777215
176
     1
 74
     1
176
     1
 91
        4
176
     1
 64
     7
176
     1
 65
   257
176
     1
 75
     1
176
     1
175
     1
176
     1
 42
1.0
176
     1
 92
        8
176
     1
 66
     7
176
     1
 43
1.0
176
     1
 76
     1
176
     1
 77
     6
176
     1
 78
     2
176
     1
 67
     7
176
     1
 79
     5
176
     1
170
     0
176
     1
171
     0
176
     1
290
     0
176
     1
 93
        1
176
     1
 44
50.0
176
     1
173
     0
176
     1
  0
VISUALSTYLE
  5
3A
102
{ACAD_REACTORS
330
2A
102
}
330
2A
100
AcDbVisualStyle
  2
ColorChange
 70
    16
177
     2
291
     1
 71
     2
176
     1
 72
     2
176
     1
 73
     3
176
     1
 90
        0
176
     1
 40
-0.6
176
     1
 41
-30.0
176
     1
 62
     5
 63
     8
421
  8421504
176
     1
 74
     1
176
     1
 91
        4
176
     1
 64
     7
176
     1
 65
   257
176
     1
 75
     1
176
     1
175
     1
176
     1
 42
1.0
176
     1
 92
        8
176
     1
 66
     8
424
  8421504
176
     1
 43
1.0
176
     1
 76
     1
176
     1
 77
     6
176
     1
 78
     2
176
     1
 67
     7
176
     1
 79
     5
176
     1
170
     0
176
     1
171
     0
176
     1
290
     0
176
     1
 93
        1
176
     1
 44
0.0
176
     1
173
     0
176
     1
  0
VISUALSTYLE
  5
34
102
{ACAD_REACTORS
330
2A
102
}
330
2A
100
AcDbVisualStyle
  2
Conceptual
 70
     9
177
     2
291
     0
 71
     3
176
     1
 72
     2
176
     1
 73
     0
176
     1
 90
        0
176
     1
 40
-0.6
176
     1
 41
-30.0
176
     1
 62
     5
 63
     7
421
 16777215
176
     1
 74
     2
176
     1
 91
        2
176
     1
 64
     7
176
     1
 65
   257
176
     1
 75
     1
176
     1
175
     1
176
     1
 42
40.0
176
     1
 92
        8
176
     1
 66
     7
176
     1
 43
1.0
176
     1
 76
     1
176
     1
 77
     6
176
     1
 78
     2
176
     1
 67
     7
176
     1
 79
     3
176
     1
170
     0
176
     1
171
     0
176
     1
290
     0
176
     1
 93
        1
176
     1
 44
0.0
176
     1
173
     0
176
     1
  0
VISUALSTYLE
  5
35
102
{ACAD_REACTORS
330
2A
102
}
330
2A
100
AcDbVisualStyle
  2
Dim
 70
    11
177
     2
291
     1
 71
     2
176
     1
 72
     2
176
     1
 73
     0
176
     1
 90
        0
176
     1
 40
-0.6
176
     1
 41
-30.0
176
     1
 62
     5
 63
     7
421
 16777215
176
     1
 74
     1
176
     1
 91
        4
176
     1
 64
     7
176
     1
 65
   257
176
     1
 75
     1
176
     1
175
     1
176
     1
 42
1.0
176
     1
 92
        8
176
     1
 66
     7
176
     1
 43
1.0
176
     1
 76
     1
176
     1
 77
     6
176
     1
 78
     2
176
     1
 67
     7
176
     1
 79
     5
176
     1
170
     0
176
     1
171
     0
176
     1
290
     0
176
     1
 93
        1
176
     1
 44
-50.0
176
     1
173
     0
176
     1
  0
VISUALSTYLE
  5
39
102
{ACAD_REACTORS
330
2A
102
}
330
2A
100
AcDbVisualStyle
  2
Facepattern
 70
    15
177
     2
291
     1
 71
     2
176
     1
 72
     2
176
     1
 73
     0
176
     1
 90
        0
176
     1
 40
-0.6
176
     1
 41
-30.0
176
     1
 62
     5
 63
     7
421
 16777215
176
     1
 74
     1
176
     1
 91
        4
176
     1
 64
     7
176
     1
 65
   257
176
     1
 75
     1
176
     1
175
     1
176
     1
 42
1.0
176
     1
 92
        8
176
     1
 66
     7
176
     1
 43
1.0
176
     1
 76
     1
176
     1
 77
     6
176
     1
 78
     2
176
     1
 67
     7
176
     1
 79
     5
176
     1
170
     0
176
     1
171
     0
176
     1
290
     0
176
     1
 93
        1
176
     1
 44
0.0
176
     1
173
     0
176
     1
  0
VISUALSTYLE
  5
2B
102
{ACAD_REACTORS
330
2A
102
}
330
2A
100
AcDbVisualStyle
  2
Flat
 70
     0
177
     2
291
     1
 71
     2
176
     1
 72
     1
176
     1
 73
     1
176
     1
 90
        2
176
     1
 40
-0.6
176
     1
 41
30.0
176
     1
 62
     5
 63
     7
421
 16777215
176
     1
 74
     0
176
     1
 91
        4
176
     1
 64
     7
176
     1
 65
   257
176
     1
 75
     1
176
     1
175
     1
176
     1
 42
1.0
176
     1
 92
        8
176
     1
 66
     7
176
     1
 43
1.0
176
     1
 76
     1
176
     1
 77
     6
176
     1
 78
     2
176
     1
 67
     7
176
     1
 79
     5
176
     1
170
     0
176
     1
171
     0
176
     1
290
     0
176
     1
 93
       13
176
     1
 44
0.0
176
     1
173
     0
176
     1
  0
VISUALSTYLE
  5
2C
102
{ACAD_REACTORS
330
2A
102
}
330
2A
100
AcDbVisualStyle
  2
FlatWithEdges
 70
     1
177
     2
291
     1
 71
     2
176
     1
 72
     1
176
     1
 73
     1
176
     1
 90
        2
176
     1
 40
-0.6
176
     1
 41
30.0
176
     1
 62
     5
 63
     7
421
 16777215
176
     1
 74
     1
176
     1
 91
        4
176
     1
 64
     7
176
     1
 65
   257
176
     1
 75
     1
176
     1
175
     1
176
     1
 42
1.0
176
     1
 92
        0
176
     1
 66
   257
176
     1
 43
1.0
176
     1
 76
     1
176
     1
 77
     6
176
     1
 78
     2
176
     1
 67
     7
176
     1
 79
     5
176
     1
170
     0
176
     1
171
     0
176
     1
290
     0
176
     1
 93
       13
176
     1
 44
0.0
176
     1
173
     0
176
     1
  0
VISUALSTYLE
  5
2D
102
{ACAD_REACTORS
330
2A
102
}
330
2A
100
AcDbVisualStyle
  2
Gouraud
 70
     2
177
     2
291
     1
 71
     2
176
     1
 72
     2
176
     1
 73
     1
176
     1
 90
        2
176
     1
 40
-0.6
176
     1
 41
30.0
176
     1
 62
     5
 63
     7
421
 16777215
176
     1
 74
     0
176
     1
 91
        4
176
     1
 64
     7
176
     1
 65
   257
176
     1
 75
     1
176
     1
175
     1
176
     1
 42
1.0
176
     1
 92
        0
176
     1
 66
     7
176
     1
 43
1.0
176
     1
 76
     1
176
     1
 77
     6
176
     1
 78
     2
176
     1
 67
     7
176
     1
 79
     5
176
     1
170
     0
176
     1
171
     0
176
     1
290
     0
176
     1
 93
       13
176
     1
 44
0.0
176
     1
173
     0
176
     1
  0
VISUALSTYLE
  5
2E
102
{ACAD_REACTORS
330
2A
102
}
330
2A
100
AcDbVisualStyle
  2
GouraudWithEdges
 70
     3
177
     2
291
     1
 71
     2
176
     1
 72
     2
176
     1
 73
     1
176
     1
 90
        2
176
     1
 40
-0.6
176
     1
 41
30.0
176
     1
 62
     5
 63
     7
421
 16777215
176
     1
 74
     1
176
     1
 91
        4
176
     1
 64
     7
176
     1
 65
   257
176
     1
 75
     1
176
     1
175
     1
176
     1
 42
1.0
176
     1
 92
        0
176
     1
 66
   257
176
     1
 43
1.0
176
     1
 76
     1
176
     1
 77
     6
176
     1
 78
     2
176
     1
 67
     7
176
     1
 79
     5
176
     1
170
     0
176
     1
171
     0
176
     1
290
     0
176
     1
 93
       13
176
     1
 44
0.0
176
     1
173
     0
176
     1
  0
VISUALSTYLE
  5
38
102
{ACAD_REACTORS
330
2A
102
}
330
2A
100
AcDbVisualStyle
  2
Linepattern
 70
    14
177
     2
291
     1
 71
     2
176
     1
 72
     2
176
     1
 73
     0
176
     1
 90
        0
176
     1
 40
-0.6
176
     1
 41
-30.0
176
     1
 62
     5
 63
     7
421
 16777215
176
     1
 74
     1
176
     1
 91
        4
176
     1
 64
     7
176
     1
 65
   257
176
     1
 75
     7
176
     1
175
     7
176
     1
 42
1.0
176
     1
 92
        8
176
     1
 66
     7
176
     1
 43
1.0
176
     1
 76
     1
176
     1
 77
     6
176
     1
 78
     2
176
     1
 67
     7
176
     1
 79
     5
176
     1
170
     0
176
     1
171
     0
176
     1
290
     0
176
     1
 93
        1
176
     1
 44
0.0
176
     1
173
     0
176
     1
  0
VISUALSTYLE
  5
33
102
{ACAD_REACTORS
330
2A
102
}
330
2A
100
AcDbVisualStyle
  2
Realistic
 70
     8
177
     2
291
     0
 71
     2
176
     1
 72
     2
176
     1
 73
     0
176
     1
 90
        0
176
     1
 40
-0.6
176
     1
 41
-30.0
176
     1
 62
     5
 63
     7
421
 16777215
176
     1
 74
     1
176
     1
 91
        0
176
     1
 64
     7
176
     1
 65
   257
176
     1
 75
     1
176
     1
175
     1
176
     1
 42
1.0
176
     1
 92
        8
176
     1
 66
     8
424
  7895160
176
     1
 43
1.0
176
     1
 76
     1
176
     1
 77
     6
176
     1
 78
     2
176
     1
 67
     7
176
     1
 79
     5
176
     1
170
     0
176
     1
171
     0
176
     1
290
     0
176
     1
 93
       13
176
     1
 44
0.0
176
     1
173
     0
176
     1
  0
VISUALSTYLE
  5
37
102
{ACAD_REACTORS
330
2A
102
}
330
2A
100
AcDbVisualStyle
  2
Thicken
 70
    13
177
     2
291
     1
 71
     2
176
     1
 72
     2
176
     1
 73
     0
176
     1
 90
        0
176
     1
 40
-0.6
176
     1
 41
-30.0
176
     1
 62
     5
 63
     7
421
 16777215
176
     1
 74
     1
176
     1
 91
        4
176
     1
 64
     7
176
     1
 65
   257
176
     1
 75
     1
176
     1
175
     1
176
     1
 42
1.0
176
     1
 92
       12
176
     1
 66
     7
176
     1
 43
1.0
176
     1
 76
     1
176
     1
 77
     6
176
     1
 78
     2
176
     1
 67
     7
176
     1
 79
     5
176
     1
170
     0
176
     1
171
     0
176
     1
290
     0
176
     1
 93
        1
176
     1
 44
0.0
176
     1
173
     0
176
     1
  0
ENDSEC
  0
EOF
