  0
SECTION
  2
HEADER
  9
$ACADVER
  1
AC1024
  9
$ACADMAINTVER
 70
     6
  9
$DWGCODEPAGE
  3
UNDEFINED
  9
$INSBASE
 10
0.0
 20
0.0
 30
0.0
  9
$EXTMIN
 10
1.000000000000000E+20
 20
1.000000000000000E+20
 30
1.000000000000000E+20
  9
$EXTMAX
 10
-1.000000000000000E+20
 20
-1.000000000000000E+20
 30
-1.000000000000000E+20
  9
$LIMMIN
 10
0.0
 20
0.0
  9
$LIMMAX
 10
12.0
 20
9.0
  9
$ORTHOMODE
 70
     0
  9
$REGENMODE
 70
     1
  9
$FILLMODE
 70
     1
  9
$QTEXTMODE
 70
     0
  9
$MIRRTEXT
 70
     1
  9
$LTSCALE
 40
1.0
  9
$ATTMODE
 70
     1
  9
$TEXTSIZE
 40
0.2
  9
$TRACEWID
 40
0.05
  9
$TEXTSTYLE
  7
Standard
  9
$CLAYER
  8
0
  9
$CELTYPE
  6
ByLayer
  9
$CECOLOR
 62
   256
  9
$CELTSCALE
 40
1.0
  9
$DISPSILH
 70
     0
  9
$DIMSCALE
 40
1.0
  9
$DIMASZ
 40
0.18
  9
$DIMEXO
 40
0.0625
  9
$DIMDLI
 40
0.38
  9
$DIMRND
 40
0.0
  9
$DIMDLE
 40
0.0
  9
$DIMEXE
 40
0.18
  9
$DIMTP
 40
0.0
  9
$DIMTM
 40
0.0
  9
$DIMTXT
 40
0.18
  9
$DIMCEN
 40
0.09
  9
$DIMTSZ
 40
0.0
  9
$DIMTOL
 70
     0
  9
$DIMLIM
 70
     0
  9
$DIMTIH
 70
     1
  9
$DIMTOH
 70
     1
  9
$DIMSE1
 70
     0
  9
$DIMSE2
 70
     0
  9
$DIMTAD
 70
     0
  9
$DIMZIN
 70
     0
  9
$DIMBLK
  1

  9
$DIMASO
 70
     1
  9
$DIMSHO
 70
     1
  9
$DIMPOST
  1

  9
$DIMAPOST
  1

  9
$DIMALT
 70
     0
  9
$DIMALTD
 70
     2
  9
$DIMALTF
 40
25.4
  9
$DIMLFAC
 40
1.0
  9
$DIMTOFL
 70
     0
  9
$DIMTVP
 40
0.0
  9
$DIMTIX
 70
     0
  9
$DIMSOXD
 70
     0
  9
$DIMSAH
 70
     0
  9
$DIMBLK1
  1

  9
$DIMBLK2
  1

  9
$DIMSTYLE
  2
Standard
  9
$DIMCLRD
 70
     0
  9
$DIMCLRE
 70
     0
  9
$DIMCLRT
 70
     0
  9
$DIMTFAC
 40
1.0
  9
$DIMGAP
 40
0.09
  9
$DIMJUST
 70
     0
  9
$DIMSD1
 70
     0
  9
$DIMSD2
 70
     0
  9
$DIMTOLJ
 70
     1
  9
$DIMTZIN
 70
     0
  9
$DIMALTZ
 70
     0
  9
$DIMALTTZ
 70
     0
  9
$DIMUPT
 70
     0
  9
$DIMDEC
 70
     4
  9
$DIMTDEC
 70
     4
  9
$DIMALTU
 70
     2
  9
$DIMALTTD
 70
     2
  9
$DIMTXSTY
  7
Standard
  9
$DIMAUNIT
 70
     0
  9
$DIMADEC
 70
     0
  9
$DIMALTRND
 40
0.0
  9
$DIMAZIN
 70
     0
  9
$DIMDSEP
 70
    46
  9
$DIMATFIT
 70
     3
  9
$DIMFRAC
 70
     0
  9
$DIMLDRBLK
  1

  9
$DIMLUNIT
 70
     2
  9
$DIMLWD
 70
    -2
  9
$DIMLWE
 70
    -2
  9
$DIMTMOVE
 70
     0
  9
$DIMFXL
 40
1.0
  9
$DIMFXLON
 70
     0
  9
$DIMJOGANG
 40
0.7853981633974483
  9
$DIMTFILL
 70
     0
  9
$DIMTFILLCLR
 70
     0
  9
$DIMARCSYM
 70
     0
  9
$DIMLTYPE
  6

  9
$DIMLTEX1
  6

  9
$DIMLTEX2
  6

  9
$DIMTXTDIRECTION
 70
     0
  9
$LUNITS
 70
     2
  9
$LUPREC
 70
     4
  9
$SKETCHINC
 40
0.1
  9
$FILLETRAD
 40
0.5
  9
$AUNITS
 70
     0
  9
$AUPREC
 70
     0
  9
$MENU
  1
.
  9
$ELEVATION
 40
0.0
  9
$PELEVATION
 40
0.0
  9
$THICKNESS
 40
0.0
  9
$LIMCHECK
 70
     0
  9
$CHAMFERA
 40
0.5
  9
$CHAMFERB
 40
0.5
  9
$CHAMFERC
 40
1.0
  9
$CHAMFERD
 40
0.0
  9
$SKPOLY
 70
     0
  9
$TDCREATE
 40
2457917.611354155
  9
$TDUCREATE
 40
2457917.236354167
  9
$TDUPDATE
 40
2457917.611354155
  9
$TDUUPDATE
 40
2457917.236354167
  9
$TDINDWG
 40
0.0000000116
  9
$TDUSRTIMER
 40
0.0000000116
  9
$USRTIMER
 70
     1
  9
$ANGBASE
 50
0.0
  9
$ANGDIR
 70
     0
  9
$PDMODE
 70
     0
  9
$PDSIZE
 40
0.0
  9
$PLINEWID
 40
0.0
  9
$SPLFRAME
 70
     0
  9
$SPLINETYPE
 70
     6
  9
$SPLINESEGS
 70
     8
  9
$HANDSEED
  5
109
  9
$SURFTAB1
 70
     6
  9
$SURFTAB2
 70
     6
  9
$SURFTYPE
 70
     6
  9
$SURFU
 70
     6
  9
$SURFV
 70
     6
  9
$UCSBASE
  2

  9
$UCSNAME
  2

  9
$UCSORG
 10
0.0
 20
0.0
 30
0.0
  9
$UCSXDIR
 10
1.0
 20
0.0
 30
0.0
  9
$UCSYDIR
 10
0.0
 20
1.0
 30
0.0
  9
$UCSORTHOREF
  2

  9
$UCSORTHOVIEW
 70
     0
  9
$UCSORGTOP
 10
0.0
 20
0.0
 30
0.0
  9
$UCSORGBOTTOM
 10
0.0
 20
0.0
 30
0.0
  9
$UCSORGLEFT
 10
0.0
 20
0.0
 30
0.0
  9
$UCSORGRIGHT
 10
0.0
 20
0.0
 30
0.0
  9
$UCSORGFRONT
 10
0.0
 20
0.0
 30
0.0
  9
$UCSORGBACK
 10
0.0
 20
0.0
 30
0.0
  9
$PUCSBASE
  2

  9
$PUCSNAME
  2

  9
$PUCSORG
 10
0.0
 20
0.0
 30
0.0
  9
$PUCSXDIR
 10
1.0
 20
0.0
 30
0.0
  9
$PUCSYDIR
 10
0.0
 20
1.0
 30
0.0
  9
$PUCSORTHOREF
  2

  9
$PUCSORTHOVIEW
 70
     0
  9
$PUCSORGTOP
 10
0.0
 20
0.0
 30
0.0
  9
$PUCSORGBOTTOM
 10
0.0
 20
0.0
 30
0.0
  9
$PUCSORGLEFT
 10
0.0
 20
0.0
 30
0.0
  9
$PUCSORGRIGHT
 10
0.0
 20
0.0
 30
0.0
  9
$PUCSORGFRONT
 10
0.0
 20
0.0
 30
0.0
  9
$PUCSORGBACK
 10
0.0
 20
0.0
 30
0.0
  9
$USERI1
 70
     0
  9
$USERI2
 70
     0
  9
$USERI3
 70
     0
  9
$USERI4
 70
     0
  9
$USERI5
 70
     0
  9
$USERR1
 40
0.0
  9
$USERR2
 40
0.0
  9
$USERR3
 40
0.0
  9
$USERR4
 40
0.0
  9
$USERR5
 40
0.0
  9
$WORLDVIEW
 70
     1
  9
$SHADEDGE
 70
     3
  9
$SHADEDIF
 70
    70
  9
$TILEMODE
 70
     1
  9
$MAXACTVP
 70
    64
  9
$PINSBASE
 10
0.0
 20
0.0
 30
0.0
  9
$PLIMCHECK
 70
     0
  9
$PEXTMIN
 10
1.000000000000000E+20
 20
1.000000000000000E+20
 30
1.000000000000000E+20
  9
$PEXTMAX
 10
-1.000000000000000E+20
 20
-1.000000000000000E+20
 30
-1.000000000000000E+20
  9
$PLIMMIN
 10
0.0
 20
0.0
  9
$PLIMMAX
 10
12.0
 20
9.0
  9
$UNITMODE
 70
     0
  9
$VISRETAIN
 70
     1
  9
$PLINEGEN
 70
     0
  9
$PSLTSCALE
 70
     1
  9
$TREEDEPTH
 70
  3020
  9
$CMLSTYLE
  2
Standard
  9
$CMLJUST
 70
     0
  9
$CMLSCALE
 40
1.0
  9
$PROXYGRAPHICS
 70
     1
  9
$MEASUREMENT
 70
     0
  9
$CELWEIGHT
370
    -1
  9
$ENDCAPS
280
     0
  9
$JOINSTYLE
280
     0
  9
$LWDISPLAY
290
     1
  9
$INSUNITS
 70
     1
  9
$HYPERLINKBASE
  1

  9
$STYLESHEET
  1

  9
$XEDIT
290
     1
  9
$CEPSNTYPE
380
     0
  9
$PSTYLEMODE
290
     1
  9
$FINGERPRINTGUID
  2
{5559597D-0888-AA55-6F9C-869F85C5DE53}
  9
$VERSIONGUID
  2
{FAEB1C32-E019-11D5-929B-00C0DF256EC4}
  9
$EXTNAMES
290
     1
  9
$PSVPSCALE
 40
0.0
  9
$OLESTARTUP
290
     0
  9
$SORTENTS
280
   127
  9
$INDEXCTL
280
     0
  9
$HIDETEXT
280
     1
  9
$XCLIPFRAME
280
     2
  9
$HALOGAP
280
     0
  9
$OBSCOLOR
 70
   257
  9
$OBSLTYPE
280
     0
  9
$INTERSECTIONDISPLAY
280
     0
  9
$INTERSECTIONCOLOR
 70
   257
  9
$DIMASSOC
280
     2
  9
$PROJECTNAME
  1

  9
$CAMERADISPLAY
290
     0
  9
$LENSLENGTH
 40
50.0
  9
$CAMERAHEIGHT
 40
0.0
  9
$STEPSPERSEC
 40
2.0
  9
$STEPSIZE
 40
6.0
  9
$3DDWFPREC
 40
2.0
  9
$PSOLWIDTH
 40
0.25
  9
$PSOLHEIGHT
 40
4.0
  9
$LOFTANG1
 40
1.570796326794897
  9
$LOFTANG2
 40
1.570796326794897
  9
$LOFTMAG1
 40
0.0
  9
$LOFTMAG2
 40
0.0
  9
$LOFTPARAM
 70
     7
  9
$LOFTNORMALS
280
     1
  9
$LATITUDE
 40
37.795
  9
$LONGITUDE
 40
-122.394
  9
$NORTHDIRECTION
 40
0.0
  9
$TIMEZONE
 70
 -8000
  9
$LIGHTGLYPHDISPLAY
280
     1
  9
$TILEMODELIGHTSYNCH
280
     1
  9
$CMATERIAL
347
3C
  9
$SOLIDHIST
280
     1
  9
$SHOWHIST
280
     1
  9
$DWFFRAME
280
     2
  9
$DGNFRAME
280
     2
  9
$REALWORLDSCALE
290
     1
  9
$INTERFERECOLOR
 62
   256
  9
$CSHADOW
280
     0
  9
$SHADOWPLANELOCATION
 40
0.0
  0
ENDSEC
  0
SECTION
  2
CLASSES
  0
CLASS
  1
ACDBDICTIONARYWDFLT
  2
AcDbDictionaryWithDefault
  3
ObjectDBX Classes
 90
        0
 91
        4
280
     0
281
     0
  0
CLASS
  1
VISUALSTYLE
  2
AcDbVisualStyle
  3
ObjectDBX Classes
 90
     4095
 91
        4
280
     0
281
     0
  0
CLASS
  1
MATERIAL
  2
AcDbMaterial
  3
ObjectDBX Classes
 90
     1153
 91
        4
280
     0
281
     0
  0
CLASS
  1
SUN
  2
AcDbSun
  3
SCENEOE
 90
     1024
 91
        4
280
     0
281
     0
  0
ENDSEC
  0
SECTION
  2
TABLES
  0
TABLE
  2
VPORT
  5
8
330
0
100
AcDbSymbolTable
 70
     1
  0
VPORT
  5
29
330
8
100
AcDbSymbolTableRecord
100
AcDbViewportTableRecord
  2
*Active
 70
     0
 10
0.0
 20
0.0
 11
1.0
 21
1.0
 12
0.0
 22
0.0
 13
0.0
 23
0.0
 14
0.5
 24
0.5
 15
0.5
 25
0.5
 16
0.0
 26
0.0
 36
1.0
 17
91.00082462281999
 27
-128.4993055234307
 37
0.0
 40
256.9986110468615
 41
0.7081814508812795
 42
50.0
 43
0.0
 44
0.0
 50
0.0
 51
0.0
 71
     0
 72
   100
 73
     1
 74
     3
 75
     0
 76
     0
 77
     0
 78
     0
281
     0
 65
     1
110
0.0
120
0.0
130
0.0
111
1.0
121
0.0
131
0.0
112
0.0
122
1.0
132
0.0
 79
     0
146
0.0
 60
     3
 61
     5
292
     1
282
     1
141
0.0
142
0.0
 63
   250
361
3F
  0
ENDTAB
  0
TABLE
  2
LTYPE
  5
5
330
0
100
AcDbSymbolTable
 70
     1
  0
LTYPE
  5
14
330
5
100
AcDbSymbolTableRecord
100
AcDbLinetypeTableRecord
  2
ByBlock
 70
     0
  3

 72
    65
 73
     0
 40
0.0
  0
LTYPE
  5
15
330
5
100
AcDbSymbolTableRecord
100
AcDbLinetypeTableRecord
  2
ByLayer
 70
     0
  3

 72
    65
 73
     0
 40
0.0
  0
LTYPE
  5
16
330
5
100
AcDbSymbolTableRecord
100
AcDbLinetypeTableRecord
  2
Continuous
 70
     0
  3
Solid line
 72
    65
 73
     0
 40
0.0
  0
ENDTAB
  0
TABLE
  2
LAYER
  5
2
330
0
100
AcDbSymbolTable
 70
     2
  0
LAYER
  5
10
330
2
100
AcDbSymbolTableRecord
100
AcDbLayerTableRecord
  2
0
 70
     0
 62
     7
  6
Continuous
370
    -3
390
F
347
3E
  0
LAYER
  5
40
330
2
100
AcDbSymbolTableRecord
100
AcDbLayerTableRecord
  2
_U+30EC_U+30A4_U+30E4_U+30FC 1
 70
     0
 62
     7
  6
Continuous
370
    -3
390
F
347
3E
  0
ENDTAB
  0
TABLE
  2
STYLE
  5
3
330
0
100
AcDbSymbolTable
 70
     1
  0
STYLE
  5
11
330
3
100
AcDbSymbolTableRecord
100
AcDbTextStyleTableRecord
  2
Standard
 70
     0
 40
0.0
 41
1.0
 50
0.0
 71
     0
 42
0.2
  3
txt
  4

  0
ENDTAB
  0
TABLE
  2
VIEW
  5
6
330
0
100
AcDbSymbolTable
 70
     0
  0
ENDTAB
  0
TABLE
  2
UCS
  5
7
330
0
100
AcDbSymbolTable
 70
     0
  0
ENDTAB
  0
TABLE
  2
APPID
  5
9
330
0
100
AcDbSymbolTable
 70
     1
  0
APPID
  5
12
330
9
100
AcDbSymbolTableRecord
100
AcDbRegAppTableRecord
  2
ACAD
 70
     0
  0
ENDTAB
  0
TABLE
  2
DIMSTYLE
  5
A
330
0
100
AcDbSymbolTable
 70
     1
100
AcDbDimStyleTable
  0
DIMSTYLE
105
27
330
A
100
AcDbSymbolTableRecord
100
AcDbDimStyleTableRecord
  2
Standard
 70
     0
178
     0
340
11
  0
ENDTAB
  0
TABLE
  2
BLOCK_RECORD
  5
1
330
0
100
AcDbSymbolTable
 70
     8
  0
BLOCK_RECORD
  5
1F
330
1
100
AcDbSymbolTableRecord
100
AcDbBlockTableRecord
  2
*Model_Space
340
22
 70
     0
280
     1
281
     0
  0
BLOCK_RECORD
  5
1B
330
1
100
AcDbSymbolTableRecord
100
AcDbBlockTableRecord
  2
*Paper_Space
340
1E
 70
     0
280
     1
281
     0
  0
BLOCK_RECORD
  5
23
330
1
100
AcDbSymbolTableRecord
100
AcDbBlockTableRecord
  2
*Paper_Space0
340
26
 70
     0
280
     1
281
     0
  0
BLOCK_RECORD
  5
41
330
1
100
AcDbSymbolTableRecord
100
AcDbBlockTableRecord
  2
block 2
340
0
102
{BLKREFS
331
42
102
}
 70
     0
280
     1
281
     0
  0
BLOCK_RECORD
  5
49
330
1
100
AcDbSymbolTableRecord
100
AcDbBlockTableRecord
  2
block 3
340
0
102
{BLKREFS
331
4A
102
}
 70
     0
280
     1
281
     0
  0
BLOCK_RECORD
  5
51
330
1
100
AcDbSymbolTableRecord
100
AcDbBlockTableRecord
  2
block 4
340
0
102
{BLKREFS
331
52
102
}
 70
     0
280
     1
281
     0
  0
BLOCK_RECORD
  5
5B
330
1
100
AcDbSymbolTableRecord
100
AcDbBlockTableRecord
  2
block 5
340
0
102
{BLKREFS
331
5C
102
}
 70
     0
280
     1
281
     0
  0
BLOCK_RECORD
  5
69
330
1
100
AcDbSymbolTableRecord
100
AcDbBlockTableRecord
  2
block 6
340
0
102
{BLKREFS
331
6A
102
}
 70
     0
280
     1
281
     0
  0
BLOCK_RECORD
  5
86
330
1
100
AcDbSymbolTableRecord
100
AcDbBlockTableRecord
  2
block 7
340
0
102
{BLKREFS
331
87
102
}
 70
     0
280
     1
281
     0
  0
BLOCK_RECORD
  5
F5
330
1
100
AcDbSymbolTableRecord
100
AcDbBlockTableRecord
  2
block 8
340
0
102
{BLKREFS
331
F6
102
}
 70
     0
280
     1
281
     0
  0
ENDTAB
  0
ENDSEC
  0
SECTION
  2
BLOCKS
  0
BLOCK
  5
20
330
1F
100
AcDbEntity
  8
0
100
AcDbBlockBegin
  2
*Model_Space
 70
     0
 10
0.0
 20
0.0
 30
0.0
  3
*Model_Space
  1

  0
ENDBLK
  5
21
330
1F
100
AcDbEntity
  8
0
100
AcDbBlockEnd
  0
BLOCK
  5
1C
330
1B
100
AcDbEntity
 67
     1
  8
0
100
AcDbBlockBegin
  2
*Paper_Space
 70
     0
 10
0.0
 20
0.0
 30
0.0
  3
*Paper_Space
  1

  0
ENDBLK
  5
1D
330
1B
100
AcDbEntity
 67
     1
  8
0
100
AcDbBlockEnd
  0
BLOCK
  5
24
330
23
100
AcDbEntity
  8
0
100
AcDbBlockBegin
  2
*Paper_Space0
 70
     0
 10
0.0
 20
0.0
 30
0.0
  3
*Paper_Space0
  1

  0
ENDBLK
  5
25
330
23
100
AcDbEntity
  8
0
100
AcDbBlockEnd
  0
BLOCK
  5
43
330
41
100
AcDbEntity
  8
0
100
AcDbBlockBegin
  2
block 2
 70
     0
 10
0.0
 20
0.0
 30
0.0
  3
block 2
  1

  0
SPLINE
  5
45
330
41
100
AcDbEntity
  8
_U+30EC_U+30A4_U+30E4_U+30FC 1
370
     0
100
AcDbSpline
210
0.0
220
0.0
230
1.0
 70
    11
 71
     3
 72
    26
 73
    22
 74
     0
 42
0.0000000001
 43
0.0000000001
 12
1.0
 22
0.0
 32
0.0
 13
1.0
 23
0.0
 33
0.0
 40
0.0
 40
0.0
 40
0.0
 40
0.0
 40
1.0
 40
1.0
 40
1.0
 40
2.0
 40
2.0
 40
2.0
 40
3.0
 40
3.0
 40
3.0
 40
4.0
 40
4.0
 40
4.0
 40
5.0
 40
5.0
 40
5.0
 40
6.0
 40
6.0
 40
6.0
 40
7.0
 40
7.0
 40
7.0
 40
7.0
 10
52.20921629554145
 20
-142.4963839704523
 30
0.0
 10
52.20921629554145
 20
-142.4963839704523
 30
0.0
 10
52.20921629554145
 20
-141.3922308674297
 30
0.0
 10
52.20921629554145
 20
-141.3922308674297
 30
0.0
 10
52.20921629554145
 20
-141.3922308674297
 30
0.0
 10
51.85643851785186
 20
-141.3922308674297
 30
0.0
 10
51.85643851785186
 20
-141.3922308674297
 30
0.0
 10
51.85643851785186
 20
-141.3922308674297
 30
0.0
 10
51.85643851785186
 20
-141.244091761564
 30
0.0
 10
51.85643851785186
 20
-141.244091761564
 30
0.0
 10
52.21145560760686
 20
-141.2292778509774
 30
0.0
 10
52.26123723736872
 20
-141.0663248345251
 30
0.0
 10
52.29275986105876
 20
-140.9519476644148
 30
0.0
 10
52.29275986105876
 20
-140.9519476644148
 30
0.0
 10
52.44882268654057
 20
-140.9519476644148
 30
0.0
 10
52.44882268654057
 20
-140.9519476644148
 30
0.0
 10
52.44882268654057
 20
-140.9519476644148
 30
0.0
 10
52.44882268654057
 20
-142.4963839704523
 30
0.0
 10
52.44882268654057
 20
-142.4963839704523
 30
0.0
 10
52.44882268654057
 20
-142.4963839704523
 30
0.0
 10
52.20921629554145
 20
-142.4963839704523
 30
0.0
 10
52.20921629554145
 20
-142.4963839704523
 30
0.0
  0
HATCH
  5
46
330
41
100
AcDbEntity
  8
_U+30EC_U+30A4_U+30E4_U+30FC 1
 62
   179
420
  2234388
100
AcDbHatch
 10
0.0
 20
0.0
 30
0.0
210
0.0
220
0.0
230
1.0
  2
SOLID
 70
     1
 71
     0
 91
        1
 92
        1
 93
        1
 72
     4
 94
        3
 73
     0
 74
     1
 95
       26
 96
       22
 40
0.0
 40
0.0
 40
0.0
 40
0.0
 40
1.0
 40
1.0
 40
1.0
 40
2.0
 40
2.0
 40
2.0
 40
3.0
 40
3.0
 40
3.0
 40
4.0
 40
4.0
 40
4.0
 40
5.0
 40
5.0
 40
5.0
 40
6.0
 40
6.0
 40
6.0
 40
7.0
 40
7.0
 40
7.0
 40
7.0
 10
52.20921629554145
 20
-142.4963839704523
 10
52.20921629554145
 20
-142.4963839704523
 10
52.20921629554145
 20
-141.3922308674297
 10
52.20921629554145
 20
-141.3922308674297
 10
52.20921629554145
 20
-141.3922308674297
 10
51.85643851785186
 20
-141.3922308674297
 10
51.85643851785186
 20
-141.3922308674297
 10
51.85643851785186
 20
-141.3922308674297
 10
51.85643851785186
 20
-141.244091761564
 10
51.85643851785186
 20
-141.244091761564
 10
52.21145560760686
 20
-141.2292778509774
 10
52.26123723736872
 20
-141.0663248345251
 10
52.29275986105876
 20
-140.9519476644148
 10
52.29275986105876
 20
-140.9519476644148
 10
52.44882268654057
 20
-140.9519476644148
 10
52.44882268654057
 20
-140.9519476644148
 10
52.44882268654057
 20
-140.9519476644148
 10
52.44882268654057
 20
-142.4963839704523
 10
52.44882268654057
 20
-142.4963839704523
 10
52.44882268654057
 20
-142.4963839704523
 10
52.20921629554145
 20
-142.4963839704523
 10
52.20921629554145
 20
-142.4963839704523
 97
        0
 97
        0
 75
     2
 76
     1
 98
        0
  0
SPLINE
  5
47
330
41
100
AcDbEntity
  8
_U+30EC_U+30A4_U+30E4_U+30FC 1
370
     0
100
AcDbSpline
210
0.0
220
0.0
230
1.0
 70
    11
 71
     3
 72
    53
 73
    49
 74
     0
 42
0.0000000001
 43
0.0000000001
 12
1.0
 22
0.0
 32
0.0
 13
1.0
 23
0.0
 33
0.0
 40
0.0
 40
0.0
 40
0.0
 40
0.0
 40
1.0
 40
1.0
 40
1.0
 40
2.0
 40
2.0
 40
2.0
 40
3.0
 40
3.0
 40
3.0
 40
4.0
 40
4.0
 40
4.0
 40
5.0
 40
5.0
 40
5.0
 40
6.0
 40
6.0
 40
6.0
 40
7.0
 40
7.0
 40
7.0
 40
8.0
 40
8.0
 40
8.0
 40
9.0
 40
9.0
 40
9.0
 40
10.0
 40
10.0
 40
10.0
 40
11.0
 40
11.0
 40
11.0
 40
12.0
 40
12.0
 40
12.0
 40
13.0
 40
13.0
 40
13.0
 40
14.0
 40
14.0
 40
14.0
 40
15.0
 40
15.0
 40
15.0
 40
16.0
 40
16.0
 40
16.0
 40
16.0
 10
53.49871553567046
 20
-142.5470268740855
 30
0.0
 10
53.41499971537889
 20
-142.5470268740855
 30
0.0
 10
53.30647920759352
 20
-142.5301459062077
 30
0.0
 10
53.19795869980815
 20
-142.4667561492791
 30
0.0
 10
53.01261256270171
 20
-142.3568576032997
 30
0.0
 10
52.99004718727333
 20
-142.2255994653117
 30
0.0
 10
52.96954886913609
 20
-142.1177679766234
 30
0.0
 10
52.96954886913609
 20
-142.1177679766234
 30
0.0
 10
53.20708820284406
 20
-142.1177679766234
 30
0.0
 10
53.20708820284406
 20
-142.1177679766234
 30
0.0
 10
53.26582708086757
 20
-142.3165499861223
 30
0.0
 10
53.40139158821216
 20
-142.3461778072954
 30
0.0
 10
53.50095484773588
 20
-142.3461778072954
 30
0.0
 10
53.65012748224719
 20
-142.3461778072954
 30
0.0
 10
53.81290824392525
 20
-142.2466145477717
 30
0.0
 10
53.81290824392525
 20
-142.0140706025173
 30
0.0
 10
53.81290824392525
 20
-141.7581000079633
 30
0.0
 10
53.62067191584831
 20
-141.6885090791612
 30
0.0
 10
53.49182534469996
 20
-141.6885090791612
 30
0.0
 10
53.45789115417026
 20
-141.6885090791612
 30
0.0
 10
53.30647920759352
 20
-141.6885090791612
 30
0.0
 10
53.21156682697489
 20
-141.8173556503096
 30
0.0
 10
53.21156682697489
 20
-141.8173556503096
 30
0.0
 10
53.02380912302877
 20
-141.7980631155922
 30
0.0
 10
53.02380912302877
 20
-141.7980631155922
 30
0.0
 10
53.02380912302877
 20
-141.7980631155922
 30
0.0
 10
53.15265569417711
 20
-140.9519476644148
 30
0.0
 10
53.15265569417711
 20
-140.9519476644148
 30
0.0
 10
53.15265569417711
 20
-140.9519476644148
 30
0.0
 10
53.98464625386495
 20
-140.9519476644148
 30
0.0
 10
53.98464625386495
 20
-140.9519476644148
 30
0.0
 10
53.98464625386495
 20
-140.9519476644148
 30
0.0
 10
53.98464625386495
 20
-141.1469400688799
 30
0.0
 10
53.98464625386495
 20
-141.1469400688799
 30
0.0
 10
53.98464625386495
 20
-141.1469400688799
 30
0.0
 10
53.3268052709565
 20
-141.1469400688799
 30
0.0
 10
53.3268052709565
 20
-141.1469400688799
 30
0.0
 10
53.3268052709565
 20
-141.1469400688799
 30
0.0
 10
53.25669757783166
 20
-141.5699977944686
 30
0.0
 10
53.25669757783166
 20
-141.5699977944686
 30
0.0
 10
53.32232664682567
 20
-141.5358913491646
 30
0.0
 10
53.41052109124806
 20
-141.4955837319872
 30
0.0
 10
53.537128350331
 20
-141.4955837319872
 30
0.0
 10
53.80842961979442
 20
-141.4955837319872
 30
0.0
 10
54.06164413796029
 20
-141.6819633977392
 30
0.0
 10
54.06164413796029
 20
-141.9951225773484
 30
0.0
 10
54.06164413796029
 20
-142.31241587154
 30
0.0
 10
53.82203774696116
 20
-142.5470268740855
 30
0.0
 10
53.49871553567046
 20
-142.5470268740855
 30
0.0
  0
HATCH
  5
48
330
41
100
AcDbEntity
  8
_U+30EC_U+30A4_U+30E4_U+30FC 1
 62
   179
420
  2234388
100
AcDbHatch
 10
0.0
 20
0.0
 30
0.0
210
0.0
220
0.0
230
1.0
  2
SOLID
 70
     1
 71
     0
 91
        1
 92
        1
 93
        1
 72
     4
 94
        3
 73
     0
 74
     1
 95
       53
 96
       49
 40
0.0
 40
0.0
 40
0.0
 40
0.0
 40
1.0
 40
1.0
 40
1.0
 40
2.0
 40
2.0
 40
2.0
 40
3.0
 40
3.0
 40
3.0
 40
4.0
 40
4.0
 40
4.0
 40
5.0
 40
5.0
 40
5.0
 40
6.0
 40
6.0
 40
6.0
 40
7.0
 40
7.0
 40
7.0
 40
8.0
 40
8.0
 40
8.0
 40
9.0
 40
9.0
 40
9.0
 40
10.0
 40
10.0
 40
10.0
 40
11.0
 40
11.0
 40
11.0
 40
12.0
 40
12.0
 40
12.0
 40
13.0
 40
13.0
 40
13.0
 40
14.0
 40
14.0
 40
14.0
 40
15.0
 40
15.0
 40
15.0
 40
16.0
 40
16.0
 40
16.0
 40
16.0
 10
53.49871553567046
 20
-142.5470268740855
 10
53.41499971537889
 20
-142.5470268740855
 10
53.30647920759352
 20
-142.5301459062077
 10
53.19795869980815
 20
-142.4667561492791
 10
53.01261256270171
 20
-142.3568576032997
 10
52.99004718727333
 20
-142.2255994653117
 10
52.96954886913609
 20
-142.1177679766234
 10
52.96954886913609
 20
-142.1177679766234
 10
53.20708820284406
 20
-142.1177679766234
 10
53.20708820284406
 20
-142.1177679766234
 10
53.26582708086757
 20
-142.3165499861223
 10
53.40139158821216
 20
-142.3461778072954
 10
53.50095484773588
 20
-142.3461778072954
 10
53.65012748224719
 20
-142.3461778072954
 10
53.81290824392525
 20
-142.2466145477717
 10
53.81290824392525
 20
-142.0140706025173
 10
53.81290824392525
 20
-141.7581000079633
 10
53.62067191584831
 20
-141.6885090791612
 10
53.49182534469996
 20
-141.6885090791612
 10
53.45789115417026
 20
-141.6885090791612
 10
53.30647920759352
 20
-141.6885090791612
 10
53.21156682697489
 20
-141.8173556503096
 10
53.21156682697489
 20
-141.8173556503096
 10
53.02380912302877
 20
-141.7980631155922
 10
53.02380912302877
 20
-141.7980631155922
 10
53.02380912302877
 20
-141.7980631155922
 10
53.15265569417711
 20
-140.9519476644148
 10
53.15265569417711
 20
-140.9519476644148
 10
53.15265569417711
 20
-140.9519476644148
 10
53.98464625386495
 20
-140.9519476644148
 10
53.98464625386495
 20
-140.9519476644148
 10
53.98464625386495
 20
-140.9519476644148
 10
53.98464625386495
 20
-141.1469400688799
 10
53.98464625386495
 20
-141.1469400688799
 10
53.98464625386495
 20
-141.1469400688799
 10
53.3268052709565
 20
-141.1469400688799
 10
53.3268052709565
 20
-141.1469400688799
 10
53.3268052709565
 20
-141.1469400688799
 10
53.25669757783166
 20
-141.5699977944686
 10
53.25669757783166
 20
-141.5699977944686
 10
53.32232664682567
 20
-141.5358913491646
 10
53.41052109124806
 20
-141.4955837319872
 10
53.537128350331
 20
-141.4955837319872
 10
53.80842961979442
 20
-141.4955837319872
 10
54.06164413796029
 20
-141.6819633977392
 10
54.06164413796029
 20
-141.9951225773484
 10
54.06164413796029
 20
-142.31241587154
 10
53.82203774696116
 20
-142.5470268740855
 10
53.49871553567046
 20
-142.5470268740855
 97
        0
 97
        0
 75
     2
 76
     1
 98
        0
  0
ENDBLK
  5
44
330
41
100
AcDbEntity
  8
0
100
AcDbBlockEnd
  0
BLOCK
  5
4B
330
49
100
AcDbEntity
  8
0
100
AcDbBlockBegin
  2
block 3
 70
     0
 10
0.0
 20
0.0
 30
0.0
  3
block 3
  1

  0
SPLINE
  5
4D
330
49
100
AcDbEntity
  8
_U+30EC_U+30A4_U+30E4_U+30FC 1
370
     0
100
AcDbSpline
210
0.0
220
0.0
230
1.0
 70
    11
 71
     3
 72
    26
 73
    22
 74
     0
 42
0.0000000001
 43
0.0000000001
 12
1.0
 22
0.0
 32
0.0
 13
1.0
 23
0.0
 33
0.0
 40
0.0
 40
0.0
 40
0.0
 40
0.0
 40
1.0
 40
1.0
 40
1.0
 40
2.0
 40
2.0
 40
2.0
 40
3.0
 40
3.0
 40
3.0
 40
4.0
 40
4.0
 40
4.0
 40
5.0
 40
5.0
 40
5.0
 40
6.0
 40
6.0
 40
6.0
 40
7.0
 40
7.0
 40
7.0
 40
7.0
 10
97.2081922500035
 20
-142.4963839704523
 30
0.0
 10
97.2081922500035
 20
-142.4963839704523
 30
0.0
 10
96.95497773183764
 20
-142.4963839704523
 30
0.0
 10
96.95497773183764
 20
-142.4963839704523
 30
0.0
 10
96.98219398617113
 20
-142.1873589054254
 30
0.0
 10
97.18786618664053
 20
-141.6692165444438
 30
0.0
 10
97.62194821778202
 20
-141.1634765272091
 30
0.0
 10
97.62194821778202
 20
-141.1634765272091
 30
0.0
 10
96.72656790116558
 20
-141.1634765272091
 30
0.0
 10
96.72656790116558
 20
-141.1634765272091
 30
0.0
 10
96.72656790116558
 20
-141.1634765272091
 30
0.0
 10
96.72656790116558
 20
-140.9519476644148
 30
0.0
 10
96.72656790116558
 20
-140.9519476644148
 30
0.0
 10
96.72656790116558
 20
-140.9519476644148
 30
0.0
 10
97.87516273594788
 20
-140.9519476644148
 30
0.0
 10
97.87516273594788
 20
-140.9519476644148
 30
0.0
 10
97.87516273594788
 20
-140.9519476644148
 30
0.0
 10
97.87516273594788
 20
-141.1634765272091
 30
0.0
 10
97.87516273594788
 20
-141.1634765272091
 30
0.0
 10
97.5292751492288
 20
-141.4535535670672
 30
0.0
 10
97.24436575259864
 20
-142.0457654809816
 30
0.0
 10
97.2081922500035
 20
-142.4963839704523
 30
0.0
  0
HATCH
  5
4E
330
49
100
AcDbEntity
  8
_U+30EC_U+30A4_U+30E4_U+30FC 1
 62
   179
420
  2234388
100
AcDbHatch
 10
0.0
 20
0.0
 30
0.0
210
0.0
220
0.0
230
1.0
  2
SOLID
 70
     1
 71
     0
 91
        1
 92
        1
 93
        1
 72
     4
 94
        3
 73
     0
 74
     1
 95
       26
 96
       22
 40
0.0
 40
0.0
 40
0.0
 40
0.0
 40
1.0
 40
1.0
 40
1.0
 40
2.0
 40
2.0
 40
2.0
 40
3.0
 40
3.0
 40
3.0
 40
4.0
 40
4.0
 40
4.0
 40
5.0
 40
5.0
 40
5.0
 40
6.0
 40
6.0
 40
6.0
 40
7.0
 40
7.0
 40
7.0
 40
7.0
 10
97.2081922500035
 20
-142.4963839704523
 10
97.2081922500035
 20
-142.4963839704523
 10
96.95497773183764
 20
-142.4963839704523
 10
96.95497773183764
 20
-142.4963839704523
 10
96.98219398617113
 20
-142.1873589054254
 10
97.18786618664053
 20
-141.6692165444438
 10
97.62194821778202
 20
-141.1634765272091
 10
97.62194821778202
 20
-141.1634765272091
 10
96.72656790116558
 20
-141.1634765272091
 10
96.72656790116558
 20
-141.1634765272091
 10
96.72656790116558
 20
-141.1634765272091
 10
96.72656790116558
 20
-140.9519476644148
 10
96.72656790116558
 20
-140.9519476644148
 10
96.72656790116558
 20
-140.9519476644148
 10
97.87516273594788
 20
-140.9519476644148
 10
97.87516273594788
 20
-140.9519476644148
 10
97.87516273594788
 20
-140.9519476644148
 10
97.87516273594788
 20
-141.1634765272091
 10
97.87516273594788
 20
-141.1634765272091
 10
97.5292751492288
 20
-141.4535535670672
 10
97.24436575259864
 20
-142.0457654809816
 10
97.2081922500035
 20
-142.4963839704523
 97
        0
 97
        0
 75
     2
 76
     1
 98
        0
  0
SPLINE
  5
4F
330
49
100
AcDbEntity
  8
_U+30EC_U+30A4_U+30E4_U+30FC 1
370
     0
100
AcDbSpline
210
0.0
220
0.0
230
1.0
 70
    11
 71
     3
 72
    53
 73
    49
 74
     0
 42
0.0000000001
 43
0.0000000001
 12
1.0
 22
0.0
 32
0.0
 13
1.0
 23
0.0
 33
0.0
 40
0.0
 40
0.0
 40
0.0
 40
0.0
 40
1.0
 40
1.0
 40
1.0
 40
2.0
 40
2.0
 40
2.0
 40
3.0
 40
3.0
 40
3.0
 40
4.0
 40
4.0
 40
4.0
 40
5.0
 40
5.0
 40
5.0
 40
6.0
 40
6.0
 40
6.0
 40
7.0
 40
7.0
 40
7.0
 40
8.0
 40
8.0
 40
8.0
 40
9.0
 40
9.0
 40
9.0
 40
10.0
 40
10.0
 40
10.0
 40
11.0
 40
11.0
 40
11.0
 40
12.0
 40
12.0
 40
12.0
 40
13.0
 40
13.0
 40
13.0
 40
14.0
 40
14.0
 40
14.0
 40
15.0
 40
15.0
 40
15.0
 40
16.0
 40
16.0
 40
16.0
 40
16.0
 10
98.54075518369815
 20
-142.5470268740855
 30
0.0
 10
98.45703936340658
 20
-142.5470268740855
 30
0.0
 10
98.34851885562121
 20
-142.5301459062077
 30
0.0
 10
98.23999834783584
 20
-142.4667561492791
 30
0.0
 10
98.0546522107294
 20
-142.3568576032997
 30
0.0
 10
98.03191458052675
 20
-142.2255994653117
 30
0.0
 10
98.01158851716377
 20
-142.1177679766234
 30
0.0
 10
98.01158851716377
 20
-142.1177679766234
 30
0.0
 10
98.24895559609749
 20
-142.1177679766234
 30
0.0
 10
98.24895559609749
 20
-142.1177679766234
 30
0.0
 10
98.30786672889526
 20
-142.3165499861223
 30
0.0
 10
98.44325898146558
 20
-142.3461778072954
 30
0.0
 10
98.5428222409893
 20
-142.3461778072954
 30
0.0
 10
98.69199487550061
 20
-142.3461778072954
 30
0.0
 10
98.85494789195293
 20
-142.2466145477717
 30
0.0
 10
98.85494789195293
 20
-142.0140706025173
 30
0.0
 10
98.85494789195293
 20
-141.7581000079633
 30
0.0
 10
98.66271156387599
 20
-141.6885090791612
 30
0.0
 10
98.53386499272764
 20
-141.6885090791612
 30
0.0
 10
98.49975854742368
 20
-141.6885090791612
 30
0.0
 10
98.34851885562121
 20
-141.6885090791612
 30
0.0
 10
98.25343422022831
 20
-141.8173556503096
 30
0.0
 10
98.25343422022831
 20
-141.8173556503096
 30
0.0
 10
98.0656765162822
 20
-141.7980631155922
 30
0.0
 10
98.0656765162822
 20
-141.7980631155922
 30
0.0
 10
98.0656765162822
 20
-141.7980631155922
 30
0.0
 10
98.19452308743054
 20
-140.9519476644148
 30
0.0
 10
98.19452308743054
 20
-140.9519476644148
 30
0.0
 10
98.19452308743054
 20
-140.9519476644148
 30
0.0
 10
99.02651364711838
 20
-140.9519476644148
 30
0.0
 10
99.02651364711838
 20
-140.9519476644148
 30
0.0
 10
99.02651364711838
 20
-140.9519476644148
 30
0.0
 10
99.02651364711838
 20
-141.1469400688799
 30
0.0
 10
99.02651364711838
 20
-141.1469400688799
 30
0.0
 10
99.02651364711838
 20
-141.1469400688799
 30
0.0
 10
98.36884491898418
 20
-141.1469400688799
 30
0.0
 10
98.36884491898418
 20
-141.1469400688799
 30
0.0
 10
98.36884491898418
 20
-141.1469400688799
 30
0.0
 10
98.29856497108509
 20
-141.5699977944686
 30
0.0
 10
98.29856497108509
 20
-141.5699977944686
 30
0.0
 10
98.36436629485335
 20
-141.5358913491646
 30
0.0
 10
98.45256073927575
 20
-141.4955837319872
 30
0.0
 10
98.57899574358443
 20
-141.4955837319872
 30
0.0
 10
98.8504692678221
 20
-141.4955837319872
 30
0.0
 10
99.10368378598797
 20
-141.6819633977392
 30
0.0
 10
99.10368378598797
 20
-141.9951225773484
 30
0.0
 10
99.10368378598797
 20
-142.31241587154
 30
0.0
 10
98.86390514021458
 20
-142.5470268740855
 30
0.0
 10
98.54075518369815
 20
-142.5470268740855
 30
0.0
  0
HATCH
  5
50
330
49
100
AcDbEntity
  8
_U+30EC_U+30A4_U+30E4_U+30FC 1
 62
   179
420
  2234388
100
AcDbHatch
 10
0.0
 20
0.0
 30
0.0
210
0.0
220
0.0
230
1.0
  2
SOLID
 70
     1
 71
     0
 91
        1
 92
        1
 93
        1
 72
     4
 94
        3
 73
     0
 74
     1
 95
       53
 96
       49
 40
0.0
 40
0.0
 40
0.0
 40
0.0
 40
1.0
 40
1.0
 40
1.0
 40
2.0
 40
2.0
 40
2.0
 40
3.0
 40
3.0
 40
3.0
 40
4.0
 40
4.0
 40
4.0
 40
5.0
 40
5.0
 40
5.0
 40
6.0
 40
6.0
 40
6.0
 40
7.0
 40
7.0
 40
7.0
 40
8.0
 40
8.0
 40
8.0
 40
9.0
 40
9.0
 40
9.0
 40
10.0
 40
10.0
 40
10.0
 40
11.0
 40
11.0
 40
11.0
 40
12.0
 40
12.0
 40
12.0
 40
13.0
 40
13.0
 40
13.0
 40
14.0
 40
14.0
 40
14.0
 40
15.0
 40
15.0
 40
15.0
 40
16.0
 40
16.0
 40
16.0
 40
16.0
 10
98.54075518369815
 20
-142.5470268740855
 10
98.45703936340658
 20
-142.5470268740855
 10
98.34851885562121
 20
-142.5301459062077
 10
98.23999834783584
 20
-142.4667561492791
 10
98.0546522107294
 20
-142.3568576032997
 10
98.03191458052675
 20
-142.2255994653117
 10
98.01158851716377
 20
-142.1177679766234
 10
98.01158851716377
 20
-142.1177679766234
 10
98.24895559609749
 20
-142.1177679766234
 10
98.24895559609749
 20
-142.1177679766234
 10
98.30786672889526
 20
-142.3165499861223
 10
98.44325898146558
 20
-142.3461778072954
 10
98.5428222409893
 20
-142.3461778072954
 10
98.69199487550061
 20
-142.3461778072954
 10
98.85494789195293
 20
-142.2466145477717
 10
98.85494789195293
 20
-142.0140706025173
 10
98.85494789195293
 20
-141.7581000079633
 10
98.66271156387599
 20
-141.6885090791612
 10
98.53386499272764
 20
-141.6885090791612
 10
98.49975854742368
 20
-141.6885090791612
 10
98.34851885562121
 20
-141.6885090791612
 10
98.25343422022831
 20
-141.8173556503096
 10
98.25343422022831
 20
-141.8173556503096
 10
98.0656765162822
 20
-141.7980631155922
 10
98.0656765162822
 20
-141.7980631155922
 10
98.0656765162822
 20
-141.7980631155922
 10
98.19452308743054
 20
-140.9519476644148
 10
98.19452308743054
 20
-140.9519476644148
 10
98.19452308743054
 20
-140.9519476644148
 10
99.02651364711838
 20
-140.9519476644148
 10
99.02651364711838
 20
-140.9519476644148
 10
99.02651364711838
 20
-140.9519476644148
 10
99.02651364711838
 20
-141.1469400688799
 10
99.02651364711838
 20
-141.1469400688799
 10
99.02651364711838
 20
-141.1469400688799
 10
98.36884491898418
 20
-141.1469400688799
 10
98.36884491898418
 20
-141.1469400688799
 10
98.36884491898418
 20
-141.1469400688799
 10
98.29856497108509
 20
-141.5699977944686
 10
98.29856497108509
 20
-141.5699977944686
 10
98.36436629485335
 20
-141.5358913491646
 10
98.45256073927575
 20
-141.4955837319872
 10
98.57899574358443
 20
-141.4955837319872
 10
98.8504692678221
 20
-141.4955837319872
 10
99.10368378598797
 20
-141.6819633977392
 10
99.10368378598797
 20
-141.9951225773484
 10
99.10368378598797
 20
-142.31241587154
 10
98.86390514021458
 20
-142.5470268740855
 10
98.54075518369815
 20
-142.5470268740855
 97
        0
 97
        0
 75
     2
 76
     1
 98
        0
  0
ENDBLK
  5
4C
330
49
100
AcDbEntity
  8
0
100
AcDbBlockEnd
  0
BLOCK
  5
53
330
51
100
AcDbEntity
  8
0
100
AcDbBlockBegin
  2
block 4
 70
     0
 10
0.0
 20
0.0
 30
0.0
  3
block 4
  1

  0
SPLINE
  5
55
330
51
100
AcDbEntity
  8
_U+30EC_U+30A4_U+30E4_U+30FC 1
370
     0
100
AcDbSpline
210
0.0
220
0.0
230
1.0
 70
    11
 71
     3
 72
    32
 73
    28
 74
     0
 42
0.0000000001
 43
0.0000000001
 12
1.0
 22
0.0
 32
0.0
 13
1.0
 23
0.0
 33
0.0
 40
0.0
 40
0.0
 40
0.0
 40
0.0
 40
1.0
 40
1.0
 40
1.0
 40
2.0
 40
2.0
 40
2.0
 40
3.0
 40
3.0
 40
3.0
 40
4.0
 40
4.0
 40
4.0
 40
5.0
 40
5.0
 40
5.0
 40
6.0
 40
6.0
 40
6.0
 40
7.0
 40
7.0
 40
7.0
 40
8.0
 40
8.0
 40
8.0
 40
9.0
 40
9.0
 40
9.0
 40
9.0
 10
89.62002493419222
 20
-149.152308447955
 30
0.0
 10
89.43467879708578
 20
-149.152308447955
 30
0.0
 10
89.17250703065827
 20
-149.0823730096044
 30
0.0
 10
89.13168264915805
 20
-148.7502658048263
 30
0.0
 10
89.13168264915805
 20
-148.7502658048263
 30
0.0
 10
89.36009247983012
 20
-148.7502658048263
 30
0.0
 10
89.36009247983012
 20
-148.7502658048263
 30
0.0
 10
89.37128904015718
 20
-148.8095214471726
 30
0.0
 10
89.40522323068689
 20
-148.9576605530384
 30
0.0
 10
89.62226424625763
 20
-148.9576605530384
 30
0.0
 10
89.93438989722127
 20
-148.9576605530384
 30
0.0
 10
89.97504202394721
 20
-148.6276204055514
 30
0.0
 10
89.98865015111396
 20
-148.4222927146305
 30
0.0
 10
89.89132620365565
 20
-148.5025634394369
 30
0.0
 10
89.8189791984654
 20
-148.559752024492
 30
0.0
 10
89.62450355832304
 20
-148.559752024492
 30
0.0
 10
89.43243948502037
 20
-148.559752024492
 30
0.0
 10
89.10911727372967
 20
-148.4539875930948
 30
0.0
 10
89.10911727372967
 20
-148.0478108353839
 30
0.0
 10
89.10911727372967
 20
-147.7284504839012
 30
0.0
 10
89.32167966516958
 20
-147.5083088823937
 30
0.0
 10
89.66067706091818
 20
-147.5083088823937
 30
0.0
 10
90.21016979081551
 20
-147.5083088823937
 30
0.0
 10
90.22153860591685
 20
-148.0626247459705
 30
0.0
 10
90.22153860591685
 20
-148.276220666056
 30
0.0
 10
90.22153860591685
 20
-148.5070420635677
 30
0.0
 10
90.2010402877796
 20
-149.152308447955
 30
0.0
 10
89.62002493419222
 20
-149.152308447955
 30
0.0
  0
SPLINE
  5
56
330
51
100
AcDbEntity
  8
_U+30EC_U+30A4_U+30E4_U+30FC 1
370
     0
100
AcDbSpline
210
0.0
220
0.0
230
1.0
 70
    11
 71
     3
 72
    17
 73
    13
 74
     0
 42
0.0000000001
 43
0.0000000001
 12
1.0
 22
0.0
 32
0.0
 13
1.0
 23
0.0
 33
0.0
 40
0.0
 40
0.0
 40
0.0
 40
0.0
 40
1.0
 40
1.0
 40
1.0
 40
2.0
 40
2.0
 40
2.0
 40
3.0
 40
3.0
 40
3.0
 40
4.0
 40
4.0
 40
4.0
 40
4.0
 10
89.66308862775784
 20
-147.7008897200192
 30
0.0
 10
89.53648136867491
 20
-147.7008897200192
 30
0.0
 10
89.3487236647288
 20
-147.7580783050744
 30
0.0
 10
89.3487236647288
 20
-148.0436767208016
 30
0.0
 10
89.3487236647288
 20
-148.2700194941825
 30
0.0
 10
89.49806855401438
 20
-148.3651041295754
 30
0.0
 10
89.64276256439487
 20
-148.3651041295754
 30
0.0
 10
89.92302108211994
 20
-148.3651041295754
 30
0.0
 10
89.96367320884589
 20
-148.1556423240722
 30
0.0
 10
89.96367320884589
 20
-148.0395426062193
 30
0.0
 10
89.96367320884589
 20
-147.8638427364716
 30
0.0
 10
89.86204289203103
 20
-147.7008897200192
 30
0.0
 10
89.66308862775784
 20
-147.7008897200192
 30
0.0
  0
HATCH
  5
57
330
51
100
AcDbEntity
  8
_U+30EC_U+30A4_U+30E4_U+30FC 1
 62
   179
420
  2234388
100
AcDbHatch
 10
0.0
 20
0.0
 30
0.0
210
0.0
220
0.0
230
1.0
  2
SOLID
 70
     1
 71
     0
 91
        2
 92
        1
 93
        1
 72
     4
 94
        3
 73
     0
 74
     1
 95
       32
 96
       28
 40
0.0
 40
0.0
 40
0.0
 40
0.0
 40
1.0
 40
1.0
 40
1.0
 40
2.0
 40
2.0
 40
2.0
 40
3.0
 40
3.0
 40
3.0
 40
4.0
 40
4.0
 40
4.0
 40
5.0
 40
5.0
 40
5.0
 40
6.0
 40
6.0
 40
6.0
 40
7.0
 40
7.0
 40
7.0
 40
8.0
 40
8.0
 40
8.0
 40
9.0
 40
9.0
 40
9.0
 40
9.0
 10
89.62002493419222
 20
-149.152308447955
 10
89.43467879708578
 20
-149.152308447955
 10
89.17250703065827
 20
-149.0823730096044
 10
89.13168264915805
 20
-148.7502658048263
 10
89.13168264915805
 20
-148.7502658048263
 10
89.36009247983012
 20
-148.7502658048263
 10
89.36009247983012
 20
-148.7502658048263
 10
89.37128904015718
 20
-148.8095214471726
 10
89.40522323068689
 20
-148.9576605530384
 10
89.62226424625763
 20
-148.9576605530384
 10
89.93438989722127
 20
-148.9576605530384
 10
89.97504202394721
 20
-148.6276204055514
 10
89.98865015111396
 20
-148.4222927146305
 10
89.89132620365565
 20
-148.5025634394369
 10
89.8189791984654
 20
-148.559752024492
 10
89.62450355832304
 20
-148.559752024492
 10
89.43243948502037
 20
-148.559752024492
 10
89.10911727372967
 20
-148.4539875930948
 10
89.10911727372967
 20
-148.0478108353839
 10
89.10911727372967
 20
-147.7284504839012
 10
89.32167966516958
 20
-147.5083088823937
 10
89.66067706091818
 20
-147.5083088823937
 10
90.21016979081551
 20
-147.5083088823937
 10
90.22153860591685
 20
-148.0626247459705
 10
90.22153860591685
 20
-148.276220666056
 10
90.22153860591685
 20
-148.5070420635677
 10
90.2010402877796
 20
-149.152308447955
 10
89.62002493419222
 20
-149.152308447955
 97
        0
 97
        0
 92
        1
 93
        1
 72
     4
 94
        3
 73
     0
 74
     1
 95
       17
 96
       13
 40
0.0
 40
0.0
 40
0.0
 40
0.0
 40
1.0
 40
1.0
 40
1.0
 40
2.0
 40
2.0
 40
2.0
 40
3.0
 40
3.0
 40
3.0
 40
4.0
 40
4.0
 40
4.0
 40
4.0
 10
89.66308862775784
 20
-147.7008897200192
 10
89.53648136867491
 20
-147.7008897200192
 10
89.3487236647288
 20
-147.7580783050744
 10
89.3487236647288
 20
-148.0436767208016
 10
89.3487236647288
 20
-148.2700194941825
 10
89.49806855401438
 20
-148.3651041295754
 10
89.64276256439487
 20
-148.3651041295754
 10
89.92302108211994
 20
-148.3651041295754
 10
89.96367320884589
 20
-148.1556423240722
 10
89.96367320884589
 20
-148.0395426062193
 10
89.96367320884589
 20
-147.8638427364716
 10
89.86204289203103
 20
-147.7008897200192
 10
89.66308862775784
 20
-147.7008897200192
 97
        0
 97
        0
 75
     2
 76
     1
 98
        0
  0
SPLINE
  5
58
330
51
100
AcDbEntity
  8
_U+30EC_U+30A4_U+30E4_U+30FC 1
370
     0
100
AcDbSpline
210
0.0
220
0.0
230
1.0
 70
    11
 71
     3
 72
    29
 73
    25
 74
     0
 42
0.0000000001
 43
0.0000000001
 12
1.0
 22
0.0
 32
0.0
 13
1.0
 23
0.0
 33
0.0
 40
0.0
 40
0.0
 40
0.0
 40
0.0
 40
1.0
 40
1.0
 40
1.0
 40
2.0
 40
2.0
 40
2.0
 40
3.0
 40
3.0
 40
3.0
 40
4.0
 40
4.0
 40
4.0
 40
5.0
 40
5.0
 40
5.0
 40
6.0
 40
6.0
 40
6.0
 40
7.0
 40
7.0
 40
7.0
 40
8.0
 40
8.0
 40
8.0
 40
8.0
 10
91.34808482959353
 20
-148.9235541077344
 30
0.0
 10
91.23284638561194
 20
-149.1330159132376
 30
0.0
 10
91.04750024850549
 20
-149.152308447955
 30
0.0
 10
90.92313230148797
 20
-149.152308447955
 30
0.0
 10
90.75122203677401
 20
-149.152308447955
 30
0.0
 10
90.59981009019728
 20
-149.1057996589041
 30
0.0
 10
90.49800751860815
 20
-148.9235541077344
 30
0.0
 10
90.38724769875736
 20
-148.7289062128178
 30
0.0
 10
90.36692163539439
 20
-148.4922281529811
 30
0.0
 10
90.36692163539439
 20
-148.3292751365288
 30
0.0
 10
90.36692163539439
 20
-148.1852701452454
 30
0.0
 10
90.38500838669195
 20
-147.9337781748221
 30
0.0
 10
90.49800751860815
 20
-147.7346516557747
 30
0.0
 10
90.61341821736401
 20
-147.5317355316935
 30
0.0
 10
90.78515622730372
 20
-147.5083088823937
 30
0.0
 10
90.92313230148797
 20
-147.5083088823937
 30
0.0
 10
91.09263099936226
 20
-147.5083088823937
 30
0.0
 10
91.24645451277867
 20
-147.5527506141535
 30
0.0
 10
91.34808482959353
 20
-147.7346516557747
 30
0.0
 10
91.45453828008776
 20
-147.9272324934001
 30
0.0
 10
91.47934296758156
 20
-148.1556423240722
 30
0.0
 10
91.47934296758156
 20
-148.3292751365288
 30
0.0
 10
91.47934296758156
 20
-148.5004963821457
 30
0.0
 10
91.4566053373789
 20
-148.7313177796574
 30
0.0
 10
91.34808482959353
 20
-148.9235541077344
 30
0.0
  0
SPLINE
  5
59
330
51
100
AcDbEntity
  8
_U+30EC_U+30A4_U+30E4_U+30FC 1
370
     0
100
AcDbSpline
210
0.0
220
0.0
230
1.0
 70
    11
 71
     3
 72
    17
 73
    13
 74
     0
 42
0.0000000001
 43
0.0000000001
 12
1.0
 22
0.0
 32
0.0
 13
1.0
 23
0.0
 33
0.0
 40
0.0
 40
0.0
 40
0.0
 40
0.0
 40
1.0
 40
1.0
 40
1.0
 40
2.0
 40
2.0
 40
2.0
 40
3.0
 40
3.0
 40
3.0
 40
4.0
 40
4.0
 40
4.0
 40
4.0
 10
90.92313230148797
 20
-147.7008897200192
 30
0.0
 10
90.65630965615537
 20
-147.7008897200192
 30
0.0
 10
90.6065280263935
 20
-147.9844210784553
 30
0.0
 10
90.6065280263935
 20
-148.3292751365288
 30
0.0
 10
90.6065280263935
 20
-148.6486354880115
 30
0.0
 10
90.64494084105405
 20
-148.9576605530384
 30
0.0
 10
90.92313230148797
 20
-148.9576605530384
 30
0.0
 10
91.1875433799809
 20
-148.9576605530384
 30
0.0
 10
91.23956432180817
 20
-148.6761962518935
 30
0.0
 10
91.23956432180817
 20
-148.3292751365288
 30
0.0
 10
91.23956432180817
 20
-148.0099147850461
 30
0.0
 10
91.19891219508222
 20
-147.7008897200192
 30
0.0
 10
90.92313230148797
 20
-147.7008897200192
 30
0.0
  0
HATCH
  5
5A
330
51
100
AcDbEntity
  8
_U+30EC_U+30A4_U+30E4_U+30FC 1
 62
   179
420
  2234388
100
AcDbHatch
 10
0.0
 20
0.0
 30
0.0
210
0.0
220
0.0
230
1.0
  2
SOLID
 70
     1
 71
     0
 91
        2
 92
        1
 93
        1
 72
     4
 94
        3
 73
     0
 74
     1
 95
       29
 96
       25
 40
0.0
 40
0.0
 40
0.0
 40
0.0
 40
1.0
 40
1.0
 40
1.0
 40
2.0
 40
2.0
 40
2.0
 40
3.0
 40
3.0
 40
3.0
 40
4.0
 40
4.0
 40
4.0
 40
5.0
 40
5.0
 40
5.0
 40
6.0
 40
6.0
 40
6.0
 40
7.0
 40
7.0
 40
7.0
 40
8.0
 40
8.0
 40
8.0
 40
8.0
 10
91.34808482959353
 20
-148.9235541077344
 10
91.23284638561194
 20
-149.1330159132376
 10
91.04750024850549
 20
-149.152308447955
 10
90.92313230148797
 20
-149.152308447955
 10
90.75122203677401
 20
-149.152308447955
 10
90.59981009019728
 20
-149.1057996589041
 10
90.49800751860815
 20
-148.9235541077344
 10
90.38724769875736
 20
-148.7289062128178
 10
90.36692163539439
 20
-148.4922281529811
 10
90.36692163539439
 20
-148.3292751365288
 10
90.36692163539439
 20
-148.1852701452454
 10
90.38500838669195
 20
-147.9337781748221
 10
90.49800751860815
 20
-147.7346516557747
 10
90.61341821736401
 20
-147.5317355316935
 10
90.78515622730372
 20
-147.5083088823937
 10
90.92313230148797
 20
-147.5083088823937
 10
91.09263099936226
 20
-147.5083088823937
 10
91.24645451277867
 20
-147.5527506141535
 10
91.34808482959353
 20
-147.7346516557747
 10
91.45453828008776
 20
-147.9272324934001
 10
91.47934296758156
 20
-148.1556423240722
 10
91.47934296758156
 20
-148.3292751365288
 10
91.47934296758156
 20
-148.5004963821457
 10
91.4566053373789
 20
-148.7313177796574
 10
91.34808482959353
 20
-148.9235541077344
 97
        0
 97
        0
 92
        1
 93
        1
 72
     4
 94
        3
 73
     0
 74
     1
 95
       17
 96
       13
 40
0.0
 40
0.0
 40
0.0
 40
0.0
 40
1.0
 40
1.0
 40
1.0
 40
2.0
 40
2.0
 40
2.0
 40
3.0
 40
3.0
 40
3.0
 40
4.0
 40
4.0
 40
4.0
 40
4.0
 10
90.92313230148797
 20
-147.7008897200192
 10
90.65630965615537
 20
-147.7008897200192
 10
90.6065280263935
 20
-147.9844210784553
 10
90.6065280263935
 20
-148.3292751365288
 10
90.6065280263935
 20
-148.6486354880115
 10
90.64494084105405
 20
-148.9576605530384
 10
90.92313230148797
 20
-148.9576605530384
 10
91.1875433799809
 20
-148.9576605530384
 10
91.23956432180817
 20
-148.6761962518935
 10
91.23956432180817
 20
-148.3292751365288
 10
91.23956432180817
 20
-148.0099147850461
 10
91.19891219508222
 20
-147.7008897200192
 10
90.92313230148797
 20
-147.7008897200192
 97
        0
 97
        0
 75
     2
 76
     1
 98
        0
  0
ENDBLK
  5
54
330
51
100
AcDbEntity
  8
0
100
AcDbBlockEnd
  0
BLOCK
  5
5D
330
5B
100
AcDbEntity
  8
0
100
AcDbBlockBegin
  2
block 5
 70
     0
 10
0.0
 20
0.0
 30
0.0
  3
block 5
  1

  0
SPLINE
  5
5F
330
5B
100
AcDbEntity
  8
_U+30EC_U+30A4_U+30E4_U+30FC 1
370
     0
100
AcDbSpline
210
0.0
220
0.0
230
1.0
 70
    11
 71
     3
 72
    26
 73
    22
 74
     0
 42
0.0000000001
 43
0.0000000001
 12
1.0
 22
0.0
 32
0.0
 13
1.0
 23
0.0
 33
0.0
 40
0.0
 40
0.0
 40
0.0
 40
0.0
 40
1.0
 40
1.0
 40
1.0
 40
2.0
 40
2.0
 40
2.0
 40
3.0
 40
3.0
 40
3.0
 40
4.0
 40
4.0
 40
4.0
 40
5.0
 40
5.0
 40
5.0
 40
6.0
 40
6.0
 40
6.0
 40
7.0
 40
7.0
 40
7.0
 40
7.0
 10
140.3287298911331
 20
-111.2614257534347
 30
0.0
 10
140.3287298911331
 20
-111.2614257534347
 30
0.0
 10
139.2245767881105
 20
-111.2614257534347
 30
0.0
 10
139.2245767881105
 20
-111.2614257534347
 30
0.0
 10
139.2245767881105
 20
-111.2614257534347
 30
0.0
 10
139.2245767881105
 20
-111.6138590215757
 30
0.0
 10
139.2245767881105
 20
-111.6138590215757
 30
0.0
 10
139.2245767881105
 20
-111.6138590215757
 30
0.0
 10
139.0764376822448
 20
-111.6138590215757
 30
0.0
 10
139.0764376822448
 20
-111.6138590215757
 30
0.0
 10
139.0616237716582
 20
-111.259014186595
 30
0.0
 10
138.8986707552059
 20
-111.2094048116074
 30
0.0
 10
138.7842935850956
 20
-111.1777099331431
 30
0.0
 10
138.7842935850956
 20
-111.1777099331431
 30
0.0
 10
138.7842935850956
 20
-111.0216471076613
 30
0.0
 10
138.7842935850956
 20
-111.0216471076613
 30
0.0
 10
138.7842935850956
 20
-111.0216471076613
 30
0.0
 10
140.3287298911331
 20
-111.0216471076613
 30
0.0
 10
140.3287298911331
 20
-111.0216471076613
 30
0.0
 10
140.3287298911331
 20
-111.0216471076613
 30
0.0
 10
140.3287298911331
 20
-111.2614257534347
 30
0.0
 10
140.3287298911331
 20
-111.2614257534347
 30
0.0
  0
HATCH
  5
60
330
5B
100
AcDbEntity
  8
_U+30EC_U+30A4_U+30E4_U+30FC 1
 62
   179
420
  2234388
100
AcDbHatch
 10
0.0
 20
0.0
 30
0.0
210
0.0
220
0.0
230
1.0
  2
SOLID
 70
     1
 71
     0
 91
        1
 92
        1
 93
        1
 72
     4
 94
        3
 73
     0
 74
     1
 95
       26
 96
       22
 40
0.0
 40
0.0
 40
0.0
 40
0.0
 40
1.0
 40
1.0
 40
1.0
 40
2.0
 40
2.0
 40
2.0
 40
3.0
 40
3.0
 40
3.0
 40
4.0
 40
4.0
 40
4.0
 40
5.0
 40
5.0
 40
5.0
 40
6.0
 40
6.0
 40
6.0
 40
7.0
 40
7.0
 40
7.0
 40
7.0
 10
140.3287298911331
 20
-111.2614257534347
 10
140.3287298911331
 20
-111.2614257534347
 10
139.2245767881105
 20
-111.2614257534347
 10
139.2245767881105
 20
-111.2614257534347
 10
139.2245767881105
 20
-111.2614257534347
 10
139.2245767881105
 20
-111.6138590215757
 10
139.2245767881105
 20
-111.6138590215757
 10
139.2245767881105
 20
-111.6138590215757
 10
139.0764376822448
 20
-111.6138590215757
 10
139.0764376822448
 20
-111.6138590215757
 10
139.0616237716582
 20
-111.259014186595
 10
138.8986707552059
 20
-111.2094048116074
 10
138.7842935850956
 20
-111.1777099331431
 10
138.7842935850956
 20
-111.1777099331431
 10
138.7842935850956
 20
-111.0216471076613
 10
138.7842935850956
 20
-111.0216471076613
 10
138.7842935850956
 20
-111.0216471076613
 10
140.3287298911331
 20
-111.0216471076613
 10
140.3287298911331
 20
-111.0216471076613
 10
140.3287298911331
 20
-111.0216471076613
 10
140.3287298911331
 20
-111.2614257534347
 10
140.3287298911331
 20
-111.2614257534347
 97
        0
 97
        0
 75
     2
 76
     1
 98
        0
  0
SPLINE
  5
61
330
5B
100
AcDbEntity
  8
_U+30EC_U+30A4_U+30E4_U+30FC 1
370
     0
100
AcDbSpline
210
0.0
220
0.0
230
1.0
 70
    11
 71
     3
 72
    29
 73
    25
 74
     0
 42
0.0000000001
 43
0.0000000001
 12
1.0
 22
0.0
 32
0.0
 13
1.0
 23
0.0
 33
0.0
 40
0.0
 40
0.0
 40
0.0
 40
0.0
 40
1.0
 40
1.0
 40
1.0
 40
2.0
 40
2.0
 40
2.0
 40
3.0
 40
3.0
 40
3.0
 40
4.0
 40
4.0
 40
4.0
 40
5.0
 40
5.0
 40
5.0
 40
6.0
 40
6.0
 40
6.0
 40
7.0
 40
7.0
 40
7.0
 40
8.0
 40
8.0
 40
8.0
 40
8.0
 10
140.1509629640942
 20
-109.5264756670628
 30
0.0
 10
140.3604247695974
 20
-109.6418863658187
 30
0.0
 10
140.3793727947663
 20
-109.8272325029251
 30
0.0
 10
140.3793727947663
 20
-109.9516004499427
 30
0.0
 10
140.3793727947663
 20
-110.1231662051081
 30
0.0
 10
140.3328640057154
 20
-110.2747504064591
 30
0.0
 10
140.1509629640942
 20
-110.376380723274
 30
0.0
 10
139.9563150691776
 20
-110.487312797899
 30
0.0
 10
139.7196370093409
 20
-110.507638861262
 30
0.0
 10
139.5566839928886
 20
-110.507638861262
 30
0.0
 10
139.4126790016052
 20
-110.507638861262
 30
0.0
 10
139.1608425216334
 20
-110.4897243647387
 30
0.0
 10
138.9620605121345
 20
-110.376380723274
 30
0.0
 10
138.7591443880533
 20
-110.2613145340666
 30
0.0
 10
138.7357177387536
 20
-110.0894042693527
 30
0.0
 10
138.7357177387536
 20
-109.9516004499427
 30
0.0
 10
138.7357177387536
 20
-109.7817572425198
 30
0.0
 10
138.7801594705133
 20
-109.6281059838777
 30
0.0
 10
138.9620605121345
 20
-109.5264756670628
 30
0.0
 10
139.15464134976
 20
-109.4200222165686
 30
0.0
 10
139.383051180432
 20
-109.3952175290748
 30
0.0
 10
139.5566839928886
 20
-109.3952175290748
 30
0.0
 10
139.7279052385055
 20
-109.3952175290748
 30
0.0
 10
139.9583821264687
 20
-109.4179551592775
 30
0.0
 10
140.1509629640942
 20
-109.5264756670628
 30
0.0
  0
SPLINE
  5
62
330
5B
100
AcDbEntity
  8
_U+30EC_U+30A4_U+30E4_U+30FC 1
370
     0
100
AcDbSpline
210
0.0
220
0.0
230
1.0
 70
    11
 71
     3
 72
    17
 73
    13
 74
     0
 42
0.0000000001
 43
0.0000000001
 12
1.0
 22
0.0
 32
0.0
 13
1.0
 23
0.0
 33
0.0
 40
0.0
 40
0.0
 40
0.0
 40
0.0
 40
1.0
 40
1.0
 40
1.0
 40
2.0
 40
2.0
 40
2.0
 40
3.0
 40
3.0
 40
3.0
 40
4.0
 40
4.0
 40
4.0
 40
4.0
 10
138.928298576379
 20
-109.9516004499427
 30
0.0
 10
138.928298576379
 20
-110.218250840501
 30
0.0
 10
139.2118299348151
 20
-110.2678602154886
 30
0.0
 10
139.5566839928886
 20
-110.2678602154886
 30
0.0
 10
139.8760443443713
 20
-110.2678602154886
 30
0.0
 10
140.1847248998497
 20
-110.2296196556023
 30
0.0
 10
140.1847248998497
 20
-109.9516004499427
 30
0.0
 10
140.1847248998497
 20
-109.6870171166755
 30
0.0
 10
139.9036051082533
 20
-109.6349961748482
 30
0.0
 10
139.5566839928886
 20
-109.6349961748482
 30
0.0
 10
139.2369791318574
 20
-109.6349961748482
 30
0.0
 10
138.928298576379
 20
-109.6756483015741
 30
0.0
 10
138.928298576379
 20
-109.9516004499427
 30
0.0
  0
HATCH
  5
63
330
5B
100
AcDbEntity
  8
_U+30EC_U+30A4_U+30E4_U+30FC 1
 62
   179
420
  2234388
100
AcDbHatch
 10
0.0
 20
0.0
 30
0.0
210
0.0
220
0.0
230
1.0
  2
SOLID
 70
     1
 71
     0
 91
        2
 92
        1
 93
        1
 72
     4
 94
        3
 73
     0
 74
     1
 95
       29
 96
       25
 40
0.0
 40
0.0
 40
0.0
 40
0.0
 40
1.0
 40
1.0
 40
1.0
 40
2.0
 40
2.0
 40
2.0
 40
3.0
 40
3.0
 40
3.0
 40
4.0
 40
4.0
 40
4.0
 40
5.0
 40
5.0
 40
5.0
 40
6.0
 40
6.0
 40
6.0
 40
7.0
 40
7.0
 40
7.0
 40
8.0
 40
8.0
 40
8.0
 40
8.0
 10
140.1509629640942
 20
-109.5264756670628
 10
140.3604247695974
 20
-109.6418863658187
 10
140.3793727947663
 20
-109.8272325029251
 10
140.3793727947663
 20
-109.9516004499427
 10
140.3793727947663
 20
-110.1231662051081
 10
140.3328640057154
 20
-110.2747504064591
 10
140.1509629640942
 20
-110.376380723274
 10
139.9563150691776
 20
-110.487312797899
 10
139.7196370093409
 20
-110.507638861262
 10
139.5566839928886
 20
-110.507638861262
 10
139.4126790016052
 20
-110.507638861262
 10
139.1608425216334
 20
-110.4897243647387
 10
138.9620605121345
 20
-110.376380723274
 10
138.7591443880533
 20
-110.2613145340666
 10
138.7357177387536
 20
-110.0894042693527
 10
138.7357177387536
 20
-109.9516004499427
 10
138.7357177387536
 20
-109.7817572425198
 10
138.7801594705133
 20
-109.6281059838777
 10
138.9620605121345
 20
-109.5264756670628
 10
139.15464134976
 20
-109.4200222165686
 10
139.383051180432
 20
-109.3952175290748
 10
139.5566839928886
 20
-109.3952175290748
 10
139.7279052385055
 20
-109.3952175290748
 10
139.9583821264687
 20
-109.4179551592775
 10
140.1509629640942
 20
-109.5264756670628
 97
        0
 97
        0
 92
        1
 93
        1
 72
     4
 94
        3
 73
     0
 74
     1
 95
       17
 96
       13
 40
0.0
 40
0.0
 40
0.0
 40
0.0
 40
1.0
 40
1.0
 40
1.0
 40
2.0
 40
2.0
 40
2.0
 40
3.0
 40
3.0
 40
3.0
 40
4.0
 40
4.0
 40
4.0
 40
4.0
 10
138.928298576379
 20
-109.9516004499427
 10
138.928298576379
 20
-110.218250840501
 10
139.2118299348151
 20
-110.2678602154886
 10
139.5566839928886
 20
-110.2678602154886
 10
139.8760443443713
 20
-110.2678602154886
 10
140.1847248998497
 20
-110.2296196556023
 10
140.1847248998497
 20
-109.9516004499427
 10
140.1847248998497
 20
-109.6870171166755
 10
139.9036051082533
 20
-109.6349961748482
 10
139.5566839928886
 20
-109.6349961748482
 10
139.2369791318574
 20
-109.6349961748482
 10
138.928298576379
 20
-109.6756483015741
 10
138.928298576379
 20
-109.9516004499427
 97
        0
 97
        0
 75
     2
 76
     1
 98
        0
  0
ENDBLK
  5
5E
330
5B
100
AcDbEntity
  8
0
100
AcDbBlockEnd
  0
BLOCK
  5
6B
330
69
100
AcDbEntity
  8
0
100
AcDbBlockBegin
  2
block 6
 70
     0
 10
0.0
 20
0.0
 30
0.0
  3
block 6
  1

  0
SPLINE
  5
6D
330
69
100
AcDbEntity
  8
_U+30EC_U+30A4_U+30E4_U+30FC 1
370
     0
100
AcDbSpline
210
0.0
220
0.0
230
1.0
 70
    11
 71
     3
 72
    20
 73
    16
 74
     0
 42
0.0000000001
 43
0.0000000001
 12
1.0
 22
0.0
 32
0.0
 13
1.0
 23
0.0
 33
0.0
 40
0.0
 40
0.0
 40
0.0
 40
0.0
 40
1.0
 40
1.0
 40
1.0
 40
2.0
 40
2.0
 40
2.0
 40
3.0
 40
3.0
 40
3.0
 40
4.0
 40
4.0
 40
4.0
 40
5.0
 40
5.0
 40
5.0
 40
5.0
 10
90.99134519209592
 20
-106.3295993115252
 30
0.0
 10
90.9234768110365
 20
-106.2853298345398
 30
0.0
 10
90.88954262050679
 20
-106.2641424973055
 30
0.0
 10
90.74260929806088
 20
-106.2048868549592
 30
0.0
 10
90.57982853638282
 20
-106.1392577859652
 30
0.0
 10
90.5345255307518
 20
-106.1244438753786
 30
0.0
 10
90.48250458892451
 20
-106.1075629075009
 30
0.0
 10
90.48250458892451
 20
-106.1075629075009
 30
0.0
 10
90.57982853638282
 20
-105.9277289231708
 30
0.0
 10
90.57982853638282
 20
-105.9277289231708
 30
0.0
 10
90.64080672647175
 20
-105.9509833176963
 30
0.0
 10
90.9257161231019
 20
-106.0588148063846
 30
0.0
 10
91.09073619684537
 20
-106.1668185498472
 30
0.0
 10
91.09073619684537
 20
-106.1668185498472
 30
0.0
 10
90.99134519209592
 20
-106.3295993115252
 30
0.0
 10
90.99134519209592
 20
-106.3295993115252
 30
0.0
  0
SPLINE
  5
6E
330
69
100
AcDbEntity
  8
_U+30EC_U+30A4_U+30E4_U+30FC 1
370
     0
100
AcDbSpline
210
0.0
220
0.0
230
1.0
 70
    11
 71
     3
 72
    26
 73
    22
 74
     0
 42
0.0000000001
 43
0.0000000001
 12
1.0
 22
0.0
 32
0.0
 13
1.0
 23
0.0
 33
0.0
 40
0.0
 40
0.0
 40
0.0
 40
0.0
 40
1.0
 40
1.0
 40
1.0
 40
2.0
 40
2.0
 40
2.0
 40
3.0
 40
3.0
 40
3.0
 40
4.0
 40
4.0
 40
4.0
 40
5.0
 40
5.0
 40
5.0
 40
6.0
 40
6.0
 40
6.0
 40
7.0
 40
7.0
 40
7.0
 40
7.0
 10
90.85560842997707
 20
-107.1843275014157
 30
0.0
 10
90.85336911791167
 20
-107.2096489532323
 30
0.0
 10
90.84889049378084
 20
-107.2604641116397
 30
0.0
 10
90.80806611228063
 20
-107.2604641116397
 30
0.0
 10
90.80134817608439
 20
-107.2604641116397
 30
0.0
 10
90.78326142478683
 20
-107.254090684992
 30
0.0
 10
90.7696532976201
 20
-107.2392767744055
 30
0.0
 10
90.7696532976201
 20
-107.2392767744055
 30
0.0
 10
90.60015459974579
 20
-107.0320542809677
 30
0.0
 10
90.60015459974579
 20
-107.0320542809677
 30
0.0
 10
90.72228323469791
 20
-107.0003594025034
 30
0.0
 10
90.96636824982785
 20
-106.9367973908005
 30
0.0
 10
91.37564559347554
 20
-106.630011637839
 30
0.0
 10
91.70775279825362
 20
-106.3824815272238
 30
0.0
 10
91.87518443883677
 20
-106.1836995177249
 30
0.0
 10
92.03124726431858
 20
-105.9637301709917
 30
0.0
 10
92.03124726431858
 20
-105.9637301709917
 30
0.0
 10
92.1693955932771
 20
-106.1392577859652
 30
0.0
 10
92.1693955932771
 20
-106.1392577859652
 30
0.0
 10
91.84348956037246
 20
-106.6258775232567
 30
0.0
 10
91.1586045779048
 20
-107.0680555287885
 30
0.0
 10
90.85560842997707
 20
-107.1843275014157
 30
0.0
  0
SPLINE
  5
6F
330
69
100
AcDbEntity
  8
_U+30EC_U+30A4_U+30E4_U+30FC 1
370
     0
100
AcDbSpline
210
0.0
220
0.0
230
1.0
 70
    11
 71
     3
 72
    17
 73
    13
 74
     0
 42
0.0000000001
 43
0.0000000001
 12
1.0
 22
0.0
 32
0.0
 13
1.0
 23
0.0
 33
0.0
 40
0.0
 40
0.0
 40
0.0
 40
0.0
 40
1.0
 40
1.0
 40
1.0
 40
2.0
 40
2.0
 40
2.0
 40
3.0
 40
3.0
 40
3.0
 40
4.0
 40
4.0
 40
4.0
 40
4.0
 10
91.2467990223272
 20
-105.8283379184214
 30
0.0
 10
91.0952148209762
 20
-105.7141330030854
 30
0.0
 10
90.8669772450784
 20
-105.6293836541482
 30
0.0
 10
90.72900117089414
 20
-105.5913153490362
 30
0.0
 10
90.72900117089414
 20
-105.5913153490362
 30
0.0
 10
90.82167423944736
 20
-105.4157877340627
 30
0.0
 10
90.82167423944736
 20
-105.4157877340627
 30
0.0
 10
91.02062850372054
 20
-105.4898572869956
 30
0.0
 10
91.19925670463074
 20
-105.5765014384496
 30
0.0
 10
91.34395071501123
 20
-105.6590114753214
 30
0.0
 10
91.34395071501123
 20
-105.6590114753214
 30
0.0
 10
91.2467990223272
 20
-105.8283379184214
 30
0.0
 10
91.2467990223272
 20
-105.8283379184214
 30
0.0
  0
SPLINE
  5
70
330
69
100
AcDbEntity
  8
_U+30EC_U+30A4_U+30E4_U+30FC 1
370
     0
100
AcDbSpline
210
0.0
220
0.0
230
1.0
 70
    11
 71
     3
 72
    17
 73
    13
 74
     0
 42
0.0000000001
 43
0.0000000001
 12
1.0
 22
0.0
 32
0.0
 13
1.0
 23
0.0
 33
0.0
 40
0.0
 40
0.0
 40
0.0
 40
0.0
 40
1.0
 40
1.0
 40
1.0
 40
2.0
 40
2.0
 40
2.0
 40
3.0
 40
3.0
 40
3.0
 40
4.0
 40
4.0
 40
4.0
 40
4.0
 10
91.947531444027
 20
-105.7542683654885
 30
0.0
 10
91.88896482077776
 20
-105.6970797804334
 30
0.0
 10
91.82350800655801
 20
-105.6379963928613
 30
0.0
 10
91.70120711683165
 20
-105.5659938972196
 30
0.0
 10
91.70120711683165
 20
-105.5659938972196
 30
0.0
 10
91.80283743364652
 20
-105.4622965231136
 30
0.0
 10
91.80283743364652
 20
-105.4622965231136
 30
0.0
 10
91.88655325393809
 20
-105.5046711975822
 30
0.0
 10
91.9971408190146
 20
-105.5639268399285
 30
0.0
 10
92.0605305759432
 20
-105.6464368768002
 30
0.0
 10
92.0605305759432
 20
-105.6464368768002
 30
0.0
 10
91.947531444027
 20
-105.7542683654885
 30
0.0
 10
91.947531444027
 20
-105.7542683654885
 30
0.0
  0
SPLINE
  5
71
330
69
100
AcDbEntity
  8
_U+30EC_U+30A4_U+30E4_U+30FC 1
370
     0
100
AcDbSpline
210
0.0
220
0.0
230
1.0
 70
    11
 71
     3
 72
    17
 73
    13
 74
     0
 42
0.0000000001
 43
0.0000000001
 12
1.0
 22
0.0
 32
0.0
 13
1.0
 23
0.0
 33
0.0
 40
0.0
 40
0.0
 40
0.0
 40
0.0
 40
1.0
 40
1.0
 40
1.0
 40
2.0
 40
2.0
 40
2.0
 40
3.0
 40
3.0
 40
3.0
 40
4.0
 40
4.0
 40
4.0
 40
4.0
 10
92.18937714709155
 20
-105.5997558329751
 30
0.0
 10
92.1693955932771
 20
-105.5828748650973
 30
0.0
 10
91.94994301086669
 20
-105.4262952752927
 30
0.0
 10
91.92065969924207
 20
-105.4073472501239
 30
0.0
 10
91.92065969924207
 20
-105.4073472501239
 30
0.0
 10
92.0357258884494
 20
-105.2972764493701
 30
0.0
 10
92.0357258884494
 20
-105.2972764493701
 30
0.0
 10
92.15354815404496
 20
-105.3734130595942
 30
0.0
 10
92.16698402643742
 20
-105.3840928555984
 30
0.0
 10
92.30237627900775
 20
-105.4898572869956
 30
0.0
 10
92.30237627900775
 20
-105.4898572869956
 30
0.0
 10
92.18937714709155
 20
-105.5997558329751
 30
0.0
 10
92.18937714709155
 20
-105.5997558329751
 30
0.0
  0
HATCH
  5
72
330
69
100
AcDbEntity
  8
_U+30EC_U+30A4_U+30E4_U+30FC 1
 62
   179
420
  2234388
100
AcDbHatch
 10
0.0
 20
0.0
 30
0.0
210
0.0
220
0.0
230
1.0
  2
SOLID
 70
     1
 71
     0
 91
        5
 92
        1
 93
        1
 72
     4
 94
        3
 73
     0
 74
     1
 95
       20
 96
       16
 40
0.0
 40
0.0
 40
0.0
 40
0.0
 40
1.0
 40
1.0
 40
1.0
 40
2.0
 40
2.0
 40
2.0
 40
3.0
 40
3.0
 40
3.0
 40
4.0
 40
4.0
 40
4.0
 40
5.0
 40
5.0
 40
5.0
 40
5.0
 10
90.99134519209592
 20
-106.3295993115252
 10
90.9234768110365
 20
-106.2853298345398
 10
90.88954262050679
 20
-106.2641424973055
 10
90.74260929806088
 20
-106.2048868549592
 10
90.57982853638282
 20
-106.1392577859652
 10
90.5345255307518
 20
-106.1244438753786
 10
90.48250458892451
 20
-106.1075629075009
 10
90.48250458892451
 20
-106.1075629075009
 10
90.57982853638282
 20
-105.9277289231708
 10
90.57982853638282
 20
-105.9277289231708
 10
90.64080672647175
 20
-105.9509833176963
 10
90.9257161231019
 20
-106.0588148063846
 10
91.09073619684537
 20
-106.1668185498472
 10
91.09073619684537
 20
-106.1668185498472
 10
90.99134519209592
 20
-106.3295993115252
 10
90.99134519209592
 20
-106.3295993115252
 97
        0
 97
        0
 92
        1
 93
        1
 72
     4
 94
        3
 73
     0
 74
     1
 95
       26
 96
       22
 40
0.0
 40
0.0
 40
0.0
 40
0.0
 40
1.0
 40
1.0
 40
1.0
 40
2.0
 40
2.0
 40
2.0
 40
3.0
 40
3.0
 40
3.0
 40
4.0
 40
4.0
 40
4.0
 40
5.0
 40
5.0
 40
5.0
 40
6.0
 40
6.0
 40
6.0
 40
7.0
 40
7.0
 40
7.0
 40
7.0
 10
90.85560842997707
 20
-107.1843275014157
 10
90.85336911791167
 20
-107.2096489532323
 10
90.84889049378084
 20
-107.2604641116397
 10
90.80806611228063
 20
-107.2604641116397
 10
90.80134817608439
 20
-107.2604641116397
 10
90.78326142478683
 20
-107.254090684992
 10
90.7696532976201
 20
-107.2392767744055
 10
90.7696532976201
 20
-107.2392767744055
 10
90.60015459974579
 20
-107.0320542809677
 10
90.60015459974579
 20
-107.0320542809677
 10
90.72228323469791
 20
-107.0003594025034
 10
90.96636824982785
 20
-106.9367973908005
 10
91.37564559347554
 20
-106.630011637839
 10
91.70775279825362
 20
-106.3824815272238
 10
91.87518443883677
 20
-106.1836995177249
 10
92.03124726431858
 20
-105.9637301709917
 10
92.03124726431858
 20
-105.9637301709917
 10
92.1693955932771
 20
-106.1392577859652
 10
92.1693955932771
 20
-106.1392577859652
 10
91.84348956037246
 20
-106.6258775232567
 10
91.1586045779048
 20
-107.0680555287885
 10
90.85560842997707
 20
-107.1843275014157
 97
        0
 97
        0
 92
        1
 93
        1
 72
     4
 94
        3
 73
     0
 74
     1
 95
       17
 96
       13
 40
0.0
 40
0.0
 40
0.0
 40
0.0
 40
1.0
 40
1.0
 40
1.0
 40
2.0
 40
2.0
 40
2.0
 40
3.0
 40
3.0
 40
3.0
 40
4.0
 40
4.0
 40
4.0
 40
4.0
 10
91.2467990223272
 20
-105.8283379184214
 10
91.0952148209762
 20
-105.7141330030854
 10
90.8669772450784
 20
-105.6293836541482
 10
90.72900117089414
 20
-105.5913153490362
 10
90.72900117089414
 20
-105.5913153490362
 10
90.82167423944736
 20
-105.4157877340627
 10
90.82167423944736
 20
-105.4157877340627
 10
91.02062850372054
 20
-105.4898572869956
 10
91.19925670463074
 20
-105.5765014384496
 10
91.34395071501123
 20
-105.6590114753214
 10
91.34395071501123
 20
-105.6590114753214
 10
91.2467990223272
 20
-105.8283379184214
 10
91.2467990223272
 20
-105.8283379184214
 97
        0
 97
        0
 92
        1
 93
        1
 72
     4
 94
        3
 73
     0
 74
     1
 95
       17
 96
       13
 40
0.0
 40
0.0
 40
0.0
 40
0.0
 40
1.0
 40
1.0
 40
1.0
 40
2.0
 40
2.0
 40
2.0
 40
3.0
 40
3.0
 40
3.0
 40
4.0
 40
4.0
 40
4.0
 40
4.0
 10
91.947531444027
 20
-105.7542683654885
 10
91.88896482077776
 20
-105.6970797804334
 10
91.82350800655801
 20
-105.6379963928613
 10
91.70120711683165
 20
-105.5659938972196
 10
91.70120711683165
 20
-105.5659938972196
 10
91.80283743364652
 20
-105.4622965231136
 10
91.80283743364652
 20
-105.4622965231136
 10
91.88655325393809
 20
-105.5046711975822
 10
91.9971408190146
 20
-105.5639268399285
 10
92.0605305759432
 20
-105.6464368768002
 10
92.0605305759432
 20
-105.6464368768002
 10
91.947531444027
 20
-105.7542683654885
 10
91.947531444027
 20
-105.7542683654885
 97
        0
 97
        0
 92
        1
 93
        1
 72
     4
 94
        3
 73
     0
 74
     1
 95
       17
 96
       13
 40
0.0
 40
0.0
 40
0.0
 40
0.0
 40
1.0
 40
1.0
 40
1.0
 40
2.0
 40
2.0
 40
2.0
 40
3.0
 40
3.0
 40
3.0
 40
4.0
 40
4.0
 40
4.0
 40
4.0
 10
92.18937714709155
 20
-105.5997558329751
 10
92.1693955932771
 20
-105.5828748650973
 10
91.94994301086669
 20
-105.4262952752927
 10
91.92065969924207
 20
-105.4073472501239
 10
91.92065969924207
 20
-105.4073472501239
 10
92.0357258884494
 20
-105.2972764493701
 10
92.0357258884494
 20
-105.2972764493701
 10
92.15354815404496
 20
-105.3734130595942
 10
92.16698402643742
 20
-105.3840928555984
 10
92.30237627900775
 20
-105.4898572869956
 10
92.30237627900775
 20
-105.4898572869956
 10
92.18937714709155
 20
-105.5997558329751
 10
92.18937714709155
 20
-105.5997558329751
 97
        0
 97
        0
 75
     2
 76
     1
 98
        0
  0
SPLINE
  5
73
330
69
100
AcDbEntity
  8
_U+30EC_U+30A4_U+30E4_U+30FC 1
370
     0
100
AcDbSpline
210
0.0
220
0.0
230
1.0
 70
    11
 71
     3
 72
    68
 73
    64
 74
     0
 42
0.0000000001
 43
0.0000000001
 12
1.0
 22
0.0
 32
0.0
 13
1.0
 23
0.0
 33
0.0
 40
0.0
 40
0.0
 40
0.0
 40
0.0
 40
1.0
 40
1.0
 40
1.0
 40
2.0
 40
2.0
 40
2.0
 40
3.0
 40
3.0
 40
3.0
 40
4.0
 40
4.0
 40
4.0
 40
5.0
 40
5.0
 40
5.0
 40
6.0
 40
6.0
 40
6.0
 40
7.0
 40
7.0
 40
7.0
 40
8.0
 40
8.0
 40
8.0
 40
9.0
 40
9.0
 40
9.0
 40
10.0
 40
10.0
 40
10.0
 40
11.0
 40
11.0
 40
11.0
 40
12.0
 40
12.0
 40
12.0
 40
13.0
 40
13.0
 40
13.0
 40
14.0
 40
14.0
 40
14.0
 40
15.0
 40
15.0
 40
15.0
 40
16.0
 40
16.0
 40
16.0
 40
17.0
 40
17.0
 40
17.0
 40
18.0
 40
18.0
 40
18.0
 40
19.0
 40
19.0
 40
19.0
 40
20.0
 40
20.0
 40
20.0
 40
21.0
 40
21.0
 40
21.0
 40
21.0
 10
93.49506833600124
 20
-107.177954074768
 30
0.0
 10
93.49713539329238
 20
-107.1378187123649
 30
0.0
 10
93.49713539329238
 20
-107.1186984324217
 30
0.0
 10
93.49954696013207
 20
-107.0933769806051
 30
0.0
 10
93.49954696013207
 20
-107.0933769806051
 30
0.0
 10
92.82361922592604
 20
-107.0933769806051
 30
0.0
 10
92.82361922592604
 20
-107.0933769806051
 30
0.0
 10
92.74197046292562
 20
-107.0933769806051
 30
0.0
 10
92.574883331891
 20
-107.0976833499617
 30
0.0
 10
92.44844832758234
 20
-107.1061238339006
 30
0.0
 10
92.44844832758234
 20
-107.1061238339006
 30
0.0
 10
92.44844832758234
 20
-106.9411037601571
 30
0.0
 10
92.44844832758234
 20
-106.9411037601571
 30
0.0
 10
92.54560002026638
 20
-106.9495442440959
 30
0.0
 10
92.74679359660497
 20
-106.9559176707437
 30
0.0
 10
92.82361922592604
 20
-106.9559176707437
 30
0.0
 10
92.82361922592604
 20
-106.9559176707437
 30
0.0
 10
93.49954696013207
 20
-106.9559176707437
 30
0.0
 10
93.49954696013207
 20
-106.9559176707437
 30
0.0
 10
93.49954696013207
 20
-106.9559176707437
 30
0.0
 10
93.49954696013207
 20
-106.6131306699613
 30
0.0
 10
93.49954696013207
 20
-106.6131306699613
 30
0.0
 10
93.49954696013207
 20
-106.6131306699613
 30
0.0
 10
92.87081703407397
 20
-106.6131306699613
 30
0.0
 10
92.87081703407397
 20
-106.6131306699613
 30
0.0
 10
92.76470809312828
 20
-106.6131306699613
 30
0.0
 10
92.63379446468878
 20
-106.619504096609
 30
0.0
 10
92.49599064527878
 20
-106.6279445805479
 30
0.0
 10
92.49599064527878
 20
-106.6279445805479
 30
0.0
 10
92.49599064527878
 20
-106.4608574495133
 30
0.0
 10
92.49599064527878
 20
-106.4608574495133
 30
0.0
 10
92.60898977719498
 20
-106.4692979334521
 30
0.0
 10
92.81018335353357
 20
-106.4756713600998
 30
0.0
 10
92.87081703407397
 20
-106.4756713600998
 30
0.0
 10
92.87081703407397
 20
-106.4756713600998
 30
0.0
 10
93.49954696013207
 20
-106.4756713600998
 30
0.0
 10
93.49954696013207
 20
-106.4756713600998
 30
0.0
 10
93.49954696013207
 20
-106.4756713600998
 30
0.0
 10
93.49954696013207
 20
-106.1392577859652
 30
0.0
 10
93.49954696013207
 20
-106.1392577859652
 30
0.0
 10
93.49954696013207
 20
-106.1392577859652
 30
0.0
 10
92.85290253755066
 20
-106.1392577859652
 30
0.0
 10
92.85290253755066
 20
-106.1392577859652
 30
0.0
 10
92.73990340563448
 20
-106.1392577859652
 30
0.0
 10
92.63379446468878
 20
-106.1435641553218
 30
0.0
 10
92.47773163920697
 20
-106.1540716965518
 30
0.0
 10
92.47773163920697
 20
-106.1540716965518
 30
0.0
 10
92.47773163920697
 20
-105.9869845655171
 30
0.0
 10
92.47773163920697
 20
-105.9869845655171
 30
0.0
 10
92.58142901331298
 20
-105.995425049456
 30
0.0
 10
92.77159828409877
 20
-106.0017984761037
 30
0.0
 10
92.85290253755066
 20
-106.0017984761037
 30
0.0
 10
92.85290253755066
 20
-106.0017984761037
 30
0.0
 10
93.67145722484602
 20
-106.0017984761037
 30
0.0
 10
93.67145722484602
 20
-106.0017984761037
 30
0.0
 10
93.67145722484602
 20
-106.0017984761037
 30
0.0
 10
93.67145722484602
 20
-106.8098456221691
 30
0.0
 10
93.67145722484602
 20
-106.8098456221691
 30
0.0
 10
93.67145722484602
 20
-106.8734076338719
 30
0.0
 10
93.67593584897685
 20
-107.0341213382588
 30
0.0
 10
93.68523760678703
 20
-107.177954074768
 30
0.0
 10
93.68523760678703
 20
-107.177954074768
 30
0.0
 10
93.49506833600124
 20
-107.177954074768
 30
0.0
 10
93.49506833600124
 20
-107.177954074768
 30
0.0
  0
HATCH
  5
74
330
69
100
AcDbEntity
  8
_U+30EC_U+30A4_U+30E4_U+30FC 1
 62
   179
420
  2234388
100
AcDbHatch
 10
0.0
 20
0.0
 30
0.0
210
0.0
220
0.0
230
1.0
  2
SOLID
 70
     1
 71
     0
 91
        1
 92
        1
 93
        1
 72
     4
 94
        3
 73
     0
 74
     1
 95
       68
 96
       64
 40
0.0
 40
0.0
 40
0.0
 40
0.0
 40
1.0
 40
1.0
 40
1.0
 40
2.0
 40
2.0
 40
2.0
 40
3.0
 40
3.0
 40
3.0
 40
4.0
 40
4.0
 40
4.0
 40
5.0
 40
5.0
 40
5.0
 40
6.0
 40
6.0
 40
6.0
 40
7.0
 40
7.0
 40
7.0
 40
8.0
 40
8.0
 40
8.0
 40
9.0
 40
9.0
 40
9.0
 40
10.0
 40
10.0
 40
10.0
 40
11.0
 40
11.0
 40
11.0
 40
12.0
 40
12.0
 40
12.0
 40
13.0
 40
13.0
 40
13.0
 40
14.0
 40
14.0
 40
14.0
 40
15.0
 40
15.0
 40
15.0
 40
16.0
 40
16.0
 40
16.0
 40
17.0
 40
17.0
 40
17.0
 40
18.0
 40
18.0
 40
18.0
 40
19.0
 40
19.0
 40
19.0
 40
20.0
 40
20.0
 40
20.0
 40
21.0
 40
21.0
 40
21.0
 40
21.0
 10
93.49506833600124
 20
-107.177954074768
 10
93.49713539329238
 20
-107.1378187123649
 10
93.49713539329238
 20
-107.1186984324217
 10
93.49954696013207
 20
-107.0933769806051
 10
93.49954696013207
 20
-107.0933769806051
 10
92.82361922592604
 20
-107.0933769806051
 10
92.82361922592604
 20
-107.0933769806051
 10
92.74197046292562
 20
-107.0933769806051
 10
92.574883331891
 20
-107.0976833499617
 10
92.44844832758234
 20
-107.1061238339006
 10
92.44844832758234
 20
-107.1061238339006
 10
92.44844832758234
 20
-106.9411037601571
 10
92.44844832758234
 20
-106.9411037601571
 10
92.54560002026638
 20
-106.9495442440959
 10
92.74679359660497
 20
-106.9559176707437
 10
92.82361922592604
 20
-106.9559176707437
 10
92.82361922592604
 20
-106.9559176707437
 10
93.49954696013207
 20
-106.9559176707437
 10
93.49954696013207
 20
-106.9559176707437
 10
93.49954696013207
 20
-106.9559176707437
 10
93.49954696013207
 20
-106.6131306699613
 10
93.49954696013207
 20
-106.6131306699613
 10
93.49954696013207
 20
-106.6131306699613
 10
92.87081703407397
 20
-106.6131306699613
 10
92.87081703407397
 20
-106.6131306699613
 10
92.76470809312828
 20
-106.6131306699613
 10
92.63379446468878
 20
-106.619504096609
 10
92.49599064527878
 20
-106.6279445805479
 10
92.49599064527878
 20
-106.6279445805479
 10
92.49599064527878
 20
-106.4608574495133
 10
92.49599064527878
 20
-106.4608574495133
 10
92.60898977719498
 20
-106.4692979334521
 10
92.81018335353357
 20
-106.4756713600998
 10
92.87081703407397
 20
-106.4756713600998
 10
92.87081703407397
 20
-106.4756713600998
 10
93.49954696013207
 20
-106.4756713600998
 10
93.49954696013207
 20
-106.4756713600998
 10
93.49954696013207
 20
-106.4756713600998
 10
93.49954696013207
 20
-106.1392577859652
 10
93.49954696013207
 20
-106.1392577859652
 10
93.49954696013207
 20
-106.1392577859652
 10
92.85290253755066
 20
-106.1392577859652
 10
92.85290253755066
 20
-106.1392577859652
 10
92.73990340563448
 20
-106.1392577859652
 10
92.63379446468878
 20
-106.1435641553218
 10
92.47773163920697
 20
-106.1540716965518
 10
92.47773163920697
 20
-106.1540716965518
 10
92.47773163920697
 20
-105.9869845655171
 10
92.47773163920697
 20
-105.9869845655171
 10
92.58142901331298
 20
-105.995425049456
 10
92.77159828409877
 20
-106.0017984761037
 10
92.85290253755066
 20
-106.0017984761037
 10
92.85290253755066
 20
-106.0017984761037
 10
93.67145722484602
 20
-106.0017984761037
 10
93.67145722484602
 20
-106.0017984761037
 10
93.67145722484602
 20
-106.0017984761037
 10
93.67145722484602
 20
-106.8098456221691
 10
93.67145722484602
 20
-106.8098456221691
 10
93.67145722484602
 20
-106.8734076338719
 10
93.67593584897685
 20
-107.0341213382588
 10
93.68523760678703
 20
-107.177954074768
 10
93.68523760678703
 20
-107.177954074768
 10
93.49506833600124
 20
-107.177954074768
 10
93.49506833600124
 20
-107.177954074768
 97
        0
 97
        0
 75
     2
 76
     1
 98
        0
  0
SPLINE
  5
75
330
69
100
AcDbEntity
  8
_U+30EC_U+30A4_U+30E4_U+30FC 1
370
     0
100
AcDbSpline
210
0.0
220
0.0
230
1.0
 70
    11
 71
     3
 72
    50
 73
    46
 74
     0
 42
0.0000000001
 43
0.0000000001
 12
1.0
 22
0.0
 32
0.0
 13
1.0
 23
0.0
 33
0.0
 40
0.0
 40
0.0
 40
0.0
 40
0.0
 40
1.0
 40
1.0
 40
1.0
 40
2.0
 40
2.0
 40
2.0
 40
3.0
 40
3.0
 40
3.0
 40
4.0
 40
4.0
 40
4.0
 40
5.0
 40
5.0
 40
5.0
 40
6.0
 40
6.0
 40
6.0
 40
7.0
 40
7.0
 40
7.0
 40
8.0
 40
8.0
 40
8.0
 40
9.0
 40
9.0
 40
9.0
 40
10.0
 40
10.0
 40
10.0
 40
11.0
 40
11.0
 40
11.0
 40
12.0
 40
12.0
 40
12.0
 40
13.0
 40
13.0
 40
13.0
 40
14.0
 40
14.0
 40
14.0
 40
15.0
 40
15.0
 40
15.0
 40
15.0
 10
95.43121199871165
 20
-105.6760646979733
 30
0.0
 10
95.20762530171893
 20
-105.8896606180588
 30
0.0
 10
95.13079967239786
 20
-105.9616631137006
 30
0.0
 10
94.97921547104687
 20
-106.0800021436189
 30
0.0
 10
94.97921547104687
 20
-106.0800021436189
 30
0.0
 10
94.97921547104687
 20
-106.647064860491
 30
0.0
 10
94.97921547104687
 20
-106.647064860491
 30
0.0
 10
94.97921547104687
 20
-106.7972710236479
 30
0.0
 10
94.98610566201737
 20
-106.8162190488168
 30
0.0
 10
94.99058428614819
 20
-106.9939859758557
 30
0.0
 10
94.99299585298786
 20
-107.1250718590694
 30
0.0
 10
94.99954153440984
 20
-107.1738199601857
 30
0.0
 10
95.00643172538034
 20
-107.233075602532
 30
0.0
 10
95.00643172538034
 20
-107.233075602532
 30
0.0
 10
94.76424151276727
 20
-107.233075602532
 30
0.0
 10
94.76424151276727
 20
-107.233075602532
 30
0.0
 10
94.76906464644662
 20
-107.1886338707723
 30
0.0
 10
94.77354327057745
 20
-107.1419528269472
 30
0.0
 10
94.77354327057745
 20
-107.1335123430083
 30
0.0
 10
94.77354327057745
 20
-107.053241618202
 30
0.0
 10
94.77802189470827
 20
-106.7020141334807
 30
0.0
 10
94.77802189470827
 20
-106.630011637839
 30
0.0
 10
94.77802189470827
 20
-106.630011637839
 30
0.0
 10
94.77802189470827
 20
-106.2238348801281
 30
0.0
 10
94.77802189470827
 20
-106.2238348801281
 30
0.0
 10
94.58371850934019
 20
-106.3487195914684
 30
0.0
 10
94.3756347420311
 20
-106.4587903922221
 30
0.0
 10
94.15859372646035
 20
-106.5454345436762
 30
0.0
 10
94.15859372646035
 20
-106.5454345436762
 30
0.0
 10
93.94155271088961
 20
-106.3824815272238
 30
0.0
 10
93.94155271088961
 20
-106.3824815272238
 30
0.0
 10
94.07246633932911
 20
-106.3466525341772
 30
0.0
 10
94.34600692085795
 20
-106.2725829812444
 30
0.0
 10
94.71463213777967
 20
-106.0166123866903
 30
0.0
 10
94.94545353529142
 20
-105.8579657395945
 30
0.0
 10
95.15112573576083
 20
-105.6696912713256
 30
0.0
 10
95.31407875221315
 20
-105.4495496698182
 30
0.0
 10
95.31407875221315
 20
-105.4495496698182
 30
0.0
 10
95.51940644313405
 20
-105.5935546611016
 30
0.0
 10
95.51940644313405
 20
-105.5935546611016
 30
0.0
 10
95.53318682507503
 20
-105.6040622023316
 30
0.0
 10
95.54214407333669
 20
-105.6188761129182
 30
0.0
 10
95.54214407333669
 20
-105.6316229662136
 30
0.0
 10
95.54214407333669
 20
-105.6717583286168
 30
0.0
 10
95.50149194661074
 20
-105.6717583286168
 30
0.0
 10
95.43121199871165
 20
-105.6760646979733
 30
0.0
  0
HATCH
  5
76
330
69
100
AcDbEntity
  8
_U+30EC_U+30A4_U+30E4_U+30FC 1
 62
   179
420
  2234388
100
AcDbHatch
 10
0.0
 20
0.0
 30
0.0
210
0.0
220
0.0
230
1.0
  2
SOLID
 70
     1
 71
     0
 91
        1
 92
        1
 93
        1
 72
     4
 94
        3
 73
     0
 74
     1
 95
       50
 96
       46
 40
0.0
 40
0.0
 40
0.0
 40
0.0
 40
1.0
 40
1.0
 40
1.0
 40
2.0
 40
2.0
 40
2.0
 40
3.0
 40
3.0
 40
3.0
 40
4.0
 40
4.0
 40
4.0
 40
5.0
 40
5.0
 40
5.0
 40
6.0
 40
6.0
 40
6.0
 40
7.0
 40
7.0
 40
7.0
 40
8.0
 40
8.0
 40
8.0
 40
9.0
 40
9.0
 40
9.0
 40
10.0
 40
10.0
 40
10.0
 40
11.0
 40
11.0
 40
11.0
 40
12.0
 40
12.0
 40
12.0
 40
13.0
 40
13.0
 40
13.0
 40
14.0
 40
14.0
 40
14.0
 40
15.0
 40
15.0
 40
15.0
 40
15.0
 10
95.43121199871165
 20
-105.6760646979733
 10
95.20762530171893
 20
-105.8896606180588
 10
95.13079967239786
 20
-105.9616631137006
 10
94.97921547104687
 20
-106.0800021436189
 10
94.97921547104687
 20
-106.0800021436189
 10
94.97921547104687
 20
-106.647064860491
 10
94.97921547104687
 20
-106.647064860491
 10
94.97921547104687
 20
-106.7972710236479
 10
94.98610566201737
 20
-106.8162190488168
 10
94.99058428614819
 20
-106.9939859758557
 10
94.99299585298786
 20
-107.1250718590694
 10
94.99954153440984
 20
-107.1738199601857
 10
95.00643172538034
 20
-107.233075602532
 10
95.00643172538034
 20
-107.233075602532
 10
94.76424151276727
 20
-107.233075602532
 10
94.76424151276727
 20
-107.233075602532
 10
94.76906464644662
 20
-107.1886338707723
 10
94.77354327057745
 20
-107.1419528269472
 10
94.77354327057745
 20
-107.1335123430083
 10
94.77354327057745
 20
-107.053241618202
 10
94.77802189470827
 20
-106.7020141334807
 10
94.77802189470827
 20
-106.630011637839
 10
94.77802189470827
 20
-106.630011637839
 10
94.77802189470827
 20
-106.2238348801281
 10
94.77802189470827
 20
-106.2238348801281
 10
94.58371850934019
 20
-106.3487195914684
 10
94.3756347420311
 20
-106.4587903922221
 10
94.15859372646035
 20
-106.5454345436762
 10
94.15859372646035
 20
-106.5454345436762
 10
93.94155271088961
 20
-106.3824815272238
 10
93.94155271088961
 20
-106.3824815272238
 10
94.07246633932911
 20
-106.3466525341772
 10
94.34600692085795
 20
-106.2725829812444
 10
94.71463213777967
 20
-106.0166123866903
 10
94.94545353529142
 20
-105.8579657395945
 10
95.15112573576083
 20
-105.6696912713256
 10
95.31407875221315
 20
-105.4495496698182
 10
95.31407875221315
 20
-105.4495496698182
 10
95.51940644313405
 20
-105.5935546611016
 10
95.51940644313405
 20
-105.5935546611016
 10
95.53318682507503
 20
-105.6040622023316
 10
95.54214407333669
 20
-105.6188761129182
 10
95.54214407333669
 20
-105.6316229662136
 10
95.54214407333669
 20
-105.6717583286168
 10
95.50149194661074
 20
-105.6717583286168
 10
95.43121199871165
 20
-105.6760646979733
 97
        0
 97
        0
 75
     2
 76
     1
 98
        0
  0
SPLINE
  5
77
330
69
100
AcDbEntity
  8
_U+30EC_U+30A4_U+30E4_U+30FC 1
370
     0
100
AcDbSpline
210
0.0
220
0.0
230
1.0
 70
    11
 71
     3
 72
    26
 73
    22
 74
     0
 42
0.0000000001
 43
0.0000000001
 12
1.0
 22
0.0
 32
0.0
 13
1.0
 23
0.0
 33
0.0
 40
0.0
 40
0.0
 40
0.0
 40
0.0
 40
1.0
 40
1.0
 40
1.0
 40
2.0
 40
2.0
 40
2.0
 40
3.0
 40
3.0
 40
3.0
 40
4.0
 40
4.0
 40
4.0
 40
5.0
 40
5.0
 40
5.0
 40
6.0
 40
6.0
 40
6.0
 40
7.0
 40
7.0
 40
7.0
 40
7.0
 10
96.03169214179069
 20
-107.1038845218351
 30
0.0
 10
96.02721351765987
 20
-107.1124972605483
 30
0.0
 10
96.01584470255854
 20
-107.1462591963037
 30
0.0
 10
96.01136607842771
 20
-107.1526326229514
 30
0.0
 10
96.00688745429689
 20
-107.1610731068903
 30
0.0
 10
95.99758569648672
 20
-107.1653794762469
 30
0.0
 10
95.98656139093391
 20
-107.1653794762469
 30
0.0
 10
95.97071395170177
 20
-107.1653794762469
 30
0.0
 10
95.96382376073127
 20
-107.1567667375337
 30
0.0
 10
95.93901907323747
 20
-107.1145643178394
 30
0.0
 10
95.93901907323747
 20
-107.1145643178394
 30
0.0
 10
95.81706269305963
 20
-106.8945949711062
 30
0.0
 10
95.81706269305963
 20
-106.8945949711062
 30
0.0
 10
96.16501733706986
 20
-106.8501532393465
 30
0.0
 10
96.97874889068588
 20
-106.5178737797941
 30
0.0
 10
97.40869680724505
 20
-105.9997314188126
 30
0.0
 10
97.40869680724505
 20
-105.9997314188126
 30
0.0
 10
97.49895830895859
 20
-106.2048868549592
 30
0.0
 10
97.49895830895859
 20
-106.2048868549592
 30
0.0
 10
97.05591902955547
 20
-106.6935736495419
 30
0.0
 10
96.3434732832058
 20
-106.9791720652691
 30
0.0
 10
96.03169214179069
 20
-107.1038845218351
 30
0.0
  0
SPLINE
  5
78
330
69
100
AcDbEntity
  8
_U+30EC_U+30A4_U+30E4_U+30FC 1
370
     0
100
AcDbSpline
210
0.0
220
0.0
230
1.0
 70
    11
 71
     3
 72
    17
 73
    13
 74
     0
 42
0.0000000001
 43
0.0000000001
 12
1.0
 22
0.0
 32
0.0
 13
1.0
 23
0.0
 33
0.0
 40
0.0
 40
0.0
 40
0.0
 40
0.0
 40
1.0
 40
1.0
 40
1.0
 40
2.0
 40
2.0
 40
2.0
 40
3.0
 40
3.0
 40
3.0
 40
4.0
 40
4.0
 40
4.0
 40
4.0
 10
96.34588485004548
 20
-106.0123060173337
 30
0.0
 10
96.19671221553416
 20
-105.8791530768288
 30
0.0
 10
95.96382376073127
 20
-105.7647759067185
 30
0.0
 10
95.85289168610623
 20
-105.7203341749588
 30
0.0
 10
95.85289168610623
 20
-105.7203341749588
 30
0.0
 10
95.97760414267228
 20
-105.5299926493987
 30
0.0
 10
95.97760414267228
 20
-105.5299926493987
 30
0.0
 10
96.3145344811297
 20
-105.6801988125556
 30
0.0
 10
96.41582028839605
 20
-105.7711493333662
 30
0.0
 10
96.47507593074235
 20
-105.8240315490648
 30
0.0
 10
96.47507593074235
 20
-105.8240315490648
 30
0.0
 10
96.34588485004548
 20
-106.0123060173337
 30
0.0
 10
96.34588485004548
 20
-106.0123060173337
 30
0.0
  0
HATCH
  5
79
330
69
100
AcDbEntity
  8
_U+30EC_U+30A4_U+30E4_U+30FC 1
 62
   179
420
  2234388
100
AcDbHatch
 10
0.0
 20
0.0
 30
0.0
210
0.0
220
0.0
230
1.0
  2
SOLID
 70
     1
 71
     0
 91
        2
 92
        1
 93
        1
 72
     4
 94
        3
 73
     0
 74
     1
 95
       26
 96
       22
 40
0.0
 40
0.0
 40
0.0
 40
0.0
 40
1.0
 40
1.0
 40
1.0
 40
2.0
 40
2.0
 40
2.0
 40
3.0
 40
3.0
 40
3.0
 40
4.0
 40
4.0
 40
4.0
 40
5.0
 40
5.0
 40
5.0
 40
6.0
 40
6.0
 40
6.0
 40
7.0
 40
7.0
 40
7.0
 40
7.0
 10
96.03169214179069
 20
-107.1038845218351
 10
96.02721351765987
 20
-107.1124972605483
 10
96.01584470255854
 20
-107.1462591963037
 10
96.01136607842771
 20
-107.1526326229514
 10
96.00688745429689
 20
-107.1610731068903
 10
95.99758569648672
 20
-107.1653794762469
 10
95.98656139093391
 20
-107.1653794762469
 10
95.97071395170177
 20
-107.1653794762469
 10
95.96382376073127
 20
-107.1567667375337
 10
95.93901907323747
 20
-107.1145643178394
 10
95.93901907323747
 20
-107.1145643178394
 10
95.81706269305963
 20
-106.8945949711062
 10
95.81706269305963
 20
-106.8945949711062
 10
96.16501733706986
 20
-106.8501532393465
 10
96.97874889068588
 20
-106.5178737797941
 10
97.40869680724505
 20
-105.9997314188126
 10
97.40869680724505
 20
-105.9997314188126
 10
97.49895830895859
 20
-106.2048868549592
 10
97.49895830895859
 20
-106.2048868549592
 10
97.05591902955547
 20
-106.6935736495419
 10
96.3434732832058
 20
-106.9791720652691
 10
96.03169214179069
 20
-107.1038845218351
 97
        0
 97
        0
 92
        1
 93
        1
 72
     4
 94
        3
 73
     0
 74
     1
 95
       17
 96
       13
 40
0.0
 40
0.0
 40
0.0
 40
0.0
 40
1.0
 40
1.0
 40
1.0
 40
2.0
 40
2.0
 40
2.0
 40
3.0
 40
3.0
 40
3.0
 40
4.0
 40
4.0
 40
4.0
 40
4.0
 10
96.34588485004548
 20
-106.0123060173337
 10
96.19671221553416
 20
-105.8791530768288
 10
95.96382376073127
 20
-105.7647759067185
 10
95.85289168610623
 20
-105.7203341749588
 10
95.85289168610623
 20
-105.7203341749588
 10
95.97760414267228
 20
-105.5299926493987
 10
95.97760414267228
 20
-105.5299926493987
 10
96.3145344811297
 20
-105.6801988125556
 10
96.41582028839605
 20
-105.7711493333662
 10
96.47507593074235
 20
-105.8240315490648
 10
96.47507593074235
 20
-105.8240315490648
 10
96.34588485004548
 20
-106.0123060173337
 10
96.34588485004548
 20
-106.0123060173337
 97
        0
 97
        0
 75
     2
 76
     1
 98
        0
  0
SPLINE
  5
7A
330
69
100
AcDbEntity
  8
_U+30EC_U+30A4_U+30E4_U+30FC 1
370
     0
100
AcDbSpline
210
0.0
220
0.0
230
1.0
 70
    11
 71
     3
 72
    56
 73
    52
 74
     0
 42
0.0000000001
 43
0.0000000001
 12
1.0
 22
0.0
 32
0.0
 13
1.0
 23
0.0
 33
0.0
 40
0.0
 40
0.0
 40
0.0
 40
0.0
 40
1.0
 40
1.0
 40
1.0
 40
2.0
 40
2.0
 40
2.0
 40
3.0
 40
3.0
 40
3.0
 40
4.0
 40
4.0
 40
4.0
 40
5.0
 40
5.0
 40
5.0
 40
6.0
 40
6.0
 40
6.0
 40
7.0
 40
7.0
 40
7.0
 40
8.0
 40
8.0
 40
8.0
 40
9.0
 40
9.0
 40
9.0
 40
10.0
 40
10.0
 40
10.0
 40
11.0
 40
11.0
 40
11.0
 40
12.0
 40
12.0
 40
12.0
 40
13.0
 40
13.0
 40
13.0
 40
14.0
 40
14.0
 40
14.0
 40
15.0
 40
15.0
 40
15.0
 40
16.0
 40
16.0
 40
16.0
 40
17.0
 40
17.0
 40
17.0
 40
17.0
 10
98.70060761421374
 20
-106.6999470761896
 30
0.0
 10
98.57830672448738
 20
-106.5857421608536
 30
0.0
 10
98.37470158130911
 20
-106.3952283805193
 30
0.0
 10
98.03088105188117
 20
-106.2619031852401
 30
0.0
 10
98.03088105188117
 20
-106.2619031852401
 30
0.0
 10
98.03088105188117
 20
-106.6131306699613
 30
0.0
 10
98.03088105188117
 20
-106.6131306699613
 30
0.0
 10
98.03088105188117
 20
-106.7380153813016
 30
0.0
 10
98.04018280969134
 20
-107.1081908911917
 30
0.0
 10
98.05603024892349
 20
-107.21602237988
 30
0.0
 10
98.05603024892349
 20
-107.21602237988
 30
0.0
 10
97.78248966739466
 20
-107.21602237988
 30
0.0
 10
97.78248966739466
 20
-107.21602237988
 30
0.0
 10
97.7983371066268
 20
-107.1102579484829
 30
0.0
 10
97.80074867346649
 20
-106.9495442440959
 30
0.0
 10
97.80074867346649
 20
-106.9051025123362
 30
0.0
 10
97.80281573075763
 20
-106.8565266659942
 30
0.0
 10
97.80970592172814
 20
-106.6427584911345
 30
0.0
 10
97.80970592172814
 20
-106.5983167593747
 30
0.0
 10
97.80970592172814
 20
-106.5983167593747
 30
0.0
 10
97.80970592172814
 20
-106.0462402078634
 30
0.0
 10
97.80970592172814
 20
-106.0462402078634
 30
0.0
 10
97.80970592172814
 20
-105.9637301709917
 30
0.0
 10
97.80281573075763
 20
-105.7373873976108
 30
0.0
 10
97.79592553978713
 20
-105.6590114753214
 30
0.0
 10
97.79144691565631
 20
-105.6040622023316
 30
0.0
 10
97.78490123423434
 20
-105.5659938972196
 30
0.0
 10
97.77318790958448
 20
-105.5194851081688
 30
0.0
 10
97.77318790958448
 20
-105.5194851081688
 30
0.0
 10
98.07428925499532
 20
-105.5384331333376
 30
0.0
 10
98.07428925499532
 20
-105.5384331333376
 30
0.0
 10
98.0877251273878
 20
-105.5384331333376
 30
0.0
 10
98.11700843901242
 20
-105.5427395026942
 30
0.0
 10
98.11700843901242
 20
-105.5701280118019
 30
0.0
 10
98.11700843901242
 20
-105.5913153490362
 30
0.0
 10
98.09220375151862
 20
-105.6061292596228
 30
0.0
 10
98.04259437653103
 20
-105.6336900235048
 30
0.0
 10
98.03363712826938
 20
-105.7647759067185
 30
0.0
 10
98.03088105188117
 20
-105.8960340447066
 30
0.0
 10
98.03088105188117
 20
-106.0250528706292
 30
0.0
 10
98.03088105188117
 20
-106.0250528706292
 30
0.0
 10
98.03088105188117
 20
-106.2598361279489
 30
0.0
 10
98.03088105188117
 20
-106.2598361279489
 30
0.0
 10
98.03088105188117
 20
-106.2598361279489
 30
0.0
 10
98.1373345023754
 20
-106.07156165968
 30
0.0
 10
98.1373345023754
 20
-106.07156165968
 30
0.0
 10
98.44946015333903
 20
-106.2048868549592
 30
0.0
 10
98.75228404649249
 20
-106.4184827750447
 30
0.0
 10
98.84943573917653
 20
-106.5326876903807
 30
0.0
 10
98.84943573917653
 20
-106.5326876903807
 30
0.0
 10
98.70060761421374
 20
-106.6999470761896
 30
0.0
 10
98.70060761421374
 20
-106.6999470761896
 30
0.0
  0
HATCH
  5
7B
330
69
100
AcDbEntity
  8
_U+30EC_U+30A4_U+30E4_U+30FC 1
 62
   179
420
  2234388
100
AcDbHatch
 10
0.0
 20
0.0
 30
0.0
210
0.0
220
0.0
230
1.0
  2
SOLID
 70
     1
 71
     0
 91
        1
 92
        1
 93
        1
 72
     4
 94
        3
 73
     0
 74
     1
 95
       56
 96
       52
 40
0.0
 40
0.0
 40
0.0
 40
0.0
 40
1.0
 40
1.0
 40
1.0
 40
2.0
 40
2.0
 40
2.0
 40
3.0
 40
3.0
 40
3.0
 40
4.0
 40
4.0
 40
4.0
 40
5.0
 40
5.0
 40
5.0
 40
6.0
 40
6.0
 40
6.0
 40
7.0
 40
7.0
 40
7.0
 40
8.0
 40
8.0
 40
8.0
 40
9.0
 40
9.0
 40
9.0
 40
10.0
 40
10.0
 40
10.0
 40
11.0
 40
11.0
 40
11.0
 40
12.0
 40
12.0
 40
12.0
 40
13.0
 40
13.0
 40
13.0
 40
14.0
 40
14.0
 40
14.0
 40
15.0
 40
15.0
 40
15.0
 40
16.0
 40
16.0
 40
16.0
 40
17.0
 40
17.0
 40
17.0
 40
17.0
 10
98.70060761421374
 20
-106.6999470761896
 10
98.57830672448738
 20
-106.5857421608536
 10
98.37470158130911
 20
-106.3952283805193
 10
98.03088105188117
 20
-106.2619031852401
 10
98.03088105188117
 20
-106.2619031852401
 10
98.03088105188117
 20
-106.6131306699613
 10
98.03088105188117
 20
-106.6131306699613
 10
98.03088105188117
 20
-106.7380153813016
 10
98.04018280969134
 20
-107.1081908911917
 10
98.05603024892349
 20
-107.21602237988
 10
98.05603024892349
 20
-107.21602237988
 10
97.78248966739466
 20
-107.21602237988
 10
97.78248966739466
 20
-107.21602237988
 10
97.7983371066268
 20
-107.1102579484829
 10
97.80074867346649
 20
-106.9495442440959
 10
97.80074867346649
 20
-106.9051025123362
 10
97.80281573075763
 20
-106.8565266659942
 10
97.80970592172814
 20
-106.6427584911345
 10
97.80970592172814
 20
-106.5983167593747
 10
97.80970592172814
 20
-106.5983167593747
 10
97.80970592172814
 20
-106.0462402078634
 10
97.80970592172814
 20
-106.0462402078634
 10
97.80970592172814
 20
-105.9637301709917
 10
97.80281573075763
 20
-105.7373873976108
 10
97.79592553978713
 20
-105.6590114753214
 10
97.79144691565631
 20
-105.6040622023316
 10
97.78490123423434
 20
-105.5659938972196
 10
97.77318790958448
 20
-105.5194851081688
 10
97.77318790958448
 20
-105.5194851081688
 10
98.07428925499532
 20
-105.5384331333376
 10
98.07428925499532
 20
-105.5384331333376
 10
98.0877251273878
 20
-105.5384331333376
 10
98.11700843901242
 20
-105.5427395026942
 10
98.11700843901242
 20
-105.5701280118019
 10
98.11700843901242
 20
-105.5913153490362
 10
98.09220375151862
 20
-105.6061292596228
 10
98.04259437653103
 20
-105.6336900235048
 10
98.03363712826938
 20
-105.7647759067185
 10
98.03088105188117
 20
-105.8960340447066
 10
98.03088105188117
 20
-106.0250528706292
 10
98.03088105188117
 20
-106.0250528706292
 10
98.03088105188117
 20
-106.2598361279489
 10
98.03088105188117
 20
-106.2598361279489
 10
98.03088105188117
 20
-106.2598361279489
 10
98.1373345023754
 20
-106.07156165968
 10
98.1373345023754
 20
-106.07156165968
 10
98.44946015333903
 20
-106.2048868549592
 10
98.75228404649249
 20
-106.4184827750447
 10
98.84943573917653
 20
-106.5326876903807
 10
98.84943573917653
 20
-106.5326876903807
 10
98.70060761421374
 20
-106.6999470761896
 10
98.70060761421374
 20
-106.6999470761896
 97
        0
 97
        0
 75
     2
 76
     1
 98
        0
  0
SPLINE
  5
7C
330
69
100
AcDbEntity
  8
_U+30EC_U+30A4_U+30E4_U+30FC 1
370
     0
100
AcDbSpline
210
0.0
220
0.0
230
1.0
 70
    11
 71
     3
 72
    44
 73
    40
 74
     0
 42
0.0000000001
 43
0.0000000001
 12
1.0
 22
0.0
 32
0.0
 13
1.0
 23
0.0
 33
0.0
 40
0.0
 40
0.0
 40
0.0
 40
0.0
 40
1.0
 40
1.0
 40
1.0
 40
2.0
 40
2.0
 40
2.0
 40
3.0
 40
3.0
 40
3.0
 40
4.0
 40
4.0
 40
4.0
 40
5.0
 40
5.0
 40
5.0
 40
6.0
 40
6.0
 40
6.0
 40
7.0
 40
7.0
 40
7.0
 40
8.0
 40
8.0
 40
8.0
 40
9.0
 40
9.0
 40
9.0
 40
10.0
 40
10.0
 40
10.0
 40
11.0
 40
11.0
 40
11.0
 40
12.0
 40
12.0
 40
12.0
 40
13.0
 40
13.0
 40
13.0
 40
13.0
 10
100.5823187682572
 20
-106.0081719027514
 30
0.0
 10
100.462773954919
 20
-106.3762803553504
 30
0.0
 10
100.4086859558006
 20
-106.5349270024461
 30
0.0
 10
100.1981906216518
 20
-106.7845241703525
 30
0.0
 10
100.0014756694441
 20
-107.01517331309
 30
0.0
 10
99.74826115127821
 20
-107.2012084692934
 30
0.0
 10
99.44991588225558
 20
-107.2943983021695
 30
0.0
 10
99.44991588225558
 20
-107.2943983021695
 30
0.0
 10
99.24424368178616
 20
-107.1145643178394
 30
0.0
 10
99.24424368178616
 20
-107.1145643178394
 30
0.0
 10
99.92912866425384
 20
-106.9622910973914
 30
0.0
 10
100.2819064419434
 20
-106.4059081765235
 30
0.0
 10
100.3494303134543
 20
-105.9657972282829
 30
0.0
 10
100.3494303134543
 20
-105.9657972282829
 30
0.0
 10
99.53122013570747
 20
-105.9657972282829
 30
0.0
 10
99.53122013570747
 20
-105.9657972282829
 30
0.0
 10
99.43165687618375
 20
-105.9657972282829
 30
0.0
 10
99.23528643352452
 20
-105.9701035976394
 30
0.0
 10
99.06785479294138
 20
-105.9890516228083
 30
0.0
 10
99.06785479294138
 20
-105.9890516228083
 30
0.0
 10
99.06785479294138
 20
-105.7690822760751
 30
0.0
 10
99.06785479294138
 20
-105.7690822760751
 30
0.0
 10
99.1605278614946
 20
-105.7902696133094
 30
0.0
 10
99.42958981889261
 20
-105.7902696133094
 30
0.0
 10
99.5356987598383
 20
-105.7902696133094
 30
0.0
 10
99.5356987598383
 20
-105.7902696133094
 30
0.0
 10
99.99699704531325
 20
-105.7902696133094
 30
0.0
 10
99.99699704531325
 20
-105.7902696133094
 30
0.0
 10
100.04212779617
 20
-105.7902696133094
 30
0.0
 10
100.2929307474962
 20
-105.788030301244
 30
0.0
 10
100.3339273837707
 20
-105.7818291293705
 30
0.0
 10
100.3790581346275
 20
-105.7754557027228
 30
0.0
 10
100.3811251919186
 20
-105.7733886454317
 30
0.0
 10
100.4469265156869
 20
-105.7330810282542
 30
0.0
 10
100.4469265156869
 20
-105.7330810282542
 30
0.0
 10
100.6481200920255
 20
-105.8875935607677
 30
0.0
 10
100.6481200920255
 20
-105.8875935607677
 30
0.0
 10
100.6164252135612
 20
-105.9172213819408
 30
0.0
 10
100.600577774329
 20
-105.9489162604051
 30
0.0
 10
100.5823187682572
 20
-106.0081719027514
 30
0.0
  0
SPLINE
  5
7D
330
69
100
AcDbEntity
  8
_U+30EC_U+30A4_U+30E4_U+30FC 1
370
     0
100
AcDbSpline
210
0.0
220
0.0
230
1.0
 70
    11
 71
     3
 72
    17
 73
    13
 74
     0
 42
0.0000000001
 43
0.0000000001
 12
1.0
 22
0.0
 32
0.0
 13
1.0
 23
0.0
 33
0.0
 40
0.0
 40
0.0
 40
0.0
 40
0.0
 40
1.0
 40
1.0
 40
1.0
 40
2.0
 40
2.0
 40
2.0
 40
3.0
 40
3.0
 40
3.0
 40
4.0
 40
4.0
 40
4.0
 40
4.0
 10
100.8062499747984
 20
-105.8092176384783
 30
0.0
 10
100.6705132126796
 20
-105.8092176384783
 30
0.0
 10
100.5623372144427
 20
-105.7077595764377
 30
0.0
 10
100.5623372144427
 20
-105.5808078078062
 30
0.0
 10
100.5623372144427
 20
-105.4538560391747
 30
0.0
 10
100.6705132126796
 20
-105.3501586650687
 30
0.0
 10
100.8062499747984
 20
-105.3501586650687
 30
0.0
 10
100.9419867369173
 20
-105.3501586650687
 30
0.0
 10
101.0529188115423
 20
-105.4538560391747
 30
0.0
 10
101.0529188115423
 20
-105.5808078078062
 30
0.0
 10
101.0529188115423
 20
-105.7077595764377
 30
0.0
 10
100.9419867369173
 20
-105.8092176384783
 30
0.0
 10
100.8062499747984
 20
-105.8092176384783
 30
0.0
  0
SPLINE
  5
7E
330
69
100
AcDbEntity
  8
_U+30EC_U+30A4_U+30E4_U+30FC 1
370
     0
100
AcDbSpline
210
0.0
220
0.0
230
1.0
 70
    11
 71
     3
 72
    17
 73
    13
 74
     0
 42
0.0000000001
 43
0.0000000001
 12
1.0
 22
0.0
 32
0.0
 13
1.0
 23
0.0
 33
0.0
 40
0.0
 40
0.0
 40
0.0
 40
0.0
 40
1.0
 40
1.0
 40
1.0
 40
2.0
 40
2.0
 40
2.0
 40
3.0
 40
3.0
 40
3.0
 40
4.0
 40
4.0
 40
4.0
 40
4.0
 10
100.8041829175073
 20
-105.4791774909913
 30
0.0
 10
100.7452717847095
 20
-105.4791774909913
 30
0.0
 10
100.6980739765616
 20
-105.5236192227511
 30
0.0
 10
100.6980739765616
 20
-105.578740750515
 30
0.0
 10
100.6980739765616
 20
-105.6357570807959
 30
0.0
 10
100.7452717847095
 20
-105.6845051819122
 30
0.0
 10
100.8086615416381
 20
-105.6845051819122
 30
0.0
 10
100.8717067890182
 20
-105.6845051819122
 30
0.0
 10
100.9151149921323
 20
-105.6336900235048
 30
0.0
 10
100.9151149921323
 20
-105.5808078078062
 30
0.0
 10
100.9151149921323
 20
-105.5236192227511
 30
0.0
 10
100.8651611075962
 20
-105.4791774909913
 30
0.0
 10
100.8041829175073
 20
-105.4791774909913
 30
0.0
  0
HATCH
  5
7F
330
69
100
AcDbEntity
  8
_U+30EC_U+30A4_U+30E4_U+30FC 1
 62
   179
420
  2234388
100
AcDbHatch
 10
0.0
 20
0.0
 30
0.0
210
0.0
220
0.0
230
1.0
  2
SOLID
 70
     1
 71
     0
 91
        3
 92
        1
 93
        1
 72
     4
 94
        3
 73
     0
 74
     1
 95
       44
 96
       40
 40
0.0
 40
0.0
 40
0.0
 40
0.0
 40
1.0
 40
1.0
 40
1.0
 40
2.0
 40
2.0
 40
2.0
 40
3.0
 40
3.0
 40
3.0
 40
4.0
 40
4.0
 40
4.0
 40
5.0
 40
5.0
 40
5.0
 40
6.0
 40
6.0
 40
6.0
 40
7.0
 40
7.0
 40
7.0
 40
8.0
 40
8.0
 40
8.0
 40
9.0
 40
9.0
 40
9.0
 40
10.0
 40
10.0
 40
10.0
 40
11.0
 40
11.0
 40
11.0
 40
12.0
 40
12.0
 40
12.0
 40
13.0
 40
13.0
 40
13.0
 40
13.0
 10
100.5823187682572
 20
-106.0081719027514
 10
100.462773954919
 20
-106.3762803553504
 10
100.4086859558006
 20
-106.5349270024461
 10
100.1981906216518
 20
-106.7845241703525
 10
100.0014756694441
 20
-107.01517331309
 10
99.74826115127821
 20
-107.2012084692934
 10
99.44991588225558
 20
-107.2943983021695
 10
99.44991588225558
 20
-107.2943983021695
 10
99.24424368178616
 20
-107.1145643178394
 10
99.24424368178616
 20
-107.1145643178394
 10
99.92912866425384
 20
-106.9622910973914
 10
100.2819064419434
 20
-106.4059081765235
 10
100.3494303134543
 20
-105.9657972282829
 10
100.3494303134543
 20
-105.9657972282829
 10
99.53122013570747
 20
-105.9657972282829
 10
99.53122013570747
 20
-105.9657972282829
 10
99.43165687618375
 20
-105.9657972282829
 10
99.23528643352452
 20
-105.9701035976394
 10
99.06785479294138
 20
-105.9890516228083
 10
99.06785479294138
 20
-105.9890516228083
 10
99.06785479294138
 20
-105.7690822760751
 10
99.06785479294138
 20
-105.7690822760751
 10
99.1605278614946
 20
-105.7902696133094
 10
99.42958981889261
 20
-105.7902696133094
 10
99.5356987598383
 20
-105.7902696133094
 10
99.5356987598383
 20
-105.7902696133094
 10
99.99699704531325
 20
-105.7902696133094
 10
99.99699704531325
 20
-105.7902696133094
 10
100.04212779617
 20
-105.7902696133094
 10
100.2929307474962
 20
-105.788030301244
 10
100.3339273837707
 20
-105.7818291293705
 10
100.3790581346275
 20
-105.7754557027228
 10
100.3811251919186
 20
-105.7733886454317
 10
100.4469265156869
 20
-105.7330810282542
 10
100.4469265156869
 20
-105.7330810282542
 10
100.6481200920255
 20
-105.8875935607677
 10
100.6481200920255
 20
-105.8875935607677
 10
100.6164252135612
 20
-105.9172213819408
 10
100.600577774329
 20
-105.9489162604051
 10
100.5823187682572
 20
-106.0081719027514
 97
        0
 97
        0
 92
        1
 93
        1
 72
     4
 94
        3
 73
     0
 74
     1
 95
       17
 96
       13
 40
0.0
 40
0.0
 40
0.0
 40
0.0
 40
1.0
 40
1.0
 40
1.0
 40
2.0
 40
2.0
 40
2.0
 40
3.0
 40
3.0
 40
3.0
 40
4.0
 40
4.0
 40
4.0
 40
4.0
 10
100.8062499747984
 20
-105.8092176384783
 10
100.6705132126796
 20
-105.8092176384783
 10
100.5623372144427
 20
-105.7077595764377
 10
100.5623372144427
 20
-105.5808078078062
 10
100.5623372144427
 20
-105.4538560391747
 10
100.6705132126796
 20
-105.3501586650687
 10
100.8062499747984
 20
-105.3501586650687
 10
100.9419867369173
 20
-105.3501586650687
 10
101.0529188115423
 20
-105.4538560391747
 10
101.0529188115423
 20
-105.5808078078062
 10
101.0529188115423
 20
-105.7077595764377
 10
100.9419867369173
 20
-105.8092176384783
 10
100.8062499747984
 20
-105.8092176384783
 97
        0
 97
        0
 92
        1
 93
        1
 72
     4
 94
        3
 73
     0
 74
     1
 95
       17
 96
       13
 40
0.0
 40
0.0
 40
0.0
 40
0.0
 40
1.0
 40
1.0
 40
1.0
 40
2.0
 40
2.0
 40
2.0
 40
3.0
 40
3.0
 40
3.0
 40
4.0
 40
4.0
 40
4.0
 40
4.0
 10
100.8041829175073
 20
-105.4791774909913
 10
100.7452717847095
 20
-105.4791774909913
 10
100.6980739765616
 20
-105.5236192227511
 10
100.6980739765616
 20
-105.578740750515
 10
100.6980739765616
 20
-105.6357570807959
 10
100.7452717847095
 20
-105.6845051819122
 10
100.8086615416381
 20
-105.6845051819122
 10
100.8717067890182
 20
-105.6845051819122
 10
100.9151149921323
 20
-105.6336900235048
 10
100.9151149921323
 20
-105.5808078078062
 10
100.9151149921323
 20
-105.5236192227511
 10
100.8651611075962
 20
-105.4791774909913
 10
100.8041829175073
 20
-105.4791774909913
 97
        0
 97
        0
 75
     2
 76
     1
 98
        0
  0
SPLINE
  5
80
330
69
100
AcDbEntity
  8
_U+30EC_U+30A4_U+30E4_U+30FC 1
370
     0
100
AcDbSpline
210
0.0
220
0.0
230
1.0
 70
    11
 71
     3
 72
    44
 73
    40
 74
     0
 42
0.0000000001
 43
0.0000000001
 12
1.0
 22
0.0
 32
0.0
 13
1.0
 23
0.0
 33
0.0
 40
0.0
 40
0.0
 40
0.0
 40
0.0
 40
1.0
 40
1.0
 40
1.0
 40
2.0
 40
2.0
 40
2.0
 40
3.0
 40
3.0
 40
3.0
 40
4.0
 40
4.0
 40
4.0
 40
5.0
 40
5.0
 40
5.0
 40
6.0
 40
6.0
 40
6.0
 40
7.0
 40
7.0
 40
7.0
 40
8.0
 40
8.0
 40
8.0
 40
9.0
 40
9.0
 40
9.0
 40
10.0
 40
10.0
 40
10.0
 40
11.0
 40
11.0
 40
11.0
 40
12.0
 40
12.0
 40
12.0
 40
13.0
 40
13.0
 40
13.0
 40
13.0
 10
101.4180989329788
 20
-107.1209377444871
 30
0.0
 10
101.4180989329788
 20
-107.1209377444871
 30
0.0
 10
101.2778835467291
 20
-107.0236137970288
 30
0.0
 10
101.2778835467291
 20
-107.0236137970288
 30
0.0
 10
101.28236217086
 20
-106.9748656959125
 30
0.0
 10
101.2871853045393
 20
-106.9388644480917
 30
0.0
 10
101.2892523618305
 20
-106.8141519915256
 30
0.0
 10
101.2892523618305
 20
-106.7760836864136
 30
0.0
 10
101.2871853045393
 20
-106.6151977272525
 30
0.0
 10
101.2871853045393
 20
-106.581435791497
 30
0.0
 10
101.2871853045393
 20
-106.581435791497
 30
0.0
 10
101.2871853045393
 20
-106.0651882330323
 30
0.0
 10
101.2871853045393
 20
-106.0651882330323
 30
0.0
 10
101.2871853045393
 20
-105.9637301709917
 30
0.0
 10
101.28236217086
 20
-105.6738253859079
 30
0.0
 10
101.2713378653072
 20
-105.5828748650973
 30
0.0
 10
101.2713378653072
 20
-105.5828748650973
 30
0.0
 10
101.531098064895
 20
-105.6209431702094
 30
0.0
 10
101.531098064895
 20
-105.6209431702094
 30
0.0
 10
101.5627929433593
 20
-105.6252495395659
 30
0.0
 10
101.5944878218236
 20
-105.6316229662136
 30
0.0
 10
101.5944878218236
 20
-105.6738253859079
 30
0.0
 10
101.5944878218236
 20
-105.6970797804334
 30
0.0
 10
101.5875976308531
 20
-105.7013861497899
 30
0.0
 10
101.5355766890258
 20
-105.7373873976108
 30
0.0
 10
101.5221408166334
 20
-105.8452188862991
 30
0.0
 10
101.5152506256629
 20
-105.8853542487023
 30
0.0
 10
101.5152506256629
 20
-106.2450222173624
 30
0.0
 10
101.5152506256629
 20
-106.2450222173624
 30
0.0
 10
101.5152506256629
 20
-106.8374063860511
 30
0.0
 10
101.5152506256629
 20
-106.8374063860511
 30
0.0
 10
101.806705703715
 20
-106.7972710236479
 30
0.0
 10
102.3903048789163
 20
-106.4841118440387
 30
0.0
 10
102.7113877781416
 20
-106.0779350863277
 30
0.0
 10
102.7113877781416
 20
-106.0779350863277
 30
0.0
 10
102.7837347833319
 20
-106.3275322542341
 30
0.0
 10
102.7837347833319
 20
-106.3275322542341
 30
0.0
 10
102.4695420750771
 20
-106.7020141334807
 30
0.0
 10
101.8769856516141
 20
-107.0065605743768
 30
0.0
 10
101.4180989329788
 20
-107.1209377444871
 30
0.0
  0
HATCH
  5
81
330
69
100
AcDbEntity
  8
_U+30EC_U+30A4_U+30E4_U+30FC 1
 62
   179
420
  2234388
100
AcDbHatch
 10
0.0
 20
0.0
 30
0.0
210
0.0
220
0.0
230
1.0
  2
SOLID
 70
     1
 71
     0
 91
        1
 92
        1
 93
        1
 72
     4
 94
        3
 73
     0
 74
     1
 95
       44
 96
       40
 40
0.0
 40
0.0
 40
0.0
 40
0.0
 40
1.0
 40
1.0
 40
1.0
 40
2.0
 40
2.0
 40
2.0
 40
3.0
 40
3.0
 40
3.0
 40
4.0
 40
4.0
 40
4.0
 40
5.0
 40
5.0
 40
5.0
 40
6.0
 40
6.0
 40
6.0
 40
7.0
 40
7.0
 40
7.0
 40
8.0
 40
8.0
 40
8.0
 40
9.0
 40
9.0
 40
9.0
 40
10.0
 40
10.0
 40
10.0
 40
11.0
 40
11.0
 40
11.0
 40
12.0
 40
12.0
 40
12.0
 40
13.0
 40
13.0
 40
13.0
 40
13.0
 10
101.4180989329788
 20
-107.1209377444871
 10
101.4180989329788
 20
-107.1209377444871
 10
101.2778835467291
 20
-107.0236137970288
 10
101.2778835467291
 20
-107.0236137970288
 10
101.28236217086
 20
-106.9748656959125
 10
101.2871853045393
 20
-106.9388644480917
 10
101.2892523618305
 20
-106.8141519915256
 10
101.2892523618305
 20
-106.7760836864136
 10
101.2871853045393
 20
-106.6151977272525
 10
101.2871853045393
 20
-106.581435791497
 10
101.2871853045393
 20
-106.581435791497
 10
101.2871853045393
 20
-106.0651882330323
 10
101.2871853045393
 20
-106.0651882330323
 10
101.2871853045393
 20
-105.9637301709917
 10
101.28236217086
 20
-105.6738253859079
 10
101.2713378653072
 20
-105.5828748650973
 10
101.2713378653072
 20
-105.5828748650973
 10
101.531098064895
 20
-105.6209431702094
 10
101.531098064895
 20
-105.6209431702094
 10
101.5627929433593
 20
-105.6252495395659
 10
101.5944878218236
 20
-105.6316229662136
 10
101.5944878218236
 20
-105.6738253859079
 10
101.5944878218236
 20
-105.6970797804334
 10
101.5875976308531
 20
-105.7013861497899
 10
101.5355766890258
 20
-105.7373873976108
 10
101.5221408166334
 20
-105.8452188862991
 10
101.5152506256629
 20
-105.8853542487023
 10
101.5152506256629
 20
-106.2450222173624
 10
101.5152506256629
 20
-106.2450222173624
 10
101.5152506256629
 20
-106.8374063860511
 10
101.5152506256629
 20
-106.8374063860511
 10
101.806705703715
 20
-106.7972710236479
 10
102.3903048789163
 20
-106.4841118440387
 10
102.7113877781416
 20
-106.0779350863277
 10
102.7113877781416
 20
-106.0779350863277
 10
102.7837347833319
 20
-106.3275322542341
 10
102.7837347833319
 20
-106.3275322542341
 10
102.4695420750771
 20
-106.7020141334807
 10
101.8769856516141
 20
-107.0065605743768
 10
101.4180989329788
 20
-107.1209377444871
 97
        0
 97
        0
 75
     2
 76
     1
 98
        0
  0
SPLINE
  5
82
330
69
100
AcDbEntity
  8
_U+30EC_U+30A4_U+30E4_U+30FC 1
370
     0
100
AcDbSpline
210
0.0
220
0.0
230
1.0
 70
    11
 71
     3
 72
    29
 73
    25
 74
     0
 42
0.0000000001
 43
0.0000000001
 12
1.0
 22
0.0
 32
0.0
 13
1.0
 23
0.0
 33
0.0
 40
0.0
 40
0.0
 40
0.0
 40
0.0
 40
1.0
 40
1.0
 40
1.0
 40
2.0
 40
2.0
 40
2.0
 40
3.0
 40
3.0
 40
3.0
 40
4.0
 40
4.0
 40
4.0
 40
5.0
 40
5.0
 40
5.0
 40
6.0
 40
6.0
 40
6.0
 40
7.0
 40
7.0
 40
7.0
 40
8.0
 40
8.0
 40
8.0
 40
8.0
 10
104.0935600868238
 20
-106.4460435389267
 30
0.0
 10
104.0935600868238
 20
-106.4460435389267
 30
0.0
 10
103.5761067449393
 20
-106.4460435389267
 30
0.0
 10
103.5761067449393
 20
-106.4460435389267
 30
0.0
 10
103.5464789237662
 20
-106.4460435389267
 30
0.0
 10
103.2074815280176
 20
-106.4460435389267
 30
0.0
 10
102.9814832641852
 20
-106.4713649907433
 30
0.0
 10
102.9814832641852
 20
-106.4713649907433
 30
0.0
 10
102.9814832641852
 20
-106.2408881027801
 30
0.0
 10
102.9814832641852
 20
-106.2408881027801
 30
0.0
 10
103.1509819620595
 20
-106.2641424973055
 30
0.0
 10
103.3542425956892
 20
-106.2662095545966
 30
0.0
 10
103.5761067449393
 20
-106.2662095545966
 30
0.0
 10
103.5761067449393
 20
-106.2662095545966
 30
0.0
 10
104.0935600868238
 20
-106.2662095545966
 30
0.0
 10
104.0935600868238
 20
-106.2662095545966
 30
0.0
 10
104.2926866058713
 20
-106.2662095545966
 30
0.0
 10
104.4918131249187
 20
-106.2641424973055
 30
0.0
 10
104.688183567578
 20
-106.2408881027801
 30
0.0
 10
104.688183567578
 20
-106.2408881027801
 30
0.0
 10
104.688183567578
 20
-106.4713649907433
 30
0.0
 10
104.688183567578
 20
-106.4713649907433
 30
0.0
 10
104.4918131249187
 20
-106.4481105962178
 30
0.0
 10
104.2272297916515
 20
-106.4460435389267
 30
0.0
 10
104.0935600868238
 20
-106.4460435389267
 30
0.0
  0
HATCH
  5
83
330
69
100
AcDbEntity
  8
_U+30EC_U+30A4_U+30E4_U+30FC 1
 62
   179
420
  2234388
100
AcDbHatch
 10
0.0
 20
0.0
 30
0.0
210
0.0
220
0.0
230
1.0
  2
SOLID
 70
     1
 71
     0
 91
        1
 92
        1
 93
        1
 72
     4
 94
        3
 73
     0
 74
     1
 95
       29
 96
       25
 40
0.0
 40
0.0
 40
0.0
 40
0.0
 40
1.0
 40
1.0
 40
1.0
 40
2.0
 40
2.0
 40
2.0
 40
3.0
 40
3.0
 40
3.0
 40
4.0
 40
4.0
 40
4.0
 40
5.0
 40
5.0
 40
5.0
 40
6.0
 40
6.0
 40
6.0
 40
7.0
 40
7.0
 40
7.0
 40
8.0
 40
8.0
 40
8.0
 40
8.0
 10
104.0935600868238
 20
-106.4460435389267
 10
104.0935600868238
 20
-106.4460435389267
 10
103.5761067449393
 20
-106.4460435389267
 10
103.5761067449393
 20
-106.4460435389267
 10
103.5464789237662
 20
-106.4460435389267
 10
103.2074815280176
 20
-106.4460435389267
 10
102.9814832641852
 20
-106.4713649907433
 10
102.9814832641852
 20
-106.4713649907433
 10
102.9814832641852
 20
-106.2408881027801
 10
102.9814832641852
 20
-106.2408881027801
 10
103.1509819620595
 20
-106.2641424973055
 10
103.3542425956892
 20
-106.2662095545966
 10
103.5761067449393
 20
-106.2662095545966
 10
103.5761067449393
 20
-106.2662095545966
 10
104.0935600868238
 20
-106.2662095545966
 10
104.0935600868238
 20
-106.2662095545966
 10
104.2926866058713
 20
-106.2662095545966
 10
104.4918131249187
 20
-106.2641424973055
 10
104.688183567578
 20
-106.2408881027801
 10
104.688183567578
 20
-106.2408881027801
 10
104.688183567578
 20
-106.4713649907433
 10
104.688183567578
 20
-106.4713649907433
 10
104.4918131249187
 20
-106.4481105962178
 10
104.2272297916515
 20
-106.4460435389267
 10
104.0935600868238
 20
-106.4460435389267
 97
        0
 97
        0
 75
     2
 76
     1
 98
        0
  0
SPLINE
  5
84
330
69
100
AcDbEntity
  8
_U+30EC_U+30A4_U+30E4_U+30FC 1
370
     0
100
AcDbSpline
210
0.0
220
0.0
230
1.0
 70
    11
 71
     3
 72
    56
 73
    52
 74
     0
 42
0.0000000001
 43
0.0000000001
 12
1.0
 22
0.0
 32
0.0
 13
1.0
 23
0.0
 33
0.0
 40
0.0
 40
0.0
 40
0.0
 40
0.0
 40
1.0
 40
1.0
 40
1.0
 40
2.0
 40
2.0
 40
2.0
 40
3.0
 40
3.0
 40
3.0
 40
4.0
 40
4.0
 40
4.0
 40
5.0
 40
5.0
 40
5.0
 40
6.0
 40
6.0
 40
6.0
 40
7.0
 40
7.0
 40
7.0
 40
8.0
 40
8.0
 40
8.0
 40
9.0
 40
9.0
 40
9.0
 40
10.0
 40
10.0
 40
10.0
 40
11.0
 40
11.0
 40
11.0
 40
12.0
 40
12.0
 40
12.0
 40
13.0
 40
13.0
 40
13.0
 40
14.0
 40
14.0
 40
14.0
 40
15.0
 40
15.0
 40
15.0
 40
16.0
 40
16.0
 40
16.0
 40
17.0
 40
17.0
 40
17.0
 40
17.0
 10
105.9373751905296
 20
-106.6999470761896
 30
0.0
 10
105.8154188103517
 20
-106.5857421608536
 30
0.0
 10
105.6114691576249
 20
-106.3952283805193
 30
0.0
 10
105.268337647294
 20
-106.2619031852401
 30
0.0
 10
105.268337647294
 20
-106.2619031852401
 30
0.0
 10
105.268337647294
 20
-106.6131306699613
 30
0.0
 10
105.268337647294
 20
-106.6131306699613
 30
0.0
 10
105.268337647294
 20
-106.7380153813016
 30
0.0
 10
105.2772948955557
 20
-107.1081908911917
 30
0.0
 10
105.2931423347878
 20
-107.21602237988
 30
0.0
 10
105.2931423347878
 20
-107.21602237988
 30
0.0
 10
105.019601753259
 20
-107.21602237988
 30
0.0
 10
105.019601753259
 20
-107.21602237988
 30
0.0
 10
105.0354491924911
 20
-107.1102579484829
 30
0.0
 10
105.0375162497823
 20
-106.9495442440959
 30
0.0
 10
105.0375162497823
 20
-106.9051025123362
 30
0.0
 10
105.0395833070734
 20
-106.8565266659942
 30
0.0
 10
105.0464734980439
 20
-106.6427584911345
 30
0.0
 10
105.0464734980439
 20
-106.5983167593747
 30
0.0
 10
105.0464734980439
 20
-106.5983167593747
 30
0.0
 10
105.0464734980439
 20
-106.0462402078634
 30
0.0
 10
105.0464734980439
 20
-106.0462402078634
 30
0.0
 10
105.0464734980439
 20
-105.9637301709917
 30
0.0
 10
105.0395833070734
 20
-105.7373873976108
 30
0.0
 10
105.0326931161029
 20
-105.6590114753214
 30
0.0
 10
105.0285590015206
 20
-105.6040622023316
 30
0.0
 10
105.0216688105501
 20
-105.5659938972196
 30
0.0
 10
105.0102999954488
 20
-105.5194851081688
 30
0.0
 10
105.0102999954488
 20
-105.5194851081688
 30
0.0
 10
105.3110568313111
 20
-105.5384331333376
 30
0.0
 10
105.3110568313111
 20
-105.5384331333376
 30
0.0
 10
105.3248372132521
 20
-105.5384331333376
 30
0.0
 10
105.3537760153282
 20
-105.5427395026942
 30
0.0
 10
105.3537760153282
 20
-105.5701280118019
 30
0.0
 10
105.3537760153282
 20
-105.5913153490362
 30
0.0
 10
105.3289713278344
 20
-105.6061292596228
 30
0.0
 10
105.2793619528468
 20
-105.6336900235048
 30
0.0
 10
105.2704047045852
 20
-105.7647759067185
 30
0.0
 10
105.268337647294
 20
-105.8960340447066
 30
0.0
 10
105.268337647294
 20
-106.0250528706292
 30
0.0
 10
105.268337647294
 20
-106.0250528706292
 30
0.0
 10
105.268337647294
 20
-106.2598361279489
 30
0.0
 10
105.268337647294
 20
-106.2598361279489
 30
0.0
 10
105.268337647294
 20
-106.2598361279489
 30
0.0
 10
105.3744465882397
 20
-106.07156165968
 30
0.0
 10
105.3744465882397
 20
-106.07156165968
 30
0.0
 10
105.6865722392034
 20
-106.2048868549592
 30
0.0
 10
105.9890516228083
 20
-106.4184827750447
 30
0.0
 10
106.0865478250409
 20
-106.5326876903807
 30
0.0
 10
106.0865478250409
 20
-106.5326876903807
 30
0.0
 10
105.9373751905296
 20
-106.6999470761896
 30
0.0
 10
105.9373751905296
 20
-106.6999470761896
 30
0.0
  0
HATCH
  5
85
330
69
100
AcDbEntity
  8
_U+30EC_U+30A4_U+30E4_U+30FC 1
 62
   179
420
  2234388
100
AcDbHatch
 10
0.0
 20
0.0
 30
0.0
210
0.0
220
0.0
230
1.0
  2
SOLID
 70
     1
 71
     0
 91
        1
 92
        1
 93
        1
 72
     4
 94
        3
 73
     0
 74
     1
 95
       56
 96
       52
 40
0.0
 40
0.0
 40
0.0
 40
0.0
 40
1.0
 40
1.0
 40
1.0
 40
2.0
 40
2.0
 40
2.0
 40
3.0
 40
3.0
 40
3.0
 40
4.0
 40
4.0
 40
4.0
 40
5.0
 40
5.0
 40
5.0
 40
6.0
 40
6.0
 40
6.0
 40
7.0
 40
7.0
 40
7.0
 40
8.0
 40
8.0
 40
8.0
 40
9.0
 40
9.0
 40
9.0
 40
10.0
 40
10.0
 40
10.0
 40
11.0
 40
11.0
 40
11.0
 40
12.0
 40
12.0
 40
12.0
 40
13.0
 40
13.0
 40
13.0
 40
14.0
 40
14.0
 40
14.0
 40
15.0
 40
15.0
 40
15.0
 40
16.0
 40
16.0
 40
16.0
 40
17.0
 40
17.0
 40
17.0
 40
17.0
 10
105.9373751905296
 20
-106.6999470761896
 10
105.8154188103517
 20
-106.5857421608536
 10
105.6114691576249
 20
-106.3952283805193
 10
105.268337647294
 20
-106.2619031852401
 10
105.268337647294
 20
-106.2619031852401
 10
105.268337647294
 20
-106.6131306699613
 10
105.268337647294
 20
-106.6131306699613
 10
105.268337647294
 20
-106.7380153813016
 10
105.2772948955557
 20
-107.1081908911917
 10
105.2931423347878
 20
-107.21602237988
 10
105.2931423347878
 20
-107.21602237988
 10
105.019601753259
 20
-107.21602237988
 10
105.019601753259
 20
-107.21602237988
 10
105.0354491924911
 20
-107.1102579484829
 10
105.0375162497823
 20
-106.9495442440959
 10
105.0375162497823
 20
-106.9051025123362
 10
105.0395833070734
 20
-106.8565266659942
 10
105.0464734980439
 20
-106.6427584911345
 10
105.0464734980439
 20
-106.5983167593747
 10
105.0464734980439
 20
-106.5983167593747
 10
105.0464734980439
 20
-106.0462402078634
 10
105.0464734980439
 20
-106.0462402078634
 10
105.0464734980439
 20
-105.9637301709917
 10
105.0395833070734
 20
-105.7373873976108
 10
105.0326931161029
 20
-105.6590114753214
 10
105.0285590015206
 20
-105.6040622023316
 10
105.0216688105501
 20
-105.5659938972196
 10
105.0102999954488
 20
-105.5194851081688
 10
105.0102999954488
 20
-105.5194851081688
 10
105.3110568313111
 20
-105.5384331333376
 10
105.3110568313111
 20
-105.5384331333376
 10
105.3248372132521
 20
-105.5384331333376
 10
105.3537760153282
 20
-105.5427395026942
 10
105.3537760153282
 20
-105.5701280118019
 10
105.3537760153282
 20
-105.5913153490362
 10
105.3289713278344
 20
-105.6061292596228
 10
105.2793619528468
 20
-105.6336900235048
 10
105.2704047045852
 20
-105.7647759067185
 10
105.268337647294
 20
-105.8960340447066
 10
105.268337647294
 20
-106.0250528706292
 10
105.268337647294
 20
-106.0250528706292
 10
105.268337647294
 20
-106.2598361279489
 10
105.268337647294
 20
-106.2598361279489
 10
105.268337647294
 20
-106.2598361279489
 10
105.3744465882397
 20
-106.07156165968
 10
105.3744465882397
 20
-106.07156165968
 10
105.6865722392034
 20
-106.2048868549592
 10
105.9890516228083
 20
-106.4184827750447
 10
106.0865478250409
 20
-106.5326876903807
 10
106.0865478250409
 20
-106.5326876903807
 10
105.9373751905296
 20
-106.6999470761896
 10
105.9373751905296
 20
-106.6999470761896
 97
        0
 97
        0
 75
     2
 76
     1
 98
        0
  0
ENDBLK
  5
6C
330
69
100
AcDbEntity
  8
0
100
AcDbBlockEnd
  0
BLOCK
  5
88
330
86
100
AcDbEntity
  8
0
100
AcDbBlockBegin
  2
block 7
 70
     0
 10
0.0
 20
0.0
 30
0.0
  3
block 7
  1

  0
SPLINE
  5
8A
330
86
100
AcDbEntity
  8
_U+30EC_U+30A4_U+30E4_U+30FC 1
370
     0
100
AcDbSpline
210
0.0
220
0.0
230
1.0
 70
    11
 71
     3
 72
    74
 73
    70
 74
     0
 42
0.0000000001
 43
0.0000000001
 12
1.0
 22
0.0
 32
0.0
 13
1.0
 23
0.0
 33
0.0
 40
0.0
 40
0.0
 40
0.0
 40
0.0
 40
1.0
 40
1.0
 40
1.0
 40
2.0
 40
2.0
 40
2.0
 40
3.0
 40
3.0
 40
3.0
 40
4.0
 40
4.0
 40
4.0
 40
5.0
 40
5.0
 40
5.0
 40
6.0
 40
6.0
 40
6.0
 40
7.0
 40
7.0
 40
7.0
 40
8.0
 40
8.0
 40
8.0
 40
9.0
 40
9.0
 40
9.0
 40
10.0
 40
10.0
 40
10.0
 40
11.0
 40
11.0
 40
11.0
 40
12.0
 40
12.0
 40
12.0
 40
13.0
 40
13.0
 40
13.0
 40
14.0
 40
14.0
 40
14.0
 40
15.0
 40
15.0
 40
15.0
 40
16.0
 40
16.0
 40
16.0
 40
17.0
 40
17.0
 40
17.0
 40
18.0
 40
18.0
 40
18.0
 40
19.0
 40
19.0
 40
19.0
 40
20.0
 40
20.0
 40
20.0
 40
21.0
 40
21.0
 40
21.0
 40
22.0
 40
22.0
 40
22.0
 40
23.0
 40
23.0
 40
23.0
 40
23.0
 10
66.64485539783531
 20
-134.8341471017081
 30
0.0
 10
65.99821097525393
 20
-134.8341471017081
 30
0.0
 10
65.92362465799826
 20
-134.7263156130198
 30
0.0
 10
65.92362465799826
 20
-134.404888204246
 30
0.0
 10
65.92362465799826
 20
-134.404888204246
 30
0.0
 10
65.92362465799826
 20
-133.7678900490233
 30
0.0
 10
65.92362465799826
 20
-133.7678900490233
 30
0.0
 10
65.92362465799826
 20
-133.6197509431576
 30
0.0
 10
65.92362465799826
 20
-133.4357828442452
 30
0.0
 10
65.92138534593285
 20
-133.3217501836835
 30
0.0
 10
65.91914603386743
 20
-133.2559488599152
 30
0.0
 10
65.91690672180202
 20
-133.2283880960332
 30
0.0
 10
65.91225584289694
 20
-133.1863579311132
 30
0.0
 10
65.91225584289694
 20
-133.1863579311132
 30
0.0
 10
66.18131780029495
 20
-133.232866720164
 30
0.0
 10
66.18131780029495
 20
-133.232866720164
 30
0.0
 10
66.21525199082467
 20
-133.2390678920375
 30
0.0
 10
66.23557805418764
 20
-133.2411349493286
 30
0.0
 10
66.23557805418764
 20
-133.2707627705018
 30
0.0
 10
66.23557805418764
 20
-133.2835096237972
 30
0.0
 10
66.2288601179914
 20
-133.2962564770926
 30
0.0
 10
66.22214218179516
 20
-133.3048692158057
 30
0.0
 10
66.1971652395271
 20
-133.3320854701392
 30
0.0
 10
66.19268661539627
 20
-133.33656409427
 30
0.0
 10
66.17683917616412
 20
-133.3617132913124
 30
0.0
 10
66.17012123996788
 20
-133.4423285256672
 30
0.0
 10
66.15203448867032
 20
-133.7110459735167
 30
0.0
 10
66.14979517660491
 20
-133.7785698450276
 30
0.0
 10
66.14979517660491
 20
-133.7785698450276
 30
0.0
 10
66.1475558645395
 20
-133.8633191939647
 30
0.0
 10
66.1475558645395
 20
-133.8633191939647
 30
0.0
 10
66.28088105981867
 20
-133.860907627125
 30
0.0
 10
66.85741778927523
 20
-133.7255153745547
 30
0.0
 10
67.18297931263135
 20
-133.5522270716467
 30
0.0
 10
67.18297931263135
 20
-133.5522270716467
 30
0.0
 10
67.3140651958451
 20
-133.7658229917322
 30
0.0
 10
67.3140651958451
 20
-133.7658229917322
 30
0.0
 10
67.31854381997593
 20
-133.7723686731541
 30
0.0
 10
67.32767332301184
 20
-133.7892496410319
 30
0.0
 10
67.32767332301184
 20
-133.7995849274876
 30
0.0
 10
67.32767332301184
 20
-133.8102647234919
 30
0.0
 10
67.31854381997593
 20
-133.8209445194962
 30
0.0
 10
67.29149982041672
 20
-133.8209445194962
 30
0.0
 10
67.27789169324997
 20
-133.8209445194962
 30
0.0
 10
67.26652287814865
 20
-133.8209445194962
 30
0.0
 10
67.23723956652402
 20
-133.7995849274876
 30
0.0
 10
66.82572291081094
 20
-133.9287760081845
 30
0.0
 10
66.69463702759718
 20
-133.9625379439399
 30
0.0
 10
66.53633489004994
 20
-133.9921657651131
 30
0.0
 10
66.40524900683619
 20
-134.0176594717039
 30
0.0
 10
66.22662080592599
 20
-134.0472872928771
 30
0.0
 10
66.1475558645395
 20
-134.0493543501682
 30
0.0
 10
66.1475558645395
 20
-134.0493543501682
 30
0.0
 10
66.1475558645395
 20
-134.3942084082417
 30
0.0
 10
66.1475558645395
 20
-134.3942084082417
 30
0.0
 10
66.1475558645395
 20
-134.4217691721237
 30
0.0
 10
66.1475558645395
 20
-134.5378688899766
 30
0.0
 10
66.2040554304976
 20
-134.5781765071541
 30
0.0
 10
66.29896781111623
 20
-134.6460448882135
 30
0.0
 10
66.51600882668697
 20
-134.6563801746692
 30
0.0
 10
66.63813746163908
 20
-134.6563801746692
 30
0.0
 10
66.82124428668011
 20
-134.6563801746692
 30
0.0
 10
67.18297931263135
 20
-134.6143500097492
 30
0.0
 10
67.34799938637481
 20
-134.5526828005632
 30
0.0
 10
67.34799938637481
 20
-134.5526828005632
 30
0.0
 10
67.35023869844022
 20
-134.7855712553661
 30
0.0
 10
67.35023869844022
 20
-134.7855712553661
 30
0.0
 10
67.11511093157192
 20
-134.8172661338304
 30
0.0
 10
66.87998316470362
 20
-134.8341471017081
 30
0.0
 10
66.64485539783531
 20
-134.8341471017081
 30
0.0
  0
SPLINE
  5
8B
330
86
100
AcDbEntity
  8
_U+30EC_U+30A4_U+30E4_U+30FC 1
370
     0
100
AcDbSpline
210
0.0
220
0.0
230
1.0
 70
    11
 71
     3
 72
    17
 73
    13
 74
     0
 42
0.0000000001
 43
0.0000000001
 12
1.0
 22
0.0
 32
0.0
 13
1.0
 23
0.0
 33
0.0
 40
0.0
 40
0.0
 40
0.0
 40
0.0
 40
1.0
 40
1.0
 40
1.0
 40
2.0
 40
2.0
 40
2.0
 40
3.0
 40
3.0
 40
3.0
 40
4.0
 40
4.0
 40
4.0
 40
4.0
 10
67.2823703173808
 20
-133.4822916332961
 30
0.0
 10
67.2258707514227
 20
-133.4127007044941
 30
0.0
 10
67.09702418027436
 20
-133.3238172409746
 30
0.0
 10
67.01106904791737
 20
-133.2876437383795
 30
0.0
 10
67.01106904791737
 20
-133.2876437383795
 30
0.0
 10
67.1106323074411
 20
-133.1694769632354
 30
0.0
 10
67.1106323074411
 20
-133.1694769632354
 30
0.0
 10
67.20778400012514
 20
-133.2032388989909
 30
0.0
 10
67.31854381997593
 20
-133.2855766810883
 30
0.0
 10
67.38865151310075
 20
-133.3596462340212
 30
0.0
 10
67.38865151310075
 20
-133.3596462340212
 30
0.0
 10
67.2823703173808
 20
-133.4822916332961
 30
0.0
 10
67.2823703173808
 20
-133.4822916332961
 30
0.0
  0
SPLINE
  5
8C
330
86
100
AcDbEntity
  8
_U+30EC_U+30A4_U+30E4_U+30FC 1
370
     0
100
AcDbSpline
210
0.0
220
0.0
230
1.0
 70
    11
 71
     3
 72
    17
 73
    13
 74
     0
 42
0.0000000001
 43
0.0000000001
 12
1.0
 22
0.0
 32
0.0
 13
1.0
 23
0.0
 33
0.0
 40
0.0
 40
0.0
 40
0.0
 40
0.0
 40
1.0
 40
1.0
 40
1.0
 40
2.0
 40
2.0
 40
2.0
 40
3.0
 40
3.0
 40
3.0
 40
4.0
 40
4.0
 40
4.0
 40
4.0
 10
67.57175833814179
 20
-133.3069362730969
 30
0.0
 10
67.4587592062256
 20
-133.2115071281555
 30
0.0
 10
67.45428058209477
 20
-133.2115071281555
 30
0.0
 10
67.29373913248213
 20
-133.1164224927626
 30
0.0
 10
67.29373913248213
 20
-133.1164224927626
 30
0.0
 10
67.40225964026749
 20
-132.99791120807
 30
0.0
 10
67.40225964026749
 20
-132.99791120807
 30
0.0
 10
67.50854083598745
 20
-133.0423529398297
 30
0.0
 10
67.57864852911229
 20
-133.0909287861717
 30
0.0
 10
67.67580022179634
 20
-133.1904920456954
 30
0.0
 10
67.67580022179634
 20
-133.1904920456954
 30
0.0
 10
67.57175833814179
 20
-133.3069362730969
 30
0.0
 10
67.57175833814179
 20
-133.3069362730969
 30
0.0
  0
HATCH
  5
8D
330
86
100
AcDbEntity
  8
_U+30EC_U+30A4_U+30E4_U+30FC 1
 62
   179
420
  2234388
100
AcDbHatch
 10
0.0
 20
0.0
 30
0.0
210
0.0
220
0.0
230
1.0
  2
SOLID
 70
     1
 71
     0
 91
        3
 92
        1
 93
        1
 72
     4
 94
        3
 73
     0
 74
     1
 95
       74
 96
       70
 40
0.0
 40
0.0
 40
0.0
 40
0.0
 40
1.0
 40
1.0
 40
1.0
 40
2.0
 40
2.0
 40
2.0
 40
3.0
 40
3.0
 40
3.0
 40
4.0
 40
4.0
 40
4.0
 40
5.0
 40
5.0
 40
5.0
 40
6.0
 40
6.0
 40
6.0
 40
7.0
 40
7.0
 40
7.0
 40
8.0
 40
8.0
 40
8.0
 40
9.0
 40
9.0
 40
9.0
 40
10.0
 40
10.0
 40
10.0
 40
11.0
 40
11.0
 40
11.0
 40
12.0
 40
12.0
 40
12.0
 40
13.0
 40
13.0
 40
13.0
 40
14.0
 40
14.0
 40
14.0
 40
15.0
 40
15.0
 40
15.0
 40
16.0
 40
16.0
 40
16.0
 40
17.0
 40
17.0
 40
17.0
 40
18.0
 40
18.0
 40
18.0
 40
19.0
 40
19.0
 40
19.0
 40
20.0
 40
20.0
 40
20.0
 40
21.0
 40
21.0
 40
21.0
 40
22.0
 40
22.0
 40
22.0
 40
23.0
 40
23.0
 40
23.0
 40
23.0
 10
66.64485539783531
 20
-134.8341471017081
 10
65.99821097525393
 20
-134.8341471017081
 10
65.92362465799826
 20
-134.7263156130198
 10
65.92362465799826
 20
-134.404888204246
 10
65.92362465799826
 20
-134.404888204246
 10
65.92362465799826
 20
-133.7678900490233
 10
65.92362465799826
 20
-133.7678900490233
 10
65.92362465799826
 20
-133.6197509431576
 10
65.92362465799826
 20
-133.4357828442452
 10
65.92138534593285
 20
-133.3217501836835
 10
65.91914603386743
 20
-133.2559488599152
 10
65.91690672180202
 20
-133.2283880960332
 10
65.91225584289694
 20
-133.1863579311132
 10
65.91225584289694
 20
-133.1863579311132
 10
66.18131780029495
 20
-133.232866720164
 10
66.18131780029495
 20
-133.232866720164
 10
66.21525199082467
 20
-133.2390678920375
 10
66.23557805418764
 20
-133.2411349493286
 10
66.23557805418764
 20
-133.2707627705018
 10
66.23557805418764
 20
-133.2835096237972
 10
66.2288601179914
 20
-133.2962564770926
 10
66.22214218179516
 20
-133.3048692158057
 10
66.1971652395271
 20
-133.3320854701392
 10
66.19268661539627
 20
-133.33656409427
 10
66.17683917616412
 20
-133.3617132913124
 10
66.17012123996788
 20
-133.4423285256672
 10
66.15203448867032
 20
-133.7110459735167
 10
66.14979517660491
 20
-133.7785698450276
 10
66.14979517660491
 20
-133.7785698450276
 10
66.1475558645395
 20
-133.8633191939647
 10
66.1475558645395
 20
-133.8633191939647
 10
66.28088105981867
 20
-133.860907627125
 10
66.85741778927523
 20
-133.7255153745547
 10
67.18297931263135
 20
-133.5522270716467
 10
67.18297931263135
 20
-133.5522270716467
 10
67.3140651958451
 20
-133.7658229917322
 10
67.3140651958451
 20
-133.7658229917322
 10
67.31854381997593
 20
-133.7723686731541
 10
67.32767332301184
 20
-133.7892496410319
 10
67.32767332301184
 20
-133.7995849274876
 10
67.32767332301184
 20
-133.8102647234919
 10
67.31854381997593
 20
-133.8209445194962
 10
67.29149982041672
 20
-133.8209445194962
 10
67.27789169324997
 20
-133.8209445194962
 10
67.26652287814865
 20
-133.8209445194962
 10
67.23723956652402
 20
-133.7995849274876
 10
66.82572291081094
 20
-133.9287760081845
 10
66.69463702759718
 20
-133.9625379439399
 10
66.53633489004994
 20
-133.9921657651131
 10
66.40524900683619
 20
-134.0176594717039
 10
66.22662080592599
 20
-134.0472872928771
 10
66.1475558645395
 20
-134.0493543501682
 10
66.1475558645395
 20
-134.0493543501682
 10
66.1475558645395
 20
-134.3942084082417
 10
66.1475558645395
 20
-134.3942084082417
 10
66.1475558645395
 20
-134.4217691721237
 10
66.1475558645395
 20
-134.5378688899766
 10
66.2040554304976
 20
-134.5781765071541
 10
66.29896781111623
 20
-134.6460448882135
 10
66.51600882668697
 20
-134.6563801746692
 10
66.63813746163908
 20
-134.6563801746692
 10
66.82124428668011
 20
-134.6563801746692
 10
67.18297931263135
 20
-134.6143500097492
 10
67.34799938637481
 20
-134.5526828005632
 10
67.34799938637481
 20
-134.5526828005632
 10
67.35023869844022
 20
-134.7855712553661
 10
67.35023869844022
 20
-134.7855712553661
 10
67.11511093157192
 20
-134.8172661338304
 10
66.87998316470362
 20
-134.8341471017081
 10
66.64485539783531
 20
-134.8341471017081
 97
        0
 97
        0
 92
        1
 93
        1
 72
     4
 94
        3
 73
     0
 74
     1
 95
       17
 96
       13
 40
0.0
 40
0.0
 40
0.0
 40
0.0
 40
1.0
 40
1.0
 40
1.0
 40
2.0
 40
2.0
 40
2.0
 40
3.0
 40
3.0
 40
3.0
 40
4.0
 40
4.0
 40
4.0
 40
4.0
 10
67.2823703173808
 20
-133.4822916332961
 10
67.2258707514227
 20
-133.4127007044941
 10
67.09702418027436
 20
-133.3238172409746
 10
67.01106904791737
 20
-133.2876437383795
 10
67.01106904791737
 20
-133.2876437383795
 10
67.1106323074411
 20
-133.1694769632354
 10
67.1106323074411
 20
-133.1694769632354
 10
67.20778400012514
 20
-133.2032388989909
 10
67.31854381997593
 20
-133.2855766810883
 10
67.38865151310075
 20
-133.3596462340212
 10
67.38865151310075
 20
-133.3596462340212
 10
67.2823703173808
 20
-133.4822916332961
 10
67.2823703173808
 20
-133.4822916332961
 97
        0
 97
        0
 92
        1
 93
        1
 72
     4
 94
        3
 73
     0
 74
     1
 95
       17
 96
       13
 40
0.0
 40
0.0
 40
0.0
 40
0.0
 40
1.0
 40
1.0
 40
1.0
 40
2.0
 40
2.0
 40
2.0
 40
3.0
 40
3.0
 40
3.0
 40
4.0
 40
4.0
 40
4.0
 40
4.0
 10
67.57175833814179
 20
-133.3069362730969
 10
67.4587592062256
 20
-133.2115071281555
 10
67.45428058209477
 20
-133.2115071281555
 10
67.29373913248213
 20
-133.1164224927626
 10
67.29373913248213
 20
-133.1164224927626
 10
67.40225964026749
 20
-132.99791120807
 10
67.40225964026749
 20
-132.99791120807
 10
67.50854083598745
 20
-133.0423529398297
 10
67.57864852911229
 20
-133.0909287861717
 10
67.67580022179634
 20
-133.1904920456954
 10
67.67580022179634
 20
-133.1904920456954
 10
67.57175833814179
 20
-133.3069362730969
 10
67.57175833814179
 20
-133.3069362730969
 97
        0
 97
        0
 75
     2
 76
     1
 98
        0
  0
SPLINE
  5
8E
330
86
100
AcDbEntity
  8
_U+30EC_U+30A4_U+30E4_U+30FC 1
370
     0
100
AcDbSpline
210
0.0
220
0.0
230
1.0
 70
    11
 71
     3
 72
    56
 73
    52
 74
     0
 42
0.0000000001
 43
0.0000000001
 12
1.0
 22
0.0
 32
0.0
 13
1.0
 23
0.0
 33
0.0
 40
0.0
 40
0.0
 40
0.0
 40
0.0
 40
1.0
 40
1.0
 40
1.0
 40
2.0
 40
2.0
 40
2.0
 40
3.0
 40
3.0
 40
3.0
 40
4.0
 40
4.0
 40
4.0
 40
5.0
 40
5.0
 40
5.0
 40
6.0
 40
6.0
 40
6.0
 40
7.0
 40
7.0
 40
7.0
 40
8.0
 40
8.0
 40
8.0
 40
9.0
 40
9.0
 40
9.0
 40
10.0
 40
10.0
 40
10.0
 40
11.0
 40
11.0
 40
11.0
 40
12.0
 40
12.0
 40
12.0
 40
13.0
 40
13.0
 40
13.0
 40
14.0
 40
14.0
 40
14.0
 40
15.0
 40
15.0
 40
15.0
 40
16.0
 40
16.0
 40
16.0
 40
17.0
 40
17.0
 40
17.0
 40
17.0
 10
69.35907387588941
 20
-134.7876383126573
 30
0.0
 10
69.15340167541999
 20
-134.4789577571789
 30
0.0
 10
68.87744952705147
 20
-134.273630066258
 30
0.0
 10
68.78029783436743
 20
-134.2081732520383
 30
0.0
 10
68.46610512611264
 20
-134.5464816286898
 30
0.0
 10
68.15639104198868
 20
-134.6987548491378
 30
0.0
 10
67.94382865054877
 20
-134.7917724272396
 30
0.0
 10
67.94382865054877
 20
-134.7917724272396
 30
0.0
 10
67.77432995267448
 20
-134.6036702137449
 30
0.0
 10
67.77432995267448
 20
-134.6036702137449
 30
0.0
 10
67.88508977252526
 20
-134.5674967111498
 30
0.0
 10
68.11332734842306
 20
-134.4913601009258
 30
0.0
 10
68.36206324245809
 20
-134.3053249447223
 30
0.0
 10
68.64473332702285
 20
-134.0937960819279
 30
0.0
 10
68.84368759129603
 20
-133.8061306089096
 30
0.0
 10
68.97477347450979
 20
-133.4929714293004
 30
0.0
 10
68.97477347450979
 20
-133.4929714293004
 30
0.0
 10
68.5723863218326
 20
-133.4929714293004
 30
0.0
 10
68.5723863218326
 20
-133.4929714293004
 30
0.0
 10
68.40960556015455
 20
-133.4929714293004
 30
0.0
 10
68.18567435361331
 20
-133.4971055438827
 30
0.0
 10
68.02513290400067
 20
-133.5163980786001
 30
0.0
 10
68.02513290400067
 20
-133.5163980786001
 30
0.0
 10
68.02513290400067
 20
-133.3048692158057
 30
0.0
 10
68.02513290400067
 20
-133.3048692158057
 30
0.0
 10
68.09747990919091
 20
-133.3110703876792
 30
0.0
 10
68.37567136962484
 20
-133.3217501836835
 30
0.0
 10
68.46834443817805
 20
-133.3217501836835
 30
0.0
 10
68.46834443817805
 20
-133.3217501836835
 30
0.0
 10
68.8006238977304
 20
-133.3217501836835
 30
0.0
 10
68.8006238977304
 20
-133.3217501836835
 30
0.0
 10
69.02214353743197
 20
-133.3217501836835
 30
0.0
 10
69.04712047970003
 20
-133.3152045022615
 30
0.0
 10
69.07192516719383
 20
-133.3110703876792
 30
0.0
 10
69.11946748489028
 20
-133.3048692158057
 30
0.0
 10
69.16011961161622
 20
-133.2793755092149
 30
0.0
 10
69.18268498704461
 20
-133.2624945413372
 30
0.0
 10
69.18268498704461
 20
-133.2624945413372
 30
0.0
 10
69.35011662762776
 20
-133.4357828442452
 30
0.0
 10
69.35011662762776
 20
-133.4357828442452
 30
0.0
 10
69.30705293406213
 20
-133.4633436081272
 30
0.0
 10
69.29361706166965
 20
-133.4740234041315
 30
0.0
 10
69.24159611984238
 20
-133.5098523971781
 30
0.0
 10
69.10362004565813
 20
-133.7575547625676
 30
0.0
 10
69.01766491330115
 20
-133.9077609257245
 30
0.0
 10
68.90690509345036
 20
-134.0534884647505
 30
0.0
 10
69.24159611984238
 20
-134.2715630089668
 30
0.0
 10
69.48568113497234
 20
-134.557161424694
 30
0.0
 10
69.54218070093043
 20
-134.6353650922092
 30
0.0
 10
69.54218070093043
 20
-134.6353650922092
 30
0.0
 10
69.35907387588941
 20
-134.7876383126573
 30
0.0
 10
69.35907387588941
 20
-134.7876383126573
 30
0.0
  0
HATCH
  5
8F
330
86
100
AcDbEntity
  8
_U+30EC_U+30A4_U+30E4_U+30FC 1
 62
   179
420
  2234388
100
AcDbHatch
 10
0.0
 20
0.0
 30
0.0
210
0.0
220
0.0
230
1.0
  2
SOLID
 70
     1
 71
     0
 91
        1
 92
        1
 93
        1
 72
     4
 94
        3
 73
     0
 74
     1
 95
       56
 96
       52
 40
0.0
 40
0.0
 40
0.0
 40
0.0
 40
1.0
 40
1.0
 40
1.0
 40
2.0
 40
2.0
 40
2.0
 40
3.0
 40
3.0
 40
3.0
 40
4.0
 40
4.0
 40
4.0
 40
5.0
 40
5.0
 40
5.0
 40
6.0
 40
6.0
 40
6.0
 40
7.0
 40
7.0
 40
7.0
 40
8.0
 40
8.0
 40
8.0
 40
9.0
 40
9.0
 40
9.0
 40
10.0
 40
10.0
 40
10.0
 40
11.0
 40
11.0
 40
11.0
 40
12.0
 40
12.0
 40
12.0
 40
13.0
 40
13.0
 40
13.0
 40
14.0
 40
14.0
 40
14.0
 40
15.0
 40
15.0
 40
15.0
 40
16.0
 40
16.0
 40
16.0
 40
17.0
 40
17.0
 40
17.0
 40
17.0
 10
69.35907387588941
 20
-134.7876383126573
 10
69.15340167541999
 20
-134.4789577571789
 10
68.87744952705147
 20
-134.273630066258
 10
68.78029783436743
 20
-134.2081732520383
 10
68.46610512611264
 20
-134.5464816286898
 10
68.15639104198868
 20
-134.6987548491378
 10
67.94382865054877
 20
-134.7917724272396
 10
67.94382865054877
 20
-134.7917724272396
 10
67.77432995267448
 20
-134.6036702137449
 10
67.77432995267448
 20
-134.6036702137449
 10
67.88508977252526
 20
-134.5674967111498
 10
68.11332734842306
 20
-134.4913601009258
 10
68.36206324245809
 20
-134.3053249447223
 10
68.64473332702285
 20
-134.0937960819279
 10
68.84368759129603
 20
-133.8061306089096
 10
68.97477347450979
 20
-133.4929714293004
 10
68.97477347450979
 20
-133.4929714293004
 10
68.5723863218326
 20
-133.4929714293004
 10
68.5723863218326
 20
-133.4929714293004
 10
68.40960556015455
 20
-133.4929714293004
 10
68.18567435361331
 20
-133.4971055438827
 10
68.02513290400067
 20
-133.5163980786001
 10
68.02513290400067
 20
-133.5163980786001
 10
68.02513290400067
 20
-133.3048692158057
 10
68.02513290400067
 20
-133.3048692158057
 10
68.09747990919091
 20
-133.3110703876792
 10
68.37567136962484
 20
-133.3217501836835
 10
68.46834443817805
 20
-133.3217501836835
 10
68.46834443817805
 20
-133.3217501836835
 10
68.8006238977304
 20
-133.3217501836835
 10
68.8006238977304
 20
-133.3217501836835
 10
69.02214353743197
 20
-133.3217501836835
 10
69.04712047970003
 20
-133.3152045022615
 10
69.07192516719383
 20
-133.3110703876792
 10
69.11946748489028
 20
-133.3048692158057
 10
69.16011961161622
 20
-133.2793755092149
 10
69.18268498704461
 20
-133.2624945413372
 10
69.18268498704461
 20
-133.2624945413372
 10
69.35011662762776
 20
-133.4357828442452
 10
69.35011662762776
 20
-133.4357828442452
 10
69.30705293406213
 20
-133.4633436081272
 10
69.29361706166965
 20
-133.4740234041315
 10
69.24159611984238
 20
-133.5098523971781
 10
69.10362004565813
 20
-133.7575547625676
 10
69.01766491330115
 20
-133.9077609257245
 10
68.90690509345036
 20
-134.0534884647505
 10
69.24159611984238
 20
-134.2715630089668
 10
69.48568113497234
 20
-134.557161424694
 10
69.54218070093043
 20
-134.6353650922092
 10
69.54218070093043
 20
-134.6353650922092
 10
69.35907387588941
 20
-134.7876383126573
 10
69.35907387588941
 20
-134.7876383126573
 97
        0
 97
        0
 75
     2
 76
     1
 98
        0
  0
SPLINE
  5
90
330
86
100
AcDbEntity
  8
_U+30EC_U+30A4_U+30E4_U+30FC 1
370
     0
100
AcDbSpline
210
0.0
220
0.0
230
1.0
 70
    11
 71
     3
 72
    77
 73
    73
 74
     0
 42
0.0000000001
 43
0.0000000001
 12
1.0
 22
0.0
 32
0.0
 13
1.0
 23
0.0
 33
0.0
 40
0.0
 40
0.0
 40
0.0
 40
0.0
 40
1.0
 40
1.0
 40
1.0
 40
2.0
 40
2.0
 40
2.0
 40
3.0
 40
3.0
 40
3.0
 40
4.0
 40
4.0
 40
4.0
 40
5.0
 40
5.0
 40
5.0
 40
6.0
 40
6.0
 40
6.0
 40
7.0
 40
7.0
 40
7.0
 40
8.0
 40
8.0
 40
8.0
 40
9.0
 40
9.0
 40
9.0
 40
10.0
 40
10.0
 40
10.0
 40
11.0
 40
11.0
 40
11.0
 40
12.0
 40
12.0
 40
12.0
 40
13.0
 40
13.0
 40
13.0
 40
14.0
 40
14.0
 40
14.0
 40
15.0
 40
15.0
 40
15.0
 40
16.0
 40
16.0
 40
16.0
 40
17.0
 40
17.0
 40
17.0
 40
18.0
 40
18.0
 40
18.0
 40
19.0
 40
19.0
 40
19.0
 40
20.0
 40
20.0
 40
20.0
 40
21.0
 40
21.0
 40
21.0
 40
22.0
 40
22.0
 40
22.0
 40
23.0
 40
23.0
 40
23.0
 40
24.0
 40
24.0
 40
24.0
 40
24.0
 10
71.22321504295809
 20
-134.6649929133824
 30
0.0
 10
71.11021591104189
 20
-134.8658419801724
 30
0.0
 10
70.8185885782155
 20
-134.8510280695859
 30
0.0
 10
70.72367619759686
 20
-134.8468939550036
 30
0.0
 10
70.72367619759686
 20
-134.8468939550036
 30
0.0
 10
70.61515568981149
 20
-134.6246852962049
 30
0.0
 10
70.61515568981149
 20
-134.6246852962049
 30
0.0
 10
70.66941594370418
 20
-134.6332980349181
 30
0.0
 10
70.72815482172768
 20
-134.6394992067915
 30
0.0
 10
70.81634926615008
 20
-134.6394992067915
 30
0.0
 10
70.87508814417359
 20
-134.6394992067915
 30
0.0
 10
70.98825953086406
 20
-134.6394992067915
 30
0.0
 10
71.04699840888756
 20
-134.5189208648078
 30
0.0
 10
71.16223685286917
 20
-134.2756971235492
 30
0.0
 10
71.17360566797049
 20
-133.8357584300827
 30
0.0
 10
71.1758449800359
 20
-133.7530761384367
 30
0.0
 10
71.1758449800359
 20
-133.7530761384367
 30
0.0
 10
70.67613387990042
 20
-133.7530761384367
 30
0.0
 10
70.67613387990042
 20
-133.7530761384367
 30
0.0
 10
70.59930825057934
 20
-134.14237192827
 30
0.0
 10
70.49078774279397
 20
-134.3370198231866
 30
0.0
 10
70.37778861087777
 20
-134.4789577571789
 30
0.0
 10
70.25118135179484
 20
-134.6374321495004
 30
0.0
 10
70.09511852631303
 20
-134.776958516653
 30
0.0
 10
69.9097723892066
 20
-134.8744547188856
 30
0.0
 10
69.9097723892066
 20
-134.8744547188856
 30
0.0
 10
69.71977537319506
 20
-134.7201144411464
 30
0.0
 10
69.71977537319506
 20
-134.7201144411464
 30
0.0
 10
70.27374672722323
 20
-134.5041069542212
 30
0.0
 10
70.40259329837157
 20
-133.9962998796954
 30
0.0
 10
70.45013561606802
 20
-133.7530761384367
 30
0.0
 10
69.98883733059307
 20
-133.7616888771499
 30
0.0
 10
69.977640770266
 20
-133.7616888771499
 30
0.0
 10
69.78092581805825
 20
-133.7765027877364
 30
0.0
 10
69.78092581805825
 20
-133.7765027877364
 30
0.0
 10
69.78092581805825
 20
-133.5670409822332
 30
0.0
 10
69.78092581805825
 20
-133.5670409822332
 30
0.0
 10
69.94146726767089
 20
-133.5777207782375
 30
0.0
 10
70.09287921424762
 20
-133.5901231219844
 30
0.0
 10
70.41172280140749
 20
-133.5901231219844
 30
0.0
 10
70.41172280140749
 20
-133.5901231219844
 30
0.0
 10
70.47717961562724
 20
-133.5901231219844
 30
0.0
 10
70.47717961562724
 20
-133.5901231219844
 30
0.0
 10
70.48854843072856
 20
-133.4971055438827
 30
0.0
 10
70.49302705485938
 20
-133.3999538511986
 30
0.0
 10
70.49302705485938
 20
-133.3300184128481
 30
0.0
 10
70.49302705485938
 20
-133.2432020066198
 30
0.0
 10
70.48630911866314
 20
-133.1839463642735
 30
0.0
 10
70.47941892769265
 20
-133.1398491420623
 30
0.0
 10
70.47941892769265
 20
-133.1398491420623
 30
0.0
 10
70.74400226095983
 20
-133.1818793069823
 30
0.0
 10
70.74400226095983
 20
-133.1818793069823
 30
0.0
 10
70.79602320278711
 20
-133.1904920456954
 30
0.0
 10
70.81187064201926
 20
-133.1925591029866
 30
0.0
 10
70.81187064201926
 20
-133.2135741854466
 30
0.0
 10
70.81187064201926
 20
-133.2390678920375
 30
0.0
 10
70.76656763638822
 20
-133.2580159172063
 30
0.0
 10
70.74848088509066
 20
-133.2666286559194
 30
0.0
 10
70.74400226095983
 20
-133.2941894198015
 30
0.0
 10
70.739523636829
 20
-133.3110703876792
 30
0.0
 10
70.73728432476359
 20
-133.3341525274303
 30
0.0
 10
70.7303941337931
 20
-133.3744601446078
 30
0.0
 10
70.7055894462993
 20
-133.5542941289378
 30
0.0
 10
70.70111082216847
 20
-133.5901231219844
 30
0.0
 10
70.70111082216847
 20
-133.5901231219844
 30
0.0
 10
70.97465140369731
 20
-133.5901231219844
 30
0.0
 10
70.97465140369731
 20
-133.5901231219844
 30
0.0
 10
71.07180309638136
 20
-133.5901231219844
 30
0.0
 10
71.21649710676185
 20
-133.5925346888241
 30
0.0
 10
71.41321205896962
 20
-133.5756537209464
 30
0.0
 10
71.4018432438683
 20
-133.8271456913696
 30
0.0
 10
71.3792778684399
 20
-134.3900742936594
 30
0.0
 10
71.22321504295809
 20
-134.6649929133824
 30
0.0
  0
HATCH
  5
91
330
86
100
AcDbEntity
  8
_U+30EC_U+30A4_U+30E4_U+30FC 1
 62
   179
420
  2234388
100
AcDbHatch
 10
0.0
 20
0.0
 30
0.0
210
0.0
220
0.0
230
1.0
  2
SOLID
 70
     1
 71
     0
 91
        1
 92
        1
 93
        1
 72
     4
 94
        3
 73
     0
 74
     1
 95
       77
 96
       73
 40
0.0
 40
0.0
 40
0.0
 40
0.0
 40
1.0
 40
1.0
 40
1.0
 40
2.0
 40
2.0
 40
2.0
 40
3.0
 40
3.0
 40
3.0
 40
4.0
 40
4.0
 40
4.0
 40
5.0
 40
5.0
 40
5.0
 40
6.0
 40
6.0
 40
6.0
 40
7.0
 40
7.0
 40
7.0
 40
8.0
 40
8.0
 40
8.0
 40
9.0
 40
9.0
 40
9.0
 40
10.0
 40
10.0
 40
10.0
 40
11.0
 40
11.0
 40
11.0
 40
12.0
 40
12.0
 40
12.0
 40
13.0
 40
13.0
 40
13.0
 40
14.0
 40
14.0
 40
14.0
 40
15.0
 40
15.0
 40
15.0
 40
16.0
 40
16.0
 40
16.0
 40
17.0
 40
17.0
 40
17.0
 40
18.0
 40
18.0
 40
18.0
 40
19.0
 40
19.0
 40
19.0
 40
20.0
 40
20.0
 40
20.0
 40
21.0
 40
21.0
 40
21.0
 40
22.0
 40
22.0
 40
22.0
 40
23.0
 40
23.0
 40
23.0
 40
24.0
 40
24.0
 40
24.0
 40
24.0
 10
71.22321504295809
 20
-134.6649929133824
 10
71.11021591104189
 20
-134.8658419801724
 10
70.8185885782155
 20
-134.8510280695859
 10
70.72367619759686
 20
-134.8468939550036
 10
70.72367619759686
 20
-134.8468939550036
 10
70.61515568981149
 20
-134.6246852962049
 10
70.61515568981149
 20
-134.6246852962049
 10
70.66941594370418
 20
-134.6332980349181
 10
70.72815482172768
 20
-134.6394992067915
 10
70.81634926615008
 20
-134.6394992067915
 10
70.87508814417359
 20
-134.6394992067915
 10
70.98825953086406
 20
-134.6394992067915
 10
71.04699840888756
 20
-134.5189208648078
 10
71.16223685286917
 20
-134.2756971235492
 10
71.17360566797049
 20
-133.8357584300827
 10
71.1758449800359
 20
-133.7530761384367
 10
71.1758449800359
 20
-133.7530761384367
 10
70.67613387990042
 20
-133.7530761384367
 10
70.67613387990042
 20
-133.7530761384367
 10
70.59930825057934
 20
-134.14237192827
 10
70.49078774279397
 20
-134.3370198231866
 10
70.37778861087777
 20
-134.4789577571789
 10
70.25118135179484
 20
-134.6374321495004
 10
70.09511852631303
 20
-134.776958516653
 10
69.9097723892066
 20
-134.8744547188856
 10
69.9097723892066
 20
-134.8744547188856
 10
69.71977537319506
 20
-134.7201144411464
 10
69.71977537319506
 20
-134.7201144411464
 10
70.27374672722323
 20
-134.5041069542212
 10
70.40259329837157
 20
-133.9962998796954
 10
70.45013561606802
 20
-133.7530761384367
 10
69.98883733059307
 20
-133.7616888771499
 10
69.977640770266
 20
-133.7616888771499
 10
69.78092581805825
 20
-133.7765027877364
 10
69.78092581805825
 20
-133.7765027877364
 10
69.78092581805825
 20
-133.5670409822332
 10
69.78092581805825
 20
-133.5670409822332
 10
69.94146726767089
 20
-133.5777207782375
 10
70.09287921424762
 20
-133.5901231219844
 10
70.41172280140749
 20
-133.5901231219844
 10
70.41172280140749
 20
-133.5901231219844
 10
70.47717961562724
 20
-133.5901231219844
 10
70.47717961562724
 20
-133.5901231219844
 10
70.48854843072856
 20
-133.4971055438827
 10
70.49302705485938
 20
-133.3999538511986
 10
70.49302705485938
 20
-133.3300184128481
 10
70.49302705485938
 20
-133.2432020066198
 10
70.48630911866314
 20
-133.1839463642735
 10
70.47941892769265
 20
-133.1398491420623
 10
70.47941892769265
 20
-133.1398491420623
 10
70.74400226095983
 20
-133.1818793069823
 10
70.74400226095983
 20
-133.1818793069823
 10
70.79602320278711
 20
-133.1904920456954
 10
70.81187064201926
 20
-133.1925591029866
 10
70.81187064201926
 20
-133.2135741854466
 10
70.81187064201926
 20
-133.2390678920375
 10
70.76656763638822
 20
-133.2580159172063
 10
70.74848088509066
 20
-133.2666286559194
 10
70.74400226095983
 20
-133.2941894198015
 10
70.739523636829
 20
-133.3110703876792
 10
70.73728432476359
 20
-133.3341525274303
 10
70.7303941337931
 20
-133.3744601446078
 10
70.7055894462993
 20
-133.5542941289378
 10
70.70111082216847
 20
-133.5901231219844
 10
70.70111082216847
 20
-133.5901231219844
 10
70.97465140369731
 20
-133.5901231219844
 10
70.97465140369731
 20
-133.5901231219844
 10
71.07180309638136
 20
-133.5901231219844
 10
71.21649710676185
 20
-133.5925346888241
 10
71.41321205896962
 20
-133.5756537209464
 10
71.4018432438683
 20
-133.8271456913696
 10
71.3792778684399
 20
-134.3900742936594
 10
71.22321504295809
 20
-134.6649929133824
 97
        0
 97
        0
 75
     2
 76
     1
 98
        0
  0
SPLINE
  5
92
330
86
100
AcDbEntity
  8
_U+30EC_U+30A4_U+30E4_U+30FC 1
370
     0
100
AcDbSpline
210
0.0
220
0.0
230
1.0
 70
    11
 71
     3
 72
    29
 73
    25
 74
     0
 42
0.0000000001
 43
0.0000000001
 12
1.0
 22
0.0
 32
0.0
 13
1.0
 23
0.0
 33
0.0
 40
0.0
 40
0.0
 40
0.0
 40
0.0
 40
1.0
 40
1.0
 40
1.0
 40
2.0
 40
2.0
 40
2.0
 40
3.0
 40
3.0
 40
3.0
 40
4.0
 40
4.0
 40
4.0
 40
5.0
 40
5.0
 40
5.0
 40
6.0
 40
6.0
 40
6.0
 40
7.0
 40
7.0
 40
7.0
 40
8.0
 40
8.0
 40
8.0
 40
8.0
 10
72.42055797885666
 20
-133.5608398103598
 30
0.0
 10
72.41142847582076
 20
-133.5966688034064
 30
0.0
 10
72.40471053962452
 20
-133.6221625099973
 30
0.0
 10
72.34149303747019
 20
-133.8526393979604
 30
0.0
 10
72.2849934715121
 20
-134.066235318046
 30
0.0
 10
72.13564858222651
 20
-134.4217691721237
 30
0.0
 10
71.88243406406065
 20
-134.7115017024333
 30
0.0
 10
71.88243406406065
 20
-134.7115017024333
 30
0.0
 10
71.65419648816284
 20
-134.6057372710361
 30
0.0
 10
71.65419648816284
 20
-134.6057372710361
 30
0.0
 10
71.83041312223337
 20
-134.453464050588
 30
0.0
 10
71.98647594771519
 20
-134.1657985775697
 30
0.0
 10
72.01593151411407
 20
-134.0999972538014
 30
0.0
 10
72.07019176800677
 20
-133.9859645932396
 30
0.0
 10
72.18543021198836
 20
-133.6579915030438
 30
0.0
 10
72.1967990270897
 20
-133.3999538511986
 30
0.0
 10
72.1967990270897
 20
-133.3999538511986
 30
0.0
 10
72.45897079351721
 20
-133.4695447800007
 30
0.0
 10
72.45897079351721
 20
-133.4695447800007
 30
0.0
 10
72.49514429611233
 20
-133.480224576005
 30
0.0
 10
72.50651311121365
 20
-133.4888373147181
 30
0.0
 10
72.50651311121365
 20
-133.5057182825958
 30
0.0
 10
72.50651311121365
 20
-133.5205321931824
 30
0.0
 10
72.48842635991609
 20
-133.5460258997732
 30
0.0
 10
72.42055797885666
 20
-133.5608398103598
 30
0.0
  0
SPLINE
  5
93
330
86
100
AcDbEntity
  8
_U+30EC_U+30A4_U+30E4_U+30FC 1
370
     0
100
AcDbSpline
210
0.0
220
0.0
230
1.0
 70
    11
 71
     3
 72
    17
 73
    13
 74
     0
 42
0.0000000001
 43
0.0000000001
 12
1.0
 22
0.0
 32
0.0
 13
1.0
 23
0.0
 33
0.0
 40
0.0
 40
0.0
 40
0.0
 40
0.0
 40
1.0
 40
1.0
 40
1.0
 40
2.0
 40
2.0
 40
2.0
 40
3.0
 40
3.0
 40
3.0
 40
4.0
 40
4.0
 40
4.0
 40
4.0
 10
73.38139510969285
 20
-134.6460448882135
 30
0.0
 10
73.34522160709773
 20
-134.3456325618997
 30
0.0
 10
73.17107203031834
 20
-133.8929470151379
 30
0.0
 10
72.84792207380191
 20
-133.5205321931824
 30
0.0
 10
72.84792207380191
 20
-133.5205321931824
 30
0.0
 10
73.03550752297376
 20
-133.4061550230721
 30
0.0
 10
73.03550752297376
 20
-133.4061550230721
 30
0.0
 10
73.41308998815715
 20
-133.8505723406693
 30
0.0
 10
73.59843612526359
 20
-134.3752603830729
 30
0.0
 10
73.63013100372788
 20
-134.5612955392764
 30
0.0
 10
73.63013100372788
 20
-134.5612955392764
 30
0.0
 10
73.38139510969285
 20
-134.6460448882135
 30
0.0
 10
73.38139510969285
 20
-134.6460448882135
 30
0.0
  0
SPLINE
  5
94
330
86
100
AcDbEntity
  8
_U+30EC_U+30A4_U+30E4_U+30FC 1
370
     0
100
AcDbSpline
210
0.0
220
0.0
230
1.0
 70
    11
 71
     3
 72
    20
 73
    16
 74
     0
 42
0.0000000001
 43
0.0000000001
 12
1.0
 22
0.0
 32
0.0
 13
1.0
 23
0.0
 33
0.0
 40
0.0
 40
0.0
 40
0.0
 40
0.0
 40
1.0
 40
1.0
 40
1.0
 40
2.0
 40
2.0
 40
2.0
 40
3.0
 40
3.0
 40
3.0
 40
4.0
 40
4.0
 40
4.0
 40
5.0
 40
5.0
 40
5.0
 40
5.0
 10
73.35435111013363
 20
-133.5036512253047
 30
0.0
 10
73.3407429829669
 20
-133.4909043720092
 30
0.0
 10
73.331613479931
 20
-133.4822916332961
 30
0.0
 10
73.2525485385445
 20
-133.4106336472029
 30
0.0
 10
73.22309297214562
 20
-133.3830728833209
 30
0.0
 10
73.17796222128885
 20
-133.3468993807258
 30
0.0
 10
73.12370196739616
 20
-133.3048692158057
 30
0.0
 10
73.12370196739616
 20
-133.3048692158057
 30
0.0
 10
73.23670109931236
 20
-133.1925591029866
 30
0.0
 10
73.23670109931236
 20
-133.1925591029866
 30
0.0
 10
73.3407429829669
 20
-133.2580159172063
 30
0.0
 10
73.41085067609174
 20
-133.3279513555569
 30
0.0
 10
73.47182886618066
 20
-133.3978867939075
 30
0.0
 10
73.47182886618066
 20
-133.3978867939075
 30
0.0
 10
73.35435111013363
 20
-133.5036512253047
 30
0.0
 10
73.35435111013363
 20
-133.5036512253047
 30
0.0
  0
SPLINE
  5
95
330
86
100
AcDbEntity
  8
_U+30EC_U+30A4_U+30E4_U+30FC 1
370
     0
100
AcDbSpline
210
0.0
220
0.0
230
1.0
 70
    11
 71
     3
 72
    17
 73
    13
 74
     0
 42
0.0000000001
 43
0.0000000001
 12
1.0
 22
0.0
 32
0.0
 13
1.0
 23
0.0
 33
0.0
 40
0.0
 40
0.0
 40
0.0
 40
0.0
 40
1.0
 40
1.0
 40
1.0
 40
2.0
 40
2.0
 40
2.0
 40
3.0
 40
3.0
 40
3.0
 40
4.0
 40
4.0
 40
4.0
 40
4.0
 10
73.5758707498352
 20
-133.3703260300255
 30
0.0
 10
73.5419365593055
 20
-133.3238172409746
 30
0.0
 10
73.42669811532389
 20
-133.2135741854466
 30
0.0
 10
73.35193954329397
 20
-133.1715440205266
 30
0.0
 10
73.35193954329397
 20
-133.1715440205266
 30
0.0
 10
73.46735024204983
 20
-133.0678466464205
 30
0.0
 10
73.46735024204983
 20
-133.0678466464205
 30
0.0
 10
73.56898055886471
 20
-133.1271022887668
 30
0.0
 10
73.64821775502544
 20
-133.2180528095774
 30
0.0
 10
73.6888698817514
 20
-133.2707627705018
 30
0.0
 10
73.6888698817514
 20
-133.2707627705018
 30
0.0
 10
73.5758707498352
 20
-133.3703260300255
 30
0.0
 10
73.5758707498352
 20
-133.3703260300255
 30
0.0
  0
HATCH
  5
96
330
86
100
AcDbEntity
  8
_U+30EC_U+30A4_U+30E4_U+30FC 1
 62
   179
420
  2234388
100
AcDbHatch
 10
0.0
 20
0.0
 30
0.0
210
0.0
220
0.0
230
1.0
  2
SOLID
 70
     1
 71
     0
 91
        4
 92
        1
 93
        1
 72
     4
 94
        3
 73
     0
 74
     1
 95
       29
 96
       25
 40
0.0
 40
0.0
 40
0.0
 40
0.0
 40
1.0
 40
1.0
 40
1.0
 40
2.0
 40
2.0
 40
2.0
 40
3.0
 40
3.0
 40
3.0
 40
4.0
 40
4.0
 40
4.0
 40
5.0
 40
5.0
 40
5.0
 40
6.0
 40
6.0
 40
6.0
 40
7.0
 40
7.0
 40
7.0
 40
8.0
 40
8.0
 40
8.0
 40
8.0
 10
72.42055797885666
 20
-133.5608398103598
 10
72.41142847582076
 20
-133.5966688034064
 10
72.40471053962452
 20
-133.6221625099973
 10
72.34149303747019
 20
-133.8526393979604
 10
72.2849934715121
 20
-134.066235318046
 10
72.13564858222651
 20
-134.4217691721237
 10
71.88243406406065
 20
-134.7115017024333
 10
71.88243406406065
 20
-134.7115017024333
 10
71.65419648816284
 20
-134.6057372710361
 10
71.65419648816284
 20
-134.6057372710361
 10
71.83041312223337
 20
-134.453464050588
 10
71.98647594771519
 20
-134.1657985775697
 10
72.01593151411407
 20
-134.0999972538014
 10
72.07019176800677
 20
-133.9859645932396
 10
72.18543021198836
 20
-133.6579915030438
 10
72.1967990270897
 20
-133.3999538511986
 10
72.1967990270897
 20
-133.3999538511986
 10
72.45897079351721
 20
-133.4695447800007
 10
72.45897079351721
 20
-133.4695447800007
 10
72.49514429611233
 20
-133.480224576005
 10
72.50651311121365
 20
-133.4888373147181
 10
72.50651311121365
 20
-133.5057182825958
 10
72.50651311121365
 20
-133.5205321931824
 10
72.48842635991609
 20
-133.5460258997732
 10
72.42055797885666
 20
-133.5608398103598
 97
        0
 97
        0
 92
        1
 93
        1
 72
     4
 94
        3
 73
     0
 74
     1
 95
       17
 96
       13
 40
0.0
 40
0.0
 40
0.0
 40
0.0
 40
1.0
 40
1.0
 40
1.0
 40
2.0
 40
2.0
 40
2.0
 40
3.0
 40
3.0
 40
3.0
 40
4.0
 40
4.0
 40
4.0
 40
4.0
 10
73.38139510969285
 20
-134.6460448882135
 10
73.34522160709773
 20
-134.3456325618997
 10
73.17107203031834
 20
-133.8929470151379
 10
72.84792207380191
 20
-133.5205321931824
 10
72.84792207380191
 20
-133.5205321931824
 10
73.03550752297376
 20
-133.4061550230721
 10
73.03550752297376
 20
-133.4061550230721
 10
73.41308998815715
 20
-133.8505723406693
 10
73.59843612526359
 20
-134.3752603830729
 10
73.63013100372788
 20
-134.5612955392764
 10
73.63013100372788
 20
-134.5612955392764
 10
73.38139510969285
 20
-134.6460448882135
 10
73.38139510969285
 20
-134.6460448882135
 97
        0
 97
        0
 92
        1
 93
        1
 72
     4
 94
        3
 73
     0
 74
     1
 95
       20
 96
       16
 40
0.0
 40
0.0
 40
0.0
 40
0.0
 40
1.0
 40
1.0
 40
1.0
 40
2.0
 40
2.0
 40
2.0
 40
3.0
 40
3.0
 40
3.0
 40
4.0
 40
4.0
 40
4.0
 40
5.0
 40
5.0
 40
5.0
 40
5.0
 10
73.35435111013363
 20
-133.5036512253047
 10
73.3407429829669
 20
-133.4909043720092
 10
73.331613479931
 20
-133.4822916332961
 10
73.2525485385445
 20
-133.4106336472029
 10
73.22309297214562
 20
-133.3830728833209
 10
73.17796222128885
 20
-133.3468993807258
 10
73.12370196739616
 20
-133.3048692158057
 10
73.12370196739616
 20
-133.3048692158057
 10
73.23670109931236
 20
-133.1925591029866
 10
73.23670109931236
 20
-133.1925591029866
 10
73.3407429829669
 20
-133.2580159172063
 10
73.41085067609174
 20
-133.3279513555569
 10
73.47182886618066
 20
-133.3978867939075
 10
73.47182886618066
 20
-133.3978867939075
 10
73.35435111013363
 20
-133.5036512253047
 10
73.35435111013363
 20
-133.5036512253047
 97
        0
 97
        0
 92
        1
 93
        1
 72
     4
 94
        3
 73
     0
 74
     1
 95
       17
 96
       13
 40
0.0
 40
0.0
 40
0.0
 40
0.0
 40
1.0
 40
1.0
 40
1.0
 40
2.0
 40
2.0
 40
2.0
 40
3.0
 40
3.0
 40
3.0
 40
4.0
 40
4.0
 40
4.0
 40
4.0
 10
73.5758707498352
 20
-133.3703260300255
 10
73.5419365593055
 20
-133.3238172409746
 10
73.42669811532389
 20
-133.2135741854466
 10
73.35193954329397
 20
-133.1715440205266
 10
73.35193954329397
 20
-133.1715440205266
 10
73.46735024204983
 20
-133.0678466464205
 10
73.46735024204983
 20
-133.0678466464205
 10
73.56898055886471
 20
-133.1271022887668
 10
73.64821775502544
 20
-133.2180528095774
 10
73.6888698817514
 20
-133.2707627705018
 10
73.6888698817514
 20
-133.2707627705018
 10
73.5758707498352
 20
-133.3703260300255
 10
73.5758707498352
 20
-133.3703260300255
 97
        0
 97
        0
 75
     2
 76
     1
 98
        0
  0
SPLINE
  5
97
330
86
100
AcDbEntity
  8
_U+30EC_U+30A4_U+30E4_U+30FC 1
370
     0
100
AcDbSpline
210
0.0
220
0.0
230
1.0
 70
    11
 71
     3
 72
    29
 73
    25
 74
     0
 42
0.0000000001
 43
0.0000000001
 12
1.0
 22
0.0
 32
0.0
 13
1.0
 23
0.0
 33
0.0
 40
0.0
 40
0.0
 40
0.0
 40
0.0
 40
1.0
 40
1.0
 40
1.0
 40
2.0
 40
2.0
 40
2.0
 40
3.0
 40
3.0
 40
3.0
 40
4.0
 40
4.0
 40
4.0
 40
5.0
 40
5.0
 40
5.0
 40
6.0
 40
6.0
 40
6.0
 40
7.0
 40
7.0
 40
7.0
 40
8.0
 40
8.0
 40
8.0
 40
8.0
 10
74.99249401336994
 20
-134.1127441070968
 30
0.0
 10
74.99249401336994
 20
-134.1127441070968
 30
0.0
 10
74.47469616193689
 20
-134.1127441070968
 30
0.0
 10
74.47469616193689
 20
-134.1127441070968
 30
0.0
 10
74.445240595538
 20
-134.1127441070968
 30
0.0
 10
74.10607094501515
 20
-134.1127441070968
 30
0.0
 10
73.88007268118277
 20
-134.1382378136877
 30
0.0
 10
73.88007268118277
 20
-134.1382378136877
 30
0.0
 10
73.88007268118277
 20
-133.9077609257245
 30
0.0
 10
73.88007268118277
 20
-133.9077609257245
 30
0.0
 10
74.04957137905706
 20
-133.9308430654756
 30
0.0
 10
74.25317652223532
 20
-133.9329101227668
 30
0.0
 10
74.47469616193689
 20
-133.9329101227668
 30
0.0
 10
74.47469616193689
 20
-133.9329101227668
 30
0.0
 10
74.99249401336994
 20
-133.9329101227668
 30
0.0
 10
74.99249401336994
 20
-133.9329101227668
 30
0.0
 10
75.19127602286885
 20
-133.9329101227668
 30
0.0
 10
75.39040254191629
 20
-133.9308430654756
 30
0.0
 10
75.58694523934979
 20
-133.9077609257245
 30
0.0
 10
75.58694523934979
 20
-133.9077609257245
 30
0.0
 10
75.58694523934979
 20
-134.1382378136877
 30
0.0
 10
75.58694523934979
 20
-134.1382378136877
 30
0.0
 10
75.39040254191629
 20
-134.114811164388
 30
0.0
 10
75.1258192086491
 20
-134.1127441070968
 30
0.0
 10
74.99249401336994
 20
-134.1127441070968
 30
0.0
  0
HATCH
  5
98
330
86
100
AcDbEntity
  8
_U+30EC_U+30A4_U+30E4_U+30FC 1
 62
   179
420
  2234388
100
AcDbHatch
 10
0.0
 20
0.0
 30
0.0
210
0.0
220
0.0
230
1.0
  2
SOLID
 70
     1
 71
     0
 91
        1
 92
        1
 93
        1
 72
     4
 94
        3
 73
     0
 74
     1
 95
       29
 96
       25
 40
0.0
 40
0.0
 40
0.0
 40
0.0
 40
1.0
 40
1.0
 40
1.0
 40
2.0
 40
2.0
 40
2.0
 40
3.0
 40
3.0
 40
3.0
 40
4.0
 40
4.0
 40
4.0
 40
5.0
 40
5.0
 40
5.0
 40
6.0
 40
6.0
 40
6.0
 40
7.0
 40
7.0
 40
7.0
 40
8.0
 40
8.0
 40
8.0
 40
8.0
 10
74.99249401336994
 20
-134.1127441070968
 10
74.99249401336994
 20
-134.1127441070968
 10
74.47469616193689
 20
-134.1127441070968
 10
74.47469616193689
 20
-134.1127441070968
 10
74.445240595538
 20
-134.1127441070968
 10
74.10607094501515
 20
-134.1127441070968
 10
73.88007268118277
 20
-134.1382378136877
 10
73.88007268118277
 20
-134.1382378136877
 10
73.88007268118277
 20
-133.9077609257245
 10
73.88007268118277
 20
-133.9077609257245
 10
74.04957137905706
 20
-133.9308430654756
 10
74.25317652223532
 20
-133.9329101227668
 10
74.47469616193689
 20
-133.9329101227668
 10
74.47469616193689
 20
-133.9329101227668
 10
74.99249401336994
 20
-133.9329101227668
 10
74.99249401336994
 20
-133.9329101227668
 10
75.19127602286885
 20
-133.9329101227668
 10
75.39040254191629
 20
-133.9308430654756
 10
75.58694523934979
 20
-133.9077609257245
 10
75.58694523934979
 20
-133.9077609257245
 10
75.58694523934979
 20
-134.1382378136877
 10
75.58694523934979
 20
-134.1382378136877
 10
75.39040254191629
 20
-134.114811164388
 10
75.1258192086491
 20
-134.1127441070968
 10
74.99249401336994
 20
-134.1127441070968
 97
        0
 97
        0
 75
     2
 76
     1
 98
        0
  0
SPLINE
  5
99
330
86
100
AcDbEntity
  8
_U+30EC_U+30A4_U+30E4_U+30FC 1
370
     0
100
AcDbSpline
210
0.0
220
0.0
230
1.0
 70
    11
 71
     3
 72
    65
 73
    61
 74
     0
 42
0.0000000001
 43
0.0000000001
 12
1.0
 22
0.0
 32
0.0
 13
1.0
 23
0.0
 33
0.0
 40
0.0
 40
0.0
 40
0.0
 40
0.0
 40
1.0
 40
1.0
 40
1.0
 40
2.0
 40
2.0
 40
2.0
 40
3.0
 40
3.0
 40
3.0
 40
4.0
 40
4.0
 40
4.0
 40
5.0
 40
5.0
 40
5.0
 40
6.0
 40
6.0
 40
6.0
 40
7.0
 40
7.0
 40
7.0
 40
8.0
 40
8.0
 40
8.0
 40
9.0
 40
9.0
 40
9.0
 40
10.0
 40
10.0
 40
10.0
 40
11.0
 40
11.0
 40
11.0
 40
12.0
 40
12.0
 40
12.0
 40
13.0
 40
13.0
 40
13.0
 40
14.0
 40
14.0
 40
14.0
 40
15.0
 40
15.0
 40
15.0
 40
16.0
 40
16.0
 40
16.0
 40
17.0
 40
17.0
 40
17.0
 40
18.0
 40
18.0
 40
18.0
 40
19.0
 40
19.0
 40
19.0
 40
20.0
 40
20.0
 40
20.0
 40
20.0
 10
76.60772703162932
 20
-133.9773518545265
 30
0.0
 10
76.60772703162932
 20
-133.9773518545265
 30
0.0
 10
76.27320826001156
 20
-133.9773518545265
 30
0.0
 10
76.27320826001156
 20
-133.9773518545265
 30
0.0
 10
76.20310056688673
 20
-133.9773518545265
 30
0.0
 10
75.900104418959
 20
-133.9880316505308
 30
0.0
 10
75.82775741376877
 20
-133.9942328224042
 30
0.0
 10
75.82775741376877
 20
-133.9942328224042
 30
0.0
 10
75.82775741376877
 20
-133.7954508129053
 30
0.0
 10
75.82775741376877
 20
-133.7954508129053
 30
0.0
 10
75.96797280001843
 20
-133.8040635516184
 30
0.0
 10
76.13299287376189
 20
-133.8081976662007
 30
0.0
 10
76.1669270642916
 20
-133.8081976662007
 30
0.0
 10
76.15779756125569
 20
-133.7871825837407
 30
0.0
 10
76.10577661942843
 20
-133.6790065855039
 30
0.0
 10
76.01086423880979
 20
-133.5374131610601
 30
0.0
 10
76.01086423880979
 20
-133.5374131610601
 30
0.0
 10
76.18277450352376
 20
-133.4612765508361
 30
0.0
 10
76.18277450352376
 20
-133.4612765508361
 30
0.0
 10
76.23479544535103
 20
-133.5267333650558
 30
0.0
 10
76.28216550827321
 20
-133.611482713993
 30
0.0
 10
76.34555526520181
 20
-133.7489420238544
 30
0.0
 10
76.34555526520181
 20
-133.7489420238544
 30
0.0
 10
76.19621037591622
 20
-133.8102647234919
 30
0.0
 10
76.19621037591622
 20
-133.8102647234919
 30
0.0
 10
76.20757919101756
 20
-133.8102647234919
 30
0.0
 10
76.25736082077941
 20
-133.812331780783
 30
0.0
 10
76.26631806904106
 20
-133.812331780783
 30
0.0
 10
76.26631806904106
 20
-133.812331780783
 30
0.0
 10
76.61444496782556
 20
-133.812331780783
 30
0.0
 10
76.61444496782556
 20
-133.812331780783
 30
0.0
 10
76.61444496782556
 20
-133.812331780783
 30
0.0
 10
76.65303003726035
 20
-133.812331780783
 30
0.0
 10
76.65303003726035
 20
-133.812331780783
 30
0.0
 10
76.65303003726035
 20
-133.812331780783
 30
0.0
 10
76.50833602687986
 20
-133.7403292851413
 30
0.0
 10
76.50833602687986
 20
-133.7403292851413
 30
0.0
 10
76.5489881536058
 20
-133.6769395282127
 30
0.0
 10
76.59876978336767
 20
-133.5987358606975
 30
0.0
 10
76.65303003726035
 20
-133.4592094935449
 30
0.0
 10
76.65303003726035
 20
-133.4592094935449
 30
0.0
 10
76.82028942306924
 20
-133.5205321931824
 30
0.0
 10
76.82028942306924
 20
-133.5205321931824
 30
0.0
 10
76.84733342262845
 20
-133.5312119891867
 30
0.0
 10
76.85870223772977
 20
-133.5460258997732
 30
0.0
 10
76.85870223772977
 20
-133.556361186229
 30
0.0
 10
76.85870223772977
 20
-133.5797878355287
 30
0.0
 10
76.813571486873
 20
-133.5797878355287
 30
0.0
 10
76.79772404764086
 20
-133.5818548928198
 30
0.0
 10
76.76602916917655
 20
-133.6559244457527
 30
0.0
 10
76.72985566658143
 20
-133.736195170559
 30
0.0
 10
76.67783472475415
 20
-133.812331780783
 30
0.0
 10
76.74570310581358
 20
-133.812331780783
 30
0.0
 10
76.96498343344973
 20
-133.8061306089096
 30
0.0
 10
77.02596162353865
 20
-133.7975178701965
 30
0.0
 10
77.02596162353865
 20
-133.7975178701965
 30
0.0
 10
77.02596162353865
 20
-133.9942328224042
 30
0.0
 10
77.02596162353865
 20
-133.9942328224042
 30
0.0
 10
76.98307018474729
 20
-133.9921657651131
 30
0.0
 10
76.61909584673064
 20
-133.9773518545265
 30
0.0
 10
76.60772703162932
 20
-133.9773518545265
 30
0.0
  0
SPLINE
  5
9A
330
86
100
AcDbEntity
  8
_U+30EC_U+30A4_U+30E4_U+30FC 1
370
     0
100
AcDbSpline
210
0.0
220
0.0
230
1.0
 70
    11
 71
     3
 72
    47
 73
    43
 74
     0
 42
0.0000000001
 43
0.0000000001
 12
1.0
 22
0.0
 32
0.0
 13
1.0
 23
0.0
 33
0.0
 40
0.0
 40
0.0
 40
0.0
 40
0.0
 40
1.0
 40
1.0
 40
1.0
 40
2.0
 40
2.0
 40
2.0
 40
3.0
 40
3.0
 40
3.0
 40
4.0
 40
4.0
 40
4.0
 40
5.0
 40
5.0
 40
5.0
 40
6.0
 40
6.0
 40
6.0
 40
7.0
 40
7.0
 40
7.0
 40
8.0
 40
8.0
 40
8.0
 40
9.0
 40
9.0
 40
9.0
 40
10.0
 40
10.0
 40
10.0
 40
11.0
 40
11.0
 40
11.0
 40
12.0
 40
12.0
 40
12.0
 40
13.0
 40
13.0
 40
13.0
 40
14.0
 40
14.0
 40
14.0
 40
14.0
 10
76.60548771956391
 20
-133.4402614683761
 30
0.0
 10
76.60548771956391
 20
-133.4402614683761
 30
0.0
 10
76.24599200567809
 20
-133.4402614683761
 30
0.0
 10
76.24599200567809
 20
-133.4402614683761
 30
0.0
 10
76.12851424963107
 20
-133.4402614683761
 30
0.0
 10
75.99277748751223
 20
-133.4402614683761
 30
0.0
 10
75.88425697972686
 20
-133.4526638121229
 30
0.0
 10
75.88425697972686
 20
-133.4526638121229
 30
0.0
 10
75.88425697972686
 20
-133.2624945413372
 30
0.0
 10
75.88425697972686
 20
-133.2624945413372
 30
0.0
 10
76.03119030217276
 20
-133.2793755092149
 30
0.0
 10
76.23014456644594
 20
-133.2793755092149
 30
0.0
 10
76.24599200567809
 20
-133.2793755092149
 30
0.0
 10
76.24599200567809
 20
-133.2793755092149
 30
0.0
 10
76.3364257621659
 20
-133.2793755092149
 30
0.0
 10
76.3364257621659
 20
-133.2793755092149
 30
0.0
 10
76.3364257621659
 20
-133.1312364033491
 30
0.0
 10
76.33418645010049
 20
-133.0929958434629
 30
0.0
 10
76.33194713803508
 20
-133.0571668504163
 30
0.0
 10
76.33194713803508
 20
-133.0571668504163
 30
0.0
 10
76.544509529475
 20
-133.074047818294
 30
0.0
 10
76.544509529475
 20
-133.074047818294
 30
0.0
 10
76.55794540186746
 20
-133.0761148755851
 30
0.0
 10
76.61220565576015
 20
-133.080593499716
 30
0.0
 10
76.61220565576015
 20
-133.1057426967583
 30
0.0
 10
76.61220565576015
 20
-133.1271022887668
 30
0.0
 10
76.58068303207011
 20
-133.1439832566446
 30
0.0
 10
76.5489881536058
 20
-133.1608642245223
 30
0.0
 10
76.5467488415404
 20
-133.19876027486
 30
0.0
 10
76.544509529475
 20
-133.2411349493286
 30
0.0
 10
76.544509529475
 20
-133.2793755092149
 30
0.0
 10
76.544509529475
 20
-133.2793755092149
 30
0.0
 10
76.60548771956391
 20
-133.2793755092149
 30
0.0
 10
76.60548771956391
 20
-133.2793755092149
 30
0.0
 10
76.72761635451602
 20
-133.2793755092149
 30
0.0
 10
76.84733342262845
 20
-133.2752413946326
 30
0.0
 10
76.96722274551514
 20
-133.2624945413372
 30
0.0
 10
76.96722274551514
 20
-133.2624945413372
 30
0.0
 10
76.96722274551514
 20
-133.4526638121229
 30
0.0
 10
76.96722274551514
 20
-133.4526638121229
 30
0.0
 10
76.85646292566436
 20
-133.4402614683761
 30
0.0
 10
76.71848685148011
 20
-133.4402614683761
 30
0.0
 10
76.60548771956391
 20
-133.4402614683761
 30
0.0
  0
SPLINE
  5
9B
330
86
100
AcDbEntity
  8
_U+30EC_U+30A4_U+30E4_U+30FC 1
370
     0
100
AcDbSpline
210
0.0
220
0.0
230
1.0
 70
    11
 71
     3
 72
    47
 73
    43
 74
     0
 42
0.0000000001
 43
0.0000000001
 12
1.0
 22
0.0
 32
0.0
 13
1.0
 23
0.0
 33
0.0
 40
0.0
 40
0.0
 40
0.0
 40
0.0
 40
1.0
 40
1.0
 40
1.0
 40
2.0
 40
2.0
 40
2.0
 40
3.0
 40
3.0
 40
3.0
 40
4.0
 40
4.0
 40
4.0
 40
5.0
 40
5.0
 40
5.0
 40
6.0
 40
6.0
 40
6.0
 40
7.0
 40
7.0
 40
7.0
 40
8.0
 40
8.0
 40
8.0
 40
9.0
 40
9.0
 40
9.0
 40
10.0
 40
10.0
 40
10.0
 40
11.0
 40
11.0
 40
11.0
 40
12.0
 40
12.0
 40
12.0
 40
13.0
 40
13.0
 40
13.0
 40
14.0
 40
14.0
 40
14.0
 40
14.0
 10
76.68920353985548
 20
-134.9654052396962
 30
0.0
 10
76.69816078811714
 20
-134.914762336063
 30
0.0
 10
76.70040010018255
 20
-134.8934027440544
 30
0.0
 10
76.70729029115304
 20
-134.8193331911216
 30
0.0
 10
76.70729029115304
 20
-134.8193331911216
 30
0.0
 10
76.16244844016079
 20
-134.8193331911216
 30
0.0
 10
76.16244844016079
 20
-134.8193331911216
 30
0.0
 10
76.16468775222619
 20
-134.8427598404213
 30
0.0
 10
76.16916637635701
 20
-134.9440456476876
 30
0.0
 10
76.17140568842242
 20
-134.9654052396962
 30
0.0
 10
76.17140568842242
 20
-134.9654052396962
 30
0.0
 10
75.93851723361954
 20
-134.9654052396962
 30
0.0
 10
75.93851723361954
 20
-134.9654052396962
 30
0.0
 10
75.94075654568495
 20
-134.9399115331053
 30
0.0
 10
75.95212536078628
 20
-134.6818738812601
 30
0.0
 10
75.95212536078628
 20
-134.6543131173781
 30
0.0
 10
75.95212536078628
 20
-134.6543131173781
 30
0.0
 10
75.95212536078628
 20
-134.3962754655329
 30
0.0
 10
75.95212536078628
 20
-134.3962754655329
 30
0.0
 10
75.95212536078628
 20
-134.3921413509506
 30
0.0
 10
75.94299585775036
 20
-134.1785454308651
 30
0.0
 10
75.94075654568495
 20
-134.1489176096919
 30
0.0
 10
76.00190699054814
 20
-134.1530517242742
 30
0.0
 10
76.24375269361268
 20
-134.1613199534388
 30
0.0
 10
76.28888344446945
 20
-134.1613199534388
 30
0.0
 10
76.28888344446945
 20
-134.1613199534388
 30
0.0
 10
76.6032484074985
 20
-134.1613199534388
 30
0.0
 10
76.6032484074985
 20
-134.1613199534388
 30
0.0
 10
76.65303003726035
 20
-134.1613199534388
 30
0.0
 10
76.87678898902733
 20
-134.1551187815654
 30
0.0
 10
76.92209199465837
 20
-134.1530517242742
 30
0.0
 10
76.92209199465837
 20
-134.1868136600297
 30
0.0
 10
76.91520180368786
 20
-134.3370198231866
 30
0.0
 10
76.91520180368786
 20
-134.3666476443597
 30
0.0
 10
76.91520180368786
 20
-134.3666476443597
 30
0.0
 10
76.91520180368786
 20
-134.7263156130198
 30
0.0
 10
76.91520180368786
 20
-134.7263156130198
 30
0.0
 10
76.91520180368786
 20
-134.7645561729061
 30
0.0
 10
76.9265706187892
 20
-134.9316433039407
 30
0.0
 10
76.9265706187892
 20
-134.9654052396962
 30
0.0
 10
76.9265706187892
 20
-134.9654052396962
 30
0.0
 10
76.68920353985548
 20
-134.9654052396962
 30
0.0
 10
76.68920353985548
 20
-134.9654052396962
 30
0.0
  0
POLYLINE
  5
9C
330
86
100
AcDbEntity
  8
_U+30EC_U+30A4_U+30E4_U+30FC 1
370
     0
100
AcDb2dPolyline
 66
     1
 10
0.0
 20
0.0
 30
0.0
  0
VERTEX
  5
9D
330
9C
100
AcDbEntity
  8
_U+30EC_U+30A4_U+30E4_U+30FC 1
370
     0
100
AcDbVertex
100
AcDb2dVertex
 10
76.70729029115304
 20
-134.328751594022
 30
0.0
  0
VERTEX
  5
9E
330
9C
100
AcDbEntity
  8
_U+30EC_U+30A4_U+30E4_U+30FC 1
370
     0
100
AcDbVertex
100
AcDb2dVertex
 10
76.16244844016079
 20
-134.328751594022
 30
0.0
  0
VERTEX
  5
9F
330
9C
100
AcDbEntity
  8
_U+30EC_U+30A4_U+30E4_U+30FC 1
370
     0
100
AcDbVertex
100
AcDb2dVertex
 10
76.16244844016079
 20
-134.652246060087
 30
0.0
  0
VERTEX
  5
A0
330
9C
100
AcDbEntity
  8
_U+30EC_U+30A4_U+30E4_U+30FC 1
370
     0
100
AcDbVertex
100
AcDb2dVertex
 10
76.70729029115304
 20
-134.652246060087
 30
0.0
  0
VERTEX
  5
A1
330
9C
100
AcDbEntity
  8
_U+30EC_U+30A4_U+30E4_U+30FC 1
370
     0
100
AcDbVertex
100
AcDb2dVertex
 10
76.70729029115304
 20
-134.328751594022
 30
0.0
  0
SEQEND
  5
A2
330
9C
100
AcDbEntity
  8
_U+30EC_U+30A4_U+30E4_U+30FC 1
370
     0
  0
SPLINE
  5
A3
330
86
100
AcDbEntity
  8
_U+30EC_U+30A4_U+30E4_U+30FC 1
370
     0
100
AcDbSpline
210
0.0
220
0.0
230
1.0
 70
    11
 71
     3
 72
    74
 73
    70
 74
     0
 42
0.0000000001
 43
0.0000000001
 12
1.0
 22
0.0
 32
0.0
 13
1.0
 23
0.0
 33
0.0
 40
0.0
 40
0.0
 40
0.0
 40
0.0
 40
1.0
 40
1.0
 40
1.0
 40
2.0
 40
2.0
 40
2.0
 40
3.0
 40
3.0
 40
3.0
 40
4.0
 40
4.0
 40
4.0
 40
5.0
 40
5.0
 40
5.0
 40
6.0
 40
6.0
 40
6.0
 40
7.0
 40
7.0
 40
7.0
 40
8.0
 40
8.0
 40
8.0
 40
9.0
 40
9.0
 40
9.0
 40
10.0
 40
10.0
 40
10.0
 40
11.0
 40
11.0
 40
11.0
 40
12.0
 40
12.0
 40
12.0
 40
13.0
 40
13.0
 40
13.0
 40
14.0
 40
14.0
 40
14.0
 40
15.0
 40
15.0
 40
15.0
 40
16.0
 40
16.0
 40
16.0
 40
17.0
 40
17.0
 40
17.0
 40
18.0
 40
18.0
 40
18.0
 40
19.0
 40
19.0
 40
19.0
 40
20.0
 40
20.0
 40
20.0
 40
21.0
 40
21.0
 40
21.0
 40
22.0
 40
22.0
 40
22.0
 40
23.0
 40
23.0
 40
23.0
 40
23.0
 10
77.69069279741761
 20
-134.7304497276021
 30
0.0
 10
77.62282441635818
 20
-134.7600775487753
 30
0.0
 10
77.5415201629063
 20
-134.7645561729061
 30
0.0
 10
77.4285210309901
 20
-134.7621446060664
 30
0.0
 10
77.4285210309901
 20
-134.7621446060664
 30
0.0
 10
77.3403265865677
 20
-134.529600660812
 30
0.0
 10
77.3403265865677
 20
-134.529600660812
 30
0.0
 10
77.48260903010852
 20
-134.5378688899766
 30
0.0
 10
77.5120645965074
 20
-134.5402804568163
 30
0.0
 10
77.52343341160874
 20
-134.5402804568163
 30
0.0
 10
77.62282441635818
 20
-134.5402804568163
 30
0.0
 10
77.65227998275708
 20
-134.453464050588
 30
0.0
 10
77.65227998275708
 20
-134.3370198231866
 30
0.0
 10
77.65227998275708
 20
-134.1719997494431
 30
0.0
 10
77.53462997193579
 20
-134.0472872928771
 30
0.0
 10
77.51430390857281
 20
-134.0259277008685
 30
0.0
 10
77.49621715727525
 20
-134.0049126184085
 30
0.0
 10
77.36065264993067
 20
-133.8695203658382
 30
0.0
 10
77.32447914733555
 20
-133.8336913727916
 30
0.0
 10
77.32447914733555
 20
-133.8336913727916
 30
0.0
 10
77.58441160169765
 20
-133.3003905916749
 30
0.0
 10
77.58441160169765
 20
-133.3003905916749
 30
0.0
 10
77.58441160169765
 20
-133.3003905916749
 30
0.0
 10
77.29278426887126
 20
-133.3003905916749
 30
0.0
 10
77.29278426887126
 20
-133.3003905916749
 30
0.0
 10
77.29278426887126
 20
-133.3003905916749
 30
0.0
 10
77.29278426887126
 20
-134.3073920020134
 30
0.0
 10
77.29278426887126
 20
-134.3073920020134
 30
0.0
 10
77.29278426887126
 20
-134.3559678483554
 30
0.0
 10
77.30415308397258
 20
-134.5699082779895
 30
0.0
 10
77.30415308397258
 20
-134.6143500097492
 30
0.0
 10
77.3086317081034
 20
-134.8362141589993
 30
0.0
 10
77.3086317081034
 20
-134.8827229480502
 30
0.0
 10
77.31758895636506
 20
-134.9864203221562
 30
0.0
 10
77.31758895636506
 20
-134.9864203221562
 30
0.0
 10
77.06437443819918
 20
-134.9864203221562
 30
0.0
 10
77.06437443819918
 20
-134.9864203221562
 30
0.0
 10
77.07126462916969
 20
-134.8975368586367
 30
0.0
 10
77.08246118949675
 20
-134.508585578352
 30
0.0
 10
77.08470050156217
 20
-134.4279703439972
 30
0.0
 10
77.08470050156217
 20
-134.4090223188283
 30
0.0
 10
77.09159069253266
 20
-134.3222059126
 30
0.0
 10
77.09159069253266
 20
-134.3032578874311
 30
0.0
 10
77.09159069253266
 20
-134.3032578874311
 30
0.0
 10
77.09159069253266
 20
-133.7320610559767
 30
0.0
 10
77.09159069253266
 20
-133.7320610559767
 30
0.0
 10
77.09159069253266
 20
-133.6579915030438
 30
0.0
 10
77.08246118949675
 20
-133.3238172409746
 30
0.0
 10
77.07798256536593
 20
-133.1250352314757
 30
0.0
 10
77.1051988196994
 20
-133.1271022887668
 30
0.0
 10
77.2769368296391
 20
-133.1333034606403
 30
0.0
 10
77.3086317081034
 20
-133.1333034606403
 30
0.0
 10
77.3086317081034
 20
-133.1333034606403
 30
0.0
 10
77.55047741116795
 20
-133.1333034606403
 30
0.0
 10
77.55047741116795
 20
-133.1333034606403
 30
0.0
 10
77.61834579222736
 20
-133.1333034606403
 30
0.0
 10
77.73582354827438
 20
-133.129169346058
 30
0.0
 10
77.79697399313757
 20
-133.1250352314757
 30
0.0
 10
77.79697399313757
 20
-133.1250352314757
 30
0.0
 10
77.86484237419698
 20
-133.2159857522863
 30
0.0
 10
77.86484237419698
 20
-133.2159857522863
 30
0.0
 10
77.61162785603112
 20
-133.6728054136304
 30
0.0
 10
77.58441160169765
 20
-133.7234483172636
 30
0.0
 10
77.55047741116795
 20
-133.7975178701965
 30
0.0
 10
77.72462698794732
 20
-133.9542697147753
 30
0.0
 10
77.8670816862624
 20
-134.1024088206411
 30
0.0
 10
77.8670816862624
 20
-134.3880072363683
 30
0.0
 10
77.8670816862624
 20
-134.6332980349181
 30
0.0
 10
77.72910561207814
 20
-134.7135687597244
 30
0.0
 10
77.69069279741761
 20
-134.7304497276021
 30
0.0
  0
HATCH
  5
A4
330
86
100
AcDbEntity
  8
_U+30EC_U+30A4_U+30E4_U+30FC 1
 62
   179
420
  2234388
100
AcDbHatch
 10
0.0
 20
0.0
 30
0.0
210
0.0
220
0.0
230
1.0
  2
SOLID
 70
     1
 71
     0
 91
        5
 92
        1
 93
        1
 72
     4
 94
        3
 73
     0
 74
     1
 95
       65
 96
       61
 40
0.0
 40
0.0
 40
0.0
 40
0.0
 40
1.0
 40
1.0
 40
1.0
 40
2.0
 40
2.0
 40
2.0
 40
3.0
 40
3.0
 40
3.0
 40
4.0
 40
4.0
 40
4.0
 40
5.0
 40
5.0
 40
5.0
 40
6.0
 40
6.0
 40
6.0
 40
7.0
 40
7.0
 40
7.0
 40
8.0
 40
8.0
 40
8.0
 40
9.0
 40
9.0
 40
9.0
 40
10.0
 40
10.0
 40
10.0
 40
11.0
 40
11.0
 40
11.0
 40
12.0
 40
12.0
 40
12.0
 40
13.0
 40
13.0
 40
13.0
 40
14.0
 40
14.0
 40
14.0
 40
15.0
 40
15.0
 40
15.0
 40
16.0
 40
16.0
 40
16.0
 40
17.0
 40
17.0
 40
17.0
 40
18.0
 40
18.0
 40
18.0
 40
19.0
 40
19.0
 40
19.0
 40
20.0
 40
20.0
 40
20.0
 40
20.0
 10
76.60772703162932
 20
-133.9773518545265
 10
76.60772703162932
 20
-133.9773518545265
 10
76.27320826001156
 20
-133.9773518545265
 10
76.27320826001156
 20
-133.9773518545265
 10
76.20310056688673
 20
-133.9773518545265
 10
75.900104418959
 20
-133.9880316505308
 10
75.82775741376877
 20
-133.9942328224042
 10
75.82775741376877
 20
-133.9942328224042
 10
75.82775741376877
 20
-133.7954508129053
 10
75.82775741376877
 20
-133.7954508129053
 10
75.96797280001843
 20
-133.8040635516184
 10
76.13299287376189
 20
-133.8081976662007
 10
76.1669270642916
 20
-133.8081976662007
 10
76.15779756125569
 20
-133.7871825837407
 10
76.10577661942843
 20
-133.6790065855039
 10
76.01086423880979
 20
-133.5374131610601
 10
76.01086423880979
 20
-133.5374131610601
 10
76.18277450352376
 20
-133.4612765508361
 10
76.18277450352376
 20
-133.4612765508361
 10
76.23479544535103
 20
-133.5267333650558
 10
76.28216550827321
 20
-133.611482713993
 10
76.34555526520181
 20
-133.7489420238544
 10
76.34555526520181
 20
-133.7489420238544
 10
76.19621037591622
 20
-133.8102647234919
 10
76.19621037591622
 20
-133.8102647234919
 10
76.20757919101756
 20
-133.8102647234919
 10
76.25736082077941
 20
-133.812331780783
 10
76.26631806904106
 20
-133.812331780783
 10
76.26631806904106
 20
-133.812331780783
 10
76.61444496782556
 20
-133.812331780783
 10
76.61444496782556
 20
-133.812331780783
 10
76.61444496782556
 20
-133.812331780783
 10
76.65303003726035
 20
-133.812331780783
 10
76.65303003726035
 20
-133.812331780783
 10
76.65303003726035
 20
-133.812331780783
 10
76.50833602687986
 20
-133.7403292851413
 10
76.50833602687986
 20
-133.7403292851413
 10
76.5489881536058
 20
-133.6769395282127
 10
76.59876978336767
 20
-133.5987358606975
 10
76.65303003726035
 20
-133.4592094935449
 10
76.65303003726035
 20
-133.4592094935449
 10
76.82028942306924
 20
-133.5205321931824
 10
76.82028942306924
 20
-133.5205321931824
 10
76.84733342262845
 20
-133.5312119891867
 10
76.85870223772977
 20
-133.5460258997732
 10
76.85870223772977
 20
-133.556361186229
 10
76.85870223772977
 20
-133.5797878355287
 10
76.813571486873
 20
-133.5797878355287
 10
76.79772404764086
 20
-133.5818548928198
 10
76.76602916917655
 20
-133.6559244457527
 10
76.72985566658143
 20
-133.736195170559
 10
76.67783472475415
 20
-133.812331780783
 10
76.74570310581358
 20
-133.812331780783
 10
76.96498343344973
 20
-133.8061306089096
 10
77.02596162353865
 20
-133.7975178701965
 10
77.02596162353865
 20
-133.7975178701965
 10
77.02596162353865
 20
-133.9942328224042
 10
77.02596162353865
 20
-133.9942328224042
 10
76.98307018474729
 20
-133.9921657651131
 10
76.61909584673064
 20
-133.9773518545265
 10
76.60772703162932
 20
-133.9773518545265
 97
        0
 97
        0
 92
        1
 93
        1
 72
     4
 94
        3
 73
     0
 74
     1
 95
       47
 96
       43
 40
0.0
 40
0.0
 40
0.0
 40
0.0
 40
1.0
 40
1.0
 40
1.0
 40
2.0
 40
2.0
 40
2.0
 40
3.0
 40
3.0
 40
3.0
 40
4.0
 40
4.0
 40
4.0
 40
5.0
 40
5.0
 40
5.0
 40
6.0
 40
6.0
 40
6.0
 40
7.0
 40
7.0
 40
7.0
 40
8.0
 40
8.0
 40
8.0
 40
9.0
 40
9.0
 40
9.0
 40
10.0
 40
10.0
 40
10.0
 40
11.0
 40
11.0
 40
11.0
 40
12.0
 40
12.0
 40
12.0
 40
13.0
 40
13.0
 40
13.0
 40
14.0
 40
14.0
 40
14.0
 40
14.0
 10
76.60548771956391
 20
-133.4402614683761
 10
76.60548771956391
 20
-133.4402614683761
 10
76.24599200567809
 20
-133.4402614683761
 10
76.24599200567809
 20
-133.4402614683761
 10
76.12851424963107
 20
-133.4402614683761
 10
75.99277748751223
 20
-133.4402614683761
 10
75.88425697972686
 20
-133.4526638121229
 10
75.88425697972686
 20
-133.4526638121229
 10
75.88425697972686
 20
-133.2624945413372
 10
75.88425697972686
 20
-133.2624945413372
 10
76.03119030217276
 20
-133.2793755092149
 10
76.23014456644594
 20
-133.2793755092149
 10
76.24599200567809
 20
-133.2793755092149
 10
76.24599200567809
 20
-133.2793755092149
 10
76.3364257621659
 20
-133.2793755092149
 10
76.3364257621659
 20
-133.2793755092149
 10
76.3364257621659
 20
-133.1312364033491
 10
76.33418645010049
 20
-133.0929958434629
 10
76.33194713803508
 20
-133.0571668504163
 10
76.33194713803508
 20
-133.0571668504163
 10
76.544509529475
 20
-133.074047818294
 10
76.544509529475
 20
-133.074047818294
 10
76.55794540186746
 20
-133.0761148755851
 10
76.61220565576015
 20
-133.080593499716
 10
76.61220565576015
 20
-133.1057426967583
 10
76.61220565576015
 20
-133.1271022887668
 10
76.58068303207011
 20
-133.1439832566446
 10
76.5489881536058
 20
-133.1608642245223
 10
76.5467488415404
 20
-133.19876027486
 10
76.544509529475
 20
-133.2411349493286
 10
76.544509529475
 20
-133.2793755092149
 10
76.544509529475
 20
-133.2793755092149
 10
76.60548771956391
 20
-133.2793755092149
 10
76.60548771956391
 20
-133.2793755092149
 10
76.72761635451602
 20
-133.2793755092149
 10
76.84733342262845
 20
-133.2752413946326
 10
76.96722274551514
 20
-133.2624945413372
 10
76.96722274551514
 20
-133.2624945413372
 10
76.96722274551514
 20
-133.4526638121229
 10
76.96722274551514
 20
-133.4526638121229
 10
76.85646292566436
 20
-133.4402614683761
 10
76.71848685148011
 20
-133.4402614683761
 10
76.60548771956391
 20
-133.4402614683761
 97
        0
 97
        0
 92
        1
 93
        1
 72
     4
 94
        3
 73
     0
 74
     1
 95
       47
 96
       43
 40
0.0
 40
0.0
 40
0.0
 40
0.0
 40
1.0
 40
1.0
 40
1.0
 40
2.0
 40
2.0
 40
2.0
 40
3.0
 40
3.0
 40
3.0
 40
4.0
 40
4.0
 40
4.0
 40
5.0
 40
5.0
 40
5.0
 40
6.0
 40
6.0
 40
6.0
 40
7.0
 40
7.0
 40
7.0
 40
8.0
 40
8.0
 40
8.0
 40
9.0
 40
9.0
 40
9.0
 40
10.0
 40
10.0
 40
10.0
 40
11.0
 40
11.0
 40
11.0
 40
12.0
 40
12.0
 40
12.0
 40
13.0
 40
13.0
 40
13.0
 40
14.0
 40
14.0
 40
14.0
 40
14.0
 10
76.68920353985548
 20
-134.9654052396962
 10
76.69816078811714
 20
-134.914762336063
 10
76.70040010018255
 20
-134.8934027440544
 10
76.70729029115304
 20
-134.8193331911216
 10
76.70729029115304
 20
-134.8193331911216
 10
76.16244844016079
 20
-134.8193331911216
 10
76.16244844016079
 20
-134.8193331911216
 10
76.16468775222619
 20
-134.8427598404213
 10
76.16916637635701
 20
-134.9440456476876
 10
76.17140568842242
 20
-134.9654052396962
 10
76.17140568842242
 20
-134.9654052396962
 10
75.93851723361954
 20
-134.9654052396962
 10
75.93851723361954
 20
-134.9654052396962
 10
75.94075654568495
 20
-134.9399115331053
 10
75.95212536078628
 20
-134.6818738812601
 10
75.95212536078628
 20
-134.6543131173781
 10
75.95212536078628
 20
-134.6543131173781
 10
75.95212536078628
 20
-134.3962754655329
 10
75.95212536078628
 20
-134.3962754655329
 10
75.95212536078628
 20
-134.3921413509506
 10
75.94299585775036
 20
-134.1785454308651
 10
75.94075654568495
 20
-134.1489176096919
 10
76.00190699054814
 20
-134.1530517242742
 10
76.24375269361268
 20
-134.1613199534388
 10
76.28888344446945
 20
-134.1613199534388
 10
76.28888344446945
 20
-134.1613199534388
 10
76.6032484074985
 20
-134.1613199534388
 10
76.6032484074985
 20
-134.1613199534388
 10
76.65303003726035
 20
-134.1613199534388
 10
76.87678898902733
 20
-134.1551187815654
 10
76.92209199465837
 20
-134.1530517242742
 10
76.92209199465837
 20
-134.1868136600297
 10
76.91520180368786
 20
-134.3370198231866
 10
76.91520180368786
 20
-134.3666476443597
 10
76.91520180368786
 20
-134.3666476443597
 10
76.91520180368786
 20
-134.7263156130198
 10
76.91520180368786
 20
-134.7263156130198
 10
76.91520180368786
 20
-134.7645561729061
 10
76.9265706187892
 20
-134.9316433039407
 10
76.9265706187892
 20
-134.9654052396962
 10
76.9265706187892
 20
-134.9654052396962
 10
76.68920353985548
 20
-134.9654052396962
 10
76.68920353985548
 20
-134.9654052396962
 97
        0
 97
        0
 92
        1
 93
        4
 72
     1
 10
76.70729029115304
 20
-134.328751594022
 11
76.16244844016079
 21
-134.328751594022
 72
     1
 10
76.16244844016079
 20
-134.328751594022
 11
76.16244844016079
 21
-134.652246060087
 72
     1
 10
76.16244844016079
 20
-134.652246060087
 11
76.70729029115304
 21
-134.652246060087
 72
     1
 10
76.70729029115304
 20
-134.652246060087
 11
76.70729029115304
 21
-134.328751594022
 97
        0
 92
        1
 93
        1
 72
     4
 94
        3
 73
     0
 74
     1
 95
       74
 96
       70
 40
0.0
 40
0.0
 40
0.0
 40
0.0
 40
1.0
 40
1.0
 40
1.0
 40
2.0
 40
2.0
 40
2.0
 40
3.0
 40
3.0
 40
3.0
 40
4.0
 40
4.0
 40
4.0
 40
5.0
 40
5.0
 40
5.0
 40
6.0
 40
6.0
 40
6.0
 40
7.0
 40
7.0
 40
7.0
 40
8.0
 40
8.0
 40
8.0
 40
9.0
 40
9.0
 40
9.0
 40
10.0
 40
10.0
 40
10.0
 40
11.0
 40
11.0
 40
11.0
 40
12.0
 40
12.0
 40
12.0
 40
13.0
 40
13.0
 40
13.0
 40
14.0
 40
14.0
 40
14.0
 40
15.0
 40
15.0
 40
15.0
 40
16.0
 40
16.0
 40
16.0
 40
17.0
 40
17.0
 40
17.0
 40
18.0
 40
18.0
 40
18.0
 40
19.0
 40
19.0
 40
19.0
 40
20.0
 40
20.0
 40
20.0
 40
21.0
 40
21.0
 40
21.0
 40
22.0
 40
22.0
 40
22.0
 40
23.0
 40
23.0
 40
23.0
 40
23.0
 10
77.69069279741761
 20
-134.7304497276021
 10
77.62282441635818
 20
-134.7600775487753
 10
77.5415201629063
 20
-134.7645561729061
 10
77.4285210309901
 20
-134.7621446060664
 10
77.4285210309901
 20
-134.7621446060664
 10
77.3403265865677
 20
-134.529600660812
 10
77.3403265865677
 20
-134.529600660812
 10
77.48260903010852
 20
-134.5378688899766
 10
77.5120645965074
 20
-134.5402804568163
 10
77.52343341160874
 20
-134.5402804568163
 10
77.62282441635818
 20
-134.5402804568163
 10
77.65227998275708
 20
-134.453464050588
 10
77.65227998275708
 20
-134.3370198231866
 10
77.65227998275708
 20
-134.1719997494431
 10
77.53462997193579
 20
-134.0472872928771
 10
77.51430390857281
 20
-134.0259277008685
 10
77.49621715727525
 20
-134.0049126184085
 10
77.36065264993067
 20
-133.8695203658382
 10
77.32447914733555
 20
-133.8336913727916
 10
77.32447914733555
 20
-133.8336913727916
 10
77.58441160169765
 20
-133.3003905916749
 10
77.58441160169765
 20
-133.3003905916749
 10
77.58441160169765
 20
-133.3003905916749
 10
77.29278426887126
 20
-133.3003905916749
 10
77.29278426887126
 20
-133.3003905916749
 10
77.29278426887126
 20
-133.3003905916749
 10
77.29278426887126
 20
-134.3073920020134
 10
77.29278426887126
 20
-134.3073920020134
 10
77.29278426887126
 20
-134.3559678483554
 10
77.30415308397258
 20
-134.5699082779895
 10
77.30415308397258
 20
-134.6143500097492
 10
77.3086317081034
 20
-134.8362141589993
 10
77.3086317081034
 20
-134.8827229480502
 10
77.31758895636506
 20
-134.9864203221562
 10
77.31758895636506
 20
-134.9864203221562
 10
77.06437443819918
 20
-134.9864203221562
 10
77.06437443819918
 20
-134.9864203221562
 10
77.07126462916969
 20
-134.8975368586367
 10
77.08246118949675
 20
-134.508585578352
 10
77.08470050156217
 20
-134.4279703439972
 10
77.08470050156217
 20
-134.4090223188283
 10
77.09159069253266
 20
-134.3222059126
 10
77.09159069253266
 20
-134.3032578874311
 10
77.09159069253266
 20
-134.3032578874311
 10
77.09159069253266
 20
-133.7320610559767
 10
77.09159069253266
 20
-133.7320610559767
 10
77.09159069253266
 20
-133.6579915030438
 10
77.08246118949675
 20
-133.3238172409746
 10
77.07798256536593
 20
-133.1250352314757
 10
77.1051988196994
 20
-133.1271022887668
 10
77.2769368296391
 20
-133.1333034606403
 10
77.3086317081034
 20
-133.1333034606403
 10
77.3086317081034
 20
-133.1333034606403
 10
77.55047741116795
 20
-133.1333034606403
 10
77.55047741116795
 20
-133.1333034606403
 10
77.61834579222736
 20
-133.1333034606403
 10
77.73582354827438
 20
-133.129169346058
 10
77.79697399313757
 20
-133.1250352314757
 10
77.79697399313757
 20
-133.1250352314757
 10
77.86484237419698
 20
-133.2159857522863
 10
77.86484237419698
 20
-133.2159857522863
 10
77.61162785603112
 20
-133.6728054136304
 10
77.58441160169765
 20
-133.7234483172636
 10
77.55047741116795
 20
-133.7975178701965
 10
77.72462698794732
 20
-133.9542697147753
 10
77.8670816862624
 20
-134.1024088206411
 10
77.8670816862624
 20
-134.3880072363683
 10
77.8670816862624
 20
-134.6332980349181
 10
77.72910561207814
 20
-134.7135687597244
 10
77.69069279741761
 20
-134.7304497276021
 97
        0
 97
        0
 75
     2
 76
     1
 98
        0
  0
ENDBLK
  5
89
330
86
100
AcDbEntity
  8
0
100
AcDbBlockEnd
  0
BLOCK
  5
F7
330
F5
100
AcDbEntity
  8
0
100
AcDbBlockBegin
  2
block 8
 70
     0
 10
0.0
 20
0.0
 30
0.0
  3
block 8
  1

  0
SPLINE
  5
F9
330
F5
100
AcDbEntity
  8
_U+30EC_U+30A4_U+30E4_U+30FC 1
370
     0
100
AcDbSpline
210
0.0
220
0.0
230
1.0
 70
    11
 71
     3
 72
    62
 73
    58
 74
     0
 42
0.0000000001
 43
0.0000000001
 12
1.0
 22
0.0
 32
0.0
 13
1.0
 23
0.0
 33
0.0
 40
0.0
 40
0.0
 40
0.0
 40
0.0
 40
1.0
 40
1.0
 40
1.0
 40
2.0
 40
2.0
 40
2.0
 40
3.0
 40
3.0
 40
3.0
 40
4.0
 40
4.0
 40
4.0
 40
5.0
 40
5.0
 40
5.0
 40
6.0
 40
6.0
 40
6.0
 40
7.0
 40
7.0
 40
7.0
 40
8.0
 40
8.0
 40
8.0
 40
9.0
 40
9.0
 40
9.0
 40
10.0
 40
10.0
 40
10.0
 40
11.0
 40
11.0
 40
11.0
 40
12.0
 40
12.0
 40
12.0
 40
13.0
 40
13.0
 40
13.0
 40
14.0
 40
14.0
 40
14.0
 40
15.0
 40
15.0
 40
15.0
 40
16.0
 40
16.0
 40
16.0
 40
17.0
 40
17.0
 40
17.0
 40
18.0
 40
18.0
 40
18.0
 40
19.0
 40
19.0
 40
19.0
 40
19.0
 10
41.19714083171461
 20
-122.7833753490785
 30
0.0
 10
41.19714083171461
 20
-122.8850056658933
 30
0.0
 10
41.17595349448032
 20
-123.1178941206962
 30
0.0
 10
40.98974608350257
 20
-123.2513915707497
 30
0.0
 10
40.87760822545768
 20
-123.3304565121361
 30
0.0
 10
40.77821722070823
 20
-123.334935136267
 30
0.0
 10
40.69364012654534
 20
-123.3395860151721
 30
0.0
 10
40.69364012654534
 20
-123.3395860151721
 30
0.0
 10
40.69364012654534
 20
-123.1042859935295
 30
0.0
 10
40.69364012654534
 20
-123.1042859935295
 30
0.0
 10
40.76770967947822
 20
-123.1020466814641
 30
0.0
 10
41.00249293679799
 20
-123.090850121137
 30
0.0
 10
41.00249293679799
 20
-122.7878539732093
 30
0.0
 10
41.00249293679799
 20
-122.6409206507634
 30
0.0
 10
40.93272975322168
 20
-122.4781398890853
 30
0.0
 10
40.70414766777535
 20
-122.4781398890853
 30
0.0
 10
40.58787569514817
 20
-122.4781398890853
 30
0.0
 10
40.53912759403189
 20
-122.5187920158113
 30
0.0
 10
40.50743271556759
 20
-122.552726206341
 30
0.0
 10
40.43336316263472
 20
-122.6317911477275
 30
0.0
 10
40.42078856411356
 20
-122.756159094745
 30
0.0
 10
40.42078856411356
 20
-122.8148979727685
 30
0.0
 10
40.42078856411356
 20
-122.8353962909057
 30
0.0
 10
40.42285562140471
 20
-122.8738091055663
 30
0.0
 10
40.42698973598701
 20
-122.9030924171909
 30
0.0
 10
40.42698973598701
 20
-122.9030924171909
 30
0.0
 10
40.23234184107039
 20
-122.9030924171909
 30
0.0
 10
40.23234184107039
 20
-122.9030924171909
 30
0.0
 10
40.2387152677181
 20
-122.8624402904649
 30
0.0
 10
40.24095457978351
 20
-122.8173095396082
 30
0.0
 10
40.24095457978351
 20
-122.8104193486377
 30
0.0
 10
40.24095457978351
 20
-122.7403116555128
 30
0.0
 10
40.21976724254922
 20
-122.5279215188472
 30
0.0
 10
39.98274467316404
 20
-122.5279215188472
 30
0.0
 10
39.80515000089941
 20
-122.5279215188472
 30
0.0
 10
39.75002847313541
 20
-122.6679646503226
 30
0.0
 10
39.75002847313541
 20
-122.7856146611439
 30
0.0
 10
39.75002847313541
 20
-123.0681124909344
 30
0.0
 10
39.98274467316404
 20
-123.0772419939703
 30
0.0
 10
40.05474716880576
 20
-123.0817206181011
 30
0.0
 10
40.05474716880576
 20
-123.0817206181011
 30
0.0
 10
40.05474716880576
 20
-123.2987616336718
 30
0.0
 10
40.05474716880576
 20
-123.2987616336718
 30
0.0
 10
39.92986245746545
 20
-123.2898043854102
 30
0.0
 10
39.55331352092765
 20
-123.2603488190113
 30
0.0
 10
39.55331352092765
 20
-122.7720065339771
 30
0.0
 10
39.55331352092765
 20
-122.532400142978
 30
0.0
 10
39.6802652895591
 20
-122.2747070006813
 30
0.0
 10
39.97637124651632
 20
-122.2747070006813
 30
0.0
 10
40.16257865749408
 20
-122.2747070006813
 30
0.0
 10
40.24508869436581
 20
-122.3763373174962
 30
0.0
 10
40.30641139400326
 20
-122.4826185132162
 30
0.0
 10
40.33397215788526
 20
-122.4169894442222
 30
0.0
 10
40.41441513746584
 20
-122.2226860588541
 30
0.0
 10
40.69157306925419
 20
-122.2226860588541
 30
0.0
 10
41.03005370067999
 20
-122.2226860588541
 30
0.0
 10
41.19714083171461
 20
-122.487097137347
 30
0.0
 10
41.19714083171461
 20
-122.7833753490785
 30
0.0
  0
HATCH
  5
FA
330
F5
100
AcDbEntity
  8
_U+30EC_U+30A4_U+30E4_U+30FC 1
 62
   179
420
  2234388
100
AcDbHatch
 10
0.0
 20
0.0
 30
0.0
210
0.0
220
0.0
230
1.0
  2
SOLID
 70
     1
 71
     0
 91
        1
 92
        1
 93
        1
 72
     4
 94
        3
 73
     0
 74
     1
 95
       62
 96
       58
 40
0.0
 40
0.0
 40
0.0
 40
0.0
 40
1.0
 40
1.0
 40
1.0
 40
2.0
 40
2.0
 40
2.0
 40
3.0
 40
3.0
 40
3.0
 40
4.0
 40
4.0
 40
4.0
 40
5.0
 40
5.0
 40
5.0
 40
6.0
 40
6.0
 40
6.0
 40
7.0
 40
7.0
 40
7.0
 40
8.0
 40
8.0
 40
8.0
 40
9.0
 40
9.0
 40
9.0
 40
10.0
 40
10.0
 40
10.0
 40
11.0
 40
11.0
 40
11.0
 40
12.0
 40
12.0
 40
12.0
 40
13.0
 40
13.0
 40
13.0
 40
14.0
 40
14.0
 40
14.0
 40
15.0
 40
15.0
 40
15.0
 40
16.0
 40
16.0
 40
16.0
 40
17.0
 40
17.0
 40
17.0
 40
18.0
 40
18.0
 40
18.0
 40
19.0
 40
19.0
 40
19.0
 40
19.0
 10
41.19714083171461
 20
-122.7833753490785
 10
41.19714083171461
 20
-122.8850056658933
 10
41.17595349448032
 20
-123.1178941206962
 10
40.98974608350257
 20
-123.2513915707497
 10
40.87760822545768
 20
-123.3304565121361
 10
40.77821722070823
 20
-123.334935136267
 10
40.69364012654534
 20
-123.3395860151721
 10
40.69364012654534
 20
-123.3395860151721
 10
40.69364012654534
 20
-123.1042859935295
 10
40.69364012654534
 20
-123.1042859935295
 10
40.76770967947822
 20
-123.1020466814641
 10
41.00249293679799
 20
-123.090850121137
 10
41.00249293679799
 20
-122.7878539732093
 10
41.00249293679799
 20
-122.6409206507634
 10
40.93272975322168
 20
-122.4781398890853
 10
40.70414766777535
 20
-122.4781398890853
 10
40.58787569514817
 20
-122.4781398890853
 10
40.53912759403189
 20
-122.5187920158113
 10
40.50743271556759
 20
-122.552726206341
 10
40.43336316263472
 20
-122.6317911477275
 10
40.42078856411356
 20
-122.756159094745
 10
40.42078856411356
 20
-122.8148979727685
 10
40.42078856411356
 20
-122.8353962909057
 10
40.42285562140471
 20
-122.8738091055663
 10
40.42698973598701
 20
-122.9030924171909
 10
40.42698973598701
 20
-122.9030924171909
 10
40.23234184107039
 20
-122.9030924171909
 10
40.23234184107039
 20
-122.9030924171909
 10
40.2387152677181
 20
-122.8624402904649
 10
40.24095457978351
 20
-122.8173095396082
 10
40.24095457978351
 20
-122.8104193486377
 10
40.24095457978351
 20
-122.7403116555128
 10
40.21976724254922
 20
-122.5279215188472
 10
39.98274467316404
 20
-122.5279215188472
 10
39.80515000089941
 20
-122.5279215188472
 10
39.75002847313541
 20
-122.6679646503226
 10
39.75002847313541
 20
-122.7856146611439
 10
39.75002847313541
 20
-123.0681124909344
 10
39.98274467316404
 20
-123.0772419939703
 10
40.05474716880576
 20
-123.0817206181011
 10
40.05474716880576
 20
-123.0817206181011
 10
40.05474716880576
 20
-123.2987616336718
 10
40.05474716880576
 20
-123.2987616336718
 10
39.92986245746545
 20
-123.2898043854102
 10
39.55331352092765
 20
-123.2603488190113
 10
39.55331352092765
 20
-122.7720065339771
 10
39.55331352092765
 20
-122.532400142978
 10
39.6802652895591
 20
-122.2747070006813
 10
39.97637124651632
 20
-122.2747070006813
 10
40.16257865749408
 20
-122.2747070006813
 10
40.24508869436581
 20
-122.3763373174962
 10
40.30641139400326
 20
-122.4826185132162
 10
40.33397215788526
 20
-122.4169894442222
 10
40.41441513746584
 20
-122.2226860588541
 10
40.69157306925419
 20
-122.2226860588541
 10
41.03005370067999
 20
-122.2226860588541
 10
41.19714083171461
 20
-122.487097137347
 10
41.19714083171461
 20
-122.7833753490785
 97
        0
 97
        0
 75
     2
 76
     1
 98
        0
  0
SPLINE
  5
FB
330
F5
100
AcDbEntity
  8
_U+30EC_U+30A4_U+30E4_U+30FC 1
370
     0
100
AcDbSpline
210
0.0
220
0.0
230
1.0
 70
    11
 71
     3
 72
    26
 73
    22
 74
     0
 42
0.0000000001
 43
0.0000000001
 12
1.0
 22
0.0
 32
0.0
 13
1.0
 23
0.0
 33
0.0
 40
0.0
 40
0.0
 40
0.0
 40
0.0
 40
1.0
 40
1.0
 40
1.0
 40
2.0
 40
2.0
 40
2.0
 40
3.0
 40
3.0
 40
3.0
 40
4.0
 40
4.0
 40
4.0
 40
5.0
 40
5.0
 40
5.0
 40
6.0
 40
6.0
 40
6.0
 40
7.0
 40
7.0
 40
7.0
 40
7.0
 10
41.14632567330717
 20
-121.5684624262051
 30
0.0
 10
41.14632567330717
 20
-121.5684624262051
 30
0.0
 10
40.04200031551034
 20
-121.5684624262051
 30
0.0
 10
40.04200031551034
 20
-121.5684624262051
 30
0.0
 10
40.04200031551034
 20
-121.5684624262051
 30
0.0
 10
40.04200031551034
 20
-121.9212402038947
 30
0.0
 10
40.04200031551034
 20
-121.9212402038947
 30
0.0
 10
40.04200031551034
 20
-121.9212402038947
 30
0.0
 10
39.89403346441885
 20
-121.9212402038947
 30
0.0
 10
39.89403346441885
 20
-121.9212402038947
 30
0.0
 10
39.87921955383228
 20
-121.5662231141397
 30
0.0
 10
39.71626653737997
 20
-121.5164414843778
 30
0.0
 10
39.60206162204393
 20
-121.4847466059135
 30
0.0
 10
39.60206162204393
 20
-121.4847466059135
 30
0.0
 10
39.60206162204393
 20
-121.328856035206
 30
0.0
 10
39.60206162204393
 20
-121.328856035206
 30
0.0
 10
39.60206162204393
 20
-121.328856035206
 30
0.0
 10
41.14632567330717
 20
-121.328856035206
 30
0.0
 10
41.14632567330717
 20
-121.328856035206
 30
0.0
 10
41.14632567330717
 20
-121.328856035206
 30
0.0
 10
41.14632567330717
 20
-121.5684624262051
 30
0.0
 10
41.14632567330717
 20
-121.5684624262051
 30
0.0
  0
HATCH
  5
FC
330
F5
100
AcDbEntity
  8
_U+30EC_U+30A4_U+30E4_U+30FC 1
 62
   179
420
  2234388
100
AcDbHatch
 10
0.0
 20
0.0
 30
0.0
210
0.0
220
0.0
230
1.0
  2
SOLID
 70
     1
 71
     0
 91
        1
 92
        1
 93
        1
 72
     4
 94
        3
 73
     0
 74
     1
 95
       26
 96
       22
 40
0.0
 40
0.0
 40
0.0
 40
0.0
 40
1.0
 40
1.0
 40
1.0
 40
2.0
 40
2.0
 40
2.0
 40
3.0
 40
3.0
 40
3.0
 40
4.0
 40
4.0
 40
4.0
 40
5.0
 40
5.0
 40
5.0
 40
6.0
 40
6.0
 40
6.0
 40
7.0
 40
7.0
 40
7.0
 40
7.0
 10
41.14632567330717
 20
-121.5684624262051
 10
41.14632567330717
 20
-121.5684624262051
 10
40.04200031551034
 20
-121.5684624262051
 10
40.04200031551034
 20
-121.5684624262051
 10
40.04200031551034
 20
-121.5684624262051
 10
40.04200031551034
 20
-121.9212402038947
 10
40.04200031551034
 20
-121.9212402038947
 10
40.04200031551034
 20
-121.9212402038947
 10
39.89403346441885
 20
-121.9212402038947
 10
39.89403346441885
 20
-121.9212402038947
 10
39.87921955383228
 20
-121.5662231141397
 10
39.71626653737997
 20
-121.5164414843778
 10
39.60206162204393
 20
-121.4847466059135
 10
39.60206162204393
 20
-121.4847466059135
 10
39.60206162204393
 20
-121.328856035206
 10
39.60206162204393
 20
-121.328856035206
 10
39.60206162204393
 20
-121.328856035206
 10
41.14632567330717
 20
-121.328856035206
 10
41.14632567330717
 20
-121.328856035206
 10
41.14632567330717
 20
-121.328856035206
 10
41.14632567330717
 20
-121.5684624262051
 10
41.14632567330717
 20
-121.5684624262051
 97
        0
 97
        0
 75
     2
 76
     1
 98
        0
  0
POLYLINE
  5
FD
330
F5
100
AcDbEntity
  8
_U+30EC_U+30A4_U+30E4_U+30FC 1
370
     0
100
AcDb2dPolyline
 66
     1
 10
0.0
 20
0.0
 30
0.0
  0
VERTEX
  5
FE
330
FD
100
AcDbEntity
  8
_U+30EC_U+30A4_U+30E4_U+30FC 1
370
     0
100
AcDbVertex
100
AcDb2dVertex
 10
41.14632567330717
 20
-120.7288926564497
 30
0.0
  0
VERTEX
  5
FF
330
FD
100
AcDbEntity
  8
_U+30EC_U+30A4_U+30E4_U+30FC 1
370
     0
100
AcDbVertex
100
AcDb2dVertex
 10
40.89466144810967
 20
-120.7288926564497
 30
0.0
  0
VERTEX
  5
100
330
FD
100
AcDbEntity
  8
_U+30EC_U+30A4_U+30E4_U+30FC 1
370
     0
100
AcDbVertex
100
AcDb2dVertex
 10
40.89466144810967
 20
-120.4598306990517
 30
0.0
  0
VERTEX
  5
101
330
FD
100
AcDbEntity
  8
_U+30EC_U+30A4_U+30E4_U+30FC 1
370
     0
100
AcDbVertex
100
AcDb2dVertex
 10
41.14632567330717
 20
-120.4598306990517
 30
0.0
  0
VERTEX
  5
102
330
FD
100
AcDbEntity
  8
_U+30EC_U+30A4_U+30E4_U+30FC 1
370
     0
100
AcDbVertex
100
AcDb2dVertex
 10
41.14632567330717
 20
-120.7288926564497
 30
0.0
  0
SEQEND
  5
103
330
FD
100
AcDbEntity
  8
_U+30EC_U+30A4_U+30E4_U+30FC 1
370
     0
  0
HATCH
  5
104
330
F5
100
AcDbEntity
  8
_U+30EC_U+30A4_U+30E4_U+30FC 1
 62
   179
420
  2234388
100
AcDbHatch
 10
0.0
 20
0.0
 30
0.0
210
0.0
220
0.0
230
1.0
  2
SOLID
 70
     1
 71
     0
 91
        1
 92
        1
 93
        4
 72
     1
 10
41.14632567330717
 20
-120.7288926564497
 11
40.89466144810967
 21
-120.7288926564497
 72
     1
 10
40.89466144810967
 20
-120.7288926564497
 11
40.89466144810967
 21
-120.4598306990517
 72
     1
 10
40.89466144810967
 20
-120.4598306990517
 11
41.14632567330717
 21
-120.4598306990517
 72
     1
 10
41.14632567330717
 20
-120.4598306990517
 11
41.14632567330717
 21
-120.7288926564497
 97
        0
 75
     2
 76
     1
 98
        0
  0
SPLINE
  5
105
330
F5
100
AcDbEntity
  8
_U+30EC_U+30A4_U+30E4_U+30FC 1
370
     0
100
AcDbSpline
210
0.0
220
0.0
230
1.0
 70
    11
 71
     3
 72
    53
 73
    49
 74
     0
 42
0.0000000001
 43
0.0000000001
 12
1.0
 22
0.0
 32
0.0
 13
1.0
 23
0.0
 33
0.0
 40
0.0
 40
0.0
 40
0.0
 40
0.0
 40
1.0
 40
1.0
 40
1.0
 40
2.0
 40
2.0
 40
2.0
 40
3.0
 40
3.0
 40
3.0
 40
4.0
 40
4.0
 40
4.0
 40
5.0
 40
5.0
 40
5.0
 40
6.0
 40
6.0
 40
6.0
 40
7.0
 40
7.0
 40
7.0
 40
8.0
 40
8.0
 40
8.0
 40
9.0
 40
9.0
 40
9.0
 40
10.0
 40
10.0
 40
10.0
 40
11.0
 40
11.0
 40
11.0
 40
12.0
 40
12.0
 40
12.0
 40
13.0
 40
13.0
 40
13.0
 40
14.0
 40
14.0
 40
14.0
 40
15.0
 40
15.0
 40
15.0
 40
16.0
 40
16.0
 40
16.0
 40
16.0
 10
41.19714083171461
 20
-119.6931246988094
 30
0.0
 10
41.19714083171461
 20
-119.7768405191009
 30
0.0
 10
41.18008760906262
 20
-119.8853610268863
 30
0.0
 10
41.11669785213402
 20
-119.9938815346717
 30
0.0
 10
41.00662705138029
 20
-120.1792276717781
 30
0.0
 10
40.87554116816654
 20
-120.2017930472065
 30
0.0
 10
40.76770967947822
 20
-120.2222913653437
 30
0.0
 10
40.76770967947822
 20
-120.2222913653437
 30
0.0
 10
40.76770967947822
 20
-119.9847520316358
 30
0.0
 10
40.76770967947822
 20
-119.9847520316358
 30
0.0
 10
40.96649168897713
 20
-119.9260131536122
 30
0.0
 10
40.99611951015028
 20
-119.7904486462677
 30
0.0
 10
40.99611951015028
 20
-119.690885386744
 30
0.0
 10
40.99611951015028
 20
-119.5417127522326
 30
0.0
 10
40.89672850540082
 20
-119.3789319905546
 30
0.0
 10
40.6640123053722
 20
-119.3789319905546
 30
0.0
 10
40.40804171081813
 20
-119.3789319905546
 30
0.0
 10
40.33827852724182
 20
-119.5711683186315
 30
0.0
 10
40.33827852724182
 20
-119.7000148897799
 30
0.0
 10
40.33827852724182
 20
-119.7339490803096
 30
0.0
 10
40.33827852724182
 20
-119.8853610268863
 30
0.0
 10
40.46729735316443
 20
-119.9802734075049
 30
0.0
 10
40.46729735316443
 20
-119.9802734075049
 30
0.0
 10
40.44817707322129
 20
-120.1680311114511
 30
0.0
 10
40.44817707322129
 20
-120.1680311114511
 30
0.0
 10
40.44817707322129
 20
-120.1680311114511
 30
0.0
 10
39.60206162204393
 20
-120.0391845403027
 30
0.0
 10
39.60206162204393
 20
-120.0391845403027
 30
0.0
 10
39.60206162204393
 20
-120.0391845403027
 30
0.0
 10
39.60206162204393
 20
-119.2071939806149
 30
0.0
 10
39.60206162204393
 20
-119.2071939806149
 30
0.0
 10
39.60206162204393
 20
-119.2071939806149
 30
0.0
 10
39.79670951696055
 20
-119.2071939806149
 30
0.0
 10
39.79670951696055
 20
-119.2071939806149
 30
0.0
 10
39.79670951696055
 20
-119.2071939806149
 30
0.0
 10
39.79670951696055
 20
-119.8650349635233
 30
0.0
 10
39.79670951696055
 20
-119.8650349635233
 30
0.0
 10
39.79670951696055
 20
-119.8650349635233
 30
0.0
 10
40.21976724254922
 20
-119.9351426566482
 30
0.0
 10
40.21976724254922
 20
-119.9351426566482
 30
0.0
 10
40.18583305201952
 20
-119.8695135876542
 30
0.0
 10
40.14569768961636
 20
-119.7813191432318
 30
0.0
 10
40.14569768961636
 20
-119.6547118841488
 30
0.0
 10
40.14569768961636
 20
-119.3834106146854
 30
0.0
 10
40.33190510059411
 20
-119.1301960965195
 30
0.0
 10
40.64489202542906
 20
-119.1301960965195
 30
0.0
 10
40.96235757439483
 20
-119.1301960965195
 30
0.0
 10
41.19714083171461
 20
-119.3698024875187
 30
0.0
 10
41.19714083171461
 20
-119.6931246988094
 30
0.0
  0
HATCH
  5
106
330
F5
100
AcDbEntity
  8
_U+30EC_U+30A4_U+30E4_U+30FC 1
 62
   179
420
  2234388
100
AcDbHatch
 10
0.0
 20
0.0
 30
0.0
210
0.0
220
0.0
230
1.0
  2
SOLID
 70
     1
 71
     0
 91
        1
 92
        1
 93
        1
 72
     4
 94
        3
 73
     0
 74
     1
 95
       53
 96
       49
 40
0.0
 40
0.0
 40
0.0
 40
0.0
 40
1.0
 40
1.0
 40
1.0
 40
2.0
 40
2.0
 40
2.0
 40
3.0
 40
3.0
 40
3.0
 40
4.0
 40
4.0
 40
4.0
 40
5.0
 40
5.0
 40
5.0
 40
6.0
 40
6.0
 40
6.0
 40
7.0
 40
7.0
 40
7.0
 40
8.0
 40
8.0
 40
8.0
 40
9.0
 40
9.0
 40
9.0
 40
10.0
 40
10.0
 40
10.0
 40
11.0
 40
11.0
 40
11.0
 40
12.0
 40
12.0
 40
12.0
 40
13.0
 40
13.0
 40
13.0
 40
14.0
 40
14.0
 40
14.0
 40
15.0
 40
15.0
 40
15.0
 40
16.0
 40
16.0
 40
16.0
 40
16.0
 10
41.19714083171461
 20
-119.6931246988094
 10
41.19714083171461
 20
-119.7768405191009
 10
41.18008760906262
 20
-119.8853610268863
 10
41.11669785213402
 20
-119.9938815346717
 10
41.00662705138029
 20
-120.1792276717781
 10
40.87554116816654
 20
-120.2017930472065
 10
40.76770967947822
 20
-120.2222913653437
 10
40.76770967947822
 20
-120.2222913653437
 10
40.76770967947822
 20
-119.9847520316358
 10
40.76770967947822
 20
-119.9847520316358
 10
40.96649168897713
 20
-119.9260131536122
 10
40.99611951015028
 20
-119.7904486462677
 10
40.99611951015028
 20
-119.690885386744
 10
40.99611951015028
 20
-119.5417127522326
 10
40.89672850540082
 20
-119.3789319905546
 10
40.6640123053722
 20
-119.3789319905546
 10
40.40804171081813
 20
-119.3789319905546
 10
40.33827852724182
 20
-119.5711683186315
 10
40.33827852724182
 20
-119.7000148897799
 10
40.33827852724182
 20
-119.7339490803096
 10
40.33827852724182
 20
-119.8853610268863
 10
40.46729735316443
 20
-119.9802734075049
 10
40.46729735316443
 20
-119.9802734075049
 10
40.44817707322129
 20
-120.1680311114511
 10
40.44817707322129
 20
-120.1680311114511
 10
40.44817707322129
 20
-120.1680311114511
 10
39.60206162204393
 20
-120.0391845403027
 10
39.60206162204393
 20
-120.0391845403027
 10
39.60206162204393
 20
-120.0391845403027
 10
39.60206162204393
 20
-119.2071939806149
 10
39.60206162204393
 20
-119.2071939806149
 10
39.60206162204393
 20
-119.2071939806149
 10
39.79670951696055
 20
-119.2071939806149
 10
39.79670951696055
 20
-119.2071939806149
 10
39.79670951696055
 20
-119.2071939806149
 10
39.79670951696055
 20
-119.8650349635233
 10
39.79670951696055
 20
-119.8650349635233
 10
39.79670951696055
 20
-119.8650349635233
 10
40.21976724254922
 20
-119.9351426566482
 10
40.21976724254922
 20
-119.9351426566482
 10
40.18583305201952
 20
-119.8695135876542
 10
40.14569768961636
 20
-119.7813191432318
 10
40.14569768961636
 20
-119.6547118841488
 10
40.14569768961636
 20
-119.3834106146854
 10
40.33190510059411
 20
-119.1301960965195
 10
40.64489202542906
 20
-119.1301960965195
 10
40.96235757439483
 20
-119.1301960965195
 10
41.19714083171461
 20
-119.3698024875187
 10
41.19714083171461
 20
-119.6931246988094
 97
        0
 97
        0
 75
     2
 76
     1
 98
        0
  0
ENDBLK
  5
F8
330
F5
100
AcDbEntity
  8
0
100
AcDbBlockEnd
  0
ENDSEC
  0
SECTION
  2
ENTITIES
  0
INSERT
  5
42
330
1F
100
AcDbEntity
  8
_U+30EC_U+30A4_U+30E4_U+30FC 1
100
AcDbBlockReference
  2
block 2
 10
0.0
 20
0.0
 30
0.0
  0
INSERT
  5
4A
330
1F
100
AcDbEntity
  8
_U+30EC_U+30A4_U+30E4_U+30FC 1
100
AcDbBlockReference
  2
block 3
 10
0.0
 20
0.0
 30
0.0
  0
INSERT
  5
52
330
1F
100
AcDbEntity
  8
_U+30EC_U+30A4_U+30E4_U+30FC 1
100
AcDbBlockReference
  2
block 4
 10
0.0
 20
0.0
 30
0.0
  0
INSERT
  5
5C
330
1F
100
AcDbEntity
  8
_U+30EC_U+30A4_U+30E4_U+30FC 1
100
AcDbBlockReference
  2
block 5
 10
0.0
 20
0.0
 30
0.0
  0
POLYLINE
  5
64
330
1F
100
AcDbEntity
  8
_U+30EC_U+30A4_U+30E4_U+30FC 1
 62
     7
420
 16777215
370
     9
100
AcDb2dPolyline
 66
     1
 10
0.0
 20
0.0
 30
0.0
  0
VERTEX
  5
65
330
64
100
AcDbEntity
  8
_U+30EC_U+30A4_U+30E4_U+30FC 1
 62
     7
420
 16777215
370
     9
100
AcDbVertex
100
AcDb2dVertex
 10
107.1824233766597
 20
-107.8943669174709
 30
0.0
  0
VERTEX
  5
66
330
64
100
AcDbEntity
  8
_U+30EC_U+30A4_U+30E4_U+30FC 1
 62
     7
420
 16777215
370
     9
100
AcDbVertex
100
AcDb2dVertex
 10
89.08104328290881
 20
-107.8943669174709
 30
0.0
  0
VERTEX
  5
67
330
64
100
AcDbEntity
  8
_U+30EC_U+30A4_U+30E4_U+30FC 1
 62
     7
420
 16777215
370
     9
100
AcDbVertex
100
AcDb2dVertex
 10
85.0147856088699
 20
-113.2115394161416
 30
0.0
  0
SEQEND
  5
68
330
64
100
AcDbEntity
  8
_U+30EC_U+30A4_U+30E4_U+30FC 1
 62
     7
420
 16777215
370
     9
  0
INSERT
  5
6A
330
1F
100
AcDbEntity
  8
_U+30EC_U+30A4_U+30E4_U+30FC 1
100
AcDbBlockReference
  2
block 6
 10
0.0
 20
0.0
 30
0.0
  0
INSERT
  5
87
330
1F
100
AcDbEntity
  8
_U+30EC_U+30A4_U+30E4_U+30FC 1
100
AcDbBlockReference
  2
block 7
 10
0.0
 20
0.0
 30
0.0
  0
SPLINE
  5
A5
330
1F
100
AcDbEntity
  8
_U+30EC_U+30A4_U+30E4_U+30FC 1
370
     0
100
AcDbSpline
210
0.0
220
0.0
230
1.0
 70
     8
 71
     3
 72
   158
 73
   154
 74
     0
 42
0.0000000001
 43
0.0000000001
 12
1.0
 22
0.0
 32
0.0
 13
1.0
 23
0.0
 33
0.0
 40
0.0
 40
0.0
 40
0.0
 40
0.0
 40
1.0
 40
1.0
 40
1.0
 40
2.0
 40
2.0
 40
2.0
 40
3.0
 40
3.0
 40
3.0
 40
4.0
 40
4.0
 40
4.0
 40
5.0
 40
5.0
 40
5.0
 40
6.0
 40
6.0
 40
6.0
 40
7.0
 40
7.0
 40
7.0
 40
8.0
 40
8.0
 40
8.0
 40
9.0
 40
9.0
 40
9.0
 40
10.0
 40
10.0
 40
10.0
 40
11.0
 40
11.0
 40
11.0
 40
12.0
 40
12.0
 40
12.0
 40
13.0
 40
13.0
 40
13.0
 40
14.0
 40
14.0
 40
14.0
 40
15.0
 40
15.0
 40
15.0
 40
16.0
 40
16.0
 40
16.0
 40
17.0
 40
17.0
 40
17.0
 40
18.0
 40
18.0
 40
18.0
 40
19.0
 40
19.0
 40
19.0
 40
20.0
 40
20.0
 40
20.0
 40
21.0
 40
21.0
 40
21.0
 40
22.0
 40
22.0
 40
22.0
 40
23.0
 40
23.0
 40
23.0
 40
24.0
 40
24.0
 40
24.0
 40
25.0
 40
25.0
 40
25.0
 40
26.0
 40
26.0
 40
26.0
 40
27.0
 40
27.0
 40
27.0
 40
28.0
 40
28.0
 40
28.0
 40
29.0
 40
29.0
 40
29.0
 40
30.0
 40
30.0
 40
30.0
 40
31.0
 40
31.0
 40
31.0
 40
32.0
 40
32.0
 40
32.0
 40
33.0
 40
33.0
 40
33.0
 40
34.0
 40
34.0
 40
34.0
 40
35.0
 40
35.0
 40
35.0
 40
36.0
 40
36.0
 40
36.0
 40
37.0
 40
37.0
 40
37.0
 40
38.0
 40
38.0
 40
38.0
 40
39.0
 40
39.0
 40
39.0
 40
40.0
 40
40.0
 40
40.0
 40
41.0
 40
41.0
 40
41.0
 40
42.0
 40
42.0
 40
42.0
 40
43.0
 40
43.0
 40
43.0
 40
44.0
 40
44.0
 40
44.0
 40
45.0
 40
45.0
 40
45.0
 40
46.0
 40
46.0
 40
46.0
 40
47.0
 40
47.0
 40
47.0
 40
48.0
 40
48.0
 40
48.0
 40
49.0
 40
49.0
 40
49.0
 40
50.0
 40
50.0
 40
50.0
 40
51.0
 40
51.0
 40
51.0
 40
51.0
 10
46.79558297281189
 20
-105.4793560847414
 30
0.0
 10
46.79558297281189
 20
-105.4793560847414
 30
0.0
 10
46.79558297281189
 20
-114.289134415872
 30
0.0
 10
46.79558297281189
 20
-114.289134415872
 30
0.0
 10
46.79558297281189
 20
-114.289134415872
 30
0.0
 10
51.35484757871757
 20
-114.289134415872
 30
0.0
 10
51.35484757871757
 20
-114.289134415872
 30
0.0
 10
51.35484757871757
 20
-114.289134415872
 30
0.0
 10
51.70208673652543
 20
-115.5390260822264
 30
0.0
 10
51.70208673652543
 20
-115.5390260822264
 30
0.0
 10
51.70208673652543
 20
-115.5390260822264
 30
0.0
 10
51.75514451294959
 20
-115.6658144155281
 30
0.0
 10
51.89847812040396
 20
-115.6789024710803
 30
0.0
 10
51.89847812040396
 20
-115.6789024710803
 30
0.0
 10
58.1774990713239
 20
-116.2307880264979
 30
0.0
 10
58.1774990713239
 20
-116.2307880264979
 30
0.0
 10
58.1774990713239
 20
-116.2307880264979
 30
0.0
 10
58.39315212137769
 20
-116.2135724709465
 30
0.0
 10
58.39315212137769
 20
-116.0316802487698
 30
0.0
 10
58.39315212137769
 20
-116.0316802487698
 30
0.0
 10
58.39315212137769
 20
-114.289134415872
 30
0.0
 10
58.39315212137769
 20
-114.289134415872
 30
0.0
 10
58.39315212137769
 20
-114.289134415872
 30
0.0
 10
132.6127616167666
 20
-114.289134415872
 30
0.0
 10
132.6127616167666
 20
-114.289134415872
 30
0.0
 10
132.6127616167666
 20
-114.289134415872
 30
0.0
 10
132.9999704957769
 20
-114.2953433047594
 30
0.0
 10
133.0867891046731
 20
-113.9205169159642
 30
0.0
 10
133.1708560469729
 20
-113.5443146938361
 30
0.0
 10
132.964163552246
 20
-113.4347771938637
 30
0.0
 10
132.964163552246
 20
-113.4347771938637
 30
0.0
 10
132.964163552246
 20
-113.4347771938637
 30
0.0
 10
126.0064334519747
 20
-106.6706513622211
 30
0.0
 10
126.0064334519747
 20
-106.6706513622211
 30
0.0
 10
126.0064334519747
 20
-106.6706513622211
 30
0.0
 10
125.8645109555955
 20
-106.5287288622567
 30
0.0
 10
125.6612404052258
 20
-106.5287288622567
 30
0.0
 10
125.6612404052258
 20
-106.5287288622567
 30
0.0
 10
121.8605891132996
 20
-106.5287288622567
 30
0.0
 10
121.8605891132996
 20
-106.5287288622567
 30
0.0
 10
121.6077180086398
 20
-106.5287288622567
 30
0.0
 10
121.361761348248
 20
-106.7953935844123
 30
0.0
 10
121.361761348248
 20
-107.0323896954642
 30
0.0
 10
121.361761348248
 20
-107.0323896954642
 30
0.0
 10
121.361761348248
 20
-107.531252750895
 30
0.0
 10
121.361761348248
 20
-107.531252750895
 30
0.0
 10
121.361761348248
 20
-107.531252750895
 30
0.0
 10
120.3592374849356
 20
-107.531252750895
 30
0.0
 10
120.3592374849356
 20
-107.531252750895
 30
0.0
 10
120.3592374849356
 20
-107.531252750895
 30
0.0
 10
120.3592374849356
 20
-106.5466499733633
 30
0.0
 10
120.3592374849356
 20
-106.5466499733633
 30
0.0
 10
120.3592374849356
 20
-106.1862874734535
 30
0.0
 10
120.6789277476082
 20
-105.5262049736184
 30
0.0
 10
121.361761348248
 20
-105.5262049736184
 30
0.0
 10
121.361761348248
 20
-105.5262049736184
 30
0.0
 10
125.8589723446257
 20
-105.5262049736184
 30
0.0
 10
125.8589723446257
 20
-105.5262049736184
 30
0.0
 10
126.0905003942744
 20
-105.5262049736184
 30
0.0
 10
126.3867631644939
 20
-105.6433271958114
 30
0.0
 10
126.5480178826022
 20
-105.799748862439
 30
0.0
 10
126.5480178826022
 20
-105.799748862439
 30
0.0
 10
135.2833951597442
 20
-114.289134415872
 30
0.0
 10
135.2833951597442
 20
-114.289134415872
 30
0.0
 10
135.2833951597442
 20
-114.289134415872
 30
0.0
 10
135.2833951597442
 20
-115.5962113599897
 30
0.0
 10
135.2833951597442
 20
-115.5962113599897
 30
0.0
 10
135.2833951597442
 20
-115.5962113599897
 30
0.0
 10
59.89866652741326
 20
-115.5962113599897
 30
0.0
 10
59.89866652741326
 20
-115.5962113599897
 30
0.0
 10
59.89866652741326
 20
-115.5962113599897
 30
0.0
 10
59.89866652741326
 20
-116.8764066374477
 30
0.0
 10
59.89866652741326
 20
-116.8764066374477
 30
0.0
 10
59.89866652741326
 20
-117.4241999706439
 30
0.0
 10
59.54243153650157
 20
-117.8596335816462
 30
0.0
 10
59.02635293855673
 20
-117.8162419149905
 30
0.0
 10
59.02635293855673
 20
-117.8162419149905
 30
0.0
 10
50.8676967578125
 20
-117.1023960818355
 30
0.0
 10
50.8676967578125
 20
-117.1023960818355
 30
0.0
 10
50.80363231500247
 20
-117.1023960818355
 30
0.0
 10
50.55626454353557
 20
-117.0231621929663
 30
0.0
 10
50.51491898903483
 20
-116.8764066374477
 30
0.0
 10
50.51491898903483
 20
-116.8764066374477
 30
0.0
 10
50.21724510774023
 20
-115.7946488599401
 30
0.0
 10
50.21724510774023
 20
-115.7946488599401
 30
0.0
 10
50.21724510774023
 20
-115.7946488599401
 30
0.0
 10
46.79558297281189
 20
-115.7946488599401
 30
0.0
 10
46.79558297281189
 20
-115.7946488599401
 30
0.0
 10
46.79558297281189
 20
-115.7946488599401
 30
0.0
 10
46.79558297281189
 20
-124.6581905243909
 30
0.0
 10
46.79558297281189
 20
-124.6581905243909
 30
0.0
 10
46.61160936639433
 20
-124.6581905243909
 30
0.0
 10
46.49723881375661
 20
-124.8277002465709
 30
0.0
 10
46.49723881375661
 20
-124.9565346909832
 30
0.0
 10
46.49723881375661
 20
-125.0846988576179
 30
0.0
 10
46.6867157533671
 20
-125.2569602464637
 30
0.0
 10
46.79558297281189
 20
-125.2569602464637
 30
0.0
 10
46.79558297281189
 20
-125.2569602464637
 30
0.0
 10
46.79558297281189
 20
-130.4657594118277
 30
0.0
 10
46.79558297281189
 20
-130.4657594118277
 30
0.0
 10
46.79558297281189
 20
-130.4657594118277
 30
0.0
 10
48.99839791661339
 20
-130.4657594118277
 30
0.0
 10
48.99839791661339
 20
-130.4657594118277
 30
0.0
 10
49.80177872945077
 20
-130.4657594118277
 30
0.0
 10
50.8050081483007
 20
-130.8282033006263
 30
0.0
 10
51.15020119504965
 20
-131.2402124671901
 30
0.0
 10
51.32934174603495
 20
-131.4676130226887
 30
0.0
 10
51.29762702462184
 20
-131.659841633752
 30
0.0
 10
51.15020119504965
 20
-131.8575735781469
 30
0.0
 10
51.00411592099882
 20
-132.0546352447643
 30
0.0
 10
50.76158120496417
 20
-132.0387955225458
 30
0.0
 10
50.54247220958676
 20
-131.9464735781248
 30
0.0
 10
50.54247220958676
 20
-131.9464735781248
 30
0.0
 10
49.94440678136758
 20
-131.4676130226887
 30
0.0
 10
48.99839791661339
 20
-131.4676130226887
 30
0.0
 10
48.05789238505213
 20
-131.4676130226887
 30
0.0
 10
47.53077184294454
 20
-131.8989191336916
 30
0.0
 10
47.22621879515878
 20
-132.1979688558392
 30
0.0
 10
46.82038324995695
 20
-132.5962196890735
 30
0.0
 10
46.49723881375661
 20
-133.349294411107
 30
0.0
 10
46.49723881375661
 20
-133.9714885776179
 30
0.0
 10
46.49723881375661
 20
-134.5936827441295
 30
0.0
 10
46.49723881375661
 20
-135.4735457994651
 30
0.0
 10
46.49723881375661
 20
-135.4735457994651
 30
0.0
 10
46.49723881375661
 20
-135.7078255216287
 30
0.0
 10
46.81420963900334
 20
-135.9751605215617
 30
0.0
 10
46.99472602328688
 20
-135.9751605215617
 30
0.0
 10
46.99472602328688
 20
-135.9751605215617
 30
0.0
 10
48.54225626158387
 20
-135.9751605215617
 30
0.0
 10
48.54225626158387
 20
-135.9751605215617
 30
0.0
 10
48.54225626158387
 20
-135.9751605215617
 30
0.0
 10
48.54225626158387
 20
-134.7328535774282
 30
0.0
 10
48.54225626158387
 20
-134.7328535774282
 30
0.0
 10
48.54225626158387
 20
-134.6529494107812
 30
0.0
 10
48.60632070439389
 20
-134.570258299691
 30
0.0
 10
48.7227726458674
 20
-134.5433766330306
 30
0.0
 10
48.89020097492929
 20
-134.5047827441516
 30
0.0
 10
49.53306790297282
 20
-134.4648482997172
 30
0.0
 10
49.85966956130719
 20
-134.7328535774282
 30
0.0
 10
50.21795066327779
 20
-135.0249888551325
 30
0.0
 10
50.34265760454069
 20
-135.2951107995094
 30
0.0
 10
50.34265760454069
 20
-135.8235719104883
 30
0.0
 10
50.34265760454069
 20
-136.2576649659358
 30
0.0
 10
49.98850400246479
 20
-136.6965557991594
 30
0.0
 10
49.69361706554354
 20
-136.8254255213492
 30
0.0
 10
49.4352073499139
 20
-136.9377146879881
 30
0.0
 10
49.07555041464507
 20
-136.9728513546458
 30
0.0
 10
49.07555041464507
 20
-136.9728513546458
 30
0.0
 10
49.07555041464507
 20
-136.9728513546458
 30
0.0
 10
45.29490276645421
 20
-136.9728513546458
 30
0.0
 10
45.29490276645421
 20
-136.9728513546458
 30
0.0
 10
45.29490276645421
 20
-136.9728513546458
 30
0.0
 10
45.29490276645421
 20
-105.4793560847414
 30
0.0
 10
45.29490276645421
 20
-105.4793560847414
 30
0.0
  0
HATCH
  5
A6
330
1F
100
AcDbEntity
  8
_U+30EC_U+30A4_U+30E4_U+30FC 1
 62
     9
420
 13224394
100
AcDbHatch
 10
0.0
 20
0.0
 30
0.0
210
0.0
220
0.0
230
1.0
  2
SOLID
 70
     1
 71
     0
 91
        1
 92
        1
 93
        2
 72
     4
 94
        3
 73
     0
 74
     0
 95
      158
 96
      154
 40
0.0
 40
0.0
 40
0.0
 40
0.0
 40
0.3527777776895833
 40
0.3527777776895833
 40
0.3527777776895833
 40
0.7055555553791667
 40
0.7055555553791667
 40
0.7055555553791667
 40
1.05833333306875
 40
1.05833333306875
 40
1.05833333306875
 40
1.411111110758333
 40
1.411111110758333
 40
1.411111110758333
 40
1.763888888447917
 40
1.763888888447917
 40
1.763888888447917
 40
2.1166666661375
 40
2.1166666661375
 40
2.1166666661375
 40
2.469444443827083
 40
2.469444443827083
 40
2.469444443827083
 40
2.822222221516667
 40
2.822222221516667
 40
2.822222221516667
 40
3.17499999920625
 40
3.17499999920625
 40
3.17499999920625
 40
3.527777776895833
 40
3.527777776895833
 40
3.527777776895833
 40
3.880555554585417
 40
3.880555554585417
 40
3.880555554585417
 40
4.233333332275
 40
4.233333332275
 40
4.233333332275
 40
4.586111109964584
 40
4.586111109964584
 40
4.586111109964584
 40
4.938888887654167
 40
4.938888887654167
 40
4.938888887654167
 40
5.29166666534375
 40
5.29166666534375
 40
5.29166666534375
 40
5.644444443033334
 40
5.644444443033334
 40
5.644444443033334
 40
5.997222220722917
 40
5.997222220722917
 40
5.997222220722917
 40
6.349999998412501
 40
6.349999998412501
 40
6.349999998412501
 40
6.702777776102083
 40
6.702777776102083
 40
6.702777776102083
 40
7.055555553791667
 40
7.055555553791667
 40
7.055555553791667
 40
7.40833333148125
 40
7.40833333148125
 40
7.40833333148125
 40
7.761111109170834
 40
7.761111109170834
 40
7.761111109170834
 40
8.113888886860417
 40
8.113888886860417
 40
8.113888886860417
 40
8.46666666455
 40
8.46666666455
 40
8.46666666455
 40
8.819444442239584
 40
8.819444442239584
 40
8.819444442239584
 40
9.172222219929168
 40
9.172222219929168
 40
9.172222219929168
 40
9.52499999761875
 40
9.52499999761875
 40
9.52499999761875
 40
9.877777775308333
 40
9.877777775308333
 40
9.877777775308333
 40
10.23055555299792
 40
10.23055555299792
 40
10.23055555299792
 40
10.5833333306875
 40
10.5833333306875
 40
10.5833333306875
 40
10.93611110837708
 40
10.93611110837708
 40
10.93611110837708
 40
11.28888888606667
 40
11.28888888606667
 40
11.28888888606667
 40
11.64166666375625
 40
11.64166666375625
 40
11.64166666375625
 40
11.99444444144583
 40
11.99444444144583
 40
11.99444444144583
 40
12.34722221913542
 40
12.34722221913542
 40
12.34722221913542
 40
12.699999996825
 40
12.699999996825
 40
12.699999996825
 40
13.05277777451458
 40
13.05277777451458
 40
13.05277777451458
 40
13.40555555220417
 40
13.40555555220417
 40
13.40555555220417
 40
13.75833332989375
 40
13.75833332989375
 40
13.75833332989375
 40
14.11111110758333
 40
14.11111110758333
 40
14.11111110758333
 40
14.46388888527292
 40
14.46388888527292
 40
14.46388888527292
 40
14.8166666629625
 40
14.8166666629625
 40
14.8166666629625
 40
15.16944444065208
 40
15.16944444065208
 40
15.16944444065208
 40
15.52222221834167
 40
15.52222221834167
 40
15.52222221834167
 40
15.87499999603125
 40
15.87499999603125
 40
15.87499999603125
 40
16.22777777372083
 40
16.22777777372083
 40
16.22777777372083
 40
16.58055555141042
 40
16.58055555141042
 40
16.58055555141042
 40
16.9333333291
 40
16.9333333291
 40
16.9333333291
 40
17.28611110678958
 40
17.28611110678958
 40
17.28611110678958
 40
17.63888888447917
 40
17.63888888447917
 40
17.63888888447917
 40
17.99166666216875
 40
17.99166666216875
 40
17.99166666216875
 40
17.99166666216875
 10
46.79558297281189
 20
-105.4793560847414
 10
46.79558297281189
 20
-105.4793560847414
 10
46.79558297281189
 20
-114.289134415872
 10
46.79558297281189
 20
-114.289134415872
 10
46.79558297281189
 20
-114.289134415872
 10
51.35484757871757
 20
-114.289134415872
 10
51.35484757871757
 20
-114.289134415872
 10
51.35484757871757
 20
-114.289134415872
 10
51.70208673652543
 20
-115.5390260822264
 10
51.70208673652543
 20
-115.5390260822264
 10
51.70208673652543
 20
-115.5390260822264
 10
51.75514451294959
 20
-115.6658144155281
 10
51.89847812040396
 20
-115.6789024710803
 10
51.89847812040396
 20
-115.6789024710803
 10
58.1774990713239
 20
-116.2307880264979
 10
58.1774990713239
 20
-116.2307880264979
 10
58.1774990713239
 20
-116.2307880264979
 10
58.39315212137769
 20
-116.2135724709465
 10
58.39315212137769
 20
-116.0316802487698
 10
58.39315212137769
 20
-116.0316802487698
 10
58.39315212137769
 20
-114.289134415872
 10
58.39315212137769
 20
-114.289134415872
 10
58.39315212137769
 20
-114.289134415872
 10
132.6127616167666
 20
-114.289134415872
 10
132.6127616167666
 20
-114.289134415872
 10
132.6127616167666
 20
-114.289134415872
 10
132.9999704957769
 20
-114.2953433047594
 10
133.0867891046731
 20
-113.9205169159642
 10
133.1708560469729
 20
-113.5443146938361
 10
132.964163552246
 20
-113.4347771938637
 10
132.964163552246
 20
-113.4347771938637
 10
132.964163552246
 20
-113.4347771938637
 10
126.0064334519747
 20
-106.6706513622211
 10
126.0064334519747
 20
-106.6706513622211
 10
126.0064334519747
 20
-106.6706513622211
 10
125.8645109555955
 20
-106.5287288622567
 10
125.6612404052258
 20
-106.5287288622567
 10
125.6612404052258
 20
-106.5287288622567
 10
121.8605891132996
 20
-106.5287288622567
 10
121.8605891132996
 20
-106.5287288622567
 10
121.6077180086398
 20
-106.5287288622567
 10
121.361761348248
 20
-106.7953935844123
 10
121.361761348248
 20
-107.0323896954642
 10
121.361761348248
 20
-107.0323896954642
 10
121.361761348248
 20
-107.531252750895
 10
121.361761348248
 20
-107.531252750895
 10
121.361761348248
 20
-107.531252750895
 10
120.3592374849356
 20
-107.531252750895
 10
120.3592374849356
 20
-107.531252750895
 10
120.3592374849356
 20
-107.531252750895
 10
120.3592374849356
 20
-106.5466499733633
 10
120.3592374849356
 20
-106.5466499733633
 10
120.3592374849356
 20
-106.1862874734535
 10
120.6789277476082
 20
-105.5262049736184
 10
121.361761348248
 20
-105.5262049736184
 10
121.361761348248
 20
-105.5262049736184
 10
125.8589723446257
 20
-105.5262049736184
 10
125.8589723446257
 20
-105.5262049736184
 10
126.0905003942744
 20
-105.5262049736184
 10
126.3867631644939
 20
-105.6433271958114
 10
126.5480178826022
 20
-105.799748862439
 10
126.5480178826022
 20
-105.799748862439
 10
135.2833951597442
 20
-114.289134415872
 10
135.2833951597442
 20
-114.289134415872
 10
135.2833951597442
 20
-114.289134415872
 10
135.2833951597442
 20
-115.5962113599897
 10
135.2833951597442
 20
-115.5962113599897
 10
135.2833951597442
 20
-115.5962113599897
 10
59.89866652741326
 20
-115.5962113599897
 10
59.89866652741326
 20
-115.5962113599897
 10
59.89866652741326
 20
-115.5962113599897
 10
59.89866652741326
 20
-116.8764066374477
 10
59.89866652741326
 20
-116.8764066374477
 10
59.89866652741326
 20
-117.4241999706439
 10
59.54243153650157
 20
-117.8596335816462
 10
59.02635293855673
 20
-117.8162419149905
 10
59.02635293855673
 20
-117.8162419149905
 10
50.8676967578125
 20
-117.1023960818355
 10
50.8676967578125
 20
-117.1023960818355
 10
50.80363231500247
 20
-117.1023960818355
 10
50.55626454353557
 20
-117.0231621929663
 10
50.51491898903483
 20
-116.8764066374477
 10
50.51491898903483
 20
-116.8764066374477
 10
50.21724510774023
 20
-115.7946488599401
 10
50.21724510774023
 20
-115.7946488599401
 10
50.21724510774023
 20
-115.7946488599401
 10
46.79558297281189
 20
-115.7946488599401
 10
46.79558297281189
 20
-115.7946488599401
 10
46.79558297281189
 20
-115.7946488599401
 10
46.79558297281189
 20
-124.6581905243909
 10
46.79558297281189
 20
-124.6581905243909
 10
46.61160936639433
 20
-124.6581905243909
 10
46.49723881375661
 20
-124.8277002465709
 10
46.49723881375661
 20
-124.9565346909832
 10
46.49723881375661
 20
-125.0846988576179
 10
46.6867157533671
 20
-125.2569602464637
 10
46.79558297281189
 20
-125.2569602464637
 10
46.79558297281189
 20
-125.2569602464637
 10
46.79558297281189
 20
-130.4657594118277
 10
46.79558297281189
 20
-130.4657594118277
 10
46.79558297281189
 20
-130.4657594118277
 10
48.99839791661339
 20
-130.4657594118277
 10
48.99839791661339
 20
-130.4657594118277
 10
49.80177872945077
 20
-130.4657594118277
 10
50.8050081483007
 20
-130.8282033006263
 10
51.15020119504965
 20
-131.2402124671901
 10
51.32934174603495
 20
-131.4676130226887
 10
51.29762702462184
 20
-131.659841633752
 10
51.15020119504965
 20
-131.8575735781469
 10
51.00411592099882
 20
-132.0546352447643
 10
50.76158120496417
 20
-132.0387955225458
 10
50.54247220958676
 20
-131.9464735781248
 10
50.54247220958676
 20
-131.9464735781248
 10
49.94440678136758
 20
-131.4676130226887
 10
48.99839791661339
 20
-131.4676130226887
 10
48.05789238505213
 20
-131.4676130226887
 10
47.53077184294454
 20
-131.8989191336916
 10
47.22621879515878
 20
-132.1979688558392
 10
46.82038324995695
 20
-132.5962196890735
 10
46.49723881375661
 20
-133.349294411107
 10
46.49723881375661
 20
-133.9714885776179
 10
46.49723881375661
 20
-134.5936827441295
 10
46.49723881375661
 20
-135.4735457994651
 10
46.49723881375661
 20
-135.4735457994651
 10
46.49723881375661
 20
-135.7078255216287
 10
46.81420963900334
 20
-135.9751605215617
 10
46.99472602328688
 20
-135.9751605215617
 10
46.99472602328688
 20
-135.9751605215617
 10
48.54225626158387
 20
-135.9751605215617
 10
48.54225626158387
 20
-135.9751605215617
 10
48.54225626158387
 20
-135.9751605215617
 10
48.54225626158387
 20
-134.7328535774282
 10
48.54225626158387
 20
-134.7328535774282
 10
48.54225626158387
 20
-134.6529494107812
 10
48.60632070439389
 20
-134.570258299691
 10
48.7227726458674
 20
-134.5433766330306
 10
48.89020097492929
 20
-134.5047827441516
 10
49.53306790297282
 20
-134.4648482997172
 10
49.85966956130719
 20
-134.7328535774282
 10
50.21795066327779
 20
-135.0249888551325
 10
50.34265760454069
 20
-135.2951107995094
 10
50.34265760454069
 20
-135.8235719104883
 10
50.34265760454069
 20
-136.2576649659358
 10
49.98850400246479
 20
-136.6965557991594
 10
49.69361706554354
 20
-136.8254255213492
 10
49.4352073499139
 20
-136.9377146879881
 10
49.07555041464507
 20
-136.9728513546458
 10
49.07555041464507
 20
-136.9728513546458
 10
49.07555041464507
 20
-136.9728513546458
 10
45.29490276645421
 20
-136.9728513546458
 10
45.29490276645421
 20
-136.9728513546458
 10
45.29490276645421
 20
-136.9728513546458
 10
45.29490276645421
 20
-105.4793560847414
 10
45.29490276645421
 20
-105.4793560847414
 97
        0
 72
     1
 10
45.29490276645421
 20
-105.4793560847414
 11
46.79558297281189
 21
-105.4793560847414
 97
        0
 75
     2
 76
     1
 98
        0
  0
SPLINE
  5
A7
330
1F
100
AcDbEntity
  8
_U+30EC_U+30A4_U+30E4_U+30FC 1
370
     0
100
AcDbSpline
210
0.0
220
0.0
230
1.0
 70
    11
 71
     3
 72
    80
 73
    76
 74
     0
 42
0.0000000001
 43
0.0000000001
 12
1.0
 22
0.0
 32
0.0
 13
1.0
 23
0.0
 33
0.0
 40
0.0
 40
0.0
 40
0.0
 40
0.0
 40
1.0
 40
1.0
 40
1.0
 40
2.0
 40
2.0
 40
2.0
 40
3.0
 40
3.0
 40
3.0
 40
4.0
 40
4.0
 40
4.0
 40
5.0
 40
5.0
 40
5.0
 40
6.0
 40
6.0
 40
6.0
 40
7.0
 40
7.0
 40
7.0
 40
8.0
 40
8.0
 40
8.0
 40
9.0
 40
9.0
 40
9.0
 40
10.0
 40
10.0
 40
10.0
 40
11.0
 40
11.0
 40
11.0
 40
12.0
 40
12.0
 40
12.0
 40
13.0
 40
13.0
 40
13.0
 40
14.0
 40
14.0
 40
14.0
 40
15.0
 40
15.0
 40
15.0
 40
16.0
 40
16.0
 40
16.0
 40
17.0
 40
17.0
 40
17.0
 40
18.0
 40
18.0
 40
18.0
 40
19.0
 40
19.0
 40
19.0
 40
20.0
 40
20.0
 40
20.0
 40
21.0
 40
21.0
 40
21.0
 40
22.0
 40
22.0
 40
22.0
 40
23.0
 40
23.0
 40
23.0
 40
24.0
 40
24.0
 40
24.0
 40
25.0
 40
25.0
 40
25.0
 40
25.0
 10
59.3846693183042
 20
-135.7994771882724
 30
0.0
 10
59.3846693183042
 20
-135.7994771882724
 30
0.0
 10
59.3846693183042
 20
-119.649028303421
 30
0.0
 10
59.3846693183042
 20
-119.649028303421
 30
0.0
 10
59.3846693183042
 20
-119.649028303421
 30
0.0
 10
47.08979963197246
 20
-117.4813852484075
 30
0.0
 10
47.08979963197246
 20
-117.4813852484075
 30
0.0
 10
47.08979963197246
 20
-117.4813852484075
 30
0.0
 10
47.08979963197246
 20
-117.0775958040638
 30
0.0
 10
47.08979963197246
 20
-117.0775958040638
 30
0.0
 10
47.08979963197246
 20
-116.9983619151949
 30
0.0
 10
47.15248824148425
 20
-116.8819099707795
 30
0.0
 10
47.22142221041679
 20
-116.8729846930039
 30
0.0
 10
47.22142221041679
 20
-116.8729846930039
 30
0.0
 10
49.53031623637636
 20
-116.6104474708473
 30
0.0
 10
49.53031623637636
 20
-116.6104474708473
 30
0.0
 10
49.57645956853248
 20
-116.6084013597367
 30
0.0
 10
49.63918345582115
 20
-116.6097771930699
 30
0.0
 10
49.67774206594854
 20
-116.6152805264018
 30
0.0
 10
49.67774206594854
 20
-116.6152805264018
 30
0.0
 10
50.43843676876383
 20
-116.7448205263693
 30
0.0
 10
50.43843676876383
 20
-116.7448205263693
 30
0.0
 10
50.52938287755471
 20
-116.765493304142
 30
0.0
 10
50.67889009596269
 20
-116.8839913596679
 30
0.0
 10
50.67889009596269
 20
-117.0955169151704
 30
0.0
 10
50.67889009596269
 20
-117.0955169151704
 30
0.0
 10
60.58563067655401
 20
-118.8463177480662
 30
0.0
 10
60.58563067655401
 20
-118.8463177480662
 30
0.0
 10
60.58563067655401
 20
-118.8463177480662
 30
0.0
 10
60.58563067655401
 20
-137.0011088546385
 30
0.0
 10
60.58563067655401
 20
-137.0011088546385
 30
0.0
 10
60.58563067655401
 20
-137.0011088546385
 30
0.0
 10
51.57050062877136
 20
-137.0011088546385
 30
0.0
 10
51.57050062877136
 20
-137.0011088546385
 30
0.0
 10
51.08059814126982
 20
-137.0011088546385
 30
0.0
 10
50.56864704321967
 20
-136.5746005214121
 30
0.0
 10
50.56864704321967
 20
-135.9730791326733
 30
0.0
 10
50.56864704321967
 20
-135.9730791326733
 30
0.0
 10
50.56864704321967
 20
-134.0155857998291
 30
0.0
 10
50.56864704321967
 20
-134.0155857998291
 30
0.0
 10
50.56864704321967
 20
-133.3121116333384
 30
0.0
 10
50.01263400184919
 20
-132.5197374668703
 30
0.0
 10
48.95292486221796
 20
-132.5197374668703
 30
0.0
 10
47.89321572258672
 20
-132.5197374668703
 30
0.0
 10
47.5920846191581
 20
-133.6972744110199
 30
0.0
 10
47.5920846191581
 20
-134.0555555220417
 30
0.0
 10
47.5920846191581
 20
-134.4145421886183
 30
0.0
 10
47.68923961667947
 20
-134.6680835774443
 30
0.0
 10
47.79122766963309
 20
-134.774199132973
 30
0.0
 10
47.89459155588495
 20
-134.8789388551694
 30
0.0
 10
48.06614738484153
 20
-134.8506813551761
 30
0.0
 10
48.21360849219059
 20
-134.9815971884768
 30
0.0
 10
48.32864932258899
 20
-135.0835852440069
 30
0.0
 10
48.38033126571492
 20
-135.3205813550587
 30
0.0
 10
48.38033126571492
 20
-135.395687743929
 30
0.0
 10
48.38033126571492
 20
-135.4701238550213
 30
0.0
 10
48.35207498791188
 20
-135.9689516326746
 30
0.0
 10
47.79948266942249
 20
-135.9689516326746
 30
0.0
 10
47.37367990250785
 20
-135.9689516326746
 30
0.0
 10
46.98506109936474
 20
-135.5080121883454
 30
0.0
 10
46.9127416549384
 20
-135.3536719106062
 30
0.0
 10
46.781119084292
 20
-135.0670399662335
 30
0.0
 10
46.59852131117268
 20
-134.7493988552016
 30
0.0
 10
46.59852131117268
 20
-133.7875149665532
 30
0.0
 10
46.59852131117268
 20
-132.9737977445344
 30
0.0
 10
47.36404906942022
 20
-131.4965408004593
 30
0.0
 10
49.01078041629749
 20
-131.4965408004593
 30
0.0
 10
50.65754704095164
 20
-131.4965408004593
 30
0.0
 10
51.57050062877136
 20
-132.8063694112431
 30
0.0
 10
51.57050062877136
 20
-133.9949130220571
 30
0.0
 10
51.57050062877136
 20
-133.9949130220571
 30
0.0
 10
51.57050062877136
 20
-135.7994771882724
 30
0.0
 10
51.57050062877136
 20
-135.7994771882724
 30
0.0
 10
51.57050062877136
 20
-135.7994771882724
 30
0.0
 10
59.3846693183042
 20
-135.7994771882724
 30
0.0
 10
59.3846693183042
 20
-135.7994771882724
 30
0.0
  0
HATCH
  5
A8
330
1F
100
AcDbEntity
  8
_U+30EC_U+30A4_U+30E4_U+30FC 1
 62
     9
420
 13224394
100
AcDbHatch
 10
0.0
 20
0.0
 30
0.0
210
0.0
220
0.0
230
1.0
  2
SOLID
 70
     1
 71
     0
 91
        1
 92
        1
 93
        2
 72
     4
 94
        3
 73
     0
 74
     0
 95
       80
 96
       76
 40
0.0
 40
0.0
 40
0.0
 40
0.0
 40
0.3527777776895833
 40
0.3527777776895833
 40
0.3527777776895833
 40
0.7055555553791667
 40
0.7055555553791667
 40
0.7055555553791667
 40
1.05833333306875
 40
1.05833333306875
 40
1.05833333306875
 40
1.411111110758333
 40
1.411111110758333
 40
1.411111110758333
 40
1.763888888447917
 40
1.763888888447917
 40
1.763888888447917
 40
2.1166666661375
 40
2.1166666661375
 40
2.1166666661375
 40
2.469444443827083
 40
2.469444443827083
 40
2.469444443827083
 40
2.822222221516667
 40
2.822222221516667
 40
2.822222221516667
 40
3.17499999920625
 40
3.17499999920625
 40
3.17499999920625
 40
3.527777776895833
 40
3.527777776895833
 40
3.527777776895833
 40
3.880555554585417
 40
3.880555554585417
 40
3.880555554585417
 40
4.233333332275
 40
4.233333332275
 40
4.233333332275
 40
4.586111109964584
 40
4.586111109964584
 40
4.586111109964584
 40
4.938888887654167
 40
4.938888887654167
 40
4.938888887654167
 40
5.29166666534375
 40
5.29166666534375
 40
5.29166666534375
 40
5.644444443033334
 40
5.644444443033334
 40
5.644444443033334
 40
5.997222220722917
 40
5.997222220722917
 40
5.997222220722917
 40
6.349999998412501
 40
6.349999998412501
 40
6.349999998412501
 40
6.702777776102083
 40
6.702777776102083
 40
6.702777776102083
 40
7.055555553791667
 40
7.055555553791667
 40
7.055555553791667
 40
7.40833333148125
 40
7.40833333148125
 40
7.40833333148125
 40
7.761111109170834
 40
7.761111109170834
 40
7.761111109170834
 40
8.113888886860417
 40
8.113888886860417
 40
8.113888886860417
 40
8.46666666455
 40
8.46666666455
 40
8.46666666455
 40
8.819444442239584
 40
8.819444442239584
 40
8.819444442239584
 40
8.819444442239584
 10
59.3846693183042
 20
-135.7994771882724
 10
59.3846693183042
 20
-135.7994771882724
 10
59.3846693183042
 20
-119.649028303421
 10
59.3846693183042
 20
-119.649028303421
 10
59.3846693183042
 20
-119.649028303421
 10
47.08979963197246
 20
-117.4813852484075
 10
47.08979963197246
 20
-117.4813852484075
 10
47.08979963197246
 20
-117.4813852484075
 10
47.08979963197246
 20
-117.0775958040638
 10
47.08979963197246
 20
-117.0775958040638
 10
47.08979963197246
 20
-116.9983619151949
 10
47.15248824148425
 20
-116.8819099707795
 10
47.22142221041679
 20
-116.8729846930039
 10
47.22142221041679
 20
-116.8729846930039
 10
49.53031623637636
 20
-116.6104474708473
 10
49.53031623637636
 20
-116.6104474708473
 10
49.57645956853248
 20
-116.6084013597367
 10
49.63918345582115
 20
-116.6097771930699
 10
49.67774206594854
 20
-116.6152805264018
 10
49.67774206594854
 20
-116.6152805264018
 10
50.43843676876383
 20
-116.7448205263693
 10
50.43843676876383
 20
-116.7448205263693
 10
50.52938287755471
 20
-116.765493304142
 10
50.67889009596269
 20
-116.8839913596679
 10
50.67889009596269
 20
-117.0955169151704
 10
50.67889009596269
 20
-117.0955169151704
 10
60.58563067655401
 20
-118.8463177480662
 10
60.58563067655401
 20
-118.8463177480662
 10
60.58563067655401
 20
-118.8463177480662
 10
60.58563067655401
 20
-137.0011088546385
 10
60.58563067655401
 20
-137.0011088546385
 10
60.58563067655401
 20
-137.0011088546385
 10
51.57050062877136
 20
-137.0011088546385
 10
51.57050062877136
 20
-137.0011088546385
 10
51.08059814126982
 20
-137.0011088546385
 10
50.56864704321967
 20
-136.5746005214121
 10
50.56864704321967
 20
-135.9730791326733
 10
50.56864704321967
 20
-135.9730791326733
 10
50.56864704321967
 20
-134.0155857998291
 10
50.56864704321967
 20
-134.0155857998291
 10
50.56864704321967
 20
-133.3121116333384
 10
50.01263400184919
 20
-132.5197374668703
 10
48.95292486221796
 20
-132.5197374668703
 10
47.89321572258672
 20
-132.5197374668703
 10
47.5920846191581
 20
-133.6972744110199
 10
47.5920846191581
 20
-134.0555555220417
 10
47.5920846191581
 20
-134.4145421886183
 10
47.68923961667947
 20
-134.6680835774443
 10
47.79122766963309
 20
-134.774199132973
 10
47.89459155588495
 20
-134.8789388551694
 10
48.06614738484153
 20
-134.8506813551761
 10
48.21360849219059
 20
-134.9815971884768
 10
48.32864932258899
 20
-135.0835852440069
 10
48.38033126571492
 20
-135.3205813550587
 10
48.38033126571492
 20
-135.395687743929
 10
48.38033126571492
 20
-135.4701238550213
 10
48.35207498791188
 20
-135.9689516326746
 10
47.79948266942249
 20
-135.9689516326746
 10
47.37367990250785
 20
-135.9689516326746
 10
46.98506109936474
 20
-135.5080121883454
 10
46.9127416549384
 20
-135.3536719106062
 10
46.781119084292
 20
-135.0670399662335
 10
46.59852131117268
 20
-134.7493988552016
 10
46.59852131117268
 20
-133.7875149665532
 10
46.59852131117268
 20
-132.9737977445344
 10
47.36404906942022
 20
-131.4965408004593
 10
49.01078041629749
 20
-131.4965408004593
 10
50.65754704095164
 20
-131.4965408004593
 10
51.57050062877136
 20
-132.8063694112431
 10
51.57050062877136
 20
-133.9949130220571
 10
51.57050062877136
 20
-133.9949130220571
 10
51.57050062877136
 20
-135.7994771882724
 10
51.57050062877136
 20
-135.7994771882724
 10
51.57050062877136
 20
-135.7994771882724
 10
59.3846693183042
 20
-135.7994771882724
 10
59.3846693183042
 20
-135.7994771882724
 97
        0
 72
     1
 10
59.3846693183042
 20
-135.7994771882724
 11
59.3846693183042
 21
-135.7994771882724
 97
        0
 75
     2
 76
     1
 98
        0
  0
SPLINE
  5
A9
330
1F
100
AcDbEntity
  8
_U+30EC_U+30A4_U+30E4_U+30FC 1
 62
   179
420
  2234388
370
    25
100
AcDbSpline
210
0.0
220
0.0
230
1.0
 70
    11
 71
     3
 72
   161
 73
   157
 74
     0
 42
0.0000000001
 43
0.0000000001
 12
1.0
 22
0.0
 32
0.0
 13
1.0
 23
0.0
 33
0.0
 40
0.0
 40
0.0
 40
0.0
 40
0.0
 40
1.0
 40
1.0
 40
1.0
 40
2.0
 40
2.0
 40
2.0
 40
3.0
 40
3.0
 40
3.0
 40
4.0
 40
4.0
 40
4.0
 40
5.0
 40
5.0
 40
5.0
 40
6.0
 40
6.0
 40
6.0
 40
7.0
 40
7.0
 40
7.0
 40
8.0
 40
8.0
 40
8.0
 40
9.0
 40
9.0
 40
9.0
 40
10.0
 40
10.0
 40
10.0
 40
11.0
 40
11.0
 40
11.0
 40
12.0
 40
12.0
 40
12.0
 40
13.0
 40
13.0
 40
13.0
 40
14.0
 40
14.0
 40
14.0
 40
15.0
 40
15.0
 40
15.0
 40
16.0
 40
16.0
 40
16.0
 40
17.0
 40
17.0
 40
17.0
 40
18.0
 40
18.0
 40
18.0
 40
19.0
 40
19.0
 40
19.0
 40
20.0
 40
20.0
 40
20.0
 40
21.0
 40
21.0
 40
21.0
 40
22.0
 40
22.0
 40
22.0
 40
23.0
 40
23.0
 40
23.0
 40
24.0
 40
24.0
 40
24.0
 40
25.0
 40
25.0
 40
25.0
 40
26.0
 40
26.0
 40
26.0
 40
27.0
 40
27.0
 40
27.0
 40
28.0
 40
28.0
 40
28.0
 40
29.0
 40
29.0
 40
29.0
 40
30.0
 40
30.0
 40
30.0
 40
31.0
 40
31.0
 40
31.0
 40
32.0
 40
32.0
 40
32.0
 40
33.0
 40
33.0
 40
33.0
 40
34.0
 40
34.0
 40
34.0
 40
35.0
 40
35.0
 40
35.0
 40
36.0
 40
36.0
 40
36.0
 40
37.0
 40
37.0
 40
37.0
 40
38.0
 40
38.0
 40
38.0
 40
39.0
 40
39.0
 40
39.0
 40
40.0
 40
40.0
 40
40.0
 40
41.0
 40
41.0
 40
41.0
 40
42.0
 40
42.0
 40
42.0
 40
43.0
 40
43.0
 40
43.0
 40
44.0
 40
44.0
 40
44.0
 40
45.0
 40
45.0
 40
45.0
 40
46.0
 40
46.0
 40
46.0
 40
47.0
 40
47.0
 40
47.0
 40
48.0
 40
48.0
 40
48.0
 40
49.0
 40
49.0
 40
49.0
 40
50.0
 40
50.0
 40
50.0
 40
51.0
 40
51.0
 40
51.0
 40
52.0
 40
52.0
 40
52.0
 40
52.0
 10
45.29490276645421
 20
-105.4793560847414
 30
0.0
 10
45.29490276645421
 20
-105.4793560847414
 30
0.0
 10
45.29490276645421
 20
-136.9728513546458
 30
0.0
 10
45.29490276645421
 20
-136.9728513546458
 30
0.0
 10
45.29490276645421
 20
-136.9728513546458
 30
0.0
 10
49.07555041464507
 20
-136.9728513546458
 30
0.0
 10
49.07555041464507
 20
-136.9728513546458
 30
0.0
 10
49.07555041464507
 20
-136.9728513546458
 30
0.0
 10
49.4352073499139
 20
-136.9377146879881
 30
0.0
 10
49.69361706554354
 20
-136.8254255213492
 30
0.0
 10
49.98850400246479
 20
-136.6965557991594
 30
0.0
 10
50.34265760454069
 20
-136.2576649659358
 30
0.0
 10
50.34265760454069
 20
-135.8235719104883
 30
0.0
 10
50.34265760454069
 20
-135.2951107995094
 30
0.0
 10
50.21795066327779
 20
-135.0249888551325
 30
0.0
 10
49.85966956130719
 20
-134.7328535774282
 30
0.0
 10
49.53306790297282
 20
-134.4648482997172
 30
0.0
 10
48.89020097492929
 20
-134.5047827441516
 30
0.0
 10
48.7227726458674
 20
-134.5433766330306
 30
0.0
 10
48.60632070439389
 20
-134.570258299691
 30
0.0
 10
48.54225626158387
 20
-134.6529494107812
 30
0.0
 10
48.54225626158387
 20
-134.7328535774282
 30
0.0
 10
48.54225626158387
 20
-134.7328535774282
 30
0.0
 10
48.54225626158387
 20
-135.9751605215617
 30
0.0
 10
48.54225626158387
 20
-135.9751605215617
 30
0.0
 10
48.54225626158387
 20
-135.9751605215617
 30
0.0
 10
46.99472602328688
 20
-135.9751605215617
 30
0.0
 10
46.99472602328688
 20
-135.9751605215617
 30
0.0
 10
46.81420963900334
 20
-135.9751605215617
 30
0.0
 10
46.49723881375661
 20
-135.7078255216287
 30
0.0
 10
46.49723881375661
 20
-135.4735457994651
 30
0.0
 10
46.49723881375661
 20
-135.4735457994651
 30
0.0
 10
46.49723881375661
 20
-134.5936827441295
 30
0.0
 10
46.49723881375661
 20
-133.9714885776179
 30
0.0
 10
46.49723881375661
 20
-133.349294411107
 30
0.0
 10
46.82038324995695
 20
-132.5962196890735
 30
0.0
 10
47.22621879515878
 20
-132.1979688558392
 30
0.0
 10
47.53077184294454
 20
-131.8989191336916
 30
0.0
 10
48.05789238505213
 20
-131.4676130226887
 30
0.0
 10
48.99839791661339
 20
-131.4676130226887
 30
0.0
 10
49.94440678136758
 20
-131.4676130226887
 30
0.0
 10
50.54247220958676
 20
-131.9464735781248
 30
0.0
 10
50.54247220958676
 20
-131.9464735781248
 30
0.0
 10
50.76158120496417
 20
-132.0387955225458
 30
0.0
 10
51.00411592099882
 20
-132.0546352447643
 30
0.0
 10
51.15020119504965
 20
-131.8575735781469
 30
0.0
 10
51.29762702462184
 20
-131.659841633752
 30
0.0
 10
51.32934174603495
 20
-131.4676130226887
 30
0.0
 10
51.15020119504965
 20
-131.2402124671901
 30
0.0
 10
50.8050081483007
 20
-130.8282033006263
 30
0.0
 10
49.80177872945077
 20
-130.4657594118277
 30
0.0
 10
48.99839791661339
 20
-130.4657594118277
 30
0.0
 10
48.99839791661339
 20
-130.4657594118277
 30
0.0
 10
46.79558297281189
 20
-130.4657594118277
 30
0.0
 10
46.79558297281189
 20
-130.4657594118277
 30
0.0
 10
46.79558297281189
 20
-130.4657594118277
 30
0.0
 10
46.79558297281189
 20
-125.2569602464637
 30
0.0
 10
46.79558297281189
 20
-125.2569602464637
 30
0.0
 10
46.6867157533671
 20
-125.2569602464637
 30
0.0
 10
46.49723881375661
 20
-125.0846988576179
 30
0.0
 10
46.49723881375661
 20
-124.9565346909832
 30
0.0
 10
46.49723881375661
 20
-124.8277002465709
 30
0.0
 10
46.61160936639433
 20
-124.6581905243909
 30
0.0
 10
46.79558297281189
 20
-124.6581905243909
 30
0.0
 10
46.79558297281189
 20
-124.6581905243909
 30
0.0
 10
46.79558297281189
 20
-115.7946488599401
 30
0.0
 10
46.79558297281189
 20
-115.7946488599401
 30
0.0
 10
46.79558297281189
 20
-115.7946488599401
 30
0.0
 10
50.21724510774023
 20
-115.7946488599401
 30
0.0
 10
50.21724510774023
 20
-115.7946488599401
 30
0.0
 10
50.21724510774023
 20
-115.7946488599401
 30
0.0
 10
50.51491898903483
 20
-116.8764066374477
 30
0.0
 10
50.51491898903483
 20
-116.8764066374477
 30
0.0
 10
50.55626454353557
 20
-117.0231621929663
 30
0.0
 10
50.80363231500247
 20
-117.1023960818355
 30
0.0
 10
50.8676967578125
 20
-117.1023960818355
 30
0.0
 10
50.8676967578125
 20
-117.1023960818355
 30
0.0
 10
59.02635293855673
 20
-117.8162419149905
 30
0.0
 10
59.02635293855673
 20
-117.8162419149905
 30
0.0
 10
59.54243153650157
 20
-117.8596335816462
 30
0.0
 10
59.89866652741326
 20
-117.4241999706439
 30
0.0
 10
59.89866652741326
 20
-116.8764066374477
 30
0.0
 10
59.89866652741326
 20
-116.8764066374477
 30
0.0
 10
59.89866652741326
 20
-115.5962113599897
 30
0.0
 10
59.89866652741326
 20
-115.5962113599897
 30
0.0
 10
59.89866652741326
 20
-115.5962113599897
 30
0.0
 10
135.2833951597442
 20
-115.5962113599897
 30
0.0
 10
135.2833951597442
 20
-115.5962113599897
 30
0.0
 10
135.2833951597442
 20
-115.5962113599897
 30
0.0
 10
135.2833951597442
 20
-114.289134415872
 30
0.0
 10
135.2833951597442
 20
-114.289134415872
 30
0.0
 10
135.2833951597442
 20
-114.289134415872
 30
0.0
 10
126.5480178826022
 20
-105.799748862439
 30
0.0
 10
126.5480178826022
 20
-105.799748862439
 30
0.0
 10
126.3867631644939
 20
-105.6433271958114
 30
0.0
 10
126.0905003942744
 20
-105.5262049736184
 30
0.0
 10
125.8589723446257
 20
-105.5262049736184
 30
0.0
 10
125.8589723446257
 20
-105.5262049736184
 30
0.0
 10
121.361761348248
 20
-105.5262049736184
 30
0.0
 10
121.361761348248
 20
-105.5262049736184
 30
0.0
 10
120.6789277476082
 20
-105.5262049736184
 30
0.0
 10
120.3592374849356
 20
-106.1862874734535
 30
0.0
 10
120.3592374849356
 20
-106.5466499733633
 30
0.0
 10
120.3592374849356
 20
-106.5466499733633
 30
0.0
 10
120.3592374849356
 20
-107.531252750895
 30
0.0
 10
120.3592374849356
 20
-107.531252750895
 30
0.0
 10
120.3592374849356
 20
-107.531252750895
 30
0.0
 10
121.361761348248
 20
-107.531252750895
 30
0.0
 10
121.361761348248
 20
-107.531252750895
 30
0.0
 10
121.361761348248
 20
-107.531252750895
 30
0.0
 10
121.361761348248
 20
-107.0323896954642
 30
0.0
 10
121.361761348248
 20
-107.0323896954642
 30
0.0
 10
121.361761348248
 20
-106.7953935844123
 30
0.0
 10
121.6077180086398
 20
-106.5287288622567
 30
0.0
 10
121.8605891132996
 20
-106.5287288622567
 30
0.0
 10
121.8605891132996
 20
-106.5287288622567
 30
0.0
 10
125.6612404052258
 20
-106.5287288622567
 30
0.0
 10
125.6612404052258
 20
-106.5287288622567
 30
0.0
 10
125.8645109555955
 20
-106.5287288622567
 30
0.0
 10
126.0064334519747
 20
-106.6706513622211
 30
0.0
 10
126.0064334519747
 20
-106.6706513622211
 30
0.0
 10
126.0064334519747
 20
-106.6706513622211
 30
0.0
 10
132.964163552246
 20
-113.4347771938637
 30
0.0
 10
132.964163552246
 20
-113.4347771938637
 30
0.0
 10
132.964163552246
 20
-113.4347771938637
 30
0.0
 10
133.1708560469729
 20
-113.5443146938361
 30
0.0
 10
133.0867891046731
 20
-113.9205169159642
 30
0.0
 10
132.9999704957769
 20
-114.2953433047594
 30
0.0
 10
132.6127616167666
 20
-114.289134415872
 30
0.0
 10
132.6127616167666
 20
-114.289134415872
 30
0.0
 10
132.6127616167666
 20
-114.289134415872
 30
0.0
 10
58.39315212137769
 20
-114.289134415872
 30
0.0
 10
58.39315212137769
 20
-114.289134415872
 30
0.0
 10
58.39315212137769
 20
-114.289134415872
 30
0.0
 10
58.39315212137769
 20
-116.0316802487698
 30
0.0
 10
58.39315212137769
 20
-116.0316802487698
 30
0.0
 10
58.39315212137769
 20
-116.2135724709465
 30
0.0
 10
58.1774990713239
 20
-116.2307880264979
 30
0.0
 10
58.1774990713239
 20
-116.2307880264979
 30
0.0
 10
58.1774990713239
 20
-116.2307880264979
 30
0.0
 10
51.89847812040396
 20
-115.6789024710803
 30
0.0
 10
51.89847812040396
 20
-115.6789024710803
 30
0.0
 10
51.75514451294959
 20
-115.6658144155281
 30
0.0
 10
51.70208673652543
 20
-115.5390260822264
 30
0.0
 10
51.70208673652543
 20
-115.5390260822264
 30
0.0
 10
51.70208673652543
 20
-115.5390260822264
 30
0.0
 10
51.35484757871757
 20
-114.289134415872
 30
0.0
 10
51.35484757871757
 20
-114.289134415872
 30
0.0
 10
51.35484757871757
 20
-114.289134415872
 30
0.0
 10
46.79558297281189
 20
-114.289134415872
 30
0.0
 10
46.79558297281189
 20
-114.289134415872
 30
0.0
 10
46.79558297281189
 20
-114.289134415872
 30
0.0
 10
46.79558297281189
 20
-105.4793560847414
 30
0.0
 10
46.79558297281189
 20
-105.4793560847414
 30
0.0
 10
46.79558297281189
 20
-105.4793560847414
 30
0.0
 10
45.29490276645421
 20
-105.4793560847414
 30
0.0
 10
45.29490276645421
 20
-105.4793560847414
 30
0.0
  0
SPLINE
  5
AA
330
1F
100
AcDbEntity
  8
_U+30EC_U+30A4_U+30E4_U+30FC 1
 62
   179
420
  2234388
370
    25
100
AcDbSpline
210
0.0
220
0.0
230
1.0
 70
    11
 71
     3
 72
    80
 73
    76
 74
     0
 42
0.0000000001
 43
0.0000000001
 12
1.0
 22
0.0
 32
0.0
 13
1.0
 23
0.0
 33
0.0
 40
0.0
 40
0.0
 40
0.0
 40
0.0
 40
1.0
 40
1.0
 40
1.0
 40
2.0
 40
2.0
 40
2.0
 40
3.0
 40
3.0
 40
3.0
 40
4.0
 40
4.0
 40
4.0
 40
5.0
 40
5.0
 40
5.0
 40
6.0
 40
6.0
 40
6.0
 40
7.0
 40
7.0
 40
7.0
 40
8.0
 40
8.0
 40
8.0
 40
9.0
 40
9.0
 40
9.0
 40
10.0
 40
10.0
 40
10.0
 40
11.0
 40
11.0
 40
11.0
 40
12.0
 40
12.0
 40
12.0
 40
13.0
 40
13.0
 40
13.0
 40
14.0
 40
14.0
 40
14.0
 40
15.0
 40
15.0
 40
15.0
 40
16.0
 40
16.0
 40
16.0
 40
17.0
 40
17.0
 40
17.0
 40
18.0
 40
18.0
 40
18.0
 40
19.0
 40
19.0
 40
19.0
 40
20.0
 40
20.0
 40
20.0
 40
21.0
 40
21.0
 40
21.0
 40
22.0
 40
22.0
 40
22.0
 40
23.0
 40
23.0
 40
23.0
 40
24.0
 40
24.0
 40
24.0
 40
25.0
 40
25.0
 40
25.0
 40
25.0
 10
59.3846693183042
 20
-135.7994771882724
 30
0.0
 10
59.3846693183042
 20
-135.7994771882724
 30
0.0
 10
59.3846693183042
 20
-119.649028303421
 30
0.0
 10
59.3846693183042
 20
-119.649028303421
 30
0.0
 10
59.3846693183042
 20
-119.649028303421
 30
0.0
 10
47.08979963197246
 20
-117.4813852484075
 30
0.0
 10
47.08979963197246
 20
-117.4813852484075
 30
0.0
 10
47.08979963197246
 20
-117.4813852484075
 30
0.0
 10
47.08979963197246
 20
-117.0775958040638
 30
0.0
 10
47.08979963197246
 20
-117.0775958040638
 30
0.0
 10
47.08979963197246
 20
-116.9983619151949
 30
0.0
 10
47.15248824148425
 20
-116.8819099707795
 30
0.0
 10
47.22142221041679
 20
-116.8729846930039
 30
0.0
 10
47.22142221041679
 20
-116.8729846930039
 30
0.0
 10
49.53031623637636
 20
-116.6104474708473
 30
0.0
 10
49.53031623637636
 20
-116.6104474708473
 30
0.0
 10
49.57645956853248
 20
-116.6084013597367
 30
0.0
 10
49.63918345582115
 20
-116.6097771930699
 30
0.0
 10
49.67774206594854
 20
-116.6152805264018
 30
0.0
 10
49.67774206594854
 20
-116.6152805264018
 30
0.0
 10
50.43843676876383
 20
-116.7448205263693
 30
0.0
 10
50.43843676876383
 20
-116.7448205263693
 30
0.0
 10
50.52938287755471
 20
-116.765493304142
 30
0.0
 10
50.67889009596269
 20
-116.8839913596679
 30
0.0
 10
50.67889009596269
 20
-117.0955169151704
 30
0.0
 10
50.67889009596269
 20
-117.0955169151704
 30
0.0
 10
60.58563067655401
 20
-118.8463177480662
 30
0.0
 10
60.58563067655401
 20
-118.8463177480662
 30
0.0
 10
60.58563067655401
 20
-118.8463177480662
 30
0.0
 10
60.58563067655401
 20
-137.0011088546385
 30
0.0
 10
60.58563067655401
 20
-137.0011088546385
 30
0.0
 10
60.58563067655401
 20
-137.0011088546385
 30
0.0
 10
51.57050062877136
 20
-137.0011088546385
 30
0.0
 10
51.57050062877136
 20
-137.0011088546385
 30
0.0
 10
51.08059814126982
 20
-137.0011088546385
 30
0.0
 10
50.56864704321967
 20
-136.5746005214121
 30
0.0
 10
50.56864704321967
 20
-135.9730791326733
 30
0.0
 10
50.56864704321967
 20
-135.9730791326733
 30
0.0
 10
50.56864704321967
 20
-134.0155857998291
 30
0.0
 10
50.56864704321967
 20
-134.0155857998291
 30
0.0
 10
50.56864704321967
 20
-133.3121116333384
 30
0.0
 10
50.01263400184919
 20
-132.5197374668703
 30
0.0
 10
48.95292486221796
 20
-132.5197374668703
 30
0.0
 10
47.89321572258672
 20
-132.5197374668703
 30
0.0
 10
47.5920846191581
 20
-133.6972744110199
 30
0.0
 10
47.5920846191581
 20
-134.0555555220417
 30
0.0
 10
47.5920846191581
 20
-134.4145421886183
 30
0.0
 10
47.68923961667947
 20
-134.6680835774443
 30
0.0
 10
47.79122766963309
 20
-134.774199132973
 30
0.0
 10
47.89459155588495
 20
-134.8789388551694
 30
0.0
 10
48.06614738484153
 20
-134.8506813551761
 30
0.0
 10
48.21360849219059
 20
-134.9815971884768
 30
0.0
 10
48.32864932258899
 20
-135.0835852440069
 30
0.0
 10
48.38033126571492
 20
-135.3205813550587
 30
0.0
 10
48.38033126571492
 20
-135.395687743929
 30
0.0
 10
48.38033126571492
 20
-135.4701238550213
 30
0.0
 10
48.35207498791188
 20
-135.9689516326746
 30
0.0
 10
47.79948266942249
 20
-135.9689516326746
 30
0.0
 10
47.37367990250785
 20
-135.9689516326746
 30
0.0
 10
46.98506109936474
 20
-135.5080121883454
 30
0.0
 10
46.9127416549384
 20
-135.3536719106062
 30
0.0
 10
46.781119084292
 20
-135.0670399662335
 30
0.0
 10
46.59852131117268
 20
-134.7493988552016
 30
0.0
 10
46.59852131117268
 20
-133.7875149665532
 30
0.0
 10
46.59852131117268
 20
-132.9737977445344
 30
0.0
 10
47.36404906942022
 20
-131.4965408004593
 30
0.0
 10
49.01078041629749
 20
-131.4965408004593
 30
0.0
 10
50.65754704095164
 20
-131.4965408004593
 30
0.0
 10
51.57050062877136
 20
-132.8063694112431
 30
0.0
 10
51.57050062877136
 20
-133.9949130220571
 30
0.0
 10
51.57050062877136
 20
-133.9949130220571
 30
0.0
 10
51.57050062877136
 20
-135.7994771882724
 30
0.0
 10
51.57050062877136
 20
-135.7994771882724
 30
0.0
 10
51.57050062877136
 20
-135.7994771882724
 30
0.0
 10
59.3846693183042
 20
-135.7994771882724
 30
0.0
 10
59.3846693183042
 20
-135.7994771882724
 30
0.0
  0
POLYLINE
  5
AB
330
1F
100
AcDbEntity
  8
_U+30EC_U+30A4_U+30E4_U+30FC 1
 62
   179
420
  2234388
370
     9
100
AcDb2dPolyline
 66
     1
 10
0.0
 20
0.0
 30
0.0
  0
VERTEX
  5
AC
330
AB
100
AcDbEntity
  8
_U+30EC_U+30A4_U+30E4_U+30FC 1
 62
   179
420
  2234388
370
     9
100
AcDbVertex
100
AcDb2dVertex
 10
41.79418198929714
 20
-105.4729708069652
 30
0.0
  0
VERTEX
  5
AD
330
AB
100
AcDbEntity
  8
_U+30EC_U+30A4_U+30E4_U+30FC 1
 62
   179
420
  2234388
370
     9
100
AcDbVertex
100
AcDb2dVertex
 10
41.79418198929714
 20
-136.9728513546458
 30
0.0
  0
SEQEND
  5
AE
330
AB
100
AcDbEntity
  8
_U+30EC_U+30A4_U+30E4_U+30FC 1
 62
   179
420
  2234388
370
     9
  0
POLYLINE
  5
AF
330
1F
100
AcDbEntity
  8
_U+30EC_U+30A4_U+30E4_U+30FC 1
 62
   179
420
  2234388
370
     9
100
AcDb2dPolyline
 66
     1
 10
0.0
 20
0.0
 30
0.0
  0
VERTEX
  5
B0
330
AF
100
AcDbEntity
  8
_U+30EC_U+30A4_U+30E4_U+30FC 1
 62
   179
420
  2234388
370
     9
100
AcDbVertex
100
AcDb2dVertex
 10
40.79405701481246
 20
-105.4729708069652
 30
0.0
  0
VERTEX
  5
B1
330
AF
100
AcDbEntity
  8
_U+30EC_U+30A4_U+30E4_U+30FC 1
 62
   179
420
  2234388
370
     9
100
AcDbVertex
100
AcDb2dVertex
 10
44.29375359219443
 20
-105.4729708069652
 30
0.0
  0
SEQEND
  5
B2
330
AF
100
AcDbEntity
  8
_U+30EC_U+30A4_U+30E4_U+30FC 1
 62
   179
420
  2234388
370
     9
  0
POLYLINE
  5
B3
330
1F
100
AcDbEntity
  8
_U+30EC_U+30A4_U+30E4_U+30FC 1
 62
   179
420
  2234388
370
     9
100
AcDb2dPolyline
 66
     1
 10
0.0
 20
0.0
 30
0.0
  0
VERTEX
  5
B4
330
B3
100
AcDbEntity
  8
_U+30EC_U+30A4_U+30E4_U+30FC 1
 62
   179
420
  2234388
370
     9
100
AcDbVertex
100
AcDb2dVertex
 10
40.79405701481246
 20
-136.9728513546458
 30
0.0
  0
VERTEX
  5
B5
330
B3
100
AcDbEntity
  8
_U+30EC_U+30A4_U+30E4_U+30FC 1
 62
   179
420
  2234388
370
     9
100
AcDbVertex
100
AcDb2dVertex
 10
44.29375359219443
 20
-136.9728513546458
 30
0.0
  0
SEQEND
  5
B6
330
B3
100
AcDbEntity
  8
_U+30EC_U+30A4_U+30E4_U+30FC 1
 62
   179
420
  2234388
370
     9
  0
POLYLINE
  5
B7
330
1F
100
AcDbEntity
  8
_U+30EC_U+30A4_U+30E4_U+30FC 1
 62
   179
420
  2234388
370
     9
100
AcDb2dPolyline
 66
     1
 10
0.0
 20
0.0
 30
0.0
  0
VERTEX
  5
B8
330
B7
100
AcDbEntity
  8
_U+30EC_U+30A4_U+30E4_U+30FC 1
 62
   179
420
  2234388
370
     9
100
AcDbVertex
100
AcDb2dVertex
 10
140.97571140341
 20
-105.5634230291648
 30
0.0
  0
VERTEX
  5
B9
330
B7
100
AcDbEntity
  8
_U+30EC_U+30A4_U+30E4_U+30FC 1
 62
   179
420
  2234388
370
     9
100
AcDbVertex
100
AcDb2dVertex
 10
140.97571140341
 20
-115.5962113599897
 30
0.0
  0
SEQEND
  5
BA
330
B7
100
AcDbEntity
  8
_U+30EC_U+30A4_U+30E4_U+30FC 1
 62
   179
420
  2234388
370
     9
  0
POLYLINE
  5
BB
330
1F
100
AcDbEntity
  8
_U+30EC_U+30A4_U+30E4_U+30FC 1
 62
   179
420
  2234388
370
     9
100
AcDb2dPolyline
 66
     1
 10
0.0
 20
0.0
 30
0.0
  0
VERTEX
  5
BC
330
BB
100
AcDbEntity
  8
_U+30EC_U+30A4_U+30E4_U+30FC 1
 62
   179
420
  2234388
370
     9
100
AcDbVertex
100
AcDb2dVertex
 10
127.8399253496429
 20
-105.5634230291648
 30
0.0
  0
VERTEX
  5
BD
330
BB
100
AcDbEntity
  8
_U+30EC_U+30A4_U+30E4_U+30FC 1
 62
   179
420
  2234388
370
     9
100
AcDbVertex
100
AcDb2dVertex
 10
141.9758363778947
 20
-105.5634230291648
 30
0.0
  0
SEQEND
  5
BE
330
BB
100
AcDbEntity
  8
_U+30EC_U+30A4_U+30E4_U+30FC 1
 62
   179
420
  2234388
370
     9
  0
POLYLINE
  5
BF
330
1F
100
AcDbEntity
  8
_U+30EC_U+30A4_U+30E4_U+30FC 1
 62
   179
420
  2234388
370
     9
100
AcDb2dPolyline
 66
     1
 10
0.0
 20
0.0
 30
0.0
  0
VERTEX
  5
C0
330
BF
100
AcDbEntity
  8
_U+30EC_U+30A4_U+30E4_U+30FC 1
 62
   179
420
  2234388
370
     9
100
AcDbVertex
100
AcDb2dVertex
 10
136.2845431897583
 20
-115.5962113599897
 30
0.0
  0
VERTEX
  5
C1
330
BF
100
AcDbEntity
  8
_U+30EC_U+30A4_U+30E4_U+30FC 1
 62
   179
420
  2234388
370
     9
100
AcDbVertex
100
AcDb2dVertex
 10
141.9758363778947
 20
-115.5962113599897
 30
0.0
  0
SEQEND
  5
C2
330
BF
100
AcDbEntity
  8
_U+30EC_U+30A4_U+30E4_U+30FC 1
 62
   179
420
  2234388
370
     9
  0
POLYLINE
  5
C3
330
1F
100
AcDbEntity
  8
_U+30EC_U+30A4_U+30E4_U+30FC 1
 62
   179
420
  2234388
370
     9
100
AcDb2dPolyline
 66
     1
 10
0.0
 20
0.0
 30
0.0
  0
VERTEX
  5
C4
330
C3
100
AcDbEntity
  8
_U+30EC_U+30A4_U+30E4_U+30FC 1
 62
   179
420
  2234388
370
     9
100
AcDbVertex
100
AcDb2dVertex
 10
135.2947546038988
 20
-143.1450866308806
 30
0.0
  0
VERTEX
  5
C5
330
C3
100
AcDbEntity
  8
_U+30EC_U+30A4_U+30E4_U+30FC 1
 62
   179
420
  2234388
370
     9
100
AcDbVertex
100
AcDb2dVertex
 10
45.29490276645421
 20
-143.1450866308806
 30
0.0
  0
SEQEND
  5
C6
330
C3
100
AcDbEntity
  8
_U+30EC_U+30A4_U+30E4_U+30FC 1
 62
   179
420
  2234388
370
     9
  0
POLYLINE
  5
C7
330
1F
100
AcDbEntity
  8
_U+30EC_U+30A4_U+30E4_U+30FC 1
 62
   179
420
  2234388
370
     9
100
AcDb2dPolyline
 66
     1
 10
0.0
 20
0.0
 30
0.0
  0
VERTEX
  5
C8
330
C7
100
AcDbEntity
  8
_U+30EC_U+30A4_U+30E4_U+30FC 1
 62
   179
420
  2234388
370
     9
100
AcDbVertex
100
AcDb2dVertex
 10
135.29440182613
 20
-149.7500391292295
 30
0.0
  0
VERTEX
  5
C9
330
C7
100
AcDbEntity
  8
_U+30EC_U+30A4_U+30E4_U+30FC 1
 62
   179
420
  2234388
370
     9
100
AcDbVertex
100
AcDb2dVertex
 10
45.29490276645421
 20
-149.7500391292295
 30
0.0
  0
SEQEND
  5
CA
330
C7
100
AcDbEntity
  8
_U+30EC_U+30A4_U+30E4_U+30FC 1
 62
   179
420
  2234388
370
     9
  0
POLYLINE
  5
CB
330
1F
100
AcDbEntity
  8
_U+30EC_U+30A4_U+30E4_U+30FC 1
 62
   179
420
  2234388
370
     9
100
AcDb2dPolyline
 66
     1
 10
0.0
 20
0.0
 30
0.0
  0
VERTEX
  5
CC
330
CB
100
AcDbEntity
  8
_U+30EC_U+30A4_U+30E4_U+30FC 1
 62
   179
420
  2234388
370
     9
100
AcDbVertex
100
AcDb2dVertex
 10
135.29440182613
 20
-119.0902283035607
 30
0.0
  0
VERTEX
  5
CD
330
CB
100
AcDbEntity
  8
_U+30EC_U+30A4_U+30E4_U+30FC 1
 62
   179
420
  2234388
370
     9
100
AcDbVertex
100
AcDb2dVertex
 10
135.29440182613
 20
-150.7498113512014
 30
0.0
  0
SEQEND
  5
CE
330
CB
100
AcDbEntity
  8
_U+30EC_U+30A4_U+30E4_U+30FC 1
 62
   179
420
  2234388
370
     9
  0
POLYLINE
  5
CF
330
1F
100
AcDbEntity
  8
_U+30EC_U+30A4_U+30E4_U+30FC 1
 62
   179
420
  2234388
370
     9
100
AcDb2dPolyline
 66
     1
 10
0.0
 20
0.0
 30
0.0
  0
VERTEX
  5
D0
330
CF
100
AcDbEntity
  8
_U+30EC_U+30A4_U+30E4_U+30FC 1
 62
   179
420
  2234388
370
     9
100
AcDbVertex
100
AcDb2dVertex
 10
60.48501845689862
 20
-137.9739994099512
 30
0.0
  0
VERTEX
  5
D1
330
CF
100
AcDbEntity
  8
_U+30EC_U+30A4_U+30E4_U+30FC 1
 62
   179
420
  2234388
370
     9
100
AcDbVertex
100
AcDb2dVertex
 10
60.48501845689862
 20
-144.1448588528525
 30
0.0
  0
SEQEND
  5
D2
330
CF
100
AcDbEntity
  8
_U+30EC_U+30A4_U+30E4_U+30FC 1
 62
   179
420
  2234388
370
     9
  0
POLYLINE
  5
D3
330
1F
100
AcDbEntity
  8
_U+30EC_U+30A4_U+30E4_U+30FC 1
 62
   179
420
  2234388
370
     9
100
AcDb2dPolyline
 66
     1
 10
0.0
 20
0.0
 30
0.0
  0
VERTEX
  5
D4
330
D3
100
AcDbEntity
  8
_U+30EC_U+30A4_U+30E4_U+30FC 1
 62
   179
420
  2234388
370
     9
100
AcDbVertex
100
AcDb2dVertex
 10
45.29490276645421
 20
-137.9739994099512
 30
0.0
  0
VERTEX
  5
D5
330
D3
100
AcDbEntity
  8
_U+30EC_U+30A4_U+30E4_U+30FC 1
 62
   179
420
  2234388
370
     9
100
AcDbVertex
100
AcDb2dVertex
 10
45.29490276645421
 20
-150.7498113512014
 30
0.0
  0
SEQEND
  5
D6
330
D3
100
AcDbEntity
  8
_U+30EC_U+30A4_U+30E4_U+30FC 1
 62
   179
420
  2234388
370
     9
  0
POLYLINE
  5
D7
330
1F
100
AcDbEntity
  8
_U+30EC_U+30A4_U+30E4_U+30FC 1
 62
   179
420
  2234388
370
    25
100
AcDb2dPolyline
 66
     1
 10
0.0
 20
0.0
 30
0.0
  0
VERTEX
  5
D8
330
D7
100
AcDbEntity
  8
_U+30EC_U+30A4_U+30E4_U+30FC 1
 62
   179
420
  2234388
370
    25
100
AcDbVertex
100
AcDb2dVertex
 10
119.6012944487168
 20
-113.9108860826334
 30
0.0
  0
VERTEX
  5
D9
330
D7
100
AcDbEntity
  8
_U+30EC_U+30A4_U+30E4_U+30FC 1
 62
   179
420
  2234388
370
    25
100
AcDbVertex
100
AcDb2dVertex
 10
49.75422428621955
 20
-113.9108860826334
 30
0.0
  0
VERTEX
  5
DA
330
D7
100
AcDbEntity
  8
_U+30EC_U+30A4_U+30E4_U+30FC 1
 62
   179
420
  2234388
370
    25
100
AcDbVertex
100
AcDb2dVertex
 10
49.75422428621955
 20
-112.447387471888
 30
0.0
  0
VERTEX
  5
DB
330
D7
100
AcDbEntity
  8
_U+30EC_U+30A4_U+30E4_U+30FC 1
 62
   179
420
  2234388
370
    25
100
AcDbVertex
100
AcDb2dVertex
 10
119.6012944487168
 20
-112.447387471888
 30
0.0
  0
VERTEX
  5
DC
330
D7
100
AcDbEntity
  8
_U+30EC_U+30A4_U+30E4_U+30FC 1
 62
   179
420
  2234388
370
    25
100
AcDbVertex
100
AcDb2dVertex
 10
119.6012944487168
 20
-113.9108860826334
 30
0.0
  0
SEQEND
  5
DD
330
D7
100
AcDbEntity
  8
_U+30EC_U+30A4_U+30E4_U+30FC 1
 62
   179
420
  2234388
370
    25
  0
SPLINE
  5
DE
330
1F
100
AcDbEntity
  8
_U+30EC_U+30A4_U+30E4_U+30FC 1
370
     0
100
AcDbSpline
210
0.0
220
0.0
230
1.0
 70
    11
 71
     3
 72
    17
 73
    13
 74
     0
 42
0.0000000001
 43
0.0000000001
 12
1.0
 22
0.0
 32
0.0
 13
1.0
 23
0.0
 33
0.0
 40
0.0
 40
0.0
 40
0.0
 40
0.0
 40
1.0
 40
1.0
 40
1.0
 40
2.0
 40
2.0
 40
2.0
 40
3.0
 40
3.0
 40
3.0
 40
4.0
 40
4.0
 40
4.0
 40
4.0
 10
41.64361643758284
 20
-136.9714755213129
 30
0.0
 10
41.64361643758284
 20
-136.8884669102225
 30
0.0
 10
41.71113810252688
 20
-136.8212627435724
 30
0.0
 10
41.79382921152836
 20
-136.8212627435724
 30
0.0
 10
41.87687309829862
 20
-136.8212627435724
 30
0.0
 10
41.94404198547389
 20
-136.8884669102225
 30
0.0
 10
41.94404198547389
 20
-136.9714755213129
 30
0.0
 10
41.94404198547389
 20
-137.0545194101809
 30
0.0
 10
41.87687309829862
 20
-137.1216882990528
 30
0.0
 10
41.79382921152836
 20
-137.1216882990528
 30
0.0
 10
41.71113810252688
 20
-137.1216882990528
 30
0.0
 10
41.64361643758284
 20
-137.0545194101809
 30
0.0
 10
41.64361643758284
 20
-136.9714755213129
 30
0.0
  0
HATCH
  5
DF
330
1F
100
AcDbEntity
  8
_U+30EC_U+30A4_U+30E4_U+30FC 1
 62
   179
420
  2234388
100
AcDbHatch
 10
0.0
 20
0.0
 30
0.0
210
0.0
220
0.0
230
1.0
  2
SOLID
 70
     1
 71
     0
 91
        1
 92
        1
 93
        2
 72
     4
 94
        3
 73
     0
 74
     0
 95
       17
 96
       13
 40
0.0
 40
0.0
 40
0.0
 40
0.0
 40
0.3527777776895833
 40
0.3527777776895833
 40
0.3527777776895833
 40
0.7055555553791667
 40
0.7055555553791667
 40
0.7055555553791667
 40
1.05833333306875
 40
1.05833333306875
 40
1.05833333306875
 40
1.411111110758333
 40
1.411111110758333
 40
1.411111110758333
 40
1.411111110758333
 10
41.64361643758284
 20
-136.9714755213129
 10
41.64361643758284
 20
-136.8884669102225
 10
41.71113810252688
 20
-136.8212627435724
 10
41.79382921152836
 20
-136.8212627435724
 10
41.87687309829862
 20
-136.8212627435724
 10
41.94404198547389
 20
-136.8884669102225
 10
41.94404198547389
 20
-136.9714755213129
 10
41.94404198547389
 20
-137.0545194101809
 10
41.87687309829862
 20
-137.1216882990528
 10
41.79382921152836
 20
-137.1216882990528
 10
41.71113810252688
 20
-137.1216882990528
 10
41.64361643758284
 20
-137.0545194101809
 10
41.64361643758284
 20
-136.9714755213129
 97
        0
 72
     1
 10
41.64361643758284
 20
-136.9714755213129
 11
41.64361643758284
 21
-136.9714755213129
 97
        0
 75
     2
 76
     1
 98
        0
  0
SPLINE
  5
E0
330
1F
100
AcDbEntity
  8
_U+30EC_U+30A4_U+30E4_U+30FC 1
370
     0
100
AcDbSpline
210
0.0
220
0.0
230
1.0
 70
    11
 71
     3
 72
    17
 73
    13
 74
     0
 42
0.0000000001
 43
0.0000000001
 12
1.0
 22
0.0
 32
0.0
 13
1.0
 23
0.0
 33
0.0
 40
0.0
 40
0.0
 40
0.0
 40
0.0
 40
1.0
 40
1.0
 40
1.0
 40
2.0
 40
2.0
 40
2.0
 40
3.0
 40
3.0
 40
3.0
 40
4.0
 40
4.0
 40
4.0
 40
4.0
 10
41.64396921535161
 20
-105.4733235847429
 30
0.0
 10
41.64396921535161
 20
-105.3901385847636
 30
0.0
 10
41.71149088029566
 20
-105.3227580292249
 30
0.0
 10
41.79418198929714
 20
-105.3227580292249
 30
0.0
 10
41.87719165619749
 20
-105.3227580292249
 30
0.0
 10
41.94439476324267
 20
-105.3901385847636
 30
0.0
 10
41.94439476324267
 20
-105.4733235847429
 30
0.0
 10
41.94439476324267
 20
-105.5558383069443
 30
0.0
 10
41.87719165619749
 20
-105.6231835847054
 30
0.0
 10
41.79418198929714
 20
-105.6231835847054
 30
0.0
 10
41.71149088029566
 20
-105.6231835847054
 30
0.0
 10
41.64396921535161
 20
-105.5558383069443
 30
0.0
 10
41.64396921535161
 20
-105.4733235847429
 30
0.0
  0
HATCH
  5
E1
330
1F
100
AcDbEntity
  8
_U+30EC_U+30A4_U+30E4_U+30FC 1
 62
   179
420
  2234388
100
AcDbHatch
 10
0.0
 20
0.0
 30
0.0
210
0.0
220
0.0
230
1.0
  2
SOLID
 70
     1
 71
     0
 91
        1
 92
        1
 93
        2
 72
     4
 94
        3
 73
     0
 74
     0
 95
       17
 96
       13
 40
0.0
 40
0.0
 40
0.0
 40
0.0
 40
0.3527777776895833
 40
0.3527777776895833
 40
0.3527777776895833
 40
0.7055555553791667
 40
0.7055555553791667
 40
0.7055555553791667
 40
1.05833333306875
 40
1.05833333306875
 40
1.05833333306875
 40
1.411111110758333
 40
1.411111110758333
 40
1.411111110758333
 40
1.411111110758333
 10
41.64396921535161
 20
-105.4733235847429
 10
41.64396921535161
 20
-105.3901385847636
 10
41.71149088029566
 20
-105.3227580292249
 10
41.79418198929714
 20
-105.3227580292249
 10
41.87719165619749
 20
-105.3227580292249
 10
41.94439476324267
 20
-105.3901385847636
 10
41.94439476324267
 20
-105.4733235847429
 10
41.94439476324267
 20
-105.5558383069443
 10
41.87719165619749
 20
-105.6231835847054
 10
41.79418198929714
 20
-105.6231835847054
 10
41.71149088029566
 20
-105.6231835847054
 10
41.64396921535161
 20
-105.5558383069443
 10
41.64396921535161
 20
-105.4733235847429
 97
        0
 72
     1
 10
41.64396921535161
 20
-105.4733235847429
 11
41.64396921535161
 21
-105.4733235847429
 97
        0
 75
     2
 76
     1
 98
        0
  0
SPLINE
  5
E2
330
1F
100
AcDbEntity
  8
_U+30EC_U+30A4_U+30E4_U+30FC 1
370
     0
100
AcDbSpline
210
0.0
220
0.0
230
1.0
 70
    11
 71
     3
 72
    17
 73
    13
 74
     0
 42
0.0000000001
 43
0.0000000001
 12
1.0
 22
0.0
 32
0.0
 13
1.0
 23
0.0
 33
0.0
 40
0.0
 40
0.0
 40
0.0
 40
0.0
 40
1.0
 40
1.0
 40
1.0
 40
2.0
 40
2.0
 40
2.0
 40
3.0
 40
3.0
 40
3.0
 40
4.0
 40
4.0
 40
4.0
 40
4.0
 10
45.14437134827114
 20
-143.1444163531026
 30
0.0
 10
45.14437134827114
 20
-143.0617252420124
 30
0.0
 10
45.21154023544641
 20
-142.9942035753627
 30
0.0
 10
45.29423134444789
 20
-142.9942035753627
 30
0.0
 10
45.37723995344128
 20
-142.9942035753627
 30
0.0
 10
45.44409134062464
 20
-143.0617252420124
 30
0.0
 10
45.44409134062464
 20
-143.1444163531026
 30
0.0
 10
45.44409134062464
 20
-143.2274249641931
 30
0.0
 10
45.37723995344128
 20
-143.2946291308432
 30
0.0
 10
45.29423134444789
 20
-143.2946291308432
 30
0.0
 10
45.21154023544641
 20
-143.2946291308432
 30
0.0
 10
45.14437134827114
 20
-143.2274249641931
 30
0.0
 10
45.14437134827114
 20
-143.1444163531026
 30
0.0
  0
HATCH
  5
E3
330
1F
100
AcDbEntity
  8
_U+30EC_U+30A4_U+30E4_U+30FC 1
 62
   179
420
  2234388
100
AcDbHatch
 10
0.0
 20
0.0
 30
0.0
210
0.0
220
0.0
230
1.0
  2
SOLID
 70
     1
 71
     0
 91
        1
 92
        1
 93
        2
 72
     4
 94
        3
 73
     0
 74
     0
 95
       17
 96
       13
 40
0.0
 40
0.0
 40
0.0
 40
0.0
 40
0.3527777776895833
 40
0.3527777776895833
 40
0.3527777776895833
 40
0.7055555553791667
 40
0.7055555553791667
 40
0.7055555553791667
 40
1.05833333306875
 40
1.05833333306875
 40
1.05833333306875
 40
1.411111110758333
 40
1.411111110758333
 40
1.411111110758333
 40
1.411111110758333
 10
45.14437134827114
 20
-143.1444163531026
 10
45.14437134827114
 20
-143.0617252420124
 10
45.21154023544641
 20
-142.9942035753627
 10
45.29423134444789
 20
-142.9942035753627
 10
45.37723995344128
 20
-142.9942035753627
 10
45.44409134062464
 20
-143.0617252420124
 10
45.44409134062464
 20
-143.1444163531026
 10
45.44409134062464
 20
-143.2274249641931
 10
45.37723995344128
 20
-143.2946291308432
 10
45.29423134444789
 20
-143.2946291308432
 10
45.21154023544641
 20
-143.2946291308432
 10
45.14437134827114
 20
-143.2274249641931
 10
45.14437134827114
 20
-143.1444163531026
 97
        0
 72
     1
 10
45.14437134827114
 20
-143.1444163531026
 11
45.14437134827114
 21
-143.1444163531026
 97
        0
 75
     2
 76
     1
 98
        0
  0
SPLINE
  5
E4
330
1F
100
AcDbEntity
  8
_U+30EC_U+30A4_U+30E4_U+30FC 1
370
     0
100
AcDbSpline
210
0.0
220
0.0
230
1.0
 70
    11
 71
     3
 72
    17
 73
    13
 74
     0
 42
0.0000000001
 43
0.0000000001
 12
1.0
 22
0.0
 32
0.0
 13
1.0
 23
0.0
 33
0.0
 40
0.0
 40
0.0
 40
0.0
 40
0.0
 40
1.0
 40
1.0
 40
1.0
 40
2.0
 40
2.0
 40
2.0
 40
3.0
 40
3.0
 40
3.0
 40
4.0
 40
4.0
 40
4.0
 40
4.0
 10
45.14437134827114
 20
-149.7507094070068
 30
0.0
 10
45.14437134827114
 20
-149.6677007959164
 30
0.0
 10
45.21154023544641
 20
-149.6005319070445
 30
0.0
 10
45.29423134444789
 20
-149.6005319070445
 30
0.0
 10
45.37723995344128
 20
-149.6005319070445
 30
0.0
 10
45.44409134062464
 20
-149.6677007959164
 30
0.0
 10
45.44409134062464
 20
-149.7507094070068
 30
0.0
 10
45.44409134062464
 20
-149.8334005180971
 30
0.0
 10
45.37723995344128
 20
-149.9009221847467
 30
0.0
 10
45.29423134444789
 20
-149.9009221847467
 30
0.0
 10
45.21154023544641
 20
-149.9009221847467
 30
0.0
 10
45.14437134827114
 20
-149.8334005180971
 30
0.0
 10
45.14437134827114
 20
-149.7507094070068
 30
0.0
  0
HATCH
  5
E5
330
1F
100
AcDbEntity
  8
_U+30EC_U+30A4_U+30E4_U+30FC 1
 62
   179
420
  2234388
100
AcDbHatch
 10
0.0
 20
0.0
 30
0.0
210
0.0
220
0.0
230
1.0
  2
SOLID
 70
     1
 71
     0
 91
        1
 92
        1
 93
        2
 72
     4
 94
        3
 73
     0
 74
     0
 95
       17
 96
       13
 40
0.0
 40
0.0
 40
0.0
 40
0.0
 40
0.3527777776895833
 40
0.3527777776895833
 40
0.3527777776895833
 40
0.7055555553791667
 40
0.7055555553791667
 40
0.7055555553791667
 40
1.05833333306875
 40
1.05833333306875
 40
1.05833333306875
 40
1.411111110758333
 40
1.411111110758333
 40
1.411111110758333
 40
1.411111110758333
 10
45.14437134827114
 20
-149.7507094070068
 10
45.14437134827114
 20
-149.6677007959164
 10
45.21154023544641
 20
-149.6005319070445
 10
45.29423134444789
 20
-149.6005319070445
 10
45.37723995344128
 20
-149.6005319070445
 10
45.44409134062464
 20
-149.6677007959164
 10
45.44409134062464
 20
-149.7507094070068
 10
45.44409134062464
 20
-149.8334005180971
 10
45.37723995344128
 20
-149.9009221847467
 10
45.29423134444789
 20
-149.9009221847467
 10
45.21154023544641
 20
-149.9009221847467
 10
45.14437134827114
 20
-149.8334005180971
 10
45.14437134827114
 20
-149.7507094070068
 97
        0
 72
     1
 10
45.14437134827114
 20
-149.7507094070068
 11
45.14437134827114
 21
-149.7507094070068
 97
        0
 75
     2
 76
     1
 98
        0
  0
SPLINE
  5
E6
330
1F
100
AcDbEntity
  8
_U+30EC_U+30A4_U+30E4_U+30FC 1
370
     0
100
AcDbSpline
210
0.0
220
0.0
230
1.0
 70
    11
 71
     3
 72
    17
 73
    13
 74
     0
 42
0.0000000001
 43
0.0000000001
 12
1.0
 22
0.0
 32
0.0
 13
1.0
 23
0.0
 33
0.0
 40
0.0
 40
0.0
 40
0.0
 40
0.0
 40
1.0
 40
1.0
 40
1.0
 40
2.0
 40
2.0
 40
2.0
 40
3.0
 40
3.0
 40
3.0
 40
4.0
 40
4.0
 40
4.0
 40
4.0
 10
60.3327610960279
 20
-143.1444163531026
 30
0.0
 10
60.3327610960279
 20
-143.0617252420124
 30
0.0
 10
60.40028123683823
 20
-142.9942035753627
 30
0.0
 10
60.48261956807094
 20
-142.9942035753627
 30
0.0
 10
60.56562817706432
 20
-142.9942035753627
 30
0.0
 10
60.63247956424769
 20
-143.0617252420124
 30
0.0
 10
60.63247956424769
 20
-143.1444163531026
 30
0.0
 10
60.63247956424769
 20
-143.2274249641931
 30
0.0
 10
60.56562817706432
 20
-143.2946291308432
 30
0.0
 10
60.48261956807094
 20
-143.2946291308432
 30
0.0
 10
60.40028123683823
 20
-143.2946291308432
 30
0.0
 10
60.3327610960279
 20
-143.2274249641931
 30
0.0
 10
60.3327610960279
 20
-143.1444163531026
 30
0.0
  0
HATCH
  5
E7
330
1F
100
AcDbEntity
  8
_U+30EC_U+30A4_U+30E4_U+30FC 1
 62
   179
420
  2234388
100
AcDbHatch
 10
0.0
 20
0.0
 30
0.0
210
0.0
220
0.0
230
1.0
  2
SOLID
 70
     1
 71
     0
 91
        1
 92
        1
 93
        2
 72
     4
 94
        3
 73
     0
 74
     0
 95
       17
 96
       13
 40
0.0
 40
0.0
 40
0.0
 40
0.0
 40
0.3527777776895833
 40
0.3527777776895833
 40
0.3527777776895833
 40
0.7055555553791667
 40
0.7055555553791667
 40
0.7055555553791667
 40
1.05833333306875
 40
1.05833333306875
 40
1.05833333306875
 40
1.411111110758333
 40
1.411111110758333
 40
1.411111110758333
 40
1.411111110758333
 10
60.3327610960279
 20
-143.1444163531026
 10
60.3327610960279
 20
-143.0617252420124
 10
60.40028123683823
 20
-142.9942035753627
 10
60.48261956807094
 20
-142.9942035753627
 10
60.56562817706432
 20
-142.9942035753627
 10
60.63247956424769
 20
-143.0617252420124
 10
60.63247956424769
 20
-143.1444163531026
 10
60.63247956424769
 20
-143.2274249641931
 10
60.56562817706432
 20
-143.2946291308432
 10
60.48261956807094
 20
-143.2946291308432
 10
60.40028123683823
 20
-143.2946291308432
 10
60.3327610960279
 20
-143.2274249641931
 10
60.3327610960279
 20
-143.1444163531026
 97
        0
 72
     1
 10
60.3327610960279
 20
-143.1444163531026
 11
60.3327610960279
 21
-143.1444163531026
 97
        0
 75
     2
 76
     1
 98
        0
  0
SPLINE
  5
E8
330
1F
100
AcDbEntity
  8
_U+30EC_U+30A4_U+30E4_U+30FC 1
370
     0
100
AcDbSpline
210
0.0
220
0.0
230
1.0
 70
    11
 71
     3
 72
    17
 73
    13
 74
     0
 42
0.0000000001
 43
0.0000000001
 12
1.0
 22
0.0
 32
0.0
 13
1.0
 23
0.0
 33
0.0
 40
0.0
 40
0.0
 40
0.0
 40
0.0
 40
1.0
 40
1.0
 40
1.0
 40
2.0
 40
2.0
 40
2.0
 40
3.0
 40
3.0
 40
3.0
 40
4.0
 40
4.0
 40
4.0
 40
4.0
 10
135.1445418299533
 20
-143.1444163531026
 30
0.0
 10
135.1445418299533
 20
-143.0617252420124
 30
0.0
 10
135.2117107171285
 20
-142.9942035753627
 30
0.0
 10
135.29440182613
 20
-142.9942035753627
 30
0.0
 10
135.3774457129003
 20
-142.9942035753627
 30
0.0
 10
135.4442618223068
 20
-143.0617252420124
 30
0.0
 10
135.4442618223068
 20
-143.1444163531026
 30
0.0
 10
135.4442618223068
 20
-143.2274249641931
 30
0.0
 10
135.3774457129003
 20
-143.2946291308432
 30
0.0
 10
135.29440182613
 20
-143.2946291308432
 30
0.0
 10
135.2117107171285
 20
-143.2946291308432
 30
0.0
 10
135.1445418299533
 20
-143.2274249641931
 30
0.0
 10
135.1445418299533
 20
-143.1444163531026
 30
0.0
  0
HATCH
  5
E9
330
1F
100
AcDbEntity
  8
_U+30EC_U+30A4_U+30E4_U+30FC 1
 62
   179
420
  2234388
100
AcDbHatch
 10
0.0
 20
0.0
 30
0.0
210
0.0
220
0.0
230
1.0
  2
SOLID
 70
     1
 71
     0
 91
        1
 92
        1
 93
        2
 72
     4
 94
        3
 73
     0
 74
     0
 95
       17
 96
       13
 40
0.0
 40
0.0
 40
0.0
 40
0.0
 40
0.3527777776895833
 40
0.3527777776895833
 40
0.3527777776895833
 40
0.7055555553791667
 40
0.7055555553791667
 40
0.7055555553791667
 40
1.05833333306875
 40
1.05833333306875
 40
1.05833333306875
 40
1.411111110758333
 40
1.411111110758333
 40
1.411111110758333
 40
1.411111110758333
 10
135.1445418299533
 20
-143.1444163531026
 10
135.1445418299533
 20
-143.0617252420124
 10
135.2117107171285
 20
-142.9942035753627
 10
135.29440182613
 20
-142.9942035753627
 10
135.3774457129003
 20
-142.9942035753627
 10
135.4442618223068
 20
-143.0617252420124
 10
135.4442618223068
 20
-143.1444163531026
 10
135.4442618223068
 20
-143.2274249641931
 10
135.3774457129003
 20
-143.2946291308432
 10
135.29440182613
 20
-143.2946291308432
 10
135.2117107171285
 20
-143.2946291308432
 10
135.1445418299533
 20
-143.2274249641931
 10
135.1445418299533
 20
-143.1444163531026
 97
        0
 72
     1
 10
135.1445418299533
 20
-143.1444163531026
 11
135.1445418299533
 21
-143.1444163531026
 97
        0
 75
     2
 76
     1
 98
        0
  0
SPLINE
  5
EA
330
1F
100
AcDbEntity
  8
_U+30EC_U+30A4_U+30E4_U+30FC 1
370
     0
100
AcDbSpline
210
0.0
220
0.0
230
1.0
 70
    11
 71
     3
 72
    17
 73
    13
 74
     0
 42
0.0000000001
 43
0.0000000001
 12
1.0
 22
0.0
 32
0.0
 13
1.0
 23
0.0
 33
0.0
 40
0.0
 40
0.0
 40
0.0
 40
0.0
 40
1.0
 40
1.0
 40
1.0
 40
2.0
 40
2.0
 40
2.0
 40
3.0
 40
3.0
 40
3.0
 40
4.0
 40
4.0
 40
4.0
 40
4.0
 10
135.1445418299533
 20
-149.7500391292295
 30
0.0
 10
135.1445418299533
 20
-149.6669952403608
 30
0.0
 10
135.2117107171285
 20
-149.5998263514889
 30
0.0
 10
135.29440182613
 20
-149.5998263514889
 30
0.0
 10
135.3774457129003
 20
-149.5998263514889
 30
0.0
 10
135.4442618223068
 20
-149.6669952403608
 30
0.0
 10
135.4442618223068
 20
-149.7500391292295
 30
0.0
 10
135.4442618223068
 20
-149.8327302403197
 30
0.0
 10
135.3774457129003
 20
-149.9002519069694
 30
0.0
 10
135.29440182613
 20
-149.9002519069694
 30
0.0
 10
135.2117107171285
 20
-149.9002519069694
 30
0.0
 10
135.1445418299533
 20
-149.8327302403197
 30
0.0
 10
135.1445418299533
 20
-149.7500391292295
 30
0.0
  0
HATCH
  5
EB
330
1F
100
AcDbEntity
  8
_U+30EC_U+30A4_U+30E4_U+30FC 1
 62
   179
420
  2234388
100
AcDbHatch
 10
0.0
 20
0.0
 30
0.0
210
0.0
220
0.0
230
1.0
  2
SOLID
 70
     1
 71
     0
 91
        1
 92
        1
 93
        2
 72
     4
 94
        3
 73
     0
 74
     0
 95
       17
 96
       13
 40
0.0
 40
0.0
 40
0.0
 40
0.0
 40
0.3527777776895833
 40
0.3527777776895833
 40
0.3527777776895833
 40
0.7055555553791667
 40
0.7055555553791667
 40
0.7055555553791667
 40
1.05833333306875
 40
1.05833333306875
 40
1.05833333306875
 40
1.411111110758333
 40
1.411111110758333
 40
1.411111110758333
 40
1.411111110758333
 10
135.1445418299533
 20
-149.7500391292295
 10
135.1445418299533
 20
-149.6669952403608
 10
135.2117107171285
 20
-149.5998263514889
 10
135.29440182613
 20
-149.5998263514889
 10
135.3774457129003
 20
-149.5998263514889
 10
135.4442618223068
 20
-149.6669952403608
 10
135.4442618223068
 20
-149.7500391292295
 10
135.4442618223068
 20
-149.8327302403197
 10
135.3774457129003
 20
-149.9002519069694
 10
135.29440182613
 20
-149.9002519069694
 10
135.2117107171285
 20
-149.9002519069694
 10
135.1445418299533
 20
-149.8327302403197
 10
135.1445418299533
 20
-149.7500391292295
 97
        0
 72
     1
 10
135.1445418299533
 20
-149.7500391292295
 11
135.1445418299533
 21
-149.7500391292295
 97
        0
 75
     2
 76
     1
 98
        0
  0
SPLINE
  5
EC
330
1F
100
AcDbEntity
  8
_U+30EC_U+30A4_U+30E4_U+30FC 1
370
     0
100
AcDbSpline
210
0.0
220
0.0
230
1.0
 70
    11
 71
     3
 72
    17
 73
    13
 74
     0
 42
0.0000000001
 43
0.0000000001
 12
1.0
 22
0.0
 32
0.0
 13
1.0
 23
0.0
 33
0.0
 40
0.0
 40
0.0
 40
0.0
 40
0.0
 40
1.0
 40
1.0
 40
1.0
 40
2.0
 40
2.0
 40
2.0
 40
3.0
 40
3.0
 40
3.0
 40
4.0
 40
4.0
 40
4.0
 40
4.0
 10
140.8265569627708
 20
-115.5965641377675
 30
0.0
 10
140.8265569627708
 20
-115.5136966377884
 30
0.0
 10
140.893725849946
 20
-115.4463513600273
 30
0.0
 10
140.9764169589475
 20
-115.4463513600273
 30
0.0
 10
141.0594255679409
 20
-115.4463513600273
 30
0.0
 10
141.1265944551162
 20
-115.5136966377884
 30
0.0
 10
141.1265944551162
 20
-115.5965641377675
 30
0.0
 10
141.1265944551162
 20
-115.6794316377469
 30
0.0
 10
141.0594255679409
 20
-115.7467769155077
 30
0.0
 10
140.9764169589475
 20
-115.7467769155077
 30
0.0
 10
140.893725849946
 20
-115.7467769155077
 30
0.0
 10
140.8265569627708
 20
-115.6794316377469
 30
0.0
 10
140.8265569627708
 20
-115.5965641377675
 30
0.0
  0
HATCH
  5
ED
330
1F
100
AcDbEntity
  8
_U+30EC_U+30A4_U+30E4_U+30FC 1
 62
   179
420
  2234388
100
AcDbHatch
 10
0.0
 20
0.0
 30
0.0
210
0.0
220
0.0
230
1.0
  2
SOLID
 70
     1
 71
     0
 91
        1
 92
        1
 93
        2
 72
     4
 94
        3
 73
     0
 74
     0
 95
       17
 96
       13
 40
0.0
 40
0.0
 40
0.0
 40
0.0
 40
0.3527777776895833
 40
0.3527777776895833
 40
0.3527777776895833
 40
0.7055555553791667
 40
0.7055555553791667
 40
0.7055555553791667
 40
1.05833333306875
 40
1.05833333306875
 40
1.05833333306875
 40
1.411111110758333
 40
1.411111110758333
 40
1.411111110758333
 40
1.411111110758333
 10
140.8265569627708
 20
-115.5965641377675
 10
140.8265569627708
 20
-115.5136966377884
 10
140.893725849946
 20
-115.4463513600273
 10
140.9764169589475
 20
-115.4463513600273
 10
141.0594255679409
 20
-115.4463513600273
 10
141.1265944551162
 20
-115.5136966377884
 10
141.1265944551162
 20
-115.5965641377675
 10
141.1265944551162
 20
-115.6794316377469
 10
141.0594255679409
 20
-115.7467769155077
 10
140.9764169589475
 20
-115.7467769155077
 10
140.893725849946
 20
-115.7467769155077
 10
140.8265569627708
 20
-115.6794316377469
 10
140.8265569627708
 20
-115.5965641377675
 97
        0
 72
     1
 10
140.8265569627708
 20
-115.5965641377675
 11
140.8265569627708
 21
-115.5965641377675
 97
        0
 75
     2
 76
     1
 98
        0
  0
SPLINE
  5
EE
330
1F
100
AcDbEntity
  8
_U+30EC_U+30A4_U+30E4_U+30FC 1
370
     0
100
AcDbSpline
210
0.0
220
0.0
230
1.0
 70
    11
 71
     3
 72
    17
 73
    13
 74
     0
 42
0.0000000001
 43
0.0000000001
 12
1.0
 22
0.0
 32
0.0
 13
1.0
 23
0.0
 33
0.0
 40
0.0
 40
0.0
 40
0.0
 40
0.0
 40
1.0
 40
1.0
 40
1.0
 40
2.0
 40
2.0
 40
2.0
 40
3.0
 40
3.0
 40
3.0
 40
4.0
 40
4.0
 40
4.0
 40
4.0
 10
140.8265569627708
 20
-105.5623646958315
 30
0.0
 10
140.8265569627708
 20
-105.47953247363
 30
0.0
 10
140.893725849946
 20
-105.4121871958692
 30
0.0
 10
140.9764169589475
 20
-105.4121871958692
 30
0.0
 10
141.0594255679409
 20
-105.4121871958692
 30
0.0
 10
141.1265944551162
 20
-105.47953247363
 30
0.0
 10
141.1265944551162
 20
-105.5623646958315
 30
0.0
 10
141.1265944551162
 20
-105.6450558069221
 30
0.0
 10
141.0594255679409
 20
-105.7125774735718
 30
0.0
 10
140.9764169589475
 20
-105.7125774735718
 30
0.0
 10
140.893725849946
 20
-105.7125774735718
 30
0.0
 10
140.8265569627708
 20
-105.6450558069221
 30
0.0
 10
140.8265569627708
 20
-105.5623646958315
 30
0.0
  0
HATCH
  5
EF
330
1F
100
AcDbEntity
  8
_U+30EC_U+30A4_U+30E4_U+30FC 1
 62
   179
420
  2234388
100
AcDbHatch
 10
0.0
 20
0.0
 30
0.0
210
0.0
220
0.0
230
1.0
  2
SOLID
 70
     1
 71
     0
 91
        1
 92
        1
 93
        2
 72
     4
 94
        3
 73
     0
 74
     0
 95
       17
 96
       13
 40
0.0
 40
0.0
 40
0.0
 40
0.0
 40
0.3527777776895833
 40
0.3527777776895833
 40
0.3527777776895833
 40
0.7055555553791667
 40
0.7055555553791667
 40
0.7055555553791667
 40
1.05833333306875
 40
1.05833333306875
 40
1.05833333306875
 40
1.411111110758333
 40
1.411111110758333
 40
1.411111110758333
 40
1.411111110758333
 10
140.8265569627708
 20
-105.5623646958315
 10
140.8265569627708
 20
-105.47953247363
 10
140.893725849946
 20
-105.4121871958692
 10
140.9764169589475
 20
-105.4121871958692
 10
141.0594255679409
 20
-105.4121871958692
 10
141.1265944551162
 20
-105.47953247363
 10
141.1265944551162
 20
-105.5623646958315
 10
141.1265944551162
 20
-105.6450558069221
 10
141.0594255679409
 20
-105.7125774735718
 10
140.9764169589475
 20
-105.7125774735718
 10
140.893725849946
 20
-105.7125774735718
 10
140.8265569627708
 20
-105.6450558069221
 10
140.8265569627708
 20
-105.5623646958315
 97
        0
 72
     1
 10
140.8265569627708
 20
-105.5623646958315
 11
140.8265569627708
 21
-105.5623646958315
 97
        0
 75
     2
 76
     1
 98
        0
  0
POLYLINE
  5
F0
330
1F
100
AcDbEntity
  8
_U+30EC_U+30A4_U+30E4_U+30FC 1
 62
     7
420
 16777215
370
     9
100
AcDb2dPolyline
 66
     1
 10
0.0
 20
0.0
 30
0.0
  0
VERTEX
  5
F1
330
F0
100
AcDbEntity
  8
_U+30EC_U+30A4_U+30E4_U+30FC 1
 62
     7
420
 16777215
370
     9
100
AcDbVertex
100
AcDb2dVertex
 10
78.98105104058108
 20
-135.6382224660906
 30
0.0
  0
VERTEX
  5
F2
330
F0
100
AcDbEntity
  8
_U+30EC_U+30A4_U+30E4_U+30FC 1
 62
     7
420
 16777215
370
     9
100
AcDbVertex
100
AcDb2dVertex
 10
64.93263053932229
 20
-135.6382224660906
 30
0.0
  0
VERTEX
  5
F3
330
F0
100
AcDbEntity
  8
_U+30EC_U+30A4_U+30E4_U+30FC 1
 62
     7
420
 16777215
370
     9
100
AcDbVertex
100
AcDb2dVertex
 10
60.01303708005098
 20
-129.8862866341951
 30
0.0
  0
SEQEND
  5
F4
330
F0
100
AcDbEntity
  8
_U+30EC_U+30A4_U+30E4_U+30FC 1
 62
     7
420
 16777215
370
     9
  0
INSERT
  5
F6
330
1F
100
AcDbEntity
  8
_U+30EC_U+30A4_U+30E4_U+30FC 1
100
AcDbBlockReference
  2
block 8
 10
0.0
 20
0.0
 30
0.0
  0
ENDSEC
  0
SECTION
  2
OBJECTS
  0
DICTIONARY
  5
C
330
0
100
AcDbDictionary
281
     1
  3
ACAD_GROUP
350
D
  3
ACAD_LAYOUT
350
1A
  3
ACAD_MATERIAL
350
3B
  3
ACAD_MLEADERSTYLE
350
108
  3
ACAD_MLINESTYLE
350
17
  3
ACAD_PLOTSETTINGS
350
19
  3
ACAD_PLOTSTYLENAME
350
E
  3
ACAD_TABLESTYLE
350
107
  3
ACAD_VISUALSTYLE
350
2A
  0
SUN
  5
3F
330
29
100
AcDbSun
 90
        1
290
     0
 63
     7
421
 16777215
 40
1.0
291
     1
 91
  2455826
 92
 54000000
292
     0
 70
     2
 71
   256
280
     1
  0
DICTIONARY
  5
D
102
{ACAD_REACTORS
330
C
102
}
330
C
100
AcDbDictionary
281
     1
  0
DICTIONARY
  5
1A
102
{ACAD_REACTORS
330
C
102
}
330
C
100
AcDbDictionary
281
     1
  3
Layout1
350
1E
  3
Layout2
350
26
  3
Model
350
22
  0
DICTIONARY
  5
3B
102
{ACAD_REACTORS
330
C
102
}
330
C
100
AcDbDictionary
281
     1
  3
ByBlock
350
3D
  3
ByLayer
350
3C
  3
Global
350
3E
  0
DICTIONARY
  5
108
102
{ACAD_REACTORS
330
C
102
}
330
C
100
AcDbDictionary
281
     1
  0
DICTIONARY
  5
17
102
{ACAD_REACTORS
330
C
102
}
330
C
100
AcDbDictionary
281
     1
  3
Standard
350
18
  0
DICTIONARY
  5
19
102
{ACAD_REACTORS
330
C
102
}
330
C
100
AcDbDictionary
281
     1
  0
ACDBDICTIONARYWDFLT
  5
E
102
{ACAD_REACTORS
330
C
102
}
330
C
100
AcDbDictionary
281
     1
  3
Normal
350
F
100
AcDbDictionaryWithDefault
340
F
  0
DICTIONARY
  5
107
102
{ACAD_REACTORS
330
C
102
}
330
C
100
AcDbDictionary
281
     1
  0
DICTIONARY
  5
2A
102
{ACAD_REACTORS
330
C
102
}
330
C
100
AcDbDictionary
281
     1
  3
2dWireframe
350
2F
  3
3D Hidden
350
31
  3
3dWireframe
350
30
  3
Basic
350
32
  3
Brighten
350
36
  3
ColorChange
350
3A
  3
Conceptual
350
34
  3
Dim
350
35
  3
Facepattern
350
39
  3
Flat
350
2B
  3
FlatWithEdges
350
2C
  3
Gouraud
350
2D
  3
GouraudWithEdges
350
2E
  3
Linepattern
350
38
  3
Realistic
350
33
  3
Thicken
350
37
  0
LAYOUT
  5
1E
102
{ACAD_REACTORS
330
1A
102
}
330
1A
100
AcDbPlotSettings
  1

  2
none_device
  4

  6

 40
0.0
 41
0.0
 42
0.0
 43
0.0
 44
0.0
 45
0.0
 46
0.0
 47
0.0
 48
0.0
 49
0.0
140
0.0
141
0.0
142
1.0
143
1.0
 70
   688
 72
     0
 73
     0
 74
     5
  7

 75
    16
 76
     0
 77
     2
 78
   300
147
1.0
148
0.0
149
0.0
100
AcDbLayout
  1
Layout1
 70
     1
 71
     1
 10
0.0
 20
0.0
 11
12.0
 21
9.0
 12
0.0
 22
0.0
 32
0.0
 14
1.000000000000000E+20
 24
1.000000000000000E+20
 34
1.000000000000000E+20
 15
-1.000000000000000E+20
 25
-1.000000000000000E+20
 35
-1.000000000000000E+20
146
0.0
 13
0.0
 23
0.0
 33
0.0
 16
1.0
 26
0.0
 36
0.0
 17
0.0
 27
1.0
 37
0.0
 76
     0
330
1B
  0
LAYOUT
  5
26
102
{ACAD_REACTORS
330
1A
102
}
330
1A
100
AcDbPlotSettings
  1

  2
none_device
  4

  6

 40
0.0
 41
0.0
 42
0.0
 43
0.0
 44
0.0
 45
0.0
 46
0.0
 47
0.0
 48
0.0
 49
0.0
140
0.0
141
0.0
142
1.0
143
1.0
 70
   688
 72
     0
 73
     0
 74
     5
  7

 75
    16
 76
     0
 77
     2
 78
   300
147
1.0
148
0.0
149
0.0
100
AcDbLayout
  1
Layout2
 70
     1
 71
     2
 10
0.0
 20
0.0
 11
0.0
 21
0.0
 12
0.0
 22
0.0
 32
0.0
 14
0.0
 24
0.0
 34
0.0
 15
0.0
 25
0.0
 35
0.0
146
0.0
 13
0.0
 23
0.0
 33
0.0
 16
1.0
 26
0.0
 36
0.0
 17
0.0
 27
1.0
 37
0.0
 76
     0
330
23
  0
LAYOUT
  5
22
102
{ACAD_REACTORS
330
1A
102
}
330
1A
100
AcDbPlotSettings
  1

  2
none_device
  4

  6

 40
0.0
 41
0.0
 42
0.0
 43
0.0
 44
0.0
 45
0.0
 46
0.0
 47
0.0
 48
0.0
 49
0.0
140
0.0
141
0.0
142
1.0
143
1.0
 70
  1712
 72
     0
 73
     0
 74
     0
  7

 75
     0
 76
     0
 77
     2
 78
   300
147
1.0
148
0.0
149
0.0
100
AcDbLayout
  1
Model
 70
     1
 71
     0
 10
0.0
 20
0.0
 11
12.0
 21
9.0
 12
0.0
 22
0.0
 32
0.0
 14
1.000000000000000E+20
 24
1.000000000000000E+20
 34
1.000000000000000E+20
 15
-1.000000000000000E+20
 25
-1.000000000000000E+20
 35
-1.000000000000000E+20
146
0.0
 13
0.0
 23
0.0
 33
0.0
 16
1.0
 26
0.0
 36
0.0
 17
0.0
 27
1.0
 37
0.0
 76
     0
330
1F
331
29
  0
MATERIAL
  5
3D
102
{ACAD_REACTORS
330
3B
102
}
330
3B
100
AcDbMaterial
  1
ByBlock
 72
     1
 94
      127
  0
MATERIAL
  5
3C
102
{ACAD_REACTORS
330
3B
102
}
330
3B
100
AcDbMaterial
  1
ByLayer
 72
     1
 94
      127
  0
MATERIAL
  5
3E
102
{ACAD_REACTORS
330
3B
102
}
330
3B
100
AcDbMaterial
  1
Global
 72
     1
 94
      127
  0
MLINESTYLE
  5
18
102
{ACAD_REACTORS
330
17
102
}
330
17
100
AcDbMlineStyle
  2
Standard
 70
     0
  3

 62
   256
 51
90.0
 52
90.0
 71
     2
 49
0.5
 62
   256
  6
BYLAYER
 49
-0.5
 62
   256
  6
BYLAYER
  0
ACDBPLACEHOLDER
  5
F
102
{ACAD_REACTORS
330
E
102
}
330
E
  0
VISUALSTYLE
  5
2F
102
{ACAD_REACTORS
330
2A
102
}
330
2A
100
AcDbVisualStyle
  2
2dWireframe
 70
     4
177
     2
291
     0
 71
     0
176
     1
 72
     2
176
     1
 73
     0
176
     1
 90
        0
176
     1
 40
-0.6
176
     1
 41
-30.0
176
     1
 62
     5
 63
     7
421
 16777215
176
     1
 74
     1
176
     1
 91
        4
176
     1
 64
     7
176
     1
 65
   257
176
     1
 75
     1
176
     1
175
     1
176
     1
 42
1.0
176
     1
 92
        0
176
     1
 66
   257
176
     1
 43
1.0
176
     1
 76
     1
176
     1
 77
     6
176
     1
 78
     2
176
     1
 67
     7
176
     1
 79
     5
176
     1
170
     0
176
     1
171
     0
176
     1
290
     0
176
     1
 93
        1
176
     1
 44
0.0
176
     1
173
     0
176
     1
  0
VISUALSTYLE
  5
31
102
{ACAD_REACTORS
330
2A
102
}
330
2A
100
AcDbVisualStyle
  2
3D Hidden
 70
     6
177
     2
291
     0
 71
     1
176
     1
 72
     2
176
     1
 73
     2
176
     1
 90
        0
176
     1
 40
-0.6
176
     1
 41
-30.0
176
     1
 62
     5
 63
     7
421
 16777215
176
     1
 74
     2
176
     1
 91
        2
176
     1
 64
     7
176
     1
 65
   257
176
     1
 75
     2
176
     1
175
     1
176
     1
 42
40.0
176
     1
 92
        0
176
     1
 66
   257
176
     1
 43
1.0
176
     1
 76
     1
176
     1
 77
     6
176
     1
 78
     2
176
     1
 67
     7
176
     1
 79
     3
176
     1
170
     0
176
     1
171
     0
176
     1
290
     0
176
     1
 93
        1
176
     1
 44
0.0
176
     1
173
     0
176
     1
  0
VISUALSTYLE
  5
30
102
{ACAD_REACTORS
330
2A
102
}
330
2A
100
AcDbVisualStyle
  2
3dWireframe
 70
     5
177
     2
291
     0
 71
     0
176
     1
 72
     2
176
     1
 73
     0
176
     1
 90
        0
176
     1
 40
-0.6
176
     1
 41
-30.0
176
     1
 62
     5
 63
     7
421
 16777215
176
     1
 74
     1
176
     1
 91
        4
176
     1
 64
     7
176
     1
 65
   257
176
     1
 75
     1
176
     1
175
     1
176
     1
 42
1.0
176
     1
 92
        0
176
     1
 66
   257
176
     1
 43
1.0
176
     1
 76
     1
176
     1
 77
     6
176
     1
 78
     2
176
     1
 67
     7
176
     1
 79
     5
176
     1
170
     0
176
     1
171
     0
176
     1
290
     0
176
     1
 93
        1
176
     1
 44
0.0
176
     1
173
     0
176
     1
  0
VISUALSTYLE
  5
32
102
{ACAD_REACTORS
330
2A
102
}
330
2A
100
AcDbVisualStyle
  2
Basic
 70
     7
177
     2
291
     1
 71
     1
176
     1
 72
     0
176
     1
 73
     1
176
     1
 90
        0
176
     1
 40
-0.6
176
     1
 41
-30.0
176
     1
 62
     5
 63
     7
421
 16777215
176
     1
 74
     0
176
     1
 91
        4
176
     1
 64
     7
176
     1
 65
   257
176
     1
 75
     1
176
     1
175
     1
176
     1
 42
1.0
176
     1
 92
        8
176
     1
 66
     7
176
     1
 43
1.0
176
     1
 76
     1
176
     1
 77
     6
176
     1
 78
     2
176
     1
 67
     7
176
     1
 79
     5
176
     1
170
     0
176
     1
171
     0
176
     1
290
     0
176
     1
 93
        1
176
     1
 44
0.0
176
     1
173
     0
176
     1
  0
VISUALSTYLE
  5
36
102
{ACAD_REACTORS
330
2A
102
}
330
2A
100
AcDbVisualStyle
  2
Brighten
 70
    12
177
     2
291
     1
 71
     2
176
     1
 72
     2
176
     1
 73
     0
176
     1
 90
        0
176
     1
 40
-0.6
176
     1
 41
-30.0
176
     1
 62
     5
 63
     7
421
 16777215
176
     1
 74
     1
176
     1
 91
        4
176
     1
 64
     7
176
     1
 65
   257
176
     1
 75
     1
176
     1
175
     1
176
     1
 42
1.0
176
     1
 92
        8
176
     1
 66
     7
176
     1
 43
1.0
176
     1
 76
     1
176
     1
 77
     6
176
     1
 78
     2
176
     1
 67
     7
176
     1
 79
     5
176
     1
170
     0
176
     1
171
     0
176
     1
290
     0
176
     1
 93
        1
176
     1
 44
50.0
176
     1
173
     0
176
     1
  0
VISUALSTYLE
  5
3A
102
{ACAD_REACTORS
330
2A
102
}
330
2A
100
AcDbVisualStyle
  2
ColorChange
 70
    16
177
     2
291
     1
 71
     2
176
     1
 72
     2
176
     1
 73
     3
176
     1
 90
        0
176
     1
 40
-0.6
176
     1
 41
-30.0
176
     1
 62
     5
 63
     8
421
  8421504
176
     1
 74
     1
176
     1
 91
        4
176
     1
 64
     7
176
     1
 65
   257
176
     1
 75
     1
176
     1
175
     1
176
     1
 42
1.0
176
     1
 92
        8
176
     1
 66
     8
424
  8421504
176
     1
 43
1.0
176
     1
 76
     1
176
     1
 77
     6
176
     1
 78
     2
176
     1
 67
     7
176
     1
 79
     5
176
     1
170
     0
176
     1
171
     0
176
     1
290
     0
176
     1
 93
        1
176
     1
 44
0.0
176
     1
173
     0
176
     1
  0
VISUALSTYLE
  5
34
102
{ACAD_REACTORS
330
2A
102
}
330
2A
100
AcDbVisualStyle
  2
Conceptual
 70
     9
177
     2
291
     0
 71
     3
176
     1
 72
     2
176
     1
 73
     0
176
     1
 90
        0
176
     1
 40
-0.6
176
     1
 41
-30.0
176
     1
 62
     5
 63
     7
421
 16777215
176
     1
 74
     2
176
     1
 91
        2
176
     1
 64
     7
176
     1
 65
   257
176
     1
 75
     1
176
     1
175
     1
176
     1
 42
40.0
176
     1
 92
        8
176
     1
 66
     7
176
     1
 43
1.0
176
     1
 76
     1
176
     1
 77
     6
176
     1
 78
     2
176
     1
 67
     7
176
     1
 79
     3
176
     1
170
     0
176
     1
171
     0
176
     1
290
     0
176
     1
 93
        1
176
     1
 44
0.0
176
     1
173
     0
176
     1
  0
VISUALSTYLE
  5
35
102
{ACAD_REACTORS
330
2A
102
}
330
2A
100
AcDbVisualStyle
  2
Dim
 70
    11
177
     2
291
     1
 71
     2
176
     1
 72
     2
176
     1
 73
     0
176
     1
 90
        0
176
     1
 40
-0.6
176
     1
 41
-30.0
176
     1
 62
     5
 63
     7
421
 16777215
176
     1
 74
     1
176
     1
 91
        4
176
     1
 64
     7
176
     1
 65
   257
176
     1
 75
     1
176
     1
175
     1
176
     1
 42
1.0
176
     1
 92
        8
176
     1
 66
     7
176
     1
 43
1.0
176
     1
 76
     1
176
     1
 77
     6
176
     1
 78
     2
176
     1
 67
     7
176
     1
 79
     5
176
     1
170
     0
176
     1
171
     0
176
     1
290
     0
176
     1
 93
        1
176
     1
 44
-50.0
176
     1
173
     0
176
     1
  0
VISUALSTYLE
  5
39
102
{ACAD_REACTORS
330
2A
102
}
330
2A
100
AcDbVisualStyle
  2
Facepattern
 70
    15
177
     2
291
     1
 71
     2
176
     1
 72
     2
176
     1
 73
     0
176
     1
 90
        0
176
     1
 40
-0.6
176
     1
 41
-30.0
176
     1
 62
     5
 63
     7
421
 16777215
176
     1
 74
     1
176
     1
 91
        4
176
     1
 64
     7
176
     1
 65
   257
176
     1
 75
     1
176
     1
175
     1
176
     1
 42
1.0
176
     1
 92
        8
176
     1
 66
     7
176
     1
 43
1.0
176
     1
 76
     1
176
     1
 77
     6
176
     1
 78
     2
176
     1
 67
     7
176
     1
 79
     5
176
     1
170
     0
176
     1
171
     0
176
     1
290
     0
176
     1
 93
        1
176
     1
 44
0.0
176
     1
173
     0
176
     1
  0
VISUALSTYLE
  5
2B
102
{ACAD_REACTORS
330
2A
102
}
330
2A
100
AcDbVisualStyle
  2
Flat
 70
     0
177
     2
291
     1
 71
     2
176
     1
 72
     1
176
     1
 73
     1
176
     1
 90
        2
176
     1
 40
-0.6
176
     1
 41
30.0
176
     1
 62
     5
 63
     7
421
 16777215
176
     1
 74
     0
176
     1
 91
        4
176
     1
 64
     7
176
     1
 65
   257
176
     1
 75
     1
176
     1
175
     1
176
     1
 42
1.0
176
     1
 92
        8
176
     1
 66
     7
176
     1
 43
1.0
176
     1
 76
     1
176
     1
 77
     6
176
     1
 78
     2
176
     1
 67
     7
176
     1
 79
     5
176
     1
170
     0
176
     1
171
     0
176
     1
290
     0
176
     1
 93
       13
176
     1
 44
0.0
176
     1
173
     0
176
     1
  0
VISUALSTYLE
  5
2C
102
{ACAD_REACTORS
330
2A
102
}
330
2A
100
AcDbVisualStyle
  2
FlatWithEdges
 70
     1
177
     2
291
     1
 71
     2
176
     1
 72
     1
176
     1
 73
     1
176
     1
 90
        2
176
     1
 40
-0.6
176
     1
 41
30.0
176
     1
 62
     5
 63
     7
421
 16777215
176
     1
 74
     1
176
     1
 91
        4
176
     1
 64
     7
176
     1
 65
   257
176
     1
 75
     1
176
     1
175
     1
176
     1
 42
1.0
176
     1
 92
        0
176
     1
 66
   257
176
     1
 43
1.0
176
     1
 76
     1
176
     1
 77
     6
176
     1
 78
     2
176
     1
 67
     7
176
     1
 79
     5
176
     1
170
     0
176
     1
171
     0
176
     1
290
     0
176
     1
 93
       13
176
     1
 44
0.0
176
     1
173
     0
176
     1
  0
VISUALSTYLE
  5
2D
102
{ACAD_REACTORS
330
2A
102
}
330
2A
100
AcDbVisualStyle
  2
Gouraud
 70
     2
177
     2
291
     1
 71
     2
176
     1
 72
     2
176
     1
 73
     1
176
     1
 90
        2
176
     1
 40
-0.6
176
     1
 41
30.0
176
     1
 62
     5
 63
     7
421
 16777215
176
     1
 74
     0
176
     1
 91
        4
176
     1
 64
     7
176
     1
 65
   257
176
     1
 75
     1
176
     1
175
     1
176
     1
 42
1.0
176
     1
 92
        0
176
     1
 66
     7
176
     1
 43
1.0
176
     1
 76
     1
176
     1
 77
     6
176
     1
 78
     2
176
     1
 67
     7
176
     1
 79
     5
176
     1
170
     0
176
     1
171
     0
176
     1
290
     0
176
     1
 93
       13
176
     1
 44
0.0
176
     1
173
     0
176
     1
  0
VISUALSTYLE
  5
2E
102
{ACAD_REACTORS
330
2A
102
}
330
2A
100
AcDbVisualStyle
  2
GouraudWithEdges
 70
     3
177
     2
291
     1
 71
     2
176
     1
 72
     2
176
     1
 73
     1
176
     1
 90
        2
176
     1
 40
-0.6
176
     1
 41
30.0
176
     1
 62
     5
 63
     7
421
 16777215
176
     1
 74
     1
176
     1
 91
        4
176
     1
 64
     7
176
     1
 65
   257
176
     1
 75
     1
176
     1
175
     1
176
     1
 42
1.0
176
     1
 92
        0
176
     1
 66
   257
176
     1
 43
1.0
176
     1
 76
     1
176
     1
 77
     6
176
     1
 78
     2
176
     1
 67
     7
176
     1
 79
     5
176
     1
170
     0
176
     1
171
     0
176
     1
290
     0
176
     1
 93
       13
176
     1
 44
0.0
176
     1
173
     0
176
     1
  0
VISUALSTYLE
  5
38
102
{ACAD_REACTORS
330
2A
102
}
330
2A
100
AcDbVisualStyle
  2
Linepattern
 70
    14
177
     2
291
     1
 71
     2
176
     1
 72
     2
176
     1
 73
     0
176
     1
 90
        0
176
     1
 40
-0.6
176
     1
 41
-30.0
176
     1
 62
     5
 63
     7
421
 16777215
176
     1
 74
     1
176
     1
 91
        4
176
     1
 64
     7
176
     1
 65
   257
176
     1
 75
     7
176
     1
175
     7
176
     1
 42
1.0
176
     1
 92
        8
176
     1
 66
     7
176
     1
 43
1.0
176
     1
 76
     1
176
     1
 77
     6
176
     1
 78
     2
176
     1
 67
     7
176
     1
 79
     5
176
     1
170
     0
176
     1
171
     0
176
     1
290
     0
176
     1
 93
        1
176
     1
 44
0.0
176
     1
173
     0
176
     1
  0
VISUALSTYLE
  5
33
102
{ACAD_REACTORS
330
2A
102
}
330
2A
100
AcDbVisualStyle
  2
Realistic
 70
     8
177
     2
291
     0
 71
     2
176
     1
 72
     2
176
     1
 73
     0
176
     1
 90
        0
176
     1
 40
-0.6
176
     1
 41
-30.0
176
     1
 62
     5
 63
     7
421
 16777215
176
     1
 74
     1
176
     1
 91
        0
176
     1
 64
     7
176
     1
 65
   257
176
     1
 75
     1
176
     1
175
     1
176
     1
 42
1.0
176
     1
 92
        8
176
     1
 66
     8
424
  7895160
176
     1
 43
1.0
176
     1
 76
     1
176
     1
 77
     6
176
     1
 78
     2
176
     1
 67
     7
176
     1
 79
     5
176
     1
170
     0
176
     1
171
     0
176
     1
290
     0
176
     1
 93
       13
176
     1
 44
0.0
176
     1
173
     0
176
     1
  0
VISUALSTYLE
  5
37
102
{ACAD_REACTORS
330
2A
102
}
330
2A
100
AcDbVisualStyle
  2
Thicken
 70
    13
177
     2
291
     1
 71
     2
176
     1
 72
     2
176
     1
 73
     0
176
     1
 90
        0
176
     1
 40
-0.6
176
     1
 41
-30.0
176
     1
 62
     5
 63
     7
421
 16777215
176
     1
 74
     1
176
     1
 91
        4
176
     1
 64
     7
176
     1
 65
   257
176
     1
 75
     1
176
     1
175
     1
176
     1
 42
1.0
176
     1
 92
       12
176
     1
 66
     7
176
     1
 43
1.0
176
     1
 76
     1
176
     1
 77
     6
176
     1
 78
     2
176
     1
 67
     7
176
     1
 79
     5
176
     1
170
     0
176
     1
171
     0
176
     1
290
     0
176
     1
 93
        1
176
     1
 44
0.0
176
     1
173
     0
176
     1
  0
ENDSEC
  0
EOF
