  0
SECTION
  2
HEADER
  9
$ACADVER
  1
AC1024
  9
$ACADMAINTVER
 70
     6
  9
$DWGCODEPAGE
  3
UNDEFINED
  9
$INSBASE
 10
0.0
 20
0.0
 30
0.0
  9
$EXTMIN
 10
1.000000000000000E+20
 20
1.000000000000000E+20
 30
1.000000000000000E+20
  9
$EXTMAX
 10
-1.000000000000000E+20
 20
-1.000000000000000E+20
 30
-1.000000000000000E+20
  9
$LIMMIN
 10
0.0
 20
0.0
  9
$LIMMAX
 10
12.0
 20
9.0
  9
$ORTHOMODE
 70
     0
  9
$REGENMODE
 70
     1
  9
$FILLMODE
 70
     1
  9
$QTEXTMODE
 70
     0
  9
$MIRRTEXT
 70
     1
  9
$LTSCALE
 40
1.0
  9
$ATTMODE
 70
     1
  9
$TEXTSIZE
 40
0.2
  9
$TRACEWID
 40
0.05
  9
$TEXTSTYLE
  7
Standard
  9
$CLAYER
  8
0
  9
$CELTYPE
  6
ByLayer
  9
$CECOLOR
 62
   256
  9
$CELTSCALE
 40
1.0
  9
$DISPSILH
 70
     0
  9
$DIMSCALE
 40
1.0
  9
$DIMASZ
 40
0.18
  9
$DIMEXO
 40
0.0625
  9
$DIMDLI
 40
0.38
  9
$DIMRND
 40
0.0
  9
$DIMDLE
 40
0.0
  9
$DIMEXE
 40
0.18
  9
$DIMTP
 40
0.0
  9
$DIMTM
 40
0.0
  9
$DIMTXT
 40
0.18
  9
$DIMCEN
 40
0.09
  9
$DIMTSZ
 40
0.0
  9
$DIMTOL
 70
     0
  9
$DIMLIM
 70
     0
  9
$DIMTIH
 70
     1
  9
$DIMTOH
 70
     1
  9
$DIMSE1
 70
     0
  9
$DIMSE2
 70
     0
  9
$DIMTAD
 70
     0
  9
$DIMZIN
 70
     0
  9
$DIMBLK
  1

  9
$DIMASO
 70
     1
  9
$DIMSHO
 70
     1
  9
$DIMPOST
  1

  9
$DIMAPOST
  1

  9
$DIMALT
 70
     0
  9
$DIMALTD
 70
     2
  9
$DIMALTF
 40
25.4
  9
$DIMLFAC
 40
1.0
  9
$DIMTOFL
 70
     0
  9
$DIMTVP
 40
0.0
  9
$DIMTIX
 70
     0
  9
$DIMSOXD
 70
     0
  9
$DIMSAH
 70
     0
  9
$DIMBLK1
  1

  9
$DIMBLK2
  1

  9
$DIMSTYLE
  2
Standard
  9
$DIMCLRD
 70
     0
  9
$DIMCLRE
 70
     0
  9
$DIMCLRT
 70
     0
  9
$DIMTFAC
 40
1.0
  9
$DIMGAP
 40
0.09
  9
$DIMJUST
 70
     0
  9
$DIMSD1
 70
     0
  9
$DIMSD2
 70
     0
  9
$DIMTOLJ
 70
     1
  9
$DIMTZIN
 70
     0
  9
$DIMALTZ
 70
     0
  9
$DIMALTTZ
 70
     0
  9
$DIMUPT
 70
     0
  9
$DIMDEC
 70
     4
  9
$DIMTDEC
 70
     4
  9
$DIMALTU
 70
     2
  9
$DIMALTTD
 70
     2
  9
$DIMTXSTY
  7
Standard
  9
$DIMAUNIT
 70
     0
  9
$DIMADEC
 70
     0
  9
$DIMALTRND
 40
0.0
  9
$DIMAZIN
 70
     0
  9
$DIMDSEP
 70
    46
  9
$DIMATFIT
 70
     3
  9
$DIMFRAC
 70
     0
  9
$DIMLDRBLK
  1

  9
$DIMLUNIT
 70
     2
  9
$DIMLWD
 70
    -2
  9
$DIMLWE
 70
    -2
  9
$DIMTMOVE
 70
     0
  9
$DIMFXL
 40
1.0
  9
$DIMFXLON
 70
     0
  9
$DIMJOGANG
 40
0.7853981633974483
  9
$DIMTFILL
 70
     0
  9
$DIMTFILLCLR
 70
     0
  9
$DIMARCSYM
 70
     0
  9
$DIMLTYPE
  6

  9
$DIMLTEX1
  6

  9
$DIMLTEX2
  6

  9
$DIMTXTDIRECTION
 70
     0
  9
$LUNITS
 70
     2
  9
$LUPREC
 70
     4
  9
$SKETCHINC
 40
0.1
  9
$FILLETRAD
 40
0.5
  9
$AUNITS
 70
     0
  9
$AUPREC
 70
     0
  9
$MENU
  1
.
  9
$ELEVATION
 40
0.0
  9
$PELEVATION
 40
0.0
  9
$THICKNESS
 40
0.0
  9
$LIMCHECK
 70
     0
  9
$CHAMFERA
 40
0.5
  9
$CHAMFERB
 40
0.5
  9
$CHAMFERC
 40
1.0
  9
$CHAMFERD
 40
0.0
  9
$SKPOLY
 70
     0
  9
$TDCREATE
 40
2457917.611168982
  9
$TDUCREATE
 40
2457917.236168982
  9
$TDUPDATE
 40
2457917.611168982
  9
$TDUUPDATE
 40
2457917.236168982
  9
$TDINDWG
 40
0.0000000116
  9
$TDUSRTIMER
 40
0.0000000116
  9
$USRTIMER
 70
     1
  9
$ANGBASE
 50
0.0
  9
$ANGDIR
 70
     0
  9
$PDMODE
 70
     0
  9
$PDSIZE
 40
0.0
  9
$PLINEWID
 40
0.0
  9
$SPLFRAME
 70
     0
  9
$SPLINETYPE
 70
     6
  9
$SPLINESEGS
 70
     8
  9
$HANDSEED
  5
1B8
  9
$SURFTAB1
 70
     6
  9
$SURFTAB2
 70
     6
  9
$SURFTYPE
 70
     6
  9
$SURFU
 70
     6
  9
$SURFV
 70
     6
  9
$UCSBASE
  2

  9
$UCSNAME
  2

  9
$UCSORG
 10
0.0
 20
0.0
 30
0.0
  9
$UCSXDIR
 10
1.0
 20
0.0
 30
0.0
  9
$UCSYDIR
 10
0.0
 20
1.0
 30
0.0
  9
$UCSORTHOREF
  2

  9
$UCSORTHOVIEW
 70
     0
  9
$UCSORGTOP
 10
0.0
 20
0.0
 30
0.0
  9
$UCSORGBOTTOM
 10
0.0
 20
0.0
 30
0.0
  9
$UCSORGLEFT
 10
0.0
 20
0.0
 30
0.0
  9
$UCSORGRIGHT
 10
0.0
 20
0.0
 30
0.0
  9
$UCSORGFRONT
 10
0.0
 20
0.0
 30
0.0
  9
$UCSORGBACK
 10
0.0
 20
0.0
 30
0.0
  9
$PUCSBASE
  2

  9
$PUCSNAME
  2

  9
$PUCSORG
 10
0.0
 20
0.0
 30
0.0
  9
$PUCSXDIR
 10
1.0
 20
0.0
 30
0.0
  9
$PUCSYDIR
 10
0.0
 20
1.0
 30
0.0
  9
$PUCSORTHOREF
  2

  9
$PUCSORTHOVIEW
 70
     0
  9
$PUCSORGTOP
 10
0.0
 20
0.0
 30
0.0
  9
$PUCSORGBOTTOM
 10
0.0
 20
0.0
 30
0.0
  9
$PUCSORGLEFT
 10
0.0
 20
0.0
 30
0.0
  9
$PUCSORGRIGHT
 10
0.0
 20
0.0
 30
0.0
  9
$PUCSORGFRONT
 10
0.0
 20
0.0
 30
0.0
  9
$PUCSORGBACK
 10
0.0
 20
0.0
 30
0.0
  9
$USERI1
 70
     0
  9
$USERI2
 70
     0
  9
$USERI3
 70
     0
  9
$USERI4
 70
     0
  9
$USERI5
 70
     0
  9
$USERR1
 40
0.0
  9
$USERR2
 40
0.0
  9
$USERR3
 40
0.0
  9
$USERR4
 40
0.0
  9
$USERR5
 40
0.0
  9
$WORLDVIEW
 70
     1
  9
$SHADEDGE
 70
     3
  9
$SHADEDIF
 70
    70
  9
$TILEMODE
 70
     1
  9
$MAXACTVP
 70
    64
  9
$PINSBASE
 10
0.0
 20
0.0
 30
0.0
  9
$PLIMCHECK
 70
     0
  9
$PEXTMIN
 10
1.000000000000000E+20
 20
1.000000000000000E+20
 30
1.000000000000000E+20
  9
$PEXTMAX
 10
-1.000000000000000E+20
 20
-1.000000000000000E+20
 30
-1.000000000000000E+20
  9
$PLIMMIN
 10
0.0
 20
0.0
  9
$PLIMMAX
 10
12.0
 20
9.0
  9
$UNITMODE
 70
     0
  9
$VISRETAIN
 70
     1
  9
$PLINEGEN
 70
     0
  9
$PSLTSCALE
 70
     1
  9
$TREEDEPTH
 70
  3020
  9
$CMLSTYLE
  2
Standard
  9
$CMLJUST
 70
     0
  9
$CMLSCALE
 40
1.0
  9
$PROXYGRAPHICS
 70
     1
  9
$MEASUREMENT
 70
     0
  9
$CELWEIGHT
370
    -1
  9
$ENDCAPS
280
     0
  9
$JOINSTYLE
280
     0
  9
$LWDISPLAY
290
     1
  9
$INSUNITS
 70
     1
  9
$HYPERLINKBASE
  1

  9
$STYLESHEET
  1

  9
$XEDIT
290
     1
  9
$CEPSNTYPE
380
     0
  9
$PSTYLEMODE
290
     1
  9
$FINGERPRINTGUID
  2
{1DD996A8-1D58-8A80-DF35-198622B29F6A}
  9
$VERSIONGUID
  2
{FAEB1C32-E019-11D5-929B-00C0DF256EC4}
  9
$EXTNAMES
290
     1
  9
$PSVPSCALE
 40
0.0
  9
$OLESTARTUP
290
     0
  9
$SORTENTS
280
   127
  9
$INDEXCTL
280
     0
  9
$HIDETEXT
280
     1
  9
$XCLIPFRAME
280
     2
  9
$HALOGAP
280
     0
  9
$OBSCOLOR
 70
   257
  9
$OBSLTYPE
280
     0
  9
$INTERSECTIONDISPLAY
280
     0
  9
$INTERSECTIONCOLOR
 70
   257
  9
$DIMASSOC
280
     2
  9
$PROJECTNAME
  1

  9
$CAMERADISPLAY
290
     0
  9
$LENSLENGTH
 40
50.0
  9
$CAMERAHEIGHT
 40
0.0
  9
$STEPSPERSEC
 40
2.0
  9
$STEPSIZE
 40
6.0
  9
$3DDWFPREC
 40
2.0
  9
$PSOLWIDTH
 40
0.25
  9
$PSOLHEIGHT
 40
4.0
  9
$LOFTANG1
 40
1.570796326794897
  9
$LOFTANG2
 40
1.570796326794897
  9
$LOFTMAG1
 40
0.0
  9
$LOFTMAG2
 40
0.0
  9
$LOFTPARAM
 70
     7
  9
$LOFTNORMALS
280
     1
  9
$LATITUDE
 40
37.795
  9
$LONGITUDE
 40
-122.394
  9
$NORTHDIRECTION
 40
0.0
  9
$TIMEZONE
 70
 -8000
  9
$LIGHTGLYPHDISPLAY
280
     1
  9
$TILEMODELIGHTSYNCH
280
     1
  9
$CMATERIAL
347
3C
  9
$SOLIDHIST
280
     1
  9
$SHOWHIST
280
     1
  9
$DWFFRAME
280
     2
  9
$DGNFRAME
280
     2
  9
$REALWORLDSCALE
290
     1
  9
$INTERFERECOLOR
 62
   256
  9
$CSHADOW
280
     0
  9
$SHADOWPLANELOCATION
 40
0.0
  0
ENDSEC
  0
SECTION
  2
CLASSES
  0
CLASS
  1
ACDBDICTIONARYWDFLT
  2
AcDbDictionaryWithDefault
  3
ObjectDBX Classes
 90
        0
 91
        4
280
     0
281
     0
  0
CLASS
  1
VISUALSTYLE
  2
AcDbVisualStyle
  3
ObjectDBX Classes
 90
     4095
 91
        4
280
     0
281
     0
  0
CLASS
  1
MATERIAL
  2
AcDbMaterial
  3
ObjectDBX Classes
 90
     1153
 91
        4
280
     0
281
     0
  0
CLASS
  1
SUN
  2
AcDbSun
  3
SCENEOE
 90
     1024
 91
        4
280
     0
281
     0
  0
ENDSEC
  0
SECTION
  2
TABLES
  0
TABLE
  2
VPORT
  5
8
330
0
100
AcDbSymbolTable
 70
     1
  0
VPORT
  5
29
330
8
100
AcDbSymbolTableRecord
100
AcDbViewportTableRecord
  2
*Active
 70
     0
 10
0.0
 20
0.0
 11
1.0
 21
1.0
 12
0.0
 22
0.0
 13
0.0
 23
0.0
 14
0.5
 24
0.5
 15
0.5
 25
0.5
 16
0.0
 26
0.0
 36
1.0
 17
91.00082462281999
 27
-128.4993055234307
 37
0.0
 40
256.9986110468615
 41
0.7081814508812795
 42
50.0
 43
0.0
 44
0.0
 50
0.0
 51
0.0
 71
     0
 72
   100
 73
     1
 74
     3
 75
     0
 76
     0
 77
     0
 78
     0
281
     0
 65
     1
110
0.0
120
0.0
130
0.0
111
1.0
121
0.0
131
0.0
112
0.0
122
1.0
132
0.0
 79
     0
146
0.0
 60
     3
 61
     5
292
     1
282
     1
141
0.0
142
0.0
 63
   250
361
3F
  0
ENDTAB
  0
TABLE
  2
LTYPE
  5
5
330
0
100
AcDbSymbolTable
 70
     1
  0
LTYPE
  5
14
330
5
100
AcDbSymbolTableRecord
100
AcDbLinetypeTableRecord
  2
ByBlock
 70
     0
  3

 72
    65
 73
     0
 40
0.0
  0
LTYPE
  5
15
330
5
100
AcDbSymbolTableRecord
100
AcDbLinetypeTableRecord
  2
ByLayer
 70
     0
  3

 72
    65
 73
     0
 40
0.0
  0
LTYPE
  5
16
330
5
100
AcDbSymbolTableRecord
100
AcDbLinetypeTableRecord
  2
Continuous
 70
     0
  3
Solid line
 72
    65
 73
     0
 40
0.0
  0
ENDTAB
  0
TABLE
  2
LAYER
  5
2
330
0
100
AcDbSymbolTable
 70
     2
  0
LAYER
  5
10
330
2
100
AcDbSymbolTableRecord
100
AcDbLayerTableRecord
  2
0
 70
     0
 62
     7
  6
Continuous
370
    -3
390
F
347
3E
  0
LAYER
  5
40
330
2
100
AcDbSymbolTableRecord
100
AcDbLayerTableRecord
  2
_U+30EC_U+30A4_U+30E4_U+30FC 1
 70
     0
 62
     7
  6
Continuous
370
    -3
390
F
347
3E
  0
ENDTAB
  0
TABLE
  2
STYLE
  5
3
330
0
100
AcDbSymbolTable
 70
     1
  0
STYLE
  5
11
330
3
100
AcDbSymbolTableRecord
100
AcDbTextStyleTableRecord
  2
Standard
 70
     0
 40
0.0
 41
1.0
 50
0.0
 71
     0
 42
0.2
  3
txt
  4

  0
ENDTAB
  0
TABLE
  2
VIEW
  5
6
330
0
100
AcDbSymbolTable
 70
     0
  0
ENDTAB
  0
TABLE
  2
UCS
  5
7
330
0
100
AcDbSymbolTable
 70
     0
  0
ENDTAB
  0
TABLE
  2
APPID
  5
9
330
0
100
AcDbSymbolTable
 70
     1
  0
APPID
  5
12
330
9
100
AcDbSymbolTableRecord
100
AcDbRegAppTableRecord
  2
ACAD
 70
     0
  0
ENDTAB
  0
TABLE
  2
DIMSTYLE
  5
A
330
0
100
AcDbSymbolTable
 70
     1
100
AcDbDimStyleTable
  0
DIMSTYLE
105
27
330
A
100
AcDbSymbolTableRecord
100
AcDbDimStyleTableRecord
  2
Standard
 70
     0
178
     0
340
11
  0
ENDTAB
  0
TABLE
  2
BLOCK_RECORD
  5
1
330
0
100
AcDbSymbolTable
 70
     9
  0
BLOCK_RECORD
  5
1F
330
1
100
AcDbSymbolTableRecord
100
AcDbBlockTableRecord
  2
*Model_Space
340
22
 70
     0
280
     1
281
     0
  0
BLOCK_RECORD
  5
1B
330
1
100
AcDbSymbolTableRecord
100
AcDbBlockTableRecord
  2
*Paper_Space
340
1E
 70
     0
280
     1
281
     0
  0
BLOCK_RECORD
  5
23
330
1
100
AcDbSymbolTableRecord
100
AcDbBlockTableRecord
  2
*Paper_Space0
340
26
 70
     0
280
     1
281
     0
  0
BLOCK_RECORD
  5
5E
330
1
100
AcDbSymbolTableRecord
100
AcDbBlockTableRecord
  2
block 2
340
0
102
{BLKREFS
331
5F
102
}
 70
     0
280
     1
281
     0
  0
BLOCK_RECORD
  5
67
330
1
100
AcDbSymbolTableRecord
100
AcDbBlockTableRecord
  2
block 3
340
0
102
{BLKREFS
331
68
102
}
 70
     0
280
     1
281
     0
  0
BLOCK_RECORD
  5
7C
330
1
100
AcDbSymbolTableRecord
100
AcDbBlockTableRecord
  2
block 4
340
0
102
{BLKREFS
331
7D
102
}
 70
     0
280
     1
281
     0
  0
BLOCK_RECORD
  5
8B
330
1
100
AcDbSymbolTableRecord
100
AcDbBlockTableRecord
  2
block 5
340
0
102
{BLKREFS
331
8C
102
}
 70
     0
280
     1
281
     0
  0
BLOCK_RECORD
  5
9A
330
1
100
AcDbSymbolTableRecord
100
AcDbBlockTableRecord
  2
block 6
340
0
102
{BLKREFS
331
9B
102
}
 70
     0
280
     1
281
     0
  0
BLOCK_RECORD
  5
AD
330
1
100
AcDbSymbolTableRecord
100
AcDbBlockTableRecord
  2
block 7
340
0
102
{BLKREFS
331
AE
102
}
 70
     0
280
     1
281
     0
  0
BLOCK_RECORD
  5
C4
330
1
100
AcDbSymbolTableRecord
100
AcDbBlockTableRecord
  2
block 8
340
0
102
{BLKREFS
331
C5
102
}
 70
     0
280
     1
281
     0
  0
BLOCK_RECORD
  5
CE
330
1
100
AcDbSymbolTableRecord
100
AcDbBlockTableRecord
  2
block 9
340
0
102
{BLKREFS
331
CF
102
}
 70
     0
280
     1
281
     0
  0
ENDTAB
  0
ENDSEC
  0
SECTION
  2
BLOCKS
  0
BLOCK
  5
20
330
1F
100
AcDbEntity
  8
0
100
AcDbBlockBegin
  2
*Model_Space
 70
     0
 10
0.0
 20
0.0
 30
0.0
  3
*Model_Space
  1

  0
ENDBLK
  5
21
330
1F
100
AcDbEntity
  8
0
100
AcDbBlockEnd
  0
BLOCK
  5
1C
330
1B
100
AcDbEntity
 67
     1
  8
0
100
AcDbBlockBegin
  2
*Paper_Space
 70
     0
 10
0.0
 20
0.0
 30
0.0
  3
*Paper_Space
  1

  0
ENDBLK
  5
1D
330
1B
100
AcDbEntity
 67
     1
  8
0
100
AcDbBlockEnd
  0
BLOCK
  5
24
330
23
100
AcDbEntity
  8
0
100
AcDbBlockBegin
  2
*Paper_Space0
 70
     0
 10
0.0
 20
0.0
 30
0.0
  3
*Paper_Space0
  1

  0
ENDBLK
  5
25
330
23
100
AcDbEntity
  8
0
100
AcDbBlockEnd
  0
BLOCK
  5
60
330
5E
100
AcDbEntity
  8
0
100
AcDbBlockBegin
  2
block 2
 70
     0
 10
0.0
 20
0.0
 30
0.0
  3
block 2
  1

  0
SPLINE
  5
62
330
5E
100
AcDbEntity
  8
_U+30EC_U+30A4_U+30E4_U+30FC 1
370
     0
100
AcDbSpline
210
0.0
220
0.0
230
1.0
 70
    11
 71
     3
 72
    26
 73
    22
 74
     0
 42
0.0000000001
 43
0.0000000001
 12
1.0
 22
0.0
 32
0.0
 13
1.0
 23
0.0
 33
0.0
 40
0.0
 40
0.0
 40
0.0
 40
0.0
 40
1.0
 40
1.0
 40
1.0
 40
2.0
 40
2.0
 40
2.0
 40
3.0
 40
3.0
 40
3.0
 40
4.0
 40
4.0
 40
4.0
 40
5.0
 40
5.0
 40
5.0
 40
6.0
 40
6.0
 40
6.0
 40
7.0
 40
7.0
 40
7.0
 40
7.0
 10
104.8370116925408
 20
-128.3146484054213
 30
0.0
 10
104.8370116925408
 20
-128.3146484054213
 30
0.0
 10
103.7325140799696
 20
-128.3146484054213
 30
0.0
 10
103.7325140799696
 20
-128.3146484054213
 30
0.0
 10
103.7325140799696
 20
-128.3146484054213
 30
0.0
 10
103.7325140799696
 20
-128.6446885529083
 30
0.0
 10
103.7325140799696
 20
-128.6446885529083
 30
0.0
 10
103.7325140799696
 20
-128.6446885529083
 30
0.0
 10
103.5843749741039
 20
-128.6446885529083
 30
0.0
 10
103.5843749741039
 20
-128.6446885529083
 30
0.0
 10
103.5699055730659
 20
-128.3125813481302
 30
0.0
 10
103.406608047065
 20
-128.2660725590793
 30
0.0
 10
103.2922308769547
 20
-128.2364447379062
 30
0.0
 10
103.2922308769547
 20
-128.2364447379062
 30
0.0
 10
103.2922308769547
 20
-128.0903726893316
 30
0.0
 10
103.2922308769547
 20
-128.0903726893316
 30
0.0
 10
103.2922308769547
 20
-128.0903726893316
 30
0.0
 10
104.8370116925408
 20
-128.0903726893316
 30
0.0
 10
104.8370116925408
 20
-128.0903726893316
 30
0.0
 10
104.8370116925408
 20
-128.0903726893316
 30
0.0
 10
104.8370116925408
 20
-128.3146484054213
 30
0.0
 10
104.8370116925408
 20
-128.3146484054213
 30
0.0
  0
HATCH
  5
63
330
5E
100
AcDbEntity
  8
_U+30EC_U+30A4_U+30E4_U+30FC 1
 62
     7
420
 16777215
100
AcDbHatch
 10
0.0
 20
0.0
 30
0.0
210
0.0
220
0.0
230
1.0
  2
SOLID
 70
     1
 71
     0
 91
        1
 92
        1
 93
        1
 72
     4
 94
        3
 73
     0
 74
     1
 95
       26
 96
       22
 40
0.0
 40
0.0
 40
0.0
 40
0.0
 40
1.0
 40
1.0
 40
1.0
 40
2.0
 40
2.0
 40
2.0
 40
3.0
 40
3.0
 40
3.0
 40
4.0
 40
4.0
 40
4.0
 40
5.0
 40
5.0
 40
5.0
 40
6.0
 40
6.0
 40
6.0
 40
7.0
 40
7.0
 40
7.0
 40
7.0
 10
104.8370116925408
 20
-128.3146484054213
 10
104.8370116925408
 20
-128.3146484054213
 10
103.7325140799696
 20
-128.3146484054213
 10
103.7325140799696
 20
-128.3146484054213
 10
103.7325140799696
 20
-128.3146484054213
 10
103.7325140799696
 20
-128.6446885529083
 10
103.7325140799696
 20
-128.6446885529083
 10
103.7325140799696
 20
-128.6446885529083
 10
103.5843749741039
 20
-128.6446885529083
 10
103.5843749741039
 20
-128.6446885529083
 10
103.5699055730659
 20
-128.3125813481302
 10
103.406608047065
 20
-128.2660725590793
 10
103.2922308769547
 20
-128.2364447379062
 10
103.2922308769547
 20
-128.2364447379062
 10
103.2922308769547
 20
-128.0903726893316
 10
103.2922308769547
 20
-128.0903726893316
 10
103.2922308769547
 20
-128.0903726893316
 10
104.8370116925408
 20
-128.0903726893316
 10
104.8370116925408
 20
-128.0903726893316
 10
104.8370116925408
 20
-128.0903726893316
 10
104.8370116925408
 20
-128.3146484054213
 10
104.8370116925408
 20
-128.3146484054213
 97
        0
 97
        0
 75
     2
 76
     1
 98
        0
  0
SPLINE
  5
64
330
5E
100
AcDbEntity
  8
_U+30EC_U+30A4_U+30E4_U+30FC 1
370
     0
100
AcDbSpline
210
0.0
220
0.0
230
1.0
 70
    11
 71
     3
 72
    29
 73
    25
 74
     0
 42
0.0000000001
 43
0.0000000001
 12
1.0
 22
0.0
 32
0.0
 13
1.0
 23
0.0
 33
0.0
 40
0.0
 40
0.0
 40
0.0
 40
0.0
 40
1.0
 40
1.0
 40
1.0
 40
2.0
 40
2.0
 40
2.0
 40
3.0
 40
3.0
 40
3.0
 40
4.0
 40
4.0
 40
4.0
 40
5.0
 40
5.0
 40
5.0
 40
6.0
 40
6.0
 40
6.0
 40
7.0
 40
7.0
 40
7.0
 40
8.0
 40
8.0
 40
8.0
 40
8.0
 10
104.6592447655019
 20
-126.6913194127716
 30
0.0
 10
104.868706571005
 20
-126.7994954110085
 30
0.0
 10
104.8873100866254
 20
-126.9727837139165
 30
0.0
 10
104.8873100866254
 20
-127.089227941318
 30
0.0
 10
104.8873100866254
 20
-127.2501139004791
 30
0.0
 10
104.8411458071231
 20
-127.3917073249229
 30
0.0
 10
104.6592447655019
 20
-127.4867919603158
 30
0.0
 10
104.4642523610367
 20
-127.5904893344218
 30
0.0
 10
104.2279188107486
 20
-127.6097818691392
 30
0.0
 10
104.0646212847477
 20
-127.6097818691392
 30
0.0
 10
103.9206162934643
 20
-127.6097818691392
 30
0.0
 10
103.6691243230411
 20
-127.592556391713
 30
0.0
 10
103.4699978039936
 20
-127.4867919603158
 30
0.0
 10
103.2674261894609
 20
-127.3789604716275
 30
0.0
 10
103.2439995401612
 20
-127.2180745124663
 30
0.0
 10
103.2439995401612
 20
-127.089227941318
 30
0.0
 10
103.2439995401612
 20
-126.930409039448
 30
0.0
 10
103.2880967623724
 20
-126.786748557713
 30
0.0
 10
103.4699978039936
 20
-126.6913194127716
 30
0.0
 10
103.6629231511676
 20
-126.5921006627964
 30
0.0
 10
103.8909884722911
 20
-126.5686740134967
 30
0.0
 10
104.0646212847477
 20
-126.5686740134967
 30
0.0
 10
104.2361870399132
 20
-126.5686740134967
 30
0.0
 10
104.4663194183279
 20
-126.5900336055053
 30
0.0
 10
104.6592447655019
 20
-126.6913194127716
 30
0.0
  0
SPLINE
  5
65
330
5E
100
AcDbEntity
  8
_U+30EC_U+30A4_U+30E4_U+30FC 1
370
     0
100
AcDbSpline
210
0.0
220
0.0
230
1.0
 70
    11
 71
     3
 72
    17
 73
    13
 74
     0
 42
0.0000000001
 43
0.0000000001
 12
1.0
 22
0.0
 32
0.0
 13
1.0
 23
0.0
 33
0.0
 40
0.0
 40
0.0
 40
0.0
 40
0.0
 40
1.0
 40
1.0
 40
1.0
 40
2.0
 40
2.0
 40
2.0
 40
3.0
 40
3.0
 40
3.0
 40
4.0
 40
4.0
 40
4.0
 40
4.0
 10
103.4362358682382
 20
-127.089227941318
 30
0.0
 10
103.4362358682382
 20
-127.3389973639986
 30
0.0
 10
103.7201117362227
 20
-127.3855061530495
 30
0.0
 10
104.0646212847477
 20
-127.3855061530495
 30
0.0
 10
104.3843261457789
 20
-127.3855061530495
 30
0.0
 10
104.6930067012573
 20
-127.3493326504543
 30
0.0
 10
104.6930067012573
 20
-127.089227941318
 30
0.0
 10
104.6930067012573
 20
-126.8415255759285
 30
0.0
 10
104.4118869096609
 20
-126.7929497295865
 30
0.0
 10
104.0646212847477
 20
-126.7929497295865
 30
0.0
 10
103.7449164237166
 20
-126.7929497295865
 30
0.0
 10
103.4362358682382
 20
-126.8311902894728
 30
0.0
 10
103.4362358682382
 20
-127.089227941318
 30
0.0
  0
HATCH
  5
66
330
5E
100
AcDbEntity
  8
_U+30EC_U+30A4_U+30E4_U+30FC 1
 62
     7
420
 16777215
100
AcDbHatch
 10
0.0
 20
0.0
 30
0.0
210
0.0
220
0.0
230
1.0
  2
SOLID
 70
     1
 71
     0
 91
        2
 92
        1
 93
        1
 72
     4
 94
        3
 73
     0
 74
     1
 95
       29
 96
       25
 40
0.0
 40
0.0
 40
0.0
 40
0.0
 40
1.0
 40
1.0
 40
1.0
 40
2.0
 40
2.0
 40
2.0
 40
3.0
 40
3.0
 40
3.0
 40
4.0
 40
4.0
 40
4.0
 40
5.0
 40
5.0
 40
5.0
 40
6.0
 40
6.0
 40
6.0
 40
7.0
 40
7.0
 40
7.0
 40
8.0
 40
8.0
 40
8.0
 40
8.0
 10
104.6592447655019
 20
-126.6913194127716
 10
104.868706571005
 20
-126.7994954110085
 10
104.8873100866254
 20
-126.9727837139165
 10
104.8873100866254
 20
-127.089227941318
 10
104.8873100866254
 20
-127.2501139004791
 10
104.8411458071231
 20
-127.3917073249229
 10
104.6592447655019
 20
-127.4867919603158
 10
104.4642523610367
 20
-127.5904893344218
 10
104.2279188107486
 20
-127.6097818691392
 10
104.0646212847477
 20
-127.6097818691392
 10
103.9206162934643
 20
-127.6097818691392
 10
103.6691243230411
 20
-127.592556391713
 10
103.4699978039936
 20
-127.4867919603158
 10
103.2674261894609
 20
-127.3789604716275
 10
103.2439995401612
 20
-127.2180745124663
 10
103.2439995401612
 20
-127.089227941318
 10
103.2439995401612
 20
-126.930409039448
 10
103.2880967623724
 20
-126.786748557713
 10
103.4699978039936
 20
-126.6913194127716
 10
103.6629231511676
 20
-126.5921006627964
 10
103.8909884722911
 20
-126.5686740134967
 10
104.0646212847477
 20
-126.5686740134967
 10
104.2361870399132
 20
-126.5686740134967
 10
104.4663194183279
 20
-126.5900336055053
 10
104.6592447655019
 20
-126.6913194127716
 97
        0
 97
        0
 92
        1
 93
        1
 72
     4
 94
        3
 73
     0
 74
     1
 95
       17
 96
       13
 40
0.0
 40
0.0
 40
0.0
 40
0.0
 40
1.0
 40
1.0
 40
1.0
 40
2.0
 40
2.0
 40
2.0
 40
3.0
 40
3.0
 40
3.0
 40
4.0
 40
4.0
 40
4.0
 40
4.0
 10
103.4362358682382
 20
-127.089227941318
 10
103.4362358682382
 20
-127.3389973639986
 10
103.7201117362227
 20
-127.3855061530495
 10
104.0646212847477
 20
-127.3855061530495
 10
104.3843261457789
 20
-127.3855061530495
 10
104.6930067012573
 20
-127.3493326504543
 10
104.6930067012573
 20
-127.089227941318
 10
104.6930067012573
 20
-126.8415255759285
 10
104.4118869096609
 20
-126.7929497295865
 10
104.0646212847477
 20
-126.7929497295865
 10
103.7449164237166
 20
-126.7929497295865
 10
103.4362358682382
 20
-126.8311902894728
 10
103.4362358682382
 20
-127.089227941318
 97
        0
 97
        0
 75
     2
 76
     1
 98
        0
  0
ENDBLK
  5
61
330
5E
100
AcDbEntity
  8
0
100
AcDbBlockEnd
  0
BLOCK
  5
69
330
67
100
AcDbEntity
  8
0
100
AcDbBlockBegin
  2
block 3
 70
     0
 10
0.0
 20
0.0
 30
0.0
  3
block 3
  1

  0
SPLINE
  5
6B
330
67
100
AcDbEntity
  8
_U+30EC_U+30A4_U+30E4_U+30FC 1
370
     0
100
AcDbSpline
210
0.0
220
0.0
230
1.0
 70
    11
 71
     3
 72
    32
 73
    28
 74
     0
 42
0.0000000001
 43
0.0000000001
 12
1.0
 22
0.0
 32
0.0
 13
1.0
 23
0.0
 33
0.0
 40
0.0
 40
0.0
 40
0.0
 40
0.0
 40
1.0
 40
1.0
 40
1.0
 40
2.0
 40
2.0
 40
2.0
 40
3.0
 40
3.0
 40
3.0
 40
4.0
 40
4.0
 40
4.0
 40
5.0
 40
5.0
 40
5.0
 40
6.0
 40
6.0
 40
6.0
 40
7.0
 40
7.0
 40
7.0
 40
8.0
 40
8.0
 40
8.0
 40
9.0
 40
9.0
 40
9.0
 40
9.0
 10
84.9381401697377
 20
-124.6680148342844
 30
0.0
 10
84.9381401697377
 20
-125.1840901379748
 30
0.0
 10
84.38416881570951
 20
-125.1927028766879
 30
0.0
 10
84.17022838607551
 20
-125.1927028766879
 30
0.0
 10
83.93975149811229
 20
-125.1927028766879
 30
0.0
 10
83.29241805643385
 20
-125.1734103419705
 30
0.0
 10
83.29241805643385
 20
-124.6297742743981
 30
0.0
 10
83.29241805643385
 20
-124.4564859714901
 30
0.0
 10
83.36235349478441
 20
-124.2108506633917
 30
0.0
 10
83.6944606995625
 20
-124.172954613054
 30
0.0
 10
83.6944606995625
 20
-124.172954613054
 30
0.0
 10
83.6944606995625
 20
-124.3865505331395
 30
0.0
 10
83.6944606995625
 20
-124.3865505331395
 30
0.0
 10
83.63727211450735
 20
-124.3972303291438
 30
0.0
 10
83.48913300864162
 20
-124.428925207608
 30
0.0
 10
83.48913300864162
 20
-124.6318413316893
 30
0.0
 10
83.48913300864162
 20
-124.9239854288384
 30
0.0
 10
83.8171060988374
 20
-124.9639485364674
 30
0.0
 10
84.02208928020976
 20
-124.9766953897628
 30
0.0
 10
83.94388561269459
 20
-124.883677811661
 30
0.0
 10
83.88462997034829
 20
-124.8158094306016
 30
0.0
 10
83.88462997034829
 20
-124.6339083889804
 30
0.0
 10
83.88462997034829
 20
-124.4540744046504
 30
0.0
 10
83.99280596858513
 20
-124.1515950210454
 30
0.0
 10
84.3989827262961
 20
-124.1515950210454
 30
0.0
 10
84.71834307777875
 20
-124.1515950210454
 30
0.0
 10
84.9381401697377
 20
-124.3507215400929
 30
0.0
 10
84.9381401697377
 20
-124.6680148342844
 30
0.0
  0
SPLINE
  5
6C
330
67
100
AcDbEntity
  8
_U+30EC_U+30A4_U+30E4_U+30FC 1
370
     0
100
AcDbSpline
210
0.0
220
0.0
230
1.0
 70
    11
 71
     3
 72
    17
 73
    13
 74
     0
 42
0.0000000001
 43
0.0000000001
 12
1.0
 22
0.0
 32
0.0
 13
1.0
 23
0.0
 33
0.0
 40
0.0
 40
0.0
 40
0.0
 40
0.0
 40
1.0
 40
1.0
 40
1.0
 40
2.0
 40
2.0
 40
2.0
 40
3.0
 40
3.0
 40
3.0
 40
4.0
 40
4.0
 40
4.0
 40
4.0
 10
84.07927786526491
 20
-124.6511338664067
 30
0.0
 10
84.07927786526491
 20
-124.9133056328342
 30
0.0
 10
84.29080672805925
 20
-124.9512016831719
 30
0.0
 10
84.4072509554607
 20
-124.9512016831719
 30
0.0
 10
84.58295082520843
 20
-124.9512016831719
 30
0.0
 10
84.74590384166075
 20
-124.856117047779
 30
0.0
 10
84.74590384166075
 20
-124.6721489488667
 30
0.0
 10
84.74590384166075
 20
-124.5515706068829
 30
0.0
 10
84.68664819931445
 20
-124.3758707371352
 30
0.0
 10
84.40104978358724
 20
-124.3758707371352
 30
0.0
 10
84.17677406749748
 20
-124.3758707371352
 30
0.0
 10
84.07927786526491
 20
-124.5153971042878
 30
0.0
 10
84.07927786526491
 20
-124.6511338664067
 30
0.0
  0
HATCH
  5
6D
330
67
100
AcDbEntity
  8
_U+30EC_U+30A4_U+30E4_U+30FC 1
 62
     7
420
 16777215
100
AcDbHatch
 10
0.0
 20
0.0
 30
0.0
210
0.0
220
0.0
230
1.0
  2
SOLID
 70
     1
 71
     0
 91
        2
 92
        1
 93
        1
 72
     4
 94
        3
 73
     0
 74
     1
 95
       32
 96
       28
 40
0.0
 40
0.0
 40
0.0
 40
0.0
 40
1.0
 40
1.0
 40
1.0
 40
2.0
 40
2.0
 40
2.0
 40
3.0
 40
3.0
 40
3.0
 40
4.0
 40
4.0
 40
4.0
 40
5.0
 40
5.0
 40
5.0
 40
6.0
 40
6.0
 40
6.0
 40
7.0
 40
7.0
 40
7.0
 40
8.0
 40
8.0
 40
8.0
 40
9.0
 40
9.0
 40
9.0
 40
9.0
 10
84.9381401697377
 20
-124.6680148342844
 10
84.9381401697377
 20
-125.1840901379748
 10
84.38416881570951
 20
-125.1927028766879
 10
84.17022838607551
 20
-125.1927028766879
 10
83.93975149811229
 20
-125.1927028766879
 10
83.29241805643385
 20
-125.1734103419705
 10
83.29241805643385
 20
-124.6297742743981
 10
83.29241805643385
 20
-124.4564859714901
 10
83.36235349478441
 20
-124.2108506633917
 10
83.6944606995625
 20
-124.172954613054
 10
83.6944606995625
 20
-124.172954613054
 10
83.6944606995625
 20
-124.3865505331395
 10
83.6944606995625
 20
-124.3865505331395
 10
83.63727211450735
 20
-124.3972303291438
 10
83.48913300864162
 20
-124.428925207608
 10
83.48913300864162
 20
-124.6318413316893
 10
83.48913300864162
 20
-124.9239854288384
 10
83.8171060988374
 20
-124.9639485364674
 10
84.02208928020976
 20
-124.9766953897628
 10
83.94388561269459
 20
-124.883677811661
 10
83.88462997034829
 20
-124.8158094306016
 10
83.88462997034829
 20
-124.6339083889804
 10
83.88462997034829
 20
-124.4540744046504
 10
83.99280596858513
 20
-124.1515950210454
 10
84.3989827262961
 20
-124.1515950210454
 10
84.71834307777875
 20
-124.1515950210454
 10
84.9381401697377
 20
-124.3507215400929
 10
84.9381401697377
 20
-124.6680148342844
 97
        0
 97
        0
 92
        1
 93
        1
 72
     4
 94
        3
 73
     0
 74
     1
 95
       17
 96
       13
 40
0.0
 40
0.0
 40
0.0
 40
0.0
 40
1.0
 40
1.0
 40
1.0
 40
2.0
 40
2.0
 40
2.0
 40
3.0
 40
3.0
 40
3.0
 40
4.0
 40
4.0
 40
4.0
 40
4.0
 10
84.07927786526491
 20
-124.6511338664067
 10
84.07927786526491
 20
-124.9133056328342
 10
84.29080672805925
 20
-124.9512016831719
 10
84.4072509554607
 20
-124.9512016831719
 10
84.58295082520843
 20
-124.9512016831719
 10
84.74590384166075
 20
-124.856117047779
 10
84.74590384166075
 20
-124.6721489488667
 10
84.74590384166075
 20
-124.5515706068829
 10
84.68664819931445
 20
-124.3758707371352
 10
84.40104978358724
 20
-124.3758707371352
 10
84.17677406749748
 20
-124.3758707371352
 10
84.07927786526491
 20
-124.5153971042878
 10
84.07927786526491
 20
-124.6511338664067
 97
        0
 97
        0
 75
     2
 76
     1
 98
        0
  0
ENDBLK
  5
6A
330
67
100
AcDbEntity
  8
0
100
AcDbBlockEnd
  0
BLOCK
  5
7E
330
7C
100
AcDbEntity
  8
0
100
AcDbBlockBegin
  2
block 4
 70
     0
 10
0.0
 20
0.0
 30
0.0
  3
block 4
  1

  0
SPLINE
  5
80
330
7C
100
AcDbEntity
  8
_U+30EC_U+30A4_U+30E4_U+30FC 1
370
     0
100
AcDbSpline
210
0.0
220
0.0
230
1.0
 70
    11
 71
     3
 72
    62
 73
    58
 74
     0
 42
0.0000000001
 43
0.0000000001
 12
1.0
 22
0.0
 32
0.0
 13
1.0
 23
0.0
 33
0.0
 40
0.0
 40
0.0
 40
0.0
 40
0.0
 40
1.0
 40
1.0
 40
1.0
 40
2.0
 40
2.0
 40
2.0
 40
3.0
 40
3.0
 40
3.0
 40
4.0
 40
4.0
 40
4.0
 40
5.0
 40
5.0
 40
5.0
 40
6.0
 40
6.0
 40
6.0
 40
7.0
 40
7.0
 40
7.0
 40
8.0
 40
8.0
 40
8.0
 40
9.0
 40
9.0
 40
9.0
 40
10.0
 40
10.0
 40
10.0
 40
11.0
 40
11.0
 40
11.0
 40
12.0
 40
12.0
 40
12.0
 40
13.0
 40
13.0
 40
13.0
 40
14.0
 40
14.0
 40
14.0
 40
15.0
 40
15.0
 40
15.0
 40
16.0
 40
16.0
 40
16.0
 40
17.0
 40
17.0
 40
17.0
 40
18.0
 40
18.0
 40
18.0
 40
19.0
 40
19.0
 40
19.0
 40
19.0
 10
94.51343856144109
 20
-119.3663573920334
 30
0.0
 10
94.41800941649967
 20
-119.3663573920334
 30
0.0
 10
94.20027938183188
 20
-119.3453423095734
 30
0.0
 10
94.0752224157173
 20
-119.1593071533699
 30
0.0
 10
94.00115286278444
 20
-119.0469970405507
 30
0.0
 10
93.99701874820214
 20
-118.9477782905756
 30
0.0
 10
93.99288463361984
 20
-118.8630289416384
 30
0.0
 10
93.99288463361984
 20
-118.8630289416384
 30
0.0
 10
94.2130262351273
 20
-118.8630289416384
 30
0.0
 10
94.2130262351273
 20
-118.8630289416384
 30
0.0
 10
94.21509329241846
 20
-118.9370984945713
 30
0.0
 10
94.2254285788742
 20
-119.1717094971168
 30
0.0
 10
94.50895993731027
 20
-119.1717094971168
 30
0.0
 10
94.64641924717174
 20
-119.1717094971168
 30
0.0
 10
94.7990369771683
 20
-119.1021185683148
 30
0.0
 10
94.7990369771683
 20
-118.8737087376427
 30
0.0
 10
94.7990369771683
 20
-118.7572645102412
 30
0.0
 10
94.76079641728202
 20
-118.7086886638992
 30
0.0
 10
94.72910153881773
 20
-118.6769937854349
 30
0.0
 10
94.65503198588486
 20
-118.602924232502
 30
0.0
 10
94.53858775848342
 20
-118.5901773792066
 30
0.0
 10
94.48381074026794
 20
-118.5901773792066
 30
0.0
 10
94.46451820555055
 20
-118.5901773792066
 30
0.0
 10
94.42868921250394
 20
-118.5922444364978
 30
0.0
 10
94.40112844862195
 20
-118.5963785510801
 30
0.0
 10
94.40112844862195
 20
-118.5963785510801
 30
0.0
 10
94.40112844862195
 20
-118.4017306561635
 30
0.0
 10
94.40112844862195
 20
-118.4017306561635
 30
0.0
 10
94.43936900850822
 20
-118.4082763375854
 30
0.0
 10
94.48139917342827
 20
-118.4103433948766
 30
0.0
 10
94.48794485485024
 20
-118.4103433948766
 30
0.0
 10
94.55340166906998
 20
-118.4103433948766
 30
0.0
 10
94.7521836785689
 20
-118.388983802868
 30
0.0
 10
94.7521836785689
 20
-118.1523057430314
 30
0.0
 10
94.7521836785689
 20
-117.9745388159925
 30
0.0
 10
94.62127005012941
 20
-117.9194172882285
 30
0.0
 10
94.51102699460141
 20
-117.9194172882285
 30
0.0
 10
94.24678817088275
 20
-117.9194172882285
 30
0.0
 10
94.23817543216963
 20
-118.1523057430314
 30
0.0
 10
94.23404131758733
 20
-118.2239637291246
 30
0.0
 10
94.23404131758733
 20
-118.2239637291246
 30
0.0
 10
94.03078068395759
 20
-118.2239637291246
 30
0.0
 10
94.03078068395759
 20
-118.2239637291246
 30
0.0
 10
94.03939342267071
 20
-118.0992512725585
 30
0.0
 10
94.0669541865527
 20
-117.7227023360207
 30
0.0
 10
94.52377384789683
 20
-117.7227023360207
 30
0.0
 10
94.7480495639866
 20
-117.7227023360207
 30
0.0
 10
94.98920624795409
 20
-117.8498263594264
 30
0.0
 10
94.98920624795409
 20
-118.1457600616094
 30
0.0
 10
94.98920624795409
 20
-118.3321397273614
 30
0.0
 10
94.8941216125612
 20
-118.4144775094589
 30
0.0
 10
94.79455835303747
 20
-118.4758002090963
 30
0.0
 10
94.85588105267492
 20
-118.5033609729783
 30
0.0
 10
95.03778209429612
 20
-118.5836316977847
 30
0.0
 10
95.03778209429612
 20
-118.8609618843473
 30
0.0
 10
95.03778209429612
 20
-119.1992702609988
 30
0.0
 10
94.79042423845517
 20
-119.3663573920334
 30
0.0
 10
94.51343856144109
 20
-119.3663573920334
 30
0.0
  0
HATCH
  5
81
330
7C
100
AcDbEntity
  8
_U+30EC_U+30A4_U+30E4_U+30FC 1
 62
     7
420
 16777215
100
AcDbHatch
 10
0.0
 20
0.0
 30
0.0
210
0.0
220
0.0
230
1.0
  2
SOLID
 70
     1
 71
     0
 91
        1
 92
        1
 93
        1
 72
     4
 94
        3
 73
     0
 74
     1
 95
       62
 96
       58
 40
0.0
 40
0.0
 40
0.0
 40
0.0
 40
1.0
 40
1.0
 40
1.0
 40
2.0
 40
2.0
 40
2.0
 40
3.0
 40
3.0
 40
3.0
 40
4.0
 40
4.0
 40
4.0
 40
5.0
 40
5.0
 40
5.0
 40
6.0
 40
6.0
 40
6.0
 40
7.0
 40
7.0
 40
7.0
 40
8.0
 40
8.0
 40
8.0
 40
9.0
 40
9.0
 40
9.0
 40
10.0
 40
10.0
 40
10.0
 40
11.0
 40
11.0
 40
11.0
 40
12.0
 40
12.0
 40
12.0
 40
13.0
 40
13.0
 40
13.0
 40
14.0
 40
14.0
 40
14.0
 40
15.0
 40
15.0
 40
15.0
 40
16.0
 40
16.0
 40
16.0
 40
17.0
 40
17.0
 40
17.0
 40
18.0
 40
18.0
 40
18.0
 40
19.0
 40
19.0
 40
19.0
 40
19.0
 10
94.51343856144109
 20
-119.3663573920334
 10
94.41800941649967
 20
-119.3663573920334
 10
94.20027938183188
 20
-119.3453423095734
 10
94.0752224157173
 20
-119.1593071533699
 10
94.00115286278444
 20
-119.0469970405507
 10
93.99701874820214
 20
-118.9477782905756
 10
93.99288463361984
 20
-118.8630289416384
 10
93.99288463361984
 20
-118.8630289416384
 10
94.2130262351273
 20
-118.8630289416384
 10
94.2130262351273
 20
-118.8630289416384
 10
94.21509329241846
 20
-118.9370984945713
 10
94.2254285788742
 20
-119.1717094971168
 10
94.50895993731027
 20
-119.1717094971168
 10
94.64641924717174
 20
-119.1717094971168
 10
94.7990369771683
 20
-119.1021185683148
 10
94.7990369771683
 20
-118.8737087376427
 10
94.7990369771683
 20
-118.7572645102412
 10
94.76079641728202
 20
-118.7086886638992
 10
94.72910153881773
 20
-118.6769937854349
 10
94.65503198588486
 20
-118.602924232502
 10
94.53858775848342
 20
-118.5901773792066
 10
94.48381074026794
 20
-118.5901773792066
 10
94.46451820555055
 20
-118.5901773792066
 10
94.42868921250394
 20
-118.5922444364978
 10
94.40112844862195
 20
-118.5963785510801
 10
94.40112844862195
 20
-118.5963785510801
 10
94.40112844862195
 20
-118.4017306561635
 10
94.40112844862195
 20
-118.4017306561635
 10
94.43936900850822
 20
-118.4082763375854
 10
94.48139917342827
 20
-118.4103433948766
 10
94.48794485485024
 20
-118.4103433948766
 10
94.55340166906998
 20
-118.4103433948766
 10
94.7521836785689
 20
-118.388983802868
 10
94.7521836785689
 20
-118.1523057430314
 10
94.7521836785689
 20
-117.9745388159925
 10
94.62127005012941
 20
-117.9194172882285
 10
94.51102699460141
 20
-117.9194172882285
 10
94.24678817088275
 20
-117.9194172882285
 10
94.23817543216963
 20
-118.1523057430314
 10
94.23404131758733
 20
-118.2239637291246
 10
94.23404131758733
 20
-118.2239637291246
 10
94.03078068395759
 20
-118.2239637291246
 10
94.03078068395759
 20
-118.2239637291246
 10
94.03939342267071
 20
-118.0992512725585
 10
94.0669541865527
 20
-117.7227023360207
 10
94.52377384789683
 20
-117.7227023360207
 10
94.7480495639866
 20
-117.7227023360207
 10
94.98920624795409
 20
-117.8498263594264
 10
94.98920624795409
 20
-118.1457600616094
 10
94.98920624795409
 20
-118.3321397273614
 10
94.8941216125612
 20
-118.4144775094589
 10
94.79455835303747
 20
-118.4758002090963
 10
94.85588105267492
 20
-118.5033609729783
 10
95.03778209429612
 20
-118.5836316977847
 10
95.03778209429612
 20
-118.8609618843473
 10
95.03778209429612
 20
-119.1992702609988
 10
94.79042423845517
 20
-119.3663573920334
 10
94.51343856144109
 20
-119.3663573920334
 97
        0
 97
        0
 75
     2
 76
     1
 98
        0
  0
ENDBLK
  5
7F
330
7C
100
AcDbEntity
  8
0
100
AcDbBlockEnd
  0
BLOCK
  5
8D
330
8B
100
AcDbEntity
  8
0
100
AcDbBlockBegin
  2
block 5
 70
     0
 10
0.0
 20
0.0
 30
0.0
  3
block 5
  1

  0
SPLINE
  5
8F
330
8B
100
AcDbEntity
  8
_U+30EC_U+30A4_U+30E4_U+30FC 1
370
     0
100
AcDbSpline
210
0.0
220
0.0
230
1.0
 70
    11
 71
     3
 72
    62
 73
    58
 74
     0
 42
0.0000000001
 43
0.0000000001
 12
1.0
 22
0.0
 32
0.0
 13
1.0
 23
0.0
 33
0.0
 40
0.0
 40
0.0
 40
0.0
 40
0.0
 40
1.0
 40
1.0
 40
1.0
 40
2.0
 40
2.0
 40
2.0
 40
3.0
 40
3.0
 40
3.0
 40
4.0
 40
4.0
 40
4.0
 40
5.0
 40
5.0
 40
5.0
 40
6.0
 40
6.0
 40
6.0
 40
7.0
 40
7.0
 40
7.0
 40
8.0
 40
8.0
 40
8.0
 40
9.0
 40
9.0
 40
9.0
 40
10.0
 40
10.0
 40
10.0
 40
11.0
 40
11.0
 40
11.0
 40
12.0
 40
12.0
 40
12.0
 40
13.0
 40
13.0
 40
13.0
 40
14.0
 40
14.0
 40
14.0
 40
15.0
 40
15.0
 40
15.0
 40
16.0
 40
16.0
 40
16.0
 40
17.0
 40
17.0
 40
17.0
 40
18.0
 40
18.0
 40
18.0
 40
19.0
 40
19.0
 40
19.0
 40
19.0
 10
91.51344941288554
 20
-119.3663573920334
 30
0.0
 10
91.41802026794412
 20
-119.3663573920334
 30
0.0
 10
91.20029023327632
 20
-119.3453423095734
 30
0.0
 10
91.07523326716175
 20
-119.1593071533699
 30
0.0
 10
91.00116371422888
 20
-119.0469970405507
 30
0.0
 10
90.99702959964658
 20
-118.9477782905756
 30
0.0
 10
90.99289548506428
 20
-118.8630289416384
 30
0.0
 10
90.99289548506428
 20
-118.8630289416384
 30
0.0
 10
91.21303708657175
 20
-118.8630289416384
 30
0.0
 10
91.21303708657175
 20
-118.8630289416384
 30
0.0
 10
91.21510414386289
 20
-118.9370984945713
 30
0.0
 10
91.22543943031864
 20
-119.1717094971168
 30
0.0
 10
91.50897078875471
 20
-119.1717094971168
 30
0.0
 10
91.64643009861618
 20
-119.1717094971168
 30
0.0
 10
91.79904782861274
 20
-119.1021185683148
 30
0.0
 10
91.79904782861274
 20
-118.8737087376427
 30
0.0
 10
91.79904782861274
 20
-118.7572645102412
 30
0.0
 10
91.76080726872647
 20
-118.7086886638992
 30
0.0
 10
91.72911239026217
 20
-118.6769937854349
 30
0.0
 10
91.6550428373293
 20
-118.602924232502
 30
0.0
 10
91.53859860992786
 20
-118.5901773792066
 30
0.0
 10
91.48382159171238
 20
-118.5901773792066
 30
0.0
 10
91.46452905699498
 20
-118.5901773792066
 30
0.0
 10
91.42870006394838
 20
-118.5922444364978
 30
0.0
 10
91.40113930006639
 20
-118.5963785510801
 30
0.0
 10
91.40113930006639
 20
-118.5963785510801
 30
0.0
 10
91.40113930006639
 20
-118.4017306561635
 30
0.0
 10
91.40113930006639
 20
-118.4017306561635
 30
0.0
 10
91.43937985995267
 20
-118.4082763375854
 30
0.0
 10
91.4814100248727
 20
-118.4103433948766
 30
0.0
 10
91.48795570629468
 20
-118.4103433948766
 30
0.0
 10
91.55341252051443
 20
-118.4103433948766
 30
0.0
 10
91.75219453001334
 20
-118.388983802868
 30
0.0
 10
91.75219453001334
 20
-118.1523057430314
 30
0.0
 10
91.75219453001334
 20
-117.9745388159925
 30
0.0
 10
91.62128090157385
 20
-117.9194172882285
 30
0.0
 10
91.51103784604585
 20
-117.9194172882285
 30
0.0
 10
91.2467990223272
 20
-117.9194172882285
 30
0.0
 10
91.23818628361407
 20
-118.1523057430314
 30
0.0
 10
91.23405216903177
 20
-118.2239637291246
 30
0.0
 10
91.23405216903177
 20
-118.2239637291246
 30
0.0
 10
91.03079153540203
 20
-118.2239637291246
 30
0.0
 10
91.03079153540203
 20
-118.2239637291246
 30
0.0
 10
91.03940427411516
 20
-118.0992512725585
 30
0.0
 10
91.06696503799715
 20
-117.7227023360207
 30
0.0
 10
91.52378469934128
 20
-117.7227023360207
 30
0.0
 10
91.74806041543104
 20
-117.7227023360207
 30
0.0
 10
91.98921709939853
 20
-117.8498263594264
 30
0.0
 10
91.98921709939853
 20
-118.1457600616094
 30
0.0
 10
91.98921709939853
 20
-118.3321397273614
 30
0.0
 10
91.89413246400564
 20
-118.4144775094589
 30
0.0
 10
91.79456920448192
 20
-118.4758002090963
 30
0.0
 10
91.85589190411936
 20
-118.5033609729783
 30
0.0
 10
92.03779294574056
 20
-118.5836316977847
 30
0.0
 10
92.03779294574056
 20
-118.8609618843473
 30
0.0
 10
92.03779294574056
 20
-119.1992702609988
 30
0.0
 10
91.79043508989962
 20
-119.3663573920334
 30
0.0
 10
91.51344941288554
 20
-119.3663573920334
 30
0.0
  0
HATCH
  5
90
330
8B
100
AcDbEntity
  8
_U+30EC_U+30A4_U+30E4_U+30FC 1
 62
     7
420
 16777215
100
AcDbHatch
 10
0.0
 20
0.0
 30
0.0
210
0.0
220
0.0
230
1.0
  2
SOLID
 70
     1
 71
     0
 91
        1
 92
        1
 93
        1
 72
     4
 94
        3
 73
     0
 74
     1
 95
       62
 96
       58
 40
0.0
 40
0.0
 40
0.0
 40
0.0
 40
1.0
 40
1.0
 40
1.0
 40
2.0
 40
2.0
 40
2.0
 40
3.0
 40
3.0
 40
3.0
 40
4.0
 40
4.0
 40
4.0
 40
5.0
 40
5.0
 40
5.0
 40
6.0
 40
6.0
 40
6.0
 40
7.0
 40
7.0
 40
7.0
 40
8.0
 40
8.0
 40
8.0
 40
9.0
 40
9.0
 40
9.0
 40
10.0
 40
10.0
 40
10.0
 40
11.0
 40
11.0
 40
11.0
 40
12.0
 40
12.0
 40
12.0
 40
13.0
 40
13.0
 40
13.0
 40
14.0
 40
14.0
 40
14.0
 40
15.0
 40
15.0
 40
15.0
 40
16.0
 40
16.0
 40
16.0
 40
17.0
 40
17.0
 40
17.0
 40
18.0
 40
18.0
 40
18.0
 40
19.0
 40
19.0
 40
19.0
 40
19.0
 10
91.51344941288554
 20
-119.3663573920334
 10
91.41802026794412
 20
-119.3663573920334
 10
91.20029023327632
 20
-119.3453423095734
 10
91.07523326716175
 20
-119.1593071533699
 10
91.00116371422888
 20
-119.0469970405507
 10
90.99702959964658
 20
-118.9477782905756
 10
90.99289548506428
 20
-118.8630289416384
 10
90.99289548506428
 20
-118.8630289416384
 10
91.21303708657175
 20
-118.8630289416384
 10
91.21303708657175
 20
-118.8630289416384
 10
91.21510414386289
 20
-118.9370984945713
 10
91.22543943031864
 20
-119.1717094971168
 10
91.50897078875471
 20
-119.1717094971168
 10
91.64643009861618
 20
-119.1717094971168
 10
91.79904782861274
 20
-119.1021185683148
 10
91.79904782861274
 20
-118.8737087376427
 10
91.79904782861274
 20
-118.7572645102412
 10
91.76080726872647
 20
-118.7086886638992
 10
91.72911239026217
 20
-118.6769937854349
 10
91.6550428373293
 20
-118.602924232502
 10
91.53859860992786
 20
-118.5901773792066
 10
91.48382159171238
 20
-118.5901773792066
 10
91.46452905699498
 20
-118.5901773792066
 10
91.42870006394838
 20
-118.5922444364978
 10
91.40113930006639
 20
-118.5963785510801
 10
91.40113930006639
 20
-118.5963785510801
 10
91.40113930006639
 20
-118.4017306561635
 10
91.40113930006639
 20
-118.4017306561635
 10
91.43937985995267
 20
-118.4082763375854
 10
91.4814100248727
 20
-118.4103433948766
 10
91.48795570629468
 20
-118.4103433948766
 10
91.55341252051443
 20
-118.4103433948766
 10
91.75219453001334
 20
-118.388983802868
 10
91.75219453001334
 20
-118.1523057430314
 10
91.75219453001334
 20
-117.9745388159925
 10
91.62128090157385
 20
-117.9194172882285
 10
91.51103784604585
 20
-117.9194172882285
 10
91.2467990223272
 20
-117.9194172882285
 10
91.23818628361407
 20
-118.1523057430314
 10
91.23405216903177
 20
-118.2239637291246
 10
91.23405216903177
 20
-118.2239637291246
 10
91.03079153540203
 20
-118.2239637291246
 10
91.03079153540203
 20
-118.2239637291246
 10
91.03940427411516
 20
-118.0992512725585
 10
91.06696503799715
 20
-117.7227023360207
 10
91.52378469934128
 20
-117.7227023360207
 10
91.74806041543104
 20
-117.7227023360207
 10
91.98921709939853
 20
-117.8498263594264
 10
91.98921709939853
 20
-118.1457600616094
 10
91.98921709939853
 20
-118.3321397273614
 10
91.89413246400564
 20
-118.4144775094589
 10
91.79456920448192
 20
-118.4758002090963
 10
91.85589190411936
 20
-118.5033609729783
 10
92.03779294574056
 20
-118.5836316977847
 10
92.03779294574056
 20
-118.8609618843473
 10
92.03779294574056
 20
-119.1992702609988
 10
91.79043508989962
 20
-119.3663573920334
 10
91.51344941288554
 20
-119.3663573920334
 97
        0
 97
        0
 75
     2
 76
     1
 98
        0
  0
ENDBLK
  5
8E
330
8B
100
AcDbEntity
  8
0
100
AcDbBlockEnd
  0
BLOCK
  5
9C
330
9A
100
AcDbEntity
  8
0
100
AcDbBlockBegin
  2
block 6
 70
     0
 10
0.0
 20
0.0
 30
0.0
  3
block 6
  1

  0
SPLINE
  5
9E
330
9A
100
AcDbEntity
  8
_U+30EC_U+30A4_U+30E4_U+30FC 1
370
     0
100
AcDbSpline
210
0.0
220
0.0
230
1.0
 70
    11
 71
     3
 72
    62
 73
    58
 74
     0
 42
0.0000000001
 43
0.0000000001
 12
1.0
 22
0.0
 32
0.0
 13
1.0
 23
0.0
 33
0.0
 40
0.0
 40
0.0
 40
0.0
 40
0.0
 40
1.0
 40
1.0
 40
1.0
 40
2.0
 40
2.0
 40
2.0
 40
3.0
 40
3.0
 40
3.0
 40
4.0
 40
4.0
 40
4.0
 40
5.0
 40
5.0
 40
5.0
 40
6.0
 40
6.0
 40
6.0
 40
7.0
 40
7.0
 40
7.0
 40
8.0
 40
8.0
 40
8.0
 40
9.0
 40
9.0
 40
9.0
 40
10.0
 40
10.0
 40
10.0
 40
11.0
 40
11.0
 40
11.0
 40
12.0
 40
12.0
 40
12.0
 40
13.0
 40
13.0
 40
13.0
 40
14.0
 40
14.0
 40
14.0
 40
15.0
 40
15.0
 40
15.0
 40
16.0
 40
16.0
 40
16.0
 40
17.0
 40
17.0
 40
17.0
 40
18.0
 40
18.0
 40
18.0
 40
19.0
 40
19.0
 40
19.0
 40
19.0
 10
88.51346026432998
 20
-119.3663573920334
 30
0.0
 10
88.41803111938856
 20
-119.3663573920334
 30
0.0
 10
88.20030108472076
 20
-119.3453423095734
 30
0.0
 10
88.0752441186062
 20
-119.1593071533699
 30
0.0
 10
88.00117456567332
 20
-119.0469970405507
 30
0.0
 10
87.99704045109102
 20
-118.9477782905756
 30
0.0
 10
87.99290633650872
 20
-118.8630289416384
 30
0.0
 10
87.99290633650872
 20
-118.8630289416384
 30
0.0
 10
88.21304793801619
 20
-118.8630289416384
 30
0.0
 10
88.21304793801619
 20
-118.8630289416384
 30
0.0
 10
88.21511499530733
 20
-118.9370984945713
 30
0.0
 10
88.22545028176309
 20
-119.1717094971168
 30
0.0
 10
88.50898164019915
 20
-119.1717094971168
 30
0.0
 10
88.64644095006062
 20
-119.1717094971168
 30
0.0
 10
88.79905868005719
 20
-119.1021185683148
 30
0.0
 10
88.79905868005719
 20
-118.8737087376427
 30
0.0
 10
88.79905868005719
 20
-118.7572645102412
 30
0.0
 10
88.76081812017091
 20
-118.7086886638992
 30
0.0
 10
88.72912324170662
 20
-118.6769937854349
 30
0.0
 10
88.65505368877373
 20
-118.602924232502
 30
0.0
 10
88.5386094613723
 20
-118.5901773792066
 30
0.0
 10
88.48383244315683
 20
-118.5901773792066
 30
0.0
 10
88.46453990843942
 20
-118.5901773792066
 30
0.0
 10
88.42871091539283
 20
-118.5922444364978
 30
0.0
 10
88.40115015151083
 20
-118.5963785510801
 30
0.0
 10
88.40115015151083
 20
-118.5963785510801
 30
0.0
 10
88.40115015151083
 20
-118.4017306561635
 30
0.0
 10
88.40115015151083
 20
-118.4017306561635
 30
0.0
 10
88.4393907113971
 20
-118.4082763375854
 30
0.0
 10
88.48142087631715
 20
-118.4103433948766
 30
0.0
 10
88.48796655773913
 20
-118.4103433948766
 30
0.0
 10
88.55342337195887
 20
-118.4103433948766
 30
0.0
 10
88.75220538145778
 20
-118.388983802868
 30
0.0
 10
88.75220538145778
 20
-118.1523057430314
 30
0.0
 10
88.75220538145778
 20
-117.9745388159925
 30
0.0
 10
88.6212917530183
 20
-117.9194172882285
 30
0.0
 10
88.5110486974903
 20
-117.9194172882285
 30
0.0
 10
88.24680987377164
 20
-117.9194172882285
 30
0.0
 10
88.23819713505851
 20
-118.1523057430314
 30
0.0
 10
88.23406302047621
 20
-118.2239637291246
 30
0.0
 10
88.23406302047621
 20
-118.2239637291246
 30
0.0
 10
88.03080238684647
 20
-118.2239637291246
 30
0.0
 10
88.03080238684647
 20
-118.2239637291246
 30
0.0
 10
88.0394151255596
 20
-118.0992512725585
 30
0.0
 10
88.0669758894416
 20
-117.7227023360207
 30
0.0
 10
88.52379555078572
 20
-117.7227023360207
 30
0.0
 10
88.74807126687548
 20
-117.7227023360207
 30
0.0
 10
88.98922795084297
 20
-117.8498263594264
 30
0.0
 10
88.98922795084297
 20
-118.1457600616094
 30
0.0
 10
88.98922795084297
 20
-118.3321397273614
 30
0.0
 10
88.89414331545008
 20
-118.4144775094589
 30
0.0
 10
88.79458005592636
 20
-118.4758002090963
 30
0.0
 10
88.8559027555638
 20
-118.5033609729783
 30
0.0
 10
89.03780379718499
 20
-118.5836316977847
 30
0.0
 10
89.03780379718499
 20
-118.8609618843473
 30
0.0
 10
89.03780379718499
 20
-119.1992702609988
 30
0.0
 10
88.79044594134406
 20
-119.3663573920334
 30
0.0
 10
88.51346026432998
 20
-119.3663573920334
 30
0.0
  0
HATCH
  5
9F
330
9A
100
AcDbEntity
  8
_U+30EC_U+30A4_U+30E4_U+30FC 1
 62
     7
420
 16777215
100
AcDbHatch
 10
0.0
 20
0.0
 30
0.0
210
0.0
220
0.0
230
1.0
  2
SOLID
 70
     1
 71
     0
 91
        1
 92
        1
 93
        1
 72
     4
 94
        3
 73
     0
 74
     1
 95
       62
 96
       58
 40
0.0
 40
0.0
 40
0.0
 40
0.0
 40
1.0
 40
1.0
 40
1.0
 40
2.0
 40
2.0
 40
2.0
 40
3.0
 40
3.0
 40
3.0
 40
4.0
 40
4.0
 40
4.0
 40
5.0
 40
5.0
 40
5.0
 40
6.0
 40
6.0
 40
6.0
 40
7.0
 40
7.0
 40
7.0
 40
8.0
 40
8.0
 40
8.0
 40
9.0
 40
9.0
 40
9.0
 40
10.0
 40
10.0
 40
10.0
 40
11.0
 40
11.0
 40
11.0
 40
12.0
 40
12.0
 40
12.0
 40
13.0
 40
13.0
 40
13.0
 40
14.0
 40
14.0
 40
14.0
 40
15.0
 40
15.0
 40
15.0
 40
16.0
 40
16.0
 40
16.0
 40
17.0
 40
17.0
 40
17.0
 40
18.0
 40
18.0
 40
18.0
 40
19.0
 40
19.0
 40
19.0
 40
19.0
 10
88.51346026432998
 20
-119.3663573920334
 10
88.41803111938856
 20
-119.3663573920334
 10
88.20030108472076
 20
-119.3453423095734
 10
88.0752441186062
 20
-119.1593071533699
 10
88.00117456567332
 20
-119.0469970405507
 10
87.99704045109102
 20
-118.9477782905756
 10
87.99290633650872
 20
-118.8630289416384
 10
87.99290633650872
 20
-118.8630289416384
 10
88.21304793801619
 20
-118.8630289416384
 10
88.21304793801619
 20
-118.8630289416384
 10
88.21511499530733
 20
-118.9370984945713
 10
88.22545028176309
 20
-119.1717094971168
 10
88.50898164019915
 20
-119.1717094971168
 10
88.64644095006062
 20
-119.1717094971168
 10
88.79905868005719
 20
-119.1021185683148
 10
88.79905868005719
 20
-118.8737087376427
 10
88.79905868005719
 20
-118.7572645102412
 10
88.76081812017091
 20
-118.7086886638992
 10
88.72912324170662
 20
-118.6769937854349
 10
88.65505368877373
 20
-118.602924232502
 10
88.5386094613723
 20
-118.5901773792066
 10
88.48383244315683
 20
-118.5901773792066
 10
88.46453990843942
 20
-118.5901773792066
 10
88.42871091539283
 20
-118.5922444364978
 10
88.40115015151083
 20
-118.5963785510801
 10
88.40115015151083
 20
-118.5963785510801
 10
88.40115015151083
 20
-118.4017306561635
 10
88.40115015151083
 20
-118.4017306561635
 10
88.4393907113971
 20
-118.4082763375854
 10
88.48142087631715
 20
-118.4103433948766
 10
88.48796655773913
 20
-118.4103433948766
 10
88.55342337195887
 20
-118.4103433948766
 10
88.75220538145778
 20
-118.388983802868
 10
88.75220538145778
 20
-118.1523057430314
 10
88.75220538145778
 20
-117.9745388159925
 10
88.6212917530183
 20
-117.9194172882285
 10
88.5110486974903
 20
-117.9194172882285
 10
88.24680987377164
 20
-117.9194172882285
 10
88.23819713505851
 20
-118.1523057430314
 10
88.23406302047621
 20
-118.2239637291246
 10
88.23406302047621
 20
-118.2239637291246
 10
88.03080238684647
 20
-118.2239637291246
 10
88.03080238684647
 20
-118.2239637291246
 10
88.0394151255596
 20
-118.0992512725585
 10
88.0669758894416
 20
-117.7227023360207
 10
88.52379555078572
 20
-117.7227023360207
 10
88.74807126687548
 20
-117.7227023360207
 10
88.98922795084297
 20
-117.8498263594264
 10
88.98922795084297
 20
-118.1457600616094
 10
88.98922795084297
 20
-118.3321397273614
 10
88.89414331545008
 20
-118.4144775094589
 10
88.79458005592636
 20
-118.4758002090963
 10
88.8559027555638
 20
-118.5033609729783
 10
89.03780379718499
 20
-118.5836316977847
 10
89.03780379718499
 20
-118.8609618843473
 10
89.03780379718499
 20
-119.1992702609988
 10
88.79044594134406
 20
-119.3663573920334
 10
88.51346026432998
 20
-119.3663573920334
 97
        0
 97
        0
 75
     2
 76
     1
 98
        0
  0
ENDBLK
  5
9D
330
9A
100
AcDbEntity
  8
0
100
AcDbBlockEnd
  0
BLOCK
  5
AF
330
AD
100
AcDbEntity
  8
0
100
AcDbBlockBegin
  2
block 7
 70
     0
 10
0.0
 20
0.0
 30
0.0
  3
block 7
  1

  0
SPLINE
  5
B1
330
AD
100
AcDbEntity
  8
_U+30EC_U+30A4_U+30E4_U+30FC 1
370
     0
100
AcDbSpline
210
0.0
220
0.0
230
1.0
 70
    11
 71
     3
 72
    26
 73
    22
 74
     0
 42
0.0000000001
 43
0.0000000001
 12
1.0
 22
0.0
 32
0.0
 13
1.0
 23
0.0
 33
0.0
 40
0.0
 40
0.0
 40
0.0
 40
0.0
 40
1.0
 40
1.0
 40
1.0
 40
2.0
 40
2.0
 40
2.0
 40
3.0
 40
3.0
 40
3.0
 40
4.0
 40
4.0
 40
4.0
 40
5.0
 40
5.0
 40
5.0
 40
6.0
 40
6.0
 40
6.0
 40
7.0
 40
7.0
 40
7.0
 40
7.0
 10
97.21783851736221
 20
-139.266262443482
 30
0.0
 10
97.21783851736221
 20
-139.266262443482
 30
0.0
 10
97.21783851736221
 20
-138.1621093404595
 30
0.0
 10
97.21783851736221
 20
-138.1621093404595
 30
0.0
 10
97.21783851736221
 20
-138.1621093404595
 30
0.0
 10
96.88779836987527
 20
-138.1621093404595
 30
0.0
 10
96.88779836987527
 20
-138.1621093404595
 30
0.0
 10
96.88779836987527
 20
-138.1621093404595
 30
0.0
 10
96.88779836987527
 20
-138.0139702345937
 30
0.0
 10
96.88779836987527
 20
-138.0139702345937
 30
0.0
 10
97.21990557465337
 20
-137.9991563240072
 30
0.0
 10
97.26675887325275
 20
-137.8362033075549
 30
0.0
 10
97.2963866944259
 20
-137.7218261374445
 30
0.0
 10
97.2963866944259
 20
-137.7218261374445
 30
0.0
 10
97.4424587430005
 20
-137.7218261374445
 30
0.0
 10
97.4424587430005
 20
-137.7218261374445
 30
0.0
 10
97.4424587430005
 20
-137.7218261374445
 30
0.0
 10
97.4424587430005
 20
-139.266262443482
 30
0.0
 10
97.4424587430005
 20
-139.266262443482
 30
0.0
 10
97.4424587430005
 20
-139.266262443482
 30
0.0
 10
97.21783851736221
 20
-139.266262443482
 30
0.0
 10
97.21783851736221
 20
-139.266262443482
 30
0.0
  0
HATCH
  5
B2
330
AD
100
AcDbEntity
  8
_U+30EC_U+30A4_U+30E4_U+30FC 1
 62
     7
420
 16777215
100
AcDbHatch
 10
0.0
 20
0.0
 30
0.0
210
0.0
220
0.0
230
1.0
  2
SOLID
 70
     1
 71
     0
 91
        1
 92
        1
 93
        1
 72
     4
 94
        3
 73
     0
 74
     1
 95
       26
 96
       22
 40
0.0
 40
0.0
 40
0.0
 40
0.0
 40
1.0
 40
1.0
 40
1.0
 40
2.0
 40
2.0
 40
2.0
 40
3.0
 40
3.0
 40
3.0
 40
4.0
 40
4.0
 40
4.0
 40
5.0
 40
5.0
 40
5.0
 40
6.0
 40
6.0
 40
6.0
 40
7.0
 40
7.0
 40
7.0
 40
7.0
 10
97.21783851736221
 20
-139.266262443482
 10
97.21783851736221
 20
-139.266262443482
 10
97.21783851736221
 20
-138.1621093404595
 10
97.21783851736221
 20
-138.1621093404595
 10
97.21783851736221
 20
-138.1621093404595
 10
96.88779836987527
 20
-138.1621093404595
 10
96.88779836987527
 20
-138.1621093404595
 10
96.88779836987527
 20
-138.1621093404595
 10
96.88779836987527
 20
-138.0139702345937
 10
96.88779836987527
 20
-138.0139702345937
 10
97.21990557465337
 20
-137.9991563240072
 10
97.26675887325275
 20
-137.8362033075549
 10
97.2963866944259
 20
-137.7218261374445
 10
97.2963866944259
 20
-137.7218261374445
 10
97.4424587430005
 20
-137.7218261374445
 10
97.4424587430005
 20
-137.7218261374445
 10
97.4424587430005
 20
-137.7218261374445
 10
97.4424587430005
 20
-139.266262443482
 10
97.4424587430005
 20
-139.266262443482
 10
97.4424587430005
 20
-139.266262443482
 10
97.21783851736221
 20
-139.266262443482
 10
97.21783851736221
 20
-139.266262443482
 97
        0
 97
        0
 75
     2
 76
     1
 98
        0
  0
SPLINE
  5
B3
330
AD
100
AcDbEntity
  8
_U+30EC_U+30A4_U+30E4_U+30FC 1
370
     0
100
AcDbSpline
210
0.0
220
0.0
230
1.0
 70
    11
 71
     3
 72
    29
 73
    25
 74
     0
 42
0.0000000001
 43
0.0000000001
 12
1.0
 22
0.0
 32
0.0
 13
1.0
 23
0.0
 33
0.0
 40
0.0
 40
0.0
 40
0.0
 40
0.0
 40
1.0
 40
1.0
 40
1.0
 40
2.0
 40
2.0
 40
2.0
 40
3.0
 40
3.0
 40
3.0
 40
4.0
 40
4.0
 40
4.0
 40
5.0
 40
5.0
 40
5.0
 40
6.0
 40
6.0
 40
6.0
 40
7.0
 40
7.0
 40
7.0
 40
8.0
 40
8.0
 40
8.0
 40
8.0
 10
98.84116751001193
 20
-139.0884955164432
 30
0.0
 10
98.73299151177508
 20
-139.2979573219463
 30
0.0
 10
98.56004771841555
 20
-139.3169053471152
 30
0.0
 10
98.4436034910141
 20
-139.3169053471152
 30
0.0
 10
98.28237302230441
 20
-139.3169053471152
 30
0.0
 10
98.14112410740917
 20
-139.2703965580644
 30
0.0
 10
98.04603947201628
 20
-139.0884955164432
 30
0.0
 10
97.94199758836173
 20
-138.8938476215265
 30
0.0
 10
97.92339407274137
 20
-138.6571695616899
 30
0.0
 10
97.92339407274137
 20
-138.4942165452375
 30
0.0
 10
97.92339407274137
 20
-138.3502115539541
 30
0.0
 10
97.93993053107057
 20
-138.0983750739824
 30
0.0
 10
98.04603947201628
 20
-137.8995930644834
 30
0.0
 10
98.15352645115607
 20
-137.6966769404022
 30
0.0
 10
98.31475691986576
 20
-137.6732502911025
 30
0.0
 10
98.4436034910141
 20
-137.6732502911025
 30
0.0
 10
98.6020778833356
 20
-137.6732502911025
 30
0.0
 10
98.74608287461903
 20
-137.7176920228623
 30
0.0
 10
98.84116751001193
 20
-137.8995930644834
 30
0.0
 10
98.94038625998714
 20
-138.0921739021089
 30
0.0
 10
98.96381290928683
 20
-138.320583732781
 30
0.0
 10
98.96381290928683
 20
-138.4942165452375
 30
0.0
 10
98.96381290928683
 20
-138.6654377908545
 30
0.0
 10
98.94245331727828
 20
-138.8959146788177
 30
0.0
 10
98.84116751001193
 20
-139.0884955164432
 30
0.0
  0
SPLINE
  5
B4
330
AD
100
AcDbEntity
  8
_U+30EC_U+30A4_U+30E4_U+30FC 1
370
     0
100
AcDbSpline
210
0.0
220
0.0
230
1.0
 70
    11
 71
     3
 72
    17
 73
    13
 74
     0
 42
0.0000000001
 43
0.0000000001
 12
1.0
 22
0.0
 32
0.0
 13
1.0
 23
0.0
 33
0.0
 40
0.0
 40
0.0
 40
0.0
 40
0.0
 40
1.0
 40
1.0
 40
1.0
 40
2.0
 40
2.0
 40
2.0
 40
3.0
 40
3.0
 40
3.0
 40
4.0
 40
4.0
 40
4.0
 40
4.0
 10
98.4436034910141
 20
-137.865831128728
 30
0.0
 10
98.19417857788201
 20
-137.865831128728
 30
0.0
 10
98.14732527928261
 20
-138.149362487164
 30
0.0
 10
98.14732527928261
 20
-138.4942165452375
 30
0.0
 10
98.14732527928261
 20
-138.8135768967202
 30
0.0
 10
98.18315427232922
 20
-139.1222574521986
 30
0.0
 10
98.4436034910141
 20
-139.1222574521986
 30
0.0
 10
98.69096134685505
 20
-139.1222574521986
 30
0.0
 10
98.73988170274559
 20
-138.8411376606022
 30
0.0
 10
98.73988170274559
 20
-138.4942165452375
 30
0.0
 10
98.73988170274559
 20
-138.1745116842064
 30
0.0
 10
98.70129663331079
 20
-137.865831128728
 30
0.0
 10
98.4436034910141
 20
-137.865831128728
 30
0.0
  0
HATCH
  5
B5
330
AD
100
AcDbEntity
  8
_U+30EC_U+30A4_U+30E4_U+30FC 1
 62
     7
420
 16777215
100
AcDbHatch
 10
0.0
 20
0.0
 30
0.0
210
0.0
220
0.0
230
1.0
  2
SOLID
 70
     1
 71
     0
 91
        2
 92
        1
 93
        1
 72
     4
 94
        3
 73
     0
 74
     1
 95
       29
 96
       25
 40
0.0
 40
0.0
 40
0.0
 40
0.0
 40
1.0
 40
1.0
 40
1.0
 40
2.0
 40
2.0
 40
2.0
 40
3.0
 40
3.0
 40
3.0
 40
4.0
 40
4.0
 40
4.0
 40
5.0
 40
5.0
 40
5.0
 40
6.0
 40
6.0
 40
6.0
 40
7.0
 40
7.0
 40
7.0
 40
8.0
 40
8.0
 40
8.0
 40
8.0
 10
98.84116751001193
 20
-139.0884955164432
 10
98.73299151177508
 20
-139.2979573219463
 10
98.56004771841555
 20
-139.3169053471152
 10
98.4436034910141
 20
-139.3169053471152
 10
98.28237302230441
 20
-139.3169053471152
 10
98.14112410740917
 20
-139.2703965580644
 10
98.04603947201628
 20
-139.0884955164432
 10
97.94199758836173
 20
-138.8938476215265
 10
97.92339407274137
 20
-138.6571695616899
 10
97.92339407274137
 20
-138.4942165452375
 10
97.92339407274137
 20
-138.3502115539541
 10
97.93993053107057
 20
-138.0983750739824
 10
98.04603947201628
 20
-137.8995930644834
 10
98.15352645115607
 20
-137.6966769404022
 10
98.31475691986576
 20
-137.6732502911025
 10
98.4436034910141
 20
-137.6732502911025
 10
98.6020778833356
 20
-137.6732502911025
 10
98.74608287461903
 20
-137.7176920228623
 10
98.84116751001193
 20
-137.8995930644834
 10
98.94038625998714
 20
-138.0921739021089
 10
98.96381290928683
 20
-138.320583732781
 10
98.96381290928683
 20
-138.4942165452375
 10
98.96381290928683
 20
-138.6654377908545
 10
98.94245331727828
 20
-138.8959146788177
 10
98.84116751001193
 20
-139.0884955164432
 97
        0
 97
        0
 92
        1
 93
        1
 72
     4
 94
        3
 73
     0
 74
     1
 95
       17
 96
       13
 40
0.0
 40
0.0
 40
0.0
 40
0.0
 40
1.0
 40
1.0
 40
1.0
 40
2.0
 40
2.0
 40
2.0
 40
3.0
 40
3.0
 40
3.0
 40
4.0
 40
4.0
 40
4.0
 40
4.0
 10
98.4436034910141
 20
-137.865831128728
 10
98.19417857788201
 20
-137.865831128728
 10
98.14732527928261
 20
-138.149362487164
 10
98.14732527928261
 20
-138.4942165452375
 10
98.14732527928261
 20
-138.8135768967202
 10
98.18315427232922
 20
-139.1222574521986
 10
98.4436034910141
 20
-139.1222574521986
 10
98.69096134685505
 20
-139.1222574521986
 10
98.73988170274559
 20
-138.8411376606022
 10
98.73988170274559
 20
-138.4942165452375
 10
98.73988170274559
 20
-138.1745116842064
 10
98.70129663331079
 20
-137.865831128728
 10
98.4436034910141
 20
-137.865831128728
 97
        0
 97
        0
 75
     2
 76
     1
 98
        0
  0
ENDBLK
  5
B0
330
AD
100
AcDbEntity
  8
0
100
AcDbBlockEnd
  0
BLOCK
  5
C6
330
C4
100
AcDbEntity
  8
0
100
AcDbBlockBegin
  2
block 8
 70
     0
 10
0.0
 20
0.0
 30
0.0
  3
block 8
  1

  0
SPLINE
  5
C8
330
C4
100
AcDbEntity
  8
_U+30EC_U+30A4_U+30E4_U+30FC 1
370
     0
100
AcDbSpline
210
0.0
220
0.0
230
1.0
 70
    11
 71
     3
 72
    26
 73
    22
 74
     0
 42
0.0000000001
 43
0.0000000001
 12
1.0
 22
0.0
 32
0.0
 13
1.0
 23
0.0
 33
0.0
 40
0.0
 40
0.0
 40
0.0
 40
0.0
 40
1.0
 40
1.0
 40
1.0
 40
2.0
 40
2.0
 40
2.0
 40
3.0
 40
3.0
 40
3.0
 40
4.0
 40
4.0
 40
4.0
 40
5.0
 40
5.0
 40
5.0
 40
6.0
 40
6.0
 40
6.0
 40
7.0
 40
7.0
 40
7.0
 40
7.0
 10
81.71714814580335
 20
-139.266262443482
 30
0.0
 10
81.71714814580335
 20
-139.266262443482
 30
0.0
 10
81.71714814580335
 20
-138.1621093404595
 30
0.0
 10
81.71714814580335
 20
-138.1621093404595
 30
0.0
 10
81.71714814580335
 20
-138.1621093404595
 30
0.0
 10
81.38710799831642
 20
-138.1621093404595
 30
0.0
 10
81.38710799831642
 20
-138.1621093404595
 30
0.0
 10
81.38710799831642
 20
-138.1621093404595
 30
0.0
 10
81.38710799831642
 20
-138.0139702345937
 30
0.0
 10
81.38710799831642
 20
-138.0139702345937
 30
0.0
 10
81.7192152030945
 20
-137.9991563240072
 30
0.0
 10
81.76572399214538
 20
-137.8362033075549
 30
0.0
 10
81.79535181331853
 20
-137.7218261374445
 30
0.0
 10
81.79535181331853
 20
-137.7218261374445
 30
0.0
 10
81.94142386189311
 20
-137.7218261374445
 30
0.0
 10
81.94142386189311
 20
-137.7218261374445
 30
0.0
 10
81.94142386189311
 20
-137.7218261374445
 30
0.0
 10
81.94142386189311
 20
-139.266262443482
 30
0.0
 10
81.94142386189311
 20
-139.266262443482
 30
0.0
 10
81.94142386189311
 20
-139.266262443482
 30
0.0
 10
81.71714814580335
 20
-139.266262443482
 30
0.0
 10
81.71714814580335
 20
-139.266262443482
 30
0.0
  0
HATCH
  5
C9
330
C4
100
AcDbEntity
  8
_U+30EC_U+30A4_U+30E4_U+30FC 1
 62
     7
420
 16777215
100
AcDbHatch
 10
0.0
 20
0.0
 30
0.0
210
0.0
220
0.0
230
1.0
  2
SOLID
 70
     1
 71
     0
 91
        1
 92
        1
 93
        1
 72
     4
 94
        3
 73
     0
 74
     1
 95
       26
 96
       22
 40
0.0
 40
0.0
 40
0.0
 40
0.0
 40
1.0
 40
1.0
 40
1.0
 40
2.0
 40
2.0
 40
2.0
 40
3.0
 40
3.0
 40
3.0
 40
4.0
 40
4.0
 40
4.0
 40
5.0
 40
5.0
 40
5.0
 40
6.0
 40
6.0
 40
6.0
 40
7.0
 40
7.0
 40
7.0
 40
7.0
 10
81.71714814580335
 20
-139.266262443482
 10
81.71714814580335
 20
-139.266262443482
 10
81.71714814580335
 20
-138.1621093404595
 10
81.71714814580335
 20
-138.1621093404595
 10
81.71714814580335
 20
-138.1621093404595
 10
81.38710799831642
 20
-138.1621093404595
 10
81.38710799831642
 20
-138.1621093404595
 10
81.38710799831642
 20
-138.1621093404595
 10
81.38710799831642
 20
-138.0139702345937
 10
81.38710799831642
 20
-138.0139702345937
 10
81.7192152030945
 20
-137.9991563240072
 10
81.76572399214538
 20
-137.8362033075549
 10
81.79535181331853
 20
-137.7218261374445
 10
81.79535181331853
 20
-137.7218261374445
 10
81.94142386189311
 20
-137.7218261374445
 10
81.94142386189311
 20
-137.7218261374445
 10
81.94142386189311
 20
-137.7218261374445
 10
81.94142386189311
 20
-139.266262443482
 10
81.94142386189311
 20
-139.266262443482
 10
81.94142386189311
 20
-139.266262443482
 10
81.71714814580335
 20
-139.266262443482
 10
81.71714814580335
 20
-139.266262443482
 97
        0
 97
        0
 75
     2
 76
     1
 98
        0
  0
SPLINE
  5
CA
330
C4
100
AcDbEntity
  8
_U+30EC_U+30A4_U+30E4_U+30FC 1
370
     0
100
AcDbSpline
210
0.0
220
0.0
230
1.0
 70
    11
 71
     3
 72
    53
 73
    49
 74
     0
 42
0.0000000001
 43
0.0000000001
 12
1.0
 22
0.0
 32
0.0
 13
1.0
 23
0.0
 33
0.0
 40
0.0
 40
0.0
 40
0.0
 40
0.0
 40
1.0
 40
1.0
 40
1.0
 40
2.0
 40
2.0
 40
2.0
 40
3.0
 40
3.0
 40
3.0
 40
4.0
 40
4.0
 40
4.0
 40
5.0
 40
5.0
 40
5.0
 40
6.0
 40
6.0
 40
6.0
 40
7.0
 40
7.0
 40
7.0
 40
8.0
 40
8.0
 40
8.0
 40
9.0
 40
9.0
 40
9.0
 40
10.0
 40
10.0
 40
10.0
 40
11.0
 40
11.0
 40
11.0
 40
12.0
 40
12.0
 40
12.0
 40
13.0
 40
13.0
 40
13.0
 40
14.0
 40
14.0
 40
14.0
 40
15.0
 40
15.0
 40
15.0
 40
16.0
 40
16.0
 40
16.0
 40
16.0
 10
82.92362058473785
 20
-139.3169053471152
 30
0.0
 10
82.84541691722268
 20
-139.3169053471152
 30
0.0
 10
82.7437866004078
 20
-139.3000243792375
 30
0.0
 10
82.64215628359294
 20
-139.2366346223089
 30
0.0
 10
82.46886798068488
 20
-139.1267360763294
 30
0.0
 10
82.44750838867633
 20
-138.9954779383414
 30
0.0
 10
82.42856036350744
 20
-138.8876464496531
 30
0.0
 10
82.42856036350744
 20
-138.8876464496531
 30
0.0
 10
82.65076902230606
 20
-138.8876464496531
 30
0.0
 10
82.65076902230606
 20
-138.8876464496531
 30
0.0
 10
82.70554604052154
 20
-139.086428459152
 30
0.0
 10
82.83267006392725
 20
-139.1160562803252
 30
0.0
 10
82.925687642029
 20
-139.1160562803252
 30
0.0
 10
83.06521400918162
 20
-139.1160562803252
 30
0.0
 10
83.21748722962965
 20
-139.0164930208014
 30
0.0
 10
83.21748722962965
 20
-138.7839490755471
 30
0.0
 10
83.21748722962965
 20
-138.527978480993
 30
0.0
 10
83.03765324529962
 20
-138.4580430426424
 30
0.0
 10
82.91707490331588
 20
-138.4580430426424
 30
0.0
 10
82.88538002485157
 20
-138.4580430426424
 30
0.0
 10
82.7437866004078
 20
-138.4580430426424
 30
0.0
 10
82.65490313688836
 20
-138.5872341233393
 30
0.0
 10
82.65490313688836
 20
-138.5872341233393
 30
0.0
 10
82.47920326714062
 20
-138.5682860981704
 30
0.0
 10
82.47920326714062
 20
-138.5682860981704
 30
0.0
 10
82.47920326714062
 20
-138.5682860981704
 30
0.0
 10
82.59978160912436
 20
-137.7218261374445
 30
0.0
 10
82.59978160912436
 20
-137.7218261374445
 30
0.0
 10
82.59978160912436
 20
-137.7218261374445
 30
0.0
 10
83.37837318879083
 20
-137.7218261374445
 30
0.0
 10
83.37837318879083
 20
-137.7218261374445
 30
0.0
 10
83.37837318879083
 20
-137.7218261374445
 30
0.0
 10
83.37837318879083
 20
-137.9164740323612
 30
0.0
 10
83.37837318879083
 20
-137.9164740323612
 30
0.0
 10
83.37837318879083
 20
-137.9164740323612
 30
0.0
 10
82.76273462557668
 20
-137.9164740323612
 30
0.0
 10
82.76273462557668
 20
-137.9164740323612
 30
0.0
 10
82.76273462557668
 20
-137.9164740323612
 30
0.0
 10
82.69727781135694
 20
-138.3395317579499
 30
0.0
 10
82.69727781135694
 20
-138.3395317579499
 30
0.0
 10
82.75860051099438
 20
-138.3057698221944
 30
0.0
 10
82.84093829309185
 20
-138.265462205017
 30
0.0
 10
82.95944957778444
 20
-138.265462205017
 30
0.0
 10
83.21335311504735
 20
-138.265462205017
 30
0.0
 10
83.45037568443254
 20
-138.451841870769
 30
0.0
 10
83.45037568443254
 20
-138.7650010503782
 30
0.0
 10
83.45037568443254
 20
-139.0822943445697
 30
0.0
 10
83.22609996834278
 20
-139.3169053471152
 30
0.0
 10
82.92362058473785
 20
-139.3169053471152
 30
0.0
  0
HATCH
  5
CB
330
C4
100
AcDbEntity
  8
_U+30EC_U+30A4_U+30E4_U+30FC 1
 62
     7
420
 16777215
100
AcDbHatch
 10
0.0
 20
0.0
 30
0.0
210
0.0
220
0.0
230
1.0
  2
SOLID
 70
     1
 71
     0
 91
        1
 92
        1
 93
        1
 72
     4
 94
        3
 73
     0
 74
     1
 95
       53
 96
       49
 40
0.0
 40
0.0
 40
0.0
 40
0.0
 40
1.0
 40
1.0
 40
1.0
 40
2.0
 40
2.0
 40
2.0
 40
3.0
 40
3.0
 40
3.0
 40
4.0
 40
4.0
 40
4.0
 40
5.0
 40
5.0
 40
5.0
 40
6.0
 40
6.0
 40
6.0
 40
7.0
 40
7.0
 40
7.0
 40
8.0
 40
8.0
 40
8.0
 40
9.0
 40
9.0
 40
9.0
 40
10.0
 40
10.0
 40
10.0
 40
11.0
 40
11.0
 40
11.0
 40
12.0
 40
12.0
 40
12.0
 40
13.0
 40
13.0
 40
13.0
 40
14.0
 40
14.0
 40
14.0
 40
15.0
 40
15.0
 40
15.0
 40
16.0
 40
16.0
 40
16.0
 40
16.0
 10
82.92362058473785
 20
-139.3169053471152
 10
82.84541691722268
 20
-139.3169053471152
 10
82.7437866004078
 20
-139.3000243792375
 10
82.64215628359294
 20
-139.2366346223089
 10
82.46886798068488
 20
-139.1267360763294
 10
82.44750838867633
 20
-138.9954779383414
 10
82.42856036350744
 20
-138.8876464496531
 10
82.42856036350744
 20
-138.8876464496531
 10
82.65076902230606
 20
-138.8876464496531
 10
82.65076902230606
 20
-138.8876464496531
 10
82.70554604052154
 20
-139.086428459152
 10
82.83267006392725
 20
-139.1160562803252
 10
82.925687642029
 20
-139.1160562803252
 10
83.06521400918162
 20
-139.1160562803252
 10
83.21748722962965
 20
-139.0164930208014
 10
83.21748722962965
 20
-138.7839490755471
 10
83.21748722962965
 20
-138.527978480993
 10
83.03765324529962
 20
-138.4580430426424
 10
82.91707490331588
 20
-138.4580430426424
 10
82.88538002485157
 20
-138.4580430426424
 10
82.7437866004078
 20
-138.4580430426424
 10
82.65490313688836
 20
-138.5872341233393
 10
82.65490313688836
 20
-138.5872341233393
 10
82.47920326714062
 20
-138.5682860981704
 10
82.47920326714062
 20
-138.5682860981704
 10
82.47920326714062
 20
-138.5682860981704
 10
82.59978160912436
 20
-137.7218261374445
 10
82.59978160912436
 20
-137.7218261374445
 10
82.59978160912436
 20
-137.7218261374445
 10
83.37837318879083
 20
-137.7218261374445
 10
83.37837318879083
 20
-137.7218261374445
 10
83.37837318879083
 20
-137.7218261374445
 10
83.37837318879083
 20
-137.9164740323612
 10
83.37837318879083
 20
-137.9164740323612
 10
83.37837318879083
 20
-137.9164740323612
 10
82.76273462557668
 20
-137.9164740323612
 10
82.76273462557668
 20
-137.9164740323612
 10
82.76273462557668
 20
-137.9164740323612
 10
82.69727781135694
 20
-138.3395317579499
 10
82.69727781135694
 20
-138.3395317579499
 10
82.75860051099438
 20
-138.3057698221944
 10
82.84093829309185
 20
-138.265462205017
 10
82.95944957778444
 20
-138.265462205017
 10
83.21335311504735
 20
-138.265462205017
 10
83.45037568443254
 20
-138.451841870769
 10
83.45037568443254
 20
-138.7650010503782
 10
83.45037568443254
 20
-139.0822943445697
 10
83.22609996834278
 20
-139.3169053471152
 10
82.92362058473785
 20
-139.3169053471152
 97
        0
 97
        0
 75
     2
 76
     1
 98
        0
  0
ENDBLK
  5
C7
330
C4
100
AcDbEntity
  8
0
100
AcDbBlockEnd
  0
BLOCK
  5
D0
330
CE
100
AcDbEntity
  8
0
100
AcDbBlockBegin
  2
block 9
 70
     0
 10
0.0
 20
0.0
 30
0.0
  3
block 9
  1

  0
SPLINE
  5
D2
330
CE
100
AcDbEntity
  8
_U+30EC_U+30A4_U+30E4_U+30FC 1
370
     0
100
AcDbSpline
210
0.0
220
0.0
230
1.0
 70
    11
 71
     3
 72
    26
 73
    22
 74
     0
 42
0.0000000001
 43
0.0000000001
 12
1.0
 22
0.0
 32
0.0
 13
1.0
 23
0.0
 33
0.0
 40
0.0
 40
0.0
 40
0.0
 40
0.0
 40
1.0
 40
1.0
 40
1.0
 40
2.0
 40
2.0
 40
2.0
 40
3.0
 40
3.0
 40
3.0
 40
4.0
 40
4.0
 40
4.0
 40
5.0
 40
5.0
 40
5.0
 40
6.0
 40
6.0
 40
6.0
 40
7.0
 40
7.0
 40
7.0
 40
7.0
 10
95.4098524067031
 20
-125.8033460514485
 30
0.0
 10
95.4098524067031
 20
-125.8033460514485
 30
0.0
 10
95.4098524067031
 20
-124.6990206936516
 30
0.0
 10
95.4098524067031
 20
-124.6990206936516
 30
0.0
 10
95.4098524067031
 20
-124.6990206936516
 30
0.0
 10
95.07981225921617
 20
-124.6990206936516
 30
0.0
 10
95.07981225921617
 20
-124.6990206936516
 30
0.0
 10
95.07981225921617
 20
-124.6990206936516
 30
0.0
 10
95.07981225921617
 20
-124.5508815877859
 30
0.0
 10
95.07981225921617
 20
-124.5508815877859
 30
0.0
 10
95.41191946399425
 20
-124.5362399319736
 30
0.0
 10
95.45877276259364
 20
-124.3732869155213
 30
0.0
 10
95.48840058376679
 20
-124.2590820001852
 30
0.0
 10
95.48840058376679
 20
-124.2590820001852
 30
0.0
 10
95.63447263234139
 20
-124.2590820001852
 30
0.0
 10
95.63447263234139
 20
-124.2590820001852
 30
0.0
 10
95.63447263234139
 20
-124.2590820001852
 30
0.0
 10
95.63447263234139
 20
-125.8033460514485
 30
0.0
 10
95.63447263234139
 20
-125.8033460514485
 30
0.0
 10
95.63447263234139
 20
-125.8033460514485
 30
0.0
 10
95.4098524067031
 20
-125.8033460514485
 30
0.0
 10
95.4098524067031
 20
-125.8033460514485
 30
0.0
  0
HATCH
  5
D3
330
CE
100
AcDbEntity
  8
_U+30EC_U+30A4_U+30E4_U+30FC 1
 62
   179
420
  2234388
100
AcDbHatch
 10
0.0
 20
0.0
 30
0.0
210
0.0
220
0.0
230
1.0
  2
SOLID
 70
     1
 71
     0
 91
        1
 92
        1
 93
        1
 72
     4
 94
        3
 73
     0
 74
     1
 95
       26
 96
       22
 40
0.0
 40
0.0
 40
0.0
 40
0.0
 40
1.0
 40
1.0
 40
1.0
 40
2.0
 40
2.0
 40
2.0
 40
3.0
 40
3.0
 40
3.0
 40
4.0
 40
4.0
 40
4.0
 40
5.0
 40
5.0
 40
5.0
 40
6.0
 40
6.0
 40
6.0
 40
7.0
 40
7.0
 40
7.0
 40
7.0
 10
95.4098524067031
 20
-125.8033460514485
 10
95.4098524067031
 20
-125.8033460514485
 10
95.4098524067031
 20
-124.6990206936516
 10
95.4098524067031
 20
-124.6990206936516
 10
95.4098524067031
 20
-124.6990206936516
 10
95.07981225921617
 20
-124.6990206936516
 10
95.07981225921617
 20
-124.6990206936516
 10
95.07981225921617
 20
-124.6990206936516
 10
95.07981225921617
 20
-124.5508815877859
 10
95.07981225921617
 20
-124.5508815877859
 10
95.41191946399425
 20
-124.5362399319736
 10
95.45877276259364
 20
-124.3732869155213
 10
95.48840058376679
 20
-124.2590820001852
 10
95.48840058376679
 20
-124.2590820001852
 10
95.63447263234139
 20
-124.2590820001852
 10
95.63447263234139
 20
-124.2590820001852
 10
95.63447263234139
 20
-124.2590820001852
 10
95.63447263234139
 20
-125.8033460514485
 10
95.63447263234139
 20
-125.8033460514485
 10
95.63447263234139
 20
-125.8033460514485
 10
95.4098524067031
 20
-125.8033460514485
 10
95.4098524067031
 20
-125.8033460514485
 97
        0
 97
        0
 75
     2
 76
     1
 98
        0
  0
ENDBLK
  5
D1
330
CE
100
AcDbEntity
  8
0
100
AcDbBlockEnd
  0
ENDSEC
  0
SECTION
  2
ENTITIES
  0
SPLINE
  5
41
330
1F
100
AcDbEntity
  8
_U+30EC_U+30A4_U+30E4_U+30FC 1
 62
     7
420
 16777215
370
     9
100
AcDbSpline
210
0.0
220
0.0
230
1.0
 70
    11
 71
     3
 72
    17
 73
    13
 74
     0
 42
0.0000000001
 43
0.0000000001
 12
1.0
 22
0.0
 32
0.0
 13
1.0
 23
0.0
 33
0.0
 40
0.0
 40
0.0
 40
0.0
 40
0.0
 40
1.0
 40
1.0
 40
1.0
 40
2.0
 40
2.0
 40
2.0
 40
3.0
 40
3.0
 40
3.0
 40
4.0
 40
4.0
 40
4.0
 40
4.0
 10
103.1630498680913
 20
-136.8626082991178
 30
0.0
 10
103.1630498680913
 20
-136.8075044102429
 30
0.0
 10
103.1182470914566
 20
-136.7627016324762
 30
0.0
 10
103.0631432039735
 20
-136.7627016324762
 30
0.0
 10
103.0080040387136
 20
-136.7627016324762
 30
0.0
 10
102.9632365398557
 20
-136.8075044102429
 30
0.0
 10
102.9632365398557
 20
-136.8626082991178
 30
0.0
 10
102.9632365398557
 20
-136.9177474657709
 30
0.0
 10
103.0080040387136
 20
-136.9625149657595
 30
0.0
 10
103.0631432039735
 20
-136.9625149657595
 30
0.0
 10
103.1182470914566
 20
-136.9625149657595
 30
0.0
 10
103.1630498680913
 20
-136.9177474657709
 30
0.0
 10
103.1630498680913
 20
-136.8626082991178
 30
0.0
  0
SPLINE
  5
42
330
1F
100
AcDbEntity
  8
_U+30EC_U+30A4_U+30E4_U+30FC 1
 62
     7
420
 16777215
370
     9
100
AcDbSpline
210
0.0
220
0.0
230
1.0
 70
    11
 71
     3
 72
    17
 73
    13
 74
     0
 42
0.0000000001
 43
0.0000000001
 12
1.0
 22
0.0
 32
0.0
 13
1.0
 23
0.0
 33
0.0
 40
0.0
 40
0.0
 40
0.0
 40
0.0
 40
1.0
 40
1.0
 40
1.0
 40
2.0
 40
2.0
 40
2.0
 40
3.0
 40
3.0
 40
3.0
 40
4.0
 40
4.0
 40
4.0
 40
4.0
 10
105.4932881419753
 20
-122.6757205248865
 30
0.0
 10
105.4932881419753
 20
-122.7308244137618
 30
0.0
 10
105.5380909186101
 20
-122.7756271915285
 30
0.0
 10
105.5931948060932
 20
-122.7756271915285
 30
0.0
 10
105.6483339713531
 20
-122.7756271915285
 30
0.0
 10
105.693101470211
 20
-122.7308244137618
 30
0.0
 10
105.693101470211
 20
-122.6757205248865
 30
0.0
 10
105.693101470211
 20
-122.6199110804561
 30
0.0
 10
105.6483339713531
 20
-122.5751083026897
 30
0.0
 10
105.5931948060932
 20
-122.5751083026897
 30
0.0
 10
105.5380909186101
 20
-122.5751083026897
 30
0.0
 10
105.4932881419753
 20
-122.6199110804561
 30
0.0
 10
105.4932881419753
 20
-122.6757205248865
 30
0.0
  0
POLYLINE
  5
43
330
1F
100
AcDbEntity
  8
_U+30EC_U+30A4_U+30E4_U+30FC 1
 62
     7
420
 16777215
370
     9
100
AcDb2dPolyline
 66
     1
 10
0.0
 20
0.0
 30
0.0
  0
VERTEX
  5
44
330
43
100
AcDbEntity
  8
_U+30EC_U+30A4_U+30E4_U+30FC 1
 62
     7
420
 16777215
370
     9
100
AcDbVertex
100
AcDb2dVertex
 10
105.5931948060932
 20
-122.5751083026897
 30
0.0
  0
VERTEX
  5
45
330
43
100
AcDbEntity
  8
_U+30EC_U+30A4_U+30E4_U+30FC 1
 62
     7
420
 16777215
370
     9
100
AcDbVertex
100
AcDb2dVertex
 10
105.5931948060932
 20
-132.575194133523
 30
0.0
  0
SEQEND
  5
46
330
43
100
AcDbEntity
  8
_U+30EC_U+30A4_U+30E4_U+30FC 1
 62
     7
420
 16777215
370
     9
  0
POLYLINE
  5
47
330
1F
100
AcDbEntity
  8
_U+30EC_U+30A4_U+30E4_U+30FC 1
 62
     7
420
 16777215
370
     9
100
AcDb2dPolyline
 66
     1
 10
0.0
 20
0.0
 30
0.0
  0
VERTEX
  5
48
330
47
100
AcDbEntity
  8
_U+30EC_U+30A4_U+30E4_U+30FC 1
 62
     7
420
 16777215
370
     9
100
AcDbVertex
100
AcDb2dVertex
 10
97.49309973496604
 20
-122.6757205248865
 30
0.0
  0
VERTEX
  5
49
330
47
100
AcDbEntity
  8
_U+30EC_U+30A4_U+30E4_U+30FC 1
 62
     7
420
 16777215
370
     9
100
AcDbVertex
100
AcDb2dVertex
 10
106.5929670028091
 20
-122.6757205248865
 30
0.0
  0
SEQEND
  5
4A
330
47
100
AcDbEntity
  8
_U+30EC_U+30A4_U+30E4_U+30FC 1
 62
     7
420
 16777215
370
     9
  0
SPLINE
  5
4B
330
1F
100
AcDbEntity
  8
_U+30EC_U+30A4_U+30E4_U+30FC 1
 62
     7
420
 16777215
370
     9
100
AcDbSpline
210
0.0
220
0.0
230
1.0
 70
    11
 71
     3
 72
    17
 73
    13
 74
     0
 42
0.0000000001
 43
0.0000000001
 12
1.0
 22
0.0
 32
0.0
 13
1.0
 23
0.0
 33
0.0
 40
0.0
 40
0.0
 40
0.0
 40
0.0
 40
1.0
 40
1.0
 40
1.0
 40
2.0
 40
2.0
 40
2.0
 40
3.0
 40
3.0
 40
3.0
 40
4.0
 40
4.0
 40
4.0
 40
4.0
 10
85.47900587480443
 20
-127.6755694125255
 30
0.0
 10
85.47900587480443
 20
-127.7307085791783
 30
0.0
 10
85.5238086514392
 20
-127.7754760791672
 30
0.0
 10
85.57891253892227
 20
-127.7754760791672
 30
0.0
 10
85.63405170418223
 20
-127.7754760791672
 30
0.0
 10
85.6788192030401
 20
-127.7307085791783
 30
0.0
 10
85.6788192030401
 20
-127.6755694125255
 30
0.0
 10
85.6788192030401
 20
-127.6204655236503
 30
0.0
 10
85.63405170418223
 20
-127.5756627458839
 30
0.0
 10
85.57891253892227
 20
-127.5756627458839
 30
0.0
 10
85.5238086514392
 20
-127.5756627458839
 30
0.0
 10
85.47900587480443
 20
-127.6204655236503
 30
0.0
 10
85.47900587480443
 20
-127.6755694125255
 30
0.0
  0
SPLINE
  5
4C
330
1F
100
AcDbEntity
  8
_U+30EC_U+30A4_U+30E4_U+30FC 1
 62
     7
420
 16777215
370
     9
100
AcDbSpline
210
0.0
220
0.0
230
1.0
 70
    11
 71
     3
 72
    17
 73
    13
 74
     0
 42
0.0000000001
 43
0.0000000001
 12
1.0
 22
0.0
 32
0.0
 13
1.0
 23
0.0
 33
0.0
 40
0.0
 40
0.0
 40
0.0
 40
0.0
 40
1.0
 40
1.0
 40
1.0
 40
2.0
 40
2.0
 40
2.0
 40
3.0
 40
3.0
 40
3.0
 40
4.0
 40
4.0
 40
4.0
 40
4.0
 10
85.47900587480443
 20
-121.6755955251365
 30
0.0
 10
85.47900587480443
 20
-121.7307346917896
 30
0.0
 10
85.5238086514392
 20
-121.7755021917785
 30
0.0
 10
85.57891253892227
 20
-121.7755021917785
 30
0.0
 10
85.63405170418223
 20
-121.7755021917785
 30
0.0
 10
85.6788192030401
 20
-121.7307346917896
 30
0.0
 10
85.6788192030401
 20
-121.6755955251365
 30
0.0
 10
85.6788192030401
 20
-121.6204916362616
 30
0.0
 10
85.63405170418223
 20
-121.5756888584949
 30
0.0
 10
85.57891253892227
 20
-121.5756888584949
 30
0.0
 10
85.5238086514392
 20
-121.5756888584949
 30
0.0
 10
85.47900587480443
 20
-121.6204916362616
 30
0.0
 10
85.47900587480443
 20
-121.6755955251365
 30
0.0
  0
POLYLINE
  5
4D
330
1F
100
AcDbEntity
  8
_U+30EC_U+30A4_U+30E4_U+30FC 1
 62
     7
420
 16777215
370
     9
100
AcDb2dPolyline
 66
     1
 10
0.0
 20
0.0
 30
0.0
  0
VERTEX
  5
4E
330
4D
100
AcDbEntity
  8
_U+30EC_U+30A4_U+30E4_U+30FC 1
 62
     7
420
 16777215
370
     9
100
AcDbVertex
100
AcDb2dVertex
 10
85.57891253892227
 20
-121.6755955251365
 30
0.0
  0
VERTEX
  5
4F
330
4D
100
AcDbEntity
  8
_U+30EC_U+30A4_U+30E4_U+30FC 1
 62
     7
420
 16777215
370
     9
100
AcDbVertex
100
AcDb2dVertex
 10
85.57891253892227
 20
-127.6755694125255
 30
0.0
  0
SEQEND
  5
50
330
4D
100
AcDbEntity
  8
_U+30EC_U+30A4_U+30E4_U+30FC 1
 62
     7
420
 16777215
370
     9
  0
POLYLINE
  5
51
330
1F
100
AcDbEntity
  8
_U+30EC_U+30A4_U+30E4_U+30FC 1
 62
     7
420
 16777215
370
     9
100
AcDb2dPolyline
 66
     1
 10
0.0
 20
0.0
 30
0.0
  0
VERTEX
  5
52
330
51
100
AcDbEntity
  8
_U+30EC_U+30A4_U+30E4_U+30FC 1
 62
     7
420
 16777215
370
     9
100
AcDbVertex
100
AcDb2dVertex
 10
84.11890646505901
 20
-127.6755694125255
 30
0.0
  0
VERTEX
  5
53
330
51
100
AcDbEntity
  8
_U+30EC_U+30A4_U+30E4_U+30FC 1
 62
     7
420
 16777215
370
     9
100
AcDbVertex
100
AcDb2dVertex
 10
86.57868473563818
 20
-127.6755694125255
 30
0.0
  0
SEQEND
  5
54
330
51
100
AcDbEntity
  8
_U+30EC_U+30A4_U+30E4_U+30FC 1
 62
     7
420
 16777215
370
     9
  0
POLYLINE
  5
55
330
1F
100
AcDbEntity
  8
_U+30EC_U+30A4_U+30E4_U+30FC 1
 62
     7
420
 16777215
370
     9
100
AcDb2dPolyline
 66
     1
 10
0.0
 20
0.0
 30
0.0
  0
VERTEX
  5
56
330
55
100
AcDbEntity
  8
_U+30EC_U+30A4_U+30E4_U+30FC 1
 62
     7
420
 16777215
370
     9
100
AcDbVertex
100
AcDb2dVertex
 10
84.11890646505901
 20
-121.6755955251365
 30
0.0
  0
VERTEX
  5
57
330
55
100
AcDbEntity
  8
_U+30EC_U+30A4_U+30E4_U+30FC 1
 62
     7
420
 16777215
370
     9
100
AcDbVertex
100
AcDb2dVertex
 10
86.57868473563818
 20
-121.6755955251365
 30
0.0
  0
SEQEND
  5
58
330
55
100
AcDbEntity
  8
_U+30EC_U+30A4_U+30E4_U+30FC 1
 62
     7
420
 16777215
370
     9
  0
SPLINE
  5
59
330
1F
100
AcDbEntity
  8
_U+30EC_U+30A4_U+30E4_U+30FC 1
 62
     7
420
 16777215
370
     9
100
AcDbSpline
210
0.0
220
0.0
230
1.0
 70
    11
 71
     3
 72
    17
 73
    13
 74
     0
 42
0.0000000001
 43
0.0000000001
 12
1.0
 22
0.0
 32
0.0
 13
1.0
 23
0.0
 33
0.0
 40
0.0
 40
0.0
 40
0.0
 40
0.0
 40
1.0
 40
1.0
 40
1.0
 40
2.0
 40
2.0
 40
2.0
 40
3.0
 40
3.0
 40
3.0
 40
4.0
 40
4.0
 40
4.0
 40
4.0
 10
105.4932881419753
 20
-132.6785580223859
 30
0.0
 10
105.4932881419753
 20
-132.7336619112609
 30
0.0
 10
105.5380909186101
 20
-132.7784646890276
 30
0.0
 10
105.5931948060932
 20
-132.7784646890276
 30
0.0
 10
105.6483339713531
 20
-132.7784646890276
 30
0.0
 10
105.693101470211
 20
-132.7336619112609
 30
0.0
 10
105.693101470211
 20
-132.6785580223859
 30
0.0
 10
105.693101470211
 20
-132.6234188557329
 30
0.0
 10
105.6483339713531
 20
-132.5786513557443
 30
0.0
 10
105.5931948060932
 20
-132.5786513557443
 30
0.0
 10
105.5380909186101
 20
-132.5786513557443
 30
0.0
 10
105.4932881419753
 20
-132.6234188557329
 30
0.0
 10
105.4932881419753
 20
-132.6785580223859
 30
0.0
  0
POLYLINE
  5
5A
330
1F
100
AcDbEntity
  8
_U+30EC_U+30A4_U+30E4_U+30FC 1
 62
     7
420
 16777215
370
     9
100
AcDb2dPolyline
 66
     1
 10
0.0
 20
0.0
 30
0.0
  0
VERTEX
  5
5B
330
5A
100
AcDbEntity
  8
_U+30EC_U+30A4_U+30E4_U+30FC 1
 62
     7
420
 16777215
370
     9
100
AcDbVertex
100
AcDb2dVertex
 10
99.59322107027636
 20
-132.6785580223859
 30
0.0
  0
VERTEX
  5
5C
330
5A
100
AcDbEntity
  8
_U+30EC_U+30A4_U+30E4_U+30FC 1
 62
     7
420
 16777215
370
     9
100
AcDbVertex
100
AcDb2dVertex
 10
106.5929670028091
 20
-132.6785580223859
 30
0.0
  0
SEQEND
  5
5D
330
5A
100
AcDbEntity
  8
_U+30EC_U+30A4_U+30E4_U+30FC 1
 62
     7
420
 16777215
370
     9
  0
INSERT
  5
5F
330
1F
100
AcDbEntity
  8
_U+30EC_U+30A4_U+30E4_U+30FC 1
100
AcDbBlockReference
  2
block 2
 10
0.0
 20
0.0
 30
0.0
  0
INSERT
  5
68
330
1F
100
AcDbEntity
  8
_U+30EC_U+30A4_U+30E4_U+30FC 1
100
AcDbBlockReference
  2
block 3
 10
0.0
 20
0.0
 30
0.0
  0
SPLINE
  5
6E
330
1F
100
AcDbEntity
  8
_U+30EC_U+30A4_U+30E4_U+30FC 1
 62
     7
420
 16777215
370
     9
100
AcDbSpline
210
0.0
220
0.0
230
1.0
 70
    11
 71
     3
 72
    17
 73
    13
 74
     0
 42
0.0000000001
 43
0.0000000001
 12
1.0
 22
0.0
 32
0.0
 13
1.0
 23
0.0
 33
0.0
 40
0.0
 40
0.0
 40
0.0
 40
0.0
 40
1.0
 40
1.0
 40
1.0
 40
2.0
 40
2.0
 40
2.0
 40
3.0
 40
3.0
 40
3.0
 40
4.0
 40
4.0
 40
4.0
 40
4.0
 10
93.06235207022604
 20
-119.7949371922737
 30
0.0
 10
93.00724818274297
 20
-119.7949371922737
 30
0.0
 10
92.96244540610822
 20
-119.8397046922622
 30
0.0
 10
92.96244540610822
 20
-119.8948438589153
 30
0.0
 10
92.96244540610822
 20
-119.9499477477902
 30
0.0
 10
93.00724818274297
 20
-119.9947505255569
 30
0.0
 10
93.06235207022604
 20
-119.9947505255569
 30
0.0
 10
93.117491235486
 20
-119.9947505255569
 30
0.0
 10
93.16226108782067
 20
-119.9499477477902
 30
0.0
 10
93.16226108782067
 20
-119.8948438589153
 30
0.0
 10
93.16226108782067
 20
-119.8397046922622
 30
0.0
 10
93.117491235486
 20
-119.7949371922737
 30
0.0
 10
93.06235207022604
 20
-119.7949371922737
 30
0.0
  0
POLYLINE
  5
6F
330
1F
100
AcDbEntity
  8
_U+30EC_U+30A4_U+30E4_U+30FC 1
 62
     7
420
 16777215
370
     9
100
AcDb2dPolyline
 66
     1
 10
0.0
 20
0.0
 30
0.0
  0
VERTEX
  5
70
330
6F
100
AcDbEntity
  8
_U+30EC_U+30A4_U+30E4_U+30FC 1
 62
     7
420
 16777215
370
     9
100
AcDbVertex
100
AcDb2dVertex
 10
96.06406754920145
 20
-119.8948438589153
 30
0.0
  0
VERTEX
  5
71
330
6F
100
AcDbEntity
  8
_U+30EC_U+30A4_U+30E4_U+30FC 1
 62
     7
420
 16777215
370
     9
100
AcDbVertex
100
AcDb2dVertex
 10
93.06235207022604
 20
-119.8948438589153
 30
0.0
  0
SEQEND
  5
72
330
6F
100
AcDbEntity
  8
_U+30EC_U+30A4_U+30E4_U+30FC 1
 62
     7
420
 16777215
370
     9
  0
POLYLINE
  5
73
330
1F
100
AcDbEntity
  8
_U+30EC_U+30A4_U+30E4_U+30FC 1
 62
     7
420
 16777215
370
     9
100
AcDb2dPolyline
 66
     1
 10
0.0
 20
0.0
 30
0.0
  0
VERTEX
  5
74
330
73
100
AcDbEntity
  8
_U+30EC_U+30A4_U+30E4_U+30FC 1
 62
     7
420
 16777215
370
     9
100
AcDbVertex
100
AcDb2dVertex
 10
93.06235207022604
 20
-118.4348024703912
 30
0.0
  0
VERTEX
  5
75
330
73
100
AcDbEntity
  8
_U+30EC_U+30A4_U+30E4_U+30FC 1
 62
     7
420
 16777215
370
     9
100
AcDbVertex
100
AcDb2dVertex
 10
93.06235207022604
 20
-120.8946160808875
 30
0.0
  0
SEQEND
  5
76
330
73
100
AcDbEntity
  8
_U+30EC_U+30A4_U+30E4_U+30FC 1
 62
     7
420
 16777215
370
     9
  0
SPLINE
  5
77
330
1F
100
AcDbEntity
  8
_U+30EC_U+30A4_U+30E4_U+30FC 1
 62
     7
420
 16777215
370
     9
100
AcDbSpline
210
0.0
220
0.0
230
1.0
 70
    11
 71
     3
 72
    17
 73
    13
 74
     0
 42
0.0000000001
 43
0.0000000001
 12
1.0
 22
0.0
 32
0.0
 13
1.0
 23
0.0
 33
0.0
 40
0.0
 40
0.0
 40
0.0
 40
0.0
 40
1.0
 40
1.0
 40
1.0
 40
2.0
 40
2.0
 40
2.0
 40
3.0
 40
3.0
 40
3.0
 40
4.0
 40
4.0
 40
4.0
 40
4.0
 10
96.06406754920145
 20
-119.7949371922737
 30
0.0
 10
96.00896366171838
 20
-119.7949371922737
 30
0.0
 10
95.96416088508363
 20
-119.8397046922622
 30
0.0
 10
95.96416088508363
 20
-119.8948438589153
 30
0.0
 10
95.96416088508363
 20
-119.9499477477902
 30
0.0
 10
96.00896366171838
 20
-119.9947505255569
 30
0.0
 10
96.06406754920145
 20
-119.9947505255569
 30
0.0
 10
96.11920671446141
 20
-119.9947505255569
 30
0.0
 10
96.16397421331929
 20
-119.9499477477902
 30
0.0
 10
96.16397421331929
 20
-119.8948438589153
 30
0.0
 10
96.16397421331929
 20
-119.8397046922622
 30
0.0
 10
96.11920671446141
 20
-119.7949371922737
 30
0.0
 10
96.06406754920145
 20
-119.7949371922737
 30
0.0
  0
POLYLINE
  5
78
330
1F
100
AcDbEntity
  8
_U+30EC_U+30A4_U+30E4_U+30FC 1
 62
     7
420
 16777215
370
     9
100
AcDb2dPolyline
 66
     1
 10
0.0
 20
0.0
 30
0.0
  0
VERTEX
  5
79
330
78
100
AcDbEntity
  8
_U+30EC_U+30A4_U+30E4_U+30FC 1
 62
     7
420
 16777215
370
     9
100
AcDbVertex
100
AcDb2dVertex
 10
96.06406754920145
 20
-118.4348024703912
 30
0.0
  0
VERTEX
  5
7A
330
78
100
AcDbEntity
  8
_U+30EC_U+30A4_U+30E4_U+30FC 1
 62
     7
420
 16777215
370
     9
100
AcDbVertex
100
AcDb2dVertex
 10
96.06406754920145
 20
-120.8946160808875
 30
0.0
  0
SEQEND
  5
7B
330
78
100
AcDbEntity
  8
_U+30EC_U+30A4_U+30E4_U+30FC 1
 62
     7
420
 16777215
370
     9
  0
INSERT
  5
7D
330
1F
100
AcDbEntity
  8
_U+30EC_U+30A4_U+30E4_U+30FC 1
100
AcDbBlockReference
  2
block 4
 10
0.0
 20
0.0
 30
0.0
  0
SPLINE
  5
82
330
1F
100
AcDbEntity
  8
_U+30EC_U+30A4_U+30E4_U+30FC 1
 62
     7
420
 16777215
370
     9
100
AcDbSpline
210
0.0
220
0.0
230
1.0
 70
    11
 71
     3
 72
    17
 73
    13
 74
     0
 42
0.0000000001
 43
0.0000000001
 12
1.0
 22
0.0
 32
0.0
 13
1.0
 23
0.0
 33
0.0
 40
0.0
 40
0.0
 40
0.0
 40
0.0
 40
1.0
 40
1.0
 40
1.0
 40
2.0
 40
2.0
 40
2.0
 40
3.0
 40
3.0
 40
3.0
 40
4.0
 40
4.0
 40
4.0
 40
4.0
 10
90.06236520231764
 20
-119.7949371922737
 30
0.0
 10
90.00726131483457
 20
-119.7949371922737
 30
0.0
 10
89.96245853819981
 20
-119.8397046922622
 30
0.0
 10
89.96245853819981
 20
-119.8948438589153
 30
0.0
 10
89.96245853819981
 20
-119.9499477477902
 30
0.0
 10
90.00726131483457
 20
-119.9947505255569
 30
0.0
 10
90.06236520231764
 20
-119.9947505255569
 30
0.0
 10
90.1175043675776
 20
-119.9947505255569
 30
0.0
 10
90.16227186643547
 20
-119.9499477477902
 30
0.0
 10
90.16227186643547
 20
-119.8948438589153
 30
0.0
 10
90.16227186643547
 20
-119.8397046922622
 30
0.0
 10
90.1175043675776
 20
-119.7949371922737
 30
0.0
 10
90.06236520231764
 20
-119.7949371922737
 30
0.0
  0
POLYLINE
  5
83
330
1F
100
AcDbEntity
  8
_U+30EC_U+30A4_U+30E4_U+30FC 1
 62
     7
420
 16777215
370
     9
100
AcDb2dPolyline
 66
     1
 10
0.0
 20
0.0
 30
0.0
  0
VERTEX
  5
84
330
83
100
AcDbEntity
  8
_U+30EC_U+30A4_U+30E4_U+30FC 1
 62
     7
420
 16777215
370
     9
100
AcDbVertex
100
AcDb2dVertex
 10
93.06408068129305
 20
-119.8948438589153
 30
0.0
  0
VERTEX
  5
85
330
83
100
AcDbEntity
  8
_U+30EC_U+30A4_U+30E4_U+30FC 1
 62
     7
420
 16777215
370
     9
100
AcDbVertex
100
AcDb2dVertex
 10
90.06236520231764
 20
-119.8948438589153
 30
0.0
  0
SEQEND
  5
86
330
83
100
AcDbEntity
  8
_U+30EC_U+30A4_U+30E4_U+30FC 1
 62
     7
420
 16777215
370
     9
  0
POLYLINE
  5
87
330
1F
100
AcDbEntity
  8
_U+30EC_U+30A4_U+30E4_U+30FC 1
 62
     7
420
 16777215
370
     9
100
AcDb2dPolyline
 66
     1
 10
0.0
 20
0.0
 30
0.0
  0
VERTEX
  5
88
330
87
100
AcDbEntity
  8
_U+30EC_U+30A4_U+30E4_U+30FC 1
 62
     7
420
 16777215
370
     9
100
AcDbVertex
100
AcDb2dVertex
 10
90.06236520231764
 20
-118.4348024703912
 30
0.0
  0
VERTEX
  5
89
330
87
100
AcDbEntity
  8
_U+30EC_U+30A4_U+30E4_U+30FC 1
 62
     7
420
 16777215
370
     9
100
AcDbVertex
100
AcDb2dVertex
 10
90.06236520231764
 20
-120.8946160808875
 30
0.0
  0
SEQEND
  5
8A
330
87
100
AcDbEntity
  8
_U+30EC_U+30A4_U+30E4_U+30FC 1
 62
     7
420
 16777215
370
     9
  0
INSERT
  5
8C
330
1F
100
AcDbEntity
  8
_U+30EC_U+30A4_U+30E4_U+30FC 1
100
AcDbBlockReference
  2
block 5
 10
0.0
 20
0.0
 30
0.0
  0
SPLINE
  5
91
330
1F
100
AcDbEntity
  8
_U+30EC_U+30A4_U+30E4_U+30FC 1
 62
     7
420
 16777215
370
     9
100
AcDbSpline
210
0.0
220
0.0
230
1.0
 70
    11
 71
     3
 72
    17
 73
    13
 74
     0
 42
0.0000000001
 43
0.0000000001
 12
1.0
 22
0.0
 32
0.0
 13
1.0
 23
0.0
 33
0.0
 40
0.0
 40
0.0
 40
0.0
 40
0.0
 40
1.0
 40
1.0
 40
1.0
 40
2.0
 40
2.0
 40
2.0
 40
3.0
 40
3.0
 40
3.0
 40
4.0
 40
4.0
 40
4.0
 40
4.0
 10
87.06238053379002
 20
-119.7949371922737
 30
0.0
 10
87.00727444692616
 20
-119.7949371922737
 30
0.0
 10
86.96247167029141
 20
-119.8397046922622
 30
0.0
 10
86.96247167029141
 20
-119.8948438589153
 30
0.0
 10
86.96247167029141
 20
-119.9499477477902
 30
0.0
 10
87.00727444692616
 20
-119.9947505255569
 30
0.0
 10
87.06238053379002
 20
-119.9947505255569
 30
0.0
 10
87.11751749966919
 20
-119.9947505255569
 30
0.0
 10
87.16228499852707
 20
-119.9499477477902
 30
0.0
 10
87.16228499852707
 20
-119.8948438589153
 30
0.0
 10
87.16228499852707
 20
-119.8397046922622
 30
0.0
 10
87.11751749966919
 20
-119.7949371922737
 30
0.0
 10
87.06238053379002
 20
-119.7949371922737
 30
0.0
  0
POLYLINE
  5
92
330
1F
100
AcDbEntity
  8
_U+30EC_U+30A4_U+30E4_U+30FC 1
 62
     7
420
 16777215
370
     9
100
AcDb2dPolyline
 66
     1
 10
0.0
 20
0.0
 30
0.0
  0
VERTEX
  5
93
330
92
100
AcDbEntity
  8
_U+30EC_U+30A4_U+30E4_U+30FC 1
 62
     7
420
 16777215
370
     9
100
AcDbVertex
100
AcDb2dVertex
 10
90.06409381338466
 20
-119.8948438589153
 30
0.0
  0
VERTEX
  5
94
330
92
100
AcDbEntity
  8
_U+30EC_U+30A4_U+30E4_U+30FC 1
 62
     7
420
 16777215
370
     9
100
AcDbVertex
100
AcDb2dVertex
 10
87.06238053379002
 20
-119.8948438589153
 30
0.0
  0
SEQEND
  5
95
330
92
100
AcDbEntity
  8
_U+30EC_U+30A4_U+30E4_U+30FC 1
 62
     7
420
 16777215
370
     9
  0
POLYLINE
  5
96
330
1F
100
AcDbEntity
  8
_U+30EC_U+30A4_U+30E4_U+30FC 1
 62
     7
420
 16777215
370
     9
100
AcDb2dPolyline
 66
     1
 10
0.0
 20
0.0
 30
0.0
  0
VERTEX
  5
97
330
96
100
AcDbEntity
  8
_U+30EC_U+30A4_U+30E4_U+30FC 1
 62
     7
420
 16777215
370
     9
100
AcDbVertex
100
AcDb2dVertex
 10
87.06238053379002
 20
-118.4348024703912
 30
0.0
  0
VERTEX
  5
98
330
96
100
AcDbEntity
  8
_U+30EC_U+30A4_U+30E4_U+30FC 1
 62
     7
420
 16777215
370
     9
100
AcDbVertex
100
AcDb2dVertex
 10
87.06238053379002
 20
-120.8946160808875
 30
0.0
  0
SEQEND
  5
99
330
96
100
AcDbEntity
  8
_U+30EC_U+30A4_U+30E4_U+30FC 1
 62
     7
420
 16777215
370
     9
  0
INSERT
  5
9B
330
1F
100
AcDbEntity
  8
_U+30EC_U+30A4_U+30E4_U+30FC 1
100
AcDbBlockReference
  2
block 6
 10
0.0
 20
0.0
 30
0.0
  0
POLYLINE
  5
A0
330
1F
100
AcDbEntity
  8
_U+30EC_U+30A4_U+30E4_U+30FC 1
 62
     7
420
 16777215
370
     9
100
AcDb2dPolyline
 66
     1
 10
0.0
 20
0.0
 30
0.0
  0
VERTEX
  5
A1
330
A0
100
AcDbEntity
  8
_U+30EC_U+30A4_U+30E4_U+30FC 1
 62
     7
420
 16777215
370
     9
100
AcDbVertex
100
AcDb2dVertex
 10
93.0630576257636
 20
-136.8626082991178
 30
0.0
  0
VERTEX
  5
A2
330
A0
100
AcDbEntity
  8
_U+30EC_U+30A4_U+30E4_U+30FC 1
 62
     7
420
 16777215
370
     9
100
AcDbVertex
100
AcDb2dVertex
 10
103.0631432039735
 20
-136.8626082991178
 30
0.0
  0
SEQEND
  5
A3
330
A0
100
AcDbEntity
  8
_U+30EC_U+30A4_U+30E4_U+30FC 1
 62
     7
420
 16777215
370
     9
  0
POLYLINE
  5
A4
330
1F
100
AcDbEntity
  8
_U+30EC_U+30A4_U+30E4_U+30FC 1
 62
     7
420
 16777215
370
     9
100
AcDb2dPolyline
 66
     1
 10
0.0
 20
0.0
 30
0.0
  0
VERTEX
  5
A5
330
A4
100
AcDbEntity
  8
_U+30EC_U+30A4_U+30E4_U+30FC 1
 62
     7
420
 16777215
370
     9
100
AcDbVertex
100
AcDb2dVertex
 10
103.0631432039735
 20
-135.4026021883716
 30
0.0
  0
VERTEX
  5
A6
330
A4
100
AcDbEntity
  8
_U+30EC_U+30A4_U+30E4_U+30FC 1
 62
     7
420
 16777215
370
     9
100
AcDbVertex
100
AcDb2dVertex
 10
103.0631432039735
 20
-137.8623805210897
 30
0.0
  0
SEQEND
  5
A7
330
A4
100
AcDbEntity
  8
_U+30EC_U+30A4_U+30E4_U+30FC 1
 62
     7
420
 16777215
370
     9
  0
SPLINE
  5
A8
330
1F
100
AcDbEntity
  8
_U+30EC_U+30A4_U+30E4_U+30FC 1
 62
     7
420
 16777215
370
     9
100
AcDbSpline
210
0.0
220
0.0
230
1.0
 70
    11
 71
     3
 72
    17
 73
    13
 74
     0
 42
0.0000000001
 43
0.0000000001
 12
1.0
 22
0.0
 32
0.0
 13
1.0
 23
0.0
 33
0.0
 40
0.0
 40
0.0
 40
0.0
 40
0.0
 40
1.0
 40
1.0
 40
1.0
 40
2.0
 40
2.0
 40
2.0
 40
3.0
 40
3.0
 40
3.0
 40
4.0
 40
4.0
 40
4.0
 40
4.0
 10
93.1629666433762
 20
-136.8626082991178
 30
0.0
 10
93.1629666433762
 20
-136.8075044102429
 30
0.0
 10
93.11816386560947
 20
-136.7627016324762
 30
0.0
 10
93.0630576257636
 20
-136.7627016324762
 30
0.0
 10
93.00791846050365
 20
-136.7627016324762
 30
0.0
 10
92.96315096164577
 20
-136.8075044102429
 30
0.0
 10
92.96315096164577
 20
-136.8626082991178
 30
0.0
 10
92.96315096164577
 20
-136.9177474657709
 30
0.0
 10
93.00791846050365
 20
-136.9625149657595
 30
0.0
 10
93.0630576257636
 20
-136.9625149657595
 30
0.0
 10
93.11816386560947
 20
-136.9625149657595
 30
0.0
 10
93.1629666433762
 20
-136.9177474657709
 30
0.0
 10
93.1629666433762
 20
-136.8626082991178
 30
0.0
  0
POLYLINE
  5
A9
330
1F
100
AcDbEntity
  8
_U+30EC_U+30A4_U+30E4_U+30FC 1
 62
     7
420
 16777215
370
     9
100
AcDb2dPolyline
 66
     1
 10
0.0
 20
0.0
 30
0.0
  0
VERTEX
  5
AA
330
A9
100
AcDbEntity
  8
_U+30EC_U+30A4_U+30E4_U+30FC 1
 62
     7
420
 16777215
370
     9
100
AcDbVertex
100
AcDb2dVertex
 10
93.0630576257636
 20
-135.4026021883716
 30
0.0
  0
VERTEX
  5
AB
330
A9
100
AcDbEntity
  8
_U+30EC_U+30A4_U+30E4_U+30FC 1
 62
     7
420
 16777215
370
     9
100
AcDbVertex
100
AcDb2dVertex
 10
93.0630576257636
 20
-137.8623805210897
 30
0.0
  0
SEQEND
  5
AC
330
A9
100
AcDbEntity
  8
_U+30EC_U+30A4_U+30E4_U+30FC 1
 62
     7
420
 16777215
370
     9
  0
INSERT
  5
AE
330
1F
100
AcDbEntity
  8
_U+30EC_U+30A4_U+30E4_U+30FC 1
100
AcDbBlockReference
  2
block 7
 10
0.0
 20
0.0
 30
0.0
  0
SPLINE
  5
B6
330
1F
100
AcDbEntity
  8
_U+30EC_U+30A4_U+30E4_U+30FC 1
 62
     7
420
 16777215
370
     9
100
AcDbSpline
210
0.0
220
0.0
230
1.0
 70
    11
 71
     3
 72
    17
 73
    13
 74
     0
 42
0.0000000001
 43
0.0000000001
 12
1.0
 22
0.0
 32
0.0
 13
1.0
 23
0.0
 33
0.0
 40
0.0
 40
0.0
 40
0.0
 40
0.0
 40
1.0
 40
1.0
 40
1.0
 40
2.0
 40
2.0
 40
2.0
 40
3.0
 40
3.0
 40
3.0
 40
4.0
 40
4.0
 40
4.0
 40
4.0
 10
90.16227186643547
 20
-136.8626082991178
 30
0.0
 10
90.16227186643547
 20
-136.8075044102429
 30
0.0
 10
90.1175043675776
 20
-136.7627016324762
 30
0.0
 10
90.06236520231764
 20
-136.7627016324762
 30
0.0
 10
90.00726131483457
 20
-136.7627016324762
 30
0.0
 10
89.96245853819981
 20
-136.8075044102429
 30
0.0
 10
89.96245853819981
 20
-136.8626082991178
 30
0.0
 10
89.96245853819981
 20
-136.9177474657709
 30
0.0
 10
90.00726131483457
 20
-136.9625149657595
 30
0.0
 10
90.06236520231764
 20
-136.9625149657595
 30
0.0
 10
90.1175043675776
 20
-136.9625149657595
 30
0.0
 10
90.16227186643547
 20
-136.9177474657709
 30
0.0
 10
90.16227186643547
 20
-136.8626082991178
 30
0.0
  0
POLYLINE
  5
B7
330
1F
100
AcDbEntity
  8
_U+30EC_U+30A4_U+30E4_U+30FC 1
 62
     7
420
 16777215
370
     9
100
AcDb2dPolyline
 66
     1
 10
0.0
 20
0.0
 30
0.0
  0
VERTEX
  5
B8
330
B7
100
AcDbEntity
  8
_U+30EC_U+30A4_U+30E4_U+30FC 1
 62
     7
420
 16777215
370
     9
100
AcDbVertex
100
AcDb2dVertex
 10
75.06243086277563
 20
-136.8626082991178
 30
0.0
  0
VERTEX
  5
B9
330
B7
100
AcDbEntity
  8
_U+30EC_U+30A4_U+30E4_U+30FC 1
 62
     7
420
 16777215
370
     9
100
AcDbVertex
100
AcDb2dVertex
 10
90.06236520231764
 20
-136.8626082991178
 30
0.0
  0
SEQEND
  5
BA
330
B7
100
AcDbEntity
  8
_U+30EC_U+30A4_U+30E4_U+30FC 1
 62
     7
420
 16777215
370
     9
  0
POLYLINE
  5
BB
330
1F
100
AcDbEntity
  8
_U+30EC_U+30A4_U+30E4_U+30FC 1
 62
     7
420
 16777215
370
     9
100
AcDb2dPolyline
 66
     1
 10
0.0
 20
0.0
 30
0.0
  0
VERTEX
  5
BC
330
BB
100
AcDbEntity
  8
_U+30EC_U+30A4_U+30E4_U+30FC 1
 62
     7
420
 16777215
370
     9
100
AcDbVertex
100
AcDb2dVertex
 10
90.06236520231764
 20
-135.4026021883716
 30
0.0
  0
VERTEX
  5
BD
330
BB
100
AcDbEntity
  8
_U+30EC_U+30A4_U+30E4_U+30FC 1
 62
     7
420
 16777215
370
     9
100
AcDbVertex
100
AcDb2dVertex
 10
90.06236520231764
 20
-137.8623805210897
 30
0.0
  0
SEQEND
  5
BE
330
BB
100
AcDbEntity
  8
_U+30EC_U+30A4_U+30E4_U+30FC 1
 62
     7
420
 16777215
370
     9
  0
SPLINE
  5
BF
330
1F
100
AcDbEntity
  8
_U+30EC_U+30A4_U+30E4_U+30FC 1
 62
     7
420
 16777215
370
     9
100
AcDbSpline
210
0.0
220
0.0
230
1.0
 70
    11
 71
     3
 72
    17
 73
    13
 74
     0
 42
0.0000000001
 43
0.0000000001
 12
1.0
 22
0.0
 32
0.0
 13
1.0
 23
0.0
 33
0.0
 40
0.0
 40
0.0
 40
0.0
 40
0.0
 40
1.0
 40
1.0
 40
1.0
 40
2.0
 40
2.0
 40
2.0
 40
3.0
 40
3.0
 40
3.0
 40
4.0
 40
4.0
 40
4.0
 40
4.0
 10
75.16233752689347
 20
-136.8626082991178
 30
0.0
 10
75.16233752689347
 20
-136.8075044102429
 30
0.0
 10
75.1175347502587
 20
-136.7627016324762
 30
0.0
 10
75.06243086277563
 20
-136.7627016324762
 30
0.0
 10
75.00729169751568
 20
-136.7627016324762
 30
0.0
 10
74.96252419865779
 20
-136.8075044102429
 30
0.0
 10
74.96252419865779
 20
-136.8626082991178
 30
0.0
 10
74.96252419865779
 20
-136.9177474657709
 30
0.0
 10
75.00729169751568
 20
-136.9625149657595
 30
0.0
 10
75.06243086277563
 20
-136.9625149657595
 30
0.0
 10
75.1175347502587
 20
-136.9625149657595
 30
0.0
 10
75.16233752689347
 20
-136.9177474657709
 30
0.0
 10
75.16233752689347
 20
-136.8626082991178
 30
0.0
  0
POLYLINE
  5
C0
330
1F
100
AcDbEntity
  8
_U+30EC_U+30A4_U+30E4_U+30FC 1
 62
     7
420
 16777215
370
     9
100
AcDb2dPolyline
 66
     1
 10
0.0
 20
0.0
 30
0.0
  0
VERTEX
  5
C1
330
C0
100
AcDbEntity
  8
_U+30EC_U+30A4_U+30E4_U+30FC 1
 62
     7
420
 16777215
370
     9
100
AcDbVertex
100
AcDb2dVertex
 10
75.06243086277563
 20
-135.4026021883716
 30
0.0
  0
VERTEX
  5
C2
330
C0
100
AcDbEntity
  8
_U+30EC_U+30A4_U+30E4_U+30FC 1
 62
     7
420
 16777215
370
     9
100
AcDbVertex
100
AcDb2dVertex
 10
75.06243086277563
 20
-137.8623805210897
 30
0.0
  0
SEQEND
  5
C3
330
C0
100
AcDbEntity
  8
_U+30EC_U+30A4_U+30E4_U+30FC 1
 62
     7
420
 16777215
370
     9
  0
INSERT
  5
C5
330
1F
100
AcDbEntity
  8
_U+30EC_U+30A4_U+30E4_U+30FC 1
100
AcDbBlockReference
  2
block 8
 10
0.0
 20
0.0
 30
0.0
  0
SPLINE
  5
CC
330
1F
100
AcDbEntity
  8
_U+30EC_U+30A4_U+30E4_U+30FC 1
 62
   179
420
  2234388
370
     9
100
AcDbSpline
210
0.0
220
0.0
230
1.0
 70
    11
 71
     3
 72
    17
 73
    13
 74
     0
 42
0.0000000001
 43
0.0000000001
 12
1.0
 22
0.0
 32
0.0
 13
1.0
 23
0.0
 33
0.0
 40
0.0
 40
0.0
 40
0.0
 40
0.0
 40
1.0
 40
1.0
 40
1.0
 40
2.0
 40
2.0
 40
2.0
 40
3.0
 40
3.0
 40
3.0
 40
4.0
 40
4.0
 40
4.0
 40
4.0
 10
93.15746095668851
 20
-126.3922696906241
 30
0.0
 10
93.15746095668851
 20
-126.3371658017492
 30
0.0
 10
93.11265818005374
 20
-126.2923630239824
 30
0.0
 10
93.05755429257067
 20
-126.2923630239824
 30
0.0
 10
93.00241512731073
 20
-126.2923630239824
 30
0.0
 10
92.95764997676073
 20
-126.3371658017492
 30
0.0
 10
92.95764997676073
 20
-126.3922696906241
 30
0.0
 10
92.95764997676073
 20
-126.4474088572772
 30
0.0
 10
93.00241512731073
 20
-126.4921763572657
 30
0.0
 10
93.05755429257067
 20
-126.4921763572657
 30
0.0
 10
93.11265818005374
 20
-126.4921763572657
 30
0.0
 10
93.15746095668851
 20
-126.4474088572772
 30
0.0
 10
93.15746095668851
 20
-126.3922696906241
 30
0.0
  0
SPLINE
  5
CD
330
1F
100
AcDbEntity
  8
_U+30EC_U+30A4_U+30E4_U+30FC 1
 62
   179
420
  2234388
370
     9
100
AcDbSpline
210
0.0
220
0.0
230
1.0
 70
    11
 71
     3
 72
    17
 73
    13
 74
     0
 42
0.0000000001
 43
0.0000000001
 12
1.0
 22
0.0
 32
0.0
 13
1.0
 23
0.0
 33
0.0
 40
0.0
 40
0.0
 40
0.0
 40
0.0
 40
1.0
 40
1.0
 40
1.0
 40
2.0
 40
2.0
 40
2.0
 40
3.0
 40
3.0
 40
3.0
 40
4.0
 40
4.0
 40
4.0
 40
4.0
 10
94.15719787562753
 20
-126.3922696906241
 30
0.0
 10
94.15719787562753
 20
-126.3371658017492
 30
0.0
 10
94.11243037676965
 20
-126.2923630239824
 30
0.0
 10
94.05729121150969
 20
-126.2923630239824
 30
0.0
 10
94.00218732402662
 20
-126.2923630239824
 30
0.0
 10
93.95738454739187
 20
-126.3371658017492
 30
0.0
 10
93.95738454739187
 20
-126.3922696906241
 30
0.0
 10
93.95738454739187
 20
-126.4474088572772
 30
0.0
 10
94.00218732402662
 20
-126.4921763572657
 30
0.0
 10
94.05729121150969
 20
-126.4921763572657
 30
0.0
 10
94.11243037676965
 20
-126.4921763572657
 30
0.0
 10
94.15719787562753
 20
-126.4474088572772
 30
0.0
 10
94.15719787562753
 20
-126.3922696906241
 30
0.0
  0
INSERT
  5
CF
330
1F
100
AcDbEntity
  8
_U+30EC_U+30A4_U+30E4_U+30FC 1
100
AcDbBlockReference
  2
block 9
 10
0.0
 20
0.0
 30
0.0
  0
POLYLINE
  5
D4
330
1F
100
AcDbEntity
  8
_U+30EC_U+30A4_U+30E4_U+30FC 1
 62
   179
420
  2234388
370
     9
100
AcDb2dPolyline
 66
     1
 10
0.0
 20
0.0
 30
0.0
  0
VERTEX
  5
D5
330
D4
100
AcDbEntity
  8
_U+30EC_U+30A4_U+30E4_U+30FC 1
 62
   179
420
  2234388
370
     9
100
AcDbVertex
100
AcDb2dVertex
 10
95.97689616253649
 20
-126.3922696906241
 30
0.0
  0
VERTEX
  5
D6
330
D4
100
AcDbEntity
  8
_U+30EC_U+30A4_U+30E4_U+30FC 1
 62
   179
420
  2234388
370
     9
100
AcDbVertex
100
AcDb2dVertex
 10
92.13839181602046
 20
-126.3922696906241
 30
0.0
  0
SEQEND
  5
D7
330
D4
100
AcDbEntity
  8
_U+30EC_U+30A4_U+30E4_U+30FC 1
 62
   179
420
  2234388
370
     9
  0
POLYLINE
  5
D8
330
1F
100
AcDbEntity
  8
_U+30EC_U+30A4_U+30E4_U+30FC 1
 62
   179
420
  2234388
370
    25
100
AcDb2dPolyline
 66
     1
 10
0.0
 20
0.0
 30
0.0
  0
VERTEX
  5
D9
330
D8
100
AcDbEntity
  8
_U+30EC_U+30A4_U+30E4_U+30FC 1
 62
   179
420
  2234388
370
    25
100
AcDbVertex
100
AcDb2dVertex
 10
81.26980264885682
 20
-132.4818491335462
 30
0.0
  0
VERTEX
  5
DA
330
D8
100
AcDbEntity
  8
_U+30EC_U+30A4_U+30E4_U+30FC 1
 62
   179
420
  2234388
370
    25
100
AcDbVertex
100
AcDb2dVertex
 10
80.77062210603643
 20
-132.8821460778908
 30
0.0
  0
SEQEND
  5
DB
330
D8
100
AcDbEntity
  8
_U+30EC_U+30A4_U+30E4_U+30FC 1
 62
   179
420
  2234388
370
    25
  0
POLYLINE
  5
DC
330
1F
100
AcDbEntity
  8
_U+30EC_U+30A4_U+30E4_U+30FC 1
 62
   179
420
  2234388
370
    25
100
AcDb2dPolyline
 66
     1
 10
0.0
 20
0.0
 30
0.0
  0
VERTEX
  5
DD
330
DC
100
AcDbEntity
  8
_U+30EC_U+30A4_U+30E4_U+30FC 1
 62
   179
420
  2234388
370
    25
100
AcDbVertex
100
AcDb2dVertex
 10
81.26980264885682
 20
-132.4818491335462
 30
0.0
  0
VERTEX
  5
DE
330
DC
100
AcDbEntity
  8
_U+30EC_U+30A4_U+30E4_U+30FC 1
 62
   179
420
  2234388
370
    25
100
AcDbVertex
100
AcDb2dVertex
 10
81.77021791386794
 20
-132.881123022335
 30
0.0
  0
SEQEND
  5
DF
330
DC
100
AcDbEntity
  8
_U+30EC_U+30A4_U+30E4_U+30FC 1
 62
   179
420
  2234388
370
    25
  0
POLYLINE
  5
E0
330
1F
100
AcDbEntity
  8
_U+30EC_U+30A4_U+30E4_U+30FC 1
 62
   179
420
  2234388
370
    25
100
AcDb2dPolyline
 66
     1
 10
0.0
 20
0.0
 30
0.0
  0
VERTEX
  5
E1
330
E0
100
AcDbEntity
  8
_U+30EC_U+30A4_U+30E4_U+30FC 1
 62
   179
420
  2234388
370
    25
100
AcDbVertex
100
AcDb2dVertex
 10
81.77021791386794
 20
-132.881123022335
 30
0.0
  0
VERTEX
  5
E2
330
E0
100
AcDbEntity
  8
_U+30EC_U+30A4_U+30E4_U+30FC 1
 62
   179
420
  2234388
370
    25
100
AcDbVertex
100
AcDb2dVertex
 10
82.2704215122178
 20
-132.4807908002129
 30
0.0
  0
SEQEND
  5
E3
330
E0
100
AcDbEntity
  8
_U+30EC_U+30A4_U+30E4_U+30FC 1
 62
   179
420
  2234388
370
    25
  0
POLYLINE
  5
E4
330
1F
100
AcDbEntity
  8
_U+30EC_U+30A4_U+30E4_U+30FC 1
 62
   179
420
  2234388
370
    25
100
AcDb2dPolyline
 66
     1
 10
0.0
 20
0.0
 30
0.0
  0
VERTEX
  5
E5
330
E4
100
AcDbEntity
  8
_U+30EC_U+30A4_U+30E4_U+30FC 1
 62
   179
420
  2234388
370
    25
100
AcDbVertex
100
AcDb2dVertex
 10
82.2704215122178
 20
-132.4807908002129
 30
0.0
  0
VERTEX
  5
E6
330
E4
100
AcDbEntity
  8
_U+30EC_U+30A4_U+30E4_U+30FC 1
 62
   179
420
  2234388
370
    25
100
AcDbVertex
100
AcDb2dVertex
 10
82.77066038834452
 20
-132.8800999667799
 30
0.0
  0
SEQEND
  5
E7
330
E4
100
AcDbEntity
  8
_U+30EC_U+30A4_U+30E4_U+30FC 1
 62
   179
420
  2234388
370
    25
  0
POLYLINE
  5
E8
330
1F
100
AcDbEntity
  8
_U+30EC_U+30A4_U+30E4_U+30FC 1
 62
   179
420
  2234388
370
    25
100
AcDb2dPolyline
 66
     1
 10
0.0
 20
0.0
 30
0.0
  0
VERTEX
  5
E9
330
E8
100
AcDbEntity
  8
_U+30EC_U+30A4_U+30E4_U+30FC 1
 62
   179
420
  2234388
370
    25
100
AcDbVertex
100
AcDb2dVertex
 10
82.77066038834452
 20
-132.8800999667799
 30
0.0
  0
VERTEX
  5
EA
330
E8
100
AcDbEntity
  8
_U+30EC_U+30A4_U+30E4_U+30FC 1
 62
   179
420
  2234388
370
    25
100
AcDbVertex
100
AcDb2dVertex
 10
83.270019423627
 20
-132.4797677446578
 30
0.0
  0
SEQEND
  5
EB
330
E8
100
AcDbEntity
  8
_U+30EC_U+30A4_U+30E4_U+30FC 1
 62
   179
420
  2234388
370
    25
  0
POLYLINE
  5
EC
330
1F
100
AcDbEntity
  8
_U+30EC_U+30A4_U+30E4_U+30FC 1
 62
   179
420
  2234388
370
    25
100
AcDb2dPolyline
 66
     1
 10
0.0
 20
0.0
 30
0.0
  0
VERTEX
  5
ED
330
EC
100
AcDbEntity
  8
_U+30EC_U+30A4_U+30E4_U+30FC 1
 62
   179
420
  2234388
370
    25
100
AcDbVertex
100
AcDb2dVertex
 10
83.270019423627
 20
-132.4797677446578
 30
0.0
  0
VERTEX
  5
EE
330
EC
100
AcDbEntity
  8
_U+30EC_U+30A4_U+30E4_U+30FC 1
 62
   179
420
  2234388
370
    25
100
AcDbVertex
100
AcDb2dVertex
 10
83.77043258506043
 20
-132.8797471890021
 30
0.0
  0
SEQEND
  5
EF
330
EC
100
AcDbEntity
  8
_U+30EC_U+30A4_U+30E4_U+30FC 1
 62
   179
420
  2234388
370
    25
  0
POLYLINE
  5
F0
330
1F
100
AcDbEntity
  8
_U+30EC_U+30A4_U+30E4_U+30FC 1
 62
   179
420
  2234388
370
    25
100
AcDb2dPolyline
 66
     1
 10
0.0
 20
0.0
 30
0.0
  0
VERTEX
  5
F1
330
F0
100
AcDbEntity
  8
_U+30EC_U+30A4_U+30E4_U+30FC 1
 62
   179
420
  2234388
370
    25
100
AcDbVertex
100
AcDb2dVertex
 10
83.77043258506043
 20
-132.8797471890021
 30
0.0
  0
VERTEX
  5
F2
330
F0
100
AcDbEntity
  8
_U+30EC_U+30A4_U+30E4_U+30FC 1
 62
   179
420
  2234388
370
    25
100
AcDbVertex
100
AcDb2dVertex
 10
84.26979164559923
 20
-132.47941496688
 30
0.0
  0
SEQEND
  5
F3
330
F0
100
AcDbEntity
  8
_U+30EC_U+30A4_U+30E4_U+30FC 1
 62
   179
420
  2234388
370
    25
  0
POLYLINE
  5
F4
330
1F
100
AcDbEntity
  8
_U+30EC_U+30A4_U+30E4_U+30FC 1
 62
   179
420
  2234388
370
    25
100
AcDb2dPolyline
 66
     1
 10
0.0
 20
0.0
 30
0.0
  0
VERTEX
  5
F5
330
F4
100
AcDbEntity
  8
_U+30EC_U+30A4_U+30E4_U+30FC 1
 62
   179
420
  2234388
370
    25
100
AcDbVertex
100
AcDb2dVertex
 10
84.26979164559923
 20
-132.47941496688
 30
0.0
  0
VERTEX
  5
F6
330
F4
100
AcDbEntity
  8
_U+30EC_U+30A4_U+30E4_U+30FC 1
 62
   179
420
  2234388
370
    25
100
AcDbVertex
100
AcDb2dVertex
 10
84.77020478177634
 20
-132.878724133447
 30
0.0
  0
SEQEND
  5
F7
330
F4
100
AcDbEntity
  8
_U+30EC_U+30A4_U+30E4_U+30FC 1
 62
   179
420
  2234388
370
    25
  0
POLYLINE
  5
F8
330
1F
100
AcDbEntity
  8
_U+30EC_U+30A4_U+30E4_U+30FC 1
 62
   179
420
  2234388
370
    25
100
AcDb2dPolyline
 66
     1
 10
0.0
 20
0.0
 30
0.0
  0
VERTEX
  5
F9
330
F8
100
AcDbEntity
  8
_U+30EC_U+30A4_U+30E4_U+30FC 1
 62
   179
420
  2234388
370
    25
100
AcDbVertex
100
AcDb2dVertex
 10
84.77020478177634
 20
-132.878724133447
 30
0.0
  0
VERTEX
  5
FA
330
F8
100
AcDbEntity
  8
_U+30EC_U+30A4_U+30E4_U+30FC 1
 62
   179
420
  2234388
370
    25
100
AcDbVertex
100
AcDb2dVertex
 10
85.27005560235742
 20
-132.4783919113249
 30
0.0
  0
SEQEND
  5
FB
330
F8
100
AcDbEntity
  8
_U+30EC_U+30A4_U+30E4_U+30FC 1
 62
   179
420
  2234388
370
    25
  0
POLYLINE
  5
FC
330
1F
100
AcDbEntity
  8
_U+30EC_U+30A4_U+30E4_U+30FC 1
 62
   179
420
  2234388
370
    25
100
AcDb2dPolyline
 66
     1
 10
0.0
 20
0.0
 30
0.0
  0
VERTEX
  5
FD
330
FC
100
AcDbEntity
  8
_U+30EC_U+30A4_U+30E4_U+30FC 1
 62
   179
420
  2234388
370
    25
100
AcDbVertex
100
AcDb2dVertex
 10
85.27005560235742
 20
-132.4783919113249
 30
0.0
  0
VERTEX
  5
FE
330
FC
100
AcDbEntity
  8
_U+30EC_U+30A4_U+30E4_U+30FC 1
 62
   179
420
  2234388
370
    25
100
AcDbVertex
100
AcDb2dVertex
 10
85.77047086736854
 20
-132.8776658001137
 30
0.0
  0
SEQEND
  5
FF
330
FC
100
AcDbEntity
  8
_U+30EC_U+30A4_U+30E4_U+30FC 1
 62
   179
420
  2234388
370
    25
  0
POLYLINE
  5
100
330
1F
100
AcDbEntity
  8
_U+30EC_U+30A4_U+30E4_U+30FC 1
 62
   179
420
  2234388
370
    25
100
AcDb2dPolyline
 66
     1
 10
0.0
 20
0.0
 30
0.0
  0
VERTEX
  5
101
330
100
100
AcDbEntity
  8
_U+30EC_U+30A4_U+30E4_U+30FC 1
 62
   179
420
  2234388
370
    25
100
AcDbVertex
100
AcDb2dVertex
 10
85.77047086736854
 20
-132.8776658001137
 30
0.0
  0
VERTEX
  5
102
330
100
100
AcDbEntity
  8
_U+30EC_U+30A4_U+30E4_U+30FC 1
 62
   179
420
  2234388
370
    25
100
AcDbVertex
100
AcDb2dVertex
 10
86.26982779907333
 20
-132.4773688557698
 30
0.0
  0
SEQEND
  5
103
330
100
100
AcDbEntity
  8
_U+30EC_U+30A4_U+30E4_U+30FC 1
 62
   179
420
  2234388
370
    25
  0
POLYLINE
  5
104
330
1F
100
AcDbEntity
  8
_U+30EC_U+30A4_U+30E4_U+30FC 1
 62
   179
420
  2234388
370
    25
100
AcDb2dPolyline
 66
     1
 10
0.0
 20
0.0
 30
0.0
  0
VERTEX
  5
105
330
104
100
AcDbEntity
  8
_U+30EC_U+30A4_U+30E4_U+30FC 1
 62
   179
420
  2234388
370
    25
100
AcDbVertex
100
AcDb2dVertex
 10
86.26982779907333
 20
-132.4773688557698
 30
0.0
  0
VERTEX
  5
106
330
104
100
AcDbEntity
  8
_U+30EC_U+30A4_U+30E4_U+30FC 1
 62
   179
420
  2234388
370
    25
100
AcDbVertex
100
AcDb2dVertex
 10
86.77024306408445
 20
-132.8766427445586
 30
0.0
  0
SEQEND
  5
107
330
104
100
AcDbEntity
  8
_U+30EC_U+30A4_U+30E4_U+30FC 1
 62
   179
420
  2234388
370
    25
  0
POLYLINE
  5
108
330
1F
100
AcDbEntity
  8
_U+30EC_U+30A4_U+30E4_U+30FC 1
 62
   179
420
  2234388
370
    25
100
AcDb2dPolyline
 66
     1
 10
0.0
 20
0.0
 30
0.0
  0
VERTEX
  5
109
330
108
100
AcDbEntity
  8
_U+30EC_U+30A4_U+30E4_U+30FC 1
 62
   179
420
  2234388
370
    25
100
AcDbVertex
100
AcDb2dVertex
 10
86.77024306408445
 20
-132.8766427445586
 30
0.0
  0
VERTEX
  5
10A
330
108
100
AcDbEntity
  8
_U+30EC_U+30A4_U+30E4_U+30FC 1
 62
   179
420
  2234388
370
    25
100
AcDbVertex
100
AcDb2dVertex
 10
87.26959999578924
 20
-132.4763105224365
 30
0.0
  0
SEQEND
  5
10B
330
108
100
AcDbEntity
  8
_U+30EC_U+30A4_U+30E4_U+30FC 1
 62
   179
420
  2234388
370
    25
  0
POLYLINE
  5
10C
330
1F
100
AcDbEntity
  8
_U+30EC_U+30A4_U+30E4_U+30FC 1
 62
   179
420
  2234388
370
    25
100
AcDb2dPolyline
 66
     1
 10
0.0
 20
0.0
 30
0.0
  0
VERTEX
  5
10D
330
10C
100
AcDbEntity
  8
_U+30EC_U+30A4_U+30E4_U+30FC 1
 62
   179
420
  2234388
370
    25
100
AcDbVertex
100
AcDb2dVertex
 10
87.26959999578924
 20
-132.4763105224365
 30
0.0
  0
VERTEX
  5
10E
330
10C
100
AcDbEntity
  8
_U+30EC_U+30A4_U+30E4_U+30FC 1
 62
   179
420
  2234388
370
    25
100
AcDbVertex
100
AcDb2dVertex
 10
87.76983887191598
 20
-132.8756196890035
 30
0.0
  0
SEQEND
  5
10F
330
10C
100
AcDbEntity
  8
_U+30EC_U+30A4_U+30E4_U+30FC 1
 62
   179
420
  2234388
370
    25
  0
POLYLINE
  5
110
330
1F
100
AcDbEntity
  8
_U+30EC_U+30A4_U+30E4_U+30FC 1
 62
   179
420
  2234388
370
    25
100
AcDb2dPolyline
 66
     1
 10
0.0
 20
0.0
 30
0.0
  0
VERTEX
  5
111
330
110
100
AcDbEntity
  8
_U+30EC_U+30A4_U+30E4_U+30FC 1
 62
   179
420
  2234388
370
    25
100
AcDbVertex
100
AcDb2dVertex
 10
87.76983887191598
 20
-132.8756196890035
 30
0.0
  0
VERTEX
  5
112
330
110
100
AcDbEntity
  8
_U+30EC_U+30A4_U+30E4_U+30FC 1
 62
   179
420
  2234388
370
    25
100
AcDbVertex
100
AcDb2dVertex
 10
88.27007774804271
 20
-132.4752874668814
 30
0.0
  0
SEQEND
  5
113
330
110
100
AcDbEntity
  8
_U+30EC_U+30A4_U+30E4_U+30FC 1
 62
   179
420
  2234388
370
    25
  0
POLYLINE
  5
114
330
1F
100
AcDbEntity
  8
_U+30EC_U+30A4_U+30E4_U+30FC 1
 62
   179
420
  2234388
370
    25
100
AcDb2dPolyline
 66
     1
 10
0.0
 20
0.0
 30
0.0
  0
VERTEX
  5
115
330
114
100
AcDbEntity
  8
_U+30EC_U+30A4_U+30E4_U+30FC 1
 62
   179
420
  2234388
370
    25
100
AcDbVertex
100
AcDb2dVertex
 10
88.27007774804271
 20
-132.4752874668814
 30
0.0
  0
VERTEX
  5
116
330
114
100
AcDbEntity
  8
_U+30EC_U+30A4_U+30E4_U+30FC 1
 62
   179
420
  2234388
370
    25
100
AcDbVertex
100
AcDb2dVertex
 10
88.77045773527695
 20
-132.8752669112257
 30
0.0
  0
SEQEND
  5
117
330
114
100
AcDbEntity
  8
_U+30EC_U+30A4_U+30E4_U+30FC 1
 62
   179
420
  2234388
370
    25
  0
POLYLINE
  5
118
330
1F
100
AcDbEntity
  8
_U+30EC_U+30A4_U+30E4_U+30FC 1
 62
     7
420
 16777215
370
    25
100
AcDb2dPolyline
 66
     1
 10
0.0
 20
0.0
 30
0.0
  0
VERTEX
  5
119
330
118
100
AcDbEntity
  8
_U+30EC_U+30A4_U+30E4_U+30FC 1
 62
     7
420
 16777215
370
    25
100
AcDbVertex
100
AcDb2dVertex
 10
95.06224924142664
 20
-121.6790527473582
 30
0.0
  0
VERTEX
  5
11A
330
118
100
AcDbEntity
  8
_U+30EC_U+30A4_U+30E4_U+30FC 1
 62
     7
420
 16777215
370
    25
100
AcDbVertex
100
AcDb2dVertex
 10
93.06235207022604
 20
-121.6786999695804
 30
0.0
  0
VERTEX
  5
11B
330
118
100
AcDbEntity
  8
_U+30EC_U+30A4_U+30E4_U+30FC 1
 62
     7
420
 16777215
370
    25
100
AcDbVertex
100
AcDb2dVertex
 10
93.06235207022604
 20
-127.6755694125255
 30
0.0
  0
VERTEX
  5
11C
330
118
100
AcDbEntity
  8
_U+30EC_U+30A4_U+30E4_U+30FC 1
 62
     7
420
 16777215
370
    25
100
AcDbVertex
100
AcDb2dVertex
 10
90.06236520231764
 20
-127.6755694125255
 30
0.0
  0
VERTEX
  5
11D
330
118
100
AcDbEntity
  8
_U+30EC_U+30A4_U+30E4_U+30FC 1
 62
     7
420
 16777215
370
    25
100
AcDbVertex
100
AcDb2dVertex
 10
90.06236520231764
 20
-121.6786999695804
 30
0.0
  0
VERTEX
  5
11E
330
118
100
AcDbEntity
  8
_U+30EC_U+30A4_U+30E4_U+30FC 1
 62
     7
420
 16777215
370
    25
100
AcDbVertex
100
AcDb2dVertex
 10
88.06250553354
 20
-121.6790527473582
 30
0.0
  0
SEQEND
  5
11F
330
118
100
AcDbEntity
  8
_U+30EC_U+30A4_U+30E4_U+30FC 1
 62
     7
420
 16777215
370
    25
  0
POLYLINE
  5
120
330
1F
100
AcDbEntity
  8
_U+30EC_U+30A4_U+30E4_U+30FC 1
 62
     7
420
 16777215
370
    25
100
AcDb2dPolyline
 66
     1
 10
0.0
 20
0.0
 30
0.0
  0
VERTEX
  5
121
330
120
100
AcDbEntity
  8
_U+30EC_U+30A4_U+30E4_U+30FC 1
 62
     7
420
 16777215
370
    25
100
AcDbVertex
100
AcDb2dVertex
 10
102.3630909996111
 20
-132.979301077866
 30
0.0
  0
VERTEX
  5
122
330
120
100
AcDbEntity
  8
_U+30EC_U+30A4_U+30E4_U+30FC 1
 62
     7
420
 16777215
370
    25
100
AcDbVertex
100
AcDb2dVertex
 10
96.37172504135246
 20
-132.979301077866
 30
0.0
  0
VERTEX
  5
123
330
120
100
AcDbEntity
  8
_U+30EC_U+30A4_U+30E4_U+30FC 1
 62
     7
420
 16777215
370
    25
100
AcDbVertex
100
AcDb2dVertex
 10
96.07200504899896
 20
-132.6785580223859
 30
0.0
  0
VERTEX
  5
124
330
120
100
AcDbEntity
  8
_U+30EC_U+30A4_U+30E4_U+30FC 1
 62
     7
420
 16777215
370
    25
100
AcDbVertex
100
AcDb2dVertex
 10
94.06212426694195
 20
-132.6785580223859
 30
0.0
  0
VERTEX
  5
125
330
120
100
AcDbEntity
  8
_U+30EC_U+30A4_U+30E4_U+30FC 1
 62
     7
420
 16777215
370
    25
100
AcDbVertex
100
AcDb2dVertex
 10
94.06212426694195
 20
-122.6788249693304
 30
0.0
  0
VERTEX
  5
126
330
120
100
AcDbEntity
  8
_U+30EC_U+30A4_U+30E4_U+30FC 1
 62
     7
420
 16777215
370
    25
100
AcDbVertex
100
AcDb2dVertex
 10
96.06202143814255
 20
-122.6788249693304
 30
0.0
  0
SEQEND
  5
127
330
120
100
AcDbEntity
  8
_U+30EC_U+30A4_U+30E4_U+30FC 1
 62
     7
420
 16777215
370
    25
  0
POLYLINE
  5
128
330
1F
100
AcDbEntity
  8
_U+30EC_U+30A4_U+30E4_U+30FC 1
 62
   179
420
  2234388
370
    25
100
AcDb2dPolyline
 66
     1
 10
0.0
 20
0.0
 30
0.0
  0
VERTEX
  5
129
330
128
100
AcDbEntity
  8
_U+30EC_U+30A4_U+30E4_U+30FC 1
 62
   179
420
  2234388
370
    25
100
AcDbVertex
100
AcDb2dVertex
 10
103.0631432039735
 20
-133.6786477443581
 30
0.0
  0
VERTEX
  5
12A
330
128
100
AcDbEntity
  8
_U+30EC_U+30A4_U+30E4_U+30FC 1
 62
   179
420
  2234388
370
    25
100
AcDbVertex
100
AcDb2dVertex
 10
93.06235207022604
 20
-133.6786477443581
 30
0.0
  0
VERTEX
  5
12B
330
128
100
AcDbEntity
  8
_U+30EC_U+30A4_U+30E4_U+30FC 1
 62
   179
420
  2234388
370
    25
100
AcDbVertex
100
AcDb2dVertex
 10
93.06235207022604
 20
-128.6753416344978
 30
0.0
  0
VERTEX
  5
12C
330
128
100
AcDbEntity
  8
_U+30EC_U+30A4_U+30E4_U+30FC 1
 62
   179
420
  2234388
370
    25
100
AcDbVertex
100
AcDb2dVertex
 10
90.06236520231764
 20
-128.6753416344978
 30
0.0
  0
VERTEX
  5
12D
330
128
100
AcDbEntity
  8
_U+30EC_U+30A4_U+30E4_U+30FC 1
 62
   179
420
  2234388
370
    25
100
AcDbVertex
100
AcDb2dVertex
 10
90.06236520231764
 20
-133.6786477443581
 30
0.0
  0
VERTEX
  5
12E
330
128
100
AcDbEntity
  8
_U+30EC_U+30A4_U+30E4_U+30FC 1
 62
   179
420
  2234388
370
    25
100
AcDbVertex
100
AcDb2dVertex
 10
75.06243086277563
 20
-133.6786477443581
 30
0.0
  0
VERTEX
  5
12F
330
128
100
AcDbEntity
  8
_U+30EC_U+30A4_U+30E4_U+30FC 1
 62
   179
420
  2234388
370
    25
100
AcDbVertex
100
AcDb2dVertex
 10
75.06243086277563
 20
-132.4863294113226
 30
0.0
  0
VERTEX
  5
130
330
128
100
AcDbEntity
  8
_U+30EC_U+30A4_U+30E4_U+30FC 1
 62
   179
420
  2234388
370
    25
100
AcDbVertex
100
AcDb2dVertex
 10
76.26991860974782
 20
-132.4863294113226
 30
0.0
  0
VERTEX
  5
131
330
128
100
AcDbEntity
  8
_U+30EC_U+30A4_U+30E4_U+30FC 1
 62
   179
420
  2234388
370
    25
100
AcDbVertex
100
AcDb2dVertex
 10
76.77033387475895
 20
-132.8856033001121
 30
0.0
  0
SEQEND
  5
132
330
128
100
AcDbEntity
  8
_U+30EC_U+30A4_U+30E4_U+30FC 1
 62
   179
420
  2234388
370
    25
  0
POLYLINE
  5
133
330
1F
100
AcDbEntity
  8
_U+30EC_U+30A4_U+30E4_U+30FC 1
 62
   179
420
  2234388
370
    25
100
AcDb2dPolyline
 66
     1
 10
0.0
 20
0.0
 30
0.0
  0
VERTEX
  5
134
330
133
100
AcDbEntity
  8
_U+30EC_U+30A4_U+30E4_U+30FC 1
 62
   179
420
  2234388
370
    25
100
AcDbVertex
100
AcDb2dVertex
 10
76.77033387475895
 20
-132.8856033001121
 30
0.0
  0
VERTEX
  5
135
330
133
100
AcDbEntity
  8
_U+30EC_U+30A4_U+30E4_U+30FC 1
 62
   179
420
  2234388
370
    25
100
AcDbVertex
100
AcDb2dVertex
 10
77.2702199731169
 20
-132.48527107799
 30
0.0
  0
SEQEND
  5
136
330
133
100
AcDbEntity
  8
_U+30EC_U+30A4_U+30E4_U+30FC 1
 62
   179
420
  2234388
370
    25
  0
POLYLINE
  5
137
330
1F
100
AcDbEntity
  8
_U+30EC_U+30A4_U+30E4_U+30FC 1
 62
   179
420
  2234388
370
    25
100
AcDb2dPolyline
 66
     1
 10
0.0
 20
0.0
 30
0.0
  0
VERTEX
  5
138
330
137
100
AcDbEntity
  8
_U+30EC_U+30A4_U+30E4_U+30FC 1
 62
   179
420
  2234388
370
    25
100
AcDbVertex
100
AcDb2dVertex
 10
77.2702199731169
 20
-132.48527107799
 30
0.0
  0
VERTEX
  5
139
330
137
100
AcDbEntity
  8
_U+30EC_U+30A4_U+30E4_U+30FC 1
 62
   179
420
  2234388
370
    25
100
AcDbVertex
100
AcDb2dVertex
 10
77.77059996035115
 20
-132.8845802445569
 30
0.0
  0
SEQEND
  5
13A
330
137
100
AcDbEntity
  8
_U+30EC_U+30A4_U+30E4_U+30FC 1
 62
   179
420
  2234388
370
    25
  0
POLYLINE
  5
13B
330
1F
100
AcDbEntity
  8
_U+30EC_U+30A4_U+30E4_U+30FC 1
 62
   179
420
  2234388
370
    25
100
AcDb2dPolyline
 66
     1
 10
0.0
 20
0.0
 30
0.0
  0
VERTEX
  5
13C
330
13B
100
AcDbEntity
  8
_U+30EC_U+30A4_U+30E4_U+30FC 1
 62
   179
420
  2234388
370
    25
100
AcDbVertex
100
AcDb2dVertex
 10
77.77059996035115
 20
-132.8845802445569
 30
0.0
  0
VERTEX
  5
13D
330
13B
100
AcDbEntity
  8
_U+30EC_U+30A4_U+30E4_U+30FC 1
 62
   179
420
  2234388
370
    25
100
AcDbVertex
100
AcDb2dVertex
 10
78.2699921698328
 20
-132.4842480224342
 30
0.0
  0
SEQEND
  5
13E
330
13B
100
AcDbEntity
  8
_U+30EC_U+30A4_U+30E4_U+30FC 1
 62
   179
420
  2234388
370
    25
  0
POLYLINE
  5
13F
330
1F
100
AcDbEntity
  8
_U+30EC_U+30A4_U+30E4_U+30FC 1
 62
   179
420
  2234388
370
    25
100
AcDb2dPolyline
 66
     1
 10
0.0
 20
0.0
 30
0.0
  0
VERTEX
  5
140
330
13F
100
AcDbEntity
  8
_U+30EC_U+30A4_U+30E4_U+30FC 1
 62
   179
420
  2234388
370
    25
100
AcDbVertex
100
AcDb2dVertex
 10
78.2699921698328
 20
-132.4842480224342
 30
0.0
  0
VERTEX
  5
141
330
13F
100
AcDbEntity
  8
_U+30EC_U+30A4_U+30E4_U+30FC 1
 62
   179
420
  2234388
370
    25
100
AcDbVertex
100
AcDb2dVertex
 10
78.77037215706706
 20
-132.8835219112236
 30
0.0
  0
SEQEND
  5
142
330
13F
100
AcDbEntity
  8
_U+30EC_U+30A4_U+30E4_U+30FC 1
 62
   179
420
  2234388
370
    25
  0
POLYLINE
  5
143
330
1F
100
AcDbEntity
  8
_U+30EC_U+30A4_U+30E4_U+30FC 1
 62
   179
420
  2234388
370
    25
100
AcDb2dPolyline
 66
     1
 10
0.0
 20
0.0
 30
0.0
  0
VERTEX
  5
144
330
143
100
AcDbEntity
  8
_U+30EC_U+30A4_U+30E4_U+30FC 1
 62
   179
420
  2234388
370
    25
100
AcDbVertex
100
AcDb2dVertex
 10
78.77037215706706
 20
-132.8835219112236
 30
0.0
  0
VERTEX
  5
145
330
143
100
AcDbEntity
  8
_U+30EC_U+30A4_U+30E4_U+30FC 1
 62
   179
420
  2234388
370
    25
100
AcDbVertex
100
AcDb2dVertex
 10
79.26976436654871
 20
-132.4832249668791
 30
0.0
  0
SEQEND
  5
146
330
143
100
AcDbEntity
  8
_U+30EC_U+30A4_U+30E4_U+30FC 1
 62
   179
420
  2234388
370
    25
  0
POLYLINE
  5
147
330
1F
100
AcDbEntity
  8
_U+30EC_U+30A4_U+30E4_U+30FC 1
 62
   179
420
  2234388
370
    25
100
AcDb2dPolyline
 66
     1
 10
0.0
 20
0.0
 30
0.0
  0
VERTEX
  5
148
330
147
100
AcDbEntity
  8
_U+30EC_U+30A4_U+30E4_U+30FC 1
 62
   179
420
  2234388
370
    25
100
AcDbVertex
100
AcDb2dVertex
 10
79.26976436654871
 20
-132.4832249668791
 30
0.0
  0
VERTEX
  5
149
330
147
100
AcDbEntity
  8
_U+30EC_U+30A4_U+30E4_U+30FC 1
 62
   179
420
  2234388
370
    25
100
AcDbVertex
100
AcDb2dVertex
 10
79.76996796489857
 20
-132.8824988556685
 30
0.0
  0
SEQEND
  5
14A
330
147
100
AcDbEntity
  8
_U+30EC_U+30A4_U+30E4_U+30FC 1
 62
   179
420
  2234388
370
    25
  0
POLYLINE
  5
14B
330
1F
100
AcDbEntity
  8
_U+30EC_U+30A4_U+30E4_U+30FC 1
 62
   179
420
  2234388
370
    25
100
AcDb2dPolyline
 66
     1
 10
0.0
 20
0.0
 30
0.0
  0
VERTEX
  5
14C
330
14B
100
AcDbEntity
  8
_U+30EC_U+30A4_U+30E4_U+30FC 1
 62
   179
420
  2234388
370
    25
100
AcDbVertex
100
AcDb2dVertex
 10
79.76996796489857
 20
-132.8824988556685
 30
0.0
  0
VERTEX
  5
14D
330
14B
100
AcDbEntity
  8
_U+30EC_U+30A4_U+30E4_U+30FC 1
 62
   179
420
  2234388
370
    25
100
AcDbVertex
100
AcDb2dVertex
 10
80.2702068410253
 20
-132.4821666335464
 30
0.0
  0
SEQEND
  5
14E
330
14B
100
AcDbEntity
  8
_U+30EC_U+30A4_U+30E4_U+30FC 1
 62
   179
420
  2234388
370
    25
  0
POLYLINE
  5
14F
330
1F
100
AcDbEntity
  8
_U+30EC_U+30A4_U+30E4_U+30FC 1
 62
   179
420
  2234388
370
    25
100
AcDb2dPolyline
 66
     1
 10
0.0
 20
0.0
 30
0.0
  0
VERTEX
  5
150
330
14F
100
AcDbEntity
  8
_U+30EC_U+30A4_U+30E4_U+30FC 1
 62
   179
420
  2234388
370
    25
100
AcDbVertex
100
AcDb2dVertex
 10
80.2702068410253
 20
-132.4821666335464
 30
0.0
  0
VERTEX
  5
151
330
14F
100
AcDbEntity
  8
_U+30EC_U+30A4_U+30E4_U+30FC 1
 62
   179
420
  2234388
370
    25
100
AcDbVertex
100
AcDb2dVertex
 10
80.77062210603643
 20
-132.8821460778908
 30
0.0
  0
SEQEND
  5
152
330
14F
100
AcDbEntity
  8
_U+30EC_U+30A4_U+30E4_U+30FC 1
 62
   179
420
  2234388
370
    25
  0
POLYLINE
  5
153
330
1F
100
AcDbEntity
  8
_U+30EC_U+30A4_U+30E4_U+30FC 1
 62
   179
420
  2234388
370
    25
100
AcDb2dPolyline
 66
     1
 10
0.0
 20
0.0
 30
0.0
  0
VERTEX
  5
154
330
153
100
AcDbEntity
  8
_U+30EC_U+30A4_U+30E4_U+30FC 1
 62
   179
420
  2234388
370
    25
100
AcDbVertex
100
AcDb2dVertex
 10
88.77045773527695
 20
-132.8752669112257
 30
0.0
  0
VERTEX
  5
155
330
153
100
AcDbEntity
  8
_U+30EC_U+30A4_U+30E4_U+30FC 1
 62
   179
420
  2234388
370
    25
100
AcDbVertex
100
AcDb2dVertex
 10
89.28533688880795
 20
-132.1938413558405
 30
0.0
  0
SEQEND
  5
156
330
153
100
AcDbEntity
  8
_U+30EC_U+30A4_U+30E4_U+30FC 1
 62
   179
420
  2234388
370
    25
  0
POLYLINE
  5
157
330
1F
100
AcDbEntity
  8
_U+30EC_U+30A4_U+30E4_U+30FC 1
 62
   179
420
  2234388
370
    25
100
AcDb2dPolyline
 66
     1
 10
0.0
 20
0.0
 30
0.0
  0
VERTEX
  5
158
330
157
100
AcDbEntity
  8
_U+30EC_U+30A4_U+30E4_U+30FC 1
 62
   179
420
  2234388
370
    25
100
AcDbVertex
100
AcDb2dVertex
 10
89.28290272220339
 20
-132.1941588558401
 30
0.0
  0
VERTEX
  5
159
330
157
100
AcDbEntity
  8
_U+30EC_U+30A4_U+30E4_U+30FC 1
 62
   179
420
  2234388
370
    25
100
AcDbVertex
100
AcDb2dVertex
 10
88.88295856574014
 20
-131.6939552448546
 30
0.0
  0
SEQEND
  5
15A
330
157
100
AcDbEntity
  8
_U+30EC_U+30A4_U+30E4_U+30FC 1
 62
   179
420
  2234388
370
    25
  0
POLYLINE
  5
15B
330
1F
100
AcDbEntity
  8
_U+30EC_U+30A4_U+30E4_U+30FC 1
 62
   179
420
  2234388
370
    25
100
AcDb2dPolyline
 66
     1
 10
0.0
 20
0.0
 30
0.0
  0
VERTEX
  5
15C
330
15B
100
AcDbEntity
  8
_U+30EC_U+30A4_U+30E4_U+30FC 1
 62
   179
420
  2234388
370
    25
100
AcDbVertex
100
AcDb2dVertex
 10
88.88295856574014
 20
-131.6939552448546
 30
0.0
  0
VERTEX
  5
15D
330
15B
100
AcDbEntity
  8
_U+30EC_U+30A4_U+30E4_U+30FC 1
 62
   179
420
  2234388
370
    25
100
AcDbVertex
100
AcDb2dVertex
 10
89.28223244444271
 20
-131.1937163560902
 30
0.0
  0
SEQEND
  5
15E
330
15B
100
AcDbEntity
  8
_U+30EC_U+30A4_U+30E4_U+30FC 1
 62
   179
420
  2234388
370
    25
  0
POLYLINE
  5
15F
330
1F
100
AcDbEntity
  8
_U+30EC_U+30A4_U+30E4_U+30FC 1
 62
   179
420
  2234388
370
    25
100
AcDb2dPolyline
 66
     1
 10
0.0
 20
0.0
 30
0.0
  0
VERTEX
  5
160
330
15F
100
AcDbEntity
  8
_U+30EC_U+30A4_U+30E4_U+30FC 1
 62
   179
420
  2234388
370
    25
100
AcDbVertex
100
AcDb2dVertex
 10
89.28223244444271
 20
-131.1937163560902
 30
0.0
  0
VERTEX
  5
161
330
15F
100
AcDbEntity
  8
_U+30EC_U+30A4_U+30E4_U+30FC 1
 62
   179
420
  2234388
370
    25
100
AcDbVertex
100
AcDb2dVertex
 10
88.88190023243381
 20
-130.694183022882
 30
0.0
  0
SEQEND
  5
162
330
15F
100
AcDbEntity
  8
_U+30EC_U+30A4_U+30E4_U+30FC 1
 62
   179
420
  2234388
370
    25
  0
POLYLINE
  5
163
330
1F
100
AcDbEntity
  8
_U+30EC_U+30A4_U+30E4_U+30FC 1
 62
   179
420
  2234388
370
    25
100
AcDb2dPolyline
 66
     1
 10
0.0
 20
0.0
 30
0.0
  0
VERTEX
  5
164
330
163
100
AcDbEntity
  8
_U+30EC_U+30A4_U+30E4_U+30FC 1
 62
   179
420
  2234388
370
    25
100
AcDbVertex
100
AcDb2dVertex
 10
88.88190023243381
 20
-130.694183022882
 30
0.0
  0
VERTEX
  5
165
330
163
100
AcDbEntity
  8
_U+30EC_U+30A4_U+30E4_U+30FC 1
 62
   179
420
  2234388
370
    25
100
AcDbVertex
100
AcDb2dVertex
 10
89.28120938891325
 20
-130.1939441341183
 30
0.0
  0
SEQEND
  5
166
330
163
100
AcDbEntity
  8
_U+30EC_U+30A4_U+30E4_U+30FC 1
 62
   179
420
  2234388
370
    25
  0
POLYLINE
  5
167
330
1F
100
AcDbEntity
  8
_U+30EC_U+30A4_U+30E4_U+30FC 1
 62
   179
420
  2234388
370
    25
100
AcDb2dPolyline
 66
     1
 10
0.0
 20
0.0
 30
0.0
  0
VERTEX
  5
168
330
167
100
AcDbEntity
  8
_U+30EC_U+30A4_U+30E4_U+30FC 1
 62
   179
420
  2234388
370
    25
100
AcDbVertex
100
AcDb2dVertex
 10
89.28120938891325
 20
-130.1939441341183
 30
0.0
  0
VERTEX
  5
169
330
167
100
AcDbEntity
  8
_U+30EC_U+30A4_U+30E4_U+30FC 1
 62
   179
420
  2234388
370
    25
100
AcDbVertex
100
AcDb2dVertex
 10
88.88087717690436
 20
-129.6937052453546
 30
0.0
  0
SEQEND
  5
16A
330
167
100
AcDbEntity
  8
_U+30EC_U+30A4_U+30E4_U+30FC 1
 62
   179
420
  2234388
370
    25
  0
POLYLINE
  5
16B
330
1F
100
AcDbEntity
  8
_U+30EC_U+30A4_U+30E4_U+30FC 1
 62
   179
420
  2234388
370
    25
100
AcDb2dPolyline
 66
     1
 10
0.0
 20
0.0
 30
0.0
  0
VERTEX
  5
16C
330
16B
100
AcDbEntity
  8
_U+30EC_U+30A4_U+30E4_U+30FC 1
 62
   179
420
  2234388
370
    25
100
AcDbVertex
100
AcDb2dVertex
 10
88.88087717690436
 20
-129.6937052453546
 30
0.0
  0
VERTEX
  5
16D
330
16B
100
AcDbEntity
  8
_U+30EC_U+30A4_U+30E4_U+30FC 1
 62
   179
420
  2234388
370
    25
100
AcDbVertex
100
AcDb2dVertex
 10
89.28015105560692
 20
-129.1935016343684
 30
0.0
  0
SEQEND
  5
16E
330
16B
100
AcDbEntity
  8
_U+30EC_U+30A4_U+30E4_U+30FC 1
 62
   179
420
  2234388
370
    25
  0
POLYLINE
  5
16F
330
1F
100
AcDbEntity
  8
_U+30EC_U+30A4_U+30E4_U+30FC 1
 62
   179
420
  2234388
370
    25
100
AcDb2dPolyline
 66
     1
 10
0.0
 20
0.0
 30
0.0
  0
VERTEX
  5
170
330
16F
100
AcDbEntity
  8
_U+30EC_U+30A4_U+30E4_U+30FC 1
 62
   179
420
  2234388
370
    25
100
AcDbVertex
100
AcDb2dVertex
 10
89.28015105560692
 20
-129.1935016343684
 30
0.0
  0
VERTEX
  5
171
330
16F
100
AcDbEntity
  8
_U+30EC_U+30A4_U+30E4_U+30FC 1
 62
   179
420
  2234388
370
    25
100
AcDbVertex
100
AcDb2dVertex
 10
88.8798541213749
 20
-128.6939683011599
 30
0.0
  0
SEQEND
  5
172
330
16F
100
AcDbEntity
  8
_U+30EC_U+30A4_U+30E4_U+30FC 1
 62
   179
420
  2234388
370
    25
  0
POLYLINE
  5
173
330
1F
100
AcDbEntity
  8
_U+30EC_U+30A4_U+30E4_U+30FC 1
 62
   179
420
  2234388
370
    25
100
AcDb2dPolyline
 66
     1
 10
0.0
 20
0.0
 30
0.0
  0
VERTEX
  5
174
330
173
100
AcDbEntity
  8
_U+30EC_U+30A4_U+30E4_U+30FC 1
 62
   179
420
  2234388
370
    25
100
AcDbVertex
100
AcDb2dVertex
 10
88.8798541213749
 20
-128.6939683011599
 30
0.0
  0
VERTEX
  5
175
330
173
100
AcDbEntity
  8
_U+30EC_U+30A4_U+30E4_U+30FC 1
 62
   179
420
  2234388
370
    25
100
AcDbVertex
100
AcDb2dVertex
 10
89.27983355561503
 20
-128.1937294123959
 30
0.0
  0
SEQEND
  5
176
330
173
100
AcDbEntity
  8
_U+30EC_U+30A4_U+30E4_U+30FC 1
 62
   179
420
  2234388
370
    25
  0
POLYLINE
  5
177
330
1F
100
AcDbEntity
  8
_U+30EC_U+30A4_U+30E4_U+30FC 1
 62
   179
420
  2234388
370
    25
100
AcDb2dPolyline
 66
     1
 10
0.0
 20
0.0
 30
0.0
  0
VERTEX
  5
178
330
177
100
AcDbEntity
  8
_U+30EC_U+30A4_U+30E4_U+30FC 1
 62
   179
420
  2234388
370
    25
100
AcDbVertex
100
AcDb2dVertex
 10
89.27983355561503
 20
-128.1937294123959
 30
0.0
  0
VERTEX
  5
179
330
177
100
AcDbEntity
  8
_U+30EC_U+30A4_U+30E4_U+30FC 1
 62
   179
420
  2234388
370
    25
100
AcDbVertex
100
AcDb2dVertex
 10
88.87950134360612
 20
-127.6941960791877
 30
0.0
  0
SEQEND
  5
17A
330
177
100
AcDbEntity
  8
_U+30EC_U+30A4_U+30E4_U+30FC 1
 62
   179
420
  2234388
370
    25
  0
POLYLINE
  5
17B
330
1F
100
AcDbEntity
  8
_U+30EC_U+30A4_U+30E4_U+30FC 1
 62
   179
420
  2234388
370
    25
100
AcDb2dPolyline
 66
     1
 10
0.0
 20
0.0
 30
0.0
  0
VERTEX
  5
17C
330
17B
100
AcDbEntity
  8
_U+30EC_U+30A4_U+30E4_U+30FC 1
 62
   179
420
  2234388
370
    25
100
AcDbVertex
100
AcDb2dVertex
 10
88.87950134360612
 20
-127.6941960791877
 30
0.0
  0
VERTEX
  5
17D
330
17B
100
AcDbEntity
  8
_U+30EC_U+30A4_U+30E4_U+30FC 1
 62
   179
420
  2234388
370
    25
100
AcDbVertex
100
AcDb2dVertex
 10
89.27877522230868
 20
-127.1939571904237
 30
0.0
  0
SEQEND
  5
17E
330
17B
100
AcDbEntity
  8
_U+30EC_U+30A4_U+30E4_U+30FC 1
 62
   179
420
  2234388
370
    25
  0
POLYLINE
  5
17F
330
1F
100
AcDbEntity
  8
_U+30EC_U+30A4_U+30E4_U+30FC 1
 62
   179
420
  2234388
370
    25
100
AcDb2dPolyline
 66
     1
 10
0.0
 20
0.0
 30
0.0
  0
VERTEX
  5
180
330
17F
100
AcDbEntity
  8
_U+30EC_U+30A4_U+30E4_U+30FC 1
 62
   179
420
  2234388
370
    25
100
AcDbVertex
100
AcDb2dVertex
 10
89.27877522230868
 20
-127.1939571904237
 30
0.0
  0
VERTEX
  5
181
330
17F
100
AcDbEntity
  8
_U+30EC_U+30A4_U+30E4_U+30FC 1
 62
   179
420
  2234388
370
    25
100
AcDbVertex
100
AcDb2dVertex
 10
88.87848053333605
 20
-126.6940710794377
 30
0.0
  0
SEQEND
  5
182
330
17F
100
AcDbEntity
  8
_U+30EC_U+30A4_U+30E4_U+30FC 1
 62
   179
420
  2234388
370
    25
  0
POLYLINE
  5
183
330
1F
100
AcDbEntity
  8
_U+30EC_U+30A4_U+30E4_U+30FC 1
 62
   179
420
  2234388
370
    25
100
AcDb2dPolyline
 66
     1
 10
0.0
 20
0.0
 30
0.0
  0
VERTEX
  5
184
330
183
100
AcDbEntity
  8
_U+30EC_U+30A4_U+30E4_U+30FC 1
 62
   179
420
  2234388
370
    25
100
AcDbVertex
100
AcDb2dVertex
 10
88.87848053333605
 20
-126.6940710794377
 30
0.0
  0
VERTEX
  5
185
330
183
100
AcDbEntity
  8
_U+30EC_U+30A4_U+30E4_U+30FC 1
 62
   179
420
  2234388
370
    25
100
AcDbVertex
100
AcDb2dVertex
 10
89.27775216677924
 20
-126.1935146906738
 30
0.0
  0
SEQEND
  5
186
330
183
100
AcDbEntity
  8
_U+30EC_U+30A4_U+30E4_U+30FC 1
 62
   179
420
  2234388
370
    25
  0
POLYLINE
  5
187
330
1F
100
AcDbEntity
  8
_U+30EC_U+30A4_U+30E4_U+30FC 1
 62
   179
420
  2234388
370
    25
100
AcDb2dPolyline
 66
     1
 10
0.0
 20
0.0
 30
0.0
  0
VERTEX
  5
188
330
187
100
AcDbEntity
  8
_U+30EC_U+30A4_U+30E4_U+30FC 1
 62
   179
420
  2234388
370
    25
100
AcDbVertex
100
AcDb2dVertex
 10
89.27775216677924
 20
-126.1935146906738
 30
0.0
  0
VERTEX
  5
189
330
187
100
AcDbEntity
  8
_U+30EC_U+30A4_U+30E4_U+30FC 1
 62
   179
420
  2234388
370
    25
100
AcDbVertex
100
AcDb2dVertex
 10
88.87742220000277
 20
-125.6942988574655
 30
0.0
  0
SEQEND
  5
18A
330
187
100
AcDbEntity
  8
_U+30EC_U+30A4_U+30E4_U+30FC 1
 62
   179
420
  2234388
370
    25
  0
POLYLINE
  5
18B
330
1F
100
AcDbEntity
  8
_U+30EC_U+30A4_U+30E4_U+30FC 1
 62
   179
420
  2234388
370
    25
100
AcDb2dPolyline
 66
     1
 10
0.0
 20
0.0
 30
0.0
  0
VERTEX
  5
18C
330
18B
100
AcDbEntity
  8
_U+30EC_U+30A4_U+30E4_U+30FC 1
 62
   179
420
  2234388
370
    25
100
AcDbVertex
100
AcDb2dVertex
 10
88.87742220000277
 20
-125.6942988574655
 30
0.0
  0
VERTEX
  5
18D
330
18B
100
AcDbEntity
  8
_U+30EC_U+30A4_U+30E4_U+30FC 1
 62
   179
420
  2234388
370
    25
100
AcDbVertex
100
AcDb2dVertex
 10
89.27672911124978
 20
-125.1937424687015
 30
0.0
  0
SEQEND
  5
18E
330
18B
100
AcDbEntity
  8
_U+30EC_U+30A4_U+30E4_U+30FC 1
 62
   179
420
  2234388
370
    25
  0
POLYLINE
  5
18F
330
1F
100
AcDbEntity
  8
_U+30EC_U+30A4_U+30E4_U+30FC 1
 62
   179
420
  2234388
370
    25
100
AcDb2dPolyline
 66
     1
 10
0.0
 20
0.0
 30
0.0
  0
VERTEX
  5
190
330
18F
100
AcDbEntity
  8
_U+30EC_U+30A4_U+30E4_U+30FC 1
 62
   179
420
  2234388
370
    25
100
AcDbVertex
100
AcDb2dVertex
 10
89.27672911124978
 20
-125.1937424687015
 30
0.0
  0
VERTEX
  5
191
330
18F
100
AcDbEntity
  8
_U+30EC_U+30A4_U+30E4_U+30FC 1
 62
   179
420
  2234388
370
    25
100
AcDbVertex
100
AcDb2dVertex
 10
88.87639689924089
 20
-124.6945266354929
 30
0.0
  0
SEQEND
  5
192
330
18F
100
AcDbEntity
  8
_U+30EC_U+30A4_U+30E4_U+30FC 1
 62
   179
420
  2234388
370
    25
  0
POLYLINE
  5
193
330
1F
100
AcDbEntity
  8
_U+30EC_U+30A4_U+30E4_U+30FC 1
 62
   179
420
  2234388
370
    25
100
AcDb2dPolyline
 66
     1
 10
0.0
 20
0.0
 30
0.0
  0
VERTEX
  5
194
330
193
100
AcDbEntity
  8
_U+30EC_U+30A4_U+30E4_U+30FC 1
 62
   179
420
  2234388
370
    25
100
AcDbVertex
100
AcDb2dVertex
 10
88.87639689924089
 20
-124.6945266354929
 30
0.0
  0
VERTEX
  5
195
330
193
100
AcDbEntity
  8
_U+30EC_U+30A4_U+30E4_U+30FC 1
 62
   179
420
  2234388
370
    25
100
AcDbVertex
100
AcDb2dVertex
 10
89.27567077794345
 20
-124.1943230245071
 30
0.0
  0
SEQEND
  5
196
330
193
100
AcDbEntity
  8
_U+30EC_U+30A4_U+30E4_U+30FC 1
 62
   179
420
  2234388
370
    25
  0
POLYLINE
  5
197
330
1F
100
AcDbEntity
  8
_U+30EC_U+30A4_U+30E4_U+30FC 1
 62
   179
420
  2234388
370
    25
100
AcDb2dPolyline
 66
     1
 10
0.0
 20
0.0
 30
0.0
  0
VERTEX
  5
198
330
197
100
AcDbEntity
  8
_U+30EC_U+30A4_U+30E4_U+30FC 1
 62
   179
420
  2234388
370
    25
100
AcDbVertex
100
AcDb2dVertex
 10
89.27567077794345
 20
-124.1943230245071
 30
0.0
  0
VERTEX
  5
199
330
197
100
AcDbEntity
  8
_U+30EC_U+30A4_U+30E4_U+30FC 1
 62
   179
420
  2234388
370
    25
100
AcDbVertex
100
AcDb2dVertex
 10
88.87537384371143
 20
-123.694084135743
 30
0.0
  0
SEQEND
  5
19A
330
197
100
AcDbEntity
  8
_U+30EC_U+30A4_U+30E4_U+30FC 1
 62
   179
420
  2234388
370
    25
  0
POLYLINE
  5
19B
330
1F
100
AcDbEntity
  8
_U+30EC_U+30A4_U+30E4_U+30FC 1
 62
   179
420
  2234388
370
    25
100
AcDb2dPolyline
 66
     1
 10
0.0
 20
0.0
 30
0.0
  0
VERTEX
  5
19C
330
19B
100
AcDbEntity
  8
_U+30EC_U+30A4_U+30E4_U+30FC 1
 62
   179
420
  2234388
370
    25
100
AcDbVertex
100
AcDb2dVertex
 10
88.87537384371143
 20
-123.694084135743
 30
0.0
  0
VERTEX
  5
19D
330
19B
100
AcDbEntity
  8
_U+30EC_U+30A4_U+30E4_U+30FC 1
 62
   179
420
  2234388
370
    25
100
AcDbVertex
100
AcDb2dVertex
 10
89.27535553323683
 20
-123.1935277469794
 30
0.0
  0
SEQEND
  5
19E
330
19B
100
AcDbEntity
  8
_U+30EC_U+30A4_U+30E4_U+30FC 1
 62
   179
420
  2234388
370
    25
  0
POLYLINE
  5
19F
330
1F
100
AcDbEntity
  8
_U+30EC_U+30A4_U+30E4_U+30FC 1
 62
   179
420
  2234388
370
    25
100
AcDb2dPolyline
 66
     1
 10
0.0
 20
0.0
 30
0.0
  0
VERTEX
  5
1A0
330
19F
100
AcDbEntity
  8
_U+30EC_U+30A4_U+30E4_U+30FC 1
 62
   179
420
  2234388
370
    25
100
AcDbVertex
100
AcDb2dVertex
 10
89.27535553323683
 20
-123.1935277469794
 30
0.0
  0
VERTEX
  5
1A1
330
19F
100
AcDbEntity
  8
_U+30EC_U+30A4_U+30E4_U+30FC 1
 62
   179
420
  2234388
370
    25
100
AcDbVertex
100
AcDb2dVertex
 10
88.86260553333999
 20
-122.6788249693304
 30
0.0
  0
SEQEND
  5
1A2
330
19F
100
AcDbEntity
  8
_U+30EC_U+30A4_U+30E4_U+30FC 1
 62
   179
420
  2234388
370
    25
  0
POLYLINE
  5
1A3
330
1F
100
AcDbEntity
  8
_U+30EC_U+30A4_U+30E4_U+30FC 1
 62
   179
420
  2234388
370
    25
100
AcDb2dPolyline
 66
     1
 10
0.0
 20
0.0
 30
0.0
  0
VERTEX
  5
1A4
330
1A3
100
AcDbEntity
  8
_U+30EC_U+30A4_U+30E4_U+30FC 1
 62
   179
420
  2234388
370
    25
100
AcDbVertex
100
AcDb2dVertex
 10
87.0468913903599
 20
-122.6925833026602
 30
0.0
  0
VERTEX
  5
1A5
330
1A3
100
AcDbEntity
  8
_U+30EC_U+30A4_U+30E4_U+30FC 1
 62
   179
420
  2234388
370
    25
100
AcDbVertex
100
AcDb2dVertex
 10
87.54709720033544
 20
-123.0918924692271
 30
0.0
  0
SEQEND
  5
1A6
330
1A3
100
AcDbEntity
  8
_U+30EC_U+30A4_U+30E4_U+30FC 1
 62
   179
420
  2234388
370
    25
  0
POLYLINE
  5
1A7
330
1F
100
AcDbEntity
  8
_U+30EC_U+30A4_U+30E4_U+30FC 1
 62
   179
420
  2234388
370
    25
100
AcDb2dPolyline
 66
     1
 10
0.0
 20
0.0
 30
0.0
  0
VERTEX
  5
1A8
330
1A7
100
AcDbEntity
  8
_U+30EC_U+30A4_U+30E4_U+30FC 1
 62
   179
420
  2234388
370
    25
100
AcDbVertex
100
AcDb2dVertex
 10
87.54709720033544
 20
-123.0918924692271
 30
0.0
  0
VERTEX
  5
1A9
330
1A7
100
AcDbEntity
  8
_U+30EC_U+30A4_U+30E4_U+30FC 1
 62
   179
420
  2234388
370
    25
100
AcDbVertex
100
AcDb2dVertex
 10
88.04733608909915
 20
-122.6915602471047
 30
0.0
  0
SEQEND
  5
1AA
330
1A7
100
AcDbEntity
  8
_U+30EC_U+30A4_U+30E4_U+30FC 1
 62
   179
420
  2234388
370
    25
  0
POLYLINE
  5
1AB
330
1F
100
AcDbEntity
  8
_U+30EC_U+30A4_U+30E4_U+30FC 1
 62
   179
420
  2234388
370
    25
100
AcDb2dPolyline
 66
     1
 10
0.0
 20
0.0
 30
0.0
  0
VERTEX
  5
1AC
330
1AB
100
AcDbEntity
  8
_U+30EC_U+30A4_U+30E4_U+30FC 1
 62
   179
420
  2234388
370
    25
100
AcDbVertex
100
AcDb2dVertex
 10
88.04733608909915
 20
-122.6915602471047
 30
0.0
  0
VERTEX
  5
1AD
330
1AB
100
AcDbEntity
  8
_U+30EC_U+30A4_U+30E4_U+30FC 1
 62
   179
420
  2234388
370
    25
100
AcDbVertex
100
AcDb2dVertex
 10
88.5477491298476
 20
-123.0915396914494
 30
0.0
  0
SEQEND
  5
1AE
330
1AB
100
AcDbEntity
  8
_U+30EC_U+30A4_U+30E4_U+30FC 1
 62
   179
420
  2234388
370
    25
  0
POLYLINE
  5
1AF
330
1F
100
AcDbEntity
  8
_U+30EC_U+30A4_U+30E4_U+30FC 1
 62
   179
420
  2234388
370
    25
100
AcDb2dPolyline
 66
     1
 10
0.0
 20
0.0
 30
0.0
  0
VERTEX
  5
1B0
330
1AF
100
AcDbEntity
  8
_U+30EC_U+30A4_U+30E4_U+30FC 1
 62
   179
420
  2234388
370
    25
100
AcDbVertex
100
AcDb2dVertex
 10
88.5477491298476
 20
-123.0915396914494
 30
0.0
  0
VERTEX
  5
1B1
330
1AF
100
AcDbEntity
  8
_U+30EC_U+30A4_U+30E4_U+30FC 1
 62
   179
420
  2234388
370
    25
100
AcDbVertex
100
AcDb2dVertex
 10
88.86260553333999
 20
-122.6788249693304
 30
0.0
  0
SEQEND
  5
1B2
330
1AF
100
AcDbEntity
  8
_U+30EC_U+30A4_U+30E4_U+30FC 1
 62
   179
420
  2234388
370
    25
  0
SPLINE
  5
1B3
330
1F
100
AcDbEntity
  8
_U+30EC_U+30A4_U+30E4_U+30FC 1
 62
     7
420
 16777215
370
    25
100
AcDbSpline
210
0.0
220
0.0
230
1.0
 70
     8
 71
     3
 72
     8
 73
     4
 74
     0
 42
0.0000000001
 43
0.0000000001
 12
1.0
 22
0.0
 32
0.0
 13
1.0
 23
0.0
 33
0.0
 40
0.0
 40
0.0
 40
0.0
 40
0.0
 40
1.0
 40
1.0
 40
1.0
 40
1.0
 10
102.3630909996111
 20
-132.9786308000886
 30
0.0
 10
102.7496296008608
 20
-132.9786308000886
 30
0.0
 10
103.0631432039735
 20
-133.2921091333437
 30
0.0
 10
103.0631432039735
 20
-133.6786477443581
 30
0.0
  0
SPLINE
  5
1B4
330
1F
100
AcDbEntity
  8
_U+30EC_U+30A4_U+30E4_U+30FC 1
 62
     7
420
 16777215
370
    25
100
AcDbSpline
210
0.0
220
0.0
230
1.0
 70
     8
 71
     3
 72
     8
 73
     4
 74
     0
 42
0.0000000001
 43
0.0000000001
 12
1.0
 22
0.0
 32
0.0
 13
1.0
 23
0.0
 33
0.0
 40
0.0
 40
0.0
 40
0.0
 40
0.0
 40
1.0
 40
1.0
 40
1.0
 40
1.0
 10
95.06189646365786
 20
-121.6790527473582
 30
0.0
 10
95.61413478290243
 20
-121.6790527473582
 30
0.0
 10
96.06202143814255
 20
-122.1269041361349
 30
0.0
 10
96.06202143814255
 20
-122.6788249693304
 30
0.0
  0
SPLINE
  5
1B5
330
1F
100
AcDbEntity
  8
_U+30EC_U+30A4_U+30E4_U+30FC 1
 62
     7
420
 16777215
370
    25
100
AcDbSpline
210
0.0
220
0.0
230
1.0
 70
     8
 71
     3
 72
     8
 73
     4
 74
     0
 42
0.0000000001
 43
0.0000000001
 12
1.0
 22
0.0
 32
0.0
 13
1.0
 23
0.0
 33
0.0
 40
0.0
 40
0.0
 40
0.0
 40
0.0
 40
1.0
 40
1.0
 40
1.0
 40
1.0
 10
87.0468913903599
 20
-122.6925833026602
 30
0.0
 10
87.0468913903599
 20
-122.1399921916873
 30
0.0
 10
87.49474276782314
 20
-121.6921408029103
 30
0.0
 10
88.04666358707581
 20
-121.6921408029103
 30
0.0
  0
ENDSEC
  0
SECTION
  2
OBJECTS
  0
DICTIONARY
  5
C
330
0
100
AcDbDictionary
281
     1
  3
ACAD_GROUP
350
D
  3
ACAD_LAYOUT
350
1A
  3
ACAD_MATERIAL
350
3B
  3
ACAD_MLEADERSTYLE
350
1B7
  3
ACAD_MLINESTYLE
350
17
  3
ACAD_PLOTSETTINGS
350
19
  3
ACAD_PLOTSTYLENAME
350
E
  3
ACAD_TABLESTYLE
350
1B6
  3
ACAD_VISUALSTYLE
350
2A
  0
SUN
  5
3F
330
29
100
AcDbSun
 90
        1
290
     0
 63
     7
421
 16777215
 40
1.0
291
     1
 91
  2455826
 92
 54000000
292
     0
 70
     2
 71
   256
280
     1
  0
DICTIONARY
  5
D
102
{ACAD_REACTORS
330
C
102
}
330
C
100
AcDbDictionary
281
     1
  0
DICTIONARY
  5
1A
102
{ACAD_REACTORS
330
C
102
}
330
C
100
AcDbDictionary
281
     1
  3
Layout1
350
1E
  3
Layout2
350
26
  3
Model
350
22
  0
DICTIONARY
  5
3B
102
{ACAD_REACTORS
330
C
102
}
330
C
100
AcDbDictionary
281
     1
  3
ByBlock
350
3D
  3
ByLayer
350
3C
  3
Global
350
3E
  0
DICTIONARY
  5
1B7
102
{ACAD_REACTORS
330
C
102
}
330
C
100
AcDbDictionary
281
     1
  0
DICTIONARY
  5
17
102
{ACAD_REACTORS
330
C
102
}
330
C
100
AcDbDictionary
281
     1
  3
Standard
350
18
  0
DICTIONARY
  5
19
102
{ACAD_REACTORS
330
C
102
}
330
C
100
AcDbDictionary
281
     1
  0
ACDBDICTIONARYWDFLT
  5
E
102
{ACAD_REACTORS
330
C
102
}
330
C
100
AcDbDictionary
281
     1
  3
Normal
350
F
100
AcDbDictionaryWithDefault
340
F
  0
DICTIONARY
  5
1B6
102
{ACAD_REACTORS
330
C
102
}
330
C
100
AcDbDictionary
281
     1
  0
DICTIONARY
  5
2A
102
{ACAD_REACTORS
330
C
102
}
330
C
100
AcDbDictionary
281
     1
  3
2dWireframe
350
2F
  3
3D Hidden
350
31
  3
3dWireframe
350
30
  3
Basic
350
32
  3
Brighten
350
36
  3
ColorChange
350
3A
  3
Conceptual
350
34
  3
Dim
350
35
  3
Facepattern
350
39
  3
Flat
350
2B
  3
FlatWithEdges
350
2C
  3
Gouraud
350
2D
  3
GouraudWithEdges
350
2E
  3
Linepattern
350
38
  3
Realistic
350
33
  3
Thicken
350
37
  0
LAYOUT
  5
1E
102
{ACAD_REACTORS
330
1A
102
}
330
1A
100
AcDbPlotSettings
  1

  2
none_device
  4

  6

 40
0.0
 41
0.0
 42
0.0
 43
0.0
 44
0.0
 45
0.0
 46
0.0
 47
0.0
 48
0.0
 49
0.0
140
0.0
141
0.0
142
1.0
143
1.0
 70
   688
 72
     0
 73
     0
 74
     5
  7

 75
    16
 76
     0
 77
     2
 78
   300
147
1.0
148
0.0
149
0.0
100
AcDbLayout
  1
Layout1
 70
     1
 71
     1
 10
0.0
 20
0.0
 11
12.0
 21
9.0
 12
0.0
 22
0.0
 32
0.0
 14
1.000000000000000E+20
 24
1.000000000000000E+20
 34
1.000000000000000E+20
 15
-1.000000000000000E+20
 25
-1.000000000000000E+20
 35
-1.000000000000000E+20
146
0.0
 13
0.0
 23
0.0
 33
0.0
 16
1.0
 26
0.0
 36
0.0
 17
0.0
 27
1.0
 37
0.0
 76
     0
330
1B
  0
LAYOUT
  5
26
102
{ACAD_REACTORS
330
1A
102
}
330
1A
100
AcDbPlotSettings
  1

  2
none_device
  4

  6

 40
0.0
 41
0.0
 42
0.0
 43
0.0
 44
0.0
 45
0.0
 46
0.0
 47
0.0
 48
0.0
 49
0.0
140
0.0
141
0.0
142
1.0
143
1.0
 70
   688
 72
     0
 73
     0
 74
     5
  7

 75
    16
 76
     0
 77
     2
 78
   300
147
1.0
148
0.0
149
0.0
100
AcDbLayout
  1
Layout2
 70
     1
 71
     2
 10
0.0
 20
0.0
 11
0.0
 21
0.0
 12
0.0
 22
0.0
 32
0.0
 14
0.0
 24
0.0
 34
0.0
 15
0.0
 25
0.0
 35
0.0
146
0.0
 13
0.0
 23
0.0
 33
0.0
 16
1.0
 26
0.0
 36
0.0
 17
0.0
 27
1.0
 37
0.0
 76
     0
330
23
  0
LAYOUT
  5
22
102
{ACAD_REACTORS
330
1A
102
}
330
1A
100
AcDbPlotSettings
  1

  2
none_device
  4

  6

 40
0.0
 41
0.0
 42
0.0
 43
0.0
 44
0.0
 45
0.0
 46
0.0
 47
0.0
 48
0.0
 49
0.0
140
0.0
141
0.0
142
1.0
143
1.0
 70
  1712
 72
     0
 73
     0
 74
     0
  7

 75
     0
 76
     0
 77
     2
 78
   300
147
1.0
148
0.0
149
0.0
100
AcDbLayout
  1
Model
 70
     1
 71
     0
 10
0.0
 20
0.0
 11
12.0
 21
9.0
 12
0.0
 22
0.0
 32
0.0
 14
1.000000000000000E+20
 24
1.000000000000000E+20
 34
1.000000000000000E+20
 15
-1.000000000000000E+20
 25
-1.000000000000000E+20
 35
-1.000000000000000E+20
146
0.0
 13
0.0
 23
0.0
 33
0.0
 16
1.0
 26
0.0
 36
0.0
 17
0.0
 27
1.0
 37
0.0
 76
     0
330
1F
331
29
  0
MATERIAL
  5
3D
102
{ACAD_REACTORS
330
3B
102
}
330
3B
100
AcDbMaterial
  1
ByBlock
 72
     1
 94
      127
  0
MATERIAL
  5
3C
102
{ACAD_REACTORS
330
3B
102
}
330
3B
100
AcDbMaterial
  1
ByLayer
 72
     1
 94
      127
  0
MATERIAL
  5
3E
102
{ACAD_REACTORS
330
3B
102
}
330
3B
100
AcDbMaterial
  1
Global
 72
     1
 94
      127
  0
MLINESTYLE
  5
18
102
{ACAD_REACTORS
330
17
102
}
330
17
100
AcDbMlineStyle
  2
Standard
 70
     0
  3

 62
   256
 51
90.0
 52
90.0
 71
     2
 49
0.5
 62
   256
  6
BYLAYER
 49
-0.5
 62
   256
  6
BYLAYER
  0
ACDBPLACEHOLDER
  5
F
102
{ACAD_REACTORS
330
E
102
}
330
E
  0
VISUALSTYLE
  5
2F
102
{ACAD_REACTORS
330
2A
102
}
330
2A
100
AcDbVisualStyle
  2
2dWireframe
 70
     4
177
     2
291
     0
 71
     0
176
     1
 72
     2
176
     1
 73
     0
176
     1
 90
        0
176
     1
 40
-0.6
176
     1
 41
-30.0
176
     1
 62
     5
 63
     7
421
 16777215
176
     1
 74
     1
176
     1
 91
        4
176
     1
 64
     7
176
     1
 65
   257
176
     1
 75
     1
176
     1
175
     1
176
     1
 42
1.0
176
     1
 92
        0
176
     1
 66
   257
176
     1
 43
1.0
176
     1
 76
     1
176
     1
 77
     6
176
     1
 78
     2
176
     1
 67
     7
176
     1
 79
     5
176
     1
170
     0
176
     1
171
     0
176
     1
290
     0
176
     1
 93
        1
176
     1
 44
0.0
176
     1
173
     0
176
     1
  0
VISUALSTYLE
  5
31
102
{ACAD_REACTORS
330
2A
102
}
330
2A
100
AcDbVisualStyle
  2
3D Hidden
 70
     6
177
     2
291
     0
 71
     1
176
     1
 72
     2
176
     1
 73
     2
176
     1
 90
        0
176
     1
 40
-0.6
176
     1
 41
-30.0
176
     1
 62
     5
 63
     7
421
 16777215
176
     1
 74
     2
176
     1
 91
        2
176
     1
 64
     7
176
     1
 65
   257
176
     1
 75
     2
176
     1
175
     1
176
     1
 42
40.0
176
     1
 92
        0
176
     1
 66
   257
176
     1
 43
1.0
176
     1
 76
     1
176
     1
 77
     6
176
     1
 78
     2
176
     1
 67
     7
176
     1
 79
     3
176
     1
170
     0
176
     1
171
     0
176
     1
290
     0
176
     1
 93
        1
176
     1
 44
0.0
176
     1
173
     0
176
     1
  0
VISUALSTYLE
  5
30
102
{ACAD_REACTORS
330
2A
102
}
330
2A
100
AcDbVisualStyle
  2
3dWireframe
 70
     5
177
     2
291
     0
 71
     0
176
     1
 72
     2
176
     1
 73
     0
176
     1
 90
        0
176
     1
 40
-0.6
176
     1
 41
-30.0
176
     1
 62
     5
 63
     7
421
 16777215
176
     1
 74
     1
176
     1
 91
        4
176
     1
 64
     7
176
     1
 65
   257
176
     1
 75
     1
176
     1
175
     1
176
     1
 42
1.0
176
     1
 92
        0
176
     1
 66
   257
176
     1
 43
1.0
176
     1
 76
     1
176
     1
 77
     6
176
     1
 78
     2
176
     1
 67
     7
176
     1
 79
     5
176
     1
170
     0
176
     1
171
     0
176
     1
290
     0
176
     1
 93
        1
176
     1
 44
0.0
176
     1
173
     0
176
     1
  0
VISUALSTYLE
  5
32
102
{ACAD_REACTORS
330
2A
102
}
330
2A
100
AcDbVisualStyle
  2
Basic
 70
     7
177
     2
291
     1
 71
     1
176
     1
 72
     0
176
     1
 73
     1
176
     1
 90
        0
176
     1
 40
-0.6
176
     1
 41
-30.0
176
     1
 62
     5
 63
     7
421
 16777215
176
     1
 74
     0
176
     1
 91
        4
176
     1
 64
     7
176
     1
 65
   257
176
     1
 75
     1
176
     1
175
     1
176
     1
 42
1.0
176
     1
 92
        8
176
     1
 66
     7
176
     1
 43
1.0
176
     1
 76
     1
176
     1
 77
     6
176
     1
 78
     2
176
     1
 67
     7
176
     1
 79
     5
176
     1
170
     0
176
     1
171
     0
176
     1
290
     0
176
     1
 93
        1
176
     1
 44
0.0
176
     1
173
     0
176
     1
  0
VISUALSTYLE
  5
36
102
{ACAD_REACTORS
330
2A
102
}
330
2A
100
AcDbVisualStyle
  2
Brighten
 70
    12
177
     2
291
     1
 71
     2
176
     1
 72
     2
176
     1
 73
     0
176
     1
 90
        0
176
     1
 40
-0.6
176
     1
 41
-30.0
176
     1
 62
     5
 63
     7
421
 16777215
176
     1
 74
     1
176
     1
 91
        4
176
     1
 64
     7
176
     1
 65
   257
176
     1
 75
     1
176
     1
175
     1
176
     1
 42
1.0
176
     1
 92
        8
176
     1
 66
     7
176
     1
 43
1.0
176
     1
 76
     1
176
     1
 77
     6
176
     1
 78
     2
176
     1
 67
     7
176
     1
 79
     5
176
     1
170
     0
176
     1
171
     0
176
     1
290
     0
176
     1
 93
        1
176
     1
 44
50.0
176
     1
173
     0
176
     1
  0
VISUALSTYLE
  5
3A
102
{ACAD_REACTORS
330
2A
102
}
330
2A
100
AcDbVisualStyle
  2
ColorChange
 70
    16
177
     2
291
     1
 71
     2
176
     1
 72
     2
176
     1
 73
     3
176
     1
 90
        0
176
     1
 40
-0.6
176
     1
 41
-30.0
176
     1
 62
     5
 63
     8
421
  8421504
176
     1
 74
     1
176
     1
 91
        4
176
     1
 64
     7
176
     1
 65
   257
176
     1
 75
     1
176
     1
175
     1
176
     1
 42
1.0
176
     1
 92
        8
176
     1
 66
     8
424
  8421504
176
     1
 43
1.0
176
     1
 76
     1
176
     1
 77
     6
176
     1
 78
     2
176
     1
 67
     7
176
     1
 79
     5
176
     1
170
     0
176
     1
171
     0
176
     1
290
     0
176
     1
 93
        1
176
     1
 44
0.0
176
     1
173
     0
176
     1
  0
VISUALSTYLE
  5
34
102
{ACAD_REACTORS
330
2A
102
}
330
2A
100
AcDbVisualStyle
  2
Conceptual
 70
     9
177
     2
291
     0
 71
     3
176
     1
 72
     2
176
     1
 73
     0
176
     1
 90
        0
176
     1
 40
-0.6
176
     1
 41
-30.0
176
     1
 62
     5
 63
     7
421
 16777215
176
     1
 74
     2
176
     1
 91
        2
176
     1
 64
     7
176
     1
 65
   257
176
     1
 75
     1
176
     1
175
     1
176
     1
 42
40.0
176
     1
 92
        8
176
     1
 66
     7
176
     1
 43
1.0
176
     1
 76
     1
176
     1
 77
     6
176
     1
 78
     2
176
     1
 67
     7
176
     1
 79
     3
176
     1
170
     0
176
     1
171
     0
176
     1
290
     0
176
     1
 93
        1
176
     1
 44
0.0
176
     1
173
     0
176
     1
  0
VISUALSTYLE
  5
35
102
{ACAD_REACTORS
330
2A
102
}
330
2A
100
AcDbVisualStyle
  2
Dim
 70
    11
177
     2
291
     1
 71
     2
176
     1
 72
     2
176
     1
 73
     0
176
     1
 90
        0
176
     1
 40
-0.6
176
     1
 41
-30.0
176
     1
 62
     5
 63
     7
421
 16777215
176
     1
 74
     1
176
     1
 91
        4
176
     1
 64
     7
176
     1
 65
   257
176
     1
 75
     1
176
     1
175
     1
176
     1
 42
1.0
176
     1
 92
        8
176
     1
 66
     7
176
     1
 43
1.0
176
     1
 76
     1
176
     1
 77
     6
176
     1
 78
     2
176
     1
 67
     7
176
     1
 79
     5
176
     1
170
     0
176
     1
171
     0
176
     1
290
     0
176
     1
 93
        1
176
     1
 44
-50.0
176
     1
173
     0
176
     1
  0
VISUALSTYLE
  5
39
102
{ACAD_REACTORS
330
2A
102
}
330
2A
100
AcDbVisualStyle
  2
Facepattern
 70
    15
177
     2
291
     1
 71
     2
176
     1
 72
     2
176
     1
 73
     0
176
     1
 90
        0
176
     1
 40
-0.6
176
     1
 41
-30.0
176
     1
 62
     5
 63
     7
421
 16777215
176
     1
 74
     1
176
     1
 91
        4
176
     1
 64
     7
176
     1
 65
   257
176
     1
 75
     1
176
     1
175
     1
176
     1
 42
1.0
176
     1
 92
        8
176
     1
 66
     7
176
     1
 43
1.0
176
     1
 76
     1
176
     1
 77
     6
176
     1
 78
     2
176
     1
 67
     7
176
     1
 79
     5
176
     1
170
     0
176
     1
171
     0
176
     1
290
     0
176
     1
 93
        1
176
     1
 44
0.0
176
     1
173
     0
176
     1
  0
VISUALSTYLE
  5
2B
102
{ACAD_REACTORS
330
2A
102
}
330
2A
100
AcDbVisualStyle
  2
Flat
 70
     0
177
     2
291
     1
 71
     2
176
     1
 72
     1
176
     1
 73
     1
176
     1
 90
        2
176
     1
 40
-0.6
176
     1
 41
30.0
176
     1
 62
     5
 63
     7
421
 16777215
176
     1
 74
     0
176
     1
 91
        4
176
     1
 64
     7
176
     1
 65
   257
176
     1
 75
     1
176
     1
175
     1
176
     1
 42
1.0
176
     1
 92
        8
176
     1
 66
     7
176
     1
 43
1.0
176
     1
 76
     1
176
     1
 77
     6
176
     1
 78
     2
176
     1
 67
     7
176
     1
 79
     5
176
     1
170
     0
176
     1
171
     0
176
     1
290
     0
176
     1
 93
       13
176
     1
 44
0.0
176
     1
173
     0
176
     1
  0
VISUALSTYLE
  5
2C
102
{ACAD_REACTORS
330
2A
102
}
330
2A
100
AcDbVisualStyle
  2
FlatWithEdges
 70
     1
177
     2
291
     1
 71
     2
176
     1
 72
     1
176
     1
 73
     1
176
     1
 90
        2
176
     1
 40
-0.6
176
     1
 41
30.0
176
     1
 62
     5
 63
     7
421
 16777215
176
     1
 74
     1
176
     1
 91
        4
176
     1
 64
     7
176
     1
 65
   257
176
     1
 75
     1
176
     1
175
     1
176
     1
 42
1.0
176
     1
 92
        0
176
     1
 66
   257
176
     1
 43
1.0
176
     1
 76
     1
176
     1
 77
     6
176
     1
 78
     2
176
     1
 67
     7
176
     1
 79
     5
176
     1
170
     0
176
     1
171
     0
176
     1
290
     0
176
     1
 93
       13
176
     1
 44
0.0
176
     1
173
     0
176
     1
  0
VISUALSTYLE
  5
2D
102
{ACAD_REACTORS
330
2A
102
}
330
2A
100
AcDbVisualStyle
  2
Gouraud
 70
     2
177
     2
291
     1
 71
     2
176
     1
 72
     2
176
     1
 73
     1
176
     1
 90
        2
176
     1
 40
-0.6
176
     1
 41
30.0
176
     1
 62
     5
 63
     7
421
 16777215
176
     1
 74
     0
176
     1
 91
        4
176
     1
 64
     7
176
     1
 65
   257
176
     1
 75
     1
176
     1
175
     1
176
     1
 42
1.0
176
     1
 92
        0
176
     1
 66
     7
176
     1
 43
1.0
176
     1
 76
     1
176
     1
 77
     6
176
     1
 78
     2
176
     1
 67
     7
176
     1
 79
     5
176
     1
170
     0
176
     1
171
     0
176
     1
290
     0
176
     1
 93
       13
176
     1
 44
0.0
176
     1
173
     0
176
     1
  0
VISUALSTYLE
  5
2E
102
{ACAD_REACTORS
330
2A
102
}
330
2A
100
AcDbVisualStyle
  2
GouraudWithEdges
 70
     3
177
     2
291
     1
 71
     2
176
     1
 72
     2
176
     1
 73
     1
176
     1
 90
        2
176
     1
 40
-0.6
176
     1
 41
30.0
176
     1
 62
     5
 63
     7
421
 16777215
176
     1
 74
     1
176
     1
 91
        4
176
     1
 64
     7
176
     1
 65
   257
176
     1
 75
     1
176
     1
175
     1
176
     1
 42
1.0
176
     1
 92
        0
176
     1
 66
   257
176
     1
 43
1.0
176
     1
 76
     1
176
     1
 77
     6
176
     1
 78
     2
176
     1
 67
     7
176
     1
 79
     5
176
     1
170
     0
176
     1
171
     0
176
     1
290
     0
176
     1
 93
       13
176
     1
 44
0.0
176
     1
173
     0
176
     1
  0
VISUALSTYLE
  5
38
102
{ACAD_REACTORS
330
2A
102
}
330
2A
100
AcDbVisualStyle
  2
Linepattern
 70
    14
177
     2
291
     1
 71
     2
176
     1
 72
     2
176
     1
 73
     0
176
     1
 90
        0
176
     1
 40
-0.6
176
     1
 41
-30.0
176
     1
 62
     5
 63
     7
421
 16777215
176
     1
 74
     1
176
     1
 91
        4
176
     1
 64
     7
176
     1
 65
   257
176
     1
 75
     7
176
     1
175
     7
176
     1
 42
1.0
176
     1
 92
        8
176
     1
 66
     7
176
     1
 43
1.0
176
     1
 76
     1
176
     1
 77
     6
176
     1
 78
     2
176
     1
 67
     7
176
     1
 79
     5
176
     1
170
     0
176
     1
171
     0
176
     1
290
     0
176
     1
 93
        1
176
     1
 44
0.0
176
     1
173
     0
176
     1
  0
VISUALSTYLE
  5
33
102
{ACAD_REACTORS
330
2A
102
}
330
2A
100
AcDbVisualStyle
  2
Realistic
 70
     8
177
     2
291
     0
 71
     2
176
     1
 72
     2
176
     1
 73
     0
176
     1
 90
        0
176
     1
 40
-0.6
176
     1
 41
-30.0
176
     1
 62
     5
 63
     7
421
 16777215
176
     1
 74
     1
176
     1
 91
        0
176
     1
 64
     7
176
     1
 65
   257
176
     1
 75
     1
176
     1
175
     1
176
     1
 42
1.0
176
     1
 92
        8
176
     1
 66
     8
424
  7895160
176
     1
 43
1.0
176
     1
 76
     1
176
     1
 77
     6
176
     1
 78
     2
176
     1
 67
     7
176
     1
 79
     5
176
     1
170
     0
176
     1
171
     0
176
     1
290
     0
176
     1
 93
       13
176
     1
 44
0.0
176
     1
173
     0
176
     1
  0
VISUALSTYLE
  5
37
102
{ACAD_REACTORS
330
2A
102
}
330
2A
100
AcDbVisualStyle
  2
Thicken
 70
    13
177
     2
291
     1
 71
     2
176
     1
 72
     2
176
     1
 73
     0
176
     1
 90
        0
176
     1
 40
-0.6
176
     1
 41
-30.0
176
     1
 62
     5
 63
     7
421
 16777215
176
     1
 74
     1
176
     1
 91
        4
176
     1
 64
     7
176
     1
 65
   257
176
     1
 75
     1
176
     1
175
     1
176
     1
 42
1.0
176
     1
 92
       12
176
     1
 66
     7
176
     1
 43
1.0
176
     1
 76
     1
176
     1
 77
     6
176
     1
 78
     2
176
     1
 67
     7
176
     1
 79
     5
176
     1
170
     0
176
     1
171
     0
176
     1
290
     0
176
     1
 93
        1
176
     1
 44
0.0
176
     1
173
     0
176
     1
  0
ENDSEC
  0
EOF
