  0
SECTION
  2
HEADER
  9
$ACADVER
  1
AC1024
  9
$ACADMAINTVER
 70
     6
  9
$DWGCODEPAGE
  3
UNDEFINED
  9
$INSBASE
 10
0.0
 20
0.0
 30
0.0
  9
$EXTMIN
 10
1.000000000000000E+20
 20
1.000000000000000E+20
 30
1.000000000000000E+20
  9
$EXTMAX
 10
-1.000000000000000E+20
 20
-1.000000000000000E+20
 30
-1.000000000000000E+20
  9
$LIMMIN
 10
0.0
 20
0.0
  9
$LIMMAX
 10
12.0
 20
9.0
  9
$ORTHOMODE
 70
     0
  9
$REGENMODE
 70
     1
  9
$FILLMODE
 70
     1
  9
$QTEXTMODE
 70
     0
  9
$MIRRTEXT
 70
     1
  9
$LTSCALE
 40
1.0
  9
$ATTMODE
 70
     1
  9
$TEXTSIZE
 40
0.2
  9
$TRACEWID
 40
0.05
  9
$TEXTSTYLE
  7
Standard
  9
$CLAYER
  8
0
  9
$CELTYPE
  6
ByLayer
  9
$CECOLOR
 62
   256
  9
$CELTSCALE
 40
1.0
  9
$DISPSILH
 70
     0
  9
$DIMSCALE
 40
1.0
  9
$DIMASZ
 40
0.18
  9
$DIMEXO
 40
0.0625
  9
$DIMDLI
 40
0.38
  9
$DIMRND
 40
0.0
  9
$DIMDLE
 40
0.0
  9
$DIMEXE
 40
0.18
  9
$DIMTP
 40
0.0
  9
$DIMTM
 40
0.0
  9
$DIMTXT
 40
0.18
  9
$DIMCEN
 40
0.09
  9
$DIMTSZ
 40
0.0
  9
$DIMTOL
 70
     0
  9
$DIMLIM
 70
     0
  9
$DIMTIH
 70
     1
  9
$DIMTOH
 70
     1
  9
$DIMSE1
 70
     0
  9
$DIMSE2
 70
     0
  9
$DIMTAD
 70
     0
  9
$DIMZIN
 70
     0
  9
$DIMBLK
  1

  9
$DIMASO
 70
     1
  9
$DIMSHO
 70
     1
  9
$DIMPOST
  1

  9
$DIMAPOST
  1

  9
$DIMALT
 70
     0
  9
$DIMALTD
 70
     2
  9
$DIMALTF
 40
25.4
  9
$DIMLFAC
 40
1.0
  9
$DIMTOFL
 70
     0
  9
$DIMTVP
 40
0.0
  9
$DIMTIX
 70
     0
  9
$DIMSOXD
 70
     0
  9
$DIMSAH
 70
     0
  9
$DIMBLK1
  1

  9
$DIMBLK2
  1

  9
$DIMSTYLE
  2
Standard
  9
$DIMCLRD
 70
     0
  9
$DIMCLRE
 70
     0
  9
$DIMCLRT
 70
     0
  9
$DIMTFAC
 40
1.0
  9
$DIMGAP
 40
0.09
  9
$DIMJUST
 70
     0
  9
$DIMSD1
 70
     0
  9
$DIMSD2
 70
     0
  9
$DIMTOLJ
 70
     1
  9
$DIMTZIN
 70
     0
  9
$DIMALTZ
 70
     0
  9
$DIMALTTZ
 70
     0
  9
$DIMUPT
 70
     0
  9
$DIMDEC
 70
     4
  9
$DIMTDEC
 70
     4
  9
$DIMALTU
 70
     2
  9
$DIMALTTD
 70
     2
  9
$DIMTXSTY
  7
Standard
  9
$DIMAUNIT
 70
     0
  9
$DIMADEC
 70
     0
  9
$DIMALTRND
 40
0.0
  9
$DIMAZIN
 70
     0
  9
$DIMDSEP
 70
    46
  9
$DIMATFIT
 70
     3
  9
$DIMFRAC
 70
     0
  9
$DIMLDRBLK
  1

  9
$DIMLUNIT
 70
     2
  9
$DIMLWD
 70
    -2
  9
$DIMLWE
 70
    -2
  9
$DIMTMOVE
 70
     0
  9
$DIMFXL
 40
1.0
  9
$DIMFXLON
 70
     0
  9
$DIMJOGANG
 40
0.7853981633974483
  9
$DIMTFILL
 70
     0
  9
$DIMTFILLCLR
 70
     0
  9
$DIMARCSYM
 70
     0
  9
$DIMLTYPE
  6

  9
$DIMLTEX1
  6

  9
$DIMLTEX2
  6

  9
$DIMTXTDIRECTION
 70
     0
  9
$LUNITS
 70
     2
  9
$LUPREC
 70
     4
  9
$SKETCHINC
 40
0.1
  9
$FILLETRAD
 40
0.5
  9
$AUNITS
 70
     0
  9
$AUPREC
 70
     0
  9
$MENU
  1
.
  9
$ELEVATION
 40
0.0
  9
$PELEVATION
 40
0.0
  9
$THICKNESS
 40
0.0
  9
$LIMCHECK
 70
     0
  9
$CHAMFERA
 40
0.5
  9
$CHAMFERB
 40
0.5
  9
$CHAMFERC
 40
1.0
  9
$CHAMFERD
 40
0.0
  9
$SKPOLY
 70
     0
  9
$TDCREATE
 40
2457917.611157408
  9
$TDUCREATE
 40
2457917.236157408
  9
$TDUPDATE
 40
2457917.611157408
  9
$TDUUPDATE
 40
2457917.236157408
  9
$TDINDWG
 40
0.0000000116
  9
$TDUSRTIMER
 40
0.0000000116
  9
$USRTIMER
 70
     1
  9
$ANGBASE
 50
0.0
  9
$ANGDIR
 70
     0
  9
$PDMODE
 70
     0
  9
$PDSIZE
 40
0.0
  9
$PLINEWID
 40
0.0
  9
$SPLFRAME
 70
     0
  9
$SPLINETYPE
 70
     6
  9
$SPLINESEGS
 70
     8
  9
$HANDSEED
  5
1A0
  9
$SURFTAB1
 70
     6
  9
$SURFTAB2
 70
     6
  9
$SURFTYPE
 70
     6
  9
$SURFU
 70
     6
  9
$SURFV
 70
     6
  9
$UCSBASE
  2

  9
$UCSNAME
  2

  9
$UCSORG
 10
0.0
 20
0.0
 30
0.0
  9
$UCSXDIR
 10
1.0
 20
0.0
 30
0.0
  9
$UCSYDIR
 10
0.0
 20
1.0
 30
0.0
  9
$UCSORTHOREF
  2

  9
$UCSORTHOVIEW
 70
     0
  9
$UCSORGTOP
 10
0.0
 20
0.0
 30
0.0
  9
$UCSORGBOTTOM
 10
0.0
 20
0.0
 30
0.0
  9
$UCSORGLEFT
 10
0.0
 20
0.0
 30
0.0
  9
$UCSORGRIGHT
 10
0.0
 20
0.0
 30
0.0
  9
$UCSORGFRONT
 10
0.0
 20
0.0
 30
0.0
  9
$UCSORGBACK
 10
0.0
 20
0.0
 30
0.0
  9
$PUCSBASE
  2

  9
$PUCSNAME
  2

  9
$PUCSORG
 10
0.0
 20
0.0
 30
0.0
  9
$PUCSXDIR
 10
1.0
 20
0.0
 30
0.0
  9
$PUCSYDIR
 10
0.0
 20
1.0
 30
0.0
  9
$PUCSORTHOREF
  2

  9
$PUCSORTHOVIEW
 70
     0
  9
$PUCSORGTOP
 10
0.0
 20
0.0
 30
0.0
  9
$PUCSORGBOTTOM
 10
0.0
 20
0.0
 30
0.0
  9
$PUCSORGLEFT
 10
0.0
 20
0.0
 30
0.0
  9
$PUCSORGRIGHT
 10
0.0
 20
0.0
 30
0.0
  9
$PUCSORGFRONT
 10
0.0
 20
0.0
 30
0.0
  9
$PUCSORGBACK
 10
0.0
 20
0.0
 30
0.0
  9
$USERI1
 70
     0
  9
$USERI2
 70
     0
  9
$USERI3
 70
     0
  9
$USERI4
 70
     0
  9
$USERI5
 70
     0
  9
$USERR1
 40
0.0
  9
$USERR2
 40
0.0
  9
$USERR3
 40
0.0
  9
$USERR4
 40
0.0
  9
$USERR5
 40
0.0
  9
$WORLDVIEW
 70
     1
  9
$SHADEDGE
 70
     3
  9
$SHADEDIF
 70
    70
  9
$TILEMODE
 70
     1
  9
$MAXACTVP
 70
    64
  9
$PINSBASE
 10
0.0
 20
0.0
 30
0.0
  9
$PLIMCHECK
 70
     0
  9
$PEXTMIN
 10
1.000000000000000E+20
 20
1.000000000000000E+20
 30
1.000000000000000E+20
  9
$PEXTMAX
 10
-1.000000000000000E+20
 20
-1.000000000000000E+20
 30
-1.000000000000000E+20
  9
$PLIMMIN
 10
0.0
 20
0.0
  9
$PLIMMAX
 10
12.0
 20
9.0
  9
$UNITMODE
 70
     0
  9
$VISRETAIN
 70
     1
  9
$PLINEGEN
 70
     0
  9
$PSLTSCALE
 70
     1
  9
$TREEDEPTH
 70
  3020
  9
$CMLSTYLE
  2
Standard
  9
$CMLJUST
 70
     0
  9
$CMLSCALE
 40
1.0
  9
$PROXYGRAPHICS
 70
     1
  9
$MEASUREMENT
 70
     0
  9
$CELWEIGHT
370
    -1
  9
$ENDCAPS
280
     0
  9
$JOINSTYLE
280
     0
  9
$LWDISPLAY
290
     1
  9
$INSUNITS
 70
     1
  9
$HYPERLINKBASE
  1

  9
$STYLESHEET
  1

  9
$XEDIT
290
     1
  9
$CEPSNTYPE
380
     0
  9
$PSTYLEMODE
290
     1
  9
$FINGERPRINTGUID
  2
{086F885E-E28B-8523-2C03-4565D0E7B2C4}
  9
$VERSIONGUID
  2
{FAEB1C32-E019-11D5-929B-00C0DF256EC4}
  9
$EXTNAMES
290
     1
  9
$PSVPSCALE
 40
0.0
  9
$OLESTARTUP
290
     0
  9
$SORTENTS
280
   127
  9
$INDEXCTL
280
     0
  9
$HIDETEXT
280
     1
  9
$XCLIPFRAME
280
     2
  9
$HALOGAP
280
     0
  9
$OBSCOLOR
 70
   257
  9
$OBSLTYPE
280
     0
  9
$INTERSECTIONDISPLAY
280
     0
  9
$INTERSECTIONCOLOR
 70
   257
  9
$DIMASSOC
280
     2
  9
$PROJECTNAME
  1

  9
$CAMERADISPLAY
290
     0
  9
$LENSLENGTH
 40
50.0
  9
$CAMERAHEIGHT
 40
0.0
  9
$STEPSPERSEC
 40
2.0
  9
$STEPSIZE
 40
6.0
  9
$3DDWFPREC
 40
2.0
  9
$PSOLWIDTH
 40
0.25
  9
$PSOLHEIGHT
 40
4.0
  9
$LOFTANG1
 40
1.570796326794897
  9
$LOFTANG2
 40
1.570796326794897
  9
$LOFTMAG1
 40
0.0
  9
$LOFTMAG2
 40
0.0
  9
$LOFTPARAM
 70
     7
  9
$LOFTNORMALS
280
     1
  9
$LATITUDE
 40
37.795
  9
$LONGITUDE
 40
-122.394
  9
$NORTHDIRECTION
 40
0.0
  9
$TIMEZONE
 70
 -8000
  9
$LIGHTGLYPHDISPLAY
280
     1
  9
$TILEMODELIGHTSYNCH
280
     1
  9
$CMATERIAL
347
3C
  9
$SOLIDHIST
280
     1
  9
$SHOWHIST
280
     1
  9
$DWFFRAME
280
     2
  9
$DGNFRAME
280
     2
  9
$REALWORLDSCALE
290
     1
  9
$INTERFERECOLOR
 62
   256
  9
$CSHADOW
280
     0
  9
$SHADOWPLANELOCATION
 40
0.0
  0
ENDSEC
  0
SECTION
  2
CLASSES
  0
CLASS
  1
ACDBDICTIONARYWDFLT
  2
AcDbDictionaryWithDefault
  3
ObjectDBX Classes
 90
        0
 91
        4
280
     0
281
     0
  0
CLASS
  1
VISUALSTYLE
  2
AcDbVisualStyle
  3
ObjectDBX Classes
 90
     4095
 91
        4
280
     0
281
     0
  0
CLASS
  1
MATERIAL
  2
AcDbMaterial
  3
ObjectDBX Classes
 90
     1153
 91
        4
280
     0
281
     0
  0
CLASS
  1
SUN
  2
AcDbSun
  3
SCENEOE
 90
     1024
 91
        4
280
     0
281
     0
  0
ENDSEC
  0
SECTION
  2
TABLES
  0
TABLE
  2
VPORT
  5
8
330
0
100
AcDbSymbolTable
 70
     1
  0
VPORT
  5
29
330
8
100
AcDbSymbolTableRecord
100
AcDbViewportTableRecord
  2
*Active
 70
     0
 10
0.0
 20
0.0
 11
1.0
 21
1.0
 12
0.0
 22
0.0
 13
0.0
 23
0.0
 14
0.5
 24
0.5
 15
0.5
 25
0.5
 16
0.0
 26
0.0
 36
1.0
 17
91.00082462281999
 27
-128.4993055234307
 37
0.0
 40
256.9986110468615
 41
0.7081814508812795
 42
50.0
 43
0.0
 44
0.0
 50
0.0
 51
0.0
 71
     0
 72
   100
 73
     1
 74
     3
 75
     0
 76
     0
 77
     0
 78
     0
281
     0
 65
     1
110
0.0
120
0.0
130
0.0
111
1.0
121
0.0
131
0.0
112
0.0
122
1.0
132
0.0
 79
     0
146
0.0
 60
     3
 61
     5
292
     1
282
     1
141
0.0
142
0.0
 63
   250
361
3F
  0
ENDTAB
  0
TABLE
  2
LTYPE
  5
5
330
0
100
AcDbSymbolTable
 70
     1
  0
LTYPE
  5
14
330
5
100
AcDbSymbolTableRecord
100
AcDbLinetypeTableRecord
  2
ByBlock
 70
     0
  3

 72
    65
 73
     0
 40
0.0
  0
LTYPE
  5
15
330
5
100
AcDbSymbolTableRecord
100
AcDbLinetypeTableRecord
  2
ByLayer
 70
     0
  3

 72
    65
 73
     0
 40
0.0
  0
LTYPE
  5
16
330
5
100
AcDbSymbolTableRecord
100
AcDbLinetypeTableRecord
  2
Continuous
 70
     0
  3
Solid line
 72
    65
 73
     0
 40
0.0
  0
ENDTAB
  0
TABLE
  2
LAYER
  5
2
330
0
100
AcDbSymbolTable
 70
     2
  0
LAYER
  5
10
330
2
100
AcDbSymbolTableRecord
100
AcDbLayerTableRecord
  2
0
 70
     0
 62
     7
  6
Continuous
370
    -3
390
F
347
3E
  0
LAYER
  5
40
330
2
100
AcDbSymbolTableRecord
100
AcDbLayerTableRecord
  2
_U+30EC_U+30A4_U+30E4_U+30FC 1
 70
     0
 62
     7
  6
Continuous
370
    -3
390
F
347
3E
  0
ENDTAB
  0
TABLE
  2
STYLE
  5
3
330
0
100
AcDbSymbolTable
 70
     1
  0
STYLE
  5
11
330
3
100
AcDbSymbolTableRecord
100
AcDbTextStyleTableRecord
  2
Standard
 70
     0
 40
0.0
 41
1.0
 50
0.0
 71
     0
 42
0.2
  3
txt
  4

  0
ENDTAB
  0
TABLE
  2
VIEW
  5
6
330
0
100
AcDbSymbolTable
 70
     0
  0
ENDTAB
  0
TABLE
  2
UCS
  5
7
330
0
100
AcDbSymbolTable
 70
     0
  0
ENDTAB
  0
TABLE
  2
APPID
  5
9
330
0
100
AcDbSymbolTable
 70
     1
  0
APPID
  5
12
330
9
100
AcDbSymbolTableRecord
100
AcDbRegAppTableRecord
  2
ACAD
 70
     0
  0
ENDTAB
  0
TABLE
  2
DIMSTYLE
  5
A
330
0
100
AcDbSymbolTable
 70
     1
100
AcDbDimStyleTable
  0
DIMSTYLE
105
27
330
A
100
AcDbSymbolTableRecord
100
AcDbDimStyleTableRecord
  2
Standard
 70
     0
178
     0
340
11
  0
ENDTAB
  0
TABLE
  2
BLOCK_RECORD
  5
1
330
0
100
AcDbSymbolTable
 70
     9
  0
BLOCK_RECORD
  5
1F
330
1
100
AcDbSymbolTableRecord
100
AcDbBlockTableRecord
  2
*Model_Space
340
22
 70
     0
280
     1
281
     0
  0
BLOCK_RECORD
  5
1B
330
1
100
AcDbSymbolTableRecord
100
AcDbBlockTableRecord
  2
*Paper_Space
340
1E
 70
     0
280
     1
281
     0
  0
BLOCK_RECORD
  5
23
330
1
100
AcDbSymbolTableRecord
100
AcDbBlockTableRecord
  2
*Paper_Space0
340
26
 70
     0
280
     1
281
     0
  0
BLOCK_RECORD
  5
5E
330
1
100
AcDbSymbolTableRecord
100
AcDbBlockTableRecord
  2
block 2
340
0
102
{BLKREFS
331
5F
102
}
 70
     0
280
     1
281
     0
  0
BLOCK_RECORD
  5
64
330
1
100
AcDbSymbolTableRecord
100
AcDbBlockTableRecord
  2
block 3
340
0
102
{BLKREFS
331
65
102
}
 70
     0
280
     1
281
     0
  0
BLOCK_RECORD
  5
79
330
1
100
AcDbSymbolTableRecord
100
AcDbBlockTableRecord
  2
block 4
340
0
102
{BLKREFS
331
7A
102
}
 70
     0
280
     1
281
     0
  0
BLOCK_RECORD
  5
88
330
1
100
AcDbSymbolTableRecord
100
AcDbBlockTableRecord
  2
block 5
340
0
102
{BLKREFS
331
89
102
}
 70
     0
280
     1
281
     0
  0
BLOCK_RECORD
  5
97
330
1
100
AcDbSymbolTableRecord
100
AcDbBlockTableRecord
  2
block 6
340
0
102
{BLKREFS
331
98
102
}
 70
     0
280
     1
281
     0
  0
BLOCK_RECORD
  5
AA
330
1
100
AcDbSymbolTableRecord
100
AcDbBlockTableRecord
  2
block 7
340
0
102
{BLKREFS
331
AB
102
}
 70
     0
280
     1
281
     0
  0
BLOCK_RECORD
  5
C1
330
1
100
AcDbSymbolTableRecord
100
AcDbBlockTableRecord
  2
block 8
340
0
102
{BLKREFS
331
C2
102
}
 70
     0
280
     1
281
     0
  0
BLOCK_RECORD
  5
CB
330
1
100
AcDbSymbolTableRecord
100
AcDbBlockTableRecord
  2
block 9
340
0
102
{BLKREFS
331
CC
102
}
 70
     0
280
     1
281
     0
  0
ENDTAB
  0
ENDSEC
  0
SECTION
  2
BLOCKS
  0
BLOCK
  5
20
330
1F
100
AcDbEntity
  8
0
100
AcDbBlockBegin
  2
*Model_Space
 70
     0
 10
0.0
 20
0.0
 30
0.0
  3
*Model_Space
  1

  0
ENDBLK
  5
21
330
1F
100
AcDbEntity
  8
0
100
AcDbBlockEnd
  0
BLOCK
  5
1C
330
1B
100
AcDbEntity
 67
     1
  8
0
100
AcDbBlockBegin
  2
*Paper_Space
 70
     0
 10
0.0
 20
0.0
 30
0.0
  3
*Paper_Space
  1

  0
ENDBLK
  5
1D
330
1B
100
AcDbEntity
 67
     1
  8
0
100
AcDbBlockEnd
  0
BLOCK
  5
24
330
23
100
AcDbEntity
  8
0
100
AcDbBlockBegin
  2
*Paper_Space0
 70
     0
 10
0.0
 20
0.0
 30
0.0
  3
*Paper_Space0
  1

  0
ENDBLK
  5
25
330
23
100
AcDbEntity
  8
0
100
AcDbBlockEnd
  0
BLOCK
  5
60
330
5E
100
AcDbEntity
  8
0
100
AcDbBlockBegin
  2
block 2
 70
     0
 10
0.0
 20
0.0
 30
0.0
  3
block 2
  1

  0
SPLINE
  5
62
330
5E
100
AcDbEntity
  8
_U+30EC_U+30A4_U+30E4_U+30FC 1
370
     0
100
AcDbSpline
210
0.0
220
0.0
230
1.0
 70
    11
 71
     3
 72
    26
 73
    22
 74
     0
 42
0.0000000001
 43
0.0000000001
 12
1.0
 22
0.0
 32
0.0
 13
1.0
 23
0.0
 33
0.0
 40
0.0
 40
0.0
 40
0.0
 40
0.0
 40
1.0
 40
1.0
 40
1.0
 40
2.0
 40
2.0
 40
2.0
 40
3.0
 40
3.0
 40
3.0
 40
4.0
 40
4.0
 40
4.0
 40
5.0
 40
5.0
 40
5.0
 40
6.0
 40
6.0
 40
6.0
 40
7.0
 40
7.0
 40
7.0
 40
7.0
 10
104.8015272090427
 20
-127.7803140956591
 30
0.0
 10
104.8015272090427
 20
-127.7803140956591
 30
0.0
 10
104.8015272090427
 20
-128.0173366650443
 30
0.0
 10
104.8015272090427
 20
-128.0173366650443
 30
0.0
 10
104.4925021440158
 20
-127.9918429584534
 30
0.0
 10
103.9743597830342
 20
-127.799262120828
 30
0.0
 10
103.4686197657995
 20
-127.393085363117
 30
0.0
 10
103.4686197657995
 20
-127.393085363117
 30
0.0
 10
103.4686197657995
 20
-128.2309325851298
 30
0.0
 10
103.4686197657995
 20
-128.2309325851298
 30
0.0
 10
103.4686197657995
 20
-128.2309325851298
 30
0.0
 10
103.2570909030052
 20
-128.2309325851298
 30
0.0
 10
103.2570909030052
 20
-128.2309325851298
 30
0.0
 10
103.2570909030052
 20
-128.2309325851298
 30
0.0
 10
103.2570909030052
 20
-127.1560627937318
 30
0.0
 10
103.2570909030052
 20
-127.1560627937318
 30
0.0
 10
103.2570909030052
 20
-127.1560627937318
 30
0.0
 10
103.4686197657995
 20
-127.1560627937318
 30
0.0
 10
103.4686197657995
 20
-127.1560627937318
 30
0.0
 10
103.7586968056576
 20
-127.4799017693453
 30
0.0
 10
104.350908719572
 20
-127.7465521599036
 30
0.0
 10
104.8015272090427
 20
-127.7803140956591
 30
0.0
  0
HATCH
  5
63
330
5E
100
AcDbEntity
  8
_U+30EC_U+30A4_U+30E4_U+30FC 1
 62
     7
420
 16777215
100
AcDbHatch
 10
0.0
 20
0.0
 30
0.0
210
0.0
220
0.0
230
1.0
  2
SOLID
 70
     1
 71
     0
 91
        1
 92
        1
 93
        1
 72
     4
 94
        3
 73
     0
 74
     1
 95
       26
 96
       22
 40
0.0
 40
0.0
 40
0.0
 40
0.0
 40
1.0
 40
1.0
 40
1.0
 40
2.0
 40
2.0
 40
2.0
 40
3.0
 40
3.0
 40
3.0
 40
4.0
 40
4.0
 40
4.0
 40
5.0
 40
5.0
 40
5.0
 40
6.0
 40
6.0
 40
6.0
 40
7.0
 40
7.0
 40
7.0
 40
7.0
 10
104.8015272090427
 20
-127.7803140956591
 10
104.8015272090427
 20
-127.7803140956591
 10
104.8015272090427
 20
-128.0173366650443
 10
104.8015272090427
 20
-128.0173366650443
 10
104.4925021440158
 20
-127.9918429584534
 10
103.9743597830342
 20
-127.799262120828
 10
103.4686197657995
 20
-127.393085363117
 10
103.4686197657995
 20
-127.393085363117
 10
103.4686197657995
 20
-128.2309325851298
 10
103.4686197657995
 20
-128.2309325851298
 10
103.4686197657995
 20
-128.2309325851298
 10
103.2570909030052
 20
-128.2309325851298
 10
103.2570909030052
 20
-128.2309325851298
 10
103.2570909030052
 20
-128.2309325851298
 10
103.2570909030052
 20
-127.1560627937318
 10
103.2570909030052
 20
-127.1560627937318
 10
103.2570909030052
 20
-127.1560627937318
 10
103.4686197657995
 20
-127.1560627937318
 10
103.4686197657995
 20
-127.1560627937318
 10
103.7586968056576
 20
-127.4799017693453
 10
104.350908719572
 20
-127.7465521599036
 10
104.8015272090427
 20
-127.7803140956591
 97
        0
 97
        0
 75
     2
 76
     1
 98
        0
  0
ENDBLK
  5
61
330
5E
100
AcDbEntity
  8
0
100
AcDbBlockEnd
  0
BLOCK
  5
66
330
64
100
AcDbEntity
  8
0
100
AcDbBlockBegin
  2
block 3
 70
     0
 10
0.0
 20
0.0
 30
0.0
  3
block 3
  1

  0
SPLINE
  5
68
330
64
100
AcDbEntity
  8
_U+30EC_U+30A4_U+30E4_U+30FC 1
370
     0
100
AcDbSpline
210
0.0
220
0.0
230
1.0
 70
    11
 71
     3
 72
    32
 73
    28
 74
     0
 42
0.0000000001
 43
0.0000000001
 12
1.0
 22
0.0
 32
0.0
 13
1.0
 23
0.0
 33
0.0
 40
0.0
 40
0.0
 40
0.0
 40
0.0
 40
1.0
 40
1.0
 40
1.0
 40
2.0
 40
2.0
 40
2.0
 40
3.0
 40
3.0
 40
3.0
 40
4.0
 40
4.0
 40
4.0
 40
5.0
 40
5.0
 40
5.0
 40
6.0
 40
6.0
 40
6.0
 40
7.0
 40
7.0
 40
7.0
 40
8.0
 40
8.0
 40
8.0
 40
9.0
 40
9.0
 40
9.0
 40
9.0
 10
84.83823240066545
 20
-126.1817897905032
 30
0.0
 10
84.83823240066545
 20
-126.6978650941936
 30
0.0
 10
84.28426104663727
 20
-126.7064778329067
 30
0.0
 10
84.07032061700326
 20
-126.7064778329067
 30
0.0
 10
83.83984372904004
 20
-126.7064778329067
 30
0.0
 10
83.1925102873616
 20
-126.6871852981893
 30
0.0
 10
83.1925102873616
 20
-126.1435492306169
 30
0.0
 10
83.1925102873616
 20
-125.9702609277088
 30
0.0
 10
83.26244572571217
 20
-125.7246256196105
 30
0.0
 10
83.59455293049025
 20
-125.6867295692728
 30
0.0
 10
83.59455293049025
 20
-125.6867295692728
 30
0.0
 10
83.59455293049025
 20
-125.9003254893583
 30
0.0
 10
83.59455293049025
 20
-125.9003254893583
 30
0.0
 10
83.53736434543511
 20
-125.9110052853625
 30
0.0
 10
83.38922523956937
 20
-125.9427001638268
 30
0.0
 10
83.38922523956937
 20
-126.145616287908
 30
0.0
 10
83.38922523956937
 20
-126.4377603850572
 30
0.0
 10
83.71719832976515
 20
-126.4777234926861
 30
0.0
 10
83.92218151113751
 20
-126.4904703459815
 30
0.0
 10
83.84397784362234
 20
-126.3974527678798
 30
0.0
 10
83.78472220127604
 20
-126.3295843868204
 30
0.0
 10
83.78472220127604
 20
-126.1476833451992
 30
0.0
 10
83.78472220127604
 20
-125.9678493608692
 30
0.0
 10
83.89289819951289
 20
-125.6653699772642
 30
0.0
 10
84.29907495722385
 20
-125.6653699772642
 30
0.0
 10
84.61843530870651
 20
-125.6653699772642
 30
0.0
 10
84.83823240066545
 20
-125.8644964963117
 30
0.0
 10
84.83823240066545
 20
-126.1817897905032
 30
0.0
  0
SPLINE
  5
69
330
64
100
AcDbEntity
  8
_U+30EC_U+30A4_U+30E4_U+30FC 1
370
     0
100
AcDbSpline
210
0.0
220
0.0
230
1.0
 70
    11
 71
     3
 72
    17
 73
    13
 74
     0
 42
0.0000000001
 43
0.0000000001
 12
1.0
 22
0.0
 32
0.0
 13
1.0
 23
0.0
 33
0.0
 40
0.0
 40
0.0
 40
0.0
 40
0.0
 40
1.0
 40
1.0
 40
1.0
 40
2.0
 40
2.0
 40
2.0
 40
3.0
 40
3.0
 40
3.0
 40
4.0
 40
4.0
 40
4.0
 40
4.0
 10
83.97937009619267
 20
-126.1649088226254
 30
0.0
 10
83.97937009619267
 20
-126.427080589053
 30
0.0
 10
84.190898958987
 20
-126.4649766393907
 30
0.0
 10
84.30734318638845
 20
-126.4649766393907
 30
0.0
 10
84.48304305613618
 20
-126.4649766393907
 30
0.0
 10
84.6459960725885
 20
-126.3698920039978
 30
0.0
 10
84.6459960725885
 20
-126.1859239050855
 30
0.0
 10
84.6459960725885
 20
-126.0653455631017
 30
0.0
 10
84.5867404302422
 20
-125.889645693354
 30
0.0
 10
84.301142014515
 20
-125.889645693354
 30
0.0
 10
84.07686629842523
 20
-125.889645693354
 30
0.0
 10
83.97937009619267
 20
-126.0291720605066
 30
0.0
 10
83.97937009619267
 20
-126.1649088226254
 30
0.0
  0
HATCH
  5
6A
330
64
100
AcDbEntity
  8
_U+30EC_U+30A4_U+30E4_U+30FC 1
 62
     7
420
 16777215
100
AcDbHatch
 10
0.0
 20
0.0
 30
0.0
210
0.0
220
0.0
230
1.0
  2
SOLID
 70
     1
 71
     0
 91
        2
 92
        1
 93
        1
 72
     4
 94
        3
 73
     0
 74
     1
 95
       32
 96
       28
 40
0.0
 40
0.0
 40
0.0
 40
0.0
 40
1.0
 40
1.0
 40
1.0
 40
2.0
 40
2.0
 40
2.0
 40
3.0
 40
3.0
 40
3.0
 40
4.0
 40
4.0
 40
4.0
 40
5.0
 40
5.0
 40
5.0
 40
6.0
 40
6.0
 40
6.0
 40
7.0
 40
7.0
 40
7.0
 40
8.0
 40
8.0
 40
8.0
 40
9.0
 40
9.0
 40
9.0
 40
9.0
 10
84.83823240066545
 20
-126.1817897905032
 10
84.83823240066545
 20
-126.6978650941936
 10
84.28426104663727
 20
-126.7064778329067
 10
84.07032061700326
 20
-126.7064778329067
 10
83.83984372904004
 20
-126.7064778329067
 10
83.1925102873616
 20
-126.6871852981893
 10
83.1925102873616
 20
-126.1435492306169
 10
83.1925102873616
 20
-125.9702609277088
 10
83.26244572571217
 20
-125.7246256196105
 10
83.59455293049025
 20
-125.6867295692728
 10
83.59455293049025
 20
-125.6867295692728
 10
83.59455293049025
 20
-125.9003254893583
 10
83.59455293049025
 20
-125.9003254893583
 10
83.53736434543511
 20
-125.9110052853625
 10
83.38922523956937
 20
-125.9427001638268
 10
83.38922523956937
 20
-126.145616287908
 10
83.38922523956937
 20
-126.4377603850572
 10
83.71719832976515
 20
-126.4777234926861
 10
83.92218151113751
 20
-126.4904703459815
 10
83.84397784362234
 20
-126.3974527678798
 10
83.78472220127604
 20
-126.3295843868204
 10
83.78472220127604
 20
-126.1476833451992
 10
83.78472220127604
 20
-125.9678493608692
 10
83.89289819951289
 20
-125.6653699772642
 10
84.29907495722385
 20
-125.6653699772642
 10
84.61843530870651
 20
-125.6653699772642
 10
84.83823240066545
 20
-125.8644964963117
 10
84.83823240066545
 20
-126.1817897905032
 97
        0
 97
        0
 92
        1
 93
        1
 72
     4
 94
        3
 73
     0
 74
     1
 95
       17
 96
       13
 40
0.0
 40
0.0
 40
0.0
 40
0.0
 40
1.0
 40
1.0
 40
1.0
 40
2.0
 40
2.0
 40
2.0
 40
3.0
 40
3.0
 40
3.0
 40
4.0
 40
4.0
 40
4.0
 40
4.0
 10
83.97937009619267
 20
-126.1649088226254
 10
83.97937009619267
 20
-126.427080589053
 10
84.190898958987
 20
-126.4649766393907
 10
84.30734318638845
 20
-126.4649766393907
 10
84.48304305613618
 20
-126.4649766393907
 10
84.6459960725885
 20
-126.3698920039978
 10
84.6459960725885
 20
-126.1859239050855
 10
84.6459960725885
 20
-126.0653455631017
 10
84.5867404302422
 20
-125.889645693354
 10
84.301142014515
 20
-125.889645693354
 10
84.07686629842523
 20
-125.889645693354
 10
83.97937009619267
 20
-126.0291720605066
 10
83.97937009619267
 20
-126.1649088226254
 97
        0
 97
        0
 75
     2
 76
     1
 98
        0
  0
ENDBLK
  5
67
330
64
100
AcDbEntity
  8
0
100
AcDbBlockEnd
  0
BLOCK
  5
7B
330
79
100
AcDbEntity
  8
0
100
AcDbBlockBegin
  2
block 4
 70
     0
 10
0.0
 20
0.0
 30
0.0
  3
block 4
  1

  0
SPLINE
  5
7D
330
79
100
AcDbEntity
  8
_U+30EC_U+30A4_U+30E4_U+30FC 1
370
     0
100
AcDbSpline
210
0.0
220
0.0
230
1.0
 70
    11
 71
     3
 72
    62
 73
    58
 74
     0
 42
0.0000000001
 43
0.0000000001
 12
1.0
 22
0.0
 32
0.0
 13
1.0
 23
0.0
 33
0.0
 40
0.0
 40
0.0
 40
0.0
 40
0.0
 40
1.0
 40
1.0
 40
1.0
 40
2.0
 40
2.0
 40
2.0
 40
3.0
 40
3.0
 40
3.0
 40
4.0
 40
4.0
 40
4.0
 40
5.0
 40
5.0
 40
5.0
 40
6.0
 40
6.0
 40
6.0
 40
7.0
 40
7.0
 40
7.0
 40
8.0
 40
8.0
 40
8.0
 40
9.0
 40
9.0
 40
9.0
 40
10.0
 40
10.0
 40
10.0
 40
11.0
 40
11.0
 40
11.0
 40
12.0
 40
12.0
 40
12.0
 40
13.0
 40
13.0
 40
13.0
 40
14.0
 40
14.0
 40
14.0
 40
15.0
 40
15.0
 40
15.0
 40
16.0
 40
16.0
 40
16.0
 40
17.0
 40
17.0
 40
17.0
 40
18.0
 40
18.0
 40
18.0
 40
19.0
 40
19.0
 40
19.0
 40
19.0
 10
94.41353079236885
 20
-120.8797878387037
 30
0.0
 10
94.31810164742743
 20
-120.8797878387037
 30
0.0
 10
94.10037161275963
 20
-120.8587727562437
 30
0.0
 10
93.97531464664506
 20
-120.6727376000402
 30
0.0
 10
93.90124509371219
 20
-120.560427487221
 30
0.0
 10
93.89711097912989
 20
-120.4612087372458
 30
0.0
 10
93.89297686454759
 20
-120.3764593883087
 30
0.0
 10
93.89297686454759
 20
-120.3764593883087
 30
0.0
 10
94.11311846605506
 20
-120.3764593883087
 30
0.0
 10
94.11311846605506
 20
-120.3764593883087
 30
0.0
 10
94.11518552334621
 20
-120.4505289412415
 30
0.0
 10
94.12552080980196
 20
-120.685139943787
 30
0.0
 10
94.40905216823802
 20
-120.685139943787
 30
0.0
 10
94.54651147809949
 20
-120.685139943787
 30
0.0
 10
94.69912920809605
 20
-120.615549014985
 30
0.0
 10
94.69912920809605
 20
-120.3871391843129
 30
0.0
 10
94.69912920809605
 20
-120.2706949569115
 30
0.0
 10
94.66088864820978
 20
-120.2221191105695
 30
0.0
 10
94.62919376974548
 20
-120.1904242321052
 30
0.0
 10
94.55512421681262
 20
-120.1163546791723
 30
0.0
 10
94.43867998941117
 20
-120.1036078258769
 30
0.0
 10
94.3839029711957
 20
-120.1036078258769
 30
0.0
 10
94.3646104364783
 20
-120.1036078258769
 30
0.0
 10
94.3287814434317
 20
-120.105674883168
 30
0.0
 10
94.3012206795497
 20
-120.1098089977503
 30
0.0
 10
94.3012206795497
 20
-120.1098089977503
 30
0.0
 10
94.3012206795497
 20
-119.9151611028337
 30
0.0
 10
94.3012206795497
 20
-119.9151611028337
 30
0.0
 10
94.33946123943598
 20
-119.9217067842557
 30
0.0
 10
94.38149140435603
 20
-119.9237738415468
 30
0.0
 10
94.388037085778
 20
-119.9237738415468
 30
0.0
 10
94.45349389999774
 20
-119.9237738415468
 30
0.0
 10
94.65227590949665
 20
-119.9024142495383
 30
0.0
 10
94.65227590949665
 20
-119.6657361897016
 30
0.0
 10
94.65227590949665
 20
-119.4879692626627
 30
0.0
 10
94.52136228105716
 20
-119.4328477348987
 30
0.0
 10
94.41111922552916
 20
-119.4328477348987
 30
0.0
 10
94.1468804018105
 20
-119.4328477348987
 30
0.0
 10
94.13826766309738
 20
-119.6657361897016
 30
0.0
 10
94.13413354851508
 20
-119.7373941757948
 30
0.0
 10
94.13413354851508
 20
-119.7373941757948
 30
0.0
 10
93.93087291488534
 20
-119.7373941757948
 30
0.0
 10
93.93087291488534
 20
-119.7373941757948
 30
0.0
 10
93.93948565359847
 20
-119.6126817192288
 30
0.0
 10
93.96704641748046
 20
-119.236132782691
 30
0.0
 10
94.42386607882459
 20
-119.236132782691
 30
0.0
 10
94.64814179491435
 20
-119.236132782691
 30
0.0
 10
94.88929847888184
 20
-119.3632568060967
 30
0.0
 10
94.88929847888184
 20
-119.6591905082797
 30
0.0
 10
94.88929847888184
 20
-119.8455701740317
 30
0.0
 10
94.79421384348895
 20
-119.9279079561291
 30
0.0
 10
94.69465058396523
 20
-119.9892306557666
 30
0.0
 10
94.75597328360267
 20
-120.0167914196486
 30
0.0
 10
94.93787432522387
 20
-120.0970621444549
 30
0.0
 10
94.93787432522387
 20
-120.3743923310175
 30
0.0
 10
94.93787432522387
 20
-120.7127007076691
 30
0.0
 10
94.69051646938293
 20
-120.8797878387037
 30
0.0
 10
94.41353079236885
 20
-120.8797878387037
 30
0.0
  0
HATCH
  5
7E
330
79
100
AcDbEntity
  8
_U+30EC_U+30A4_U+30E4_U+30FC 1
 62
     7
420
 16777215
100
AcDbHatch
 10
0.0
 20
0.0
 30
0.0
210
0.0
220
0.0
230
1.0
  2
SOLID
 70
     1
 71
     0
 91
        1
 92
        1
 93
        1
 72
     4
 94
        3
 73
     0
 74
     1
 95
       62
 96
       58
 40
0.0
 40
0.0
 40
0.0
 40
0.0
 40
1.0
 40
1.0
 40
1.0
 40
2.0
 40
2.0
 40
2.0
 40
3.0
 40
3.0
 40
3.0
 40
4.0
 40
4.0
 40
4.0
 40
5.0
 40
5.0
 40
5.0
 40
6.0
 40
6.0
 40
6.0
 40
7.0
 40
7.0
 40
7.0
 40
8.0
 40
8.0
 40
8.0
 40
9.0
 40
9.0
 40
9.0
 40
10.0
 40
10.0
 40
10.0
 40
11.0
 40
11.0
 40
11.0
 40
12.0
 40
12.0
 40
12.0
 40
13.0
 40
13.0
 40
13.0
 40
14.0
 40
14.0
 40
14.0
 40
15.0
 40
15.0
 40
15.0
 40
16.0
 40
16.0
 40
16.0
 40
17.0
 40
17.0
 40
17.0
 40
18.0
 40
18.0
 40
18.0
 40
19.0
 40
19.0
 40
19.0
 40
19.0
 10
94.41353079236885
 20
-120.8797878387037
 10
94.31810164742743
 20
-120.8797878387037
 10
94.10037161275963
 20
-120.8587727562437
 10
93.97531464664506
 20
-120.6727376000402
 10
93.90124509371219
 20
-120.560427487221
 10
93.89711097912989
 20
-120.4612087372458
 10
93.89297686454759
 20
-120.3764593883087
 10
93.89297686454759
 20
-120.3764593883087
 10
94.11311846605506
 20
-120.3764593883087
 10
94.11311846605506
 20
-120.3764593883087
 10
94.11518552334621
 20
-120.4505289412415
 10
94.12552080980196
 20
-120.685139943787
 10
94.40905216823802
 20
-120.685139943787
 10
94.54651147809949
 20
-120.685139943787
 10
94.69912920809605
 20
-120.615549014985
 10
94.69912920809605
 20
-120.3871391843129
 10
94.69912920809605
 20
-120.2706949569115
 10
94.66088864820978
 20
-120.2221191105695
 10
94.62919376974548
 20
-120.1904242321052
 10
94.55512421681262
 20
-120.1163546791723
 10
94.43867998941117
 20
-120.1036078258769
 10
94.3839029711957
 20
-120.1036078258769
 10
94.3646104364783
 20
-120.1036078258769
 10
94.3287814434317
 20
-120.105674883168
 10
94.3012206795497
 20
-120.1098089977503
 10
94.3012206795497
 20
-120.1098089977503
 10
94.3012206795497
 20
-119.9151611028337
 10
94.3012206795497
 20
-119.9151611028337
 10
94.33946123943598
 20
-119.9217067842557
 10
94.38149140435603
 20
-119.9237738415468
 10
94.388037085778
 20
-119.9237738415468
 10
94.45349389999774
 20
-119.9237738415468
 10
94.65227590949665
 20
-119.9024142495383
 10
94.65227590949665
 20
-119.6657361897016
 10
94.65227590949665
 20
-119.4879692626627
 10
94.52136228105716
 20
-119.4328477348987
 10
94.41111922552916
 20
-119.4328477348987
 10
94.1468804018105
 20
-119.4328477348987
 10
94.13826766309738
 20
-119.6657361897016
 10
94.13413354851508
 20
-119.7373941757948
 10
94.13413354851508
 20
-119.7373941757948
 10
93.93087291488534
 20
-119.7373941757948
 10
93.93087291488534
 20
-119.7373941757948
 10
93.93948565359847
 20
-119.6126817192288
 10
93.96704641748046
 20
-119.236132782691
 10
94.42386607882459
 20
-119.236132782691
 10
94.64814179491435
 20
-119.236132782691
 10
94.88929847888184
 20
-119.3632568060967
 10
94.88929847888184
 20
-119.6591905082797
 10
94.88929847888184
 20
-119.8455701740317
 10
94.79421384348895
 20
-119.9279079561291
 10
94.69465058396523
 20
-119.9892306557666
 10
94.75597328360267
 20
-120.0167914196486
 10
94.93787432522387
 20
-120.0970621444549
 10
94.93787432522387
 20
-120.3743923310175
 10
94.93787432522387
 20
-120.7127007076691
 10
94.69051646938293
 20
-120.8797878387037
 10
94.41353079236885
 20
-120.8797878387037
 97
        0
 97
        0
 75
     2
 76
     1
 98
        0
  0
ENDBLK
  5
7C
330
79
100
AcDbEntity
  8
0
100
AcDbBlockEnd
  0
BLOCK
  5
8A
330
88
100
AcDbEntity
  8
0
100
AcDbBlockBegin
  2
block 5
 70
     0
 10
0.0
 20
0.0
 30
0.0
  3
block 5
  1

  0
SPLINE
  5
8C
330
88
100
AcDbEntity
  8
_U+30EC_U+30A4_U+30E4_U+30FC 1
370
     0
100
AcDbSpline
210
0.0
220
0.0
230
1.0
 70
    11
 71
     3
 72
    62
 73
    58
 74
     0
 42
0.0000000001
 43
0.0000000001
 12
1.0
 22
0.0
 32
0.0
 13
1.0
 23
0.0
 33
0.0
 40
0.0
 40
0.0
 40
0.0
 40
0.0
 40
1.0
 40
1.0
 40
1.0
 40
2.0
 40
2.0
 40
2.0
 40
3.0
 40
3.0
 40
3.0
 40
4.0
 40
4.0
 40
4.0
 40
5.0
 40
5.0
 40
5.0
 40
6.0
 40
6.0
 40
6.0
 40
7.0
 40
7.0
 40
7.0
 40
8.0
 40
8.0
 40
8.0
 40
9.0
 40
9.0
 40
9.0
 40
10.0
 40
10.0
 40
10.0
 40
11.0
 40
11.0
 40
11.0
 40
12.0
 40
12.0
 40
12.0
 40
13.0
 40
13.0
 40
13.0
 40
14.0
 40
14.0
 40
14.0
 40
15.0
 40
15.0
 40
15.0
 40
16.0
 40
16.0
 40
16.0
 40
17.0
 40
17.0
 40
17.0
 40
18.0
 40
18.0
 40
18.0
 40
19.0
 40
19.0
 40
19.0
 40
19.0
 10
91.41354164381329
 20
-120.8797878387037
 30
0.0
 10
91.31811249887187
 20
-120.8797878387037
 30
0.0
 10
91.10038246420407
 20
-120.8587727562437
 30
0.0
 10
90.9753254980895
 20
-120.6727376000402
 30
0.0
 10
90.90125594515663
 20
-120.560427487221
 30
0.0
 10
90.89712183057433
 20
-120.4612087372458
 30
0.0
 10
90.89298771599204
 20
-120.3764593883087
 30
0.0
 10
90.89298771599204
 20
-120.3764593883087
 30
0.0
 10
91.1131293174995
 20
-120.3764593883087
 30
0.0
 10
91.1131293174995
 20
-120.3764593883087
 30
0.0
 10
91.11519637479066
 20
-120.4505289412415
 30
0.0
 10
91.1255316612464
 20
-120.685139943787
 30
0.0
 10
91.40906301968246
 20
-120.685139943787
 30
0.0
 10
91.54652232954393
 20
-120.685139943787
 30
0.0
 10
91.6991400595405
 20
-120.615549014985
 30
0.0
 10
91.6991400595405
 20
-120.3871391843129
 30
0.0
 10
91.6991400595405
 20
-120.2706949569115
 30
0.0
 10
91.66089949965422
 20
-120.2221191105695
 30
0.0
 10
91.62920462118993
 20
-120.1904242321052
 30
0.0
 10
91.55513506825706
 20
-120.1163546791723
 30
0.0
 10
91.43869084085561
 20
-120.1036078258769
 30
0.0
 10
91.38391382264014
 20
-120.1036078258769
 30
0.0
 10
91.36462128792274
 20
-120.1036078258769
 30
0.0
 10
91.32879229487614
 20
-120.105674883168
 30
0.0
 10
91.30123153099414
 20
-120.1098089977503
 30
0.0
 10
91.30123153099414
 20
-120.1098089977503
 30
0.0
 10
91.30123153099414
 20
-119.9151611028337
 30
0.0
 10
91.30123153099414
 20
-119.9151611028337
 30
0.0
 10
91.33947209088042
 20
-119.9217067842557
 30
0.0
 10
91.38150225580046
 20
-119.9237738415468
 30
0.0
 10
91.38804793722244
 20
-119.9237738415468
 30
0.0
 10
91.45350475144218
 20
-119.9237738415468
 30
0.0
 10
91.6522867609411
 20
-119.9024142495383
 30
0.0
 10
91.6522867609411
 20
-119.6657361897016
 30
0.0
 10
91.6522867609411
 20
-119.4879692626627
 30
0.0
 10
91.52137313250161
 20
-119.4328477348987
 30
0.0
 10
91.4111300769736
 20
-119.4328477348987
 30
0.0
 10
91.14689125325495
 20
-119.4328477348987
 30
0.0
 10
91.13827851454182
 20
-119.6657361897016
 30
0.0
 10
91.13414439995952
 20
-119.7373941757948
 30
0.0
 10
91.13414439995952
 20
-119.7373941757948
 30
0.0
 10
90.93088376632979
 20
-119.7373941757948
 30
0.0
 10
90.93088376632979
 20
-119.7373941757948
 30
0.0
 10
90.93949650504291
 20
-119.6126817192288
 30
0.0
 10
90.9670572689249
 20
-119.236132782691
 30
0.0
 10
91.42387693026903
 20
-119.236132782691
 30
0.0
 10
91.6481526463588
 20
-119.236132782691
 30
0.0
 10
91.88930933032628
 20
-119.3632568060967
 30
0.0
 10
91.88930933032628
 20
-119.6591905082797
 30
0.0
 10
91.88930933032628
 20
-119.8455701740317
 30
0.0
 10
91.79422469493339
 20
-119.9279079561291
 30
0.0
 10
91.69466143540967
 20
-119.9892306557666
 30
0.0
 10
91.75598413504711
 20
-120.0167914196486
 30
0.0
 10
91.93788517666832
 20
-120.0970621444549
 30
0.0
 10
91.93788517666832
 20
-120.3743923310175
 30
0.0
 10
91.93788517666832
 20
-120.7127007076691
 30
0.0
 10
91.69052732082737
 20
-120.8797878387037
 30
0.0
 10
91.41354164381329
 20
-120.8797878387037
 30
0.0
  0
HATCH
  5
8D
330
88
100
AcDbEntity
  8
_U+30EC_U+30A4_U+30E4_U+30FC 1
 62
     7
420
 16777215
100
AcDbHatch
 10
0.0
 20
0.0
 30
0.0
210
0.0
220
0.0
230
1.0
  2
SOLID
 70
     1
 71
     0
 91
        1
 92
        1
 93
        1
 72
     4
 94
        3
 73
     0
 74
     1
 95
       62
 96
       58
 40
0.0
 40
0.0
 40
0.0
 40
0.0
 40
1.0
 40
1.0
 40
1.0
 40
2.0
 40
2.0
 40
2.0
 40
3.0
 40
3.0
 40
3.0
 40
4.0
 40
4.0
 40
4.0
 40
5.0
 40
5.0
 40
5.0
 40
6.0
 40
6.0
 40
6.0
 40
7.0
 40
7.0
 40
7.0
 40
8.0
 40
8.0
 40
8.0
 40
9.0
 40
9.0
 40
9.0
 40
10.0
 40
10.0
 40
10.0
 40
11.0
 40
11.0
 40
11.0
 40
12.0
 40
12.0
 40
12.0
 40
13.0
 40
13.0
 40
13.0
 40
14.0
 40
14.0
 40
14.0
 40
15.0
 40
15.0
 40
15.0
 40
16.0
 40
16.0
 40
16.0
 40
17.0
 40
17.0
 40
17.0
 40
18.0
 40
18.0
 40
18.0
 40
19.0
 40
19.0
 40
19.0
 40
19.0
 10
91.41354164381329
 20
-120.8797878387037
 10
91.31811249887187
 20
-120.8797878387037
 10
91.10038246420407
 20
-120.8587727562437
 10
90.9753254980895
 20
-120.6727376000402
 10
90.90125594515663
 20
-120.560427487221
 10
90.89712183057433
 20
-120.4612087372458
 10
90.89298771599204
 20
-120.3764593883087
 10
90.89298771599204
 20
-120.3764593883087
 10
91.1131293174995
 20
-120.3764593883087
 10
91.1131293174995
 20
-120.3764593883087
 10
91.11519637479066
 20
-120.4505289412415
 10
91.1255316612464
 20
-120.685139943787
 10
91.40906301968246
 20
-120.685139943787
 10
91.54652232954393
 20
-120.685139943787
 10
91.6991400595405
 20
-120.615549014985
 10
91.6991400595405
 20
-120.3871391843129
 10
91.6991400595405
 20
-120.2706949569115
 10
91.66089949965422
 20
-120.2221191105695
 10
91.62920462118993
 20
-120.1904242321052
 10
91.55513506825706
 20
-120.1163546791723
 10
91.43869084085561
 20
-120.1036078258769
 10
91.38391382264014
 20
-120.1036078258769
 10
91.36462128792274
 20
-120.1036078258769
 10
91.32879229487614
 20
-120.105674883168
 10
91.30123153099414
 20
-120.1098089977503
 10
91.30123153099414
 20
-120.1098089977503
 10
91.30123153099414
 20
-119.9151611028337
 10
91.30123153099414
 20
-119.9151611028337
 10
91.33947209088042
 20
-119.9217067842557
 10
91.38150225580046
 20
-119.9237738415468
 10
91.38804793722244
 20
-119.9237738415468
 10
91.45350475144218
 20
-119.9237738415468
 10
91.6522867609411
 20
-119.9024142495383
 10
91.6522867609411
 20
-119.6657361897016
 10
91.6522867609411
 20
-119.4879692626627
 10
91.52137313250161
 20
-119.4328477348987
 10
91.4111300769736
 20
-119.4328477348987
 10
91.14689125325495
 20
-119.4328477348987
 10
91.13827851454182
 20
-119.6657361897016
 10
91.13414439995952
 20
-119.7373941757948
 10
91.13414439995952
 20
-119.7373941757948
 10
90.93088376632979
 20
-119.7373941757948
 10
90.93088376632979
 20
-119.7373941757948
 10
90.93949650504291
 20
-119.6126817192288
 10
90.9670572689249
 20
-119.236132782691
 10
91.42387693026903
 20
-119.236132782691
 10
91.6481526463588
 20
-119.236132782691
 10
91.88930933032628
 20
-119.3632568060967
 10
91.88930933032628
 20
-119.6591905082797
 10
91.88930933032628
 20
-119.8455701740317
 10
91.79422469493339
 20
-119.9279079561291
 10
91.69466143540967
 20
-119.9892306557666
 10
91.75598413504711
 20
-120.0167914196486
 10
91.93788517666832
 20
-120.0970621444549
 10
91.93788517666832
 20
-120.3743923310175
 10
91.93788517666832
 20
-120.7127007076691
 10
91.69052732082737
 20
-120.8797878387037
 10
91.41354164381329
 20
-120.8797878387037
 97
        0
 97
        0
 75
     2
 76
     1
 98
        0
  0
ENDBLK
  5
8B
330
88
100
AcDbEntity
  8
0
100
AcDbBlockEnd
  0
BLOCK
  5
99
330
97
100
AcDbEntity
  8
0
100
AcDbBlockBegin
  2
block 6
 70
     0
 10
0.0
 20
0.0
 30
0.0
  3
block 6
  1

  0
SPLINE
  5
9B
330
97
100
AcDbEntity
  8
_U+30EC_U+30A4_U+30E4_U+30FC 1
370
     0
100
AcDbSpline
210
0.0
220
0.0
230
1.0
 70
    11
 71
     3
 72
    62
 73
    58
 74
     0
 42
0.0000000001
 43
0.0000000001
 12
1.0
 22
0.0
 32
0.0
 13
1.0
 23
0.0
 33
0.0
 40
0.0
 40
0.0
 40
0.0
 40
0.0
 40
1.0
 40
1.0
 40
1.0
 40
2.0
 40
2.0
 40
2.0
 40
3.0
 40
3.0
 40
3.0
 40
4.0
 40
4.0
 40
4.0
 40
5.0
 40
5.0
 40
5.0
 40
6.0
 40
6.0
 40
6.0
 40
7.0
 40
7.0
 40
7.0
 40
8.0
 40
8.0
 40
8.0
 40
9.0
 40
9.0
 40
9.0
 40
10.0
 40
10.0
 40
10.0
 40
11.0
 40
11.0
 40
11.0
 40
12.0
 40
12.0
 40
12.0
 40
13.0
 40
13.0
 40
13.0
 40
14.0
 40
14.0
 40
14.0
 40
15.0
 40
15.0
 40
15.0
 40
16.0
 40
16.0
 40
16.0
 40
17.0
 40
17.0
 40
17.0
 40
18.0
 40
18.0
 40
18.0
 40
19.0
 40
19.0
 40
19.0
 40
19.0
 10
88.41355249525773
 20
-120.8797878387037
 30
0.0
 10
88.31812335031631
 20
-120.8797878387037
 30
0.0
 10
88.10039331564852
 20
-120.8587727562437
 30
0.0
 10
87.97533634953395
 20
-120.6727376000402
 30
0.0
 10
87.90126679660108
 20
-120.560427487221
 30
0.0
 10
87.89713268201878
 20
-120.4612087372458
 30
0.0
 10
87.89299856743648
 20
-120.3764593883087
 30
0.0
 10
87.89299856743648
 20
-120.3764593883087
 30
0.0
 10
88.11314016894394
 20
-120.3764593883087
 30
0.0
 10
88.11314016894394
 20
-120.3764593883087
 30
0.0
 10
88.11520722623509
 20
-120.4505289412415
 30
0.0
 10
88.12554251269084
 20
-120.685139943787
 30
0.0
 10
88.4090738711269
 20
-120.685139943787
 30
0.0
 10
88.54653318098838
 20
-120.685139943787
 30
0.0
 10
88.69915091098494
 20
-120.615549014985
 30
0.0
 10
88.69915091098494
 20
-120.3871391843129
 30
0.0
 10
88.69915091098494
 20
-120.2706949569115
 30
0.0
 10
88.66091035109866
 20
-120.2221191105695
 30
0.0
 10
88.62921547263437
 20
-120.1904242321052
 30
0.0
 10
88.5551459197015
 20
-120.1163546791723
 30
0.0
 10
88.43870169230006
 20
-120.1036078258769
 30
0.0
 10
88.38392467408458
 20
-120.1036078258769
 30
0.0
 10
88.36463213936717
 20
-120.1036078258769
 30
0.0
 10
88.32880314632058
 20
-120.105674883168
 30
0.0
 10
88.30124238243859
 20
-120.1098089977503
 30
0.0
 10
88.30124238243859
 20
-120.1098089977503
 30
0.0
 10
88.30124238243859
 20
-119.9151611028337
 30
0.0
 10
88.30124238243859
 20
-119.9151611028337
 30
0.0
 10
88.33948294232485
 20
-119.9217067842557
 30
0.0
 10
88.3815131072449
 20
-119.9237738415468
 30
0.0
 10
88.38805878866688
 20
-119.9237738415468
 30
0.0
 10
88.45351560288663
 20
-119.9237738415468
 30
0.0
 10
88.65229761238554
 20
-119.9024142495383
 30
0.0
 10
88.65229761238554
 20
-119.6657361897016
 30
0.0
 10
88.65229761238554
 20
-119.4879692626627
 30
0.0
 10
88.52138398394605
 20
-119.4328477348987
 30
0.0
 10
88.41114092841805
 20
-119.4328477348987
 30
0.0
 10
88.1469021046994
 20
-119.4328477348987
 30
0.0
 10
88.13828936598627
 20
-119.6657361897016
 30
0.0
 10
88.13415525140397
 20
-119.7373941757948
 30
0.0
 10
88.13415525140397
 20
-119.7373941757948
 30
0.0
 10
87.93089461777423
 20
-119.7373941757948
 30
0.0
 10
87.93089461777423
 20
-119.7373941757948
 30
0.0
 10
87.93950735648735
 20
-119.6126817192288
 30
0.0
 10
87.96706812036935
 20
-119.236132782691
 30
0.0
 10
88.42388778171347
 20
-119.236132782691
 30
0.0
 10
88.64816349780324
 20
-119.236132782691
 30
0.0
 10
88.88932018177073
 20
-119.3632568060967
 30
0.0
 10
88.88932018177073
 20
-119.6591905082797
 30
0.0
 10
88.88932018177073
 20
-119.8455701740317
 30
0.0
 10
88.79423554637783
 20
-119.9279079561291
 30
0.0
 10
88.69467228685411
 20
-119.9892306557666
 30
0.0
 10
88.75599498649156
 20
-120.0167914196486
 30
0.0
 10
88.93789602811275
 20
-120.0970621444549
 30
0.0
 10
88.93789602811275
 20
-120.3743923310175
 30
0.0
 10
88.93789602811275
 20
-120.7127007076691
 30
0.0
 10
88.69053817227181
 20
-120.8797878387037
 30
0.0
 10
88.41355249525773
 20
-120.8797878387037
 30
0.0
  0
HATCH
  5
9C
330
97
100
AcDbEntity
  8
_U+30EC_U+30A4_U+30E4_U+30FC 1
 62
     7
420
 16777215
100
AcDbHatch
 10
0.0
 20
0.0
 30
0.0
210
0.0
220
0.0
230
1.0
  2
SOLID
 70
     1
 71
     0
 91
        1
 92
        1
 93
        1
 72
     4
 94
        3
 73
     0
 74
     1
 95
       62
 96
       58
 40
0.0
 40
0.0
 40
0.0
 40
0.0
 40
1.0
 40
1.0
 40
1.0
 40
2.0
 40
2.0
 40
2.0
 40
3.0
 40
3.0
 40
3.0
 40
4.0
 40
4.0
 40
4.0
 40
5.0
 40
5.0
 40
5.0
 40
6.0
 40
6.0
 40
6.0
 40
7.0
 40
7.0
 40
7.0
 40
8.0
 40
8.0
 40
8.0
 40
9.0
 40
9.0
 40
9.0
 40
10.0
 40
10.0
 40
10.0
 40
11.0
 40
11.0
 40
11.0
 40
12.0
 40
12.0
 40
12.0
 40
13.0
 40
13.0
 40
13.0
 40
14.0
 40
14.0
 40
14.0
 40
15.0
 40
15.0
 40
15.0
 40
16.0
 40
16.0
 40
16.0
 40
17.0
 40
17.0
 40
17.0
 40
18.0
 40
18.0
 40
18.0
 40
19.0
 40
19.0
 40
19.0
 40
19.0
 10
88.41355249525773
 20
-120.8797878387037
 10
88.31812335031631
 20
-120.8797878387037
 10
88.10039331564852
 20
-120.8587727562437
 10
87.97533634953395
 20
-120.6727376000402
 10
87.90126679660108
 20
-120.560427487221
 10
87.89713268201878
 20
-120.4612087372458
 10
87.89299856743648
 20
-120.3764593883087
 10
87.89299856743648
 20
-120.3764593883087
 10
88.11314016894394
 20
-120.3764593883087
 10
88.11314016894394
 20
-120.3764593883087
 10
88.11520722623509
 20
-120.4505289412415
 10
88.12554251269084
 20
-120.685139943787
 10
88.4090738711269
 20
-120.685139943787
 10
88.54653318098838
 20
-120.685139943787
 10
88.69915091098494
 20
-120.615549014985
 10
88.69915091098494
 20
-120.3871391843129
 10
88.69915091098494
 20
-120.2706949569115
 10
88.66091035109866
 20
-120.2221191105695
 10
88.62921547263437
 20
-120.1904242321052
 10
88.5551459197015
 20
-120.1163546791723
 10
88.43870169230006
 20
-120.1036078258769
 10
88.38392467408458
 20
-120.1036078258769
 10
88.36463213936717
 20
-120.1036078258769
 10
88.32880314632058
 20
-120.105674883168
 10
88.30124238243859
 20
-120.1098089977503
 10
88.30124238243859
 20
-120.1098089977503
 10
88.30124238243859
 20
-119.9151611028337
 10
88.30124238243859
 20
-119.9151611028337
 10
88.33948294232485
 20
-119.9217067842557
 10
88.3815131072449
 20
-119.9237738415468
 10
88.38805878866688
 20
-119.9237738415468
 10
88.45351560288663
 20
-119.9237738415468
 10
88.65229761238554
 20
-119.9024142495383
 10
88.65229761238554
 20
-119.6657361897016
 10
88.65229761238554
 20
-119.4879692626627
 10
88.52138398394605
 20
-119.4328477348987
 10
88.41114092841805
 20
-119.4328477348987
 10
88.1469021046994
 20
-119.4328477348987
 10
88.13828936598627
 20
-119.6657361897016
 10
88.13415525140397
 20
-119.7373941757948
 10
88.13415525140397
 20
-119.7373941757948
 10
87.93089461777423
 20
-119.7373941757948
 10
87.93089461777423
 20
-119.7373941757948
 10
87.93950735648735
 20
-119.6126817192288
 10
87.96706812036935
 20
-119.236132782691
 10
88.42388778171347
 20
-119.236132782691
 10
88.64816349780324
 20
-119.236132782691
 10
88.88932018177073
 20
-119.3632568060967
 10
88.88932018177073
 20
-119.6591905082797
 10
88.88932018177073
 20
-119.8455701740317
 10
88.79423554637783
 20
-119.9279079561291
 10
88.69467228685411
 20
-119.9892306557666
 10
88.75599498649156
 20
-120.0167914196486
 10
88.93789602811275
 20
-120.0970621444549
 10
88.93789602811275
 20
-120.3743923310175
 10
88.93789602811275
 20
-120.7127007076691
 10
88.69053817227181
 20
-120.8797878387037
 10
88.41355249525773
 20
-120.8797878387037
 97
        0
 97
        0
 75
     2
 76
     1
 98
        0
  0
ENDBLK
  5
9A
330
97
100
AcDbEntity
  8
0
100
AcDbBlockEnd
  0
BLOCK
  5
AC
330
AA
100
AcDbEntity
  8
0
100
AcDbBlockBegin
  2
block 7
 70
     0
 10
0.0
 20
0.0
 30
0.0
  3
block 7
  1

  0
SPLINE
  5
AE
330
AA
100
AcDbEntity
  8
_U+30EC_U+30A4_U+30E4_U+30FC 1
370
     0
100
AcDbSpline
210
0.0
220
0.0
230
1.0
 70
    11
 71
     3
 72
    26
 73
    22
 74
     0
 42
0.0000000001
 43
0.0000000001
 12
1.0
 22
0.0
 32
0.0
 13
1.0
 23
0.0
 33
0.0
 40
0.0
 40
0.0
 40
0.0
 40
0.0
 40
1.0
 40
1.0
 40
1.0
 40
2.0
 40
2.0
 40
2.0
 40
3.0
 40
3.0
 40
3.0
 40
4.0
 40
4.0
 40
4.0
 40
5.0
 40
5.0
 40
5.0
 40
6.0
 40
6.0
 40
6.0
 40
7.0
 40
7.0
 40
7.0
 40
7.0
 10
97.11793074828996
 20
-137.7797037415967
 30
0.0
 10
97.11793074828996
 20
-137.7797037415967
 30
0.0
 10
97.11793074828996
 20
-136.6755506385742
 30
0.0
 10
97.11793074828996
 20
-136.6755506385742
 30
0.0
 10
97.11793074828996
 20
-136.6755506385742
 30
0.0
 10
96.78789060080304
 20
-136.6755506385742
 30
0.0
 10
96.78789060080304
 20
-136.6755506385742
 30
0.0
 10
96.78789060080304
 20
-136.6755506385742
 30
0.0
 10
96.78789060080304
 20
-136.5274115327084
 30
0.0
 10
96.78789060080304
 20
-136.5274115327084
 30
0.0
 10
97.11999780558112
 20
-136.5125976221219
 30
0.0
 10
97.16650659463198
 20
-136.3496446056695
 30
0.0
 10
97.19613441580513
 20
-136.2352674355593
 30
0.0
 10
97.19613441580513
 20
-136.2352674355593
 30
0.0
 10
97.34220646437973
 20
-136.2352674355593
 30
0.0
 10
97.34220646437973
 20
-136.2352674355593
 30
0.0
 10
97.34220646437973
 20
-136.2352674355593
 30
0.0
 10
97.34220646437973
 20
-137.7797037415967
 30
0.0
 10
97.34220646437973
 20
-137.7797037415967
 30
0.0
 10
97.34220646437973
 20
-137.7797037415967
 30
0.0
 10
97.11793074828996
 20
-137.7797037415967
 30
0.0
 10
97.11793074828996
 20
-137.7797037415967
 30
0.0
  0
HATCH
  5
AF
330
AA
100
AcDbEntity
  8
_U+30EC_U+30A4_U+30E4_U+30FC 1
 62
     7
420
 16777215
100
AcDbHatch
 10
0.0
 20
0.0
 30
0.0
210
0.0
220
0.0
230
1.0
  2
SOLID
 70
     1
 71
     0
 91
        1
 92
        1
 93
        1
 72
     4
 94
        3
 73
     0
 74
     1
 95
       26
 96
       22
 40
0.0
 40
0.0
 40
0.0
 40
0.0
 40
1.0
 40
1.0
 40
1.0
 40
2.0
 40
2.0
 40
2.0
 40
3.0
 40
3.0
 40
3.0
 40
4.0
 40
4.0
 40
4.0
 40
5.0
 40
5.0
 40
5.0
 40
6.0
 40
6.0
 40
6.0
 40
7.0
 40
7.0
 40
7.0
 40
7.0
 10
97.11793074828996
 20
-137.7797037415967
 10
97.11793074828996
 20
-137.7797037415967
 10
97.11793074828996
 20
-136.6755506385742
 10
97.11793074828996
 20
-136.6755506385742
 10
97.11793074828996
 20
-136.6755506385742
 10
96.78789060080304
 20
-136.6755506385742
 10
96.78789060080304
 20
-136.6755506385742
 10
96.78789060080304
 20
-136.6755506385742
 10
96.78789060080304
 20
-136.5274115327084
 10
96.78789060080304
 20
-136.5274115327084
 10
97.11999780558112
 20
-136.5125976221219
 10
97.16650659463198
 20
-136.3496446056695
 10
97.19613441580513
 20
-136.2352674355593
 10
97.19613441580513
 20
-136.2352674355593
 10
97.34220646437973
 20
-136.2352674355593
 10
97.34220646437973
 20
-136.2352674355593
 10
97.34220646437973
 20
-136.2352674355593
 10
97.34220646437973
 20
-137.7797037415967
 10
97.34220646437973
 20
-137.7797037415967
 10
97.34220646437973
 20
-137.7797037415967
 10
97.11793074828996
 20
-137.7797037415967
 10
97.11793074828996
 20
-137.7797037415967
 97
        0
 97
        0
 75
     2
 76
     1
 98
        0
  0
SPLINE
  5
B0
330
AA
100
AcDbEntity
  8
_U+30EC_U+30A4_U+30E4_U+30FC 1
370
     0
100
AcDbSpline
210
0.0
220
0.0
230
1.0
 70
    11
 71
     3
 72
    29
 73
    25
 74
     0
 42
0.0000000001
 43
0.0000000001
 12
1.0
 22
0.0
 32
0.0
 13
1.0
 23
0.0
 33
0.0
 40
0.0
 40
0.0
 40
0.0
 40
0.0
 40
1.0
 40
1.0
 40
1.0
 40
2.0
 40
2.0
 40
2.0
 40
3.0
 40
3.0
 40
3.0
 40
4.0
 40
4.0
 40
4.0
 40
5.0
 40
5.0
 40
5.0
 40
6.0
 40
6.0
 40
6.0
 40
7.0
 40
7.0
 40
7.0
 40
8.0
 40
8.0
 40
8.0
 40
8.0
 10
98.7412597409397
 20
-137.6019368145579
 30
0.0
 10
98.63308374270285
 20
-137.8113986200611
 30
0.0
 10
98.45979543979477
 20
-137.8303466452299
 30
0.0
 10
98.34335121239333
 20
-137.8303466452299
 30
0.0
 10
98.18246525323217
 20
-137.8303466452299
 30
0.0
 10
98.0408718287884
 20
-137.783837856179
 30
0.0
 10
97.9457871933955
 20
-137.6019368145579
 30
0.0
 10
97.84208981928948
 20
-137.4072889196412
 30
0.0
 10
97.8231417941206
 20
-137.1706108598046
 30
0.0
 10
97.8231417941206
 20
-137.0076578433523
 30
0.0
 10
97.8231417941206
 20
-136.8636528520688
 30
0.0
 10
97.84002276199833
 20
-136.6118163720971
 30
0.0
 10
97.9457871933955
 20
-136.4130343625981
 30
0.0
 10
98.05361868208382
 20
-136.2101182385169
 30
0.0
 10
98.21450464124499
 20
-136.1866915892172
 30
0.0
 10
98.34335121239333
 20
-136.1866915892172
 30
0.0
 10
98.50217011426335
 20
-136.1866915892172
 30
0.0
 10
98.64583059599826
 20
-136.2311333209769
 30
0.0
 10
98.7412597409397
 20
-136.4130343625981
 30
0.0
 10
98.84047849091489
 20
-136.6056152002236
 30
0.0
 10
98.86390514021458
 20
-136.8340250308957
 30
0.0
 10
98.86390514021458
 20
-137.0076578433523
 30
0.0
 10
98.86390514021458
 20
-137.1788790889692
 30
0.0
 10
98.84254554820603
 20
-137.4093559769324
 30
0.0
 10
98.7412597409397
 20
-137.6019368145579
 30
0.0
  0
SPLINE
  5
B1
330
AA
100
AcDbEntity
  8
_U+30EC_U+30A4_U+30E4_U+30FC 1
370
     0
100
AcDbSpline
210
0.0
220
0.0
230
1.0
 70
    11
 71
     3
 72
    17
 73
    13
 74
     0
 42
0.0000000001
 43
0.0000000001
 12
1.0
 22
0.0
 32
0.0
 13
1.0
 23
0.0
 33
0.0
 40
0.0
 40
0.0
 40
0.0
 40
0.0
 40
1.0
 40
1.0
 40
1.0
 40
2.0
 40
2.0
 40
2.0
 40
3.0
 40
3.0
 40
3.0
 40
4.0
 40
4.0
 40
4.0
 40
4.0
 10
98.34335121239333
 20
-136.3792724268427
 30
0.0
 10
98.09392629926124
 20
-136.3792724268427
 30
0.0
 10
98.04707300066185
 20
-136.6628037852788
 30
0.0
 10
98.04707300066185
 20
-137.0076578433523
 30
0.0
 10
98.04707300066185
 20
-137.3270181948349
 30
0.0
 10
98.08324650325697
 20
-137.6356987503133
 30
0.0
 10
98.34335121239333
 20
-137.6356987503133
 30
0.0
 10
98.5910535777828
 20
-137.6356987503133
 30
0.0
 10
98.63962942412482
 20
-137.3545789587169
 30
0.0
 10
98.63962942412482
 20
-137.0076578433523
 30
0.0
 10
98.63962942412482
 20
-136.6879529823211
 30
0.0
 10
98.60138886423854
 20
-136.3792724268427
 30
0.0
 10
98.34335121239333
 20
-136.3792724268427
 30
0.0
  0
HATCH
  5
B2
330
AA
100
AcDbEntity
  8
_U+30EC_U+30A4_U+30E4_U+30FC 1
 62
     7
420
 16777215
100
AcDbHatch
 10
0.0
 20
0.0
 30
0.0
210
0.0
220
0.0
230
1.0
  2
SOLID
 70
     1
 71
     0
 91
        2
 92
        1
 93
        1
 72
     4
 94
        3
 73
     0
 74
     1
 95
       29
 96
       25
 40
0.0
 40
0.0
 40
0.0
 40
0.0
 40
1.0
 40
1.0
 40
1.0
 40
2.0
 40
2.0
 40
2.0
 40
3.0
 40
3.0
 40
3.0
 40
4.0
 40
4.0
 40
4.0
 40
5.0
 40
5.0
 40
5.0
 40
6.0
 40
6.0
 40
6.0
 40
7.0
 40
7.0
 40
7.0
 40
8.0
 40
8.0
 40
8.0
 40
8.0
 10
98.7412597409397
 20
-137.6019368145579
 10
98.63308374270285
 20
-137.8113986200611
 10
98.45979543979477
 20
-137.8303466452299
 10
98.34335121239333
 20
-137.8303466452299
 10
98.18246525323217
 20
-137.8303466452299
 10
98.0408718287884
 20
-137.783837856179
 10
97.9457871933955
 20
-137.6019368145579
 10
97.84208981928948
 20
-137.4072889196412
 10
97.8231417941206
 20
-137.1706108598046
 10
97.8231417941206
 20
-137.0076578433523
 10
97.8231417941206
 20
-136.8636528520688
 10
97.84002276199833
 20
-136.6118163720971
 10
97.9457871933955
 20
-136.4130343625981
 10
98.05361868208382
 20
-136.2101182385169
 10
98.21450464124499
 20
-136.1866915892172
 10
98.34335121239333
 20
-136.1866915892172
 10
98.50217011426335
 20
-136.1866915892172
 10
98.64583059599826
 20
-136.2311333209769
 10
98.7412597409397
 20
-136.4130343625981
 10
98.84047849091489
 20
-136.6056152002236
 10
98.86390514021458
 20
-136.8340250308957
 10
98.86390514021458
 20
-137.0076578433523
 10
98.86390514021458
 20
-137.1788790889692
 10
98.84254554820603
 20
-137.4093559769324
 10
98.7412597409397
 20
-137.6019368145579
 97
        0
 97
        0
 92
        1
 93
        1
 72
     4
 94
        3
 73
     0
 74
     1
 95
       17
 96
       13
 40
0.0
 40
0.0
 40
0.0
 40
0.0
 40
1.0
 40
1.0
 40
1.0
 40
2.0
 40
2.0
 40
2.0
 40
3.0
 40
3.0
 40
3.0
 40
4.0
 40
4.0
 40
4.0
 40
4.0
 10
98.34335121239333
 20
-136.3792724268427
 10
98.09392629926124
 20
-136.3792724268427
 10
98.04707300066185
 20
-136.6628037852788
 10
98.04707300066185
 20
-137.0076578433523
 10
98.04707300066185
 20
-137.3270181948349
 10
98.08324650325697
 20
-137.6356987503133
 10
98.34335121239333
 20
-137.6356987503133
 10
98.5910535777828
 20
-137.6356987503133
 10
98.63962942412482
 20
-137.3545789587169
 10
98.63962942412482
 20
-137.0076578433523
 10
98.63962942412482
 20
-136.6879529823211
 10
98.60138886423854
 20
-136.3792724268427
 10
98.34335121239333
 20
-136.3792724268427
 97
        0
 97
        0
 75
     2
 76
     1
 98
        0
  0
ENDBLK
  5
AD
330
AA
100
AcDbEntity
  8
0
100
AcDbBlockEnd
  0
BLOCK
  5
C3
330
C1
100
AcDbEntity
  8
0
100
AcDbBlockBegin
  2
block 8
 70
     0
 10
0.0
 20
0.0
 30
0.0
  3
block 8
  1

  0
SPLINE
  5
C5
330
C1
100
AcDbEntity
  8
_U+30EC_U+30A4_U+30E4_U+30FC 1
370
     0
100
AcDbSpline
210
0.0
220
0.0
230
1.0
 70
    11
 71
     3
 72
    26
 73
    22
 74
     0
 42
0.0000000001
 43
0.0000000001
 12
1.0
 22
0.0
 32
0.0
 13
1.0
 23
0.0
 33
0.0
 40
0.0
 40
0.0
 40
0.0
 40
0.0
 40
1.0
 40
1.0
 40
1.0
 40
2.0
 40
2.0
 40
2.0
 40
3.0
 40
3.0
 40
3.0
 40
4.0
 40
4.0
 40
4.0
 40
5.0
 40
5.0
 40
5.0
 40
6.0
 40
6.0
 40
6.0
 40
7.0
 40
7.0
 40
7.0
 40
7.0
 10
81.61706812195685
 20
-137.7797037415967
 30
0.0
 10
81.61706812195685
 20
-137.7797037415967
 30
0.0
 10
81.61706812195685
 20
-136.6755506385742
 30
0.0
 10
81.61706812195685
 20
-136.6755506385742
 30
0.0
 10
81.61706812195685
 20
-136.6755506385742
 30
0.0
 10
81.28702797446991
 20
-136.6755506385742
 30
0.0
 10
81.28702797446991
 20
-136.6755506385742
 30
0.0
 10
81.28702797446991
 20
-136.6755506385742
 30
0.0
 10
81.28702797446991
 20
-136.5274115327084
 30
0.0
 10
81.28702797446991
 20
-136.5274115327084
 30
0.0
 10
81.61913517924799
 20
-136.5125976221219
 30
0.0
 10
81.66564396829887
 20
-136.3496446056695
 30
0.0
 10
81.69527178947202
 20
-136.2352674355593
 30
0.0
 10
81.69527178947202
 20
-136.2352674355593
 30
0.0
 10
81.84134383804661
 20
-136.2352674355593
 30
0.0
 10
81.84134383804661
 20
-136.2352674355593
 30
0.0
 10
81.84134383804661
 20
-136.2352674355593
 30
0.0
 10
81.84134383804661
 20
-137.7797037415967
 30
0.0
 10
81.84134383804661
 20
-137.7797037415967
 30
0.0
 10
81.84134383804661
 20
-137.7797037415967
 30
0.0
 10
81.61706812195685
 20
-137.7797037415967
 30
0.0
 10
81.61706812195685
 20
-137.7797037415967
 30
0.0
  0
HATCH
  5
C6
330
C1
100
AcDbEntity
  8
_U+30EC_U+30A4_U+30E4_U+30FC 1
 62
     7
420
 16777215
100
AcDbHatch
 10
0.0
 20
0.0
 30
0.0
210
0.0
220
0.0
230
1.0
  2
SOLID
 70
     1
 71
     0
 91
        1
 92
        1
 93
        1
 72
     4
 94
        3
 73
     0
 74
     1
 95
       26
 96
       22
 40
0.0
 40
0.0
 40
0.0
 40
0.0
 40
1.0
 40
1.0
 40
1.0
 40
2.0
 40
2.0
 40
2.0
 40
3.0
 40
3.0
 40
3.0
 40
4.0
 40
4.0
 40
4.0
 40
5.0
 40
5.0
 40
5.0
 40
6.0
 40
6.0
 40
6.0
 40
7.0
 40
7.0
 40
7.0
 40
7.0
 10
81.61706812195685
 20
-137.7797037415967
 10
81.61706812195685
 20
-137.7797037415967
 10
81.61706812195685
 20
-136.6755506385742
 10
81.61706812195685
 20
-136.6755506385742
 10
81.61706812195685
 20
-136.6755506385742
 10
81.28702797446991
 20
-136.6755506385742
 10
81.28702797446991
 20
-136.6755506385742
 10
81.28702797446991
 20
-136.6755506385742
 10
81.28702797446991
 20
-136.5274115327084
 10
81.28702797446991
 20
-136.5274115327084
 10
81.61913517924799
 20
-136.5125976221219
 10
81.66564396829887
 20
-136.3496446056695
 10
81.69527178947202
 20
-136.2352674355593
 10
81.69527178947202
 20
-136.2352674355593
 10
81.84134383804661
 20
-136.2352674355593
 10
81.84134383804661
 20
-136.2352674355593
 10
81.84134383804661
 20
-136.2352674355593
 10
81.84134383804661
 20
-137.7797037415967
 10
81.84134383804661
 20
-137.7797037415967
 10
81.84134383804661
 20
-137.7797037415967
 10
81.61706812195685
 20
-137.7797037415967
 10
81.61706812195685
 20
-137.7797037415967
 97
        0
 97
        0
 75
     2
 76
     1
 98
        0
  0
SPLINE
  5
C7
330
C1
100
AcDbEntity
  8
_U+30EC_U+30A4_U+30E4_U+30FC 1
370
     0
100
AcDbSpline
210
0.0
220
0.0
230
1.0
 70
    11
 71
     3
 72
    53
 73
    49
 74
     0
 42
0.0000000001
 43
0.0000000001
 12
1.0
 22
0.0
 32
0.0
 13
1.0
 23
0.0
 33
0.0
 40
0.0
 40
0.0
 40
0.0
 40
0.0
 40
1.0
 40
1.0
 40
1.0
 40
2.0
 40
2.0
 40
2.0
 40
3.0
 40
3.0
 40
3.0
 40
4.0
 40
4.0
 40
4.0
 40
5.0
 40
5.0
 40
5.0
 40
6.0
 40
6.0
 40
6.0
 40
7.0
 40
7.0
 40
7.0
 40
8.0
 40
8.0
 40
8.0
 40
9.0
 40
9.0
 40
9.0
 40
10.0
 40
10.0
 40
10.0
 40
11.0
 40
11.0
 40
11.0
 40
12.0
 40
12.0
 40
12.0
 40
13.0
 40
13.0
 40
13.0
 40
14.0
 40
14.0
 40
14.0
 40
15.0
 40
15.0
 40
15.0
 40
16.0
 40
16.0
 40
16.0
 40
16.0
 10
82.82354056089135
 20
-137.8303466452299
 30
0.0
 10
82.74533689337618
 20
-137.8303466452299
 30
0.0
 10
82.6437065765613
 20
-137.8134656773522
 30
0.0
 10
82.54207625974642
 20
-137.7500759204236
 30
0.0
 10
82.36878795683836
 20
-137.6401773744441
 30
0.0
 10
82.34742836482981
 20
-137.5089192364561
 30
0.0
 10
82.32848033966094
 20
-137.4010877477678
 30
0.0
 10
82.32848033966094
 20
-137.4010877477678
 30
0.0
 10
82.55068899845955
 20
-137.4010877477678
 30
0.0
 10
82.55068899845955
 20
-137.4010877477678
 30
0.0
 10
82.60546601667502
 20
-137.5998697572667
 30
0.0
 10
82.73259004008075
 20
-137.6294975784399
 30
0.0
 10
82.82560761818249
 20
-137.6294975784399
 30
0.0
 10
82.96513398533511
 20
-137.6294975784399
 30
0.0
 10
83.11740720578315
 20
-137.5299343189161
 30
0.0
 10
83.11740720578315
 20
-137.2973903736618
 30
0.0
 10
83.11740720578315
 20
-137.0414197791077
 30
0.0
 10
82.9375732214531
 20
-136.9714843407571
 30
0.0
 10
82.81699487946936
 20
-136.9714843407571
 30
0.0
 10
82.78530000100507
 20
-136.9714843407571
 30
0.0
 10
82.6437065765613
 20
-136.9714843407571
 30
0.0
 10
82.55482311304185
 20
-137.100675421454
 30
0.0
 10
82.55482311304185
 20
-137.100675421454
 30
0.0
 10
82.37912324329412
 20
-137.0817273962851
 30
0.0
 10
82.37912324329412
 20
-137.0817273962851
 30
0.0
 10
82.37912324329412
 20
-137.0817273962851
 30
0.0
 10
82.49970158527786
 20
-136.2352674355593
 30
0.0
 10
82.49970158527786
 20
-136.2352674355593
 30
0.0
 10
82.49970158527786
 20
-136.2352674355593
 30
0.0
 10
83.27829316494432
 20
-136.2352674355593
 30
0.0
 10
83.27829316494432
 20
-136.2352674355593
 30
0.0
 10
83.27829316494432
 20
-136.2352674355593
 30
0.0
 10
83.27829316494432
 20
-136.4299153304759
 30
0.0
 10
83.27829316494432
 20
-136.4299153304759
 30
0.0
 10
83.27829316494432
 20
-136.4299153304759
 30
0.0
 10
82.66265460173017
 20
-136.4299153304759
 30
0.0
 10
82.66265460173017
 20
-136.4299153304759
 30
0.0
 10
82.66265460173017
 20
-136.4299153304759
 30
0.0
 10
82.59719778751042
 20
-136.8529730560645
 30
0.0
 10
82.59719778751042
 20
-136.8529730560645
 30
0.0
 10
82.65852048714787
 20
-136.8192111203091
 30
0.0
 10
82.74085826924535
 20
-136.7789035031317
 30
0.0
 10
82.85936955393794
 20
-136.7789035031317
 30
0.0
 10
83.11327309120085
 20
-136.7789035031317
 30
0.0
 10
83.35029566058604
 20
-136.9652831688837
 30
0.0
 10
83.35029566058604
 20
-137.2784423484929
 30
0.0
 10
83.35029566058604
 20
-137.5957356426844
 30
0.0
 10
83.12601994449628
 20
-137.8303466452299
 30
0.0
 10
82.82354056089135
 20
-137.8303466452299
 30
0.0
  0
HATCH
  5
C8
330
C1
100
AcDbEntity
  8
_U+30EC_U+30A4_U+30E4_U+30FC 1
 62
     7
420
 16777215
100
AcDbHatch
 10
0.0
 20
0.0
 30
0.0
210
0.0
220
0.0
230
1.0
  2
SOLID
 70
     1
 71
     0
 91
        1
 92
        1
 93
        1
 72
     4
 94
        3
 73
     0
 74
     1
 95
       53
 96
       49
 40
0.0
 40
0.0
 40
0.0
 40
0.0
 40
1.0
 40
1.0
 40
1.0
 40
2.0
 40
2.0
 40
2.0
 40
3.0
 40
3.0
 40
3.0
 40
4.0
 40
4.0
 40
4.0
 40
5.0
 40
5.0
 40
5.0
 40
6.0
 40
6.0
 40
6.0
 40
7.0
 40
7.0
 40
7.0
 40
8.0
 40
8.0
 40
8.0
 40
9.0
 40
9.0
 40
9.0
 40
10.0
 40
10.0
 40
10.0
 40
11.0
 40
11.0
 40
11.0
 40
12.0
 40
12.0
 40
12.0
 40
13.0
 40
13.0
 40
13.0
 40
14.0
 40
14.0
 40
14.0
 40
15.0
 40
15.0
 40
15.0
 40
16.0
 40
16.0
 40
16.0
 40
16.0
 10
82.82354056089135
 20
-137.8303466452299
 10
82.74533689337618
 20
-137.8303466452299
 10
82.6437065765613
 20
-137.8134656773522
 10
82.54207625974642
 20
-137.7500759204236
 10
82.36878795683836
 20
-137.6401773744441
 10
82.34742836482981
 20
-137.5089192364561
 10
82.32848033966094
 20
-137.4010877477678
 10
82.32848033966094
 20
-137.4010877477678
 10
82.55068899845955
 20
-137.4010877477678
 10
82.55068899845955
 20
-137.4010877477678
 10
82.60546601667502
 20
-137.5998697572667
 10
82.73259004008075
 20
-137.6294975784399
 10
82.82560761818249
 20
-137.6294975784399
 10
82.96513398533511
 20
-137.6294975784399
 10
83.11740720578315
 20
-137.5299343189161
 10
83.11740720578315
 20
-137.2973903736618
 10
83.11740720578315
 20
-137.0414197791077
 10
82.9375732214531
 20
-136.9714843407571
 10
82.81699487946936
 20
-136.9714843407571
 10
82.78530000100507
 20
-136.9714843407571
 10
82.6437065765613
 20
-136.9714843407571
 10
82.55482311304185
 20
-137.100675421454
 10
82.55482311304185
 20
-137.100675421454
 10
82.37912324329412
 20
-137.0817273962851
 10
82.37912324329412
 20
-137.0817273962851
 10
82.37912324329412
 20
-137.0817273962851
 10
82.49970158527786
 20
-136.2352674355593
 10
82.49970158527786
 20
-136.2352674355593
 10
82.49970158527786
 20
-136.2352674355593
 10
83.27829316494432
 20
-136.2352674355593
 10
83.27829316494432
 20
-136.2352674355593
 10
83.27829316494432
 20
-136.2352674355593
 10
83.27829316494432
 20
-136.4299153304759
 10
83.27829316494432
 20
-136.4299153304759
 10
83.27829316494432
 20
-136.4299153304759
 10
82.66265460173017
 20
-136.4299153304759
 10
82.66265460173017
 20
-136.4299153304759
 10
82.66265460173017
 20
-136.4299153304759
 10
82.59719778751042
 20
-136.8529730560645
 10
82.59719778751042
 20
-136.8529730560645
 10
82.65852048714787
 20
-136.8192111203091
 10
82.74085826924535
 20
-136.7789035031317
 10
82.85936955393794
 20
-136.7789035031317
 10
83.11327309120085
 20
-136.7789035031317
 10
83.35029566058604
 20
-136.9652831688837
 10
83.35029566058604
 20
-137.2784423484929
 10
83.35029566058604
 20
-137.5957356426844
 10
83.12601994449628
 20
-137.8303466452299
 10
82.82354056089135
 20
-137.8303466452299
 97
        0
 97
        0
 75
     2
 76
     1
 98
        0
  0
ENDBLK
  5
C4
330
C1
100
AcDbEntity
  8
0
100
AcDbBlockEnd
  0
BLOCK
  5
CD
330
CB
100
AcDbEntity
  8
0
100
AcDbBlockBegin
  2
block 9
 70
     0
 10
0.0
 20
0.0
 30
0.0
  3
block 9
  1

  0
SPLINE
  5
CF
330
CB
100
AcDbEntity
  8
_U+30EC_U+30A4_U+30E4_U+30FC 1
370
     0
100
AcDbSpline
210
0.0
220
0.0
230
1.0
 70
    11
 71
     3
 72
    26
 73
    22
 74
     0
 42
0.0000000001
 43
0.0000000001
 12
1.0
 22
0.0
 32
0.0
 13
1.0
 23
0.0
 33
0.0
 40
0.0
 40
0.0
 40
0.0
 40
0.0
 40
1.0
 40
1.0
 40
1.0
 40
2.0
 40
2.0
 40
2.0
 40
3.0
 40
3.0
 40
3.0
 40
4.0
 40
4.0
 40
4.0
 40
5.0
 40
5.0
 40
5.0
 40
6.0
 40
6.0
 40
6.0
 40
7.0
 40
7.0
 40
7.0
 40
7.0
 10
95.3092556185338
 20
-127.316948752893
 30
0.0
 10
95.3092556185338
 20
-127.316948752893
 30
0.0
 10
95.3092556185338
 20
-126.2126233950962
 30
0.0
 10
95.3092556185338
 20
-126.2126233950962
 30
0.0
 10
95.3092556185338
 20
-126.2126233950962
 30
0.0
 10
94.97921547104687
 20
-126.2126233950962
 30
0.0
 10
94.97921547104687
 20
-126.2126233950962
 30
0.0
 10
94.97921547104687
 20
-126.2126233950962
 30
0.0
 10
94.97921547104687
 20
-126.0644842892304
 30
0.0
 10
94.97921547104687
 20
-126.0644842892304
 30
0.0
 10
95.31132267582495
 20
-126.0498426334181
 30
0.0
 10
95.35817597442436
 20
-125.8868896169658
 30
0.0
 10
95.38780379559749
 20
-125.7726847016298
 30
0.0
 10
95.38780379559749
 20
-125.7726847016298
 30
0.0
 10
95.53387584417209
 20
-125.7726847016298
 30
0.0
 10
95.53387584417209
 20
-125.7726847016298
 30
0.0
 10
95.53387584417209
 20
-125.7726847016298
 30
0.0
 10
95.53387584417209
 20
-127.316948752893
 30
0.0
 10
95.53387584417209
 20
-127.316948752893
 30
0.0
 10
95.53387584417209
 20
-127.316948752893
 30
0.0
 10
95.3092556185338
 20
-127.316948752893
 30
0.0
 10
95.3092556185338
 20
-127.316948752893
 30
0.0
  0
HATCH
  5
D0
330
CB
100
AcDbEntity
  8
_U+30EC_U+30A4_U+30E4_U+30FC 1
 62
   179
420
  2234388
100
AcDbHatch
 10
0.0
 20
0.0
 30
0.0
210
0.0
220
0.0
230
1.0
  2
SOLID
 70
     1
 71
     0
 91
        1
 92
        1
 93
        1
 72
     4
 94
        3
 73
     0
 74
     1
 95
       26
 96
       22
 40
0.0
 40
0.0
 40
0.0
 40
0.0
 40
1.0
 40
1.0
 40
1.0
 40
2.0
 40
2.0
 40
2.0
 40
3.0
 40
3.0
 40
3.0
 40
4.0
 40
4.0
 40
4.0
 40
5.0
 40
5.0
 40
5.0
 40
6.0
 40
6.0
 40
6.0
 40
7.0
 40
7.0
 40
7.0
 40
7.0
 10
95.3092556185338
 20
-127.316948752893
 10
95.3092556185338
 20
-127.316948752893
 10
95.3092556185338
 20
-126.2126233950962
 10
95.3092556185338
 20
-126.2126233950962
 10
95.3092556185338
 20
-126.2126233950962
 10
94.97921547104687
 20
-126.2126233950962
 10
94.97921547104687
 20
-126.2126233950962
 10
94.97921547104687
 20
-126.2126233950962
 10
94.97921547104687
 20
-126.0644842892304
 10
94.97921547104687
 20
-126.0644842892304
 10
95.31132267582495
 20
-126.0498426334181
 10
95.35817597442436
 20
-125.8868896169658
 10
95.38780379559749
 20
-125.7726847016298
 10
95.38780379559749
 20
-125.7726847016298
 10
95.53387584417209
 20
-125.7726847016298
 10
95.53387584417209
 20
-125.7726847016298
 10
95.53387584417209
 20
-125.7726847016298
 10
95.53387584417209
 20
-127.316948752893
 10
95.53387584417209
 20
-127.316948752893
 10
95.53387584417209
 20
-127.316948752893
 10
95.3092556185338
 20
-127.316948752893
 10
95.3092556185338
 20
-127.316948752893
 97
        0
 97
        0
 75
     2
 76
     1
 98
        0
  0
ENDBLK
  5
CE
330
CB
100
AcDbEntity
  8
0
100
AcDbBlockEnd
  0
ENDSEC
  0
SECTION
  2
ENTITIES
  0
SPLINE
  5
41
330
1F
100
AcDbEntity
  8
_U+30EC_U+30A4_U+30E4_U+30FC 1
 62
     7
420
 16777215
370
     9
100
AcDbSpline
210
0.0
220
0.0
230
1.0
 70
    11
 71
     3
 72
    17
 73
    13
 74
     0
 42
0.0000000001
 43
0.0000000001
 12
1.0
 22
0.0
 32
0.0
 13
1.0
 23
0.0
 33
0.0
 40
0.0
 40
0.0
 40
0.0
 40
0.0
 40
1.0
 40
1.0
 40
1.0
 40
2.0
 40
2.0
 40
2.0
 40
3.0
 40
3.0
 40
3.0
 40
4.0
 40
4.0
 40
4.0
 40
4.0
 10
103.0631432039735
 20
-135.3763907994892
 30
0.0
 10
103.0631432039735
 20
-135.3212869106143
 30
0.0
 10
103.0183404273387
 20
-135.2764841328476
 30
0.0
 10
102.9632365398557
 20
-135.2764841328476
 30
0.0
 10
102.9080999742732
 20
-135.2764841328476
 30
0.0
 10
102.8633298757378
 20
-135.3212869106143
 30
0.0
 10
102.8633298757378
 20
-135.3763907994892
 30
0.0
 10
102.8633298757378
 20
-135.4315299661423
 30
0.0
 10
102.9080999742732
 20
-135.4762974661308
 30
0.0
 10
102.9632365398557
 20
-135.4762974661308
 30
0.0
 10
103.0183404273387
 20
-135.4762974661308
 30
0.0
 10
103.0631432039735
 20
-135.4315299661423
 30
0.0
 10
103.0631432039735
 20
-135.3763907994892
 30
0.0
  0
SPLINE
  5
42
330
1F
100
AcDbEntity
  8
_U+30EC_U+30A4_U+30E4_U+30FC 1
 62
     7
420
 16777215
370
     9
100
AcDbSpline
210
0.0
220
0.0
230
1.0
 70
    11
 71
     3
 72
    17
 73
    13
 74
     0
 42
0.0000000001
 43
0.0000000001
 12
1.0
 22
0.0
 32
0.0
 13
1.0
 23
0.0
 33
0.0
 40
0.0
 40
0.0
 40
0.0
 40
0.0
 40
1.0
 40
1.0
 40
1.0
 40
2.0
 40
2.0
 40
2.0
 40
3.0
 40
3.0
 40
3.0
 40
4.0
 40
4.0
 40
4.0
 40
4.0
 10
105.3930666403186
 20
-124.1893135800637
 30
0.0
 10
105.3930666403186
 20
-124.2444527467168
 30
0.0
 10
105.4378314767235
 20
-124.2892202467053
 30
0.0
 10
105.4929706419834
 20
-124.2892202467053
 30
0.0
 10
105.5480745294665
 20
-124.2892202467053
 30
0.0
 10
105.5928773061013
 20
-124.2444527467168
 30
0.0
 10
105.5928773061013
 20
-124.1893135800637
 30
0.0
 10
105.5928773061013
 20
-124.1335041356333
 30
0.0
 10
105.5480745294665
 20
-124.0887366356444
 30
0.0
 10
105.4929706419834
 20
-124.0887366356444
 30
0.0
 10
105.4378314767235
 20
-124.0887366356444
 30
0.0
 10
105.3930666403186
 20
-124.1335041356333
 30
0.0
 10
105.3930666403186
 20
-124.1893135800637
 30
0.0
  0
POLYLINE
  5
43
330
1F
100
AcDbEntity
  8
_U+30EC_U+30A4_U+30E4_U+30FC 1
 62
     7
420
 16777215
370
     9
100
AcDb2dPolyline
 66
     1
 10
0.0
 20
0.0
 30
0.0
  0
VERTEX
  5
44
330
43
100
AcDbEntity
  8
_U+30EC_U+30A4_U+30E4_U+30FC 1
 62
     7
420
 16777215
370
     9
100
AcDbVertex
100
AcDb2dVertex
 10
105.4929706419834
 20
-124.1920652467298
 30
0.0
  0
VERTEX
  5
45
330
43
100
AcDbEntity
  8
_U+30EC_U+30A4_U+30E4_U+30FC 1
 62
     7
420
 16777215
370
     9
100
AcDbVertex
100
AcDb2dVertex
 10
105.4929706419834
 20
-131.1919877449796
 30
0.0
  0
SEQEND
  5
46
330
43
100
AcDbEntity
  8
_U+30EC_U+30A4_U+30E4_U+30FC 1
 62
     7
420
 16777215
370
     9
  0
POLYLINE
  5
47
330
1F
100
AcDbEntity
  8
_U+30EC_U+30A4_U+30E4_U+30FC 1
 62
     7
420
 16777215
370
     9
100
AcDb2dPolyline
 66
     1
 10
0.0
 20
0.0
 30
0.0
  0
VERTEX
  5
48
330
47
100
AcDbEntity
  8
_U+30EC_U+30A4_U+30E4_U+30FC 1
 62
     7
420
 16777215
370
     9
100
AcDbVertex
100
AcDb2dVertex
 10
97.39354584861698
 20
-124.1893135800637
 30
0.0
  0
VERTEX
  5
49
330
47
100
AcDbEntity
  8
_U+30EC_U+30A4_U+30E4_U+30FC 1
 62
     7
420
 16777215
370
     9
100
AcDbVertex
100
AcDb2dVertex
 10
106.4927075609225
 20
-124.1893135800637
 30
0.0
  0
SEQEND
  5
4A
330
47
100
AcDbEntity
  8
_U+30EC_U+30A4_U+30E4_U+30FC 1
 62
     7
420
 16777215
370
     9
  0
SPLINE
  5
4B
330
1F
100
AcDbEntity
  8
_U+30EC_U+30A4_U+30E4_U+30FC 1
 62
     7
420
 16777215
370
     9
100
AcDbSpline
210
0.0
220
0.0
230
1.0
 70
    11
 71
     3
 72
    17
 73
    13
 74
     0
 42
0.0000000001
 43
0.0000000001
 12
1.0
 22
0.0
 32
0.0
 13
1.0
 23
0.0
 33
0.0
 40
0.0
 40
0.0
 40
0.0
 40
0.0
 40
1.0
 40
1.0
 40
1.0
 40
2.0
 40
2.0
 40
2.0
 40
3.0
 40
3.0
 40
3.0
 40
4.0
 40
4.0
 40
4.0
 40
4.0
 10
85.3790992106866
 20
-129.1890213565914
 30
0.0
 10
85.3790992106866
 20
-129.2441252454669
 30
0.0
 10
85.42390198732136
 20
-129.2889280232336
 30
0.0
 10
85.47900587480443
 20
-129.2889280232336
 30
0.0
 10
85.53414720083863
 20
-129.2889280232336
 30
0.0
 10
85.57891253892227
 20
-129.2441252454669
 30
0.0
 10
85.57891253892227
 20
-129.1890213565914
 30
0.0
 10
85.57891253892227
 20
-129.1338821899389
 30
0.0
 10
85.53414720083863
 20
-129.0891146899497
 30
0.0
 10
85.47900587480443
 20
-129.0891146899497
 30
0.0
 10
85.42390198732136
 20
-129.0891146899497
 30
0.0
 10
85.3790992106866
 20
-129.1338821899389
 30
0.0
 10
85.3790992106866
 20
-129.1890213565914
 30
0.0
  0
SPLINE
  5
4C
330
1F
100
AcDbEntity
  8
_U+30EC_U+30A4_U+30E4_U+30FC 1
 62
     7
420
 16777215
370
     9
100
AcDbSpline
210
0.0
220
0.0
230
1.0
 70
    11
 71
     3
 72
    17
 73
    13
 74
     0
 42
0.0000000001
 43
0.0000000001
 12
1.0
 22
0.0
 32
0.0
 13
1.0
 23
0.0
 33
0.0
 40
0.0
 40
0.0
 40
0.0
 40
0.0
 40
1.0
 40
1.0
 40
1.0
 40
2.0
 40
2.0
 40
2.0
 40
3.0
 40
3.0
 40
3.0
 40
4.0
 40
4.0
 40
4.0
 40
4.0
 10
85.3790992106866
 20
-123.1892238580916
 30
0.0
 10
85.3790992106866
 20
-123.2443277469668
 30
0.0
 10
85.42390198732136
 20
-123.2891305247332
 30
0.0
 10
85.47900587480443
 20
-123.2891305247332
 30
0.0
 10
85.53414720083863
 20
-123.2891305247332
 30
0.0
 10
85.57891253892227
 20
-123.2443277469668
 30
0.0
 10
85.57891253892227
 20
-123.1892238580916
 30
0.0
 10
85.57891253892227
 20
-123.1340846914388
 30
0.0
 10
85.53414720083863
 20
-123.0893171914499
 30
0.0
 10
85.47900587480443
 20
-123.0893171914499
 30
0.0
 10
85.42390198732136
 20
-123.0893171914499
 30
0.0
 10
85.3790992106866
 20
-123.1340846914388
 30
0.0
 10
85.3790992106866
 20
-123.1892238580916
 30
0.0
  0
POLYLINE
  5
4D
330
1F
100
AcDbEntity
  8
_U+30EC_U+30A4_U+30E4_U+30FC 1
 62
     7
420
 16777215
370
     9
100
AcDb2dPolyline
 66
     1
 10
0.0
 20
0.0
 30
0.0
  0
VERTEX
  5
4E
330
4D
100
AcDbEntity
  8
_U+30EC_U+30A4_U+30E4_U+30FC 1
 62
     7
420
 16777215
370
     9
100
AcDbVertex
100
AcDb2dVertex
 10
85.47900587480443
 20
-123.1892238580916
 30
0.0
  0
VERTEX
  5
4F
330
4D
100
AcDbEntity
  8
_U+30EC_U+30A4_U+30E4_U+30FC 1
 62
     7
420
 16777215
370
     9
100
AcDbVertex
100
AcDb2dVertex
 10
85.47900587480443
 20
-129.1890213565914
 30
0.0
  0
SEQEND
  5
50
330
4D
100
AcDbEntity
  8
_U+30EC_U+30A4_U+30E4_U+30FC 1
 62
     7
420
 16777215
370
     9
  0
POLYLINE
  5
51
330
1F
100
AcDbEntity
  8
_U+30EC_U+30A4_U+30E4_U+30FC 1
 62
     7
420
 16777215
370
     9
100
AcDb2dPolyline
 66
     1
 10
0.0
 20
0.0
 30
0.0
  0
VERTEX
  5
52
330
51
100
AcDbEntity
  8
_U+30EC_U+30A4_U+30E4_U+30FC 1
 62
     7
420
 16777215
370
     9
100
AcDbVertex
100
AcDb2dVertex
 10
84.01899980094119
 20
-129.1890213565914
 30
0.0
  0
VERTEX
  5
53
330
51
100
AcDbEntity
  8
_U+30EC_U+30A4_U+30E4_U+30FC 1
 62
     7
420
 16777215
370
     9
100
AcDbVertex
100
AcDb2dVertex
 10
86.47877807152034
 20
-129.1890213565914
 30
0.0
  0
SEQEND
  5
54
330
51
100
AcDbEntity
  8
_U+30EC_U+30A4_U+30E4_U+30FC 1
 62
     7
420
 16777215
370
     9
  0
POLYLINE
  5
55
330
1F
100
AcDbEntity
  8
_U+30EC_U+30A4_U+30E4_U+30FC 1
 62
     7
420
 16777215
370
     9
100
AcDb2dPolyline
 66
     1
 10
0.0
 20
0.0
 30
0.0
  0
VERTEX
  5
56
330
55
100
AcDbEntity
  8
_U+30EC_U+30A4_U+30E4_U+30FC 1
 62
     7
420
 16777215
370
     9
100
AcDbVertex
100
AcDb2dVertex
 10
84.01899980094119
 20
-123.1892238580916
 30
0.0
  0
VERTEX
  5
57
330
55
100
AcDbEntity
  8
_U+30EC_U+30A4_U+30E4_U+30FC 1
 62
     7
420
 16777215
370
     9
100
AcDbVertex
100
AcDb2dVertex
 10
86.47877807152034
 20
-123.1892238580916
 30
0.0
  0
SEQEND
  5
58
330
55
100
AcDbEntity
  8
_U+30EC_U+30A4_U+30E4_U+30FC 1
 62
     7
420
 16777215
370
     9
  0
SPLINE
  5
59
330
1F
100
AcDbEntity
  8
_U+30EC_U+30A4_U+30E4_U+30FC 1
 62
     7
420
 16777215
370
     9
100
AcDbSpline
210
0.0
220
0.0
230
1.0
 70
    11
 71
     3
 72
    17
 73
    13
 74
     0
 42
0.0000000001
 43
0.0000000001
 12
1.0
 22
0.0
 32
0.0
 13
1.0
 23
0.0
 33
0.0
 40
0.0
 40
0.0
 40
0.0
 40
0.0
 40
1.0
 40
1.0
 40
1.0
 40
2.0
 40
2.0
 40
2.0
 40
3.0
 40
3.0
 40
3.0
 40
4.0
 40
4.0
 40
4.0
 40
4.0
 10
105.3930666403186
 20
-131.1919877449796
 30
0.0
 10
105.3930666403186
 20
-131.2471269116326
 30
0.0
 10
105.4378314767235
 20
-131.2918944116212
 30
0.0
 10
105.4929706419834
 20
-131.2918944116212
 30
0.0
 10
105.5480745294665
 20
-131.2918944116212
 30
0.0
 10
105.5928773061013
 20
-131.2471269116326
 30
0.0
 10
105.5928773061013
 20
-131.1919877449796
 30
0.0
 10
105.5928773061013
 20
-131.1368838561047
 30
0.0
 10
105.5480745294665
 20
-131.0920810783379
 30
0.0
 10
105.4929706419834
 20
-131.0920810783379
 30
0.0
 10
105.4378314767235
 20
-131.0920810783379
 30
0.0
 10
105.3930666403186
 20
-131.1368838561047
 30
0.0
 10
105.3930666403186
 20
-131.1919877449796
 30
0.0
  0
POLYLINE
  5
5A
330
1F
100
AcDbEntity
  8
_U+30EC_U+30A4_U+30E4_U+30FC 1
 62
     7
420
 16777215
370
     9
100
AcDb2dPolyline
 66
     1
 10
0.0
 20
0.0
 30
0.0
  0
VERTEX
  5
5B
330
5A
100
AcDbEntity
  8
_U+30EC_U+30A4_U+30E4_U+30FC 1
 62
     7
420
 16777215
370
     9
100
AcDbVertex
100
AcDb2dVertex
 10
99.49296162838975
 20
-131.1919877449796
 30
0.0
  0
VERTEX
  5
5C
330
5A
100
AcDbEntity
  8
_U+30EC_U+30A4_U+30E4_U+30FC 1
 62
     7
420
 16777215
370
     9
100
AcDbVertex
100
AcDb2dVertex
 10
106.4927075609225
 20
-131.1919877449796
 30
0.0
  0
SEQEND
  5
5D
330
5A
100
AcDbEntity
  8
_U+30EC_U+30A4_U+30E4_U+30FC 1
 62
     7
420
 16777215
370
     9
  0
INSERT
  5
5F
330
1F
100
AcDbEntity
  8
_U+30EC_U+30A4_U+30E4_U+30FC 1
100
AcDbBlockReference
  2
block 2
 10
0.0
 20
0.0
 30
0.0
  0
INSERT
  5
65
330
1F
100
AcDbEntity
  8
_U+30EC_U+30A4_U+30E4_U+30FC 1
100
AcDbBlockReference
  2
block 3
 10
0.0
 20
0.0
 30
0.0
  0
SPLINE
  5
6B
330
1F
100
AcDbEntity
  8
_U+30EC_U+30A4_U+30E4_U+30FC 1
 62
     7
420
 16777215
370
     9
100
AcDbSpline
210
0.0
220
0.0
230
1.0
 70
    11
 71
     3
 72
    17
 73
    13
 74
     0
 42
0.0000000001
 43
0.0000000001
 12
1.0
 22
0.0
 32
0.0
 13
1.0
 23
0.0
 33
0.0
 40
0.0
 40
0.0
 40
0.0
 40
0.0
 40
1.0
 40
1.0
 40
1.0
 40
2.0
 40
2.0
 40
2.0
 40
3.0
 40
3.0
 40
3.0
 40
4.0
 40
4.0
 40
4.0
 40
4.0
 10
92.96244540610822
 20
-121.3085302474508
 30
0.0
 10
92.90734151862515
 20
-121.3085302474508
 30
0.0
 10
92.86253874199038
 20
-121.3533330252172
 30
0.0
 10
92.86253874199038
 20
-121.4084369140925
 30
0.0
 10
92.86253874199038
 20
-121.4635760807452
 30
0.0
 10
92.90734151862515
 20
-121.5083435807341
 30
0.0
 10
92.96244540610822
 20
-121.5083435807341
 30
0.0
 10
93.01758457136816
 20
-121.5083435807341
 30
0.0
 10
93.06235207022604
 20
-121.4635760807452
 30
0.0
 10
93.06235207022604
 20
-121.4084369140925
 30
0.0
 10
93.06235207022604
 20
-121.3533330252172
 30
0.0
 10
93.01758457136816
 20
-121.3085302474508
 30
0.0
 10
92.96244540610822
 20
-121.3085302474508
 30
0.0
  0
POLYLINE
  5
6C
330
1F
100
AcDbEntity
  8
_U+30EC_U+30A4_U+30E4_U+30FC 1
 62
     7
420
 16777215
370
     9
100
AcDb2dPolyline
 66
     1
 10
0.0
 20
0.0
 30
0.0
  0
VERTEX
  5
6D
330
6C
100
AcDbEntity
  8
_U+30EC_U+30A4_U+30E4_U+30FC 1
 62
     7
420
 16777215
370
     9
100
AcDbVertex
100
AcDb2dVertex
 10
95.96416088508363
 20
-121.4084369140925
 30
0.0
  0
VERTEX
  5
6E
330
6C
100
AcDbEntity
  8
_U+30EC_U+30A4_U+30E4_U+30FC 1
 62
     7
420
 16777215
370
     9
100
AcDbVertex
100
AcDb2dVertex
 10
92.96244540610822
 20
-121.4084369140925
 30
0.0
  0
SEQEND
  5
6F
330
6C
100
AcDbEntity
  8
_U+30EC_U+30A4_U+30E4_U+30FC 1
 62
     7
420
 16777215
370
     9
  0
POLYLINE
  5
70
330
1F
100
AcDbEntity
  8
_U+30EC_U+30A4_U+30E4_U+30FC 1
 62
     7
420
 16777215
370
     9
100
AcDb2dPolyline
 66
     1
 10
0.0
 20
0.0
 30
0.0
  0
VERTEX
  5
71
330
70
100
AcDbEntity
  8
_U+30EC_U+30A4_U+30E4_U+30FC 1
 62
     7
420
 16777215
370
     9
100
AcDbVertex
100
AcDb2dVertex
 10
92.96244540610822
 20
-119.9483955255684
 30
0.0
  0
VERTEX
  5
72
330
70
100
AcDbEntity
  8
_U+30EC_U+30A4_U+30E4_U+30FC 1
 62
     7
420
 16777215
370
     9
100
AcDbVertex
100
AcDb2dVertex
 10
92.96244540610822
 20
-122.4082091360647
 30
0.0
  0
SEQEND
  5
73
330
70
100
AcDbEntity
  8
_U+30EC_U+30A4_U+30E4_U+30FC 1
 62
     7
420
 16777215
370
     9
  0
SPLINE
  5
74
330
1F
100
AcDbEntity
  8
_U+30EC_U+30A4_U+30E4_U+30FC 1
 62
     7
420
 16777215
370
     9
100
AcDbSpline
210
0.0
220
0.0
230
1.0
 70
    11
 71
     3
 72
    17
 73
    13
 74
     0
 42
0.0000000001
 43
0.0000000001
 12
1.0
 22
0.0
 32
0.0
 13
1.0
 23
0.0
 33
0.0
 40
0.0
 40
0.0
 40
0.0
 40
0.0
 40
1.0
 40
1.0
 40
1.0
 40
2.0
 40
2.0
 40
2.0
 40
3.0
 40
3.0
 40
3.0
 40
4.0
 40
4.0
 40
4.0
 40
4.0
 10
95.96416088508363
 20
-121.3085302474508
 30
0.0
 10
95.90905699760056
 20
-121.3085302474508
 30
0.0
 10
95.86425422096579
 20
-121.3533330252172
 30
0.0
 10
95.86425422096579
 20
-121.4084369140925
 30
0.0
 10
95.86425422096579
 20
-121.4635760807452
 30
0.0
 10
95.90905699760056
 20
-121.5083435807341
 30
0.0
 10
95.96416088508363
 20
-121.5083435807341
 30
0.0
 10
96.01930005034357
 20
-121.5083435807341
 30
0.0
 10
96.06406754920145
 20
-121.4635760807452
 30
0.0
 10
96.06406754920145
 20
-121.4084369140925
 30
0.0
 10
96.06406754920145
 20
-121.3533330252172
 30
0.0
 10
96.01930005034357
 20
-121.3085302474508
 30
0.0
 10
95.96416088508363
 20
-121.3085302474508
 30
0.0
  0
POLYLINE
  5
75
330
1F
100
AcDbEntity
  8
_U+30EC_U+30A4_U+30E4_U+30FC 1
 62
     7
420
 16777215
370
     9
100
AcDb2dPolyline
 66
     1
 10
0.0
 20
0.0
 30
0.0
  0
VERTEX
  5
76
330
75
100
AcDbEntity
  8
_U+30EC_U+30A4_U+30E4_U+30FC 1
 62
     7
420
 16777215
370
     9
100
AcDbVertex
100
AcDb2dVertex
 10
95.96416088508363
 20
-119.9483955255684
 30
0.0
  0
VERTEX
  5
77
330
75
100
AcDbEntity
  8
_U+30EC_U+30A4_U+30E4_U+30FC 1
 62
     7
420
 16777215
370
     9
100
AcDbVertex
100
AcDb2dVertex
 10
95.96416088508363
 20
-122.4082091360647
 30
0.0
  0
SEQEND
  5
78
330
75
100
AcDbEntity
  8
_U+30EC_U+30A4_U+30E4_U+30FC 1
 62
     7
420
 16777215
370
     9
  0
INSERT
  5
7A
330
1F
100
AcDbEntity
  8
_U+30EC_U+30A4_U+30E4_U+30FC 1
100
AcDbBlockReference
  2
block 4
 10
0.0
 20
0.0
 30
0.0
  0
SPLINE
  5
7F
330
1F
100
AcDbEntity
  8
_U+30EC_U+30A4_U+30E4_U+30FC 1
 62
     7
420
 16777215
370
     9
100
AcDbSpline
210
0.0
220
0.0
230
1.0
 70
    11
 71
     3
 72
    17
 73
    13
 74
     0
 42
0.0000000001
 43
0.0000000001
 12
1.0
 22
0.0
 32
0.0
 13
1.0
 23
0.0
 33
0.0
 40
0.0
 40
0.0
 40
0.0
 40
0.0
 40
1.0
 40
1.0
 40
1.0
 40
2.0
 40
2.0
 40
2.0
 40
3.0
 40
3.0
 40
3.0
 40
4.0
 40
4.0
 40
4.0
 40
4.0
 10
89.96245853819981
 20
-121.3085302474508
 30
0.0
 10
89.90735465071674
 20
-121.3085302474508
 30
0.0
 10
89.86255187408197
 20
-121.3533330252172
 30
0.0
 10
89.86255187408197
 20
-121.4084369140925
 30
0.0
 10
89.86255187408197
 20
-121.4635760807452
 30
0.0
 10
89.90735465071674
 20
-121.5083435807341
 30
0.0
 10
89.96245853819981
 20
-121.5083435807341
 30
0.0
 10
90.0175999774955
 20
-121.5083435807341
 30
0.0
 10
90.06236520231764
 20
-121.4635760807452
 30
0.0
 10
90.06236520231764
 20
-121.4084369140925
 30
0.0
 10
90.06236520231764
 20
-121.3533330252172
 30
0.0
 10
90.0175999774955
 20
-121.3085302474508
 30
0.0
 10
89.96245853819981
 20
-121.3085302474508
 30
0.0
  0
POLYLINE
  5
80
330
1F
100
AcDbEntity
  8
_U+30EC_U+30A4_U+30E4_U+30FC 1
 62
     7
420
 16777215
370
     9
100
AcDb2dPolyline
 66
     1
 10
0.0
 20
0.0
 30
0.0
  0
VERTEX
  5
81
330
80
100
AcDbEntity
  8
_U+30EC_U+30A4_U+30E4_U+30FC 1
 62
     7
420
 16777215
370
     9
100
AcDbVertex
100
AcDb2dVertex
 10
92.96417401717522
 20
-121.4084369140925
 30
0.0
  0
VERTEX
  5
82
330
80
100
AcDbEntity
  8
_U+30EC_U+30A4_U+30E4_U+30FC 1
 62
     7
420
 16777215
370
     9
100
AcDbVertex
100
AcDb2dVertex
 10
89.96245853819981
 20
-121.4084369140925
 30
0.0
  0
SEQEND
  5
83
330
80
100
AcDbEntity
  8
_U+30EC_U+30A4_U+30E4_U+30FC 1
 62
     7
420
 16777215
370
     9
  0
POLYLINE
  5
84
330
1F
100
AcDbEntity
  8
_U+30EC_U+30A4_U+30E4_U+30FC 1
 62
     7
420
 16777215
370
     9
100
AcDb2dPolyline
 66
     1
 10
0.0
 20
0.0
 30
0.0
  0
VERTEX
  5
85
330
84
100
AcDbEntity
  8
_U+30EC_U+30A4_U+30E4_U+30FC 1
 62
     7
420
 16777215
370
     9
100
AcDbVertex
100
AcDb2dVertex
 10
89.96245853819981
 20
-119.9483955255684
 30
0.0
  0
VERTEX
  5
86
330
84
100
AcDbEntity
  8
_U+30EC_U+30A4_U+30E4_U+30FC 1
 62
     7
420
 16777215
370
     9
100
AcDbVertex
100
AcDb2dVertex
 10
89.96245853819981
 20
-122.4082091360647
 30
0.0
  0
SEQEND
  5
87
330
84
100
AcDbEntity
  8
_U+30EC_U+30A4_U+30E4_U+30FC 1
 62
     7
420
 16777215
370
     9
  0
INSERT
  5
89
330
1F
100
AcDbEntity
  8
_U+30EC_U+30A4_U+30E4_U+30FC 1
100
AcDbBlockReference
  2
block 5
 10
0.0
 20
0.0
 30
0.0
  0
SPLINE
  5
8E
330
1F
100
AcDbEntity
  8
_U+30EC_U+30A4_U+30E4_U+30FC 1
 62
     7
420
 16777215
370
     9
100
AcDbSpline
210
0.0
220
0.0
230
1.0
 70
    11
 71
     3
 72
    17
 73
    13
 74
     0
 42
0.0000000001
 43
0.0000000001
 12
1.0
 22
0.0
 32
0.0
 13
1.0
 23
0.0
 33
0.0
 40
0.0
 40
0.0
 40
0.0
 40
0.0
 40
1.0
 40
1.0
 40
1.0
 40
2.0
 40
2.0
 40
2.0
 40
3.0
 40
3.0
 40
3.0
 40
4.0
 40
4.0
 40
4.0
 40
4.0
 10
86.96247167029141
 20
-121.3085302474508
 30
0.0
 10
86.90736778280834
 20
-121.3085302474508
 30
0.0
 10
86.86256500617357
 20
-121.3533330252172
 30
0.0
 10
86.86256500617357
 20
-121.4084369140925
 30
0.0
 10
86.86256500617357
 20
-121.4635760807452
 30
0.0
 10
86.90736778280834
 20
-121.5083435807341
 30
0.0
 10
86.96247167029141
 20
-121.5083435807341
 30
0.0
 10
87.01761083555135
 20
-121.5083435807341
 30
0.0
 10
87.06238053379002
 20
-121.4635760807452
 30
0.0
 10
87.06238053379002
 20
-121.4084369140925
 30
0.0
 10
87.06238053379002
 20
-121.3533330252172
 30
0.0
 10
87.01761083555135
 20
-121.3085302474508
 30
0.0
 10
86.96247167029141
 20
-121.3085302474508
 30
0.0
  0
POLYLINE
  5
8F
330
1F
100
AcDbEntity
  8
_U+30EC_U+30A4_U+30E4_U+30FC 1
 62
     7
420
 16777215
370
     9
100
AcDb2dPolyline
 66
     1
 10
0.0
 20
0.0
 30
0.0
  0
VERTEX
  5
90
330
8F
100
AcDbEntity
  8
_U+30EC_U+30A4_U+30E4_U+30FC 1
 62
     7
420
 16777215
370
     9
100
AcDbVertex
100
AcDb2dVertex
 10
89.96418714926682
 20
-121.4084369140925
 30
0.0
  0
VERTEX
  5
91
330
8F
100
AcDbEntity
  8
_U+30EC_U+30A4_U+30E4_U+30FC 1
 62
     7
420
 16777215
370
     9
100
AcDbVertex
100
AcDb2dVertex
 10
86.96247167029141
 20
-121.4084369140925
 30
0.0
  0
SEQEND
  5
92
330
8F
100
AcDbEntity
  8
_U+30EC_U+30A4_U+30E4_U+30FC 1
 62
     7
420
 16777215
370
     9
  0
POLYLINE
  5
93
330
1F
100
AcDbEntity
  8
_U+30EC_U+30A4_U+30E4_U+30FC 1
 62
     7
420
 16777215
370
     9
100
AcDb2dPolyline
 66
     1
 10
0.0
 20
0.0
 30
0.0
  0
VERTEX
  5
94
330
93
100
AcDbEntity
  8
_U+30EC_U+30A4_U+30E4_U+30FC 1
 62
     7
420
 16777215
370
     9
100
AcDbVertex
100
AcDb2dVertex
 10
86.96247167029141
 20
-119.9483955255684
 30
0.0
  0
VERTEX
  5
95
330
93
100
AcDbEntity
  8
_U+30EC_U+30A4_U+30E4_U+30FC 1
 62
     7
420
 16777215
370
     9
100
AcDbVertex
100
AcDb2dVertex
 10
86.96247167029141
 20
-122.4082091360647
 30
0.0
  0
SEQEND
  5
96
330
93
100
AcDbEntity
  8
_U+30EC_U+30A4_U+30E4_U+30FC 1
 62
     7
420
 16777215
370
     9
  0
INSERT
  5
98
330
1F
100
AcDbEntity
  8
_U+30EC_U+30A4_U+30E4_U+30FC 1
100
AcDbBlockReference
  2
block 6
 10
0.0
 20
0.0
 30
0.0
  0
POLYLINE
  5
9D
330
1F
100
AcDbEntity
  8
_U+30EC_U+30A4_U+30E4_U+30FC 1
 62
     7
420
 16777215
370
     9
100
AcDb2dPolyline
 66
     1
 10
0.0
 20
0.0
 30
0.0
  0
VERTEX
  5
9E
330
9D
100
AcDbEntity
  8
_U+30EC_U+30A4_U+30E4_U+30FC 1
 62
     7
420
 16777215
370
     9
100
AcDbVertex
100
AcDb2dVertex
 10
92.96315096164577
 20
-135.3763907994892
 30
0.0
  0
VERTEX
  5
9F
330
9D
100
AcDbEntity
  8
_U+30EC_U+30A4_U+30E4_U+30FC 1
 62
     7
420
 16777215
370
     9
100
AcDbVertex
100
AcDb2dVertex
 10
102.9632365398557
 20
-135.3763907994892
 30
0.0
  0
SEQEND
  5
A0
330
9D
100
AcDbEntity
  8
_U+30EC_U+30A4_U+30E4_U+30FC 1
 62
     7
420
 16777215
370
     9
  0
POLYLINE
  5
A1
330
1F
100
AcDbEntity
  8
_U+30EC_U+30A4_U+30E4_U+30FC 1
 62
     7
420
 16777215
370
     9
100
AcDb2dPolyline
 66
     1
 10
0.0
 20
0.0
 30
0.0
  0
VERTEX
  5
A2
330
A1
100
AcDbEntity
  8
_U+30EC_U+30A4_U+30E4_U+30FC 1
 62
     7
420
 16777215
370
     9
100
AcDbVertex
100
AcDb2dVertex
 10
102.9632365398557
 20
-133.916384688743
 30
0.0
  0
VERTEX
  5
A3
330
A1
100
AcDbEntity
  8
_U+30EC_U+30A4_U+30E4_U+30FC 1
 62
     7
420
 16777215
370
     9
100
AcDbVertex
100
AcDb2dVertex
 10
102.9632365398557
 20
-136.3761630214617
 30
0.0
  0
SEQEND
  5
A4
330
A1
100
AcDbEntity
  8
_U+30EC_U+30A4_U+30E4_U+30FC 1
 62
     7
420
 16777215
370
     9
  0
SPLINE
  5
A5
330
1F
100
AcDbEntity
  8
_U+30EC_U+30A4_U+30E4_U+30FC 1
 62
     7
420
 16777215
370
     9
100
AcDbSpline
210
0.0
220
0.0
230
1.0
 70
    11
 71
     3
 72
    17
 73
    13
 74
     0
 42
0.0000000001
 43
0.0000000001
 12
1.0
 22
0.0
 32
0.0
 13
1.0
 23
0.0
 33
0.0
 40
0.0
 40
0.0
 40
0.0
 40
0.0
 40
1.0
 40
1.0
 40
1.0
 40
2.0
 40
2.0
 40
2.0
 40
3.0
 40
3.0
 40
3.0
 40
4.0
 40
4.0
 40
4.0
 40
4.0
 10
93.0630576257636
 20
-135.3763907994892
 30
0.0
 10
93.0630576257636
 20
-135.3212869106143
 30
0.0
 10
93.01825484912884
 20
-135.2764841328476
 30
0.0
 10
92.96315096164577
 20
-135.2764841328476
 30
0.0
 10
92.90801179638582
 20
-135.2764841328476
 30
0.0
 10
92.86324429752793
 20
-135.3212869106143
 30
0.0
 10
92.86324429752793
 20
-135.3763907994892
 30
0.0
 10
92.86324429752793
 20
-135.4315299661423
 30
0.0
 10
92.90801179638582
 20
-135.4762974661308
 30
0.0
 10
92.96315096164577
 20
-135.4762974661308
 30
0.0
 10
93.01825484912884
 20
-135.4762974661308
 30
0.0
 10
93.0630576257636
 20
-135.4315299661423
 30
0.0
 10
93.0630576257636
 20
-135.3763907994892
 30
0.0
  0
POLYLINE
  5
A6
330
1F
100
AcDbEntity
  8
_U+30EC_U+30A4_U+30E4_U+30FC 1
 62
     7
420
 16777215
370
     9
100
AcDb2dPolyline
 66
     1
 10
0.0
 20
0.0
 30
0.0
  0
VERTEX
  5
A7
330
A6
100
AcDbEntity
  8
_U+30EC_U+30A4_U+30E4_U+30FC 1
 62
     7
420
 16777215
370
     9
100
AcDbVertex
100
AcDb2dVertex
 10
92.96315096164577
 20
-133.916384688743
 30
0.0
  0
VERTEX
  5
A8
330
A6
100
AcDbEntity
  8
_U+30EC_U+30A4_U+30E4_U+30FC 1
 62
     7
420
 16777215
370
     9
100
AcDbVertex
100
AcDb2dVertex
 10
92.96315096164577
 20
-136.3761630214617
 30
0.0
  0
SEQEND
  5
A9
330
A6
100
AcDbEntity
  8
_U+30EC_U+30A4_U+30E4_U+30FC 1
 62
     7
420
 16777215
370
     9
  0
INSERT
  5
AB
330
1F
100
AcDbEntity
  8
_U+30EC_U+30A4_U+30E4_U+30FC 1
100
AcDbBlockReference
  2
block 7
 10
0.0
 20
0.0
 30
0.0
  0
SPLINE
  5
B3
330
1F
100
AcDbEntity
  8
_U+30EC_U+30A4_U+30E4_U+30FC 1
 62
     7
420
 16777215
370
     9
100
AcDbSpline
210
0.0
220
0.0
230
1.0
 70
    11
 71
     3
 72
    17
 73
    13
 74
     0
 42
0.0000000001
 43
0.0000000001
 12
1.0
 22
0.0
 32
0.0
 13
1.0
 23
0.0
 33
0.0
 40
0.0
 40
0.0
 40
0.0
 40
0.0
 40
1.0
 40
1.0
 40
1.0
 40
2.0
 40
2.0
 40
2.0
 40
3.0
 40
3.0
 40
3.0
 40
4.0
 40
4.0
 40
4.0
 40
4.0
 10
90.06236520231764
 20
-135.3763907994892
 30
0.0
 10
90.06236520231764
 20
-135.3212869106143
 30
0.0
 10
90.0175999774955
 20
-135.2764841328476
 30
0.0
 10
89.96245853819981
 20
-135.2764841328476
 30
0.0
 10
89.90735465071674
 20
-135.2764841328476
 30
0.0
 10
89.86255187408197
 20
-135.3212869106143
 30
0.0
 10
89.86255187408197
 20
-135.3763907994892
 30
0.0
 10
89.86255187408197
 20
-135.4315299661423
 30
0.0
 10
89.90735465071674
 20
-135.4762974661308
 30
0.0
 10
89.96245853819981
 20
-135.4762974661308
 30
0.0
 10
90.0175999774955
 20
-135.4762974661308
 30
0.0
 10
90.06236520231764
 20
-135.4315299661423
 30
0.0
 10
90.06236520231764
 20
-135.3763907994892
 30
0.0
  0
POLYLINE
  5
B4
330
1F
100
AcDbEntity
  8
_U+30EC_U+30A4_U+30E4_U+30FC 1
 62
     7
420
 16777215
370
     9
100
AcDb2dPolyline
 66
     1
 10
0.0
 20
0.0
 30
0.0
  0
VERTEX
  5
B5
330
B4
100
AcDbEntity
  8
_U+30EC_U+30A4_U+30E4_U+30FC 1
 62
     7
420
 16777215
370
     9
100
AcDbVertex
100
AcDb2dVertex
 10
74.96252419865779
 20
-135.3763907994892
 30
0.0
  0
VERTEX
  5
B6
330
B4
100
AcDbEntity
  8
_U+30EC_U+30A4_U+30E4_U+30FC 1
 62
     7
420
 16777215
370
     9
100
AcDbVertex
100
AcDb2dVertex
 10
89.96245853819981
 20
-135.3763907994892
 30
0.0
  0
SEQEND
  5
B7
330
B4
100
AcDbEntity
  8
_U+30EC_U+30A4_U+30E4_U+30FC 1
 62
     7
420
 16777215
370
     9
  0
POLYLINE
  5
B8
330
1F
100
AcDbEntity
  8
_U+30EC_U+30A4_U+30E4_U+30FC 1
 62
     7
420
 16777215
370
     9
100
AcDb2dPolyline
 66
     1
 10
0.0
 20
0.0
 30
0.0
  0
VERTEX
  5
B9
330
B8
100
AcDbEntity
  8
_U+30EC_U+30A4_U+30E4_U+30FC 1
 62
     7
420
 16777215
370
     9
100
AcDbVertex
100
AcDb2dVertex
 10
89.96245853819981
 20
-133.916384688743
 30
0.0
  0
VERTEX
  5
BA
330
B8
100
AcDbEntity
  8
_U+30EC_U+30A4_U+30E4_U+30FC 1
 62
     7
420
 16777215
370
     9
100
AcDbVertex
100
AcDb2dVertex
 10
89.96245853819981
 20
-136.3761630214617
 30
0.0
  0
SEQEND
  5
BB
330
B8
100
AcDbEntity
  8
_U+30EC_U+30A4_U+30E4_U+30FC 1
 62
     7
420
 16777215
370
     9
  0
SPLINE
  5
BC
330
1F
100
AcDbEntity
  8
_U+30EC_U+30A4_U+30E4_U+30FC 1
 62
     7
420
 16777215
370
     9
100
AcDbSpline
210
0.0
220
0.0
230
1.0
 70
    11
 71
     3
 72
    17
 73
    13
 74
     0
 42
0.0000000001
 43
0.0000000001
 12
1.0
 22
0.0
 32
0.0
 13
1.0
 23
0.0
 33
0.0
 40
0.0
 40
0.0
 40
0.0
 40
0.0
 40
1.0
 40
1.0
 40
1.0
 40
2.0
 40
2.0
 40
2.0
 40
3.0
 40
3.0
 40
3.0
 40
4.0
 40
4.0
 40
4.0
 40
4.0
 10
75.06243086277563
 20
-135.3763907994892
 30
0.0
 10
75.06243086277563
 20
-135.3212869106143
 30
0.0
 10
75.01762808614086
 20
-135.2764841328476
 30
0.0
 10
74.96252419865779
 20
-135.2764841328476
 30
0.0
 10
74.90738503339784
 20
-135.2764841328476
 30
0.0
 10
74.86261942572874
 20
-135.3212869106143
 30
0.0
 10
74.86261942572874
 20
-135.3763907994892
 30
0.0
 10
74.86261942572874
 20
-135.4315299661423
 30
0.0
 10
74.90738503339784
 20
-135.4762974661308
 30
0.0
 10
74.96252419865779
 20
-135.4762974661308
 30
0.0
 10
75.01762808614086
 20
-135.4762974661308
 30
0.0
 10
75.06243086277563
 20
-135.4315299661423
 30
0.0
 10
75.06243086277563
 20
-135.3763907994892
 30
0.0
  0
POLYLINE
  5
BD
330
1F
100
AcDbEntity
  8
_U+30EC_U+30A4_U+30E4_U+30FC 1
 62
     7
420
 16777215
370
     9
100
AcDb2dPolyline
 66
     1
 10
0.0
 20
0.0
 30
0.0
  0
VERTEX
  5
BE
330
BD
100
AcDbEntity
  8
_U+30EC_U+30A4_U+30E4_U+30FC 1
 62
     7
420
 16777215
370
     9
100
AcDbVertex
100
AcDb2dVertex
 10
74.96252419865779
 20
-133.916384688743
 30
0.0
  0
VERTEX
  5
BF
330
BD
100
AcDbEntity
  8
_U+30EC_U+30A4_U+30E4_U+30FC 1
 62
     7
420
 16777215
370
     9
100
AcDbVertex
100
AcDb2dVertex
 10
74.96252419865779
 20
-136.3761630214617
 30
0.0
  0
SEQEND
  5
C0
330
BD
100
AcDbEntity
  8
_U+30EC_U+30A4_U+30E4_U+30FC 1
 62
     7
420
 16777215
370
     9
  0
INSERT
  5
C2
330
1F
100
AcDbEntity
  8
_U+30EC_U+30A4_U+30E4_U+30FC 1
100
AcDbBlockReference
  2
block 8
 10
0.0
 20
0.0
 30
0.0
  0
SPLINE
  5
C9
330
1F
100
AcDbEntity
  8
_U+30EC_U+30A4_U+30E4_U+30FC 1
 62
   179
420
  2234388
370
     9
100
AcDbSpline
210
0.0
220
0.0
230
1.0
 70
    11
 71
     3
 72
    17
 73
    13
 74
     0
 42
0.0000000001
 43
0.0000000001
 12
1.0
 22
0.0
 32
0.0
 13
1.0
 23
0.0
 33
0.0
 40
0.0
 40
0.0
 40
0.0
 40
0.0
 40
1.0
 40
1.0
 40
1.0
 40
2.0
 40
2.0
 40
2.0
 40
3.0
 40
3.0
 40
3.0
 40
4.0
 40
4.0
 40
4.0
 40
4.0
 10
93.05755429257067
 20
-127.9058980235791
 30
0.0
 10
93.05755429257067
 20
-127.8507588569263
 30
0.0
 10
93.0127515159359
 20
-127.8059913569375
 30
0.0
 10
92.95764997676073
 20
-127.8059913569375
 30
0.0
 10
92.90250846319289
 20
-127.8059913569375
 30
0.0
 10
92.857740964335
 20
-127.8507588569263
 30
0.0
 10
92.857740964335
 20
-127.9058980235791
 30
0.0
 10
92.857740964335
 20
-127.9610019124543
 30
0.0
 10
92.90250846319289
 20
-128.0058046902207
 30
0.0
 10
92.95764997676073
 20
-128.0058046902207
 30
0.0
 10
93.0127515159359
 20
-128.0058046902207
 30
0.0
 10
93.05755429257067
 20
-127.9610019124543
 30
0.0
 10
93.05755429257067
 20
-127.9058980235791
 30
0.0
  0
SPLINE
  5
CA
330
1F
100
AcDbEntity
  8
_U+30EC_U+30A4_U+30E4_U+30FC 1
 62
   179
420
  2234388
370
     9
100
AcDbSpline
210
0.0
220
0.0
230
1.0
 70
    11
 71
     3
 72
    17
 73
    13
 74
     0
 42
0.0000000001
 43
0.0000000001
 12
1.0
 22
0.0
 32
0.0
 13
1.0
 23
0.0
 33
0.0
 40
0.0
 40
0.0
 40
0.0
 40
0.0
 40
1.0
 40
1.0
 40
1.0
 40
2.0
 40
2.0
 40
2.0
 40
3.0
 40
3.0
 40
3.0
 40
4.0
 40
4.0
 40
4.0
 40
4.0
 10
94.05729121150969
 20
-127.9058980235791
 30
0.0
 10
94.05729121150969
 20
-127.8507588569263
 30
0.0
 10
94.01252371265181
 20
-127.8059913569375
 30
0.0
 10
93.95738454739187
 20
-127.8059913569375
 30
0.0
 10
93.9022806599088
 20
-127.8059913569375
 30
0.0
 10
93.85747788327403
 20
-127.8507588569263
 30
0.0
 10
93.85747788327403
 20
-127.9058980235791
 30
0.0
 10
93.85747788327403
 20
-127.9610019124543
 30
0.0
 10
93.9022806599088
 20
-128.0058046902207
 30
0.0
 10
93.95738454739187
 20
-128.0058046902207
 30
0.0
 10
94.01252371265181
 20
-128.0058046902207
 30
0.0
 10
94.05729121150969
 20
-127.9610019124543
 30
0.0
 10
94.05729121150969
 20
-127.9058980235791
 30
0.0
  0
INSERT
  5
CC
330
1F
100
AcDbEntity
  8
_U+30EC_U+30A4_U+30E4_U+30FC 1
100
AcDbBlockReference
  2
block 9
 10
0.0
 20
0.0
 30
0.0
  0
POLYLINE
  5
D1
330
1F
100
AcDbEntity
  8
_U+30EC_U+30A4_U+30E4_U+30FC 1
 62
   179
420
  2234388
370
     9
100
AcDb2dPolyline
 66
     1
 10
0.0
 20
0.0
 30
0.0
  0
VERTEX
  5
D2
330
D1
100
AcDbEntity
  8
_U+30EC_U+30A4_U+30E4_U+30FC 1
 62
   179
420
  2234388
370
     9
100
AcDbVertex
100
AcDb2dVertex
 10
95.87698949841867
 20
-127.9058980235791
 30
0.0
  0
VERTEX
  5
D3
330
D1
100
AcDbEntity
  8
_U+30EC_U+30A4_U+30E4_U+30FC 1
 62
   179
420
  2234388
370
     9
100
AcDbVertex
100
AcDb2dVertex
 10
92.03848515190262
 20
-127.9058980235791
 30
0.0
  0
SEQEND
  5
D4
330
D1
100
AcDbEntity
  8
_U+30EC_U+30A4_U+30E4_U+30FC 1
 62
   179
420
  2234388
370
     9
  0
POLYLINE
  5
D5
330
1F
100
AcDbEntity
  8
_U+30EC_U+30A4_U+30E4_U+30FC 1
 62
   179
420
  2234388
370
    25
100
AcDb2dPolyline
 66
     1
 10
0.0
 20
0.0
 30
0.0
  0
VERTEX
  5
D6
330
D5
100
AcDbEntity
  8
_U+30EC_U+30A4_U+30E4_U+30FC 1
 62
   179
420
  2234388
370
    25
100
AcDbVertex
100
AcDb2dVertex
 10
81.16989598473899
 20
-130.9956316339176
 30
0.0
  0
VERTEX
  5
D7
330
D5
100
AcDbEntity
  8
_U+30EC_U+30A4_U+30E4_U+30FC 1
 62
   179
420
  2234388
370
    25
100
AcDbVertex
100
AcDb2dVertex
 10
80.67071544191859
 20
-131.3959285782622
 30
0.0
  0
SEQEND
  5
D8
330
D5
100
AcDbEntity
  8
_U+30EC_U+30A4_U+30E4_U+30FC 1
 62
   179
420
  2234388
370
    25
  0
POLYLINE
  5
D9
330
1F
100
AcDbEntity
  8
_U+30EC_U+30A4_U+30E4_U+30FC 1
 62
   179
420
  2234388
370
    25
100
AcDb2dPolyline
 66
     1
 10
0.0
 20
0.0
 30
0.0
  0
VERTEX
  5
DA
330
D9
100
AcDbEntity
  8
_U+30EC_U+30A4_U+30E4_U+30FC 1
 62
   179
420
  2234388
370
    25
100
AcDbVertex
100
AcDb2dVertex
 10
81.16989598473899
 20
-130.9956316339176
 30
0.0
  0
VERTEX
  5
DB
330
D9
100
AcDbEntity
  8
_U+30EC_U+30A4_U+30E4_U+30FC 1
 62
   179
420
  2234388
370
    25
100
AcDbVertex
100
AcDb2dVertex
 10
81.67027597197323
 20
-131.3945527449293
 30
0.0
  0
SEQEND
  5
DC
330
D9
100
AcDbEntity
  8
_U+30EC_U+30A4_U+30E4_U+30FC 1
 62
   179
420
  2234388
370
    25
  0
POLYLINE
  5
DD
330
1F
100
AcDbEntity
  8
_U+30EC_U+30A4_U+30E4_U+30FC 1
 62
   179
420
  2234388
370
    25
100
AcDb2dPolyline
 66
     1
 10
0.0
 20
0.0
 30
0.0
  0
VERTEX
  5
DE
330
DD
100
AcDbEntity
  8
_U+30EC_U+30A4_U+30E4_U+30FC 1
 62
   179
420
  2234388
370
    25
100
AcDbVertex
100
AcDb2dVertex
 10
81.67027597197323
 20
-131.3945527449293
 30
0.0
  0
VERTEX
  5
DF
330
DD
100
AcDbEntity
  8
_U+30EC_U+30A4_U+30E4_U+30FC 1
 62
   179
420
  2234388
370
    25
100
AcDbVertex
100
AcDb2dVertex
 10
82.17051484809997
 20
-130.9942558005847
 30
0.0
  0
SEQEND
  5
E0
330
DD
100
AcDbEntity
  8
_U+30EC_U+30A4_U+30E4_U+30FC 1
 62
   179
420
  2234388
370
    25
  0
POLYLINE
  5
E1
330
1F
100
AcDbEntity
  8
_U+30EC_U+30A4_U+30E4_U+30FC 1
 62
   179
420
  2234388
370
    25
100
AcDb2dPolyline
 66
     1
 10
0.0
 20
0.0
 30
0.0
  0
VERTEX
  5
E2
330
E1
100
AcDbEntity
  8
_U+30EC_U+30A4_U+30E4_U+30FC 1
 62
   179
420
  2234388
370
    25
100
AcDbVertex
100
AcDb2dVertex
 10
82.17051484809997
 20
-130.9942558005847
 30
0.0
  0
VERTEX
  5
E3
330
E1
100
AcDbEntity
  8
_U+30EC_U+30A4_U+30E4_U+30FC 1
 62
   179
420
  2234388
370
    25
100
AcDbVertex
100
AcDb2dVertex
 10
82.6707537242267
 20
-131.3938824671513
 30
0.0
  0
SEQEND
  5
E4
330
E1
100
AcDbEntity
  8
_U+30EC_U+30A4_U+30E4_U+30FC 1
 62
   179
420
  2234388
370
    25
  0
POLYLINE
  5
E5
330
1F
100
AcDbEntity
  8
_U+30EC_U+30A4_U+30E4_U+30FC 1
 62
   179
420
  2234388
370
    25
100
AcDb2dPolyline
 66
     1
 10
0.0
 20
0.0
 30
0.0
  0
VERTEX
  5
E6
330
E5
100
AcDbEntity
  8
_U+30EC_U+30A4_U+30E4_U+30FC 1
 62
   179
420
  2234388
370
    25
100
AcDbVertex
100
AcDb2dVertex
 10
82.6707537242267
 20
-131.3938824671513
 30
0.0
  0
VERTEX
  5
E7
330
E5
100
AcDbEntity
  8
_U+30EC_U+30A4_U+30E4_U+30FC 1
 62
   179
420
  2234388
370
    25
100
AcDbVertex
100
AcDb2dVertex
 10
83.17011065593148
 20
-130.9935502450292
 30
0.0
  0
SEQEND
  5
E8
330
E5
100
AcDbEntity
  8
_U+30EC_U+30A4_U+30E4_U+30FC 1
 62
   179
420
  2234388
370
    25
  0
POLYLINE
  5
E9
330
1F
100
AcDbEntity
  8
_U+30EC_U+30A4_U+30E4_U+30FC 1
 62
   179
420
  2234388
370
    25
100
AcDb2dPolyline
 66
     1
 10
0.0
 20
0.0
 30
0.0
  0
VERTEX
  5
EA
330
E9
100
AcDbEntity
  8
_U+30EC_U+30A4_U+30E4_U+30FC 1
 62
   179
420
  2234388
370
    25
100
AcDbVertex
100
AcDb2dVertex
 10
83.17011065593148
 20
-130.9935502450292
 30
0.0
  0
VERTEX
  5
EB
330
E9
100
AcDbEntity
  8
_U+30EC_U+30A4_U+30E4_U+30FC 1
 62
   179
420
  2234388
370
    25
100
AcDbVertex
100
AcDb2dVertex
 10
83.67052592094261
 20
-131.3931769115964
 30
0.0
  0
SEQEND
  5
EC
330
E9
100
AcDbEntity
  8
_U+30EC_U+30A4_U+30E4_U+30FC 1
 62
   179
420
  2234388
370
    25
  0
POLYLINE
  5
ED
330
1F
100
AcDbEntity
  8
_U+30EC_U+30A4_U+30E4_U+30FC 1
 62
   179
420
  2234388
370
    25
100
AcDb2dPolyline
 66
     1
 10
0.0
 20
0.0
 30
0.0
  0
VERTEX
  5
EE
330
ED
100
AcDbEntity
  8
_U+30EC_U+30A4_U+30E4_U+30FC 1
 62
   179
420
  2234388
370
    25
100
AcDbVertex
100
AcDb2dVertex
 10
83.67052592094261
 20
-131.3931769115964
 30
0.0
  0
VERTEX
  5
EF
330
ED
100
AcDbEntity
  8
_U+30EC_U+30A4_U+30E4_U+30FC 1
 62
   179
420
  2234388
370
    25
100
AcDbVertex
100
AcDb2dVertex
 10
84.16988285264739
 20
-130.9928799672518
 30
0.0
  0
SEQEND
  5
F0
330
ED
100
AcDbEntity
  8
_U+30EC_U+30A4_U+30E4_U+30FC 1
 62
   179
420
  2234388
370
    25
  0
POLYLINE
  5
F1
330
1F
100
AcDbEntity
  8
_U+30EC_U+30A4_U+30E4_U+30FC 1
 62
   179
420
  2234388
370
    25
100
AcDb2dPolyline
 66
     1
 10
0.0
 20
0.0
 30
0.0
  0
VERTEX
  5
F2
330
F1
100
AcDbEntity
  8
_U+30EC_U+30A4_U+30E4_U+30FC 1
 62
   179
420
  2234388
370
    25
100
AcDbVertex
100
AcDb2dVertex
 10
84.16988285264739
 20
-130.9928799672518
 30
0.0
  0
VERTEX
  5
F3
330
F1
100
AcDbEntity
  8
_U+30EC_U+30A4_U+30E4_U+30FC 1
 62
   179
420
  2234388
370
    25
100
AcDbVertex
100
AcDb2dVertex
 10
84.67029811765852
 20
-131.3925066338184
 30
0.0
  0
SEQEND
  5
F4
330
F1
100
AcDbEntity
  8
_U+30EC_U+30A4_U+30E4_U+30FC 1
 62
   179
420
  2234388
370
    25
  0
POLYLINE
  5
F5
330
1F
100
AcDbEntity
  8
_U+30EC_U+30A4_U+30E4_U+30FC 1
 62
   179
420
  2234388
370
    25
100
AcDb2dPolyline
 66
     1
 10
0.0
 20
0.0
 30
0.0
  0
VERTEX
  5
F6
330
F5
100
AcDbEntity
  8
_U+30EC_U+30A4_U+30E4_U+30FC 1
 62
   179
420
  2234388
370
    25
100
AcDbVertex
100
AcDb2dVertex
 10
84.67029811765852
 20
-131.3925066338184
 30
0.0
  0
VERTEX
  5
F7
330
F5
100
AcDbEntity
  8
_U+30EC_U+30A4_U+30E4_U+30FC 1
 62
   179
420
  2234388
370
    25
100
AcDbVertex
100
AcDb2dVertex
 10
85.17014893823959
 20
-130.9921744116963
 30
0.0
  0
SEQEND
  5
F8
330
F5
100
AcDbEntity
  8
_U+30EC_U+30A4_U+30E4_U+30FC 1
 62
   179
420
  2234388
370
    25
  0
POLYLINE
  5
F9
330
1F
100
AcDbEntity
  8
_U+30EC_U+30A4_U+30E4_U+30FC 1
 62
   179
420
  2234388
370
    25
100
AcDb2dPolyline
 66
     1
 10
0.0
 20
0.0
 30
0.0
  0
VERTEX
  5
FA
330
F9
100
AcDbEntity
  8
_U+30EC_U+30A4_U+30E4_U+30FC 1
 62
   179
420
  2234388
370
    25
100
AcDbVertex
100
AcDb2dVertex
 10
85.17014893823959
 20
-130.9921744116963
 30
0.0
  0
VERTEX
  5
FB
330
F9
100
AcDbEntity
  8
_U+30EC_U+30A4_U+30E4_U+30FC 1
 62
   179
420
  2234388
370
    25
100
AcDbVertex
100
AcDb2dVertex
 10
85.6705642032507
 20
-131.3911308004855
 30
0.0
  0
SEQEND
  5
FC
330
F9
100
AcDbEntity
  8
_U+30EC_U+30A4_U+30E4_U+30FC 1
 62
   179
420
  2234388
370
    25
  0
POLYLINE
  5
FD
330
1F
100
AcDbEntity
  8
_U+30EC_U+30A4_U+30E4_U+30FC 1
 62
   179
420
  2234388
370
    25
100
AcDb2dPolyline
 66
     1
 10
0.0
 20
0.0
 30
0.0
  0
VERTEX
  5
FE
330
FD
100
AcDbEntity
  8
_U+30EC_U+30A4_U+30E4_U+30FC 1
 62
   179
420
  2234388
370
    25
100
AcDbVertex
100
AcDb2dVertex
 10
85.6705642032507
 20
-131.3911308004855
 30
0.0
  0
VERTEX
  5
FF
330
FD
100
AcDbEntity
  8
_U+30EC_U+30A4_U+30E4_U+30FC 1
 62
   179
420
  2234388
370
    25
100
AcDbVertex
100
AcDb2dVertex
 10
86.1699211349555
 20
-130.9907985783634
 30
0.0
  0
SEQEND
  5
100
330
FD
100
AcDbEntity
  8
_U+30EC_U+30A4_U+30E4_U+30FC 1
 62
   179
420
  2234388
370
    25
  0
POLYLINE
  5
101
330
1F
100
AcDbEntity
  8
_U+30EC_U+30A4_U+30E4_U+30FC 1
 62
   179
420
  2234388
370
    25
100
AcDb2dPolyline
 66
     1
 10
0.0
 20
0.0
 30
0.0
  0
VERTEX
  5
102
330
101
100
AcDbEntity
  8
_U+30EC_U+30A4_U+30E4_U+30FC 1
 62
   179
420
  2234388
370
    25
100
AcDbVertex
100
AcDb2dVertex
 10
86.1699211349555
 20
-130.9907985783634
 30
0.0
  0
VERTEX
  5
103
330
101
100
AcDbEntity
  8
_U+30EC_U+30A4_U+30E4_U+30FC 1
 62
   179
420
  2234388
370
    25
100
AcDbVertex
100
AcDb2dVertex
 10
86.67033639996662
 20
-131.39042524493
 30
0.0
  0
SEQEND
  5
104
330
101
100
AcDbEntity
  8
_U+30EC_U+30A4_U+30E4_U+30FC 1
 62
   179
420
  2234388
370
    25
  0
POLYLINE
  5
105
330
1F
100
AcDbEntity
  8
_U+30EC_U+30A4_U+30E4_U+30FC 1
 62
   179
420
  2234388
370
    25
100
AcDb2dPolyline
 66
     1
 10
0.0
 20
0.0
 30
0.0
  0
VERTEX
  5
106
330
105
100
AcDbEntity
  8
_U+30EC_U+30A4_U+30E4_U+30FC 1
 62
   179
420
  2234388
370
    25
100
AcDbVertex
100
AcDb2dVertex
 10
86.67033639996662
 20
-131.39042524493
 30
0.0
  0
VERTEX
  5
107
330
105
100
AcDbEntity
  8
_U+30EC_U+30A4_U+30E4_U+30FC 1
 62
   179
420
  2234388
370
    25
100
AcDbVertex
100
AcDb2dVertex
 10
87.16969333167141
 20
-130.9900930228079
 30
0.0
  0
SEQEND
  5
108
330
105
100
AcDbEntity
  8
_U+30EC_U+30A4_U+30E4_U+30FC 1
 62
   179
420
  2234388
370
    25
  0
POLYLINE
  5
109
330
1F
100
AcDbEntity
  8
_U+30EC_U+30A4_U+30E4_U+30FC 1
 62
   179
420
  2234388
370
    25
100
AcDb2dPolyline
 66
     1
 10
0.0
 20
0.0
 30
0.0
  0
VERTEX
  5
10A
330
109
100
AcDbEntity
  8
_U+30EC_U+30A4_U+30E4_U+30FC 1
 62
   179
420
  2234388
370
    25
100
AcDbVertex
100
AcDb2dVertex
 10
87.16969333167141
 20
-130.9900930228079
 30
0.0
  0
VERTEX
  5
10B
330
109
100
AcDbEntity
  8
_U+30EC_U+30A4_U+30E4_U+30FC 1
 62
   179
420
  2234388
370
    25
100
AcDbVertex
100
AcDb2dVertex
 10
87.66993220779814
 20
-131.3890494115971
 30
0.0
  0
SEQEND
  5
10C
330
109
100
AcDbEntity
  8
_U+30EC_U+30A4_U+30E4_U+30FC 1
 62
   179
420
  2234388
370
    25
  0
POLYLINE
  5
10D
330
1F
100
AcDbEntity
  8
_U+30EC_U+30A4_U+30E4_U+30FC 1
 62
   179
420
  2234388
370
    25
100
AcDb2dPolyline
 66
     1
 10
0.0
 20
0.0
 30
0.0
  0
VERTEX
  5
10E
330
10D
100
AcDbEntity
  8
_U+30EC_U+30A4_U+30E4_U+30FC 1
 62
   179
420
  2234388
370
    25
100
AcDbVertex
100
AcDb2dVertex
 10
87.66993220779814
 20
-131.3890494115971
 30
0.0
  0
VERTEX
  5
10F
330
10D
100
AcDbEntity
  8
_U+30EC_U+30A4_U+30E4_U+30FC 1
 62
   179
420
  2234388
370
    25
100
AcDbVertex
100
AcDb2dVertex
 10
88.17017108392487
 20
-130.988717189475
 30
0.0
  0
SEQEND
  5
110
330
10D
100
AcDbEntity
  8
_U+30EC_U+30A4_U+30E4_U+30FC 1
 62
   179
420
  2234388
370
    25
  0
POLYLINE
  5
111
330
1F
100
AcDbEntity
  8
_U+30EC_U+30A4_U+30E4_U+30FC 1
 62
   179
420
  2234388
370
    25
100
AcDb2dPolyline
 66
     1
 10
0.0
 20
0.0
 30
0.0
  0
VERTEX
  5
112
330
111
100
AcDbEntity
  8
_U+30EC_U+30A4_U+30E4_U+30FC 1
 62
   179
420
  2234388
370
    25
100
AcDbVertex
100
AcDb2dVertex
 10
88.17017108392487
 20
-130.988717189475
 30
0.0
  0
VERTEX
  5
113
330
111
100
AcDbEntity
  8
_U+30EC_U+30A4_U+30E4_U+30FC 1
 62
   179
420
  2234388
370
    25
100
AcDbVertex
100
AcDb2dVertex
 10
88.67055107115911
 20
-131.3890494115971
 30
0.0
  0
SEQEND
  5
114
330
111
100
AcDbEntity
  8
_U+30EC_U+30A4_U+30E4_U+30FC 1
 62
   179
420
  2234388
370
    25
  0
POLYLINE
  5
115
330
1F
100
AcDbEntity
  8
_U+30EC_U+30A4_U+30E4_U+30FC 1
 62
     7
420
 16777215
370
    25
100
AcDb2dPolyline
 66
     1
 10
0.0
 20
0.0
 30
0.0
  0
VERTEX
  5
116
330
115
100
AcDbEntity
  8
_U+30EC_U+30A4_U+30E4_U+30FC 1
 62
     7
420
 16777215
370
    25
100
AcDbVertex
100
AcDb2dVertex
 10
102.9632365398557
 20
-132.1924655225076
 30
0.0
  0
VERTEX
  5
117
330
115
100
AcDbEntity
  8
_U+30EC_U+30A4_U+30E4_U+30FC 1
 62
     7
420
 16777215
370
    25
100
AcDbVertex
100
AcDb2dVertex
 10
92.96244540610822
 20
-132.1924655225076
 30
0.0
  0
VERTEX
  5
118
330
115
100
AcDbEntity
  8
_U+30EC_U+30A4_U+30E4_U+30FC 1
 62
     7
420
 16777215
370
    25
100
AcDbVertex
100
AcDb2dVertex
 10
92.96244540610822
 20
-130.1887935785639
 30
0.0
  0
VERTEX
  5
119
330
115
100
AcDbEntity
  8
_U+30EC_U+30A4_U+30E4_U+30FC 1
 62
     7
420
 16777215
370
    25
100
AcDbVertex
100
AcDb2dVertex
 10
89.96245853819981
 20
-130.1887935785639
 30
0.0
  0
VERTEX
  5
11A
330
115
100
AcDbEntity
  8
_U+30EC_U+30A4_U+30E4_U+30FC 1
 62
     7
420
 16777215
370
    25
100
AcDbVertex
100
AcDb2dVertex
 10
89.96245853819981
 20
-132.1924655225076
 30
0.0
  0
VERTEX
  5
11B
330
115
100
AcDbEntity
  8
_U+30EC_U+30A4_U+30E4_U+30FC 1
 62
     7
420
 16777215
370
    25
100
AcDbVertex
100
AcDb2dVertex
 10
74.96252419865779
 20
-132.1924655225076
 30
0.0
  0
VERTEX
  5
11C
330
115
100
AcDbEntity
  8
_U+30EC_U+30A4_U+30E4_U+30FC 1
 62
     7
420
 16777215
370
    25
100
AcDbVertex
100
AcDb2dVertex
 10
74.96252419865779
 20
-130.9956316339176
 30
0.0
  0
VERTEX
  5
11D
330
115
100
AcDbEntity
  8
_U+30EC_U+30A4_U+30E4_U+30FC 1
 62
     7
420
 16777215
370
    25
100
AcDbVertex
100
AcDb2dVertex
 10
76.17001386984637
 20
-130.9956316339176
 30
0.0
  0
SEQEND
  5
11E
330
115
100
AcDbEntity
  8
_U+30EC_U+30A4_U+30E4_U+30FC 1
 62
     7
420
 16777215
370
    25
  0
POLYLINE
  5
11F
330
1F
100
AcDbEntity
  8
_U+30EC_U+30A4_U+30E4_U+30FC 1
 62
     7
420
 16777215
370
    25
100
AcDb2dPolyline
 66
     1
 10
0.0
 20
0.0
 30
0.0
  0
VERTEX
  5
120
330
11F
100
AcDbEntity
  8
_U+30EC_U+30A4_U+30E4_U+30FC 1
 62
     7
420
 16777215
370
    25
100
AcDbVertex
100
AcDb2dVertex
 10
95.96211477402471
 20
-124.1924180245075
 30
0.0
  0
VERTEX
  5
121
330
11F
100
AcDbEntity
  8
_U+30EC_U+30A4_U+30E4_U+30FC 1
 62
     7
420
 16777215
370
    25
100
AcDbVertex
100
AcDb2dVertex
 10
93.96221760282411
 20
-124.1924180245075
 30
0.0
  0
VERTEX
  5
122
330
11F
100
AcDbEntity
  8
_U+30EC_U+30A4_U+30E4_U+30FC 1
 62
     7
420
 16777215
370
    25
100
AcDbVertex
100
AcDb2dVertex
 10
93.96221760282411
 20
-131.1919877449796
 30
0.0
  0
VERTEX
  5
123
330
11F
100
AcDbEntity
  8
_U+30EC_U+30A4_U+30E4_U+30FC 1
 62
     7
420
 16777215
370
    25
100
AcDbVertex
100
AcDb2dVertex
 10
95.97209838488112
 20
-131.1919877449796
 30
0.0
  0
VERTEX
  5
124
330
11F
100
AcDbEntity
  8
_U+30EC_U+30A4_U+30E4_U+30FC 1
 62
     7
420
 16777215
370
    25
100
AcDbVertex
100
AcDb2dVertex
 10
96.27181837723462
 20
-131.493083578238
 30
0.0
  0
VERTEX
  5
125
330
11F
100
AcDbEntity
  8
_U+30EC_U+30A4_U+30E4_U+30FC 1
 62
     7
420
 16777215
370
    25
100
AcDbVertex
100
AcDb2dVertex
 10
102.2631843354933
 20
-131.493083578238
 30
0.0
  0
SEQEND
  5
126
330
11F
100
AcDbEntity
  8
_U+30EC_U+30A4_U+30E4_U+30FC 1
 62
     7
420
 16777215
370
    25
  0
POLYLINE
  5
127
330
1F
100
AcDbEntity
  8
_U+30EC_U+30A4_U+30E4_U+30FC 1
 62
     7
420
 16777215
370
    25
100
AcDb2dPolyline
 66
     1
 10
0.0
 20
0.0
 30
0.0
  0
VERTEX
  5
128
330
127
100
AcDbEntity
  8
_U+30EC_U+30A4_U+30E4_U+30FC 1
 62
     7
420
 16777215
370
    25
100
AcDbVertex
100
AcDb2dVertex
 10
87.96259664477608
 20
-123.1926458025353
 30
0.0
  0
VERTEX
  5
129
330
127
100
AcDbEntity
  8
_U+30EC_U+30A4_U+30E4_U+30FC 1
 62
     7
420
 16777215
370
    25
100
AcDbVertex
100
AcDb2dVertex
 10
89.96245853819981
 20
-123.1922930247576
 30
0.0
  0
VERTEX
  5
12A
330
127
100
AcDbEntity
  8
_U+30EC_U+30A4_U+30E4_U+30FC 1
 62
     7
420
 16777215
370
    25
100
AcDbVertex
100
AcDb2dVertex
 10
89.96245853819981
 20
-129.1890213565914
 30
0.0
  0
VERTEX
  5
12B
330
127
100
AcDbEntity
  8
_U+30EC_U+30A4_U+30E4_U+30FC 1
 62
     7
420
 16777215
370
    25
100
AcDbVertex
100
AcDb2dVertex
 10
92.96244540610822
 20
-129.1890213565914
 30
0.0
  0
VERTEX
  5
12C
330
127
100
AcDbEntity
  8
_U+30EC_U+30A4_U+30E4_U+30FC 1
 62
     7
420
 16777215
370
    25
100
AcDbVertex
100
AcDb2dVertex
 10
92.96244540610822
 20
-123.1922930247576
 30
0.0
  0
VERTEX
  5
12D
330
127
100
AcDbEntity
  8
_U+30EC_U+30A4_U+30E4_U+30FC 1
 62
     7
420
 16777215
370
    25
100
AcDbVertex
100
AcDb2dVertex
 10
94.9623425773088
 20
-123.1926458025353
 30
0.0
  0
SEQEND
  5
12E
330
127
100
AcDbEntity
  8
_U+30EC_U+30A4_U+30E4_U+30FC 1
 62
     7
420
 16777215
370
    25
  0
POLYLINE
  5
12F
330
1F
100
AcDbEntity
  8
_U+30EC_U+30A4_U+30E4_U+30FC 1
 62
   179
420
  2234388
370
    25
100
AcDb2dPolyline
 66
     1
 10
0.0
 20
0.0
 30
0.0
  0
VERTEX
  5
130
330
12F
100
AcDbEntity
  8
_U+30EC_U+30A4_U+30E4_U+30FC 1
 62
   179
420
  2234388
370
    25
100
AcDbVertex
100
AcDb2dVertex
 10
76.17001386984637
 20
-130.9997591339169
 30
0.0
  0
VERTEX
  5
131
330
12F
100
AcDbEntity
  8
_U+30EC_U+30A4_U+30E4_U+30FC 1
 62
   179
420
  2234388
370
    25
100
AcDbVertex
100
AcDb2dVertex
 10
76.67042721064111
 20
-131.3993858004834
 30
0.0
  0
SEQEND
  5
132
330
12F
100
AcDbEntity
  8
_U+30EC_U+30A4_U+30E4_U+30FC 1
 62
   179
420
  2234388
370
    25
  0
POLYLINE
  5
133
330
1F
100
AcDbEntity
  8
_U+30EC_U+30A4_U+30E4_U+30FC 1
 62
   179
420
  2234388
370
    25
100
AcDb2dPolyline
 66
     1
 10
0.0
 20
0.0
 30
0.0
  0
VERTEX
  5
134
330
133
100
AcDbEntity
  8
_U+30EC_U+30A4_U+30E4_U+30FC 1
 62
   179
420
  2234388
370
    25
100
AcDbVertex
100
AcDb2dVertex
 10
76.67042721064111
 20
-131.3993858004834
 30
0.0
  0
VERTEX
  5
135
330
133
100
AcDbEntity
  8
_U+30EC_U+30A4_U+30E4_U+30FC 1
 62
   179
420
  2234388
370
    25
100
AcDbVertex
100
AcDb2dVertex
 10
77.17031330899907
 20
-130.9990535783614
 30
0.0
  0
SEQEND
  5
136
330
133
100
AcDbEntity
  8
_U+30EC_U+30A4_U+30E4_U+30FC 1
 62
   179
420
  2234388
370
    25
  0
POLYLINE
  5
137
330
1F
100
AcDbEntity
  8
_U+30EC_U+30A4_U+30E4_U+30FC 1
 62
   179
420
  2234388
370
    25
100
AcDb2dPolyline
 66
     1
 10
0.0
 20
0.0
 30
0.0
  0
VERTEX
  5
138
330
137
100
AcDbEntity
  8
_U+30EC_U+30A4_U+30E4_U+30FC 1
 62
   179
420
  2234388
370
    25
100
AcDbVertex
100
AcDb2dVertex
 10
77.17031330899907
 20
-130.9990535783614
 30
0.0
  0
VERTEX
  5
139
330
137
100
AcDbEntity
  8
_U+30EC_U+30A4_U+30E4_U+30FC 1
 62
   179
420
  2234388
370
    25
100
AcDbVertex
100
AcDb2dVertex
 10
77.67069329623331
 20
-131.3980099671506
 30
0.0
  0
SEQEND
  5
13A
330
137
100
AcDbEntity
  8
_U+30EC_U+30A4_U+30E4_U+30FC 1
 62
   179
420
  2234388
370
    25
  0
POLYLINE
  5
13B
330
1F
100
AcDbEntity
  8
_U+30EC_U+30A4_U+30E4_U+30FC 1
 62
   179
420
  2234388
370
    25
100
AcDb2dPolyline
 66
     1
 10
0.0
 20
0.0
 30
0.0
  0
VERTEX
  5
13C
330
13B
100
AcDbEntity
  8
_U+30EC_U+30A4_U+30E4_U+30FC 1
 62
   179
420
  2234388
370
    25
100
AcDbVertex
100
AcDb2dVertex
 10
77.67069329623331
 20
-131.3980099671506
 30
0.0
  0
VERTEX
  5
13D
330
13B
100
AcDbEntity
  8
_U+30EC_U+30A4_U+30E4_U+30FC 1
 62
   179
420
  2234388
370
    25
100
AcDbVertex
100
AcDb2dVertex
 10
78.17008550571498
 20
-130.9976777450285
 30
0.0
  0
SEQEND
  5
13E
330
13B
100
AcDbEntity
  8
_U+30EC_U+30A4_U+30E4_U+30FC 1
 62
   179
420
  2234388
370
    25
  0
POLYLINE
  5
13F
330
1F
100
AcDbEntity
  8
_U+30EC_U+30A4_U+30E4_U+30FC 1
 62
   179
420
  2234388
370
    25
100
AcDb2dPolyline
 66
     1
 10
0.0
 20
0.0
 30
0.0
  0
VERTEX
  5
140
330
13F
100
AcDbEntity
  8
_U+30EC_U+30A4_U+30E4_U+30FC 1
 62
   179
420
  2234388
370
    25
100
AcDbVertex
100
AcDb2dVertex
 10
78.17008550571498
 20
-130.9976777450285
 30
0.0
  0
VERTEX
  5
141
330
13F
100
AcDbEntity
  8
_U+30EC_U+30A4_U+30E4_U+30FC 1
 62
   179
420
  2234388
370
    25
100
AcDbVertex
100
AcDb2dVertex
 10
78.67046549294922
 20
-131.397304411595
 30
0.0
  0
SEQEND
  5
142
330
13F
100
AcDbEntity
  8
_U+30EC_U+30A4_U+30E4_U+30FC 1
 62
   179
420
  2234388
370
    25
  0
POLYLINE
  5
143
330
1F
100
AcDbEntity
  8
_U+30EC_U+30A4_U+30E4_U+30FC 1
 62
   179
420
  2234388
370
    25
100
AcDb2dPolyline
 66
     1
 10
0.0
 20
0.0
 30
0.0
  0
VERTEX
  5
144
330
143
100
AcDbEntity
  8
_U+30EC_U+30A4_U+30E4_U+30FC 1
 62
   179
420
  2234388
370
    25
100
AcDbVertex
100
AcDb2dVertex
 10
78.67046549294922
 20
-131.397304411595
 30
0.0
  0
VERTEX
  5
145
330
143
100
AcDbEntity
  8
_U+30EC_U+30A4_U+30E4_U+30FC 1
 62
   179
420
  2234388
370
    25
100
AcDbVertex
100
AcDb2dVertex
 10
79.16985770243087
 20
-130.9970074672505
 30
0.0
  0
SEQEND
  5
146
330
143
100
AcDbEntity
  8
_U+30EC_U+30A4_U+30E4_U+30FC 1
 62
   179
420
  2234388
370
    25
  0
POLYLINE
  5
147
330
1F
100
AcDbEntity
  8
_U+30EC_U+30A4_U+30E4_U+30FC 1
 62
   179
420
  2234388
370
    25
100
AcDb2dPolyline
 66
     1
 10
0.0
 20
0.0
 30
0.0
  0
VERTEX
  5
148
330
147
100
AcDbEntity
  8
_U+30EC_U+30A4_U+30E4_U+30FC 1
 62
   179
420
  2234388
370
    25
100
AcDbVertex
100
AcDb2dVertex
 10
79.16985770243087
 20
-130.9970074672505
 30
0.0
  0
VERTEX
  5
149
330
147
100
AcDbEntity
  8
_U+30EC_U+30A4_U+30E4_U+30FC 1
 62
   179
420
  2234388
370
    25
100
AcDbVertex
100
AcDb2dVertex
 10
79.67006130078073
 20
-131.3959285782622
 30
0.0
  0
SEQEND
  5
14A
330
147
100
AcDbEntity
  8
_U+30EC_U+30A4_U+30E4_U+30FC 1
 62
   179
420
  2234388
370
    25
  0
POLYLINE
  5
14B
330
1F
100
AcDbEntity
  8
_U+30EC_U+30A4_U+30E4_U+30FC 1
 62
   179
420
  2234388
370
    25
100
AcDb2dPolyline
 66
     1
 10
0.0
 20
0.0
 30
0.0
  0
VERTEX
  5
14C
330
14B
100
AcDbEntity
  8
_U+30EC_U+30A4_U+30E4_U+30FC 1
 62
   179
420
  2234388
370
    25
100
AcDbVertex
100
AcDb2dVertex
 10
79.67006130078073
 20
-131.3959285782622
 30
0.0
  0
VERTEX
  5
14D
330
14B
100
AcDbEntity
  8
_U+30EC_U+30A4_U+30E4_U+30FC 1
 62
   179
420
  2234388
370
    25
100
AcDbVertex
100
AcDb2dVertex
 10
80.17030017690747
 20
-130.9956316339176
 30
0.0
  0
SEQEND
  5
14E
330
14B
100
AcDbEntity
  8
_U+30EC_U+30A4_U+30E4_U+30FC 1
 62
   179
420
  2234388
370
    25
  0
POLYLINE
  5
14F
330
1F
100
AcDbEntity
  8
_U+30EC_U+30A4_U+30E4_U+30FC 1
 62
   179
420
  2234388
370
    25
100
AcDb2dPolyline
 66
     1
 10
0.0
 20
0.0
 30
0.0
  0
VERTEX
  5
150
330
14F
100
AcDbEntity
  8
_U+30EC_U+30A4_U+30E4_U+30FC 1
 62
   179
420
  2234388
370
    25
100
AcDbVertex
100
AcDb2dVertex
 10
80.17030017690747
 20
-130.9956316339176
 30
0.0
  0
VERTEX
  5
151
330
14F
100
AcDbEntity
  8
_U+30EC_U+30A4_U+30E4_U+30FC 1
 62
   179
420
  2234388
370
    25
100
AcDbVertex
100
AcDb2dVertex
 10
80.67071544191859
 20
-131.3959285782622
 30
0.0
  0
SEQEND
  5
152
330
14F
100
AcDbEntity
  8
_U+30EC_U+30A4_U+30E4_U+30FC 1
 62
   179
420
  2234388
370
    25
  0
POLYLINE
  5
153
330
1F
100
AcDbEntity
  8
_U+30EC_U+30A4_U+30E4_U+30FC 1
 62
   179
420
  2234388
370
    25
100
AcDb2dPolyline
 66
     1
 10
0.0
 20
0.0
 30
0.0
  0
VERTEX
  5
154
330
153
100
AcDbEntity
  8
_U+30EC_U+30A4_U+30E4_U+30FC 1
 62
   179
420
  2234388
370
    25
100
AcDbVertex
100
AcDb2dVertex
 10
88.67055107115911
 20
-131.3890494115971
 30
0.0
  0
VERTEX
  5
155
330
153
100
AcDbEntity
  8
_U+30EC_U+30A4_U+30E4_U+30FC 1
 62
   179
420
  2234388
370
    25
100
AcDbVertex
100
AcDb2dVertex
 10
89.18024439148908
 20
-130.7069183006564
 30
0.0
  0
SEQEND
  5
156
330
153
100
AcDbEntity
  8
_U+30EC_U+30A4_U+30E4_U+30FC 1
 62
   179
420
  2234388
370
    25
  0
POLYLINE
  5
157
330
1F
100
AcDbEntity
  8
_U+30EC_U+30A4_U+30E4_U+30FC 1
 62
   179
420
  2234388
370
    25
100
AcDb2dPolyline
 66
     1
 10
0.0
 20
0.0
 30
0.0
  0
VERTEX
  5
158
330
157
100
AcDbEntity
  8
_U+30EC_U+30A4_U+30E4_U+30FC 1
 62
   179
420
  2234388
370
    25
100
AcDbVertex
100
AcDb2dVertex
 10
89.18024439148908
 20
-130.7069183006564
 30
0.0
  0
VERTEX
  5
159
330
157
100
AcDbEntity
  8
_U+30EC_U+30A4_U+30E4_U+30FC 1
 62
   179
420
  2234388
370
    25
100
AcDbVertex
100
AcDb2dVertex
 10
88.77994745725707
 20
-130.2073849674482
 30
0.0
  0
SEQEND
  5
15A
330
157
100
AcDbEntity
  8
_U+30EC_U+30A4_U+30E4_U+30FC 1
 62
   179
420
  2234388
370
    25
  0
POLYLINE
  5
15B
330
1F
100
AcDbEntity
  8
_U+30EC_U+30A4_U+30E4_U+30FC 1
 62
   179
420
  2234388
370
    25
100
AcDb2dPolyline
 66
     1
 10
0.0
 20
0.0
 30
0.0
  0
VERTEX
  5
15C
330
15B
100
AcDbEntity
  8
_U+30EC_U+30A4_U+30E4_U+30FC 1
 62
   179
420
  2234388
370
    25
100
AcDbVertex
100
AcDb2dVertex
 10
88.77994745725707
 20
-130.2073849674482
 30
0.0
  0
VERTEX
  5
15D
330
15B
100
AcDbEntity
  8
_U+30EC_U+30A4_U+30E4_U+30FC 1
 62
   179
420
  2234388
370
    25
100
AcDbVertex
100
AcDb2dVertex
 10
89.17992689149719
 20
-129.7071460786845
 30
0.0
  0
SEQEND
  5
15E
330
15B
100
AcDbEntity
  8
_U+30EC_U+30A4_U+30E4_U+30FC 1
 62
   179
420
  2234388
370
    25
  0
POLYLINE
  5
15F
330
1F
100
AcDbEntity
  8
_U+30EC_U+30A4_U+30E4_U+30FC 1
 62
   179
420
  2234388
370
    25
100
AcDb2dPolyline
 66
     1
 10
0.0
 20
0.0
 30
0.0
  0
VERTEX
  5
160
330
15F
100
AcDbEntity
  8
_U+30EC_U+30A4_U+30E4_U+30FC 1
 62
   179
420
  2234388
370
    25
100
AcDbVertex
100
AcDb2dVertex
 10
89.17992689149719
 20
-129.7071460786845
 30
0.0
  0
VERTEX
  5
161
330
15F
100
AcDbEntity
  8
_U+30EC_U+30A4_U+30E4_U+30FC 1
 62
   179
420
  2234388
370
    25
100
AcDbVertex
100
AcDb2dVertex
 10
88.77959467948828
 20
-129.2076127454757
 30
0.0
  0
SEQEND
  5
162
330
15F
100
AcDbEntity
  8
_U+30EC_U+30A4_U+30E4_U+30FC 1
 62
   179
420
  2234388
370
    25
  0
POLYLINE
  5
163
330
1F
100
AcDbEntity
  8
_U+30EC_U+30A4_U+30E4_U+30FC 1
 62
   179
420
  2234388
370
    25
100
AcDb2dPolyline
 66
     1
 10
0.0
 20
0.0
 30
0.0
  0
VERTEX
  5
164
330
163
100
AcDbEntity
  8
_U+30EC_U+30A4_U+30E4_U+30FC 1
 62
   179
420
  2234388
370
    25
100
AcDbVertex
100
AcDb2dVertex
 10
88.77959467948828
 20
-129.2076127454757
 30
0.0
  0
VERTEX
  5
165
330
163
100
AcDbEntity
  8
_U+30EC_U+30A4_U+30E4_U+30FC 1
 62
   179
420
  2234388
370
    25
100
AcDbVertex
100
AcDb2dVertex
 10
89.17886855819086
 20
-128.7075502456008
 30
0.0
  0
SEQEND
  5
166
330
163
100
AcDbEntity
  8
_U+30EC_U+30A4_U+30E4_U+30FC 1
 62
   179
420
  2234388
370
    25
  0
POLYLINE
  5
167
330
1F
100
AcDbEntity
  8
_U+30EC_U+30A4_U+30E4_U+30FC 1
 62
   179
420
  2234388
370
    25
100
AcDb2dPolyline
 66
     1
 10
0.0
 20
0.0
 30
0.0
  0
VERTEX
  5
168
330
167
100
AcDbEntity
  8
_U+30EC_U+30A4_U+30E4_U+30FC 1
 62
   179
420
  2234388
370
    25
100
AcDbVertex
100
AcDb2dVertex
 10
89.17886855819086
 20
-128.7075502456008
 30
0.0
  0
VERTEX
  5
169
330
167
100
AcDbEntity
  8
_U+30EC_U+30A4_U+30E4_U+30FC 1
 62
   179
420
  2234388
370
    25
100
AcDbVertex
100
AcDb2dVertex
 10
88.77857162395884
 20
-128.2076641346149
 30
0.0
  0
SEQEND
  5
16A
330
167
100
AcDbEntity
  8
_U+30EC_U+30A4_U+30E4_U+30FC 1
 62
   179
420
  2234388
370
    25
  0
POLYLINE
  5
16B
330
1F
100
AcDbEntity
  8
_U+30EC_U+30A4_U+30E4_U+30FC 1
 62
   179
420
  2234388
370
    25
100
AcDb2dPolyline
 66
     1
 10
0.0
 20
0.0
 30
0.0
  0
VERTEX
  5
16C
330
16B
100
AcDbEntity
  8
_U+30EC_U+30A4_U+30E4_U+30FC 1
 62
   179
420
  2234388
370
    25
100
AcDbVertex
100
AcDb2dVertex
 10
88.77857162395884
 20
-128.2076641346149
 30
0.0
  0
VERTEX
  5
16D
330
16B
100
AcDbEntity
  8
_U+30EC_U+30A4_U+30E4_U+30FC 1
 62
   179
420
  2234388
370
    25
100
AcDbVertex
100
AcDb2dVertex
 10
89.1778455026614
 20
-127.7071077458509
 30
0.0
  0
SEQEND
  5
16E
330
16B
100
AcDbEntity
  8
_U+30EC_U+30A4_U+30E4_U+30FC 1
 62
   179
420
  2234388
370
    25
  0
POLYLINE
  5
16F
330
1F
100
AcDbEntity
  8
_U+30EC_U+30A4_U+30E4_U+30FC 1
 62
   179
420
  2234388
370
    25
100
AcDb2dPolyline
 66
     1
 10
0.0
 20
0.0
 30
0.0
  0
VERTEX
  5
170
330
16F
100
AcDbEntity
  8
_U+30EC_U+30A4_U+30E4_U+30FC 1
 62
   179
420
  2234388
370
    25
100
AcDbVertex
100
AcDb2dVertex
 10
89.1778455026614
 20
-127.7071077458509
 30
0.0
  0
VERTEX
  5
171
330
16F
100
AcDbEntity
  8
_U+30EC_U+30A4_U+30E4_U+30FC 1
 62
   179
420
  2234388
370
    25
100
AcDbVertex
100
AcDb2dVertex
 10
88.77751329065251
 20
-127.2079271904202
 30
0.0
  0
SEQEND
  5
172
330
16F
100
AcDbEntity
  8
_U+30EC_U+30A4_U+30E4_U+30FC 1
 62
   179
420
  2234388
370
    25
  0
POLYLINE
  5
173
330
1F
100
AcDbEntity
  8
_U+30EC_U+30A4_U+30E4_U+30FC 1
 62
   179
420
  2234388
370
    25
100
AcDb2dPolyline
 66
     1
 10
0.0
 20
0.0
 30
0.0
  0
VERTEX
  5
174
330
173
100
AcDbEntity
  8
_U+30EC_U+30A4_U+30E4_U+30FC 1
 62
   179
420
  2234388
370
    25
100
AcDbVertex
100
AcDb2dVertex
 10
88.77751329065251
 20
-127.2079271904202
 30
0.0
  0
VERTEX
  5
175
330
173
100
AcDbEntity
  8
_U+30EC_U+30A4_U+30E4_U+30FC 1
 62
   179
420
  2234388
370
    25
100
AcDbVertex
100
AcDb2dVertex
 10
89.17682244713194
 20
-126.7073355238787
 30
0.0
  0
SEQEND
  5
176
330
173
100
AcDbEntity
  8
_U+30EC_U+30A4_U+30E4_U+30FC 1
 62
   179
420
  2234388
370
    25
  0
POLYLINE
  5
177
330
1F
100
AcDbEntity
  8
_U+30EC_U+30A4_U+30E4_U+30FC 1
 62
   179
420
  2234388
370
    25
100
AcDb2dPolyline
 66
     1
 10
0.0
 20
0.0
 30
0.0
  0
VERTEX
  5
178
330
177
100
AcDbEntity
  8
_U+30EC_U+30A4_U+30E4_U+30FC 1
 62
   179
420
  2234388
370
    25
100
AcDbVertex
100
AcDb2dVertex
 10
89.17682244713194
 20
-126.7073355238787
 30
0.0
  0
VERTEX
  5
179
330
177
100
AcDbEntity
  8
_U+30EC_U+30A4_U+30E4_U+30FC 1
 62
   179
420
  2234388
370
    25
100
AcDbVertex
100
AcDb2dVertex
 10
88.77649023512305
 20
-126.208154968448
 30
0.0
  0
SEQEND
  5
17A
330
177
100
AcDbEntity
  8
_U+30EC_U+30A4_U+30E4_U+30FC 1
 62
   179
420
  2234388
370
    25
  0
POLYLINE
  5
17B
330
1F
100
AcDbEntity
  8
_U+30EC_U+30A4_U+30E4_U+30FC 1
 62
   179
420
  2234388
370
    25
100
AcDb2dPolyline
 66
     1
 10
0.0
 20
0.0
 30
0.0
  0
VERTEX
  5
17C
330
17B
100
AcDbEntity
  8
_U+30EC_U+30A4_U+30E4_U+30FC 1
 62
   179
420
  2234388
370
    25
100
AcDbVertex
100
AcDb2dVertex
 10
88.77649023512305
 20
-126.208154968448
 30
0.0
  0
VERTEX
  5
17D
330
17B
100
AcDbEntity
  8
_U+30EC_U+30A4_U+30E4_U+30FC 1
 62
   179
420
  2234388
370
    25
100
AcDbVertex
100
AcDb2dVertex
 10
89.17576411382561
 20
-125.7079160796843
 30
0.0
  0
SEQEND
  5
17E
330
17B
100
AcDbEntity
  8
_U+30EC_U+30A4_U+30E4_U+30FC 1
 62
   179
420
  2234388
370
    25
  0
POLYLINE
  5
17F
330
1F
100
AcDbEntity
  8
_U+30EC_U+30A4_U+30E4_U+30FC 1
 62
   179
420
  2234388
370
    25
100
AcDb2dPolyline
 66
     1
 10
0.0
 20
0.0
 30
0.0
  0
VERTEX
  5
180
330
17F
100
AcDbEntity
  8
_U+30EC_U+30A4_U+30E4_U+30FC 1
 62
   179
420
  2234388
370
    25
100
AcDbVertex
100
AcDb2dVertex
 10
89.17576411382561
 20
-125.7079160796843
 30
0.0
  0
VERTEX
  5
181
330
17F
100
AcDbEntity
  8
_U+30EC_U+30A4_U+30E4_U+30FC 1
 62
   179
420
  2234388
370
    25
100
AcDbVertex
100
AcDb2dVertex
 10
88.77546942225055
 20
-125.2076771909202
 30
0.0
  0
SEQEND
  5
182
330
17F
100
AcDbEntity
  8
_U+30EC_U+30A4_U+30E4_U+30FC 1
 62
   179
420
  2234388
370
    25
  0
POLYLINE
  5
183
330
1F
100
AcDbEntity
  8
_U+30EC_U+30A4_U+30E4_U+30FC 1
 62
   179
420
  2234388
370
    25
100
AcDb2dPolyline
 66
     1
 10
0.0
 20
0.0
 30
0.0
  0
VERTEX
  5
184
330
183
100
AcDbEntity
  8
_U+30EC_U+30A4_U+30E4_U+30FC 1
 62
   179
420
  2234388
370
    25
100
AcDbVertex
100
AcDb2dVertex
 10
88.77546942225055
 20
-125.2076771909202
 30
0.0
  0
VERTEX
  5
185
330
183
100
AcDbEntity
  8
_U+30EC_U+30A4_U+30E4_U+30FC 1
 62
   179
420
  2234388
370
    25
100
AcDbVertex
100
AcDb2dVertex
 10
89.17544661383371
 20
-124.7071208021566
 30
0.0
  0
SEQEND
  5
186
330
183
100
AcDbEntity
  8
_U+30EC_U+30A4_U+30E4_U+30FC 1
 62
   179
420
  2234388
370
    25
  0
POLYLINE
  5
187
330
1F
100
AcDbEntity
  8
_U+30EC_U+30A4_U+30E4_U+30FC 1
 62
   179
420
  2234388
370
    25
100
AcDb2dPolyline
 66
     1
 10
0.0
 20
0.0
 30
0.0
  0
VERTEX
  5
188
330
187
100
AcDbEntity
  8
_U+30EC_U+30A4_U+30E4_U+30FC 1
 62
   179
420
  2234388
370
    25
100
AcDbVertex
100
AcDb2dVertex
 10
89.17544661383371
 20
-124.7071208021566
 30
0.0
  0
VERTEX
  5
189
330
187
100
AcDbEntity
  8
_U+30EC_U+30A4_U+30E4_U+30FC 1
 62
   179
420
  2234388
370
    25
100
AcDbVertex
100
AcDb2dVertex
 10
88.76269662436384
 20
-124.1924180245075
 30
0.0
  0
SEQEND
  5
18A
330
187
100
AcDbEntity
  8
_U+30EC_U+30A4_U+30E4_U+30FC 1
 62
   179
420
  2234388
370
    25
  0
POLYLINE
  5
18B
330
1F
100
AcDbEntity
  8
_U+30EC_U+30A4_U+30E4_U+30FC 1
 62
   179
420
  2234388
370
    25
100
AcDb2dPolyline
 66
     1
 10
0.0
 20
0.0
 30
0.0
  0
VERTEX
  5
18C
330
18B
100
AcDbEntity
  8
_U+30EC_U+30A4_U+30E4_U+30FC 1
 62
   179
420
  2234388
370
    25
100
AcDbVertex
100
AcDb2dVertex
 10
86.94698472624206
 20
-124.2062116356152
 30
0.0
  0
VERTEX
  5
18D
330
18B
100
AcDbEntity
  8
_U+30EC_U+30A4_U+30E4_U+30FC 1
 62
   179
420
  2234388
370
    25
100
AcDbVertex
100
AcDb2dVertex
 10
87.44718832459192
 20
-124.6054855244043
 30
0.0
  0
SEQEND
  5
18E
330
18B
100
AcDbEntity
  8
_U+30EC_U+30A4_U+30E4_U+30FC 1
 62
   179
420
  2234388
370
    25
  0
POLYLINE
  5
18F
330
1F
100
AcDbEntity
  8
_U+30EC_U+30A4_U+30E4_U+30FC 1
 62
   179
420
  2234388
370
    25
100
AcDb2dPolyline
 66
     1
 10
0.0
 20
0.0
 30
0.0
  0
VERTEX
  5
190
330
18F
100
AcDbEntity
  8
_U+30EC_U+30A4_U+30E4_U+30FC 1
 62
   179
420
  2234388
370
    25
100
AcDbVertex
100
AcDb2dVertex
 10
87.44718832459192
 20
-124.6054855244043
 30
0.0
  0
VERTEX
  5
191
330
18F
100
AcDbEntity
  8
_U+30EC_U+30A4_U+30E4_U+30FC 1
 62
   179
420
  2234388
370
    25
100
AcDbVertex
100
AcDb2dVertex
 10
87.94742720071865
 20
-124.2051533022819
 30
0.0
  0
SEQEND
  5
192
330
18F
100
AcDbEntity
  8
_U+30EC_U+30A4_U+30E4_U+30FC 1
 62
   179
420
  2234388
370
    25
  0
POLYLINE
  5
193
330
1F
100
AcDbEntity
  8
_U+30EC_U+30A4_U+30E4_U+30FC 1
 62
   179
420
  2234388
370
    25
100
AcDb2dPolyline
 66
     1
 10
0.0
 20
0.0
 30
0.0
  0
VERTEX
  5
194
330
193
100
AcDbEntity
  8
_U+30EC_U+30A4_U+30E4_U+30FC 1
 62
   179
420
  2234388
370
    25
100
AcDbVertex
100
AcDb2dVertex
 10
87.94742720071865
 20
-124.2051533022819
 30
0.0
  0
VERTEX
  5
195
330
193
100
AcDbEntity
  8
_U+30EC_U+30A4_U+30E4_U+30FC 1
 62
   179
420
  2234388
370
    25
100
AcDbVertex
100
AcDb2dVertex
 10
88.44784246572976
 20
-124.6051327466266
 30
0.0
  0
SEQEND
  5
196
330
193
100
AcDbEntity
  8
_U+30EC_U+30A4_U+30E4_U+30FC 1
 62
   179
420
  2234388
370
    25
  0
POLYLINE
  5
197
330
1F
100
AcDbEntity
  8
_U+30EC_U+30A4_U+30E4_U+30FC 1
 62
   179
420
  2234388
370
    25
100
AcDb2dPolyline
 66
     1
 10
0.0
 20
0.0
 30
0.0
  0
VERTEX
  5
198
330
197
100
AcDbEntity
  8
_U+30EC_U+30A4_U+30E4_U+30FC 1
 62
   179
420
  2234388
370
    25
100
AcDbVertex
100
AcDb2dVertex
 10
88.44784246572976
 20
-124.6051327466266
 30
0.0
  0
VERTEX
  5
199
330
197
100
AcDbEntity
  8
_U+30EC_U+30A4_U+30E4_U+30FC 1
 62
   179
420
  2234388
370
    25
100
AcDbVertex
100
AcDb2dVertex
 10
88.76269662436384
 20
-124.1924180245075
 30
0.0
  0
SEQEND
  5
19A
330
197
100
AcDbEntity
  8
_U+30EC_U+30A4_U+30E4_U+30FC 1
 62
   179
420
  2234388
370
    25
  0
SPLINE
  5
19B
330
1F
100
AcDbEntity
  8
_U+30EC_U+30A4_U+30E4_U+30FC 1
 62
     7
420
 16777215
370
    25
100
AcDbSpline
210
0.0
220
0.0
230
1.0
 70
     8
 71
     3
 72
     8
 73
     4
 74
     0
 42
0.0000000001
 43
0.0000000001
 12
1.0
 22
0.0
 32
0.0
 13
1.0
 23
0.0
 33
0.0
 40
0.0
 40
0.0
 40
0.0
 40
0.0
 40
1.0
 40
1.0
 40
1.0
 40
1.0
 10
102.2631843354933
 20
-131.49241330046
 30
0.0
 10
102.6497229367429
 20
-131.49241330046
 30
0.0
 10
102.9632365398557
 20
-131.805891633715
 30
0.0
 10
102.9632365398557
 20
-132.1924655225076
 30
0.0
  0
SPLINE
  5
19C
330
1F
100
AcDbEntity
  8
_U+30EC_U+30A4_U+30E4_U+30FC 1
 62
     7
420
 16777215
370
    25
100
AcDbSpline
210
0.0
220
0.0
230
1.0
 70
     8
 71
     3
 72
     8
 73
     4
 74
     0
 42
0.0000000001
 43
0.0000000001
 12
1.0
 22
0.0
 32
0.0
 13
1.0
 23
0.0
 33
0.0
 40
0.0
 40
0.0
 40
0.0
 40
0.0
 40
1.0
 40
1.0
 40
1.0
 40
1.0
 10
94.96198979954002
 20
-123.1926458025353
 30
0.0
 10
95.51423053167693
 20
-123.1926458025353
 30
0.0
 10
95.96211477402471
 20
-123.6405324690899
 30
0.0
 10
95.96211477402471
 20
-124.1924180245075
 30
0.0
  0
SPLINE
  5
19D
330
1F
100
AcDbEntity
  8
_U+30EC_U+30A4_U+30E4_U+30FC 1
 62
     7
420
 16777215
370
    25
100
AcDbSpline
210
0.0
220
0.0
230
1.0
 70
     8
 71
     3
 72
     8
 73
     4
 74
     0
 42
0.0000000001
 43
0.0000000001
 12
1.0
 22
0.0
 32
0.0
 13
1.0
 23
0.0
 33
0.0
 40
0.0
 40
0.0
 40
0.0
 40
0.0
 40
1.0
 40
1.0
 40
1.0
 40
1.0
 10
86.96282444806018
 20
-124.1931235800628
 30
0.0
 10
86.96282444806018
 20
-123.6405324690899
 30
0.0
 10
87.41067582552343
 20
-123.1926458025353
 30
0.0
 10
87.96259664477608
 20
-123.1926458025353
 30
0.0
  0
ENDSEC
  0
SECTION
  2
OBJECTS
  0
DICTIONARY
  5
C
330
0
100
AcDbDictionary
281
     1
  3
ACAD_GROUP
350
D
  3
ACAD_LAYOUT
350
1A
  3
ACAD_MATERIAL
350
3B
  3
ACAD_MLEADERSTYLE
350
19F
  3
ACAD_MLINESTYLE
350
17
  3
ACAD_PLOTSETTINGS
350
19
  3
ACAD_PLOTSTYLENAME
350
E
  3
ACAD_TABLESTYLE
350
19E
  3
ACAD_VISUALSTYLE
350
2A
  0
SUN
  5
3F
330
29
100
AcDbSun
 90
        1
290
     0
 63
     7
421
 16777215
 40
1.0
291
     1
 91
  2455826
 92
 54000000
292
     0
 70
     2
 71
   256
280
     1
  0
DICTIONARY
  5
D
102
{ACAD_REACTORS
330
C
102
}
330
C
100
AcDbDictionary
281
     1
  0
DICTIONARY
  5
1A
102
{ACAD_REACTORS
330
C
102
}
330
C
100
AcDbDictionary
281
     1
  3
Layout1
350
1E
  3
Layout2
350
26
  3
Model
350
22
  0
DICTIONARY
  5
3B
102
{ACAD_REACTORS
330
C
102
}
330
C
100
AcDbDictionary
281
     1
  3
ByBlock
350
3D
  3
ByLayer
350
3C
  3
Global
350
3E
  0
DICTIONARY
  5
19F
102
{ACAD_REACTORS
330
C
102
}
330
C
100
AcDbDictionary
281
     1
  0
DICTIONARY
  5
17
102
{ACAD_REACTORS
330
C
102
}
330
C
100
AcDbDictionary
281
     1
  3
Standard
350
18
  0
DICTIONARY
  5
19
102
{ACAD_REACTORS
330
C
102
}
330
C
100
AcDbDictionary
281
     1
  0
ACDBDICTIONARYWDFLT
  5
E
102
{ACAD_REACTORS
330
C
102
}
330
C
100
AcDbDictionary
281
     1
  3
Normal
350
F
100
AcDbDictionaryWithDefault
340
F
  0
DICTIONARY
  5
19E
102
{ACAD_REACTORS
330
C
102
}
330
C
100
AcDbDictionary
281
     1
  0
DICTIONARY
  5
2A
102
{ACAD_REACTORS
330
C
102
}
330
C
100
AcDbDictionary
281
     1
  3
2dWireframe
350
2F
  3
3D Hidden
350
31
  3
3dWireframe
350
30
  3
Basic
350
32
  3
Brighten
350
36
  3
ColorChange
350
3A
  3
Conceptual
350
34
  3
Dim
350
35
  3
Facepattern
350
39
  3
Flat
350
2B
  3
FlatWithEdges
350
2C
  3
Gouraud
350
2D
  3
GouraudWithEdges
350
2E
  3
Linepattern
350
38
  3
Realistic
350
33
  3
Thicken
350
37
  0
LAYOUT
  5
1E
102
{ACAD_REACTORS
330
1A
102
}
330
1A
100
AcDbPlotSettings
  1

  2
none_device
  4

  6

 40
0.0
 41
0.0
 42
0.0
 43
0.0
 44
0.0
 45
0.0
 46
0.0
 47
0.0
 48
0.0
 49
0.0
140
0.0
141
0.0
142
1.0
143
1.0
 70
   688
 72
     0
 73
     0
 74
     5
  7

 75
    16
 76
     0
 77
     2
 78
   300
147
1.0
148
0.0
149
0.0
100
AcDbLayout
  1
Layout1
 70
     1
 71
     1
 10
0.0
 20
0.0
 11
12.0
 21
9.0
 12
0.0
 22
0.0
 32
0.0
 14
1.000000000000000E+20
 24
1.000000000000000E+20
 34
1.000000000000000E+20
 15
-1.000000000000000E+20
 25
-1.000000000000000E+20
 35
-1.000000000000000E+20
146
0.0
 13
0.0
 23
0.0
 33
0.0
 16
1.0
 26
0.0
 36
0.0
 17
0.0
 27
1.0
 37
0.0
 76
     0
330
1B
  0
LAYOUT
  5
26
102
{ACAD_REACTORS
330
1A
102
}
330
1A
100
AcDbPlotSettings
  1

  2
none_device
  4

  6

 40
0.0
 41
0.0
 42
0.0
 43
0.0
 44
0.0
 45
0.0
 46
0.0
 47
0.0
 48
0.0
 49
0.0
140
0.0
141
0.0
142
1.0
143
1.0
 70
   688
 72
     0
 73
     0
 74
     5
  7

 75
    16
 76
     0
 77
     2
 78
   300
147
1.0
148
0.0
149
0.0
100
AcDbLayout
  1
Layout2
 70
     1
 71
     2
 10
0.0
 20
0.0
 11
0.0
 21
0.0
 12
0.0
 22
0.0
 32
0.0
 14
0.0
 24
0.0
 34
0.0
 15
0.0
 25
0.0
 35
0.0
146
0.0
 13
0.0
 23
0.0
 33
0.0
 16
1.0
 26
0.0
 36
0.0
 17
0.0
 27
1.0
 37
0.0
 76
     0
330
23
  0
LAYOUT
  5
22
102
{ACAD_REACTORS
330
1A
102
}
330
1A
100
AcDbPlotSettings
  1

  2
none_device
  4

  6

 40
0.0
 41
0.0
 42
0.0
 43
0.0
 44
0.0
 45
0.0
 46
0.0
 47
0.0
 48
0.0
 49
0.0
140
0.0
141
0.0
142
1.0
143
1.0
 70
  1712
 72
     0
 73
     0
 74
     0
  7

 75
     0
 76
     0
 77
     2
 78
   300
147
1.0
148
0.0
149
0.0
100
AcDbLayout
  1
Model
 70
     1
 71
     0
 10
0.0
 20
0.0
 11
12.0
 21
9.0
 12
0.0
 22
0.0
 32
0.0
 14
1.000000000000000E+20
 24
1.000000000000000E+20
 34
1.000000000000000E+20
 15
-1.000000000000000E+20
 25
-1.000000000000000E+20
 35
-1.000000000000000E+20
146
0.0
 13
0.0
 23
0.0
 33
0.0
 16
1.0
 26
0.0
 36
0.0
 17
0.0
 27
1.0
 37
0.0
 76
     0
330
1F
331
29
  0
MATERIAL
  5
3D
102
{ACAD_REACTORS
330
3B
102
}
330
3B
100
AcDbMaterial
  1
ByBlock
 72
     1
 94
      127
  0
MATERIAL
  5
3C
102
{ACAD_REACTORS
330
3B
102
}
330
3B
100
AcDbMaterial
  1
ByLayer
 72
     1
 94
      127
  0
MATERIAL
  5
3E
102
{ACAD_REACTORS
330
3B
102
}
330
3B
100
AcDbMaterial
  1
Global
 72
     1
 94
      127
  0
MLINESTYLE
  5
18
102
{ACAD_REACTORS
330
17
102
}
330
17
100
AcDbMlineStyle
  2
Standard
 70
     0
  3

 62
   256
 51
90.0
 52
90.0
 71
     2
 49
0.5
 62
   256
  6
BYLAYER
 49
-0.5
 62
   256
  6
BYLAYER
  0
ACDBPLACEHOLDER
  5
F
102
{ACAD_REACTORS
330
E
102
}
330
E
  0
VISUALSTYLE
  5
2F
102
{ACAD_REACTORS
330
2A
102
}
330
2A
100
AcDbVisualStyle
  2
2dWireframe
 70
     4
177
     2
291
     0
 71
     0
176
     1
 72
     2
176
     1
 73
     0
176
     1
 90
        0
176
     1
 40
-0.6
176
     1
 41
-30.0
176
     1
 62
     5
 63
     7
421
 16777215
176
     1
 74
     1
176
     1
 91
        4
176
     1
 64
     7
176
     1
 65
   257
176
     1
 75
     1
176
     1
175
     1
176
     1
 42
1.0
176
     1
 92
        0
176
     1
 66
   257
176
     1
 43
1.0
176
     1
 76
     1
176
     1
 77
     6
176
     1
 78
     2
176
     1
 67
     7
176
     1
 79
     5
176
     1
170
     0
176
     1
171
     0
176
     1
290
     0
176
     1
 93
        1
176
     1
 44
0.0
176
     1
173
     0
176
     1
  0
VISUALSTYLE
  5
31
102
{ACAD_REACTORS
330
2A
102
}
330
2A
100
AcDbVisualStyle
  2
3D Hidden
 70
     6
177
     2
291
     0
 71
     1
176
     1
 72
     2
176
     1
 73
     2
176
     1
 90
        0
176
     1
 40
-0.6
176
     1
 41
-30.0
176
     1
 62
     5
 63
     7
421
 16777215
176
     1
 74
     2
176
     1
 91
        2
176
     1
 64
     7
176
     1
 65
   257
176
     1
 75
     2
176
     1
175
     1
176
     1
 42
40.0
176
     1
 92
        0
176
     1
 66
   257
176
     1
 43
1.0
176
     1
 76
     1
176
     1
 77
     6
176
     1
 78
     2
176
     1
 67
     7
176
     1
 79
     3
176
     1
170
     0
176
     1
171
     0
176
     1
290
     0
176
     1
 93
        1
176
     1
 44
0.0
176
     1
173
     0
176
     1
  0
VISUALSTYLE
  5
30
102
{ACAD_REACTORS
330
2A
102
}
330
2A
100
AcDbVisualStyle
  2
3dWireframe
 70
     5
177
     2
291
     0
 71
     0
176
     1
 72
     2
176
     1
 73
     0
176
     1
 90
        0
176
     1
 40
-0.6
176
     1
 41
-30.0
176
     1
 62
     5
 63
     7
421
 16777215
176
     1
 74
     1
176
     1
 91
        4
176
     1
 64
     7
176
     1
 65
   257
176
     1
 75
     1
176
     1
175
     1
176
     1
 42
1.0
176
     1
 92
        0
176
     1
 66
   257
176
     1
 43
1.0
176
     1
 76
     1
176
     1
 77
     6
176
     1
 78
     2
176
     1
 67
     7
176
     1
 79
     5
176
     1
170
     0
176
     1
171
     0
176
     1
290
     0
176
     1
 93
        1
176
     1
 44
0.0
176
     1
173
     0
176
     1
  0
VISUALSTYLE
  5
32
102
{ACAD_REACTORS
330
2A
102
}
330
2A
100
AcDbVisualStyle
  2
Basic
 70
     7
177
     2
291
     1
 71
     1
176
     1
 72
     0
176
     1
 73
     1
176
     1
 90
        0
176
     1
 40
-0.6
176
     1
 41
-30.0
176
     1
 62
     5
 63
     7
421
 16777215
176
     1
 74
     0
176
     1
 91
        4
176
     1
 64
     7
176
     1
 65
   257
176
     1
 75
     1
176
     1
175
     1
176
     1
 42
1.0
176
     1
 92
        8
176
     1
 66
     7
176
     1
 43
1.0
176
     1
 76
     1
176
     1
 77
     6
176
     1
 78
     2
176
     1
 67
     7
176
     1
 79
     5
176
     1
170
     0
176
     1
171
     0
176
     1
290
     0
176
     1
 93
        1
176
     1
 44
0.0
176
     1
173
     0
176
     1
  0
VISUALSTYLE
  5
36
102
{ACAD_REACTORS
330
2A
102
}
330
2A
100
AcDbVisualStyle
  2
Brighten
 70
    12
177
     2
291
     1
 71
     2
176
     1
 72
     2
176
     1
 73
     0
176
     1
 90
        0
176
     1
 40
-0.6
176
     1
 41
-30.0
176
     1
 62
     5
 63
     7
421
 16777215
176
     1
 74
     1
176
     1
 91
        4
176
     1
 64
     7
176
     1
 65
   257
176
     1
 75
     1
176
     1
175
     1
176
     1
 42
1.0
176
     1
 92
        8
176
     1
 66
     7
176
     1
 43
1.0
176
     1
 76
     1
176
     1
 77
     6
176
     1
 78
     2
176
     1
 67
     7
176
     1
 79
     5
176
     1
170
     0
176
     1
171
     0
176
     1
290
     0
176
     1
 93
        1
176
     1
 44
50.0
176
     1
173
     0
176
     1
  0
VISUALSTYLE
  5
3A
102
{ACAD_REACTORS
330
2A
102
}
330
2A
100
AcDbVisualStyle
  2
ColorChange
 70
    16
177
     2
291
     1
 71
     2
176
     1
 72
     2
176
     1
 73
     3
176
     1
 90
        0
176
     1
 40
-0.6
176
     1
 41
-30.0
176
     1
 62
     5
 63
     8
421
  8421504
176
     1
 74
     1
176
     1
 91
        4
176
     1
 64
     7
176
     1
 65
   257
176
     1
 75
     1
176
     1
175
     1
176
     1
 42
1.0
176
     1
 92
        8
176
     1
 66
     8
424
  8421504
176
     1
 43
1.0
176
     1
 76
     1
176
     1
 77
     6
176
     1
 78
     2
176
     1
 67
     7
176
     1
 79
     5
176
     1
170
     0
176
     1
171
     0
176
     1
290
     0
176
     1
 93
        1
176
     1
 44
0.0
176
     1
173
     0
176
     1
  0
VISUALSTYLE
  5
34
102
{ACAD_REACTORS
330
2A
102
}
330
2A
100
AcDbVisualStyle
  2
Conceptual
 70
     9
177
     2
291
     0
 71
     3
176
     1
 72
     2
176
     1
 73
     0
176
     1
 90
        0
176
     1
 40
-0.6
176
     1
 41
-30.0
176
     1
 62
     5
 63
     7
421
 16777215
176
     1
 74
     2
176
     1
 91
        2
176
     1
 64
     7
176
     1
 65
   257
176
     1
 75
     1
176
     1
175
     1
176
     1
 42
40.0
176
     1
 92
        8
176
     1
 66
     7
176
     1
 43
1.0
176
     1
 76
     1
176
     1
 77
     6
176
     1
 78
     2
176
     1
 67
     7
176
     1
 79
     3
176
     1
170
     0
176
     1
171
     0
176
     1
290
     0
176
     1
 93
        1
176
     1
 44
0.0
176
     1
173
     0
176
     1
  0
VISUALSTYLE
  5
35
102
{ACAD_REACTORS
330
2A
102
}
330
2A
100
AcDbVisualStyle
  2
Dim
 70
    11
177
     2
291
     1
 71
     2
176
     1
 72
     2
176
     1
 73
     0
176
     1
 90
        0
176
     1
 40
-0.6
176
     1
 41
-30.0
176
     1
 62
     5
 63
     7
421
 16777215
176
     1
 74
     1
176
     1
 91
        4
176
     1
 64
     7
176
     1
 65
   257
176
     1
 75
     1
176
     1
175
     1
176
     1
 42
1.0
176
     1
 92
        8
176
     1
 66
     7
176
     1
 43
1.0
176
     1
 76
     1
176
     1
 77
     6
176
     1
 78
     2
176
     1
 67
     7
176
     1
 79
     5
176
     1
170
     0
176
     1
171
     0
176
     1
290
     0
176
     1
 93
        1
176
     1
 44
-50.0
176
     1
173
     0
176
     1
  0
VISUALSTYLE
  5
39
102
{ACAD_REACTORS
330
2A
102
}
330
2A
100
AcDbVisualStyle
  2
Facepattern
 70
    15
177
     2
291
     1
 71
     2
176
     1
 72
     2
176
     1
 73
     0
176
     1
 90
        0
176
     1
 40
-0.6
176
     1
 41
-30.0
176
     1
 62
     5
 63
     7
421
 16777215
176
     1
 74
     1
176
     1
 91
        4
176
     1
 64
     7
176
     1
 65
   257
176
     1
 75
     1
176
     1
175
     1
176
     1
 42
1.0
176
     1
 92
        8
176
     1
 66
     7
176
     1
 43
1.0
176
     1
 76
     1
176
     1
 77
     6
176
     1
 78
     2
176
     1
 67
     7
176
     1
 79
     5
176
     1
170
     0
176
     1
171
     0
176
     1
290
     0
176
     1
 93
        1
176
     1
 44
0.0
176
     1
173
     0
176
     1
  0
VISUALSTYLE
  5
2B
102
{ACAD_REACTORS
330
2A
102
}
330
2A
100
AcDbVisualStyle
  2
Flat
 70
     0
177
     2
291
     1
 71
     2
176
     1
 72
     1
176
     1
 73
     1
176
     1
 90
        2
176
     1
 40
-0.6
176
     1
 41
30.0
176
     1
 62
     5
 63
     7
421
 16777215
176
     1
 74
     0
176
     1
 91
        4
176
     1
 64
     7
176
     1
 65
   257
176
     1
 75
     1
176
     1
175
     1
176
     1
 42
1.0
176
     1
 92
        8
176
     1
 66
     7
176
     1
 43
1.0
176
     1
 76
     1
176
     1
 77
     6
176
     1
 78
     2
176
     1
 67
     7
176
     1
 79
     5
176
     1
170
     0
176
     1
171
     0
176
     1
290
     0
176
     1
 93
       13
176
     1
 44
0.0
176
     1
173
     0
176
     1
  0
VISUALSTYLE
  5
2C
102
{ACAD_REACTORS
330
2A
102
}
330
2A
100
AcDbVisualStyle
  2
FlatWithEdges
 70
     1
177
     2
291
     1
 71
     2
176
     1
 72
     1
176
     1
 73
     1
176
     1
 90
        2
176
     1
 40
-0.6
176
     1
 41
30.0
176
     1
 62
     5
 63
     7
421
 16777215
176
     1
 74
     1
176
     1
 91
        4
176
     1
 64
     7
176
     1
 65
   257
176
     1
 75
     1
176
     1
175
     1
176
     1
 42
1.0
176
     1
 92
        0
176
     1
 66
   257
176
     1
 43
1.0
176
     1
 76
     1
176
     1
 77
     6
176
     1
 78
     2
176
     1
 67
     7
176
     1
 79
     5
176
     1
170
     0
176
     1
171
     0
176
     1
290
     0
176
     1
 93
       13
176
     1
 44
0.0
176
     1
173
     0
176
     1
  0
VISUALSTYLE
  5
2D
102
{ACAD_REACTORS
330
2A
102
}
330
2A
100
AcDbVisualStyle
  2
Gouraud
 70
     2
177
     2
291
     1
 71
     2
176
     1
 72
     2
176
     1
 73
     1
176
     1
 90
        2
176
     1
 40
-0.6
176
     1
 41
30.0
176
     1
 62
     5
 63
     7
421
 16777215
176
     1
 74
     0
176
     1
 91
        4
176
     1
 64
     7
176
     1
 65
   257
176
     1
 75
     1
176
     1
175
     1
176
     1
 42
1.0
176
     1
 92
        0
176
     1
 66
     7
176
     1
 43
1.0
176
     1
 76
     1
176
     1
 77
     6
176
     1
 78
     2
176
     1
 67
     7
176
     1
 79
     5
176
     1
170
     0
176
     1
171
     0
176
     1
290
     0
176
     1
 93
       13
176
     1
 44
0.0
176
     1
173
     0
176
     1
  0
VISUALSTYLE
  5
2E
102
{ACAD_REACTORS
330
2A
102
}
330
2A
100
AcDbVisualStyle
  2
GouraudWithEdges
 70
     3
177
     2
291
     1
 71
     2
176
     1
 72
     2
176
     1
 73
     1
176
     1
 90
        2
176
     1
 40
-0.6
176
     1
 41
30.0
176
     1
 62
     5
 63
     7
421
 16777215
176
     1
 74
     1
176
     1
 91
        4
176
     1
 64
     7
176
     1
 65
   257
176
     1
 75
     1
176
     1
175
     1
176
     1
 42
1.0
176
     1
 92
        0
176
     1
 66
   257
176
     1
 43
1.0
176
     1
 76
     1
176
     1
 77
     6
176
     1
 78
     2
176
     1
 67
     7
176
     1
 79
     5
176
     1
170
     0
176
     1
171
     0
176
     1
290
     0
176
     1
 93
       13
176
     1
 44
0.0
176
     1
173
     0
176
     1
  0
VISUALSTYLE
  5
38
102
{ACAD_REACTORS
330
2A
102
}
330
2A
100
AcDbVisualStyle
  2
Linepattern
 70
    14
177
     2
291
     1
 71
     2
176
     1
 72
     2
176
     1
 73
     0
176
     1
 90
        0
176
     1
 40
-0.6
176
     1
 41
-30.0
176
     1
 62
     5
 63
     7
421
 16777215
176
     1
 74
     1
176
     1
 91
        4
176
     1
 64
     7
176
     1
 65
   257
176
     1
 75
     7
176
     1
175
     7
176
     1
 42
1.0
176
     1
 92
        8
176
     1
 66
     7
176
     1
 43
1.0
176
     1
 76
     1
176
     1
 77
     6
176
     1
 78
     2
176
     1
 67
     7
176
     1
 79
     5
176
     1
170
     0
176
     1
171
     0
176
     1
290
     0
176
     1
 93
        1
176
     1
 44
0.0
176
     1
173
     0
176
     1
  0
VISUALSTYLE
  5
33
102
{ACAD_REACTORS
330
2A
102
}
330
2A
100
AcDbVisualStyle
  2
Realistic
 70
     8
177
     2
291
     0
 71
     2
176
     1
 72
     2
176
     1
 73
     0
176
     1
 90
        0
176
     1
 40
-0.6
176
     1
 41
-30.0
176
     1
 62
     5
 63
     7
421
 16777215
176
     1
 74
     1
176
     1
 91
        0
176
     1
 64
     7
176
     1
 65
   257
176
     1
 75
     1
176
     1
175
     1
176
     1
 42
1.0
176
     1
 92
        8
176
     1
 66
     8
424
  7895160
176
     1
 43
1.0
176
     1
 76
     1
176
     1
 77
     6
176
     1
 78
     2
176
     1
 67
     7
176
     1
 79
     5
176
     1
170
     0
176
     1
171
     0
176
     1
290
     0
176
     1
 93
       13
176
     1
 44
0.0
176
     1
173
     0
176
     1
  0
VISUALSTYLE
  5
37
102
{ACAD_REACTORS
330
2A
102
}
330
2A
100
AcDbVisualStyle
  2
Thicken
 70
    13
177
     2
291
     1
 71
     2
176
     1
 72
     2
176
     1
 73
     0
176
     1
 90
        0
176
     1
 40
-0.6
176
     1
 41
-30.0
176
     1
 62
     5
 63
     7
421
 16777215
176
     1
 74
     1
176
     1
 91
        4
176
     1
 64
     7
176
     1
 65
   257
176
     1
 75
     1
176
     1
175
     1
176
     1
 42
1.0
176
     1
 92
       12
176
     1
 66
     7
176
     1
 43
1.0
176
     1
 76
     1
176
     1
 77
     6
176
     1
 78
     2
176
     1
 67
     7
176
     1
 79
     5
176
     1
170
     0
176
     1
171
     0
176
     1
290
     0
176
     1
 93
        1
176
     1
 44
0.0
176
     1
173
     0
176
     1
  0
ENDSEC
  0
EOF
