  0
SECTION
  2
HEADER
  9
$ACADVER
  1
AC1024
  9
$ACADMAINTVER
 70
   226
  9
$DWGCODEPAGE
  3
ANSI_932
  9
$INSBASE
 10
0.0
 20
0.0
 30
0.0
  9
$EXTMIN
 10
1.000000000000000E+20
 20
1.000000000000000E+20
 30
1.000000000000000E+20
  9
$EXTMAX
 10
-1.000000000000000E+20
 20
-1.000000000000000E+20
 30
-1.000000000000000E+20
  9
$LIMMIN
 10
0.0
 20
0.0
  9
$LIMMAX
 10
12.0
 20
9.0
  9
$ORTHOMODE
 70
     0
  9
$REGENMODE
 70
     1
  9
$FILLMODE
 70
     1
  9
$QTEXTMODE
 70
     0
  9
$MIRRTEXT
 70
     0
  9
$LTSCALE
 40
1.0
  9
$ATTMODE
 70
     1
  9
$TEXTSIZE
 40
0.2
  9
$TRACEWID
 40
0.05
  9
$TEXTSTYLE
  7
Standard
  9
$CLAYER
  8
0
  9
$CELTYPE
  6
ByLayer
  9
$CECOLOR
 62
   256
  9
$CELTSCALE
 40
1.0
  9
$DISPSILH
 70
     0
  9
$DIMSCALE
 40
1.0
  9
$DIMASZ
 40
0.18
  9
$DIMEXO
 40
0.0625
  9
$DIMDLI
 40
0.38
  9
$DIMRND
 40
0.0
  9
$DIMDLE
 40
0.0
  9
$DIMEXE
 40
0.18
  9
$DIMTP
 40
0.0
  9
$DIMTM
 40
0.0
  9
$DIMTXT
 40
0.18
  9
$DIMCEN
 40
0.09
  9
$DIMTSZ
 40
0.0
  9
$DIMTOL
 70
     0
  9
$DIMLIM
 70
     0
  9
$DIMTIH
 70
     1
  9
$DIMTOH
 70
     1
  9
$DIMSE1
 70
     0
  9
$DIMSE2
 70
     0
  9
$DIMTAD
 70
     0
  9
$DIMZIN
 70
     0
  9
$DIMBLK
  1

  9
$DIMASO
 70
     1
  9
$DIMSHO
 70
     1
  9
$DIMPOST
  1

  9
$DIMAPOST
  1

  9
$DIMALT
 70
     0
  9
$DIMALTD
 70
     2
  9
$DIMALTF
 40
25.4
  9
$DIMLFAC
 40
1.0
  9
$DIMTOFL
 70
     0
  9
$DIMTVP
 40
0.0
  9
$DIMTIX
 70
     0
  9
$DIMSOXD
 70
     0
  9
$DIMSAH
 70
     0
  9
$DIMBLK1
  1

  9
$DIMBLK2
  1

  9
$DIMSTYLE
  2
Standard
  9
$DIMCLRD
 70
     0
  9
$DIMCLRE
 70
     0
  9
$DIMCLRT
 70
     0
  9
$DIMTFAC
 40
1.0
  9
$DIMGAP
 40
0.09
  9
$DIMJUST
 70
     0
  9
$DIMSD1
 70
     0
  9
$DIMSD2
 70
     0
  9
$DIMTOLJ
 70
     1
  9
$DIMTZIN
 70
     0
  9
$DIMALTZ
 70
     0
  9
$DIMALTTZ
 70
     0
  9
$DIMUPT
 70
     0
  9
$DIMDEC
 70
     4
  9
$DIMTDEC
 70
     4
  9
$DIMALTU
 70
     2
  9
$DIMALTTD
 70
     2
  9
$DIMTXSTY
  7
Standard
  9
$DIMAUNIT
 70
     0
  9
$DIMADEC
 70
     0
  9
$DIMALTRND
 40
0.0
  9
$DIMAZIN
 70
     0
  9
$DIMDSEP
 70
    46
  9
$DIMATFIT
 70
     3
  9
$DIMFRAC
 70
     0
  9
$DIMLDRBLK
  1

  9
$DIMLUNIT
 70
     2
  9
$DIMLWD
 70
    -2
  9
$DIMLWE
 70
    -2
  9
$DIMTMOVE
 70
     0
  9
$DIMFXL
 40
1.0
  9
$DIMFXLON
 70
     0
  9
$DIMJOGANG
 40
0.7853981633974483
  9
$DIMTFILL
 70
     0
  9
$DIMTFILLCLR
 70
     0
  9
$DIMARCSYM
 70
     0
  9
$DIMLTYPE
  6

  9
$DIMLTEX1
  6

  9
$DIMLTEX2
  6

  9
$DIMTXTDIRECTION
 70
     0
  9
$LUNITS
 70
     2
  9
$LUPREC
 70
     4
  9
$SKETCHINC
 40
0.1
  9
$FILLETRAD
 40
0.0
  9
$AUNITS
 70
     0
  9
$AUPREC
 70
     0
  9
$MENU
  1
.
  9
$ELEVATION
 40
0.0
  9
$PELEVATION
 40
0.0
  9
$THICKNESS
 40
0.0
  9
$LIMCHECK
 70
     0
  9
$CHAMFERA
 40
0.0
  9
$CHAMFERB
 40
0.0
  9
$CHAMFERC
 40
0.0
  9
$CHAMFERD
 40
0.0
  9
$SKPOLY
 70
     0
  9
$TDCREATE
 40
2459569.490254629
  9
$TDUCREATE
 40
2459569.115254629
  9
$TDUPDATE
 40
2459569.490254629
  9
$TDUUPDATE
 40
2459569.115254629
  9
$TDINDWG
 40
0.0000000000
  9
$TDUSRTIMER
 40
0.0000000000
  9
$USRTIMER
 70
     1
  9
$ANGBASE
 50
0.0
  9
$ANGDIR
 70
     0
  9
$PDMODE
 70
     0
  9
$PDSIZE
 40
0.0
  9
$PLINEWID
 40
0.0
  9
$SPLFRAME
 70
     0
  9
$SPLINETYPE
 70
     6
  9
$SPLINESEGS
 70
     8
  9
$HANDSEED
  5
143
  9
$SURFTAB1
 70
     6
  9
$SURFTAB2
 70
     6
  9
$SURFTYPE
 70
     6
  9
$SURFU
 70
     6
  9
$SURFV
 70
     6
  9
$UCSBASE
  2

  9
$UCSNAME
  2

  9
$UCSORG
 10
0.0
 20
0.0
 30
0.0
  9
$UCSXDIR
 10
1.0
 20
0.0
 30
0.0
  9
$UCSYDIR
 10
0.0
 20
1.0
 30
0.0
  9
$UCSORTHOREF
  2

  9
$UCSORTHOVIEW
 70
     0
  9
$UCSORGTOP
 10
0.0
 20
0.0
 30
0.0
  9
$UCSORGBOTTOM
 10
0.0
 20
0.0
 30
0.0
  9
$UCSORGLEFT
 10
0.0
 20
0.0
 30
0.0
  9
$UCSORGRIGHT
 10
0.0
 20
0.0
 30
0.0
  9
$UCSORGFRONT
 10
0.0
 20
0.0
 30
0.0
  9
$UCSORGBACK
 10
0.0
 20
0.0
 30
0.0
  9
$PUCSBASE
  2

  9
$PUCSNAME
  2

  9
$PUCSORG
 10
0.0
 20
0.0
 30
0.0
  9
$PUCSXDIR
 10
1.0
 20
0.0
 30
0.0
  9
$PUCSYDIR
 10
0.0
 20
1.0
 30
0.0
  9
$PUCSORTHOREF
  2

  9
$PUCSORTHOVIEW
 70
     0
  9
$PUCSORGTOP
 10
0.0
 20
0.0
 30
0.0
  9
$PUCSORGBOTTOM
 10
0.0
 20
0.0
 30
0.0
  9
$PUCSORGLEFT
 10
0.0
 20
0.0
 30
0.0
  9
$PUCSORGRIGHT
 10
0.0
 20
0.0
 30
0.0
  9
$PUCSORGFRONT
 10
0.0
 20
0.0
 30
0.0
  9
$PUCSORGBACK
 10
0.0
 20
0.0
 30
0.0
  9
$USERI1
 70
     0
  9
$USERI2
 70
     0
  9
$USERI3
 70
     0
  9
$USERI4
 70
     0
  9
$USERI5
 70
     0
  9
$USERR1
 40
0.0
  9
$USERR2
 40
0.0
  9
$USERR3
 40
0.0
  9
$USERR4
 40
0.0
  9
$USERR5
 40
0.0
  9
$WORLDVIEW
 70
     1
  9
$SHADEDGE
 70
     3
  9
$SHADEDIF
 70
    70
  9
$TILEMODE
 70
     1
  9
$MAXACTVP
 70
    64
  9
$PINSBASE
 10
0.0
 20
0.0
 30
0.0
  9
$PLIMCHECK
 70
     0
  9
$PEXTMIN
 10
1.000000000000000E+20
 20
1.000000000000000E+20
 30
1.000000000000000E+20
  9
$PEXTMAX
 10
-1.000000000000000E+20
 20
-1.000000000000000E+20
 30
-1.000000000000000E+20
  9
$PLIMMIN
 10
0.0
 20
0.0
  9
$PLIMMAX
 10
12.0
 20
9.0
  9
$UNITMODE
 70
     0
  9
$VISRETAIN
 70
     1
  9
$PLINEGEN
 70
     0
  9
$PSLTSCALE
 70
     1
  9
$TREEDEPTH
 70
  3020
  9
$CMLSTYLE
  2
Standard
  9
$CMLJUST
 70
     0
  9
$CMLSCALE
 40
1.0
  9
$PROXYGRAPHICS
 70
     1
  9
$MEASUREMENT
 70
     0
  9
$CELWEIGHT
370
    -1
  9
$ENDCAPS
280
     0
  9
$JOINSTYLE
280
     0
  9
$LWDISPLAY
290
     1
  9
$INSUNITS
 70
     4
  9
$HYPERLINKBASE
  1

  9
$STYLESHEET
  1

  9
$XEDIT
290
     1
  9
$CEPSNTYPE
380
     0
  9
$PSTYLEMODE
290
     1
  9
$FINGERPRINTGUID
  2
{90F44CB3-C78C-4940-AE8D-1C933AC476B7}
  9
$VERSIONGUID
  2
{C782DE9D-2410-7243-B041-83371AFEDF0D}
  9
$EXTNAMES
290
     1
  9
$PSVPSCALE
 40
0.0
  9
$OLESTARTUP
290
     0
  9
$SORTENTS
280
   127
  9
$INDEXCTL
280
     0
  9
$HIDETEXT
280
     1
  9
$XCLIPFRAME
280
     2
  9
$HALOGAP
280
     0
  9
$OBSCOLOR
 70
   257
  9
$OBSLTYPE
280
     0
  9
$INTERSECTIONDISPLAY
280
     0
  9
$INTERSECTIONCOLOR
 70
   257
  9
$DIMASSOC
280
     2
  9
$PROJECTNAME
  1

  9
$CAMERADISPLAY
290
     0
  9
$LENSLENGTH
 40
50.0
  9
$CAMERAHEIGHT
 40
0.0
  9
$STEPSPERSEC
 40
2.0
  9
$STEPSIZE
 40
6.0
  9
$3DDWFPREC
 40
2.0
  9
$PSOLWIDTH
 40
0.25
  9
$PSOLHEIGHT
 40
4.0
  9
$LOFTANG1
 40
1.570796326794896
  9
$LOFTANG2
 40
1.570796326794896
  9
$LOFTMAG1
 40
0.0
  9
$LOFTMAG2
 40
0.0
  9
$LOFTPARAM
 70
     7
  9
$LOFTNORMALS
280
     1
  9
$LATITUDE
 40
37.795
  9
$LONGITUDE
 40
-122.394
  9
$NORTHDIRECTION
 40
0.0
  9
$TIMEZONE
 70
 -8000
  9
$LIGHTGLYPHDISPLAY
280
     1
  9
$TILEMODELIGHTSYNCH
280
     1
  9
$CMATERIAL
347
11
  9
$SOLIDHIST
280
     0
  9
$SHOWHIST
280
     1
  9
$DWFFRAME
280
     2
  9
$DGNFRAME
280
     0
  9
$REALWORLDSCALE
290
     1
  9
$INTERFERECOLOR
 62
     1
  9
$INTERFEREOBJVS
345
33
  9
$INTERFEREVPVS
346
30
  9
$CSHADOW
280
     0
  9
$SHADOWPLANELOCATION
 40
0.0
  0
ENDSEC
  0
SECTION
  2
CLASSES
  0
CLASS
  1
ACDBDICTIONARYWDFLT
  2
AcDbDictionaryWithDefault
  3
ObjectDBX Classes
 90
        0
 91
        1
280
     0
281
     0
  0
CLASS
  1
MATERIAL
  2
AcDbMaterial
  3
ObjectDBX Classes
 90
     1153
 91
        3
280
     0
281
     0
  0
CLASS
  1
VISUALSTYLE
  2
AcDbVisualStyle
  3
ObjectDBX Classes
 90
     4095
 91
       24
280
     0
281
     0
  0
CLASS
  1
SCALE
  2
AcDbScale
  3
ObjectDBX Classes
 90
     1153
 91
       17
280
     0
281
     0
  0
CLASS
  1
TABLESTYLE
  2
AcDbTableStyle
  3
ObjectDBX Classes
 90
     4095
 91
        1
280
     0
281
     0
  0
CLASS
  1
MLEADERSTYLE
  2
AcDbMLeaderStyle
  3
ACDB_MLEADERSTYLE_CLASS
 90
     4095
 91
        1
280
     0
281
     0
  0
CLASS
  1
ACDBSECTIONVIEWSTYLE
  2
AcDbSectionViewStyle
  3
ObjectDBX Classes
 90
     1025
 91
        1
280
     0
281
     0
  0
CLASS
  1
ACDBDETAILVIEWSTYLE
  2
AcDbDetailViewStyle
  3
ObjectDBX Classes
 90
     1025
 91
        1
280
     0
281
     0
  0
CLASS
  1
DICTIONARYVAR
  2
AcDbDictionaryVar
  3
ObjectDBX Classes
 90
        0
 91
        5
280
     0
281
     0
  0
CLASS
  1
CELLSTYLEMAP
  2
AcDbCellStyleMap
  3
ObjectDBX Classes
 90
     1152
 91
        1
280
     0
281
     0
  0
ENDSEC
  0
SECTION
  2
TABLES
  0
TABLE
  2
VPORT
  5
8
330
0
100
AcDbSymbolTable
 70
     1
  0
VPORT
  5
57
330
8
100
AcDbSymbolTableRecord
100
AcDbViewportTableRecord
  2
*Active
 70
     0
 10
0.0
 20
0.0
 11
1.0
 21
1.0
 12
0.0
 22
0.0
 13
0.0
 23
0.0
 14
1.0
 24
1.0
 15
0.0
 25
0.0
 16
0.0
 26
0.0
 36
1.0
 17
104.9999999737534
 27
-148.4999999628701
 37
0.0
 40
302.939999924255
 41
0.7070707070707534
 42
50.0
 43
0.0
 44
0.0
 50
0.0
 51
0.0
 71
     0
 72
   100
 73
     1
 74
     0
 75
     1
 76
     0
 77
     0
 78
     0
281
     0
 65
     1
110
0.0
120
0.0
130
0.0
111
1.0
121
0.0
131
0.0
112
0.0
122
1.0
132
0.0
 79
     0
146
0.0
 60
     3
 61
     5
292
     1
282
     1
141
0.0
142
0.0
 63
   250
421
  3355443
  0
ENDTAB
  0
TABLE
  2
LTYPE
  5
5
330
0
100
AcDbSymbolTable
 70
     2
  0
LTYPE
  5
5B
330
5
100
AcDbSymbolTableRecord
100
AcDbLinetypeTableRecord
  2
ByBlock
 70
     0
  3

 72
    65
 73
     0
 40
0.0
  0
LTYPE
  5
5C
330
5
100
AcDbSymbolTableRecord
100
AcDbLinetypeTableRecord
  2
ByLayer
 70
     0
  3

 72
    65
 73
     0
 40
0.0
  0
LTYPE
  5
5D
330
5
100
AcDbSymbolTableRecord
100
AcDbLinetypeTableRecord
  2
Continuous
 70
     0
  3
Solid line
 72
    65
 73
     0
 40
0.0
  0
LTYPE
  5
E6
330
5
100
AcDbSymbolTableRecord
100
AcDbLinetypeTableRecord
  2
AI-Linetype-0
 70
     0
  3
Adobe Illustrator Linetype No. 0
 72
    65
 73
     2
 40
1.411111110758333
 49
0.7055555553791667
 74
     0
 49
-0.7055555553791667
 74
     0
  0
ENDTAB
  0
TABLE
  2
LAYER
  5
2
330
0
100
AcDbSymbolTable
 70
     2
  0
LAYER
  5
54
330
2
100
AcDbSymbolTableRecord
100
AcDbLayerTableRecord
  2
0
 70
     0
 62
     7
  6
Continuous
370
    -3
390
F
347
21
  0
LAYER
  5
78
330
2
100
AcDbSymbolTableRecord
100
AcDbLayerTableRecord
  2
レイヤー 1
 70
     0
 62
     7
  6
Continuous
370
     0
390
F
347
21
  0
ENDTAB
  0
TABLE
  2
STYLE
  5
3
330
0
100
AcDbSymbolTable
 70
     2
  0
STYLE
  5
55
330
3
100
AcDbSymbolTableRecord
100
AcDbTextStyleTableRecord
  2
Standard
 70
     0
 40
0.0
 41
1.0
 50
0.0
 71
     0
 42
0.2
  3
txt
  4

  0
STYLE
  5
5A
330
3
100
AcDbSymbolTableRecord
100
AcDbTextStyleTableRecord
  2
Annotative
 70
     0
 40
0.0
 41
1.0
 50
0.0
 71
     0
 42
0.2
  3
txt
  4

1001
AcadAnnotative
1000
AnnotativeData
1002
{
1070
     1
1070
     1
1002
}
  0
ENDTAB
  0
TABLE
  2
VIEW
  5
6
330
0
100
AcDbSymbolTable
 70
     0
  0
ENDTAB
  0
TABLE
  2
UCS
  5
7
330
0
100
AcDbSymbolTable
 70
     0
  0
ENDTAB
  0
TABLE
  2
APPID
  5
9
330
0
100
AcDbSymbolTable
 70
     2
  0
APPID
  5
56
330
9
100
AcDbSymbolTableRecord
100
AcDbRegAppTableRecord
  2
ACAD
 70
     0
  0
APPID
  5
5E
330
9
100
AcDbSymbolTableRecord
100
AcDbRegAppTableRecord
  2
AcadAnnotative
 70
     0
  0
ENDTAB
  0
TABLE
  2
DIMSTYLE
  5
A
330
0
100
AcDbSymbolTable
 70
     2
100
AcDbDimStyleTable
 71
     0
  0
DIMSTYLE
105
58
330
A
100
AcDbSymbolTableRecord
100
AcDbDimStyleTableRecord
  2
Standard
 70
     0
340
55
  0
DIMSTYLE
105
59
330
A
100
AcDbSymbolTableRecord
100
AcDbDimStyleTableRecord
  2
Annotative
 70
     0
340
55
1001
AcadAnnotative
1000
AnnotativeData
1002
{
1070
     1
1070
     1
1002
}
  0
ENDTAB
  0
TABLE
  2
BLOCK_RECORD
  5
1
330
0
100
AcDbSymbolTable
 70
    18
  0
BLOCK_RECORD
  5
70
330
1
100
AcDbSymbolTableRecord
100
AcDbBlockTableRecord
  2
*Model_Space
340
73
 70
     0
280
     1
281
     0
  0
BLOCK_RECORD
  5
6C
330
1
100
AcDbSymbolTableRecord
100
AcDbBlockTableRecord
  2
*Paper_Space
340
6F
 70
     0
280
     1
281
     0
  0
BLOCK_RECORD
  5
74
330
1
100
AcDbSymbolTableRecord
100
AcDbBlockTableRecord
  2
*Paper_Space0
340
77
 70
     0
280
     1
281
     0
  0
BLOCK_RECORD
  5
79
330
1
100
AcDbSymbolTableRecord
100
AcDbBlockTableRecord
  2
Block_0
340
0
102
{BLKREFS
331
7A
102
}
 70
     0
280
     1
281
     0
  0
BLOCK_RECORD
  5
87
330
1
100
AcDbSymbolTableRecord
100
AcDbBlockTableRecord
  2
Block_1
340
0
102
{BLKREFS
331
88
102
}
 70
     0
280
     1
281
     0
  0
BLOCK_RECORD
  5
8F
330
1
100
AcDbSymbolTableRecord
100
AcDbBlockTableRecord
  2
Block_2
340
0
102
{BLKREFS
331
90
102
}
 70
     0
280
     1
281
     0
  0
BLOCK_RECORD
  5
93
330
1
100
AcDbSymbolTableRecord
100
AcDbBlockTableRecord
  2
Block_3
340
0
102
{BLKREFS
331
94
102
}
 70
     0
280
     1
281
     0
  0
BLOCK_RECORD
  5
A0
330
1
100
AcDbSymbolTableRecord
100
AcDbBlockTableRecord
  2
Block_4
340
0
102
{BLKREFS
331
A1
102
}
 70
     0
280
     1
281
     0
  0
BLOCK_RECORD
  5
A6
330
1
100
AcDbSymbolTableRecord
100
AcDbBlockTableRecord
  2
Block_5
340
0
102
{BLKREFS
331
A7
102
}
 70
     0
280
     1
281
     0
  0
BLOCK_RECORD
  5
AC
330
1
100
AcDbSymbolTableRecord
100
AcDbBlockTableRecord
  2
Block_6
340
0
102
{BLKREFS
331
AD
102
}
 70
     0
280
     1
281
     0
  0
BLOCK_RECORD
  5
B3
330
1
100
AcDbSymbolTableRecord
100
AcDbBlockTableRecord
  2
Block_7
340
0
102
{BLKREFS
331
B4
102
}
 70
     0
280
     1
281
     0
  0
BLOCK_RECORD
  5
B7
330
1
100
AcDbSymbolTableRecord
100
AcDbBlockTableRecord
  2
Block_8
340
0
102
{BLKREFS
331
B8
102
}
 70
     0
280
     1
281
     0
  0
BLOCK_RECORD
  5
BF
330
1
100
AcDbSymbolTableRecord
100
AcDbBlockTableRecord
  2
Block_9
340
0
102
{BLKREFS
331
C0
102
}
 70
     0
280
     1
281
     0
  0
BLOCK_RECORD
  5
C6
330
1
100
AcDbSymbolTableRecord
100
AcDbBlockTableRecord
  2
Block_10
340
0
102
{BLKREFS
331
C7
102
}
 70
     0
280
     1
281
     0
  0
BLOCK_RECORD
  5
CA
330
1
100
AcDbSymbolTableRecord
100
AcDbBlockTableRecord
  2
Block_11
340
0
102
{BLKREFS
331
CB
102
}
 70
     0
280
     1
281
     0
  0
BLOCK_RECORD
  5
D4
330
1
100
AcDbSymbolTableRecord
100
AcDbBlockTableRecord
  2
Block_12
340
0
102
{BLKREFS
331
D5
102
}
 70
     0
280
     1
281
     0
  0
BLOCK_RECORD
  5
DB
330
1
100
AcDbSymbolTableRecord
100
AcDbBlockTableRecord
  2
Block_13
340
0
102
{BLKREFS
331
DC
102
}
 70
     0
280
     1
281
     0
  0
BLOCK_RECORD
  5
E1
330
1
100
AcDbSymbolTableRecord
100
AcDbBlockTableRecord
  2
Block_14
340
0
102
{BLKREFS
331
E2
102
}
 70
     0
280
     1
281
     0
  0
BLOCK_RECORD
  5
EA
330
1
100
AcDbSymbolTableRecord
100
AcDbBlockTableRecord
  2
Block_15
340
0
102
{BLKREFS
331
EB
102
}
 70
     0
280
     1
281
     0
  0
BLOCK_RECORD
  5
EE
330
1
100
AcDbSymbolTableRecord
100
AcDbBlockTableRecord
  2
Block_16
340
0
102
{BLKREFS
331
EF
102
}
 70
     0
280
     1
281
     0
  0
ENDTAB
  0
ENDSEC
  0
SECTION
  2
BLOCKS
  0
BLOCK
  5
71
330
70
100
AcDbEntity
  8
0
100
AcDbBlockBegin
  2
*Model_Space
 70
     0
 10
0.0
 20
0.0
 30
0.0
  3
*Model_Space
  1

  0
ENDBLK
  5
72
330
70
100
AcDbEntity
  8
0
100
AcDbBlockEnd
  0
BLOCK
  5
6D
330
6C
100
AcDbEntity
 67
     1
  8
0
100
AcDbBlockBegin
  2
*Paper_Space
 70
     0
 10
0.0
 20
0.0
 30
0.0
  3
*Paper_Space
  1

  0
ENDBLK
  5
6E
330
6C
100
AcDbEntity
 67
     1
  8
0
100
AcDbBlockEnd
  0
BLOCK
  5
75
330
74
100
AcDbEntity
 67
     1
  8
0
100
AcDbBlockBegin
  2
*Paper_Space0
 70
     0
 10
0.0
 20
0.0
 30
0.0
  3
*Paper_Space0
  1

  0
ENDBLK
  5
76
330
74
100
AcDbEntity
 67
     1
  8
0
100
AcDbBlockEnd
  0
BLOCK
  5
7B
330
79
100
AcDbEntity
  8
0
100
AcDbBlockBegin
  2
Block_0
 70
     0
 10
0.0
 20
0.0
 30
0.0
  3
Block_0
  1

  0
LWPOLYLINE
  5
7D
330
79
100
AcDbEntity
  8
レイヤー 1
 62
   250
420
  2299925
370
    25
100
AcDbPolyline
 90
       10
 70
     1
 43
0.0
 10
106.4494768615742
 20
-155.5754476394771
 10
106.4494768615742
 20
-158.5754345073855
 10
99.44944870682615
 20
-158.5754345073855
 10
99.44944870682615
 20
-141.7755927137629
 10
117.4495463031612
 20
-141.7755927137629
 10
117.4495463031612
 20
-142.5756926933507
 10
100.2495839641907
 20
-142.5756926933507
 10
100.2495839641907
 20
-157.7756520277896
 10
105.6495885486477
 20
-157.7756520277896
 10
105.6495885486477
 20
-155.5755534728077
  0
HATCH
  5
7E
330
79
100
AcDbEntity
  8
レイヤー 1
 62
   250
420
  2299925
440
 33554687
100
AcDbHatch
 10
0.0
 20
0.0
 30
0.0
210
0.0
220
0.0
230
1.0
  2
SOLID
 70
     1
 71
     1
 91
        1
 92
        1
 93
       10
 72
     1
 10
106.4494768615742
 20
-155.5754476394771
 11
106.4494768615742
 21
-158.5754345073855
 72
     1
 10
106.4494768615742
 20
-158.5754345073855
 11
99.44944870682615
 21
-158.5754345073855
 72
     1
 10
99.44944870682615
 20
-158.5754345073855
 11
99.44944870682615
 21
-141.7755927137629
 72
     1
 10
99.44944870682615
 20
-141.7755927137629
 11
117.4495463031612
 21
-141.7755927137629
 72
     1
 10
117.4495463031612
 20
-141.7755927137629
 11
117.4495463031612
 21
-142.5756926933507
 72
     1
 10
117.4495463031612
 20
-142.5756926933507
 11
100.2495839641907
 21
-142.5756926933507
 72
     1
 10
100.2495839641907
 20
-142.5756926933507
 11
100.2495839641907
 21
-157.7756520277896
 72
     1
 10
100.2495839641907
 20
-157.7756520277896
 11
105.6495885486477
 21
-157.7756520277896
 72
     1
 10
105.6495885486477
 20
-157.7756520277896
 11
105.6495885486477
 21
-155.5755534728077
 72
     1
 10
105.6495885486477
 20
-155.5755534728077
 11
106.4494768615742
 21
-155.5754476394771
 97
        1
330
7D
 75
     2
 76
     1
 98
        1
 10
0.0
 20
0.0
450
        0
451
        0
460
0.0
461
0.0
452
        0
462
0.0
453
        0
470

  0
SPLINE
  5
7F
330
79
100
AcDbEntity
  8
レイヤー 1
 62
   250
420
  2299925
370
     9
100
AcDbSpline
210
0.0
220
0.0
230
1.0
 70
     9
 71
     3
 72
    17
 73
    13
 74
     0
 42
0.0000000001
 43
0.0000000001
 40
0.0
 40
0.0
 40
0.0
 40
0.0
 40
1.0
 40
1.0
 40
1.0
 40
2.0
 40
2.0
 40
2.0
 40
3.0
 40
3.0
 40
3.0
 40
4.0
 40
4.0
 40
4.0
 40
4.0
 10
121.5495648096722
 20
-141.7755927137629
 30
0.0
 10
121.5495648096722
 20
-141.7201360485111
 30
0.0
 10
121.5047620330374
 20
-141.6753685496532
 30
0.0
 10
121.4494817566699
 20
-141.6753685496532
 30
0.0
 10
121.39434259141
 20
-141.6753685496532
 30
0.0
 10
121.3495750925521
 20
-141.7201360485111
 30
0.0
 10
121.3495750925521
 20
-141.7755927137629
 30
0.0
 10
121.3495750925521
 20
-141.8307296106463
 30
0.0
 10
121.39434259141
 20
-141.8754993778808
 30
0.0
 10
121.4494817566699
 20
-141.8754993778808
 30
0.0
 10
121.5047620330374
 20
-141.8754993778808
 30
0.0
 10
121.5495648096722
 20
-141.8307296106463
 30
0.0
 10
121.5495648096722
 20
-141.7755927137629
 30
0.0
  0
SPLINE
  5
80
330
79
100
AcDbEntity
  8
レイヤー 1
 62
   250
420
  2299925
370
     9
100
AcDbSpline
210
0.0
220
0.0
230
1.0
 70
     9
 71
     3
 72
    17
 73
    13
 74
     0
 42
0.0000000001
 43
0.0000000001
 40
0.0
 40
0.0
 40
0.0
 40
0.0
 40
1.0
 40
1.0
 40
1.0
 40
2.0
 40
2.0
 40
2.0
 40
3.0
 40
3.0
 40
3.0
 40
4.0
 40
4.0
 40
4.0
 40
4.0
 10
121.5495648096722
 20
-155.5754476394771
 30
0.0
 10
121.5495648096722
 20
-155.520343751994
 30
0.0
 10
121.5047620330374
 20
-155.4755409753593
 30
0.0
 10
121.4494817566699
 20
-155.4755409753593
 30
0.0
 10
121.39434259141
 20
-155.4755409753593
 30
0.0
 10
121.3495750925521
 20
-155.520343751994
 30
0.0
 10
121.3495750925521
 20
-155.5754476394771
 30
0.0
 10
121.3495750925521
 20
-155.6309043047289
 30
0.0
 10
121.39434259141
 20
-155.6757070813637
 30
0.0
 10
121.4494817566699
 20
-155.6757070813637
 30
0.0
 10
121.5047620330374
 20
-155.6757070813637
 30
0.0
 10
121.5495648096722
 20
-155.6309043047289
 30
0.0
 10
121.5495648096722
 20
-155.5754476394771
 30
0.0
  0
SPLINE
  5
81
330
79
100
AcDbEntity
  8
レイヤー 1
 62
   250
420
  2299925
370
     9
100
AcDbSpline
210
0.0
220
0.0
230
1.0
 70
     9
 71
     3
 72
    17
 73
    13
 74
     0
 42
0.0000000001
 43
0.0000000001
 40
0.0
 40
0.0
 40
0.0
 40
0.0
 40
1.0
 40
1.0
 40
1.0
 40
2.0
 40
2.0
 40
2.0
 40
3.0
 40
3.0
 40
3.0
 40
4.0
 40
4.0
 40
4.0
 40
4.0
 10
121.5495648096722
 20
-158.5754345073855
 30
0.0
 10
121.5495648096722
 20
-158.5203306199024
 30
0.0
 10
121.5047620330374
 20
-158.4755278432677
 30
0.0
 10
121.4494817566699
 20
-158.4755278432677
 30
0.0
 10
121.39434259141
 20
-158.4755278432677
 30
0.0
 10
121.3495750925521
 20
-158.5203306199024
 30
0.0
 10
121.3495750925521
 20
-158.5754345073855
 30
0.0
 10
121.3495750925521
 20
-158.6308911726373
 30
0.0
 10
121.39434259141
 20
-158.6756939492721
 30
0.0
 10
121.4494817566699
 20
-158.6756939492721
 30
0.0
 10
121.5047620330374
 20
-158.6756939492721
 30
0.0
 10
121.5495648096722
 20
-158.6308911726373
 30
0.0
 10
121.5495648096722
 20
-158.5754345073855
 30
0.0
  0
SPLINE
  5
82
330
79
100
AcDbEntity
  8
レイヤー 1
 62
   250
420
  2299925
370
     9
100
AcDbSpline
210
0.0
220
0.0
230
1.0
 70
     9
 71
     3
 72
    17
 73
    13
 74
     0
 42
0.0000000001
 43
0.0000000001
 40
0.0
 40
0.0
 40
0.0
 40
0.0
 40
1.0
 40
1.0
 40
1.0
 40
2.0
 40
2.0
 40
2.0
 40
3.0
 40
3.0
 40
3.0
 40
4.0
 40
4.0
 40
4.0
 40
4.0
 10
121.5495648096722
 20
-142.5756926933507
 30
0.0
 10
121.5495648096722
 20
-142.5202360280988
 30
0.0
 10
121.5047620330374
 20
-142.4754332514641
 30
0.0
 10
121.4494817566699
 20
-142.4754332514641
 30
0.0
 10
121.39434259141
 20
-142.4754332514641
 30
0.0
 10
121.3495750925521
 20
-142.5202360280988
 30
0.0
 10
121.3495750925521
 20
-142.5756926933507
 30
0.0
 10
121.3495750925521
 20
-142.6308296104463
 30
0.0
 10
121.39434259141
 20
-142.6755993574685
 30
0.0
 10
121.4494817566699
 20
-142.6755993574685
 30
0.0
 10
121.5047620330374
 20
-142.6755993574685
 30
0.0
 10
121.5495648096722
 20
-142.6308296104463
 30
0.0
 10
121.5495648096722
 20
-142.5756926933507
 30
0.0
  0
SPLINE
  5
83
330
79
100
AcDbEntity
  8
レイヤー 1
 62
   250
420
  2299925
370
     9
100
AcDbSpline
210
0.0
220
0.0
230
1.0
 70
     9
 71
     3
 72
    17
 73
    13
 74
     0
 42
0.0000000001
 43
0.0000000001
 40
0.0
 40
0.0
 40
0.0
 40
0.0
 40
1.0
 40
1.0
 40
1.0
 40
2.0
 40
2.0
 40
2.0
 40
3.0
 40
3.0
 40
3.0
 40
4.0
 40
4.0
 40
4.0
 40
4.0
 10
99.54953463939313
 20
-162.5755463497786
 30
0.0
 10
99.54953463939313
 20
-162.5204071845186
 30
0.0
 10
99.50473186162641
 20
-162.475637938818
 30
0.0
 10
99.44944870682615
 20
-162.475637938818
 30
0.0
 10
99.39434481934307
 20
-162.475637938818
 30
0.0
 10
99.3495420427083
 20
-162.5204071845186
 30
0.0
 10
99.3495420427083
 20
-162.5755463497786
 30
0.0
 10
99.3495420427083
 20
-162.6306502372617
 30
0.0
 10
99.39434481934307
 20
-162.6754530138964
 30
0.0
 10
99.44944870682615
 20
-162.6754530138964
 30
0.0
 10
99.50473186162641
 20
-162.6754530138964
 30
0.0
 10
99.54953463939313
 20
-162.6306502372617
 30
0.0
 10
99.54953463939313
 20
-162.5755463497786
 30
0.0
  0
SPLINE
  5
84
330
79
100
AcDbEntity
  8
レイヤー 1
 62
   250
420
  2299925
370
     9
100
AcDbSpline
210
0.0
220
0.0
230
1.0
 70
     9
 71
     3
 72
    17
 73
    13
 74
     0
 42
0.0000000001
 43
0.0000000001
 40
0.0
 40
0.0
 40
0.0
 40
0.0
 40
1.0
 40
1.0
 40
1.0
 40
2.0
 40
2.0
 40
2.0
 40
3.0
 40
3.0
 40
3.0
 40
4.0
 40
4.0
 40
4.0
 40
4.0
 10
99.54953463939313
 20
-138.5755102954038
 30
0.0
 10
99.54953463939313
 20
-138.5203711301439
 30
0.0
 10
99.50473186162641
 20
-138.475603631286
 30
0.0
 10
99.44944870682615
 20
-138.475603631286
 30
0.0
 10
99.39434481934307
 20
-138.475603631286
 30
0.0
 10
99.3495420427083
 20
-138.5203711301439
 30
0.0
 10
99.3495420427083
 20
-138.5755102954038
 30
0.0
 10
99.3495420427083
 20
-138.6306141828869
 30
0.0
 10
99.39434481934307
 20
-138.6754169595217
 30
0.0
 10
99.44944870682615
 20
-138.6754169595217
 30
0.0
 10
99.50473186162641
 20
-138.6754169595217
 30
0.0
 10
99.54953463939313
 20
-138.6306141828869
 30
0.0
 10
99.54953463939313
 20
-138.5755102954038
 30
0.0
  0
SPLINE
  5
85
330
79
100
AcDbEntity
  8
レイヤー 1
 62
   250
420
  2299925
370
     9
100
AcDbSpline
210
0.0
220
0.0
230
1.0
 70
     9
 71
     3
 72
    17
 73
    13
 74
     0
 42
0.0000000001
 43
0.0000000001
 40
0.0
 40
0.0
 40
0.0
 40
0.0
 40
1.0
 40
1.0
 40
1.0
 40
2.0
 40
2.0
 40
2.0
 40
3.0
 40
3.0
 40
3.0
 40
4.0
 40
4.0
 40
4.0
 40
4.0
 10
106.5495599145764
 20
-162.5755463497786
 30
0.0
 10
106.5495599145764
 20
-162.5204071845186
 30
0.0
 10
106.5047924157185
 20
-162.475637938818
 30
0.0
 10
106.4494768615742
 20
-162.475637938818
 30
0.0
 10
106.3941965852067
 20
-162.475637938818
 30
0.0
 10
106.3494290863488
 20
-162.5204071845186
 30
0.0
 10
106.3494290863488
 20
-162.5755463497786
 30
0.0
 10
106.3494290863488
 20
-162.6306502372617
 30
0.0
 10
106.3941965852067
 20
-162.6754530138964
 30
0.0
 10
106.4494768615742
 20
-162.6754530138964
 30
0.0
 10
106.5047924157185
 20
-162.6754530138964
 30
0.0
 10
106.5495599145764
 20
-162.6306502372617
 30
0.0
 10
106.5495599145764
 20
-162.5755463497786
 30
0.0
  0
SPLINE
  5
86
330
79
100
AcDbEntity
  8
レイヤー 1
 62
   250
420
  2299925
370
     9
100
AcDbSpline
210
0.0
220
0.0
230
1.0
 70
     9
 71
     3
 72
    17
 73
    13
 74
     0
 42
0.0000000001
 43
0.0000000001
 40
0.0
 40
0.0
 40
0.0
 40
0.0
 40
1.0
 40
1.0
 40
1.0
 40
2.0
 40
2.0
 40
2.0
 40
3.0
 40
3.0
 40
3.0
 40
4.0
 40
4.0
 40
4.0
 40
4.0
 10
117.5494529672791
 20
-138.5755102954038
 30
0.0
 10
117.5494529672791
 20
-138.5203711301439
 30
0.0
 10
117.5046501906443
 20
-138.475603631286
 30
0.0
 10
117.4495463031612
 20
-138.475603631286
 30
0.0
 10
117.3942307490169
 20
-138.475603631286
 30
0.0
 10
117.349463250159
 20
-138.5203711301439
 30
0.0
 10
117.349463250159
 20
-138.5755102954038
 30
0.0
 10
117.349463250159
 20
-138.6306141828869
 30
0.0
 10
117.3942307490169
 20
-138.6754169595217
 30
0.0
 10
117.4495463031612
 20
-138.6754169595217
 30
0.0
 10
117.5046501906443
 20
-138.6754169595217
 30
0.0
 10
117.5494529672791
 20
-138.6306141828869
 30
0.0
 10
117.5494529672791
 20
-138.5755102954038
 30
0.0
  0
INSERT
  5
88
330
79
100
AcDbEntity
  8
レイヤー 1
100
AcDbBlockReference
  2
Block_1
 10
0.0
 20
0.0
 30
0.0
  0
INSERT
  5
A1
330
79
100
AcDbEntity
  8
レイヤー 1
100
AcDbBlockReference
  2
Block_4
 10
0.0
 20
0.0
 30
0.0
  0
INSERT
  5
AD
330
79
100
AcDbEntity
  8
レイヤー 1
100
AcDbBlockReference
  2
Block_6
 10
0.0
 20
0.0
 30
0.0
  0
INSERT
  5
C0
330
79
100
AcDbEntity
  8
レイヤー 1
100
AcDbBlockReference
  2
Block_9
 10
0.0
 20
0.0
 30
0.0
  0
INSERT
  5
D5
330
79
100
AcDbEntity
  8
レイヤー 1
100
AcDbBlockReference
  2
Block_12
 10
0.0
 20
0.0
 30
0.0
  0
ENDBLK
  5
7C
330
79
100
AcDbEntity
  8
0
100
AcDbBlockEnd
  0
BLOCK
  5
89
330
87
100
AcDbEntity
  8
0
100
AcDbBlockBegin
  2
Block_1
 70
     0
 10
0.0
 20
0.0
 30
0.0
  3
Block_1
  1

  0
LINE
  5
8B
330
87
100
AcDbEntity
  8
レイヤー 1
 62
   250
420
  2299925
370
     9
100
AcDbLine
 10
121.4494817566699
 20
-141.7755927137629
 30
0.0
 11
121.4494817566699
 21
-137.9193789232542
 31
0.0
  0
LINE
  5
8C
330
87
100
AcDbEntity
  8
レイヤー 1
 62
   250
420
  2299925
370
     9
100
AcDbLine
 10
121.4494817566699
 20
-141.7755927137629
 30
0.0
 11
121.4494817566699
 21
-142.5756926933507
 31
0.0
  0
LINE
  5
8D
330
87
100
AcDbEntity
  8
レイヤー 1
 62
   250
420
  2299925
370
     9
100
AcDbLine
 10
119.9894404050298
 20
-141.7755927137629
 30
0.0
 11
122.4493985225569
 21
-141.7755927137629
 31
0.0
  0
LINE
  5
8E
330
87
100
AcDbEntity
  8
レイヤー 1
 62
   250
420
  2299925
370
     9
100
AcDbLine
 10
119.9894404050298
 20
-142.5756926933507
 30
0.0
 11
122.4493985225569
 21
-142.5756926933507
 31
0.0
  0
INSERT
  5
90
330
87
100
AcDbEntity
  8
レイヤー 1
100
AcDbBlockReference
  2
Block_2
 10
0.0
 20
0.0
 30
0.0
  0
ENDBLK
  5
8A
330
87
100
AcDbEntity
  8
0
100
AcDbBlockEnd
  0
BLOCK
  5
91
330
8F
100
AcDbEntity
  8
0
100
AcDbBlockBegin
  2
Block_2
 70
     0
 10
0.0
 20
0.0
 30
0.0
  3
Block_2
  1

  0
INSERT
  5
94
330
8F
100
AcDbEntity
  8
レイヤー 1
100
AcDbBlockReference
  2
Block_3
 10
0.0
 20
0.0
 30
0.0
  0
ENDBLK
  5
92
330
8F
100
AcDbEntity
  8
0
100
AcDbBlockEnd
  0
BLOCK
  5
95
330
93
100
AcDbEntity
  8
0
100
AcDbBlockBegin
  2
Block_3
 70
     0
 10
0.0
 20
0.0
 30
0.0
  3
Block_3
  1

  0
SPLINE
  5
97
330
93
100
AcDbEntity
  8
レイヤー 1
100
AcDbSpline
210
0.0
220
0.0
230
1.0
 70
     9
 71
     3
 72
    17
 73
    13
 74
     0
 42
0.0000000001
 43
0.0000000001
 40
0.0
 40
0.0
 40
0.0
 40
0.0
 40
1.0
 40
1.0
 40
1.0
 40
2.0
 40
2.0
 40
2.0
 40
3.0
 40
3.0
 40
3.0
 40
4.0
 40
4.0
 40
4.0
 40
4.0
 10
119.0879936768252
 20
-140.7056233372194
 30
0.0
 10
119.0879936768252
 20
-140.9748575493917
 30
0.0
 10
119.3939181559154
 20
-141.0249836887021
 30
0.0
 10
119.7659884683224
 20
-141.0249836887021
 30
0.0
 10
120.1104980168474
 20
-141.0249836887021
 30
0.0
 10
120.4439832598195
 20
-140.986226364493
 30
0.0
 10
120.4439832598195
 20
-140.7056233372194
 30
0.0
 10
120.4439832598195
 20
-140.4384561823383
 30
0.0
 10
120.1401258380205
 20
-140.3859184761882
 30
0.0
 10
119.7659884683224
 20
-140.3859184761882
 30
0.0
 10
119.4214789197974
 20
-140.3859184761882
 30
0.0
 10
119.0879936768252
 20
-140.427087367237
 30
0.0
 10
119.0879936768252
 20
-140.7056233372194
 30
0.0
  0
SPLINE
  5
98
330
93
100
AcDbEntity
  8
レイヤー 1
100
AcDbSpline
210
0.0
220
0.0
230
1.0
 70
     9
 71
     3
 72
    29
 73
    25
 74
     0
 42
0.0000000001
 43
0.0000000001
 40
0.0
 40
0.0
 40
0.0
 40
0.0
 40
1.0
 40
1.0
 40
1.0
 40
2.0
 40
2.0
 40
2.0
 40
3.0
 40
3.0
 40
3.0
 40
4.0
 40
4.0
 40
4.0
 40
5.0
 40
5.0
 40
5.0
 40
6.0
 40
6.0
 40
6.0
 40
7.0
 40
7.0
 40
7.0
 40
8.0
 40
8.0
 40
8.0
 40
8.0
 10
120.4074652476759
 20
-140.2763644397573
 30
0.0
 10
120.6331190019598
 20
-140.3928086671587
 30
0.0
 10
120.6537895748713
 20
-140.580049606782
 30
0.0
 10
120.6537895748713
 20
-140.7056233372194
 30
0.0
 10
120.6537895748713
 20
-140.8789116401275
 30
0.0
 10
120.6034911807866
 20
-141.0318738796726
 30
0.0
 10
120.4074652476759
 20
-141.134537725133
 30
0.0
 10
120.1973144230757
 20
-141.2465033284036
 30
0.0
 10
119.9416883380701
 20
-141.2670016465409
 30
0.0
 10
119.7659884683224
 20
-141.2670016465409
 30
0.0
 10
119.6106146619376
 20
-141.2670016465409
 30
0.0
 10
119.3391411376999
 20
-141.248742640469
 30
0.0
 10
119.1245116889689
 20
-141.134537725133
 30
0.0
 10
118.905403616107
 20
-141.0182657525058
 30
0.0
 10
118.8802544190646
 20
-140.8448051948235
 30
0.0
 10
118.8802544190646
 20
-140.7056233372194
 30
0.0
 10
118.8802544190646
 20
-140.5344020916025
 30
0.0
 10
118.9281412463096
 20
-140.379200539992
 30
0.0
 10
119.1245116889689
 20
-140.2763644397573
 30
0.0
 10
119.3322509467294
 20
-140.169221970166
 30
0.0
 10
119.5789197834733
 20
-140.1440727731237
 30
0.0
 10
119.7659884683224
 20
-140.1440727731237
 30
0.0
 10
119.9506455863318
 20
-140.1440727731237
 30
0.0
 10
120.1997259899153
 20
-140.1668104033263
 30
0.0
 10
120.4074652476759
 20
-140.2763644397573
 30
0.0
  0
HATCH
  5
99
330
93
100
AcDbEntity
  8
レイヤー 1
 62
   250
420
  2299925
440
 33554687
100
AcDbHatch
 10
0.0
 20
0.0
 30
0.0
210
0.0
220
0.0
230
1.0
  2
SOLID
 70
     1
 71
     1
 91
        2
 92
        1
 93
        1
 72
     4
 94
        3
 73
     0
 74
     0
 95
       17
 96
       13
 40
0.0
 40
0.0
 40
0.0
 40
0.0
 40
1.0
 40
1.0
 40
1.0
 40
2.0
 40
2.0
 40
2.0
 40
3.0
 40
3.0
 40
3.0
 40
4.0
 40
4.0
 40
4.0
 40
4.0
 10
119.0879936768252
 20
-140.7056233372194
 10
119.0879936768252
 20
-140.9748575493917
 10
119.3939181559154
 20
-141.0249836887021
 10
119.7659884683224
 20
-141.0249836887021
 10
120.1104980168474
 20
-141.0249836887021
 10
120.4439832598195
 20
-140.986226364493
 10
120.4439832598195
 20
-140.7056233372194
 10
120.4439832598195
 20
-140.4384561823383
 10
120.1401258380205
 20
-140.3859184761882
 10
119.7659884683224
 20
-140.3859184761882
 10
119.4214789197974
 20
-140.3859184761882
 10
119.0879936768252
 20
-140.427087367237
 10
119.0879936768252
 20
-140.7056233372194
 97
        0
 97
        1
330
97
 92
        1
 93
        1
 72
     4
 94
        3
 73
     0
 74
     0
 95
       29
 96
       25
 40
0.0
 40
0.0
 40
0.0
 40
0.0
 40
1.0
 40
1.0
 40
1.0
 40
2.0
 40
2.0
 40
2.0
 40
3.0
 40
3.0
 40
3.0
 40
4.0
 40
4.0
 40
4.0
 40
5.0
 40
5.0
 40
5.0
 40
6.0
 40
6.0
 40
6.0
 40
7.0
 40
7.0
 40
7.0
 40
8.0
 40
8.0
 40
8.0
 40
8.0
 10
120.4074652476759
 20
-140.2763644397573
 10
120.6331190019598
 20
-140.3928086671587
 10
120.6537895748713
 20
-140.580049606782
 10
120.6537895748713
 20
-140.7056233372194
 10
120.6537895748713
 20
-140.8789116401275
 10
120.6034911807866
 20
-141.0318738796726
 10
120.4074652476759
 20
-141.134537725133
 10
120.1973144230757
 20
-141.2465033284036
 10
119.9416883380701
 20
-141.2670016465409
 10
119.7659884683224
 20
-141.2670016465409
 10
119.6106146619376
 20
-141.2670016465409
 10
119.3391411376999
 20
-141.248742640469
 10
119.1245116889689
 20
-141.134537725133
 10
118.905403616107
 20
-141.0182657525058
 10
118.8802544190646
 20
-140.8448051948235
 10
118.8802544190646
 20
-140.7056233372194
 10
118.8802544190646
 20
-140.5344020916025
 10
118.9281412463096
 20
-140.379200539992
 10
119.1245116889689
 20
-140.2763644397573
 10
119.3322509467294
 20
-140.169221970166
 10
119.5789197834733
 20
-140.1440727731237
 10
119.7659884683224
 20
-140.1440727731237
 10
119.9506455863318
 20
-140.1440727731237
 10
120.1997259899153
 20
-140.1668104033263
 10
120.4074652476759
 20
-140.2763644397573
 97
        0
 97
        1
330
98
 75
     2
 76
     1
 98
        1
 10
0.0
 20
0.0
450
        0
451
        0
460
0.0
461
0.0
452
        0
462
0.0
453
        0
470

  0
SPLINE
  5
9A
330
93
100
AcDbEntity
  8
レイヤー 1
100
AcDbSpline
210
0.0
220
0.0
230
1.0
 70
    11
 71
     3
 72
    17
 73
    13
 74
     0
 42
0.0000000001
 43
0.0000000001
 40
0.0
 40
0.0
 40
0.0
 40
0.0
 40
1.0
 40
1.0
 40
1.0
 40
2.0
 40
2.0
 40
2.0
 40
3.0
 40
3.0
 40
3.0
 40
4.0
 40
4.0
 40
4.0
 40
4.0
 10
120.5990125566558
 20
-139.9098062801267
 30
0.0
 10
120.5990125566558
 20
-139.9098062801267
 30
0.0
 10
120.3275390324181
 20
-139.9098062801267
 30
0.0
 10
120.3275390324181
 20
-139.9098062801267
 30
0.0
 10
120.3275390324181
 20
-139.9098062801267
 30
0.0
 10
120.3275390324181
 20
-139.638332755889
 30
0.0
 10
120.3275390324181
 20
-139.638332755889
 30
0.0
 10
120.3275390324181
 20
-139.638332755889
 30
0.0
 10
120.5990125566558
 20
-139.638332755889
 30
0.0
 10
120.5990125566558
 20
-139.638332755889
 30
0.0
 10
120.5990125566558
 20
-139.638332755889
 30
0.0
 10
120.5990125566558
 20
-139.9098062801267
 30
0.0
 10
120.5990125566558
 20
-139.9098062801267
 30
0.0
  0
HATCH
  5
9B
330
93
100
AcDbEntity
  8
レイヤー 1
 62
   250
420
  2299925
440
 33554687
100
AcDbHatch
 10
0.0
 20
0.0
 30
0.0
210
0.0
220
0.0
230
1.0
  2
SOLID
 70
     1
 71
     1
 91
        1
 92
        1
 93
        1
 72
     4
 94
        3
 73
     0
 74
     0
 95
       17
 96
       13
 40
0.0
 40
0.0
 40
0.0
 40
0.0
 40
1.0
 40
1.0
 40
1.0
 40
2.0
 40
2.0
 40
2.0
 40
3.0
 40
3.0
 40
3.0
 40
4.0
 40
4.0
 40
4.0
 40
4.0
 10
120.5990125566558
 20
-139.9098062801267
 10
120.5990125566558
 20
-139.9098062801267
 10
120.3275390324181
 20
-139.9098062801267
 10
120.3275390324181
 20
-139.9098062801267
 10
120.3275390324181
 20
-139.9098062801267
 10
120.3275390324181
 20
-139.638332755889
 10
120.3275390324181
 20
-139.638332755889
 10
120.3275390324181
 20
-139.638332755889
 10
120.5990125566558
 20
-139.638332755889
 10
120.5990125566558
 20
-139.638332755889
 10
120.5990125566558
 20
-139.638332755889
 10
120.5990125566558
 20
-139.9098062801267
 10
120.5990125566558
 20
-139.9098062801267
 97
        0
 97
        1
330
9A
 75
     2
 76
     1
 98
        1
 10
0.0
 20
0.0
450
        0
451
        0
460
0.0
461
0.0
452
        0
462
0.0
453
        0
470

  0
SPLINE
  5
9C
330
93
100
AcDbEntity
  8
レイヤー 1
100
AcDbSpline
210
0.0
220
0.0
230
1.0
 70
     9
 71
     3
 72
    17
 73
    13
 74
     0
 42
0.0000000001
 43
0.0000000001
 40
0.0
 40
0.0
 40
0.0
 40
0.0
 40
1.0
 40
1.0
 40
1.0
 40
2.0
 40
2.0
 40
2.0
 40
3.0
 40
3.0
 40
3.0
 40
4.0
 40
4.0
 40
4.0
 40
4.0
 10
119.8000949136263
 20
-138.8435492274419
 30
0.0
 10
119.8000949136263
 20
-138.9985785242781
 30
0.0
 10
119.8938015108252
 20
-139.1629095789245
 30
0.0
 10
120.112909583687
 20
-139.1629095789245
 30
0.0
 10
120.3344292233886
 20
-139.1629095789245
 30
0.0
 10
120.4439832598195
 20
-139.0261392881601
 30
0.0
 10
120.4439832598195
 20
-138.8435492274419
 30
0.0
 10
120.4439832598195
 20
-138.6427001606518
 30
0.0
 10
120.3113470836374
 20
-138.5238443664107
 30
0.0
 10
120.1197997746575
 20
-138.5238443664107
 30
0.0
 10
119.8800211288841
 20
-138.5238443664107
 30
0.0
 10
119.8000949136263
 20
-138.6997164909327
 30
0.0
 10
119.8000949136263
 20
-138.8435492274419
 30
0.0
  0
SPLINE
  5
9D
330
93
100
AcDbEntity
  8
レイヤー 1
100
AcDbSpline
210
0.0
220
0.0
230
1.0
 70
     9
 71
     3
 72
    17
 73
    13
 74
     0
 42
0.0000000001
 43
0.0000000001
 40
0.0
 40
0.0
 40
0.0
 40
0.0
 40
1.0
 40
1.0
 40
1.0
 40
2.0
 40
2.0
 40
2.0
 40
3.0
 40
3.0
 40
3.0
 40
4.0
 40
4.0
 40
4.0
 40
4.0
 10
119.0879936768252
 20
-138.8435492274419
 30
0.0
 10
119.0879936768252
 20
-139.021488409255
 30
0.0
 10
119.1906575222857
 20
-139.1127834396141
 30
0.0
 10
119.3367295708602
 20
-139.1127834396141
 30
0.0
 10
119.4693657470424
 20
-139.1127834396141
 30
0.0
 10
119.5971787895451
 20
-139.0350965364218
 30
0.0
 10
119.5971787895451
 20
-138.8435492274419
 30
0.0
 10
119.5971787895451
 20
-138.6516574089134
 30
0.0
 10
119.4693657470424
 20
-138.5741427604953
 30
0.0
 10
119.3367295708602
 20
-138.5741427604953
 30
0.0
 10
119.1906575222857
 20
-138.5741427604953
 30
0.0
 10
119.0879936768252
 20
-138.6676771029199
 30
0.0
 10
119.0879936768252
 20
-138.8435492274419
 30
0.0
  0
SPLINE
  5
9E
330
93
100
AcDbEntity
  8
レイヤー 1
100
AcDbSpline
210
0.0
220
0.0
230
1.0
 70
     9
 71
     3
 72
    29
 73
    25
 74
     0
 42
0.0000000001
 43
0.0000000001
 40
0.0
 40
0.0
 40
0.0
 40
0.0
 40
1.0
 40
1.0
 40
1.0
 40
2.0
 40
2.0
 40
2.0
 40
3.0
 40
3.0
 40
3.0
 40
4.0
 40
4.0
 40
4.0
 40
5.0
 40
5.0
 40
5.0
 40
6.0
 40
6.0
 40
6.0
 40
7.0
 40
7.0
 40
7.0
 40
8.0
 40
8.0
 40
8.0
 40
8.0
 10
120.6537895748713
 20
-138.8435492274419
 30
0.0
 10
120.6537895748713
 20
-139.131042445686
 30
0.0
 10
120.505305959457
 20
-139.4049275367633
 30
0.0
 10
120.1287570229192
 20
-139.4049275367633
 30
0.0
 10
119.8528048745507
 20
-139.4049275367633
 30
0.0
 10
119.7501410290902
 20
-139.2519652972183
 30
0.0
 10
119.6836506862249
 20
-139.1379326366565
 30
0.0
 10
119.6199164197478
 20
-139.2724636153555
 30
0.0
 10
119.4965820013758
 20
-139.3548013974529
 30
0.0
 10
119.3232936984678
 20
-139.3548013974529
 30
0.0
 10
119.0263264676392
 20
-139.3548013974529
 30
0.0
 10
118.8802544190646
 20
-139.1401719487219
 30
0.0
 10
118.8802544190646
 20
-138.8435492274419
 30
0.0
 10
118.8802544190646
 20
-138.5376247483517
 30
0.0
 10
119.0356282254494
 20
-138.3322970574308
 30
0.0
 10
119.3232936984678
 20
-138.3322970574308
 30
0.0
 10
119.4965820013758
 20
-138.3322970574308
 30
0.0
 10
119.6199164197478
 20
-138.4167018968194
 30
0.0
 10
119.6836506862249
 20
-138.5514051302927
 30
0.0
 10
119.7384277044404
 20
-138.4554592210285
 30
0.0
 10
119.8410915499008
 20
-138.2842379754116
 30
0.0
 10
120.1242783987884
 20
-138.2842379754116
 30
0.0
 10
120.5283880992082
 20
-138.2842379754116
 30
0.0
 10
120.6537895748713
 20
-138.5855115755967
 30
0.0
 10
120.6537895748713
 20
-138.8435492274419
 30
0.0
  0
HATCH
  5
9F
330
93
100
AcDbEntity
  8
レイヤー 1
 62
   250
420
  2299925
440
 33554687
100
AcDbHatch
 10
0.0
 20
0.0
 30
0.0
210
0.0
220
0.0
230
1.0
  2
SOLID
 70
     1
 71
     1
 91
        3
 92
        1
 93
        1
 72
     4
 94
        3
 73
     0
 74
     0
 95
       17
 96
       13
 40
0.0
 40
0.0
 40
0.0
 40
0.0
 40
1.0
 40
1.0
 40
1.0
 40
2.0
 40
2.0
 40
2.0
 40
3.0
 40
3.0
 40
3.0
 40
4.0
 40
4.0
 40
4.0
 40
4.0
 10
119.8000949136263
 20
-138.8435492274419
 10
119.8000949136263
 20
-138.9985785242781
 10
119.8938015108252
 20
-139.1629095789245
 10
120.112909583687
 20
-139.1629095789245
 10
120.3344292233886
 20
-139.1629095789245
 10
120.4439832598195
 20
-139.0261392881601
 10
120.4439832598195
 20
-138.8435492274419
 10
120.4439832598195
 20
-138.6427001606518
 10
120.3113470836374
 20
-138.5238443664107
 10
120.1197997746575
 20
-138.5238443664107
 10
119.8800211288841
 20
-138.5238443664107
 10
119.8000949136263
 20
-138.6997164909327
 10
119.8000949136263
 20
-138.8435492274419
 97
        0
 97
        1
330
9C
 92
        1
 93
        1
 72
     4
 94
        3
 73
     0
 74
     0
 95
       17
 96
       13
 40
0.0
 40
0.0
 40
0.0
 40
0.0
 40
1.0
 40
1.0
 40
1.0
 40
2.0
 40
2.0
 40
2.0
 40
3.0
 40
3.0
 40
3.0
 40
4.0
 40
4.0
 40
4.0
 40
4.0
 10
119.0879936768252
 20
-138.8435492274419
 10
119.0879936768252
 20
-139.021488409255
 10
119.1906575222857
 20
-139.1127834396141
 10
119.3367295708602
 20
-139.1127834396141
 10
119.4693657470424
 20
-139.1127834396141
 10
119.5971787895451
 20
-139.0350965364218
 10
119.5971787895451
 20
-138.8435492274419
 10
119.5971787895451
 20
-138.6516574089134
 10
119.4693657470424
 20
-138.5741427604953
 10
119.3367295708602
 20
-138.5741427604953
 10
119.1906575222857
 20
-138.5741427604953
 10
119.0879936768252
 20
-138.6676771029199
 10
119.0879936768252
 20
-138.8435492274419
 97
        0
 97
        1
330
9D
 92
        1
 93
        1
 72
     4
 94
        3
 73
     0
 74
     0
 95
       29
 96
       25
 40
0.0
 40
0.0
 40
0.0
 40
0.0
 40
1.0
 40
1.0
 40
1.0
 40
2.0
 40
2.0
 40
2.0
 40
3.0
 40
3.0
 40
3.0
 40
4.0
 40
4.0
 40
4.0
 40
5.0
 40
5.0
 40
5.0
 40
6.0
 40
6.0
 40
6.0
 40
7.0
 40
7.0
 40
7.0
 40
8.0
 40
8.0
 40
8.0
 40
8.0
 10
120.6537895748713
 20
-138.8435492274419
 10
120.6537895748713
 20
-139.131042445686
 10
120.505305959457
 20
-139.4049275367633
 10
120.1287570229192
 20
-139.4049275367633
 10
119.8528048745507
 20
-139.4049275367633
 10
119.7501410290902
 20
-139.2519652972183
 10
119.6836506862249
 20
-139.1379326366565
 10
119.6199164197478
 20
-139.2724636153555
 10
119.4965820013758
 20
-139.3548013974529
 10
119.3232936984678
 20
-139.3548013974529
 10
119.0263264676392
 20
-139.3548013974529
 10
118.8802544190646
 20
-139.1401719487219
 10
118.8802544190646
 20
-138.8435492274419
 10
118.8802544190646
 20
-138.5376247483517
 10
119.0356282254494
 20
-138.3322970574308
 10
119.3232936984678
 20
-138.3322970574308
 10
119.4965820013758
 20
-138.3322970574308
 10
119.6199164197478
 20
-138.4167018968194
 10
119.6836506862249
 20
-138.5514051302927
 10
119.7384277044404
 20
-138.4554592210285
 10
119.8410915499008
 20
-138.2842379754116
 10
120.1242783987884
 20
-138.2842379754116
 10
120.5283880992082
 20
-138.2842379754116
 10
120.6537895748713
 20
-138.5855115755967
 10
120.6537895748713
 20
-138.8435492274419
 97
        0
 97
        1
330
9E
 75
     2
 76
     1
 98
        1
 10
0.0
 20
0.0
450
        0
451
        0
460
0.0
461
0.0
452
        0
462
0.0
453
        0
470

  0
ENDBLK
  5
96
330
93
100
AcDbEntity
  8
0
100
AcDbBlockEnd
  0
BLOCK
  5
A2
330
A0
100
AcDbEntity
  8
0
100
AcDbBlockBegin
  2
Block_4
 70
     0
 10
0.0
 20
0.0
 30
0.0
  3
Block_4
  1

  0
LINE
  5
A4
330
A0
100
AcDbEntity
  8
レイヤー 1
 62
   250
420
  2299925
370
     9
100
AcDbLine
 10
121.4494817566699
 20
-155.5754476394771
 30
0.0
 11
121.4494817566699
 21
-158.5754345073855
 31
0.0
  0
LINE
  5
A5
330
A0
100
AcDbEntity
  8
レイヤー 1
 62
   250
420
  2299925
370
     9
100
AcDbLine
 10
108.9895473523271
 20
-158.5754345073855
 30
0.0
 11
122.4493985225569
 21
-158.5754345073855
 31
0.0
  0
INSERT
  5
A7
330
A0
100
AcDbEntity
  8
レイヤー 1
100
AcDbBlockReference
  2
Block_5
 10
0.0
 20
0.0
 30
0.0
  0
ENDBLK
  5
A3
330
A0
100
AcDbEntity
  8
0
100
AcDbBlockEnd
  0
BLOCK
  5
A8
330
A6
100
AcDbEntity
  8
0
100
AcDbBlockBegin
  2
Block_5
 70
     0
 10
0.0
 20
0.0
 30
0.0
  3
Block_5
  1

  0
SPLINE
  5
AA
330
A6
100
AcDbEntity
  8
レイヤー 1
100
AcDbSpline
210
0.0
220
0.0
230
1.0
 70
     9
 71
     3
 72
    62
 73
    58
 74
     0
 42
0.0000000001
 43
0.0000000001
 40
0.0
 40
0.0
 40
0.0
 40
0.0
 40
1.0
 40
1.0
 40
1.0
 40
2.0
 40
2.0
 40
2.0
 40
3.0
 40
3.0
 40
3.0
 40
4.0
 40
4.0
 40
4.0
 40
5.0
 40
5.0
 40
5.0
 40
6.0
 40
6.0
 40
6.0
 40
7.0
 40
7.0
 40
7.0
 40
8.0
 40
8.0
 40
8.0
 40
9.0
 40
9.0
 40
9.0
 40
10.0
 40
10.0
 40
10.0
 40
11.0
 40
11.0
 40
11.0
 40
12.0
 40
12.0
 40
12.0
 40
13.0
 40
13.0
 40
13.0
 40
14.0
 40
14.0
 40
14.0
 40
15.0
 40
15.0
 40
15.0
 40
16.0
 40
16.0
 40
16.0
 40
17.0
 40
17.0
 40
17.0
 40
18.0
 40
18.0
 40
18.0
 40
19.0
 40
19.0
 40
19.0
 40
19.0
 10
120.6537895748713
 20
-157.0836072740971
 30
0.0
 10
120.6537895748713
 20
-157.1862711195576
 30
0.0
 10
120.6310519446686
 20
-157.4212266316516
 30
0.0
 10
120.4302028778786
 20
-157.5559298651249
 30
0.0
 10
120.3092800263463
 20
-157.6358560803827
 30
0.0
 10
120.2017930472065
 20
-157.6403347045135
 30
0.0
 10
120.1104980168474
 20
-157.6448133286443
 30
0.0
 10
120.1104980168474
 20
-157.6448133286443
 30
0.0
 10
120.1104980168474
 20
-157.4077907592591
 30
0.0
 10
120.1104980168474
 20
-157.4077907592591
 30
0.0
 10
120.1904242321051
 20
-157.4053791924195
 30
0.0
 10
120.4439832598195
 20
-157.3940103773182
 30
0.0
 10
120.4439832598195
 20
-157.0880858982279
 30
0.0
 10
120.4439832598195
 20
-156.9399467923622
 30
0.0
 10
120.3685356686926
 20
-156.7752712281673
 30
0.0
 10
120.1218668319487
 20
-156.7752712281673
 30
0.0
 10
119.9964653562856
 20
-156.7752712281673
 30
0.0
 10
119.9440999049098
 20
-156.8166123739903
 30
0.0
 10
119.9096489500573
 20
-156.8507188192942
 30
0.0
 10
119.8297227347995
 20
-156.930645034552
 30
0.0
 10
119.816286862407
 20
-157.0560465102151
 30
0.0
 10
119.816286862407
 20
-157.11564666211
 30
0.0
 10
119.816286862407
 20
-157.1359727254729
 30
0.0
 10
119.8183539196982
 20
-157.1749023044563
 30
0.0
 10
119.8231770533775
 20
-157.2045301256294
 30
0.0
 10
119.8231770533775
 20
-157.2045301256294
 30
0.0
 10
119.6130262287773
 20
-157.2045301256294
 30
0.0
 10
119.6130262287773
 20
-157.2045301256294
 30
0.0
 10
119.6199164197478
 20
-157.1631889798064
 30
0.0
 10
119.6219834770389
 20
-157.1177137194011
 30
0.0
 10
119.6219834770389
 20
-157.1108235284306
 30
0.0
 10
119.6219834770389
 20
-157.040199070983
 30
0.0
 10
119.5992458468363
 20
-156.8255696222519
 30
0.0
 10
119.3436197618307
 20
-156.8255696222519
 30
0.0
 10
119.1520724528508
 20
-156.8255696222519
 30
0.0
 10
119.0928168105045
 20
-156.9671630466957
 30
0.0
 10
119.0928168105045
 20
-157.0860188409368
 30
0.0
 10
119.0928168105045
 20
-157.3712727471155
 30
0.0
 10
119.3436197618307
 20
-157.3802299953771
 30
0.0
 10
119.4214789197974
 20
-157.384708619508
 30
0.0
 10
119.4214789197974
 20
-157.384708619508
 30
0.0
 10
119.4214789197974
 20
-157.6038166923699
 30
0.0
 10
119.4214789197974
 20
-157.6038166923699
 30
0.0
 10
119.2867756863241
 20
-157.5948594441082
 30
0.0
 10
118.8802544190646
 20
-157.5648871133865
 30
0.0
 10
118.8802544190646
 20
-157.0722384589958
 30
0.0
 10
118.8802544190646
 20
-156.8303927559313
 30
0.0
 10
119.0173692193776
 20
-156.5699435372464
 30
0.0
 10
119.3367295708602
 20
-156.5699435372464
 30
0.0
 10
119.5375786376503
 20
-156.5699435372464
 30
0.0
 10
119.6268066107183
 20
-156.6726073827068
 30
0.0
 10
119.6929524440351
 20
-156.7800943618466
 30
0.0
 10
119.7225802652082
 20
-156.7139485285298
 30
0.0
 10
119.8093966714365
 20
-156.5175780858706
 30
0.0
 10
120.1084309595562
 20
-156.5175780858706
 30
0.0
 10
120.4736110809927
 20
-156.5175780858706
 30
0.0
 10
120.6537895748713
 20
-156.7845729859774
 30
0.0
 10
120.6537895748713
 20
-157.0836072740971
 30
0.0
  0
HATCH
  5
AB
330
A6
100
AcDbEntity
  8
レイヤー 1
 62
   250
420
  2299925
440
 33554687
100
AcDbHatch
 10
0.0
 20
0.0
 30
0.0
210
0.0
220
0.0
230
1.0
  2
SOLID
 70
     1
 71
     1
 91
        1
 92
        1
 93
        1
 72
     4
 94
        3
 73
     0
 74
     0
 95
       62
 96
       58
 40
0.0
 40
0.0
 40
0.0
 40
0.0
 40
1.0
 40
1.0
 40
1.0
 40
2.0
 40
2.0
 40
2.0
 40
3.0
 40
3.0
 40
3.0
 40
4.0
 40
4.0
 40
4.0
 40
5.0
 40
5.0
 40
5.0
 40
6.0
 40
6.0
 40
6.0
 40
7.0
 40
7.0
 40
7.0
 40
8.0
 40
8.0
 40
8.0
 40
9.0
 40
9.0
 40
9.0
 40
10.0
 40
10.0
 40
10.0
 40
11.0
 40
11.0
 40
11.0
 40
12.0
 40
12.0
 40
12.0
 40
13.0
 40
13.0
 40
13.0
 40
14.0
 40
14.0
 40
14.0
 40
15.0
 40
15.0
 40
15.0
 40
16.0
 40
16.0
 40
16.0
 40
17.0
 40
17.0
 40
17.0
 40
18.0
 40
18.0
 40
18.0
 40
19.0
 40
19.0
 40
19.0
 40
19.0
 10
120.6537895748713
 20
-157.0836072740971
 10
120.6537895748713
 20
-157.1862711195576
 10
120.6310519446686
 20
-157.4212266316516
 10
120.4302028778786
 20
-157.5559298651249
 10
120.3092800263463
 20
-157.6358560803827
 10
120.2017930472065
 20
-157.6403347045135
 10
120.1104980168474
 20
-157.6448133286443
 10
120.1104980168474
 20
-157.6448133286443
 10
120.1104980168474
 20
-157.4077907592591
 10
120.1104980168474
 20
-157.4077907592591
 10
120.1904242321051
 20
-157.4053791924195
 10
120.4439832598195
 20
-157.3940103773182
 10
120.4439832598195
 20
-157.0880858982279
 10
120.4439832598195
 20
-156.9399467923622
 10
120.3685356686926
 20
-156.7752712281673
 10
120.1218668319487
 20
-156.7752712281673
 10
119.9964653562856
 20
-156.7752712281673
 10
119.9440999049098
 20
-156.8166123739903
 10
119.9096489500573
 20
-156.8507188192942
 10
119.8297227347995
 20
-156.930645034552
 10
119.816286862407
 20
-157.0560465102151
 10
119.816286862407
 20
-157.11564666211
 10
119.816286862407
 20
-157.1359727254729
 10
119.8183539196982
 20
-157.1749023044563
 10
119.8231770533775
 20
-157.2045301256294
 10
119.8231770533775
 20
-157.2045301256294
 10
119.6130262287773
 20
-157.2045301256294
 10
119.6130262287773
 20
-157.2045301256294
 10
119.6199164197478
 20
-157.1631889798064
 10
119.6219834770389
 20
-157.1177137194011
 10
119.6219834770389
 20
-157.1108235284306
 10
119.6219834770389
 20
-157.040199070983
 10
119.5992458468363
 20
-156.8255696222519
 10
119.3436197618307
 20
-156.8255696222519
 10
119.1520724528508
 20
-156.8255696222519
 10
119.0928168105045
 20
-156.9671630466957
 10
119.0928168105045
 20
-157.0860188409368
 10
119.0928168105045
 20
-157.3712727471155
 10
119.3436197618307
 20
-157.3802299953771
 10
119.4214789197974
 20
-157.384708619508
 10
119.4214789197974
 20
-157.384708619508
 10
119.4214789197974
 20
-157.6038166923699
 10
119.4214789197974
 20
-157.6038166923699
 10
119.2867756863241
 20
-157.5948594441082
 10
118.8802544190646
 20
-157.5648871133865
 10
118.8802544190646
 20
-157.0722384589958
 10
118.8802544190646
 20
-156.8303927559313
 10
119.0173692193776
 20
-156.5699435372464
 10
119.3367295708602
 20
-156.5699435372464
 10
119.5375786376503
 20
-156.5699435372464
 10
119.6268066107183
 20
-156.6726073827068
 10
119.6929524440351
 20
-156.7800943618466
 10
119.7225802652082
 20
-156.7139485285298
 10
119.8093966714365
 20
-156.5175780858706
 10
120.1084309595562
 20
-156.5175780858706
 10
120.4736110809927
 20
-156.5175780858706
 10
120.6537895748713
 20
-156.7845729859774
 10
120.6537895748713
 20
-157.0836072740971
 97
        0
 97
        1
330
AA
 75
     2
 76
     1
 98
        1
 10
0.0
 20
0.0
450
        0
451
        0
460
0.0
461
0.0
452
        0
462
0.0
453
        0
470

  0
ENDBLK
  5
A9
330
A6
100
AcDbEntity
  8
0
100
AcDbBlockEnd
  0
BLOCK
  5
AE
330
AC
100
AcDbEntity
  8
0
100
AcDbBlockBegin
  2
Block_6
 70
     0
 10
0.0
 20
0.0
 30
0.0
  3
Block_6
  1

  0
LINE
  5
B0
330
AC
100
AcDbEntity
  8
レイヤー 1
 62
   250
420
  2299925
370
     9
100
AcDbLine
 10
121.4494817566699
 20
-142.5756926933507
 30
0.0
 11
121.4494817566699
 21
-155.5754476394771
 31
0.0
  0
LINE
  5
B1
330
AC
100
AcDbEntity
  8
レイヤー 1
 62
   250
420
  2299925
370
     9
100
AcDbLine
 10
119.9894404050298
 20
-142.5756926933507
 30
0.0
 11
122.4493985225569
 21
-142.5756926933507
 31
0.0
  0
LINE
  5
B2
330
AC
100
AcDbEntity
  8
レイヤー 1
 62
   250
420
  2299925
370
     9
100
AcDbLine
 10
108.9895473523271
 20
-155.5754476394771
 30
0.0
 11
122.4493985225569
 21
-155.5754476394771
 31
0.0
  0
INSERT
  5
B4
330
AC
100
AcDbEntity
  8
レイヤー 1
100
AcDbBlockReference
  2
Block_7
 10
0.0
 20
0.0
 30
0.0
  0
ENDBLK
  5
AF
330
AC
100
AcDbEntity
  8
0
100
AcDbBlockEnd
  0
BLOCK
  5
B5
330
B3
100
AcDbEntity
  8
0
100
AcDbBlockBegin
  2
Block_7
 70
     0
 10
0.0
 20
0.0
 30
0.0
  3
Block_7
  1

  0
INSERT
  5
B8
330
B3
100
AcDbEntity
  8
レイヤー 1
100
AcDbBlockReference
  2
Block_8
 10
0.0
 20
0.0
 30
0.0
  0
ENDBLK
  5
B6
330
B3
100
AcDbEntity
  8
0
100
AcDbBlockEnd
  0
BLOCK
  5
B9
330
B7
100
AcDbEntity
  8
0
100
AcDbBlockBegin
  2
Block_8
 70
     0
 10
0.0
 20
0.0
 30
0.0
  3
Block_8
  1

  0
SPLINE
  5
BB
330
B7
100
AcDbEntity
  8
レイヤー 1
100
AcDbSpline
210
0.0
220
0.0
230
1.0
 70
    11
 71
     3
 72
    26
 73
    22
 74
     0
 42
0.0000000001
 43
0.0000000001
 40
0.0
 40
0.0
 40
0.0
 40
0.0
 40
1.0
 40
1.0
 40
1.0
 40
2.0
 40
2.0
 40
2.0
 40
3.0
 40
3.0
 40
3.0
 40
4.0
 40
4.0
 40
4.0
 40
5.0
 40
5.0
 40
5.0
 40
6.0
 40
6.0
 40
6.0
 40
7.0
 40
7.0
 40
7.0
 40
7.0
 10
120.5986680471073
 20
-149.8096326665406
 30
0.0
 10
120.5986680471073
 20
-149.8096326665406
 30
0.0
 10
119.4073540283079
 20
-149.8096326665406
 30
0.0
 10
119.4073540283079
 20
-149.8096326665406
 30
0.0
 10
119.4073540283079
 20
-149.8096326665406
 30
0.0
 10
119.4073540283079
 20
-150.1910047367578
 30
0.0
 10
119.4073540283079
 20
-150.1910047367578
 30
0.0
 10
119.4073540283079
 20
-150.1910047367578
 30
0.0
 10
119.2475015977923
 20
-150.1910047367578
 30
0.0
 10
119.2475015977923
 20
-150.1910047367578
 30
0.0
 10
119.2316541585601
 20
-149.8072210997009
 30
0.0
 10
119.0556097792639
 20
-149.7534776101311
 30
0.0
 10
118.9326198704404
 20
-149.7190266552786
 30
0.0
 10
118.9326198704404
 20
-149.7190266552786
 30
0.0
 10
118.9326198704404
 20
-149.5505614860499
 30
0.0
 10
118.9326198704404
 20
-149.5505614860499
 30
0.0
 10
118.9326198704404
 20
-149.5505614860499
 30
0.0
 10
120.5986680471073
 20
-149.5505614860499
 30
0.0
 10
120.5986680471073
 20
-149.5505614860499
 30
0.0
 10
120.5986680471073
 20
-149.5505614860499
 30
0.0
 10
120.5986680471073
 20
-149.8096326665406
 30
0.0
 10
120.5986680471073
 20
-149.8096326665406
 30
0.0
  0
HATCH
  5
BC
330
B7
100
AcDbEntity
  8
レイヤー 1
 62
   250
420
  2299925
440
 33554687
100
AcDbHatch
 10
0.0
 20
0.0
 30
0.0
210
0.0
220
0.0
230
1.0
  2
SOLID
 70
     1
 71
     1
 91
        1
 92
        1
 93
        1
 72
     4
 94
        3
 73
     0
 74
     0
 95
       26
 96
       22
 40
0.0
 40
0.0
 40
0.0
 40
0.0
 40
1.0
 40
1.0
 40
1.0
 40
2.0
 40
2.0
 40
2.0
 40
3.0
 40
3.0
 40
3.0
 40
4.0
 40
4.0
 40
4.0
 40
5.0
 40
5.0
 40
5.0
 40
6.0
 40
6.0
 40
6.0
 40
7.0
 40
7.0
 40
7.0
 40
7.0
 10
120.5986680471073
 20
-149.8096326665406
 10
120.5986680471073
 20
-149.8096326665406
 10
119.4073540283079
 20
-149.8096326665406
 10
119.4073540283079
 20
-149.8096326665406
 10
119.4073540283079
 20
-149.8096326665406
 10
119.4073540283079
 20
-150.1910047367578
 10
119.4073540283079
 20
-150.1910047367578
 10
119.4073540283079
 20
-150.1910047367578
 10
119.2475015977923
 20
-150.1910047367578
 10
119.2475015977923
 20
-150.1910047367578
 10
119.2316541585601
 20
-149.8072210997009
 10
119.0556097792639
 20
-149.7534776101311
 10
118.9326198704404
 20
-149.7190266552786
 10
118.9326198704404
 20
-149.7190266552786
 10
118.9326198704404
 20
-149.5505614860499
 10
118.9326198704404
 20
-149.5505614860499
 10
118.9326198704404
 20
-149.5505614860499
 10
120.5986680471073
 20
-149.5505614860499
 10
120.5986680471073
 20
-149.5505614860499
 10
120.5986680471073
 20
-149.5505614860499
 10
120.5986680471073
 20
-149.8096326665406
 10
120.5986680471073
 20
-149.8096326665406
 97
        0
 97
        1
330
BB
 75
     2
 76
     1
 98
        1
 10
0.0
 20
0.0
450
        0
451
        0
460
0.0
461
0.0
452
        0
462
0.0
453
        0
470

  0
SPLINE
  5
BD
330
B7
100
AcDbEntity
  8
レイヤー 1
100
AcDbSpline
210
0.0
220
0.0
230
1.0
 70
     9
 71
     3
 72
    62
 73
    58
 74
     0
 42
0.0000000001
 43
0.0000000001
 40
0.0
 40
0.0
 40
0.0
 40
0.0
 40
1.0
 40
1.0
 40
1.0
 40
2.0
 40
2.0
 40
2.0
 40
3.0
 40
3.0
 40
3.0
 40
4.0
 40
4.0
 40
4.0
 40
5.0
 40
5.0
 40
5.0
 40
6.0
 40
6.0
 40
6.0
 40
7.0
 40
7.0
 40
7.0
 40
8.0
 40
8.0
 40
8.0
 40
9.0
 40
9.0
 40
9.0
 40
10.0
 40
10.0
 40
10.0
 40
11.0
 40
11.0
 40
11.0
 40
12.0
 40
12.0
 40
12.0
 40
13.0
 40
13.0
 40
13.0
 40
14.0
 40
14.0
 40
14.0
 40
15.0
 40
15.0
 40
15.0
 40
16.0
 40
16.0
 40
16.0
 40
17.0
 40
17.0
 40
17.0
 40
18.0
 40
18.0
 40
18.0
 40
19.0
 40
19.0
 40
19.0
 40
19.0
 10
120.6534450653227
 20
-148.4055840015271
 30
0.0
 10
120.6534450653227
 20
-148.5154825475065
 30
0.0
 10
120.6307074351201
 20
-148.767146772704
 30
0.0
 10
120.42985836833
 20
-148.911496273536
 30
0.0
 10
120.3089355167977
 20
-148.9969346415702
 30
0.0
 10
120.2014485376579
 20
-149.0017577752495
 30
0.0
 10
120.1101535072988
 20
-149.0065809089289
 30
0.0
 10
120.1101535072988
 20
-149.0065809089289
 30
0.0
 10
120.1101535072988
 20
-148.7525051168917
 30
0.0
 10
120.1101535072988
 20
-148.7525051168917
 30
0.0
 10
120.1900797225566
 20
-148.750093550052
 30
0.0
 10
120.4432942407225
 20
-148.7378634610794
 30
0.0
 10
120.4432942407225
 20
-148.4104071352064
 30
0.0
 10
120.4432942407225
 20
-148.2515882333364
 30
0.0
 10
120.3681911591441
 20
-148.0755438540401
 30
0.0
 10
120.1215223224002
 20
-148.0755438540401
 30
0.0
 10
119.9961208467371
 20
-148.0755438540401
 30
0.0
 10
119.9437553953613
 20
-148.1196410762513
 30
0.0
 10
119.9093044405088
 20
-148.1563313431692
 30
0.0
 10
119.829378225251
 20
-148.2417697112034
 30
0.0
 10
119.8159423528585
 20
-148.3761284351282
 30
0.0
 10
119.8159423528585
 20
-148.4396904468311
 30
0.0
 10
119.8159423528585
 20
-148.4617390579366
 30
0.0
 10
119.8180094101497
 20
-148.5032524585339
 30
0.0
 10
119.8224880342805
 20
-148.5351195917725
 30
0.0
 10
119.8224880342805
 20
-148.5351195917725
 30
0.0
 10
119.6126817192288
 20
-148.5351195917725
 30
0.0
 10
119.6126817192288
 20
-148.5351195917725
 30
0.0
 10
119.6195719101993
 20
-148.4910223695613
 30
0.0
 10
119.6219834770389
 20
-148.4421020136707
 30
0.0
 10
119.6219834770389
 20
-148.4348673131517
 30
0.0
 10
119.6219834770389
 20
-148.3590752124762
 30
0.0
 10
119.5989013372878
 20
-148.12928734361
 30
0.0
 10
119.3432752522822
 20
-148.12928734361
 30
0.0
 10
119.1517279433023
 20
-148.12928734361
 30
0.0
 10
119.0921277914075
 20
-148.280871544961
 30
0.0
 10
119.0921277914075
 20
-148.4079955683667
 30
0.0
 10
119.0921277914075
 20
-148.7134032831342
 30
0.0
 10
119.3432752522822
 20
-148.7232218052671
 30
0.0
 10
119.4207899007003
 20
-148.7280449389464
 30
0.0
 10
119.4207899007003
 20
-148.7280449389464
 30
0.0
 10
119.4207899007003
 20
-148.9624836867177
 30
0.0
 10
119.4207899007003
 20
-148.9624836867177
 30
0.0
 10
119.2864311767756
 20
-148.952837419359
 30
0.0
 10
118.8799099095161
 20
-148.9211425408947
 30
0.0
 10
118.8799099095161
 20
-148.3933539125544
 30
0.0
 10
118.8799099095161
 20
-148.1342827320636
 30
0.0
 10
119.0170247098291
 20
-147.8555745073069
 30
0.0
 10
119.3363850613117
 20
-147.8555745073069
 30
0.0
 10
119.5372341281018
 20
-147.8555745073069
 30
0.0
 10
119.6264621011698
 20
-147.9656453080607
 30
0.0
 10
119.6926079344865
 20
-148.0805392424937
 30
0.0
 10
119.7222357556597
 20
-148.0095702754976
 30
0.0
 10
119.809052161888
 20
-147.7994194508974
 30
0.0
 10
120.1080864500077
 20
-147.7994194508974
 30
0.0
 10
120.4732665714442
 20
-147.7994194508974
 30
0.0
 10
120.6534450653227
 20
-148.0853623761731
 30
0.0
 10
120.6534450653227
 20
-148.4055840015271
 30
0.0
  0
HATCH
  5
BE
330
B7
100
AcDbEntity
  8
レイヤー 1
 62
   250
420
  2299925
440
 33554687
100
AcDbHatch
 10
0.0
 20
0.0
 30
0.0
210
0.0
220
0.0
230
1.0
  2
SOLID
 70
     1
 71
     1
 91
        1
 92
        1
 93
        1
 72
     4
 94
        3
 73
     0
 74
     0
 95
       62
 96
       58
 40
0.0
 40
0.0
 40
0.0
 40
0.0
 40
1.0
 40
1.0
 40
1.0
 40
2.0
 40
2.0
 40
2.0
 40
3.0
 40
3.0
 40
3.0
 40
4.0
 40
4.0
 40
4.0
 40
5.0
 40
5.0
 40
5.0
 40
6.0
 40
6.0
 40
6.0
 40
7.0
 40
7.0
 40
7.0
 40
8.0
 40
8.0
 40
8.0
 40
9.0
 40
9.0
 40
9.0
 40
10.0
 40
10.0
 40
10.0
 40
11.0
 40
11.0
 40
11.0
 40
12.0
 40
12.0
 40
12.0
 40
13.0
 40
13.0
 40
13.0
 40
14.0
 40
14.0
 40
14.0
 40
15.0
 40
15.0
 40
15.0
 40
16.0
 40
16.0
 40
16.0
 40
17.0
 40
17.0
 40
17.0
 40
18.0
 40
18.0
 40
18.0
 40
19.0
 40
19.0
 40
19.0
 40
19.0
 10
120.6534450653227
 20
-148.4055840015271
 10
120.6534450653227
 20
-148.5154825475065
 10
120.6307074351201
 20
-148.767146772704
 10
120.42985836833
 20
-148.911496273536
 10
120.3089355167977
 20
-148.9969346415702
 10
120.2014485376579
 20
-149.0017577752495
 10
120.1101535072988
 20
-149.0065809089289
 10
120.1101535072988
 20
-149.0065809089289
 10
120.1101535072988
 20
-148.7525051168917
 10
120.1101535072988
 20
-148.7525051168917
 10
120.1900797225566
 20
-148.750093550052
 10
120.4432942407225
 20
-148.7378634610794
 10
120.4432942407225
 20
-148.4104071352064
 10
120.4432942407225
 20
-148.2515882333364
 10
120.3681911591441
 20
-148.0755438540401
 10
120.1215223224002
 20
-148.0755438540401
 10
119.9961208467371
 20
-148.0755438540401
 10
119.9437553953613
 20
-148.1196410762513
 10
119.9093044405088
 20
-148.1563313431692
 10
119.829378225251
 20
-148.2417697112034
 10
119.8159423528585
 20
-148.3761284351282
 10
119.8159423528585
 20
-148.4396904468311
 10
119.8159423528585
 20
-148.4617390579366
 10
119.8180094101497
 20
-148.5032524585339
 10
119.8224880342805
 20
-148.5351195917725
 10
119.8224880342805
 20
-148.5351195917725
 10
119.6126817192288
 20
-148.5351195917725
 10
119.6126817192288
 20
-148.5351195917725
 10
119.6195719101993
 20
-148.4910223695613
 10
119.6219834770389
 20
-148.4421020136707
 10
119.6219834770389
 20
-148.4348673131517
 10
119.6219834770389
 20
-148.3590752124762
 10
119.5989013372878
 20
-148.12928734361
 10
119.3432752522822
 20
-148.12928734361
 10
119.1517279433023
 20
-148.12928734361
 10
119.0921277914075
 20
-148.280871544961
 10
119.0921277914075
 20
-148.4079955683667
 10
119.0921277914075
 20
-148.7134032831342
 10
119.3432752522822
 20
-148.7232218052671
 10
119.4207899007003
 20
-148.7280449389464
 10
119.4207899007003
 20
-148.7280449389464
 10
119.4207899007003
 20
-148.9624836867177
 10
119.4207899007003
 20
-148.9624836867177
 10
119.2864311767756
 20
-148.952837419359
 10
118.8799099095161
 20
-148.9211425408947
 10
118.8799099095161
 20
-148.3933539125544
 10
118.8799099095161
 20
-148.1342827320636
 10
119.0170247098291
 20
-147.8555745073069
 10
119.3363850613117
 20
-147.8555745073069
 10
119.5372341281018
 20
-147.8555745073069
 10
119.6264621011698
 20
-147.9656453080607
 10
119.6926079344865
 20
-148.0805392424937
 10
119.7222357556597
 20
-148.0095702754976
 10
119.809052161888
 20
-147.7994194508974
 10
120.1080864500077
 20
-147.7994194508974
 10
120.4732665714442
 20
-147.7994194508974
 10
120.6534450653227
 20
-148.0853623761731
 10
120.6534450653227
 20
-148.4055840015271
 97
        0
 97
        1
330
BD
 75
     2
 76
     1
 98
        1
 10
0.0
 20
0.0
450
        0
451
        0
460
0.0
461
0.0
452
        0
462
0.0
453
        0
470

  0
ENDBLK
  5
BA
330
B7
100
AcDbEntity
  8
0
100
AcDbBlockEnd
  0
BLOCK
  5
C1
330
BF
100
AcDbEntity
  8
0
100
AcDbBlockBegin
  2
Block_9
 70
     0
 10
0.0
 20
0.0
 30
0.0
  3
Block_9
  1

  0
LINE
  5
C3
330
BF
100
AcDbEntity
  8
レイヤー 1
 62
   250
420
  2299925
370
     9
100
AcDbLine
 10
99.44944870682615
 20
-138.5755102954038
 30
0.0
 11
117.4495463031612
 21
-138.5755102954038
 31
0.0
  0
LINE
  5
C4
330
BF
100
AcDbEntity
  8
レイヤー 1
 62
   250
420
  2299925
370
     9
100
AcDbLine
 10
99.44944870682615
 20
-140.0355163692671
 30
0.0
 11
99.44944870682615
 21
-137.5757380986879
 31
0.0
  0
LINE
  5
C5
330
BF
100
AcDbEntity
  8
レイヤー 1
 62
   250
420
  2299925
370
     9
100
AcDbLine
 10
117.4495463031612
 20
-140.0355163692671
 30
0.0
 11
117.4495463031612
 21
-137.5757380986879
 31
0.0
  0
INSERT
  5
C7
330
BF
100
AcDbEntity
  8
レイヤー 1
100
AcDbBlockReference
  2
Block_10
 10
0.0
 20
0.0
 30
0.0
  0
ENDBLK
  5
C2
330
BF
100
AcDbEntity
  8
0
100
AcDbBlockEnd
  0
BLOCK
  5
C8
330
C6
100
AcDbEntity
  8
0
100
AcDbBlockBegin
  2
Block_10
 70
     0
 10
0.0
 20
0.0
 30
0.0
  3
Block_10
  1

  0
INSERT
  5
CB
330
C6
100
AcDbEntity
  8
レイヤー 1
100
AcDbBlockReference
  2
Block_11
 10
0.0
 20
0.0
 30
0.0
  0
ENDBLK
  5
C9
330
C6
100
AcDbEntity
  8
0
100
AcDbBlockEnd
  0
BLOCK
  5
CC
330
CA
100
AcDbEntity
  8
0
100
AcDbBlockBegin
  2
Block_11
 70
     0
 10
0.0
 20
0.0
 30
0.0
  3
Block_11
  1

  0
SPLINE
  5
CE
330
CA
100
AcDbEntity
  8
レイヤー 1
100
AcDbSpline
210
0.0
220
0.0
230
1.0
 70
    11
 71
     3
 72
    26
 73
    22
 74
     0
 42
0.0000000001
 43
0.0000000001
 40
0.0
 40
0.0
 40
0.0
 40
0.0
 40
1.0
 40
1.0
 40
1.0
 40
2.0
 40
2.0
 40
2.0
 40
3.0
 40
3.0
 40
3.0
 40
4.0
 40
4.0
 40
4.0
 40
5.0
 40
5.0
 40
5.0
 40
6.0
 40
6.0
 40
6.0
 40
7.0
 40
7.0
 40
7.0
 40
7.0
 10
107.667502143222
 20
-137.3135823224424
 30
0.0
 10
107.667502143222
 20
-137.3135823224424
 30
0.0
 10
107.667502143222
 20
-136.122268303643
 30
0.0
 10
107.667502143222
 20
-136.122268303643
 30
0.0
 10
107.667502143222
 20
-136.122268303643
 30
0.0
 10
107.2864745825534
 20
-136.122268303643
 30
0.0
 10
107.2864745825534
 20
-136.122268303643
 30
0.0
 10
107.2864745825534
 20
-136.122268303643
 30
0.0
 10
107.2864745825534
 20
-135.9624158731274
 30
0.0
 10
107.2864745825534
 20
-135.9624158731274
 30
0.0
 10
107.6699137100617
 20
-135.946396179121
 30
0.0
 10
107.7236571996316
 20
-135.7706963093733
 30
0.0
 10
107.7581081544841
 20
-135.6475341457756
 30
0.0
 10
107.7581081544841
 20
-135.6475341457756
 30
0.0
 10
107.9265733237128
 20
-135.6475341457756
 30
0.0
 10
107.9265733237128
 20
-135.6475341457756
 30
0.0
 10
107.9265733237128
 20
-135.6475341457756
 30
0.0
 10
107.9265733237128
 20
-137.3135823224424
 30
0.0
 10
107.9265733237128
 20
-137.3135823224424
 30
0.0
 10
107.9265733237128
 20
-137.3135823224424
 30
0.0
 10
107.667502143222
 20
-137.3135823224424
 30
0.0
 10
107.667502143222
 20
-137.3135823224424
 30
0.0
  0
HATCH
  5
CF
330
CA
100
AcDbEntity
  8
レイヤー 1
 62
   250
420
  2299925
440
 33554687
100
AcDbHatch
 10
0.0
 20
0.0
 30
0.0
210
0.0
220
0.0
230
1.0
  2
SOLID
 70
     1
 71
     1
 91
        1
 92
        1
 93
        1
 72
     4
 94
        3
 73
     0
 74
     0
 95
       26
 96
       22
 40
0.0
 40
0.0
 40
0.0
 40
0.0
 40
1.0
 40
1.0
 40
1.0
 40
2.0
 40
2.0
 40
2.0
 40
3.0
 40
3.0
 40
3.0
 40
4.0
 40
4.0
 40
4.0
 40
5.0
 40
5.0
 40
5.0
 40
6.0
 40
6.0
 40
6.0
 40
7.0
 40
7.0
 40
7.0
 40
7.0
 10
107.667502143222
 20
-137.3135823224424
 10
107.667502143222
 20
-137.3135823224424
 10
107.667502143222
 20
-136.122268303643
 10
107.667502143222
 20
-136.122268303643
 10
107.667502143222
 20
-136.122268303643
 10
107.2864745825534
 20
-136.122268303643
 10
107.2864745825534
 20
-136.122268303643
 10
107.2864745825534
 20
-136.122268303643
 10
107.2864745825534
 20
-135.9624158731274
 10
107.2864745825534
 20
-135.9624158731274
 10
107.6699137100617
 20
-135.946396179121
 10
107.7236571996316
 20
-135.7706963093733
 10
107.7581081544841
 20
-135.6475341457756
 10
107.7581081544841
 20
-135.6475341457756
 10
107.9265733237128
 20
-135.6475341457756
 10
107.9265733237128
 20
-135.6475341457756
 10
107.9265733237128
 20
-135.6475341457756
 10
107.9265733237128
 20
-137.3135823224424
 10
107.9265733237128
 20
-137.3135823224424
 10
107.9265733237128
 20
-137.3135823224424
 10
107.667502143222
 20
-137.3135823224424
 10
107.667502143222
 20
-137.3135823224424
 97
        0
 97
        1
330
CE
 75
     2
 76
     1
 98
        1
 10
0.0
 20
0.0
450
        0
451
        0
460
0.0
461
0.0
452
        0
462
0.0
453
        0
470

  0
SPLINE
  5
D0
330
CA
100
AcDbEntity
  8
レイヤー 1
100
AcDbSpline
210
0.0
220
0.0
230
1.0
 70
     9
 71
     3
 72
    17
 73
    13
 74
     0
 42
0.0000000001
 43
0.0000000001
 40
0.0
 40
0.0
 40
0.0
 40
0.0
 40
1.0
 40
1.0
 40
1.0
 40
2.0
 40
2.0
 40
2.0
 40
3.0
 40
3.0
 40
3.0
 40
4.0
 40
4.0
 40
4.0
 40
4.0
 10
109.0813693303685
 20
-135.8025634426119
 30
0.0
 10
108.8908555500342
 20
-135.8025634426119
 30
0.0
 10
108.7930148382531
 20
-135.9053995428465
 30
0.0
 10
108.7930148382531
 20
-136.0514715914211
 30
0.0
 10
108.7930148382531
 20
-136.1837632580547
 30
0.0
 10
108.8760416394476
 20
-136.3115763005575
 30
0.0
 10
109.0813693303685
 20
-136.3115763005575
 30
0.0
 10
109.2866970212894
 20
-136.3115763005575
 30
0.0
 10
109.3697238224839
 20
-136.1837632580547
 30
0.0
 10
109.3697238224839
 20
-136.0514715914211
 30
0.0
 10
109.3697238224839
 20
-135.9053995428465
 30
0.0
 10
109.2698160534117
 20
-135.8025634426119
 30
0.0
 10
109.0813693303685
 20
-135.8025634426119
 30
0.0
  0
SPLINE
  5
D1
330
CA
100
AcDbEntity
  8
レイヤー 1
100
AcDbSpline
210
0.0
220
0.0
230
1.0
 70
     9
 71
     3
 72
    17
 73
    13
 74
     0
 42
0.0000000001
 43
0.0000000001
 40
0.0
 40
0.0
 40
0.0
 40
0.0
 40
1.0
 40
1.0
 40
1.0
 40
2.0
 40
2.0
 40
2.0
 40
3.0
 40
3.0
 40
3.0
 40
4.0
 40
4.0
 40
4.0
 40
4.0
 10
109.0813693303685
 20
-136.514664679413
 30
0.0
 10
108.9153157279795
 20
-136.514664679413
 30
0.0
 10
108.7392713486832
 20
-136.6083712766118
 30
0.0
 10
108.7392713486832
 20
-136.8274793494737
 30
0.0
 10
108.7392713486832
 20
-137.048826734401
 30
0.0
 10
108.8860324163549
 20
-137.1583807708319
 30
0.0
 10
109.0813693303685
 20
-137.1583807708319
 30
0.0
 10
109.2966877981967
 20
-137.1583807708319
 30
0.0
 10
109.4234673120538
 20
-137.0259168494241
 30
0.0
 10
109.4234673120538
 20
-136.8343695404442
 30
0.0
 10
109.4234673120538
 20
-136.5945908946708
 30
0.0
 10
109.2353650985592
 20
-136.514664679413
 30
0.0
 10
109.0813693303685
 20
-136.514664679413
 30
0.0
  0
SPLINE
  5
D2
330
CA
100
AcDbEntity
  8
レイヤー 1
100
AcDbSpline
210
0.0
220
0.0
230
1.0
 70
     9
 71
     3
 72
    29
 73
    25
 74
     0
 42
0.0000000001
 43
0.0000000001
 40
0.0
 40
0.0
 40
0.0
 40
0.0
 40
1.0
 40
1.0
 40
1.0
 40
2.0
 40
2.0
 40
2.0
 40
3.0
 40
3.0
 40
3.0
 40
4.0
 40
4.0
 40
4.0
 40
5.0
 40
5.0
 40
5.0
 40
6.0
 40
6.0
 40
6.0
 40
7.0
 40
7.0
 40
7.0
 40
8.0
 40
8.0
 40
8.0
 40
8.0
 10
109.0813693303685
 20
-137.3683593406579
 30
0.0
 10
108.7733777939872
 20
-137.3683593406579
 30
0.0
 10
108.4802001681924
 20
-137.2200479800179
 30
0.0
 10
108.4802001681924
 20
-136.8433267887058
 30
0.0
 10
108.4802001681924
 20
-136.567202385563
 30
0.0
 10
108.6441867132903
 20
-136.4645385401026
 30
0.0
 10
108.7661430934682
 20
-136.3983927067858
 30
0.0
 10
108.6221381021847
 20
-136.3344861855344
 30
0.0
 10
108.5339436577623
 20
-136.2111517671625
 30
0.0
 10
108.5339436577623
 20
-136.0376912094801
 30
0.0
 10
108.5339436577623
 20
-135.7410684882001
 30
0.0
 10
108.7637315266285
 20
-135.5949964396255
 30
0.0
 10
109.0813693303685
 20
-135.5949964396255
 30
0.0
 10
109.4089979110158
 20
-135.5949964396255
 30
0.0
 10
109.6287950029747
 20
-135.750197991236
 30
0.0
 10
109.6287950029747
 20
-136.0376912094801
 30
0.0
 10
109.6287950029747
 20
-136.2111517671625
 30
0.0
 10
109.5385335012612
 20
-136.3344861855344
 30
0.0
 10
109.3941840004292
 20
-136.3983927067858
 30
0.0
 10
109.4968478458897
 20
-136.4531697250013
 30
0.0
 10
109.6801269257049
 20
-136.5558335704617
 30
0.0
 10
109.6801269257049
 20
-136.838848164575
 30
0.0
 10
109.6801269257049
 20
-137.2427856102205
 30
0.0
 10
109.3576659882856
 20
-137.3683593406579
 30
0.0
 10
109.0813693303685
 20
-137.3683593406579
 30
0.0
  0
HATCH
  5
D3
330
CA
100
AcDbEntity
  8
レイヤー 1
 62
   250
420
  2299925
440
 33554687
100
AcDbHatch
 10
0.0
 20
0.0
 30
0.0
210
0.0
220
0.0
230
1.0
  2
SOLID
 70
     1
 71
     1
 91
        3
 92
        1
 93
        1
 72
     4
 94
        3
 73
     0
 74
     0
 95
       17
 96
       13
 40
0.0
 40
0.0
 40
0.0
 40
0.0
 40
1.0
 40
1.0
 40
1.0
 40
2.0
 40
2.0
 40
2.0
 40
3.0
 40
3.0
 40
3.0
 40
4.0
 40
4.0
 40
4.0
 40
4.0
 10
109.0813693303685
 20
-135.8025634426119
 10
108.8908555500342
 20
-135.8025634426119
 10
108.7930148382531
 20
-135.9053995428465
 10
108.7930148382531
 20
-136.0514715914211
 10
108.7930148382531
 20
-136.1837632580547
 10
108.8760416394476
 20
-136.3115763005575
 10
109.0813693303685
 20
-136.3115763005575
 10
109.2866970212894
 20
-136.3115763005575
 10
109.3697238224839
 20
-136.1837632580547
 10
109.3697238224839
 20
-136.0514715914211
 10
109.3697238224839
 20
-135.9053995428465
 10
109.2698160534117
 20
-135.8025634426119
 10
109.0813693303685
 20
-135.8025634426119
 97
        0
 97
        1
330
D0
 92
        1
 93
        1
 72
     4
 94
        3
 73
     0
 74
     0
 95
       17
 96
       13
 40
0.0
 40
0.0
 40
0.0
 40
0.0
 40
1.0
 40
1.0
 40
1.0
 40
2.0
 40
2.0
 40
2.0
 40
3.0
 40
3.0
 40
3.0
 40
4.0
 40
4.0
 40
4.0
 40
4.0
 10
109.0813693303685
 20
-136.514664679413
 10
108.9153157279795
 20
-136.514664679413
 10
108.7392713486832
 20
-136.6083712766118
 10
108.7392713486832
 20
-136.8274793494737
 10
108.7392713486832
 20
-137.048826734401
 10
108.8860324163549
 20
-137.1583807708319
 10
109.0813693303685
 20
-137.1583807708319
 10
109.2966877981967
 20
-137.1583807708319
 10
109.4234673120538
 20
-137.0259168494241
 10
109.4234673120538
 20
-136.8343695404442
 10
109.4234673120538
 20
-136.5945908946708
 10
109.2353650985592
 20
-136.514664679413
 10
109.0813693303685
 20
-136.514664679413
 97
        0
 97
        1
330
D1
 92
        1
 93
        1
 72
     4
 94
        3
 73
     0
 74
     0
 95
       29
 96
       25
 40
0.0
 40
0.0
 40
0.0
 40
0.0
 40
1.0
 40
1.0
 40
1.0
 40
2.0
 40
2.0
 40
2.0
 40
3.0
 40
3.0
 40
3.0
 40
4.0
 40
4.0
 40
4.0
 40
5.0
 40
5.0
 40
5.0
 40
6.0
 40
6.0
 40
6.0
 40
7.0
 40
7.0
 40
7.0
 40
8.0
 40
8.0
 40
8.0
 40
8.0
 10
109.0813693303685
 20
-137.3683593406579
 10
108.7733777939872
 20
-137.3683593406579
 10
108.4802001681924
 20
-137.2200479800179
 10
108.4802001681924
 20
-136.8433267887058
 10
108.4802001681924
 20
-136.567202385563
 10
108.6441867132903
 20
-136.4645385401026
 10
108.7661430934682
 20
-136.3983927067858
 10
108.6221381021847
 20
-136.3344861855344
 10
108.5339436577623
 20
-136.2111517671625
 10
108.5339436577623
 20
-136.0376912094801
 10
108.5339436577623
 20
-135.7410684882001
 10
108.7637315266285
 20
-135.5949964396255
 10
109.0813693303685
 20
-135.5949964396255
 10
109.4089979110158
 20
-135.5949964396255
 10
109.6287950029747
 20
-135.750197991236
 10
109.6287950029747
 20
-136.0376912094801
 10
109.6287950029747
 20
-136.2111517671625
 10
109.5385335012612
 20
-136.3344861855344
 10
109.3941840004292
 20
-136.3983927067858
 10
109.4968478458897
 20
-136.4531697250013
 10
109.6801269257049
 20
-136.5558335704617
 10
109.6801269257049
 20
-136.838848164575
 10
109.6801269257049
 20
-137.2427856102205
 10
109.3576659882856
 20
-137.3683593406579
 10
109.0813693303685
 20
-137.3683593406579
 97
        0
 97
        1
330
D2
 75
     2
 76
     1
 98
        1
 10
0.0
 20
0.0
450
        0
451
        0
460
0.0
461
0.0
452
        0
462
0.0
453
        0
470

  0
ENDBLK
  5
CD
330
CA
100
AcDbEntity
  8
0
100
AcDbBlockEnd
  0
BLOCK
  5
D6
330
D4
100
AcDbEntity
  8
0
100
AcDbBlockBegin
  2
Block_12
 70
     0
 10
0.0
 20
0.0
 30
0.0
  3
Block_12
  1

  0
LINE
  5
D8
330
D4
100
AcDbEntity
  8
レイヤー 1
 62
   250
420
  2299925
370
     9
100
AcDbLine
 10
99.44944870682615
 20
-162.5755463497786
 30
0.0
 11
106.4494768615742
 21
-162.5755463497786
 31
0.0
  0
LINE
  5
D9
330
D4
100
AcDbEntity
  8
レイヤー 1
 62
   250
420
  2299925
370
     9
100
AcDbLine
 10
99.44944870682615
 20
-161.1155049981384
 30
0.0
 11
99.44944870682615
 21
-163.5756360464864
 31
0.0
  0
LINE
  5
DA
330
D4
100
AcDbEntity
  8
レイヤー 1
 62
   250
420
  2299925
370
     9
100
AcDbLine
 10
106.4494768615742
 20
-161.1155049981384
 30
0.0
 11
106.4494768615742
 21
-163.5756360464864
 31
0.0
  0
INSERT
  5
DC
330
D4
100
AcDbEntity
  8
レイヤー 1
100
AcDbBlockReference
  2
Block_13
 10
0.0
 20
0.0
 30
0.0
  0
ENDBLK
  5
D7
330
D4
100
AcDbEntity
  8
0
100
AcDbBlockEnd
  0
BLOCK
  5
DD
330
DB
100
AcDbEntity
  8
0
100
AcDbBlockBegin
  2
Block_13
 70
     0
 10
0.0
 20
0.0
 30
0.0
  3
Block_13
  1

  0
SPLINE
  5
DF
330
DB
100
AcDbEntity
  8
レイヤー 1
100
AcDbSpline
210
0.0
220
0.0
230
1.0
 70
     9
 71
     3
 72
    26
 73
    22
 74
     0
 42
0.0000000001
 43
0.0000000001
 40
0.0
 40
0.0
 40
0.0
 40
0.0
 40
1.0
 40
1.0
 40
1.0
 40
2.0
 40
2.0
 40
2.0
 40
3.0
 40
3.0
 40
3.0
 40
4.0
 40
4.0
 40
4.0
 40
5.0
 40
5.0
 40
5.0
 40
6.0
 40
6.0
 40
6.0
 40
7.0
 40
7.0
 40
7.0
 40
7.0
 10
102.8081949612771
 20
-161.4891953806346
 30
0.0
 10
102.8081949612771
 20
-161.4891953806346
 30
0.0
 10
102.5525688762715
 20
-161.4891953806346
 30
0.0
 10
102.5525688762715
 20
-161.4891953806346
 30
0.0
 10
102.5799573853793
 20
-161.156054647211
 30
0.0
 10
102.7876966431399
 20
-160.5969156499549
 30
0.0
 10
103.2259127888636
 20
-160.0512125250913
 30
0.0
 10
103.2259127888636
 20
-160.0512125250913
 30
0.0
 10
102.3220919883083
 20
-160.0512125250913
 30
0.0
 10
102.3220919883083
 20
-160.0512125250913
 30
0.0
 10
102.3220919883083
 20
-160.0512125250913
 30
0.0
 10
102.3220919883083
 20
-159.8231472039678
 30
0.0
 10
102.3220919883083
 20
-159.8231472039678
 30
0.0
 10
102.3220919883083
 20
-159.8231472039678
 30
0.0
 10
103.4815388738692
 20
-159.8231472039678
 30
0.0
 10
103.4815388738692
 20
-159.8231472039678
 30
0.0
 10
103.4815388738692
 20
-159.8231472039678
 30
0.0
 10
103.4815388738692
 20
-160.0512125250913
 30
0.0
 10
103.4815388738692
 20
-160.0512125250913
 30
0.0
 10
103.1322061916648
 20
-160.364027195152
 30
0.0
 10
102.8447129734207
 20
-161.0030924076658
 30
0.0
 10
102.8081949612771
 20
-161.4891953806346
 30
0.0
  0
HATCH
  5
E0
330
DB
100
AcDbEntity
  8
レイヤー 1
 62
   250
420
  2299925
440
 33554687
100
AcDbHatch
 10
0.0
 20
0.0
 30
0.0
210
0.0
220
0.0
230
1.0
  2
SOLID
 70
     1
 71
     1
 91
        1
 92
        1
 93
        1
 72
     4
 94
        3
 73
     0
 74
     0
 95
       26
 96
       22
 40
0.0
 40
0.0
 40
0.0
 40
0.0
 40
1.0
 40
1.0
 40
1.0
 40
2.0
 40
2.0
 40
2.0
 40
3.0
 40
3.0
 40
3.0
 40
4.0
 40
4.0
 40
4.0
 40
5.0
 40
5.0
 40
5.0
 40
6.0
 40
6.0
 40
6.0
 40
7.0
 40
7.0
 40
7.0
 40
7.0
 10
102.8081949612771
 20
-161.4891953806346
 10
102.8081949612771
 20
-161.4891953806346
 10
102.5525688762715
 20
-161.4891953806346
 10
102.5525688762715
 20
-161.4891953806346
 10
102.5799573853793
 20
-161.156054647211
 10
102.7876966431399
 20
-160.5969156499549
 10
103.2259127888636
 20
-160.0512125250913
 10
103.2259127888636
 20
-160.0512125250913
 10
102.3220919883083
 20
-160.0512125250913
 10
102.3220919883083
 20
-160.0512125250913
 10
102.3220919883083
 20
-160.0512125250913
 10
102.3220919883083
 20
-159.8231472039678
 10
102.3220919883083
 20
-159.8231472039678
 10
102.3220919883083
 20
-159.8231472039678
 10
103.4815388738692
 20
-159.8231472039678
 10
103.4815388738692
 20
-159.8231472039678
 10
103.4815388738692
 20
-159.8231472039678
 10
103.4815388738692
 20
-160.0512125250913
 10
103.4815388738692
 20
-160.0512125250913
 10
103.1322061916648
 20
-160.364027195152
 10
102.8447129734207
 20
-161.0030924076658
 10
102.8081949612771
 20
-161.4891953806346
 97
        0
 97
        1
330
DF
 75
     2
 76
     1
 98
        1
 10
0.0
 20
0.0
450
        0
451
        0
460
0.0
461
0.0
452
        0
462
0.0
453
        0
470

  0
ENDBLK
  5
DE
330
DB
100
AcDbEntity
  8
0
100
AcDbBlockEnd
  0
BLOCK
  5
E3
330
E1
100
AcDbEntity
  8
0
100
AcDbBlockBegin
  2
Block_14
 70
     0
 10
0.0
 20
0.0
 30
0.0
  3
Block_14
  1

  0
LINE
  5
E5
330
E1
100
AcDbEntity
  8
レイヤー 1
  6
AI-Linetype-0
 62
   154
420
    23468
370
    25
100
AcDbLine
 10
98.80968176655089
 20
-141.7350698360756
 30
0.0
 11
98.80968176655089
 21
-149.7352987324876
 31
0.0
  0
LINE
  5
E7
330
E1
100
AcDbEntity
  8
レイヤー 1
 62
   250
420
  2299925
370
     9
100
AcDbLine
 10
98.58644399335409
 20
-149.7050444013709
 30
0.0
 11
97.72033929322804
 21
-150.2052832774976
 31
0.0
  0
LINE
  5
E8
330
E1
100
AcDbEntity
  8
レイヤー 1
 62
   250
420
  2299925
370
     9
100
AcDbLine
 10
98.58644399335409
 20
-149.7050444013709
 30
0.0
 11
94.01894418919704
 21
-154.272999975603
 31
0.0
  0
LINE
  5
E9
330
E1
100
AcDbEntity
  8
レイヤー 1
 62
   250
420
  2299925
370
     9
100
AcDbLine
 10
98.58644399335409
 20
-149.7050444013709
 30
0.0
 11
98.08620511722736
 21
-150.5711491014969
 31
0.0
  0
INSERT
  5
EB
330
E1
100
AcDbEntity
  8
レイヤー 1
100
AcDbBlockReference
  2
Block_15
 10
0.0
 20
0.0
 30
0.0
  0
ENDBLK
  5
E4
330
E1
100
AcDbEntity
  8
0
100
AcDbBlockEnd
  0
BLOCK
  5
EC
330
EA
100
AcDbEntity
  8
0
100
AcDbBlockBegin
  2
Block_15
 70
     0
 10
0.0
 20
0.0
 30
0.0
  3
Block_15
  1

  0
INSERT
  5
EF
330
EA
100
AcDbEntity
  8
レイヤー 1
100
AcDbBlockReference
  2
Block_16
 10
0.0
 20
0.0
 30
0.0
  0
ENDBLK
  5
ED
330
EA
100
AcDbEntity
  8
0
100
AcDbBlockEnd
  0
BLOCK
  5
F0
330
EE
100
AcDbEntity
  8
0
100
AcDbBlockBegin
  2
Block_16
 70
     0
 10
0.0
 20
0.0
 30
0.0
  3
Block_16
  1

  0
SPLINE
  5
F2
330
EE
100
AcDbEntity
  8
レイヤー 1
100
AcDbSpline
210
0.0
220
0.0
230
1.0
 70
     9
 71
     3
 72
    17
 73
    13
 74
     0
 42
0.0000000001
 43
0.0000000001
 40
0.0
 40
0.0
 40
0.0
 40
0.0
 40
1.0
 40
1.0
 40
1.0
 40
2.0
 40
2.0
 40
2.0
 40
3.0
 40
3.0
 40
3.0
 40
4.0
 40
4.0
 40
4.0
 40
4.0
 10
88.15844317457496
 20
-156.1406846397843
 30
0.0
 10
88.14156220669726
 20
-156.1699679514089
 30
0.0
 10
88.09091930306408
 20
-156.2633300390592
 30
0.0
 10
88.0802395070598
 20
-156.282278064228
 30
0.0
 10
88.27075328739411
 20
-156.3415337065743
 30
0.0
 10
88.29176836985414
 20
-156.3477348784478
 30
0.0
 10
88.36377086549587
 20
-156.3752956423298
 30
0.0
 10
88.41889239325986
 20
-156.2884792361015
 30
0.0
 10
88.44197453301104
 20
-156.2144096831686
 30
0.0
 10
88.45678844359762
 20
-156.1406846397843
 30
0.0
 10
88.45678844359762
 20
-156.1406846397843
 30
0.0
 10
88.15844317457496
 20
-156.1406846397843
 30
0.0
 10
88.15844317457496
 20
-156.1406846397843
 30
0.0
  0
SPLINE
  5
F3
330
EE
100
AcDbEntity
  8
レイヤー 1
100
AcDbSpline
210
0.0
220
0.0
230
1.0
 70
    11
 71
     3
 72
    20
 73
    16
 74
     0
 42
0.0000000001
 43
0.0000000001
 40
0.0
 40
0.0
 40
0.0
 40
0.0
 40
1.0
 40
1.0
 40
1.0
 40
2.0
 40
2.0
 40
2.0
 40
3.0
 40
3.0
 40
3.0
 40
4.0
 40
4.0
 40
4.0
 40
5.0
 40
5.0
 40
5.0
 40
5.0
 10
88.09505341764639
 20
-155.2900905644761
 30
0.0
 10
88.09505341764639
 20
-155.2900905644761
 30
0.0
 10
88.06335853918207
 20
-155.2900905644761
 30
0.0
 10
88.06335853918207
 20
-155.2900905644761
 30
0.0
 10
88.10986732823295
 20
-155.3896538239998
 30
0.0
 10
88.14156220669726
 20
-155.4699245488061
 30
0.0
 10
88.17532414245269
 20
-155.5967040626633
 30
0.0
 10
88.17532414245269
 20
-155.5967040626633
 30
0.0
 10
88.38271889066474
 20
-155.5967040626633
 30
0.0
 10
88.38271889066474
 20
-155.5967040626633
 30
0.0
 10
88.41441376912904
 20
-155.5036864845616
 30
0.0
 10
88.43784041842873
 20
-155.4192816451729
 30
0.0
 10
88.46092255817991
 20
-155.2900905644761
 30
0.0
 10
88.46092255817991
 20
-155.2900905644761
 30
0.0
 10
88.09505341764639
 20
-155.2900905644761
 30
0.0
 10
88.09505341764639
 20
-155.2900905644761
 30
0.0
  0
SPLINE
  5
F4
330
EE
100
AcDbEntity
  8
レイヤー 1
100
AcDbSpline
210
0.0
220
0.0
230
1.0
 70
     9
 71
     3
 72
   242
 73
   238
 74
     0
 42
0.0000000001
 43
0.0000000001
 40
0.0
 40
0.0
 40
0.0
 40
0.0
 40
1.0
 40
1.0
 40
1.0
 40
2.0
 40
2.0
 40
2.0
 40
3.0
 40
3.0
 40
3.0
 40
4.0
 40
4.0
 40
4.0
 40
5.0
 40
5.0
 40
5.0
 40
6.0
 40
6.0
 40
6.0
 40
7.0
 40
7.0
 40
7.0
 40
8.0
 40
8.0
 40
8.0
 40
9.0
 40
9.0
 40
9.0
 40
10.0
 40
10.0
 40
10.0
 40
11.0
 40
11.0
 40
11.0
 40
12.0
 40
12.0
 40
12.0
 40
13.0
 40
13.0
 40
13.0
 40
14.0
 40
14.0
 40
14.0
 40
15.0
 40
15.0
 40
15.0
 40
16.0
 40
16.0
 40
16.0
 40
17.0
 40
17.0
 40
17.0
 40
18.0
 40
18.0
 40
18.0
 40
19.0
 40
19.0
 40
19.0
 40
20.0
 40
20.0
 40
20.0
 40
21.0
 40
21.0
 40
21.0
 40
22.0
 40
22.0
 40
22.0
 40
23.0
 40
23.0
 40
23.0
 40
24.0
 40
24.0
 40
24.0
 40
25.0
 40
25.0
 40
25.0
 40
26.0
 40
26.0
 40
26.0
 40
27.0
 40
27.0
 40
27.0
 40
28.0
 40
28.0
 40
28.0
 40
29.0
 40
29.0
 40
29.0
 40
30.0
 40
30.0
 40
30.0
 40
31.0
 40
31.0
 40
31.0
 40
32.0
 40
32.0
 40
32.0
 40
33.0
 40
33.0
 40
33.0
 40
34.0
 40
34.0
 40
34.0
 40
35.0
 40
35.0
 40
35.0
 40
36.0
 40
36.0
 40
36.0
 40
37.0
 40
37.0
 40
37.0
 40
38.0
 40
38.0
 40
38.0
 40
39.0
 40
39.0
 40
39.0
 40
40.0
 40
40.0
 40
40.0
 40
41.0
 40
41.0
 40
41.0
 40
42.0
 40
42.0
 40
42.0
 40
43.0
 40
43.0
 40
43.0
 40
44.0
 40
44.0
 40
44.0
 40
45.0
 40
45.0
 40
45.0
 40
46.0
 40
46.0
 40
46.0
 40
47.0
 40
47.0
 40
47.0
 40
48.0
 40
48.0
 40
48.0
 40
49.0
 40
49.0
 40
49.0
 40
50.0
 40
50.0
 40
50.0
 40
51.0
 40
51.0
 40
51.0
 40
52.0
 40
52.0
 40
52.0
 40
53.0
 40
53.0
 40
53.0
 40
54.0
 40
54.0
 40
54.0
 40
55.0
 40
55.0
 40
55.0
 40
56.0
 40
56.0
 40
56.0
 40
57.0
 40
57.0
 40
57.0
 40
58.0
 40
58.0
 40
58.0
 40
59.0
 40
59.0
 40
59.0
 40
60.0
 40
60.0
 40
60.0
 40
61.0
 40
61.0
 40
61.0
 40
62.0
 40
62.0
 40
62.0
 40
63.0
 40
63.0
 40
63.0
 40
64.0
 40
64.0
 40
64.0
 40
65.0
 40
65.0
 40
65.0
 40
66.0
 40
66.0
 40
66.0
 40
67.0
 40
67.0
 40
67.0
 40
68.0
 40
68.0
 40
68.0
 40
69.0
 40
69.0
 40
69.0
 40
70.0
 40
70.0
 40
70.0
 40
71.0
 40
71.0
 40
71.0
 40
72.0
 40
72.0
 40
72.0
 40
73.0
 40
73.0
 40
73.0
 40
74.0
 40
74.0
 40
74.0
 40
75.0
 40
75.0
 40
75.0
 40
76.0
 40
76.0
 40
76.0
 40
77.0
 40
77.0
 40
77.0
 40
78.0
 40
78.0
 40
78.0
 40
79.0
 40
79.0
 40
79.0
 40
79.0
 10
88.72343883415595
 20
-155.7555229645333
 30
0.0
 10
88.72343883415595
 20
-155.7555229645333
 30
0.0
 10
88.46953529689304
 20
-155.7555229645333
 30
0.0
 10
88.46953529689304
 20
-155.7555229645333
 30
0.0
 10
88.46953529689304
 20
-155.7555229645333
 30
0.0
 10
88.19254961987894
 20
-155.7555229645333
 30
0.0
 10
88.19254961987894
 20
-155.7555229645333
 30
0.0
 10
88.19254961987894
 20
-155.7555229645333
 30
0.0
 10
88.31932913373615
 20
-155.7978976390019
 30
0.0
 10
88.31932913373615
 20
-155.7978976390019
 30
0.0
 10
88.33000892974041
 20
-155.8020317535842
 30
0.0
 10
88.34275578303584
 20
-155.8082329254576
 30
0.0
 10
88.34275578303584
 20
-155.8209797787531
 30
0.0
 10
88.34275578303584
 20
-155.8423393707616
 30
0.0
 10
88.31071639502303
 20
-155.8485405426351
 30
0.0
 10
88.289701312563
 20
-155.8526746572174
 30
0.0
 10
88.27902151655871
 20
-155.876101306517
 30
0.0
 10
88.24939369538558
 20
-155.9415581207368
 30
0.0
 10
88.23044567021669
 20
-155.9859998524965
 30
0.0
 10
88.23044567021669
 20
-155.9859998524965
 30
0.0
 10
88.50123017535734
 20
-155.9859998524965
 30
0.0
 10
88.50123017535734
 20
-155.9859998524965
 30
0.0
 10
88.59218069616792
 20
-155.9859998524965
 30
0.0
 10
88.78889564837569
 20
-155.9818657379142
 30
0.0
 10
88.93083358236799
 20
-155.9732529992011
 30
0.0
 10
88.93083358236799
 20
-155.9732529992011
 30
0.0
 10
88.93083358236799
 20
-156.15101992624
 30
0.0
 10
88.93083358236799
 20
-156.15101992624
 30
0.0
 10
88.84815129072199
 20
-156.1468858116577
 30
0.0
 10
88.82713620826198
 20
-156.1468858116577
 30
0.0
 10
88.64730222393193
 20
-156.1427516970754
 30
0.0
 10
88.61560734546761
 20
-156.2970919748146
 30
0.0
 10
88.57116561370791
 20
-156.3773626996209
 30
0.0
 10
88.52672388194818
 20
-156.4472981379715
 30
0.0
 10
88.64730222393193
 20
-156.5065537803178
 30
0.0
 10
88.75306665532908
 20
-156.5740776518287
 30
0.0
 10
88.85676402943511
 20
-156.6567599434747
 30
0.0
 10
88.85676402943511
 20
-156.6567599434747
 30
0.0
 10
88.73825274474253
 20
-156.8238470745093
 30
0.0
 10
88.73825274474253
 20
-156.8238470745093
 30
0.0
 10
88.71482609544283
 20
-156.8048990493404
 30
0.0
 10
88.7020792421474
 20
-156.7962863106273
 30
0.0
 10
88.59011363887679
 20
-156.7115369616901
 30
0.0
 10
88.54153779253476
 20
-156.6736409113524
 30
0.0
 10
88.48228215018847
 20
-156.6378119183058
 30
0.0
 10
88.40166691583361
 20
-156.5933701865461
 30
0.0
 10
88.19013805303928
 20
-156.7794053427496
 30
0.0
 10
87.98515487166691
 20
-156.8028319920493
 30
0.0
 10
87.69507783180888
 20
-156.8324598132224
 30
0.0
 10
87.69507783180888
 20
-156.8324598132224
 30
0.0
 10
87.59172496725138
 20
-156.6526258288924
 30
0.0
 10
87.59172496725138
 20
-156.6526258288924
 30
0.0
 10
87.9090182614429
 20
-156.6481472047616
 30
0.0
 10
88.08437362164211
 20
-156.6229980077192
 30
0.0
 10
88.23664684209015
 20
-156.5127549521912
 30
0.0
 10
88.11848006694608
 20
-156.4621120485581
 30
0.0
 10
88.02959660342663
 20
-156.4345512846761
 30
0.0
 10
87.99342310083151
 20
-156.4218044313806
 30
0.0
 10
87.97447507566264
 20
-156.4493651952626
 30
0.0
 10
87.95966116507605
 20
-156.4683132204315
 30
0.0
 10
87.93210040119406
 20
-156.5024196657355
 30
0.0
 10
87.93210040119406
 20
-156.5024196657355
 30
0.0
 10
87.73538544898629
 20
-156.4197373740895
 30
0.0
 10
87.73538544898629
 20
-156.4197373740895
 30
0.0
 10
87.81806774063229
 20
-156.3394666492832
 30
0.0
 10
87.87939044026975
 20
-156.2440375043417
 30
0.0
 10
87.93623451577635
 20
-156.1427516970754
 30
0.0
 10
87.74606524499057
 20
-156.1468858116577
 30
0.0
 10
87.72470565298203
 20
-156.1468858116577
 30
0.0
 10
87.64236787088455
 20
-156.15101992624
 30
0.0
 10
87.64236787088455
 20
-156.15101992624
 30
0.0
 10
87.64236787088455
 20
-155.9732529992011
 30
0.0
 10
87.64236787088455
 20
-155.9732529992011
 30
0.0
 10
87.78189423803716
 20
-155.9797986806231
 30
0.0
 10
87.99135604354036
 20
-155.9839327952054
 30
0.0
 10
88.01684975013122
 20
-155.9839327952054
 30
0.0
 10
88.03373071800892
 20
-155.9501708594499
 30
0.0
 10
88.08885224577293
 20
-155.8295925174662
 30
0.0
 10
88.1078002709418
 20
-155.7555229645333
 30
0.0
 10
88.08885224577293
 20
-155.7555229645333
 30
0.0
 10
87.91108531873403
 20
-155.7617241364068
 30
0.0
 10
87.71643742381742
 20
-155.7744709897022
 30
0.0
 10
87.71643742381742
 20
-155.7744709897022
 30
0.0
 10
87.71643742381742
 20
-155.9077961849814
 30
0.0
 10
87.71643742381742
 20
-155.9077961849814
 30
0.0
 10
87.6678615774754
 20
-155.9332898915722
 30
0.0
 10
87.6086059351291
 20
-155.9649847700365
 30
0.0
 10
87.47528073984993
 20
-156.0304415842563
 30
0.0
 10
87.47528073984993
 20
-156.0304415842563
 30
0.0
 10
87.47528073984993
 20
-156.1765136328308
 30
0.0
 10
87.47528073984993
 20
-156.1765136328308
 30
0.0
 10
87.47528073984993
 20
-156.1765136328308
 30
0.0
 10
87.47528073984993
 20
-156.6440130901793
 30
0.0
 10
87.47528073984993
 20
-156.6440130901793
 30
0.0
 10
87.47528073984993
 20
-156.7707926040364
 30
0.0
 10
87.43910723725482
 20
-156.8300482463827
 30
0.0
 10
87.15592038836728
 20
-156.8217800172182
 30
0.0
 10
87.15592038836728
 20
-156.8217800172182
 30
0.0
 10
87.05222301426125
 20
-156.6143852690061
 30
0.0
 10
87.05222301426125
 20
-156.6143852690061
 30
0.0
 10
87.11561277118985
 20
-156.6271321223015
 30
0.0
 10
87.16418861753188
 20
-156.6312662368838
 30
0.0
 10
87.2044962347093
 20
-156.6312662368838
 30
0.0
 10
87.28063284493332
 20
-156.6312662368838
 30
0.0
 10
87.29131264093759
 20
-156.6081840971327
 30
0.0
 10
87.29131264093759
 20
-156.5423827733644
 30
0.0
 10
87.29131264093759
 20
-156.5423827733644
 30
0.0
 10
87.29131264093759
 20
-156.1131238759022
 30
0.0
 10
87.29131264093759
 20
-156.1131238759022
 30
0.0
 10
87.19381643870503
 20
-156.1530869835312
 30
0.0
 10
87.17693547082729
 20
-156.1596326649531
 30
0.0
 10
87.13042668177642
 20
-156.178580690122
 30
0.0
 10
87.12629256719413
 20
-156.199595772582
 30
0.0
 10
87.1218139430633
 20
-156.2292235937552
 30
0.0
 10
87.10286591789442
 20
-156.2292235937552
 30
0.0
 10
87.09459768872982
 20
-156.2292235937552
 30
0.0
 10
87.08391789272555
 20
-156.2250894791729
 30
0.0
 10
87.07737221130358
 20
-156.2020073394217
 30
0.0
 10
87.07737221130358
 20
-156.2020073394217
 30
0.0
 10
87.02466225037925
 20
-156.0094265017963
 30
0.0
 10
87.02466225037925
 20
-156.0094265017963
 30
0.0
 10
87.17073429895384
 20
-155.9629177127454
 30
0.0
 10
87.2361911131736
 20
-155.9394910634457
 30
0.0
 10
87.29131264093759
 20
-155.9184759809856
 30
0.0
 10
87.29131264093759
 20
-155.9184759809856
 30
0.0
 10
87.29131264093759
 20
-155.5057535418527
 30
0.0
 10
87.29131264093759
 20
-155.5057535418527
 30
0.0
 10
87.29131264093759
 20
-155.5057535418527
 30
0.0
 10
87.23825817046474
 20
-155.5057535418527
 30
0.0
 10
87.23825817046474
 20
-155.5057535418527
 30
0.0
 10
87.23825817046474
 20
-155.5057535418527
 30
0.0
 10
87.16005450294957
 20
-155.5057535418527
 30
0.0
 10
87.16005450294957
 20
-155.5057535418527
 30
0.0
 10
87.09218612189015
 20
-155.5057535418527
 30
0.0
 10
87.08391789272555
 20
-155.5057535418527
 30
0.0
 10
87.04774439013043
 20
-155.5122992232747
 30
0.0
 10
87.04774439013043
 20
-155.5122992232747
 30
0.0
 10
87.04774439013043
 20
-155.3176513283581
 30
0.0
 10
87.04774439013043
 20
-155.3176513283581
 30
0.0
 10
87.07530515401243
 20
-155.3238525002315
 30
0.0
 10
87.08391789272555
 20
-155.3238525002315
 30
0.0
 10
87.1535088215276
 20
-155.3238525002315
 30
0.0
 10
87.1535088215276
 20
-155.3238525002315
 30
0.0
 10
87.28683401680676
 20
-155.3238525002315
 30
0.0
 10
87.28683401680676
 20
-155.3238525002315
 30
0.0
 10
87.28683401680676
 20
-155.2542615714295
 30
0.0
 10
87.28683401680676
 20
-155.1715792797835
 30
0.0
 10
87.28476695951561
 20
-155.1674451652012
 30
0.0
 10
87.27649873035103
 20
-154.9876111808711
 30
0.0
 10
87.27649873035103
 20
-154.9686631557023
 30
0.0
 10
87.27408716351133
 20
-154.9221543666514
 30
0.0
 10
87.27408716351133
 20
-154.9221543666514
 30
0.0
 10
87.4900946504365
 20
-154.930422595816
 30
0.0
 10
87.4900946504365
 20
-154.930422595816
 30
0.0
 10
87.50077444644078
 20
-154.930422595816
 30
0.0
 10
87.52178952890082
 20
-154.9324896531071
 30
0.0
 10
87.52178952890082
 20
-154.9493706209849
 30
0.0
 10
87.52178952890082
 20
-154.9686631557023
 30
0.0
 10
87.50697561831422
 20
-154.978998442158
 30
0.0
 10
87.48148191172338
 20
-154.9982909768754
 30
0.0
 10
87.48148191172338
 20
-155.0489338805086
 30
0.0
 10
87.47528073984993
 20
-155.2773437111806
 30
0.0
 10
87.47734779714107
 20
-155.3238525002315
 30
0.0
 10
87.60653887783794
 20
-155.3238525002315
 30
0.0
 10
87.61894122158485
 20
-155.3238525002315
 30
0.0
 10
87.71643742381742
 20
-155.3155842710669
 30
0.0
 10
87.71643742381742
 20
-155.3155842710669
 30
0.0
 10
87.71643742381742
 20
-155.5102321659835
 30
0.0
 10
87.71643742381742
 20
-155.5102321659835
 30
0.0
 10
87.67819686393115
 20
-155.5078205991439
 30
0.0
 10
87.61067299242025
 20
-155.5036864845616
 30
0.0
 10
87.47528073984993
 20
-155.5057535418527
 30
0.0
 10
87.47528073984993
 20
-155.5057535418527
 30
0.0
 10
87.47528073984993
 20
-155.8444064280528
 30
0.0
 10
87.47528073984993
 20
-155.8444064280528
 30
0.0
 10
87.53040226761394
 20
-155.8209797787531
 30
0.0
 10
87.59585908183368
 20
-155.7934190148711
 30
0.0
 10
87.64443492817569
 20
-155.7703368751199
 30
0.0
 10
87.64443492817569
 20
-155.7703368751199
 30
0.0
 10
87.64443492817569
 20
-155.592569948081
 30
0.0
 10
87.64443492817569
 20
-155.592569948081
 30
0.0
 10
87.758812098286
 20
-155.6053168013764
 30
0.0
 10
87.87732338297859
 20
-155.6053168013764
 30
0.0
 10
87.99342310083151
 20
-155.6053168013764
 30
0.0
 10
87.97034096108033
 20
-155.5102321659835
 30
0.0
 10
87.94278019719833
 20
-155.4275498743375
 30
0.0
 10
87.87939044026975
 20
-155.2942246790584
 30
0.0
 10
87.83494870851001
 20
-155.2962917363495
 30
0.0
 10
87.75226641686401
 20
-155.3007703604803
 30
0.0
 10
87.71437036652626
 20
-155.3028374177715
 30
0.0
 10
87.71437036652626
 20
-155.3028374177715
 30
0.0
 10
87.71437036652626
 20
-155.1230034334414
 30
0.0
 10
87.71437036652626
 20
-155.1230034334414
 30
0.0
 10
87.83908282309232
 20
-155.1312716626061
 30
0.0
 10
88.01271563554891
 20
-155.1357502867369
 30
0.0
 10
88.09505341764639
 20
-155.1357502867369
 30
0.0
 10
88.09505341764639
 20
-155.1357502867369
 30
0.0
 10
88.17773570929238
 20
-155.1357502867369
 30
0.0
 10
88.17773570929238
 20
-155.1357502867369
 30
0.0
 10
88.17773570929238
 20
-154.9727972702846
 30
0.0
 10
88.17773570929238
 20
-154.9621174742803
 30
0.0
 10
88.17532414245269
 20
-154.9073404560648
 30
0.0
 10
88.17532414245269
 20
-154.9073404560648
 30
0.0
 10
88.39959985854246
 20
-154.9324896531071
 30
0.0
 10
88.39959985854246
 20
-154.9324896531071
 30
0.0
 10
88.40407848267329
 20
-154.9324896531071
 30
0.0
 10
88.4250935651333
 20
-154.9345567103983
 30
0.0
 10
88.4250935651333
 20
-154.951437678276
 30
0.0
 10
88.4250935651333
 20
-154.9662515888626
 30
0.0
 10
88.41441376912904
 20
-154.9748643275757
 30
0.0
 10
88.38685300524705
 20
-154.9896782381623
 30
0.0
 10
88.38065183337359
 20
-155.055135052382
 30
0.0
 10
88.37858477608245
 20
-155.0764946443906
 30
0.0
 10
88.37858477608245
 20
-155.1357502867369
 30
0.0
 10
88.37858477608245
 20
-155.1357502867369
 30
0.0
 10
88.47366941147534
 20
-155.1357502867369
 30
0.0
 10
88.47366941147534
 20
-155.1357502867369
 30
0.0
 10
88.55635170312133
 20
-155.1357502867369
 30
0.0
 10
88.72964000602939
 20
-155.1312716626061
 30
0.0
 10
88.85469697214396
 20
-155.1230034334414
 30
0.0
 10
88.85469697214396
 20
-155.1230034334414
 30
0.0
 10
88.85469697214396
 20
-155.3028374177715
 30
0.0
 10
88.85469697214396
 20
-155.3028374177715
 30
0.0
 10
88.82506915097081
 20
-155.3007703604803
 30
0.0
 10
88.70655786627823
 20
-155.2962917363495
 30
0.0
 10
88.6662502491008
 20
-155.2942246790584
 30
0.0
 10
88.65143633851422
 20
-155.3452120922401
 30
0.0
 10
88.61767440275878
 20
-155.4571776955107
 30
0.0
 10
88.55187307899051
 20
-155.5967040626633
 30
0.0
 10
88.59424775345908
 20
-155.5967040626633
 30
0.0
 10
88.87157794002169
 20
-155.5777560374944
 30
0.0
 10
88.93290063965913
 20
-155.5756889802033
 30
0.0
 10
88.93290063965913
 20
-155.5756889802033
 30
0.0
 10
88.93290063965913
 20
-155.7596570791156
 30
0.0
 10
88.93290063965913
 20
-155.7596570791156
 30
0.0
 10
88.90327281848598
 20
-155.7596570791156
 30
0.0
 10
88.88639185060826
 20
-155.7555229645333
 30
0.0
 10
88.72343883415595
 20
-155.7555229645333
 30
0.0
  0
HATCH
  5
F5
330
EE
100
AcDbEntity
  8
レイヤー 1
 62
   250
420
  2299925
440
 33554687
100
AcDbHatch
 10
0.0
 20
0.0
 30
0.0
210
0.0
220
0.0
230
1.0
  2
SOLID
 70
     1
 71
     1
 91
        3
 92
        1
 93
        1
 72
     4
 94
        3
 73
     0
 74
     0
 95
       17
 96
       13
 40
0.0
 40
0.0
 40
0.0
 40
0.0
 40
1.0
 40
1.0
 40
1.0
 40
2.0
 40
2.0
 40
2.0
 40
3.0
 40
3.0
 40
3.0
 40
4.0
 40
4.0
 40
4.0
 40
4.0
 10
88.15844317457496
 20
-156.1406846397843
 10
88.14156220669726
 20
-156.1699679514089
 10
88.09091930306408
 20
-156.2633300390592
 10
88.0802395070598
 20
-156.282278064228
 10
88.27075328739411
 20
-156.3415337065743
 10
88.29176836985414
 20
-156.3477348784478
 10
88.36377086549587
 20
-156.3752956423298
 10
88.41889239325986
 20
-156.2884792361015
 10
88.44197453301104
 20
-156.2144096831686
 10
88.45678844359762
 20
-156.1406846397843
 10
88.45678844359762
 20
-156.1406846397843
 10
88.15844317457496
 20
-156.1406846397843
 10
88.15844317457496
 20
-156.1406846397843
 97
        0
 97
        1
330
F2
 92
        1
 93
        1
 72
     4
 94
        3
 73
     0
 74
     0
 95
       20
 96
       16
 40
0.0
 40
0.0
 40
0.0
 40
0.0
 40
1.0
 40
1.0
 40
1.0
 40
2.0
 40
2.0
 40
2.0
 40
3.0
 40
3.0
 40
3.0
 40
4.0
 40
4.0
 40
4.0
 40
5.0
 40
5.0
 40
5.0
 40
5.0
 10
88.09505341764639
 20
-155.2900905644761
 10
88.09505341764639
 20
-155.2900905644761
 10
88.06335853918207
 20
-155.2900905644761
 10
88.06335853918207
 20
-155.2900905644761
 10
88.10986732823295
 20
-155.3896538239998
 10
88.14156220669726
 20
-155.4699245488061
 10
88.17532414245269
 20
-155.5967040626633
 10
88.17532414245269
 20
-155.5967040626633
 10
88.38271889066474
 20
-155.5967040626633
 10
88.38271889066474
 20
-155.5967040626633
 10
88.41441376912904
 20
-155.5036864845616
 10
88.43784041842873
 20
-155.4192816451729
 10
88.46092255817991
 20
-155.2900905644761
 10
88.46092255817991
 20
-155.2900905644761
 10
88.09505341764639
 20
-155.2900905644761
 10
88.09505341764639
 20
-155.2900905644761
 97
        0
 97
        1
330
F3
 92
        1
 93
        1
 72
     4
 94
        3
 73
     0
 74
     0
 95
      242
 96
      238
 40
0.0
 40
0.0
 40
0.0
 40
0.0
 40
1.0
 40
1.0
 40
1.0
 40
2.0
 40
2.0
 40
2.0
 40
3.0
 40
3.0
 40
3.0
 40
4.0
 40
4.0
 40
4.0
 40
5.0
 40
5.0
 40
5.0
 40
6.0
 40
6.0
 40
6.0
 40
7.0
 40
7.0
 40
7.0
 40
8.0
 40
8.0
 40
8.0
 40
9.0
 40
9.0
 40
9.0
 40
10.0
 40
10.0
 40
10.0
 40
11.0
 40
11.0
 40
11.0
 40
12.0
 40
12.0
 40
12.0
 40
13.0
 40
13.0
 40
13.0
 40
14.0
 40
14.0
 40
14.0
 40
15.0
 40
15.0
 40
15.0
 40
16.0
 40
16.0
 40
16.0
 40
17.0
 40
17.0
 40
17.0
 40
18.0
 40
18.0
 40
18.0
 40
19.0
 40
19.0
 40
19.0
 40
20.0
 40
20.0
 40
20.0
 40
21.0
 40
21.0
 40
21.0
 40
22.0
 40
22.0
 40
22.0
 40
23.0
 40
23.0
 40
23.0
 40
24.0
 40
24.0
 40
24.0
 40
25.0
 40
25.0
 40
25.0
 40
26.0
 40
26.0
 40
26.0
 40
27.0
 40
27.0
 40
27.0
 40
28.0
 40
28.0
 40
28.0
 40
29.0
 40
29.0
 40
29.0
 40
30.0
 40
30.0
 40
30.0
 40
31.0
 40
31.0
 40
31.0
 40
32.0
 40
32.0
 40
32.0
 40
33.0
 40
33.0
 40
33.0
 40
34.0
 40
34.0
 40
34.0
 40
35.0
 40
35.0
 40
35.0
 40
36.0
 40
36.0
 40
36.0
 40
37.0
 40
37.0
 40
37.0
 40
38.0
 40
38.0
 40
38.0
 40
39.0
 40
39.0
 40
39.0
 40
40.0
 40
40.0
 40
40.0
 40
41.0
 40
41.0
 40
41.0
 40
42.0
 40
42.0
 40
42.0
 40
43.0
 40
43.0
 40
43.0
 40
44.0
 40
44.0
 40
44.0
 40
45.0
 40
45.0
 40
45.0
 40
46.0
 40
46.0
 40
46.0
 40
47.0
 40
47.0
 40
47.0
 40
48.0
 40
48.0
 40
48.0
 40
49.0
 40
49.0
 40
49.0
 40
50.0
 40
50.0
 40
50.0
 40
51.0
 40
51.0
 40
51.0
 40
52.0
 40
52.0
 40
52.0
 40
53.0
 40
53.0
 40
53.0
 40
54.0
 40
54.0
 40
54.0
 40
55.0
 40
55.0
 40
55.0
 40
56.0
 40
56.0
 40
56.0
 40
57.0
 40
57.0
 40
57.0
 40
58.0
 40
58.0
 40
58.0
 40
59.0
 40
59.0
 40
59.0
 40
60.0
 40
60.0
 40
60.0
 40
61.0
 40
61.0
 40
61.0
 40
62.0
 40
62.0
 40
62.0
 40
63.0
 40
63.0
 40
63.0
 40
64.0
 40
64.0
 40
64.0
 40
65.0
 40
65.0
 40
65.0
 40
66.0
 40
66.0
 40
66.0
 40
67.0
 40
67.0
 40
67.0
 40
68.0
 40
68.0
 40
68.0
 40
69.0
 40
69.0
 40
69.0
 40
70.0
 40
70.0
 40
70.0
 40
71.0
 40
71.0
 40
71.0
 40
72.0
 40
72.0
 40
72.0
 40
73.0
 40
73.0
 40
73.0
 40
74.0
 40
74.0
 40
74.0
 40
75.0
 40
75.0
 40
75.0
 40
76.0
 40
76.0
 40
76.0
 40
77.0
 40
77.0
 40
77.0
 40
78.0
 40
78.0
 40
78.0
 40
79.0
 40
79.0
 40
79.0
 40
79.0
 10
88.72343883415595
 20
-155.7555229645333
 10
88.72343883415595
 20
-155.7555229645333
 10
88.46953529689304
 20
-155.7555229645333
 10
88.46953529689304
 20
-155.7555229645333
 10
88.46953529689304
 20
-155.7555229645333
 10
88.19254961987894
 20
-155.7555229645333
 10
88.19254961987894
 20
-155.7555229645333
 10
88.19254961987894
 20
-155.7555229645333
 10
88.31932913373615
 20
-155.7978976390019
 10
88.31932913373615
 20
-155.7978976390019
 10
88.33000892974041
 20
-155.8020317535842
 10
88.34275578303584
 20
-155.8082329254576
 10
88.34275578303584
 20
-155.8209797787531
 10
88.34275578303584
 20
-155.8423393707616
 10
88.31071639502303
 20
-155.8485405426351
 10
88.289701312563
 20
-155.8526746572174
 10
88.27902151655871
 20
-155.876101306517
 10
88.24939369538558
 20
-155.9415581207368
 10
88.23044567021669
 20
-155.9859998524965
 10
88.23044567021669
 20
-155.9859998524965
 10
88.50123017535734
 20
-155.9859998524965
 10
88.50123017535734
 20
-155.9859998524965
 10
88.59218069616792
 20
-155.9859998524965
 10
88.78889564837569
 20
-155.9818657379142
 10
88.93083358236799
 20
-155.9732529992011
 10
88.93083358236799
 20
-155.9732529992011
 10
88.93083358236799
 20
-156.15101992624
 10
88.93083358236799
 20
-156.15101992624
 10
88.84815129072199
 20
-156.1468858116577
 10
88.82713620826198
 20
-156.1468858116577
 10
88.64730222393193
 20
-156.1427516970754
 10
88.61560734546761
 20
-156.2970919748146
 10
88.57116561370791
 20
-156.3773626996209
 10
88.52672388194818
 20
-156.4472981379715
 10
88.64730222393193
 20
-156.5065537803178
 10
88.75306665532908
 20
-156.5740776518287
 10
88.85676402943511
 20
-156.6567599434747
 10
88.85676402943511
 20
-156.6567599434747
 10
88.73825274474253
 20
-156.8238470745093
 10
88.73825274474253
 20
-156.8238470745093
 10
88.71482609544283
 20
-156.8048990493404
 10
88.7020792421474
 20
-156.7962863106273
 10
88.59011363887679
 20
-156.7115369616901
 10
88.54153779253476
 20
-156.6736409113524
 10
88.48228215018847
 20
-156.6378119183058
 10
88.40166691583361
 20
-156.5933701865461
 10
88.19013805303928
 20
-156.7794053427496
 10
87.98515487166691
 20
-156.8028319920493
 10
87.69507783180888
 20
-156.8324598132224
 10
87.69507783180888
 20
-156.8324598132224
 10
87.59172496725138
 20
-156.6526258288924
 10
87.59172496725138
 20
-156.6526258288924
 10
87.9090182614429
 20
-156.6481472047616
 10
88.08437362164211
 20
-156.6229980077192
 10
88.23664684209015
 20
-156.5127549521912
 10
88.11848006694608
 20
-156.4621120485581
 10
88.02959660342663
 20
-156.4345512846761
 10
87.99342310083151
 20
-156.4218044313806
 10
87.97447507566264
 20
-156.4493651952626
 10
87.95966116507605
 20
-156.4683132204315
 10
87.93210040119406
 20
-156.5024196657355
 10
87.93210040119406
 20
-156.5024196657355
 10
87.73538544898629
 20
-156.4197373740895
 10
87.73538544898629
 20
-156.4197373740895
 10
87.81806774063229
 20
-156.3394666492832
 10
87.87939044026975
 20
-156.2440375043417
 10
87.93623451577635
 20
-156.1427516970754
 10
87.74606524499057
 20
-156.1468858116577
 10
87.72470565298203
 20
-156.1468858116577
 10
87.64236787088455
 20
-156.15101992624
 10
87.64236787088455
 20
-156.15101992624
 10
87.64236787088455
 20
-155.9732529992011
 10
87.64236787088455
 20
-155.9732529992011
 10
87.78189423803716
 20
-155.9797986806231
 10
87.99135604354036
 20
-155.9839327952054
 10
88.01684975013122
 20
-155.9839327952054
 10
88.03373071800892
 20
-155.9501708594499
 10
88.08885224577293
 20
-155.8295925174662
 10
88.1078002709418
 20
-155.7555229645333
 10
88.08885224577293
 20
-155.7555229645333
 10
87.91108531873403
 20
-155.7617241364068
 10
87.71643742381742
 20
-155.7744709897022
 10
87.71643742381742
 20
-155.7744709897022
 10
87.71643742381742
 20
-155.9077961849814
 10
87.71643742381742
 20
-155.9077961849814
 10
87.6678615774754
 20
-155.9332898915722
 10
87.6086059351291
 20
-155.9649847700365
 10
87.47528073984993
 20
-156.0304415842563
 10
87.47528073984993
 20
-156.0304415842563
 10
87.47528073984993
 20
-156.1765136328308
 10
87.47528073984993
 20
-156.1765136328308
 10
87.47528073984993
 20
-156.1765136328308
 10
87.47528073984993
 20
-156.6440130901793
 10
87.47528073984993
 20
-156.6440130901793
 10
87.47528073984993
 20
-156.7707926040364
 10
87.43910723725482
 20
-156.8300482463827
 10
87.15592038836728
 20
-156.8217800172182
 10
87.15592038836728
 20
-156.8217800172182
 10
87.05222301426125
 20
-156.6143852690061
 10
87.05222301426125
 20
-156.6143852690061
 10
87.11561277118985
 20
-156.6271321223015
 10
87.16418861753188
 20
-156.6312662368838
 10
87.2044962347093
 20
-156.6312662368838
 10
87.28063284493332
 20
-156.6312662368838
 10
87.29131264093759
 20
-156.6081840971327
 10
87.29131264093759
 20
-156.5423827733644
 10
87.29131264093759
 20
-156.5423827733644
 10
87.29131264093759
 20
-156.1131238759022
 10
87.29131264093759
 20
-156.1131238759022
 10
87.19381643870503
 20
-156.1530869835312
 10
87.17693547082729
 20
-156.1596326649531
 10
87.13042668177642
 20
-156.178580690122
 10
87.12629256719413
 20
-156.199595772582
 10
87.1218139430633
 20
-156.2292235937552
 10
87.10286591789442
 20
-156.2292235937552
 10
87.09459768872982
 20
-156.2292235937552
 10
87.08391789272555
 20
-156.2250894791729
 10
87.07737221130358
 20
-156.2020073394217
 10
87.07737221130358
 20
-156.2020073394217
 10
87.02466225037925
 20
-156.0094265017963
 10
87.02466225037925
 20
-156.0094265017963
 10
87.17073429895384
 20
-155.9629177127454
 10
87.2361911131736
 20
-155.9394910634457
 10
87.29131264093759
 20
-155.9184759809856
 10
87.29131264093759
 20
-155.9184759809856
 10
87.29131264093759
 20
-155.5057535418527
 10
87.29131264093759
 20
-155.5057535418527
 10
87.29131264093759
 20
-155.5057535418527
 10
87.23825817046474
 20
-155.5057535418527
 10
87.23825817046474
 20
-155.5057535418527
 10
87.23825817046474
 20
-155.5057535418527
 10
87.16005450294957
 20
-155.5057535418527
 10
87.16005450294957
 20
-155.5057535418527
 10
87.09218612189015
 20
-155.5057535418527
 10
87.08391789272555
 20
-155.5057535418527
 10
87.04774439013043
 20
-155.5122992232747
 10
87.04774439013043
 20
-155.5122992232747
 10
87.04774439013043
 20
-155.3176513283581
 10
87.04774439013043
 20
-155.3176513283581
 10
87.07530515401243
 20
-155.3238525002315
 10
87.08391789272555
 20
-155.3238525002315
 10
87.1535088215276
 20
-155.3238525002315
 10
87.1535088215276
 20
-155.3238525002315
 10
87.28683401680676
 20
-155.3238525002315
 10
87.28683401680676
 20
-155.3238525002315
 10
87.28683401680676
 20
-155.2542615714295
 10
87.28683401680676
 20
-155.1715792797835
 10
87.28476695951561
 20
-155.1674451652012
 10
87.27649873035103
 20
-154.9876111808711
 10
87.27649873035103
 20
-154.9686631557023
 10
87.27408716351133
 20
-154.9221543666514
 10
87.27408716351133
 20
-154.9221543666514
 10
87.4900946504365
 20
-154.930422595816
 10
87.4900946504365
 20
-154.930422595816
 10
87.50077444644078
 20
-154.930422595816
 10
87.52178952890082
 20
-154.9324896531071
 10
87.52178952890082
 20
-154.9493706209849
 10
87.52178952890082
 20
-154.9686631557023
 10
87.50697561831422
 20
-154.978998442158
 10
87.48148191172338
 20
-154.9982909768754
 10
87.48148191172338
 20
-155.0489338805086
 10
87.47528073984993
 20
-155.2773437111806
 10
87.47734779714107
 20
-155.3238525002315
 10
87.60653887783794
 20
-155.3238525002315
 10
87.61894122158485
 20
-155.3238525002315
 10
87.71643742381742
 20
-155.3155842710669
 10
87.71643742381742
 20
-155.3155842710669
 10
87.71643742381742
 20
-155.5102321659835
 10
87.71643742381742
 20
-155.5102321659835
 10
87.67819686393115
 20
-155.5078205991439
 10
87.61067299242025
 20
-155.5036864845616
 10
87.47528073984993
 20
-155.5057535418527
 10
87.47528073984993
 20
-155.5057535418527
 10
87.47528073984993
 20
-155.8444064280528
 10
87.47528073984993
 20
-155.8444064280528
 10
87.53040226761394
 20
-155.8209797787531
 10
87.59585908183368
 20
-155.7934190148711
 10
87.64443492817569
 20
-155.7703368751199
 10
87.64443492817569
 20
-155.7703368751199
 10
87.64443492817569
 20
-155.592569948081
 10
87.64443492817569
 20
-155.592569948081
 10
87.758812098286
 20
-155.6053168013764
 10
87.87732338297859
 20
-155.6053168013764
 10
87.99342310083151
 20
-155.6053168013764
 10
87.97034096108033
 20
-155.5102321659835
 10
87.94278019719833
 20
-155.4275498743375
 10
87.87939044026975
 20
-155.2942246790584
 10
87.83494870851001
 20
-155.2962917363495
 10
87.75226641686401
 20
-155.3007703604803
 10
87.71437036652626
 20
-155.3028374177715
 10
87.71437036652626
 20
-155.3028374177715
 10
87.71437036652626
 20
-155.1230034334414
 10
87.71437036652626
 20
-155.1230034334414
 10
87.83908282309232
 20
-155.1312716626061
 10
88.01271563554891
 20
-155.1357502867369
 10
88.09505341764639
 20
-155.1357502867369
 10
88.09505341764639
 20
-155.1357502867369
 10
88.17773570929238
 20
-155.1357502867369
 10
88.17773570929238
 20
-155.1357502867369
 10
88.17773570929238
 20
-154.9727972702846
 10
88.17773570929238
 20
-154.9621174742803
 10
88.17532414245269
 20
-154.9073404560648
 10
88.17532414245269
 20
-154.9073404560648
 10
88.39959985854246
 20
-154.9324896531071
 10
88.39959985854246
 20
-154.9324896531071
 10
88.40407848267329
 20
-154.9324896531071
 10
88.4250935651333
 20
-154.9345567103983
 10
88.4250935651333
 20
-154.951437678276
 10
88.4250935651333
 20
-154.9662515888626
 10
88.41441376912904
 20
-154.9748643275757
 10
88.38685300524705
 20
-154.9896782381623
 10
88.38065183337359
 20
-155.055135052382
 10
88.37858477608245
 20
-155.0764946443906
 10
88.37858477608245
 20
-155.1357502867369
 10
88.37858477608245
 20
-155.1357502867369
 10
88.47366941147534
 20
-155.1357502867369
 10
88.47366941147534
 20
-155.1357502867369
 10
88.55635170312133
 20
-155.1357502867369
 10
88.72964000602939
 20
-155.1312716626061
 10
88.85469697214396
 20
-155.1230034334414
 10
88.85469697214396
 20
-155.1230034334414
 10
88.85469697214396
 20
-155.3028374177715
 10
88.85469697214396
 20
-155.3028374177715
 10
88.82506915097081
 20
-155.3007703604803
 10
88.70655786627823
 20
-155.2962917363495
 10
88.6662502491008
 20
-155.2942246790584
 10
88.65143633851422
 20
-155.3452120922401
 10
88.61767440275878
 20
-155.4571776955107
 10
88.55187307899051
 20
-155.5967040626633
 10
88.59424775345908
 20
-155.5967040626633
 10
88.87157794002169
 20
-155.5777560374944
 10
88.93290063965913
 20
-155.5756889802033
 10
88.93290063965913
 20
-155.5756889802033
 10
88.93290063965913
 20
-155.7596570791156
 10
88.93290063965913
 20
-155.7596570791156
 10
88.90327281848598
 20
-155.7596570791156
 10
88.88639185060826
 20
-155.7555229645333
 10
88.72343883415595
 20
-155.7555229645333
 97
        0
 97
        1
330
F4
 75
     2
 76
     1
 98
        1
 10
0.0
 20
0.0
450
        0
451
        0
460
0.0
461
0.0
452
        0
462
0.0
453
        0
470

  0
SPLINE
  5
F6
330
EE
100
AcDbEntity
  8
レイヤー 1
100
AcDbSpline
210
0.0
220
0.0
230
1.0
 70
    11
 71
     3
 72
    17
 73
    13
 74
     0
 42
0.0000000001
 43
0.0000000001
 40
0.0
 40
0.0
 40
0.0
 40
0.0
 40
1.0
 40
1.0
 40
1.0
 40
2.0
 40
2.0
 40
2.0
 40
3.0
 40
3.0
 40
3.0
 40
4.0
 40
4.0
 40
4.0
 40
4.0
 10
90.58000079115709
 20
-156.5551296266598
 30
0.0
 10
90.58000079115709
 20
-156.5551296266598
 30
0.0
 10
89.87341170713234
 20
-156.5551296266598
 30
0.0
 10
89.87341170713234
 20
-156.5551296266598
 30
0.0
 10
89.87341170713234
 20
-156.5551296266598
 30
0.0
 10
89.87341170713234
 20
-156.6695067967701
 30
0.0
 10
89.87341170713234
 20
-156.6695067967701
 30
0.0
 10
89.87341170713234
 20
-156.6695067967701
 30
0.0
 10
90.58000079115709
 20
-156.6695067967701
 30
0.0
 10
90.58000079115709
 20
-156.6695067967701
 30
0.0
 10
90.58000079115709
 20
-156.6695067967701
 30
0.0
 10
90.58000079115709
 20
-156.5551296266598
 30
0.0
 10
90.58000079115709
 20
-156.5551296266598
 30
0.0
  0
SPLINE
  5
F7
330
EE
100
AcDbEntity
  8
レイヤー 1
100
AcDbSpline
210
0.0
220
0.0
230
1.0
 70
    11
 71
     3
 72
    17
 73
    13
 74
     0
 42
0.0000000001
 43
0.0000000001
 40
0.0
 40
0.0
 40
0.0
 40
0.0
 40
1.0
 40
1.0
 40
1.0
 40
2.0
 40
2.0
 40
2.0
 40
3.0
 40
3.0
 40
3.0
 40
4.0
 40
4.0
 40
4.0
 40
4.0
 10
90.58000079115709
 20
-156.3119058854011
 30
0.0
 10
90.58000079115709
 20
-156.3119058854011
 30
0.0
 10
89.87341170713234
 20
-156.3119058854011
 30
0.0
 10
89.87341170713234
 20
-156.3119058854011
 30
0.0
 10
89.87341170713234
 20
-156.3119058854011
 30
0.0
 10
89.87341170713234
 20
-156.4262830555115
 30
0.0
 10
89.87341170713234
 20
-156.4262830555115
 30
0.0
 10
89.87341170713234
 20
-156.4262830555115
 30
0.0
 10
90.58000079115709
 20
-156.4262830555115
 30
0.0
 10
90.58000079115709
 20
-156.4262830555115
 30
0.0
 10
90.58000079115709
 20
-156.4262830555115
 30
0.0
 10
90.58000079115709
 20
-156.3119058854011
 30
0.0
 10
90.58000079115709
 20
-156.3119058854011
 30
0.0
  0
SPLINE
  5
F8
330
EE
100
AcDbEntity
  8
レイヤー 1
100
AcDbSpline
210
0.0
220
0.0
230
1.0
 70
    11
 71
     3
 72
    17
 73
    13
 74
     0
 42
0.0000000001
 43
0.0000000001
 40
0.0
 40
0.0
 40
0.0
 40
0.0
 40
1.0
 40
1.0
 40
1.0
 40
2.0
 40
2.0
 40
2.0
 40
3.0
 40
3.0
 40
3.0
 40
4.0
 40
4.0
 40
4.0
 40
4.0
 10
90.58000079115709
 20
-156.0790174305983
 30
0.0
 10
90.58000079115709
 20
-156.0790174305983
 30
0.0
 10
89.87341170713234
 20
-156.0790174305983
 30
0.0
 10
89.87341170713234
 20
-156.0790174305983
 30
0.0
 10
89.87341170713234
 20
-156.0790174305983
 30
0.0
 10
89.87341170713234
 20
-156.1871934288351
 30
0.0
 10
89.87341170713234
 20
-156.1871934288351
 30
0.0
 10
89.87341170713234
 20
-156.1871934288351
 30
0.0
 10
90.58000079115709
 20
-156.1871934288351
 30
0.0
 10
90.58000079115709
 20
-156.1871934288351
 30
0.0
 10
90.58000079115709
 20
-156.1871934288351
 30
0.0
 10
90.58000079115709
 20
-156.0790174305983
 30
0.0
 10
90.58000079115709
 20
-156.0790174305983
 30
0.0
  0
SPLINE
  5
F9
330
EE
100
AcDbEntity
  8
レイヤー 1
100
AcDbSpline
210
0.0
220
0.0
230
1.0
 70
     9
 71
     3
 72
   203
 73
   199
 74
     0
 42
0.0000000001
 43
0.0000000001
 40
0.0
 40
0.0
 40
0.0
 40
0.0
 40
1.0
 40
1.0
 40
1.0
 40
2.0
 40
2.0
 40
2.0
 40
3.0
 40
3.0
 40
3.0
 40
4.0
 40
4.0
 40
4.0
 40
5.0
 40
5.0
 40
5.0
 40
6.0
 40
6.0
 40
6.0
 40
7.0
 40
7.0
 40
7.0
 40
8.0
 40
8.0
 40
8.0
 40
9.0
 40
9.0
 40
9.0
 40
10.0
 40
10.0
 40
10.0
 40
11.0
 40
11.0
 40
11.0
 40
12.0
 40
12.0
 40
12.0
 40
13.0
 40
13.0
 40
13.0
 40
14.0
 40
14.0
 40
14.0
 40
15.0
 40
15.0
 40
15.0
 40
16.0
 40
16.0
 40
16.0
 40
17.0
 40
17.0
 40
17.0
 40
18.0
 40
18.0
 40
18.0
 40
19.0
 40
19.0
 40
19.0
 40
20.0
 40
20.0
 40
20.0
 40
21.0
 40
21.0
 40
21.0
 40
22.0
 40
22.0
 40
22.0
 40
23.0
 40
23.0
 40
23.0
 40
24.0
 40
24.0
 40
24.0
 40
25.0
 40
25.0
 40
25.0
 40
26.0
 40
26.0
 40
26.0
 40
27.0
 40
27.0
 40
27.0
 40
28.0
 40
28.0
 40
28.0
 40
29.0
 40
29.0
 40
29.0
 40
30.0
 40
30.0
 40
30.0
 40
31.0
 40
31.0
 40
31.0
 40
32.0
 40
32.0
 40
32.0
 40
33.0
 40
33.0
 40
33.0
 40
34.0
 40
34.0
 40
34.0
 40
35.0
 40
35.0
 40
35.0
 40
36.0
 40
36.0
 40
36.0
 40
37.0
 40
37.0
 40
37.0
 40
38.0
 40
38.0
 40
38.0
 40
39.0
 40
39.0
 40
39.0
 40
40.0
 40
40.0
 40
40.0
 40
41.0
 40
41.0
 40
41.0
 40
42.0
 40
42.0
 40
42.0
 40
43.0
 40
43.0
 40
43.0
 40
44.0
 40
44.0
 40
44.0
 40
45.0
 40
45.0
 40
45.0
 40
46.0
 40
46.0
 40
46.0
 40
47.0
 40
47.0
 40
47.0
 40
48.0
 40
48.0
 40
48.0
 40
49.0
 40
49.0
 40
49.0
 40
50.0
 40
50.0
 40
50.0
 40
51.0
 40
51.0
 40
51.0
 40
52.0
 40
52.0
 40
52.0
 40
53.0
 40
53.0
 40
53.0
 40
54.0
 40
54.0
 40
54.0
 40
55.0
 40
55.0
 40
55.0
 40
56.0
 40
56.0
 40
56.0
 40
57.0
 40
57.0
 40
57.0
 40
58.0
 40
58.0
 40
58.0
 40
59.0
 40
59.0
 40
59.0
 40
60.0
 40
60.0
 40
60.0
 40
61.0
 40
61.0
 40
61.0
 40
62.0
 40
62.0
 40
62.0
 40
63.0
 40
63.0
 40
63.0
 40
64.0
 40
64.0
 40
64.0
 40
65.0
 40
65.0
 40
65.0
 40
66.0
 40
66.0
 40
66.0
 40
66.0
 10
90.41498071741363
 20
-155.8230468360442
 30
0.0
 10
90.41498071741363
 20
-155.8230468360442
 30
0.0
 10
89.8561862297061
 20
-155.8230468360442
 30
0.0
 10
89.8561862297061
 20
-155.8230468360442
 30
0.0
 10
89.84585094325034
 20
-155.8674885678039
 30
0.0
 10
89.83723820453723
 20
-155.8991834462682
 30
0.0
 10
89.82449135124181
 20
-155.9374240061545
 30
0.0
 10
89.84998505783265
 20
-155.9374240061545
 30
0.0
 10
89.86479896841922
 20
-155.9394910634457
 30
0.0
 10
89.87100014029266
 20
-155.9394910634457
 30
0.0
 10
89.87100014029266
 20
-155.9394910634457
 30
0.0
 10
90.05944686333583
 20
-155.9394910634457
 30
0.0
 10
90.05944686333583
 20
-155.9394910634457
 30
0.0
 10
90.05944686333583
 20
-155.9394910634457
 30
0.0
 10
90.4339287425825
 20
-155.9394910634457
 30
0.0
 10
90.4339287425825
 20
-155.9394910634457
 30
0.0
 10
90.48457164621567
 20
-155.9394910634457
 30
0.0
 10
90.76810300465174
 20
-155.9267442101502
 30
0.0
 10
90.79979788311602
 20
-155.9267442101502
 30
0.0
 10
90.79773082582487
 20
-155.9543049740322
 30
0.0
 10
90.79566376853373
 20
-155.9732529992011
 30
0.0
 10
90.79566376853373
 20
-156.0028808203743
 30
0.0
 10
90.79359671124256
 20
-156.0345756988386
 30
0.0
 10
90.79359671124256
 20
-156.1699679514089
 30
0.0
 10
90.79359671124256
 20
-156.1975287152909
 30
0.0
 10
90.79359671124256
 20
-156.1975287152909
 30
0.0
 10
90.79359671124256
 20
-156.4431640233892
 30
0.0
 10
90.79359671124256
 20
-156.4431640233892
 30
0.0
 10
90.79359671124256
 20
-156.4876057551489
 30
0.0
 10
90.79773082582487
 20
-156.6843207073567
 30
0.0
 10
90.80186494040717
 20
-156.8365939278047
 30
0.0
 10
90.80186494040717
 20
-156.8365939278047
 30
0.0
 10
90.57552216702626
 20
-156.8365939278047
 30
0.0
 10
90.57552216702626
 20
-156.8365939278047
 30
0.0
 10
90.57552216702626
 20
-156.8365939278047
 30
0.0
 10
90.57758922431741
 20
-156.8028319920493
 30
0.0
 10
90.57758922431741
 20
-156.8028319920493
 30
0.0
 10
90.57758922431741
 20
-156.8028319920493
 30
0.0
 10
89.87547876442349
 20
-156.8028319920493
 30
0.0
 10
89.87547876442349
 20
-156.8028319920493
 30
0.0
 10
89.87547876442349
 20
-156.8028319920493
 30
0.0
 10
89.87754582171465
 20
-156.8365939278047
 30
0.0
 10
89.87754582171465
 20
-156.8365939278047
 30
0.0
 10
89.87754582171465
 20
-156.8365939278047
 30
0.0
 10
89.65947127749833
 20
-156.8365939278047
 30
0.0
 10
89.65947127749833
 20
-156.8365939278047
 30
0.0
 10
89.66394990162916
 20
-156.7814724000407
 30
0.0
 10
89.66394990162916
 20
-156.7687255467453
 30
0.0
 10
89.67015107350261
 20
-156.6546928861835
 30
0.0
 10
89.67221813079374
 20
-156.6271321223015
 30
0.0
 10
89.67428518808491
 20
-156.4938069270223
 30
0.0
 10
89.67428518808491
 20
-156.4748589018535
 30
0.0
 10
89.67428518808491
 20
-156.4748589018535
 30
0.0
 10
89.67428518808491
 20
-156.2715982682238
 30
0.0
 10
89.67428518808491
 20
-156.2715982682238
 30
0.0
 10
89.53475882093227
 20
-156.5213676909044
 30
0.0
 10
89.36560463260653
 20
-156.6526258288924
 30
0.0
 10
89.25984020120933
 20
-156.7180826431121
 30
0.0
 10
89.25984020120933
 20
-156.7180826431121
 30
0.0
 10
89.08620738875276
 20
-156.5785562759595
 30
0.0
 10
89.08620738875276
 20
-156.5785562759595
 30
0.0
 10
89.17509085227221
 20
-156.5275688627778
 30
0.0
 10
89.31909584355564
 20
-156.4407524565495
 30
0.0
 10
89.4565551534171
 20
-156.2464490711814
 30
0.0
 10
89.5475056742277
 20
-156.1193250477757
 30
0.0
 10
89.61296248844744
 20
-155.9756645660408
 30
0.0
 10
89.64706893375142
 20
-155.8230468360442
 30
0.0
 10
89.41831459353084
 20
-155.8254584028839
 30
0.0
 10
89.2384806092008
 20
-155.8316595747573
 30
0.0
 10
89.1433959738079
 20
-155.8337266320485
 30
0.0
 10
89.1433959738079
 20
-155.8337266320485
 30
0.0
 10
89.1433959738079
 20
-155.6559597050096
 30
0.0
 10
89.1433959738079
 20
-155.6559597050096
 30
0.0
 10
89.34011092601567
 20
-155.6625053864316
 30
0.0
 10
89.62364228445172
 20
-155.6666395010139
 30
0.0
 10
89.77384844760862
 20
-155.6666395010139
 30
0.0
 10
89.77384844760862
 20
-155.6666395010139
 30
0.0
 10
89.98744436769412
 20
-155.6666395010139
 30
0.0
 10
89.98744436769412
 20
-155.6666395010139
 30
0.0
 10
89.98744436769412
 20
-155.6666395010139
 30
0.0
 10
89.98744436769412
 20
-155.5588080123255
 30
0.0
 10
89.98744436769412
 20
-155.5588080123255
 30
0.0
 10
89.98744436769412
 20
-155.5588080123255
 30
0.0
 10
89.84137231911953
 20
-155.5588080123255
 30
0.0
 10
89.84137231911953
 20
-155.5588080123255
 30
0.0
 10
89.67221813079374
 20
-155.5588080123255
 30
0.0
 10
89.50306394246799
 20
-155.5629421269078
 30
0.0
 10
89.33597681143337
 20
-155.5694878083298
 30
0.0
 10
89.33597681143337
 20
-155.5694878083298
 30
0.0
 10
89.33597681143337
 20
-155.3979220531644
 30
0.0
 10
89.33597681143337
 20
-155.3979220531644
 30
0.0
 10
89.49031708917257
 20
-155.4086018491687
 30
0.0
 10
89.67635224537605
 20
-155.4086018491687
 30
0.0
 10
89.84137231911953
 20
-155.4086018491687
 30
0.0
 10
89.84137231911953
 20
-155.4086018491687
 30
0.0
 10
89.98744436769412
 20
-155.4086018491687
 30
0.0
 10
89.98744436769412
 20
-155.4086018491687
 30
0.0
 10
89.98744436769412
 20
-155.4086018491687
 30
0.0
 10
89.98744436769412
 20
-155.2900905644761
 30
0.0
 10
89.98744436769412
 20
-155.2900905644761
 30
0.0
 10
89.98744436769412
 20
-155.2900905644761
 30
0.0
 10
89.8561862297061
 20
-155.2900905644761
 30
0.0
 10
89.8561862297061
 20
-155.2900905644761
 30
0.0
 10
89.80967744065521
 20
-155.2900905644761
 30
0.0
 10
89.606761316574
 20
-155.2987033031892
 30
0.0
 10
89.56438664210542
 20
-155.2987033031892
 30
0.0
 10
89.36147051802421
 20
-155.3028374177715
 30
0.0
 10
89.28498939825166
 20
-155.3049044750626
 30
0.0
 10
89.20678573073649
 20
-155.3069715323538
 30
0.0
 10
89.20678573073649
 20
-155.3069715323538
 30
0.0
 10
89.20678573073649
 20
-155.1230034334414
 30
0.0
 10
89.20678573073649
 20
-155.1230034334414
 30
0.0
 10
89.3211629008468
 20
-155.1312716626061
 30
0.0
 10
89.36560463260653
 20
-155.1312716626061
 30
0.0
 10
89.74835474101778
 20
-155.1398844013192
 30
0.0
 10
89.68496498408917
 20
-155.0447997659263
 30
0.0
 10
89.65740422020719
 20
-155.0172390020443
 30
0.0
 10
89.62157522716058
 20
-154.9810654994492
 30
0.0
 10
89.62157522716058
 20
-154.9810654994492
 30
0.0
 10
89.7969305873598
 20
-154.8987277173517
 30
0.0
 10
89.7969305873598
 20
-154.8987277173517
 30
0.0
 10
89.83723820453723
 20
-154.9345567103983
 30
0.0
 10
89.88167993629694
 20
-154.9769313848669
 30
0.0
 10
89.95574948922982
 20
-155.0868299308463
 30
0.0
 10
89.95574948922982
 20
-155.0868299308463
 30
0.0
 10
89.84137231911953
 20
-155.1419514586103
 30
0.0
 10
89.84137231911953
 20
-155.1419514586103
 30
0.0
 10
89.84137231911953
 20
-155.1419514586103
 30
0.0
 10
89.85205211512379
 20
-155.1419514586103
 30
0.0
 10
89.85205211512379
 20
-155.1419514586103
 30
0.0
 10
89.85205211512379
 20
-155.1419514586103
 30
0.0
 10
90.3746731002362
 20
-155.1419514586103
 30
0.0
 10
90.3746731002362
 20
-155.1419514586103
 30
0.0
 10
90.3746731002362
 20
-155.1419514586103
 30
0.0
 10
90.27958846484329
 20
-155.0975097268506
 30
0.0
 10
90.27958846484329
 20
-155.0975097268506
 30
0.0
 10
90.30680471917678
 20
-155.0596136765128
 30
0.0
 10
90.36399330423192
 20
-154.978998442158
 30
0.0
 10
90.37880721481849
 20
-154.9049288892252
 30
0.0
 10
90.37880721481849
 20
-154.9049288892252
 30
0.0
 10
90.59240313490398
 20
-154.9686631557023
 30
0.0
 10
90.59240313490398
 20
-154.9686631557023
 30
0.0
 10
90.60101587361712
 20
-154.9707302129934
 30
0.0
 10
90.62203095607713
 20
-154.9810654994492
 30
0.0
 10
90.62203095607713
 20
-155.0024250914577
 30
0.0
 10
90.62203095607713
 20
-155.0403211417955
 30
0.0
 10
90.55657414185738
 20
-155.0403211417955
 30
0.0
 10
90.53762611668851
 20
-155.0403211417955
 30
0.0
 10
90.52694632068424
 20
-155.0596136765128
 30
0.0
 10
90.50351967138453
 20
-155.0995767841418
 30
0.0
 10
90.47389185021138
 20
-155.1398844013192
 30
0.0
 10
90.8738674360489
 20
-155.1336832294457
 30
0.0
 10
90.90349525722205
 20
-155.1312716626061
 30
0.0
 10
90.97963186744607
 20
-155.1250704907326
 30
0.0
 10
90.97963186744607
 20
-155.1250704907326
 30
0.0
 10
90.97963186744607
 20
-155.3069715323538
 30
0.0
 10
90.97963186744607
 20
-155.3069715323538
 30
0.0
 10
90.96068384227718
 20
-155.3069715323538
 30
0.0
 10
90.93519013568634
 20
-155.3049044750626
 30
0.0
 10
90.71539304372739
 20
-155.2962917363495
 30
0.0
 10
90.6644056305457
 20
-155.2942246790584
 30
0.0
 10
90.44460853858677
 20
-155.2900905644761
 30
0.0
 10
90.40016680682704
 20
-155.2900905644761
 30
0.0
 10
90.40016680682704
 20
-155.2900905644761
 30
0.0
 10
90.18415931990189
 20
-155.2900905644761
 30
0.0
 10
90.18415931990189
 20
-155.2900905644761
 30
0.0
 10
90.18415931990189
 20
-155.2900905644761
 30
0.0
 10
90.18415931990189
 20
-155.4086018491687
 30
0.0
 10
90.18415931990189
 20
-155.4086018491687
 30
0.0
 10
90.18415931990189
 20
-155.4086018491687
 30
0.0
 10
90.35779213235846
 20
-155.4086018491687
 30
0.0
 10
90.35779213235846
 20
-155.4086018491687
 30
0.0
 10
90.52074514881079
 20
-155.4086018491687
 30
0.0
 10
90.71091441959657
 20
-155.4086018491687
 30
0.0
 10
90.86766626417546
 20
-155.3979220531644
 30
0.0
 10
90.86766626417546
 20
-155.3979220531644
 30
0.0
 10
90.86766626417546
 20
-155.5694878083298
 30
0.0
 10
90.86766626417546
 20
-155.5694878083298
 30
0.0
 10
90.65820445867226
 20
-155.5608750696167
 30
0.0
 10
90.46148950646449
 20
-155.5588080123255
 30
0.0
 10
90.35779213235846
 20
-155.5588080123255
 30
0.0
 10
90.35779213235846
 20
-155.5588080123255
 30
0.0
 10
90.18415931990189
 20
-155.5588080123255
 30
0.0
 10
90.18415931990189
 20
-155.5588080123255
 30
0.0
 10
90.18415931990189
 20
-155.5588080123255
 30
0.0
 10
90.18415931990189
 20
-155.6666395010139
 30
0.0
 10
90.18415931990189
 20
-155.6666395010139
 30
0.0
 10
90.18415931990189
 20
-155.6666395010139
 30
0.0
 10
90.41498071741363
 20
-155.6666395010139
 30
0.0
 10
90.41498071741363
 20
-155.6666395010139
 30
0.0
 10
90.54796140314428
 20
-155.6666395010139
 30
0.0
 10
90.83597138571114
 20
-155.6625053864316
 30
0.0
 10
91.04508868166581
 20
-155.6559597050096
 30
0.0
 10
91.04508868166581
 20
-155.6559597050096
 30
0.0
 10
91.04508868166581
 20
-155.8337266320485
 30
0.0
 10
91.04508868166581
 20
-155.8337266320485
 30
0.0
 10
90.85285235358886
 20
-155.8275254601751
 30
0.0
 10
90.53969317397966
 20
-155.8230468360442
 30
0.0
 10
90.41498071741363
 20
-155.8230468360442
 30
0.0
  0
HATCH
  5
FA
330
EE
100
AcDbEntity
  8
レイヤー 1
 62
   250
420
  2299925
440
 33554687
100
AcDbHatch
 10
0.0
 20
0.0
 30
0.0
210
0.0
220
0.0
230
1.0
  2
SOLID
 70
     1
 71
     1
 91
        4
 92
        1
 93
        1
 72
     4
 94
        3
 73
     0
 74
     0
 95
       17
 96
       13
 40
0.0
 40
0.0
 40
0.0
 40
0.0
 40
1.0
 40
1.0
 40
1.0
 40
2.0
 40
2.0
 40
2.0
 40
3.0
 40
3.0
 40
3.0
 40
4.0
 40
4.0
 40
4.0
 40
4.0
 10
90.58000079115709
 20
-156.5551296266598
 10
90.58000079115709
 20
-156.5551296266598
 10
89.87341170713234
 20
-156.5551296266598
 10
89.87341170713234
 20
-156.5551296266598
 10
89.87341170713234
 20
-156.5551296266598
 10
89.87341170713234
 20
-156.6695067967701
 10
89.87341170713234
 20
-156.6695067967701
 10
89.87341170713234
 20
-156.6695067967701
 10
90.58000079115709
 20
-156.6695067967701
 10
90.58000079115709
 20
-156.6695067967701
 10
90.58000079115709
 20
-156.6695067967701
 10
90.58000079115709
 20
-156.5551296266598
 10
90.58000079115709
 20
-156.5551296266598
 97
        0
 97
        1
330
F6
 92
        1
 93
        1
 72
     4
 94
        3
 73
     0
 74
     0
 95
       17
 96
       13
 40
0.0
 40
0.0
 40
0.0
 40
0.0
 40
1.0
 40
1.0
 40
1.0
 40
2.0
 40
2.0
 40
2.0
 40
3.0
 40
3.0
 40
3.0
 40
4.0
 40
4.0
 40
4.0
 40
4.0
 10
90.58000079115709
 20
-156.3119058854011
 10
90.58000079115709
 20
-156.3119058854011
 10
89.87341170713234
 20
-156.3119058854011
 10
89.87341170713234
 20
-156.3119058854011
 10
89.87341170713234
 20
-156.3119058854011
 10
89.87341170713234
 20
-156.4262830555115
 10
89.87341170713234
 20
-156.4262830555115
 10
89.87341170713234
 20
-156.4262830555115
 10
90.58000079115709
 20
-156.4262830555115
 10
90.58000079115709
 20
-156.4262830555115
 10
90.58000079115709
 20
-156.4262830555115
 10
90.58000079115709
 20
-156.3119058854011
 10
90.58000079115709
 20
-156.3119058854011
 97
        0
 97
        1
330
F7
 92
        1
 93
        1
 72
     4
 94
        3
 73
     0
 74
     0
 95
       17
 96
       13
 40
0.0
 40
0.0
 40
0.0
 40
0.0
 40
1.0
 40
1.0
 40
1.0
 40
2.0
 40
2.0
 40
2.0
 40
3.0
 40
3.0
 40
3.0
 40
4.0
 40
4.0
 40
4.0
 40
4.0
 10
90.58000079115709
 20
-156.0790174305983
 10
90.58000079115709
 20
-156.0790174305983
 10
89.87341170713234
 20
-156.0790174305983
 10
89.87341170713234
 20
-156.0790174305983
 10
89.87341170713234
 20
-156.0790174305983
 10
89.87341170713234
 20
-156.1871934288351
 10
89.87341170713234
 20
-156.1871934288351
 10
89.87341170713234
 20
-156.1871934288351
 10
90.58000079115709
 20
-156.1871934288351
 10
90.58000079115709
 20
-156.1871934288351
 10
90.58000079115709
 20
-156.1871934288351
 10
90.58000079115709
 20
-156.0790174305983
 10
90.58000079115709
 20
-156.0790174305983
 97
        0
 97
        1
330
F8
 92
        1
 93
        1
 72
     4
 94
        3
 73
     0
 74
     0
 95
      203
 96
      199
 40
0.0
 40
0.0
 40
0.0
 40
0.0
 40
1.0
 40
1.0
 40
1.0
 40
2.0
 40
2.0
 40
2.0
 40
3.0
 40
3.0
 40
3.0
 40
4.0
 40
4.0
 40
4.0
 40
5.0
 40
5.0
 40
5.0
 40
6.0
 40
6.0
 40
6.0
 40
7.0
 40
7.0
 40
7.0
 40
8.0
 40
8.0
 40
8.0
 40
9.0
 40
9.0
 40
9.0
 40
10.0
 40
10.0
 40
10.0
 40
11.0
 40
11.0
 40
11.0
 40
12.0
 40
12.0
 40
12.0
 40
13.0
 40
13.0
 40
13.0
 40
14.0
 40
14.0
 40
14.0
 40
15.0
 40
15.0
 40
15.0
 40
16.0
 40
16.0
 40
16.0
 40
17.0
 40
17.0
 40
17.0
 40
18.0
 40
18.0
 40
18.0
 40
19.0
 40
19.0
 40
19.0
 40
20.0
 40
20.0
 40
20.0
 40
21.0
 40
21.0
 40
21.0
 40
22.0
 40
22.0
 40
22.0
 40
23.0
 40
23.0
 40
23.0
 40
24.0
 40
24.0
 40
24.0
 40
25.0
 40
25.0
 40
25.0
 40
26.0
 40
26.0
 40
26.0
 40
27.0
 40
27.0
 40
27.0
 40
28.0
 40
28.0
 40
28.0
 40
29.0
 40
29.0
 40
29.0
 40
30.0
 40
30.0
 40
30.0
 40
31.0
 40
31.0
 40
31.0
 40
32.0
 40
32.0
 40
32.0
 40
33.0
 40
33.0
 40
33.0
 40
34.0
 40
34.0
 40
34.0
 40
35.0
 40
35.0
 40
35.0
 40
36.0
 40
36.0
 40
36.0
 40
37.0
 40
37.0
 40
37.0
 40
38.0
 40
38.0
 40
38.0
 40
39.0
 40
39.0
 40
39.0
 40
40.0
 40
40.0
 40
40.0
 40
41.0
 40
41.0
 40
41.0
 40
42.0
 40
42.0
 40
42.0
 40
43.0
 40
43.0
 40
43.0
 40
44.0
 40
44.0
 40
44.0
 40
45.0
 40
45.0
 40
45.0
 40
46.0
 40
46.0
 40
46.0
 40
47.0
 40
47.0
 40
47.0
 40
48.0
 40
48.0
 40
48.0
 40
49.0
 40
49.0
 40
49.0
 40
50.0
 40
50.0
 40
50.0
 40
51.0
 40
51.0
 40
51.0
 40
52.0
 40
52.0
 40
52.0
 40
53.0
 40
53.0
 40
53.0
 40
54.0
 40
54.0
 40
54.0
 40
55.0
 40
55.0
 40
55.0
 40
56.0
 40
56.0
 40
56.0
 40
57.0
 40
57.0
 40
57.0
 40
58.0
 40
58.0
 40
58.0
 40
59.0
 40
59.0
 40
59.0
 40
60.0
 40
60.0
 40
60.0
 40
61.0
 40
61.0
 40
61.0
 40
62.0
 40
62.0
 40
62.0
 40
63.0
 40
63.0
 40
63.0
 40
64.0
 40
64.0
 40
64.0
 40
65.0
 40
65.0
 40
65.0
 40
66.0
 40
66.0
 40
66.0
 40
66.0
 10
90.41498071741363
 20
-155.8230468360442
 10
90.41498071741363
 20
-155.8230468360442
 10
89.8561862297061
 20
-155.8230468360442
 10
89.8561862297061
 20
-155.8230468360442
 10
89.84585094325034
 20
-155.8674885678039
 10
89.83723820453723
 20
-155.8991834462682
 10
89.82449135124181
 20
-155.9374240061545
 10
89.84998505783265
 20
-155.9374240061545
 10
89.86479896841922
 20
-155.9394910634457
 10
89.87100014029266
 20
-155.9394910634457
 10
89.87100014029266
 20
-155.9394910634457
 10
90.05944686333583
 20
-155.9394910634457
 10
90.05944686333583
 20
-155.9394910634457
 10
90.05944686333583
 20
-155.9394910634457
 10
90.4339287425825
 20
-155.9394910634457
 10
90.4339287425825
 20
-155.9394910634457
 10
90.48457164621567
 20
-155.9394910634457
 10
90.76810300465174
 20
-155.9267442101502
 10
90.79979788311602
 20
-155.9267442101502
 10
90.79773082582487
 20
-155.9543049740322
 10
90.79566376853373
 20
-155.9732529992011
 10
90.79566376853373
 20
-156.0028808203743
 10
90.79359671124256
 20
-156.0345756988386
 10
90.79359671124256
 20
-156.1699679514089
 10
90.79359671124256
 20
-156.1975287152909
 10
90.79359671124256
 20
-156.1975287152909
 10
90.79359671124256
 20
-156.4431640233892
 10
90.79359671124256
 20
-156.4431640233892
 10
90.79359671124256
 20
-156.4876057551489
 10
90.79773082582487
 20
-156.6843207073567
 10
90.80186494040717
 20
-156.8365939278047
 10
90.80186494040717
 20
-156.8365939278047
 10
90.57552216702626
 20
-156.8365939278047
 10
90.57552216702626
 20
-156.8365939278047
 10
90.57552216702626
 20
-156.8365939278047
 10
90.57758922431741
 20
-156.8028319920493
 10
90.57758922431741
 20
-156.8028319920493
 10
90.57758922431741
 20
-156.8028319920493
 10
89.87547876442349
 20
-156.8028319920493
 10
89.87547876442349
 20
-156.8028319920493
 10
89.87547876442349
 20
-156.8028319920493
 10
89.87754582171465
 20
-156.8365939278047
 10
89.87754582171465
 20
-156.8365939278047
 10
89.87754582171465
 20
-156.8365939278047
 10
89.65947127749833
 20
-156.8365939278047
 10
89.65947127749833
 20
-156.8365939278047
 10
89.66394990162916
 20
-156.7814724000407
 10
89.66394990162916
 20
-156.7687255467453
 10
89.67015107350261
 20
-156.6546928861835
 10
89.67221813079374
 20
-156.6271321223015
 10
89.67428518808491
 20
-156.4938069270223
 10
89.67428518808491
 20
-156.4748589018535
 10
89.67428518808491
 20
-156.4748589018535
 10
89.67428518808491
 20
-156.2715982682238
 10
89.67428518808491
 20
-156.2715982682238
 10
89.53475882093227
 20
-156.5213676909044
 10
89.36560463260653
 20
-156.6526258288924
 10
89.25984020120933
 20
-156.7180826431121
 10
89.25984020120933
 20
-156.7180826431121
 10
89.08620738875276
 20
-156.5785562759595
 10
89.08620738875276
 20
-156.5785562759595
 10
89.17509085227221
 20
-156.5275688627778
 10
89.31909584355564
 20
-156.4407524565495
 10
89.4565551534171
 20
-156.2464490711814
 10
89.5475056742277
 20
-156.1193250477757
 10
89.61296248844744
 20
-155.9756645660408
 10
89.64706893375142
 20
-155.8230468360442
 10
89.41831459353084
 20
-155.8254584028839
 10
89.2384806092008
 20
-155.8316595747573
 10
89.1433959738079
 20
-155.8337266320485
 10
89.1433959738079
 20
-155.8337266320485
 10
89.1433959738079
 20
-155.6559597050096
 10
89.1433959738079
 20
-155.6559597050096
 10
89.34011092601567
 20
-155.6625053864316
 10
89.62364228445172
 20
-155.6666395010139
 10
89.77384844760862
 20
-155.6666395010139
 10
89.77384844760862
 20
-155.6666395010139
 10
89.98744436769412
 20
-155.6666395010139
 10
89.98744436769412
 20
-155.6666395010139
 10
89.98744436769412
 20
-155.6666395010139
 10
89.98744436769412
 20
-155.5588080123255
 10
89.98744436769412
 20
-155.5588080123255
 10
89.98744436769412
 20
-155.5588080123255
 10
89.84137231911953
 20
-155.5588080123255
 10
89.84137231911953
 20
-155.5588080123255
 10
89.67221813079374
 20
-155.5588080123255
 10
89.50306394246799
 20
-155.5629421269078
 10
89.33597681143337
 20
-155.5694878083298
 10
89.33597681143337
 20
-155.5694878083298
 10
89.33597681143337
 20
-155.3979220531644
 10
89.33597681143337
 20
-155.3979220531644
 10
89.49031708917257
 20
-155.4086018491687
 10
89.67635224537605
 20
-155.4086018491687
 10
89.84137231911953
 20
-155.4086018491687
 10
89.84137231911953
 20
-155.4086018491687
 10
89.98744436769412
 20
-155.4086018491687
 10
89.98744436769412
 20
-155.4086018491687
 10
89.98744436769412
 20
-155.4086018491687
 10
89.98744436769412
 20
-155.2900905644761
 10
89.98744436769412
 20
-155.2900905644761
 10
89.98744436769412
 20
-155.2900905644761
 10
89.8561862297061
 20
-155.2900905644761
 10
89.8561862297061
 20
-155.2900905644761
 10
89.80967744065521
 20
-155.2900905644761
 10
89.606761316574
 20
-155.2987033031892
 10
89.56438664210542
 20
-155.2987033031892
 10
89.36147051802421
 20
-155.3028374177715
 10
89.28498939825166
 20
-155.3049044750626
 10
89.20678573073649
 20
-155.3069715323538
 10
89.20678573073649
 20
-155.3069715323538
 10
89.20678573073649
 20
-155.1230034334414
 10
89.20678573073649
 20
-155.1230034334414
 10
89.3211629008468
 20
-155.1312716626061
 10
89.36560463260653
 20
-155.1312716626061
 10
89.74835474101778
 20
-155.1398844013192
 10
89.68496498408917
 20
-155.0447997659263
 10
89.65740422020719
 20
-155.0172390020443
 10
89.62157522716058
 20
-154.9810654994492
 10
89.62157522716058
 20
-154.9810654994492
 10
89.7969305873598
 20
-154.8987277173517
 10
89.7969305873598
 20
-154.8987277173517
 10
89.83723820453723
 20
-154.9345567103983
 10
89.88167993629694
 20
-154.9769313848669
 10
89.95574948922982
 20
-155.0868299308463
 10
89.95574948922982
 20
-155.0868299308463
 10
89.84137231911953
 20
-155.1419514586103
 10
89.84137231911953
 20
-155.1419514586103
 10
89.84137231911953
 20
-155.1419514586103
 10
89.85205211512379
 20
-155.1419514586103
 10
89.85205211512379
 20
-155.1419514586103
 10
89.85205211512379
 20
-155.1419514586103
 10
90.3746731002362
 20
-155.1419514586103
 10
90.3746731002362
 20
-155.1419514586103
 10
90.3746731002362
 20
-155.1419514586103
 10
90.27958846484329
 20
-155.0975097268506
 10
90.27958846484329
 20
-155.0975097268506
 10
90.30680471917678
 20
-155.0596136765128
 10
90.36399330423192
 20
-154.978998442158
 10
90.37880721481849
 20
-154.9049288892252
 10
90.37880721481849
 20
-154.9049288892252
 10
90.59240313490398
 20
-154.9686631557023
 10
90.59240313490398
 20
-154.9686631557023
 10
90.60101587361712
 20
-154.9707302129934
 10
90.62203095607713
 20
-154.9810654994492
 10
90.62203095607713
 20
-155.0024250914577
 10
90.62203095607713
 20
-155.0403211417955
 10
90.55657414185738
 20
-155.0403211417955
 10
90.53762611668851
 20
-155.0403211417955
 10
90.52694632068424
 20
-155.0596136765128
 10
90.50351967138453
 20
-155.0995767841418
 10
90.47389185021138
 20
-155.1398844013192
 10
90.8738674360489
 20
-155.1336832294457
 10
90.90349525722205
 20
-155.1312716626061
 10
90.97963186744607
 20
-155.1250704907326
 10
90.97963186744607
 20
-155.1250704907326
 10
90.97963186744607
 20
-155.3069715323538
 10
90.97963186744607
 20
-155.3069715323538
 10
90.96068384227718
 20
-155.3069715323538
 10
90.93519013568634
 20
-155.3049044750626
 10
90.71539304372739
 20
-155.2962917363495
 10
90.6644056305457
 20
-155.2942246790584
 10
90.44460853858677
 20
-155.2900905644761
 10
90.40016680682704
 20
-155.2900905644761
 10
90.40016680682704
 20
-155.2900905644761
 10
90.18415931990189
 20
-155.2900905644761
 10
90.18415931990189
 20
-155.2900905644761
 10
90.18415931990189
 20
-155.2900905644761
 10
90.18415931990189
 20
-155.4086018491687
 10
90.18415931990189
 20
-155.4086018491687
 10
90.18415931990189
 20
-155.4086018491687
 10
90.35779213235846
 20
-155.4086018491687
 10
90.35779213235846
 20
-155.4086018491687
 10
90.52074514881079
 20
-155.4086018491687
 10
90.71091441959657
 20
-155.4086018491687
 10
90.86766626417546
 20
-155.3979220531644
 10
90.86766626417546
 20
-155.3979220531644
 10
90.86766626417546
 20
-155.5694878083298
 10
90.86766626417546
 20
-155.5694878083298
 10
90.65820445867226
 20
-155.5608750696167
 10
90.46148950646449
 20
-155.5588080123255
 10
90.35779213235846
 20
-155.5588080123255
 10
90.35779213235846
 20
-155.5588080123255
 10
90.18415931990189
 20
-155.5588080123255
 10
90.18415931990189
 20
-155.5588080123255
 10
90.18415931990189
 20
-155.5588080123255
 10
90.18415931990189
 20
-155.6666395010139
 10
90.18415931990189
 20
-155.6666395010139
 10
90.18415931990189
 20
-155.6666395010139
 10
90.41498071741363
 20
-155.6666395010139
 10
90.41498071741363
 20
-155.6666395010139
 10
90.54796140314428
 20
-155.6666395010139
 10
90.83597138571114
 20
-155.6625053864316
 10
91.04508868166581
 20
-155.6559597050096
 10
91.04508868166581
 20
-155.6559597050096
 10
91.04508868166581
 20
-155.8337266320485
 10
91.04508868166581
 20
-155.8337266320485
 10
90.85285235358886
 20
-155.8275254601751
 10
90.53969317397966
 20
-155.8230468360442
 10
90.41498071741363
 20
-155.8230468360442
 97
        0
 97
        1
330
F9
 75
     2
 76
     1
 98
        1
 10
0.0
 20
0.0
450
        0
451
        0
460
0.0
461
0.0
452
        0
462
0.0
453
        0
470

  0
SPLINE
  5
FB
330
EE
100
AcDbEntity
  8
レイヤー 1
100
AcDbSpline
210
0.0
220
0.0
230
1.0
 70
     9
 71
     3
 72
    29
 73
    25
 74
     0
 42
0.0000000001
 43
0.0000000001
 40
0.0
 40
0.0
 40
0.0
 40
0.0
 40
1.0
 40
1.0
 40
1.0
 40
2.0
 40
2.0
 40
2.0
 40
3.0
 40
3.0
 40
3.0
 40
4.0
 40
4.0
 40
4.0
 40
5.0
 40
5.0
 40
5.0
 40
6.0
 40
6.0
 40
6.0
 40
7.0
 40
7.0
 40
7.0
 40
8.0
 40
8.0
 40
8.0
 40
8.0
 10
92.2901461900351
 20
-155.2711425393072
 30
0.0
 10
92.2901461900351
 20
-155.2711425393072
 30
0.0
 10
91.93667939324846
 20
-155.2711425393072
 30
0.0
 10
91.93667939324846
 20
-155.2711425393072
 30
0.0
 10
91.82471378997785
 20
-155.2711425393072
 30
0.0
 10
91.68518742282524
 20
-155.2773437111806
 30
0.0
 10
91.57735593413692
 20
-155.2900905644761
 30
0.0
 10
91.57735593413692
 20
-155.2900905644761
 30
0.0
 10
91.57735593413692
 20
-155.055135052382
 30
0.0
 10
91.57735593413692
 20
-155.055135052382
 30
0.0
 10
91.69552270928098
 20
-155.0699489629686
 30
0.0
 10
91.87983531774184
 20
-155.0744275870994
 30
0.0
 10
91.93667939324846
 20
-155.0744275870994
 30
0.0
 10
91.93667939324846
 20
-155.0744275870994
 30
0.0
 10
92.2901461900351
 20
-155.0744275870994
 30
0.0
 10
92.2901461900351
 20
-155.0744275870994
 30
0.0
 10
92.30909421520399
 20
-155.0744275870994
 30
0.0
 10
92.51235484883371
 20
-155.0744275870994
 30
0.0
 10
92.65394827327749
 20
-155.055135052382
 30
0.0
 10
92.65394827327749
 20
-155.055135052382
 30
0.0
 10
92.65394827327749
 20
-155.2900905644761
 30
0.0
 10
92.65394827327749
 20
-155.2900905644761
 30
0.0
 10
92.49754093824714
 20
-155.2711425393072
 30
0.0
 10
92.30702715791283
 20
-155.2711425393072
 30
0.0
 10
92.2901461900351
 20
-155.2711425393072
 30
0.0
  0
SPLINE
  5
FC
330
EE
100
AcDbEntity
  8
レイヤー 1
100
AcDbSpline
210
0.0
220
0.0
230
1.0
 70
     9
 71
     3
 72
    47
 73
    43
 74
     0
 42
0.0000000001
 43
0.0000000001
 40
0.0
 40
0.0
 40
0.0
 40
0.0
 40
1.0
 40
1.0
 40
1.0
 40
2.0
 40
2.0
 40
2.0
 40
3.0
 40
3.0
 40
3.0
 40
4.0
 40
4.0
 40
4.0
 40
5.0
 40
5.0
 40
5.0
 40
6.0
 40
6.0
 40
6.0
 40
7.0
 40
7.0
 40
7.0
 40
8.0
 40
8.0
 40
8.0
 40
9.0
 40
9.0
 40
9.0
 40
10.0
 40
10.0
 40
10.0
 40
11.0
 40
11.0
 40
11.0
 40
12.0
 40
12.0
 40
12.0
 40
13.0
 40
13.0
 40
13.0
 40
14.0
 40
14.0
 40
14.0
 40
14.0
 10
92.39177650684998
 20
-155.799964696293
 30
0.0
 10
92.39177650684998
 20
-155.799964696293
 30
0.0
 10
92.2901461900351
 20
-155.799964696293
 30
0.0
 10
92.2901461900351
 20
-155.799964696293
 30
0.0
 10
92.2901461900351
 20
-155.8867811025213
 30
0.0
 10
92.26913110757507
 20
-156.2760768923546
 30
0.0
 10
92.07241615536732
 20
-156.4958739843135
 30
0.0
 10
91.91979842537074
 20
-156.6650281726393
 30
0.0
 10
91.71274818670722
 20
-156.7349636109898
 30
0.0
 10
91.6279988377701
 20
-156.7625243748719
 30
0.0
 10
91.6279988377701
 20
-156.7625243748719
 30
0.0
 10
91.43335094285346
 20
-156.5954372438372
 30
0.0
 10
91.43335094285346
 20
-156.5954372438372
 30
0.0
 10
91.53084714508604
 20
-156.5826903905418
 30
0.0
 10
91.70620250528527
 20
-156.5592637412421
 30
0.0
 10
91.89464922832842
 20
-156.3711615277474
 30
0.0
 10
91.96871878126129
 20
-156.2991590321057
 30
0.0
 10
92.07241615536732
 20
-156.1596326649531
 30
0.0
 10
92.07241615536732
 20
-155.799964696293
 30
0.0
 10
92.07241615536732
 20
-155.799964696293
 30
0.0
 10
91.84159475785557
 20
-155.799964696293
 30
0.0
 10
91.84159475785557
 20
-155.799964696293
 30
0.0
 10
91.65555960165209
 20
-155.799964696293
 30
0.0
 10
91.46917993590006
 20
-155.8040988108753
 30
0.0
 10
91.28314477969658
 20
-155.8189127214619
 30
0.0
 10
91.28314477969658
 20
-155.8189127214619
 30
0.0
 10
91.28314477969658
 20
-155.599115629503
 30
0.0
 10
91.28314477969658
 20
-155.599115629503
 30
0.0
 10
91.47159150273974
 20
-155.6139295400895
 30
0.0
 10
91.75718991846697
 20
-155.6180636546718
 30
0.0
 10
91.84159475785557
 20
-155.6180636546718
 30
0.0
 10
91.84159475785557
 20
-155.6180636546718
 30
0.0
 10
92.39177650684998
 20
-155.6180636546718
 30
0.0
 10
92.39177650684998
 20
-155.6180636546718
 30
0.0
 10
92.41072453201885
 20
-155.6180636546718
 30
0.0
 10
92.72801782621035
 20
-155.6180636546718
 30
0.0
 10
92.95642765688242
 20
-155.599115629503
 30
0.0
 10
92.95642765688242
 20
-155.599115629503
 30
0.0
 10
92.95642765688242
 20
-155.8189127214619
 30
0.0
 10
92.95642765688242
 20
-155.8189127214619
 30
0.0
 10
92.76832544338779
 20
-155.8040988108753
 30
0.0
 10
92.57987872034462
 20
-155.799964696293
 30
0.0
 10
92.39177650684998
 20
-155.799964696293
 30
0.0
  0
HATCH
  5
FD
330
EE
100
AcDbEntity
  8
レイヤー 1
 62
   250
420
  2299925
440
 33554687
100
AcDbHatch
 10
0.0
 20
0.0
 30
0.0
210
0.0
220
0.0
230
1.0
  2
SOLID
 70
     1
 71
     1
 91
        2
 92
        1
 93
        1
 72
     4
 94
        3
 73
     0
 74
     0
 95
       29
 96
       25
 40
0.0
 40
0.0
 40
0.0
 40
0.0
 40
1.0
 40
1.0
 40
1.0
 40
2.0
 40
2.0
 40
2.0
 40
3.0
 40
3.0
 40
3.0
 40
4.0
 40
4.0
 40
4.0
 40
5.0
 40
5.0
 40
5.0
 40
6.0
 40
6.0
 40
6.0
 40
7.0
 40
7.0
 40
7.0
 40
8.0
 40
8.0
 40
8.0
 40
8.0
 10
92.2901461900351
 20
-155.2711425393072
 10
92.2901461900351
 20
-155.2711425393072
 10
91.93667939324846
 20
-155.2711425393072
 10
91.93667939324846
 20
-155.2711425393072
 10
91.82471378997785
 20
-155.2711425393072
 10
91.68518742282524
 20
-155.2773437111806
 10
91.57735593413692
 20
-155.2900905644761
 10
91.57735593413692
 20
-155.2900905644761
 10
91.57735593413692
 20
-155.055135052382
 10
91.57735593413692
 20
-155.055135052382
 10
91.69552270928098
 20
-155.0699489629686
 10
91.87983531774184
 20
-155.0744275870994
 10
91.93667939324846
 20
-155.0744275870994
 10
91.93667939324846
 20
-155.0744275870994
 10
92.2901461900351
 20
-155.0744275870994
 10
92.2901461900351
 20
-155.0744275870994
 10
92.30909421520399
 20
-155.0744275870994
 10
92.51235484883371
 20
-155.0744275870994
 10
92.65394827327749
 20
-155.055135052382
 10
92.65394827327749
 20
-155.055135052382
 10
92.65394827327749
 20
-155.2900905644761
 10
92.65394827327749
 20
-155.2900905644761
 10
92.49754093824714
 20
-155.2711425393072
 10
92.30702715791283
 20
-155.2711425393072
 10
92.2901461900351
 20
-155.2711425393072
 97
        0
 97
        1
330
FB
 92
        1
 93
        1
 72
     4
 94
        3
 73
     0
 74
     0
 95
       47
 96
       43
 40
0.0
 40
0.0
 40
0.0
 40
0.0
 40
1.0
 40
1.0
 40
1.0
 40
2.0
 40
2.0
 40
2.0
 40
3.0
 40
3.0
 40
3.0
 40
4.0
 40
4.0
 40
4.0
 40
5.0
 40
5.0
 40
5.0
 40
6.0
 40
6.0
 40
6.0
 40
7.0
 40
7.0
 40
7.0
 40
8.0
 40
8.0
 40
8.0
 40
9.0
 40
9.0
 40
9.0
 40
10.0
 40
10.0
 40
10.0
 40
11.0
 40
11.0
 40
11.0
 40
12.0
 40
12.0
 40
12.0
 40
13.0
 40
13.0
 40
13.0
 40
14.0
 40
14.0
 40
14.0
 40
14.0
 10
92.39177650684998
 20
-155.799964696293
 10
92.39177650684998
 20
-155.799964696293
 10
92.2901461900351
 20
-155.799964696293
 10
92.2901461900351
 20
-155.799964696293
 10
92.2901461900351
 20
-155.8867811025213
 10
92.26913110757507
 20
-156.2760768923546
 10
92.07241615536732
 20
-156.4958739843135
 10
91.91979842537074
 20
-156.6650281726393
 10
91.71274818670722
 20
-156.7349636109898
 10
91.6279988377701
 20
-156.7625243748719
 10
91.6279988377701
 20
-156.7625243748719
 10
91.43335094285346
 20
-156.5954372438372
 10
91.43335094285346
 20
-156.5954372438372
 10
91.53084714508604
 20
-156.5826903905418
 10
91.70620250528527
 20
-156.5592637412421
 10
91.89464922832842
 20
-156.3711615277474
 10
91.96871878126129
 20
-156.2991590321057
 10
92.07241615536732
 20
-156.1596326649531
 10
92.07241615536732
 20
-155.799964696293
 10
92.07241615536732
 20
-155.799964696293
 10
91.84159475785557
 20
-155.799964696293
 10
91.84159475785557
 20
-155.799964696293
 10
91.65555960165209
 20
-155.799964696293
 10
91.46917993590006
 20
-155.8040988108753
 10
91.28314477969658
 20
-155.8189127214619
 10
91.28314477969658
 20
-155.8189127214619
 10
91.28314477969658
 20
-155.599115629503
 10
91.28314477969658
 20
-155.599115629503
 10
91.47159150273974
 20
-155.6139295400895
 10
91.75718991846697
 20
-155.6180636546718
 10
91.84159475785557
 20
-155.6180636546718
 10
91.84159475785557
 20
-155.6180636546718
 10
92.39177650684998
 20
-155.6180636546718
 10
92.39177650684998
 20
-155.6180636546718
 10
92.41072453201885
 20
-155.6180636546718
 10
92.72801782621035
 20
-155.6180636546718
 10
92.95642765688242
 20
-155.599115629503
 10
92.95642765688242
 20
-155.599115629503
 10
92.95642765688242
 20
-155.8189127214619
 10
92.95642765688242
 20
-155.8189127214619
 10
92.76832544338779
 20
-155.8040988108753
 10
92.57987872034462
 20
-155.799964696293
 10
92.39177650684998
 20
-155.799964696293
 97
        0
 97
        1
330
FC
 75
     2
 76
     1
 98
        1
 10
0.0
 20
0.0
450
        0
451
        0
460
0.0
461
0.0
452
        0
462
0.0
453
        0
470

  0
SPLINE
  5
FE
330
EE
100
AcDbEntity
  8
レイヤー 1
100
AcDbSpline
210
0.0
220
0.0
230
1.0
 70
     9
 71
     3
 72
    29
 73
    25
 74
     0
 42
0.0000000001
 43
0.0000000001
 40
0.0
 40
0.0
 40
0.0
 40
0.0
 40
1.0
 40
1.0
 40
1.0
 40
2.0
 40
2.0
 40
2.0
 40
3.0
 40
3.0
 40
3.0
 40
4.0
 40
4.0
 40
4.0
 40
5.0
 40
5.0
 40
5.0
 40
6.0
 40
6.0
 40
6.0
 40
7.0
 40
7.0
 40
7.0
 40
8.0
 40
8.0
 40
8.0
 40
8.0
 10
94.23765866784684
 20
-155.9629177127454
 30
0.0
 10
94.23765866784684
 20
-155.9629177127454
 30
0.0
 10
93.7532782426207
 20
-155.9629177127454
 30
0.0
 10
93.7532782426207
 20
-155.9629177127454
 30
0.0
 10
93.72571747873871
 20
-155.9629177127454
 30
0.0
 10
93.4084241845472
 20
-155.9629177127454
 30
0.0
 10
93.19689532175287
 20
-155.9880669097877
 30
0.0
 10
93.19689532175287
 20
-155.9880669097877
 30
0.0
 10
93.19689532175287
 20
-155.7575900218245
 30
0.0
 10
93.19689532175287
 20
-155.7575900218245
 30
0.0
 10
93.35536971407435
 20
-155.7810166711242
 30
0.0
 10
93.54588349440867
 20
-155.7830837284153
 30
0.0
 10
93.7532782426207
 20
-155.7830837284153
 30
0.0
 10
93.7532782426207
 20
-155.7830837284153
 30
0.0
 10
94.23765866784684
 20
-155.7830837284153
 30
0.0
 10
94.23765866784684
 20
-155.7830837284153
 30
0.0
 10
94.42369382405033
 20
-155.7830837284153
 30
0.0
 10
94.61007348980235
 20
-155.7810166711242
 30
0.0
 10
94.79404158871469
 20
-155.7575900218245
 30
0.0
 10
94.79404158871469
 20
-155.7575900218245
 30
0.0
 10
94.79404158871469
 20
-155.9880669097877
 30
0.0
 10
94.79404158871469
 20
-155.9880669097877
 30
0.0
 10
94.61007348980235
 20
-155.9649847700365
 30
0.0
 10
94.36237112441288
 20
-155.9629177127454
 30
0.0
 10
94.23765866784684
 20
-155.9629177127454
 30
0.0
  0
HATCH
  5
FF
330
EE
100
AcDbEntity
  8
レイヤー 1
 62
   250
420
  2299925
440
 33554687
100
AcDbHatch
 10
0.0
 20
0.0
 30
0.0
210
0.0
220
0.0
230
1.0
  2
SOLID
 70
     1
 71
     1
 91
        1
 92
        1
 93
        1
 72
     4
 94
        3
 73
     0
 74
     0
 95
       29
 96
       25
 40
0.0
 40
0.0
 40
0.0
 40
0.0
 40
1.0
 40
1.0
 40
1.0
 40
2.0
 40
2.0
 40
2.0
 40
3.0
 40
3.0
 40
3.0
 40
4.0
 40
4.0
 40
4.0
 40
5.0
 40
5.0
 40
5.0
 40
6.0
 40
6.0
 40
6.0
 40
7.0
 40
7.0
 40
7.0
 40
8.0
 40
8.0
 40
8.0
 40
8.0
 10
94.23765866784684
 20
-155.9629177127454
 10
94.23765866784684
 20
-155.9629177127454
 10
93.7532782426207
 20
-155.9629177127454
 10
93.7532782426207
 20
-155.9629177127454
 10
93.72571747873871
 20
-155.9629177127454
 10
93.4084241845472
 20
-155.9629177127454
 10
93.19689532175287
 20
-155.9880669097877
 10
93.19689532175287
 20
-155.9880669097877
 10
93.19689532175287
 20
-155.7575900218245
 10
93.19689532175287
 20
-155.7575900218245
 10
93.35536971407435
 20
-155.7810166711242
 10
93.54588349440867
 20
-155.7830837284153
 10
93.7532782426207
 20
-155.7830837284153
 10
93.7532782426207
 20
-155.7830837284153
 10
94.23765866784684
 20
-155.7830837284153
 10
94.23765866784684
 20
-155.7830837284153
 10
94.42369382405033
 20
-155.7830837284153
 10
94.61007348980235
 20
-155.7810166711242
 10
94.79404158871469
 20
-155.7575900218245
 10
94.79404158871469
 20
-155.7575900218245
 10
94.79404158871469
 20
-155.9880669097877
 10
94.79404158871469
 20
-155.9880669097877
 10
94.61007348980235
 20
-155.9649847700365
 10
94.36237112441288
 20
-155.9629177127454
 10
94.23765866784684
 20
-155.9629177127454
 97
        0
 97
        1
330
FE
 75
     2
 76
     1
 98
        1
 10
0.0
 20
0.0
450
        0
451
        0
460
0.0
461
0.0
452
        0
462
0.0
453
        0
470

  0
SPLINE
  5
100
330
EE
100
AcDbEntity
  8
レイヤー 1
100
AcDbSpline
210
0.0
220
0.0
230
1.0
 70
     9
 71
     3
 72
    17
 73
    13
 74
     0
 42
0.0000000001
 43
0.0000000001
 40
0.0
 40
0.0
 40
0.0
 40
0.0
 40
1.0
 40
1.0
 40
1.0
 40
2.0
 40
2.0
 40
2.0
 40
3.0
 40
3.0
 40
3.0
 40
4.0
 40
4.0
 40
4.0
 40
4.0
 10
96.65646020804075
 20
-154.9958794100357
 30
0.0
 10
96.60168318982528
 20
-154.9958794100357
 30
0.0
 10
96.55724145806557
 20
-155.0403211417955
 30
0.0
 10
96.55724145806557
 20
-155.0954426695595
 30
0.0
 10
96.55724145806557
 20
-155.1526312546146
 30
0.0
 10
96.60168318982528
 20
-155.2012071009566
 30
0.0
 10
96.66059432262306
 20
-155.2012071009566
 30
0.0
 10
96.71984996496934
 20
-155.2012071009566
 30
0.0
 10
96.76015758214678
 20
-155.1505641973235
 30
0.0
 10
96.76015758214678
 20
-155.0975097268506
 30
0.0
 10
96.76015758214678
 20
-155.0403211417955
 30
0.0
 10
96.7136487930959
 20
-154.9958794100357
 30
0.0
 10
96.65646020804075
 20
-154.9958794100357
 30
0.0
  0
SPLINE
  5
101
330
EE
100
AcDbEntity
  8
レイヤー 1
100
AcDbSpline
210
0.0
220
0.0
230
1.0
 70
     9
 71
     3
 72
    17
 73
    13
 74
     0
 42
0.0000000001
 43
0.0000000001
 40
0.0
 40
0.0
 40
0.0
 40
0.0
 40
1.0
 40
1.0
 40
1.0
 40
2.0
 40
2.0
 40
2.0
 40
3.0
 40
3.0
 40
3.0
 40
4.0
 40
4.0
 40
4.0
 40
4.0
 10
96.6585272653319
 20
-155.3259195575227
 30
0.0
 10
96.53174775147471
 20
-155.3259195575227
 30
0.0
 10
96.43011743465983
 20
-155.2246337502563
 30
0.0
 10
96.43011743465983
 20
-155.0975097268506
 30
0.0
 10
96.43011743465983
 20
-154.9707302129934
 30
0.0
 10
96.53174775147471
 20
-154.8670328388874
 30
0.0
 10
96.6585272653319
 20
-154.8670328388874
 30
0.0
 10
96.78565128873763
 20
-154.8670328388874
 30
0.0
 10
96.88934866284364
 20
-154.9707302129934
 30
0.0
 10
96.88934866284364
 20
-155.0975097268506
 30
0.0
 10
96.88934866284364
 20
-155.2246337502563
 30
0.0
 10
96.78565128873763
 20
-155.3259195575227
 30
0.0
 10
96.6585272653319
 20
-155.3259195575227
 30
0.0
  0
SPLINE
  5
102
330
EE
100
AcDbEntity
  8
レイヤー 1
100
AcDbSpline
210
0.0
220
0.0
230
1.0
 70
     9
 71
     3
 72
    44
 73
    40
 74
     0
 42
0.0000000001
 43
0.0000000001
 40
0.0
 40
0.0
 40
0.0
 40
0.0
 40
1.0
 40
1.0
 40
1.0
 40
2.0
 40
2.0
 40
2.0
 40
3.0
 40
3.0
 40
3.0
 40
4.0
 40
4.0
 40
4.0
 40
5.0
 40
5.0
 40
5.0
 40
6.0
 40
6.0
 40
6.0
 40
7.0
 40
7.0
 40
7.0
 40
8.0
 40
8.0
 40
8.0
 40
9.0
 40
9.0
 40
9.0
 40
10.0
 40
10.0
 40
10.0
 40
11.0
 40
11.0
 40
11.0
 40
12.0
 40
12.0
 40
12.0
 40
13.0
 40
13.0
 40
13.0
 40
13.0
 10
96.44906545982872
 20
-155.5250460765701
 30
0.0
 10
96.3370998565581
 20
-155.8929822743948
 30
0.0
 10
96.28645695292492
 20
-156.0518011762648
 30
0.0
 10
96.08974200071715
 20
-156.3012260893969
 30
0.0
 10
95.90542939225628
 20
-156.5320474869086
 30
0.0
 10
95.66875133241962
 20
-156.7180826431121
 30
0.0
 10
95.38935408856586
 20
-156.8111002212139
 30
0.0
 10
95.38935408856586
 20
-156.8111002212139
 30
0.0
 10
95.1967732509404
 20
-156.6312662368838
 30
0.0
 10
95.1967732509404
 20
-156.6312662368838
 30
0.0
 10
95.83790552074539
 20
-156.4789930164358
 30
0.0
 10
96.16794566823232
 20
-155.9226100955679
 30
0.0
 10
96.23133542516093
 20
-155.4826714021015
 30
0.0
 10
96.23133542516093
 20
-155.4826714021015
 30
0.0
 10
95.46549069878988
 20
-155.4826714021015
 30
0.0
 10
95.46549069878988
 20
-155.4826714021015
 30
0.0
 10
95.37247312068814
 20
-155.4826714021015
 30
0.0
 10
95.18850502177579
 20
-155.4868055166838
 30
0.0
 10
95.03175317719692
 20
-155.5057535418527
 30
0.0
 10
95.03175317719692
 20
-155.5057535418527
 30
0.0
 10
95.03175317719692
 20
-155.2859564498938
 30
0.0
 10
95.03175317719692
 20
-155.2859564498938
 30
0.0
 10
95.11856958342523
 20
-155.3069715323538
 30
0.0
 10
95.37040606339699
 20
-155.3069715323538
 30
0.0
 10
95.46962481337217
 20
-155.3069715323538
 30
0.0
 10
95.46962481337217
 20
-155.3069715323538
 30
0.0
 10
95.90129527767398
 20
-155.3069715323538
 30
0.0
 10
95.90129527767398
 20
-155.3069715323538
 30
0.0
 10
95.94366995214256
 20
-155.3069715323538
 30
0.0
 10
96.17828095468809
 20
-155.3049044750626
 30
0.0
 10
96.21652151457436
 20
-155.2987033031892
 30
0.0
 10
96.25889618904292
 20
-155.2921576217672
 30
0.0
 10
96.26096324633408
 20
-155.2900905644761
 30
0.0
 10
96.32228594597151
 20
-155.2497829472987
 30
0.0
 10
96.32228594597151
 20
-155.2497829472987
 30
0.0
 10
96.51038815946616
 20
-155.4044677345864
 30
0.0
 10
96.51038815946616
 20
-155.4044677345864
 30
0.0
 10
96.48110484784155
 20
-155.4340955557595
 30
0.0
 10
96.46629093725495
 20
-155.4657904342238
 30
0.0
 10
96.44906545982872
 20
-155.5250460765701
 30
0.0
  0
HATCH
  5
103
330
EE
100
AcDbEntity
  8
レイヤー 1
 62
   250
420
  2299925
440
 33554687
100
AcDbHatch
 10
0.0
 20
0.0
 30
0.0
210
0.0
220
0.0
230
1.0
  2
SOLID
 70
     1
 71
     1
 91
        3
 92
        1
 93
        1
 72
     4
 94
        3
 73
     0
 74
     0
 95
       17
 96
       13
 40
0.0
 40
0.0
 40
0.0
 40
0.0
 40
1.0
 40
1.0
 40
1.0
 40
2.0
 40
2.0
 40
2.0
 40
3.0
 40
3.0
 40
3.0
 40
4.0
 40
4.0
 40
4.0
 40
4.0
 10
96.65646020804075
 20
-154.9958794100357
 10
96.60168318982528
 20
-154.9958794100357
 10
96.55724145806557
 20
-155.0403211417955
 10
96.55724145806557
 20
-155.0954426695595
 10
96.55724145806557
 20
-155.1526312546146
 10
96.60168318982528
 20
-155.2012071009566
 10
96.66059432262306
 20
-155.2012071009566
 10
96.71984996496934
 20
-155.2012071009566
 10
96.76015758214678
 20
-155.1505641973235
 10
96.76015758214678
 20
-155.0975097268506
 10
96.76015758214678
 20
-155.0403211417955
 10
96.7136487930959
 20
-154.9958794100357
 10
96.65646020804075
 20
-154.9958794100357
 97
        0
 97
        1
330
100
 92
        1
 93
        1
 72
     4
 94
        3
 73
     0
 74
     0
 95
       17
 96
       13
 40
0.0
 40
0.0
 40
0.0
 40
0.0
 40
1.0
 40
1.0
 40
1.0
 40
2.0
 40
2.0
 40
2.0
 40
3.0
 40
3.0
 40
3.0
 40
4.0
 40
4.0
 40
4.0
 40
4.0
 10
96.6585272653319
 20
-155.3259195575227
 10
96.53174775147471
 20
-155.3259195575227
 10
96.43011743465983
 20
-155.2246337502563
 10
96.43011743465983
 20
-155.0975097268506
 10
96.43011743465983
 20
-154.9707302129934
 10
96.53174775147471
 20
-154.8670328388874
 10
96.6585272653319
 20
-154.8670328388874
 10
96.78565128873763
 20
-154.8670328388874
 10
96.88934866284364
 20
-154.9707302129934
 10
96.88934866284364
 20
-155.0975097268506
 10
96.88934866284364
 20
-155.2246337502563
 10
96.78565128873763
 20
-155.3259195575227
 10
96.6585272653319
 20
-155.3259195575227
 97
        0
 97
        1
330
101
 92
        1
 93
        1
 72
     4
 94
        3
 73
     0
 74
     0
 95
       44
 96
       40
 40
0.0
 40
0.0
 40
0.0
 40
0.0
 40
1.0
 40
1.0
 40
1.0
 40
2.0
 40
2.0
 40
2.0
 40
3.0
 40
3.0
 40
3.0
 40
4.0
 40
4.0
 40
4.0
 40
5.0
 40
5.0
 40
5.0
 40
6.0
 40
6.0
 40
6.0
 40
7.0
 40
7.0
 40
7.0
 40
8.0
 40
8.0
 40
8.0
 40
9.0
 40
9.0
 40
9.0
 40
10.0
 40
10.0
 40
10.0
 40
11.0
 40
11.0
 40
11.0
 40
12.0
 40
12.0
 40
12.0
 40
13.0
 40
13.0
 40
13.0
 40
13.0
 10
96.44906545982872
 20
-155.5250460765701
 10
96.3370998565581
 20
-155.8929822743948
 10
96.28645695292492
 20
-156.0518011762648
 10
96.08974200071715
 20
-156.3012260893969
 10
95.90542939225628
 20
-156.5320474869086
 10
95.66875133241962
 20
-156.7180826431121
 10
95.38935408856586
 20
-156.8111002212139
 10
95.38935408856586
 20
-156.8111002212139
 10
95.1967732509404
 20
-156.6312662368838
 10
95.1967732509404
 20
-156.6312662368838
 10
95.83790552074539
 20
-156.4789930164358
 10
96.16794566823232
 20
-155.9226100955679
 10
96.23133542516093
 20
-155.4826714021015
 10
96.23133542516093
 20
-155.4826714021015
 10
95.46549069878988
 20
-155.4826714021015
 10
95.46549069878988
 20
-155.4826714021015
 10
95.37247312068814
 20
-155.4826714021015
 10
95.18850502177579
 20
-155.4868055166838
 10
95.03175317719692
 20
-155.5057535418527
 10
95.03175317719692
 20
-155.5057535418527
 10
95.03175317719692
 20
-155.2859564498938
 10
95.03175317719692
 20
-155.2859564498938
 10
95.11856958342523
 20
-155.3069715323538
 10
95.37040606339699
 20
-155.3069715323538
 10
95.46962481337217
 20
-155.3069715323538
 10
95.46962481337217
 20
-155.3069715323538
 10
95.90129527767398
 20
-155.3069715323538
 10
95.90129527767398
 20
-155.3069715323538
 10
95.94366995214256
 20
-155.3069715323538
 10
96.17828095468809
 20
-155.3049044750626
 10
96.21652151457436
 20
-155.2987033031892
 10
96.25889618904292
 20
-155.2921576217672
 10
96.26096324633408
 20
-155.2900905644761
 10
96.32228594597151
 20
-155.2497829472987
 10
96.32228594597151
 20
-155.2497829472987
 10
96.51038815946616
 20
-155.4044677345864
 10
96.51038815946616
 20
-155.4044677345864
 10
96.48110484784155
 20
-155.4340955557595
 10
96.46629093725495
 20
-155.4657904342238
 10
96.44906545982872
 20
-155.5250460765701
 97
        0
 97
        1
330
102
 75
     2
 76
     1
 98
        1
 10
0.0
 20
0.0
450
        0
451
        0
460
0.0
461
0.0
452
        0
462
0.0
453
        0
470

  0
ENDBLK
  5
F1
330
EE
100
AcDbEntity
  8
0
100
AcDbBlockEnd
  0
ENDSEC
  0
SECTION
  2
ENTITIES
  0
INSERT
  5
7A
330
70
100
AcDbEntity
  8
レイヤー 1
100
AcDbBlockReference
  2
Block_0
 10
0.0
 20
0.0
 30
0.0
  0
INSERT
  5
E2
330
70
100
AcDbEntity
  8
レイヤー 1
100
AcDbBlockReference
  2
Block_14
 10
0.0
 20
0.0
 30
0.0
  0
ENDSEC
  0
SECTION
  2
OBJECTS
  0
DICTIONARY
  5
C
330
0
100
AcDbDictionary
281
     1
  3
ACAD_COLOR
350
63
  3
ACAD_DETAILVIEWSTYLE
350
6A
  3
ACAD_GROUP
350
D
  3
ACAD_LAYOUT
350
62
  3
ACAD_MATERIAL
350
10
  3
ACAD_MLEADERSTYLE
350
66
  3
ACAD_MLINESTYLE
350
5F
  3
ACAD_PLOTSETTINGS
350
61
  3
ACAD_PLOTSTYLENAME
350
E
  3
ACAD_SCALELIST
350
42
  3
ACAD_SECTIONVIEWSTYLE
350
68
  3
ACAD_TABLESTYLE
350
64
  3
ACAD_VISUALSTYLE
350
29
  3
ACDB_RECOMPOSE_DATA
350
10C
  3
AcDbVariableDictionary
350
104
  0
DICTIONARY
  5
63
102
{ACAD_REACTORS
330
C
102
}
330
C
100
AcDbDictionary
281
     1
  0
DICTIONARY
  5
6A
102
{ACAD_REACTORS
330
C
102
}
330
C
100
AcDbDictionary
281
     1
  3
Imperial24
350
6B
  0
DICTIONARY
  5
D
102
{ACAD_REACTORS
330
C
102
}
330
C
100
AcDbDictionary
281
     1
  0
DICTIONARY
  5
62
102
{ACAD_REACTORS
330
C
102
}
330
C
100
AcDbDictionary
281
     1
  3
Layout1
350
6F
  3
Layout2
350
77
  3
Model
350
73
  0
DICTIONARY
  5
10
102
{ACAD_REACTORS
330
C
102
}
330
C
100
AcDbDictionary
281
     1
  3
ByBlock
350
19
  3
ByLayer
350
11
  3
Global
350
21
  0
DICTIONARY
  5
66
102
{ACAD_REACTORS
330
C
102
}
330
C
100
AcDbDictionary
281
     1
  3
Standard
350
67
  0
DICTIONARY
  5
5F
102
{ACAD_REACTORS
330
C
102
}
330
C
100
AcDbDictionary
281
     1
  3
Standard
350
60
  0
DICTIONARY
  5
61
102
{ACAD_REACTORS
330
C
102
}
330
C
100
AcDbDictionary
281
     1
  0
ACDBDICTIONARYWDFLT
  5
E
102
{ACAD_REACTORS
330
C
102
}
330
C
100
AcDbDictionary
281
     1
  3
Normal
350
F
100
AcDbDictionaryWithDefault
340
F
  0
DICTIONARY
  5
42
102
{ACAD_REACTORS
330
C
102
}
330
C
100
AcDbDictionary
281
     1
  3
A0
350
43
  3
A1
350
44
  3
A2
350
45
  3
A3
350
46
  3
A4
350
47
  3
A5
350
48
  3
A6
350
49
  3
A7
350
4A
  3
A8
350
4B
  3
A9
350
4C
  3
B0
350
4D
  3
B1
350
4E
  3
B2
350
4F
  3
B3
350
50
  3
B4
350
51
  3
B5
350
52
  3
B6
350
53
  0
DICTIONARY
  5
68
102
{ACAD_REACTORS
330
C
102
}
330
C
100
AcDbDictionary
281
     1
  3
Imperial24
350
69
  0
DICTIONARY
  5
64
102
{ACAD_REACTORS
330
C
102
}
330
C
100
AcDbDictionary
281
     1
  3
Standard
350
65
  0
DICTIONARY
  5
29
102
{ACAD_REACTORS
330
C
102
}
330
C
100
AcDbDictionary
281
     1
  3
2dWireframe
350
2F
  3
Basic
350
2E
  3
Brighten
350
35
  3
ColorChange
350
39
  3
Conceptual
350
32
  3
Dim
350
34
  3
EdgeColorOff
350
41
  3
Facepattern
350
38
  3
Flat
350
2A
  3
FlatWithEdges
350
2B
  3
Gouraud
350
2C
  3
GouraudWithEdges
350
2D
  3
Hidden
350
31
  3
JitterOff
350
3F
  3
Linepattern
350
37
  3
OverhangOff
350
40
  3
Realistic
350
33
  3
Shaded
350
3E
  3
Shaded with edges
350
3D
  3
Shades of Gray
350
3A
  3
Sketchy
350
3B
  3
Thicken
350
36
  3
Wireframe
350
30
  3
X-Ray
350
3C
  0
XRECORD
  5
10C
102
{ACAD_REACTORS
330
C
102
}
330
C
100
AcDbXrecord
280
     1
 90
        1
330
65
  0
DICTIONARY
  5
104
102
{ACAD_REACTORS
330
C
102
}
330
C
100
AcDbDictionary
281
     1
  3
CANNOSCALE
350
109
  3
CMLEADERSTYLE
350
106
  3
CTABLESTYLE
350
105
  3
CVIEWDETAILSTYLE
350
107
  3
CVIEWSECTIONSTYLE
350
108
  0
ACDBDETAILVIEWSTYLE
  5
6B
102
{ACAD_XDICTIONARY
360
141
102
}
102
{ACAD_REACTORS
330
6A
102
}
330
6A
100
AcDbModelDocViewStyle
 70
     0
  3
Imperial24
290
     0
100
AcDbDetailViewStyle
 70
     0
 71
     0
 90
        3
 71
     1
340
55
 62
   256
 40
0.24
340
0
 62
   256
 40
0.24
300

 40
0.36
280
     3
 71
     2
340
5D
 90
       25
 62
   256
 71
     3
340
55
 62
   256
 40
0.24
 90
        1
 40
0.75
 90
        1
300
%<\AcVar ViewType \f "%tc1">% %<\AcVar ViewDetailId>%\PSCALE %<\AcVar ViewScale \f "%sn">%
 71
     4
340
5D
 90
       25
 62
   256
340
5D
 90
       25
 62
   256
280
     0
  0
LAYOUT
  5
6F
102
{ACAD_REACTORS
330
62
102
}
330
62
100
AcDbPlotSettings
  1

  2

  4

  6

 40
0.0
 41
0.0
 42
0.0
 43
0.0
 44
0.0
 45
0.0
 46
0.0
 47
0.0
 48
0.0
 49
0.0
140
0.0
141
0.0
142
1.0
143
1.0
 70
   688
 72
     0
 73
     0
 74
     5
  7

 75
    16
147
1.0
 76
     0
 77
     2
 78
   300
148
0.0
149
0.0
100
AcDbLayout
  1
Layout1
 70
     1
 71
     1
 10
0.0
 20
0.0
 11
12.0
 21
9.0
 12
0.0
 22
0.0
 32
0.0
 14
0.0
 24
0.0
 34
0.0
 15
0.0
 25
0.0
 35
0.0
146
0.0
 13
0.0
 23
0.0
 33
0.0
 16
1.0
 26
0.0
 36
0.0
 17
0.0
 27
1.0
 37
0.0
 76
     0
330
6C
  0
LAYOUT
  5
77
102
{ACAD_REACTORS
330
62
102
}
330
62
100
AcDbPlotSettings
  1

  2

  4

  6

 40
0.0
 41
0.0
 42
0.0
 43
0.0
 44
0.0
 45
0.0
 46
0.0
 47
0.0
 48
0.0
 49
0.0
140
0.0
141
0.0
142
1.0
143
1.0
 70
   688
 72
     0
 73
     0
 74
     5
  7

 75
    16
147
1.0
 76
     0
 77
     2
 78
   300
148
0.0
149
0.0
100
AcDbLayout
  1
Layout2
 70
     1
 71
     2
 10
0.0
 20
0.0
 11
12.0
 21
9.0
 12
0.0
 22
0.0
 32
0.0
 14
0.0
 24
0.0
 34
0.0
 15
0.0
 25
0.0
 35
0.0
146
0.0
 13
0.0
 23
0.0
 33
0.0
 16
1.0
 26
0.0
 36
0.0
 17
0.0
 27
1.0
 37
0.0
 76
     0
330
74
  0
LAYOUT
  5
73
102
{ACAD_REACTORS
330
62
102
}
330
62
100
AcDbPlotSettings
  1

  2

  4

  6

 40
0.0
 41
0.0
 42
0.0
 43
0.0
 44
0.0
 45
0.0
 46
0.0
 47
0.0
 48
0.0
 49
0.0
140
0.0
141
0.0
142
1.0
143
1.0
 70
  1712
 72
     0
 73
     0
 74
     0
  7

 75
     0
147
1.0
 76
     0
 77
     2
 78
   300
148
0.0
149
0.0
100
AcDbLayout
  1
Model
 70
     1
 71
     0
 10
0.0
 20
0.0
 11
12.0
 21
9.0
 12
0.0
 22
0.0
 32
0.0
 14
0.0
 24
0.0
 34
0.0
 15
0.0
 25
0.0
 35
0.0
146
0.0
 13
0.0
 23
0.0
 33
0.0
 16
1.0
 26
0.0
 36
0.0
 17
0.0
 27
1.0
 37
0.0
 76
     0
330
70
  0
MATERIAL
  5
19
102
{ACAD_XDICTIONARY
360
1A
102
}
102
{ACAD_REACTORS
330
10
102
}
330
10
100
AcDbMaterial
  1
ByBlock
 72
     0
 43
0.0208333333333333
 43
0.0
 43
0.0
 43
0.0
 43
0.0
 43
0.0208333333333333
 43
0.0
 43
0.0
 43
0.0
 43
0.0
 43
1.0
 43
0.0
 43
0.0
 43
0.0
 43
0.0
 43
1.0
 77
     0
 47
0.0208333333333333
 47
0.0
 47
0.0
 47
0.0
 47
0.0
 47
0.0208333333333333
 47
0.0
 47
0.0
 47
0.0
 47
0.0
 47
1.0
 47
0.0
 47
0.0
 47
0.0
 47
0.0
 47
1.0
171
     0
 49
0.0208333333333333
 49
0.0
 49
0.0
 49
0.0
 49
0.0
 49
0.0208333333333333
 49
0.0
 49
0.0
 49
0.0
 49
0.0
 49
1.0
 49
0.0
 49
0.0
 49
0.0
 49
0.0
 49
1.0
175
     0
142
0.0208333333333333
142
0.0
142
0.0
142
0.0
142
0.0
142
0.0208333333333333
142
0.0
142
0.0
142
0.0
142
0.0
142
1.0
142
0.0
142
0.0
142
0.0
142
0.0
142
1.0
179
     0
144
0.0208333333333333
144
0.0
144
0.0
144
0.0
144
0.0
144
0.0208333333333333
144
0.0
144
0.0
144
0.0
144
0.0
144
1.0
144
0.0
144
0.0
144
0.0
144
0.0
144
1.0
147
0.0208333333333333
147
0.0
147
0.0
147
0.0
147
0.0
147
0.0208333333333333
147
0.0
147
0.0
147
0.0
147
0.0
147
1.0
147
0.0
147
0.0
147
0.0
147
0.0
147
1.0
  0
MATERIAL
  5
11
102
{ACAD_XDICTIONARY
360
12
102
}
102
{ACAD_REACTORS
330
10
102
}
330
10
100
AcDbMaterial
  1
ByLayer
 72
     0
 43
0.0208333333333333
 43
0.0
 43
0.0
 43
0.0
 43
0.0
 43
0.0208333333333333
 43
0.0
 43
0.0
 43
0.0
 43
0.0
 43
1.0
 43
0.0
 43
0.0
 43
0.0
 43
0.0
 43
1.0
 77
     0
 47
0.0208333333333333
 47
0.0
 47
0.0
 47
0.0
 47
0.0
 47
0.0208333333333333
 47
0.0
 47
0.0
 47
0.0
 47
0.0
 47
1.0
 47
0.0
 47
0.0
 47
0.0
 47
0.0
 47
1.0
171
     0
 49
0.0208333333333333
 49
0.0
 49
0.0
 49
0.0
 49
0.0
 49
0.0208333333333333
 49
0.0
 49
0.0
 49
0.0
 49
0.0
 49
1.0
 49
0.0
 49
0.0
 49
0.0
 49
0.0
 49
1.0
175
     0
142
0.0208333333333333
142
0.0
142
0.0
142
0.0
142
0.0
142
0.0208333333333333
142
0.0
142
0.0
142
0.0
142
0.0
142
1.0
142
0.0
142
0.0
142
0.0
142
0.0
142
1.0
179
     0
144
0.0208333333333333
144
0.0
144
0.0
144
0.0
144
0.0
144
0.0208333333333333
144
0.0
144
0.0
144
0.0
144
0.0
144
1.0
144
0.0
144
0.0
144
0.0
144
0.0
144
1.0
147
0.0208333333333333
147
0.0
147
0.0
147
0.0
147
0.0
147
0.0208333333333333
147
0.0
147
0.0
147
0.0
147
0.0
147
1.0
147
0.0
147
0.0
147
0.0
147
0.0
147
1.0
  0
MATERIAL
  5
21
102
{ACAD_XDICTIONARY
360
22
102
}
102
{ACAD_REACTORS
330
10
102
}
330
10
100
AcDbMaterial
  1
Global
 72
     0
 43
0.0208333333333333
 43
0.0
 43
0.0
 43
0.0
 43
0.0
 43
0.0208333333333333
 43
0.0
 43
0.0
 43
0.0
 43
0.0
 43
1.0
 43
0.0
 43
0.0
 43
0.0
 43
0.0
 43
1.0
 77
     0
 47
0.0208333333333333
 47
0.0
 47
0.0
 47
0.0
 47
0.0
 47
0.0208333333333333
 47
0.0
 47
0.0
 47
0.0
 47
0.0
 47
1.0
 47
0.0
 47
0.0
 47
0.0
 47
0.0
 47
1.0
171
     0
 49
0.0208333333333333
 49
0.0
 49
0.0
 49
0.0
 49
0.0
 49
0.0208333333333333
 49
0.0
 49
0.0
 49
0.0
 49
0.0
 49
1.0
 49
0.0
 49
0.0
 49
0.0
 49
0.0
 49
1.0
175
     0
142
0.0208333333333333
142
0.0
142
0.0
142
0.0
142
0.0
142
0.0208333333333333
142
0.0
142
0.0
142
0.0
142
0.0
142
1.0
142
0.0
142
0.0
142
0.0
142
0.0
142
1.0
179
     0
144
0.0208333333333333
144
0.0
144
0.0
144
0.0
144
0.0
144
0.0208333333333333
144
0.0
144
0.0
144
0.0
144
0.0
144
1.0
144
0.0
144
0.0
144
0.0
144
0.0
144
1.0
147
0.0208333333333333
147
0.0
147
0.0
147
0.0
147
0.0
147
0.0208333333333333
147
0.0
147
0.0
147
0.0
147
0.0
147
1.0
147
0.0
147
0.0
147
0.0
147
0.0
147
1.0
  0
MLEADERSTYLE
  5
67
102
{ACAD_XDICTIONARY
360
13D
102
}
102
{ACAD_REACTORS
330
66
102
}
330
66
100
AcDbMLeaderStyle
179
     2
170
     2
171
     1
172
     0
 90
        2
 40
0.0
 41
0.0
173
     1
 91
-1056964608
340
5B
 92
       -2
290
     1
 42
0.09
291
     1
 43
0.36
  3
Standard
 44
0.18
300

342
55
174
     1
178
     6
175
     1
176
     0
 93
-1056964608
 45
0.18
292
     0
297
     0
 46
0.18
 94
-1056964608
 47
1.0
 49
1.0
140
1.0
293
     1
141
0.0
294
     1
177
     0
142
1.0
295
     0
296
     0
143
0.125
271
     0
272
     9
273
     9
  0
MLINESTYLE
  5
60
102
{ACAD_REACTORS
330
5F
102
}
330
5F
100
AcDbMlineStyle
  2
STANDARD
 70
     0
  3

 62
   256
 51
90.0
 52
90.0
 71
     2
 49
0.5
 62
   256
  6
BYLAYER
 49
-0.5
 62
   256
  6
BYLAYER
  0
ACDBPLACEHOLDER
  5
F
102
{ACAD_REACTORS
330
E
102
}
330
E
  0
SCALE
  5
43
102
{ACAD_REACTORS
330
42
102
}
330
42
100
AcDbScale
 70
     0
300
1:1
140
1.0
141
1.0
290
     1
  0
SCALE
  5
44
102
{ACAD_REACTORS
330
42
102
}
330
42
100
AcDbScale
 70
     0
300
1/128" = 1'-0"
140
0.0078125
141
12.0
290
     0
  0
SCALE
  5
45
102
{ACAD_REACTORS
330
42
102
}
330
42
100
AcDbScale
 70
     0
300
1/64" = 1'-0"
140
0.015625
141
12.0
290
     0
  0
SCALE
  5
46
102
{ACAD_REACTORS
330
42
102
}
330
42
100
AcDbScale
 70
     0
300
1/32" = 1'-0"
140
0.03125
141
12.0
290
     0
  0
SCALE
  5
47
102
{ACAD_REACTORS
330
42
102
}
330
42
100
AcDbScale
 70
     0
300
1/16" = 1'-0"
140
0.0625
141
12.0
290
     0
  0
SCALE
  5
48
102
{ACAD_REACTORS
330
42
102
}
330
42
100
AcDbScale
 70
     0
300
3/32" = 1'-0"
140
0.09375
141
12.0
290
     0
  0
SCALE
  5
49
102
{ACAD_REACTORS
330
42
102
}
330
42
100
AcDbScale
 70
     0
300
1/8" = 1'-0"
140
0.125
141
12.0
290
     0
  0
SCALE
  5
4A
102
{ACAD_REACTORS
330
42
102
}
330
42
100
AcDbScale
 70
     0
300
3/16" = 1'-0"
140
0.1875
141
12.0
290
     0
  0
SCALE
  5
4B
102
{ACAD_REACTORS
330
42
102
}
330
42
100
AcDbScale
 70
     0
300
1/4" = 1'-0"
140
0.25
141
12.0
290
     0
  0
SCALE
  5
4C
102
{ACAD_REACTORS
330
42
102
}
330
42
100
AcDbScale
 70
     0
300
3/8" = 1'-0"
140
0.375
141
12.0
290
     0
  0
SCALE
  5
4D
102
{ACAD_REACTORS
330
42
102
}
330
42
100
AcDbScale
 70
     0
300
1/2" = 1'-0"
140
0.5
141
12.0
290
     0
  0
SCALE
  5
4E
102
{ACAD_REACTORS
330
42
102
}
330
42
100
AcDbScale
 70
     0
300
3/4" = 1'-0"
140
0.75
141
12.0
290
     0
  0
SCALE
  5
4F
102
{ACAD_REACTORS
330
42
102
}
330
42
100
AcDbScale
 70
     0
300
1" = 1'-0"
140
1.0
141
12.0
290
     0
  0
SCALE
  5
50
102
{ACAD_REACTORS
330
42
102
}
330
42
100
AcDbScale
 70
     0
300
1-1/2" = 1'-0"
140
1.5
141
12.0
290
     0
  0
SCALE
  5
51
102
{ACAD_REACTORS
330
42
102
}
330
42
100
AcDbScale
 70
     0
300
3" = 1'-0"
140
3.0
141
12.0
290
     0
  0
SCALE
  5
52
102
{ACAD_REACTORS
330
42
102
}
330
42
100
AcDbScale
 70
     0
300
6" = 1'-0"
140
6.0
141
12.0
290
     0
  0
SCALE
  5
53
102
{ACAD_REACTORS
330
42
102
}
330
42
100
AcDbScale
 70
     0
300
1'-0" = 1'-0"
140
12.0
141
12.0
290
     0
  0
ACDBSECTIONVIEWSTYLE
  5
69
102
{ACAD_XDICTIONARY
360
13F
102
}
102
{ACAD_REACTORS
330
68
102
}
330
68
100
AcDbModelDocViewStyle
 70
     0
  3
Imperial24
290
     0
100
AcDbSectionViewStyle
 70
     0
 71
     0
 90
       78
 71
     1
340
55
 62
   256
 40
0.24
340
0
340
0
 62
   256
 40
0.24
300
I, O, Q, S, X, Z
 40
0.48
 90
        3
 40
0.18
 90
        1
 71
     2
340
5D
 90
       25
 62
   256
340
5D
 90
       50
 62
   256
 40
0.24
 40
0.0
 40
0.24
 71
     3
340
55
 62
   256
 40
0.24
 90
        1
 40
0.75
 90
        1
300
%<\AcVar ViewType \f "%tc1">% %<\AcVar ViewSectionStartId>%-%<\AcVar ViewSectionEndId>%\PSCALE %<\AcVar ViewScale \f "%sn">%
 71
     4
 62
   256
 62
   257
300
ANSI31
 40
1.0
 90
        0
290
     0
290
     0
 90
        6
 40
0.0
 40
1.570796326794896
 40
0.2617993877991494
 40
1.308996938995747
 40
-0.2617993877991494
 40
1.832595714594046
  0
TABLESTYLE
  5
65
102
{ACAD_XDICTIONARY
360
10A
102
}
102
{ACAD_REACTORS
330
64
102
}
330
64
100
AcDbTableStyle
280
     0
  3
Standard
 70
     0
 71
     0
 40
0.06
 41
0.06
280
     0
281
     0
  7
Standard
140
0.18
170
     2
 62
     0
 63
     7
283
     0
 90
      512
 91
        0
  1

274
    -2
284
     1
 64
     0
275
    -2
285
     1
 65
     0
276
    -2
286
     1
 66
     0
277
    -2
287
     1
 67
     0
278
    -2
288
     1
 68
     0
279
    -2
289
     1
 69
     0
  7
Standard
140
0.25
170
     5
 62
     0
 63
     7
283
     0
 90
      512
 91
        0
  1

274
    -2
284
     1
 64
     0
275
    -2
285
     1
 65
     0
276
    -2
286
     1
 66
     0
277
    -2
287
     1
 67
     0
278
    -2
288
     1
 68
     0
279
    -2
289
     1
 69
     0
  7
Standard
140
0.18
170
     5
 62
     0
 63
     7
283
     0
 90
      512
 91
        0
  1

274
    -2
284
     1
 64
     0
275
    -2
285
     1
 65
     0
276
    -2
286
     1
 66
     0
277
    -2
287
     1
 67
     0
278
    -2
288
     1
 68
     0
279
    -2
289
     1
 69
     0
  0
VISUALSTYLE
  5
2F
102
{ACAD_XDICTIONARY
360
117
102
}
102
{ACAD_REACTORS
330
29
102
}
330
29
100
AcDbVisualStyle
  2
2dWireframe
 70
     4
177
     2
291
     0
 71
     0
176
     1
 72
     2
176
     1
 73
     0
176
     1
 90
        0
176
     1
 40
0.6
176
     1
 41
30.0
176
     1
 63
     7
421
 16777215
176
     1
 74
     1
176
     1
 91
        4
176
     1
 64
     7
176
     1
 65
   257
176
     1
 75
     1
176
     1
175
     1
176
     1
 42
1.0
176
     1
 92
        0
176
     1
 66
   257
176
     1
 43
1.0
176
     1
 76
     1
176
     1
 77
     6
176
     1
 78
     2
176
     1
 67
     7
176
     1
 79
     5
176
     1
170
     0
176
     1
171
     0
176
     1
290
     0
176
     1
 93
        1
176
     1
 44
0.0
176
     1
173
     0
176
     1
1001
ACAD
1000
AcDbSavedByObjectVersion
1070
     0
  0
VISUALSTYLE
  5
2E
102
{ACAD_XDICTIONARY
360
115
102
}
102
{ACAD_REACTORS
330
29
102
}
330
29
100
AcDbVisualStyle
  2
Basic
 70
     7
177
     2
291
     1
 71
     1
176
     1
 72
     0
176
     1
 73
     1
176
     1
 90
        0
176
     1
 40
0.6
176
     1
 41
30.0
176
     1
 63
     7
421
 16777215
176
     1
 74
     0
176
     1
 91
        4
176
     1
 64
     7
176
     1
 65
   257
176
     1
 75
     1
176
     1
175
     1
176
     1
 42
1.0
176
     1
 92
        8
176
     1
 66
     7
176
     1
 43
1.0
176
     1
 76
     1
176
     1
 77
     6
176
     1
 78
     2
176
     1
 67
     7
176
     1
 79
     5
176
     1
170
     0
176
     1
171
     0
176
     1
290
     0
176
     1
 93
        1
176
     1
 44
0.0
176
     1
173
     0
176
     1
1001
ACAD
1000
AcDbSavedByObjectVersion
1070
     0
  0
VISUALSTYLE
  5
35
102
{ACAD_XDICTIONARY
360
123
102
}
102
{ACAD_REACTORS
330
29
102
}
330
29
100
AcDbVisualStyle
  2
Brighten
 70
    12
177
     2
291
     1
 71
     2
176
     1
 72
     2
176
     1
 73
     0
176
     1
 90
        0
176
     1
 40
0.6
176
     1
 41
30.0
176
     1
 63
     7
421
 16777215
176
     1
 74
     1
176
     1
 91
        4
176
     1
 64
     7
176
     1
 65
   257
176
     1
 75
     1
176
     1
175
     1
176
     1
 42
1.0
176
     1
 92
        8
176
     1
 66
     7
176
     1
 43
1.0
176
     1
 76
     1
176
     1
 77
     6
176
     1
 78
     2
176
     1
 67
     7
176
     1
 79
     5
176
     1
170
     0
176
     1
171
     0
176
     1
290
     0
176
     1
 93
        1
176
     1
 44
50.0
176
     1
173
     0
176
     1
1001
ACAD
1000
AcDbSavedByObjectVersion
1070
     0
  0
VISUALSTYLE
  5
39
102
{ACAD_XDICTIONARY
360
12B
102
}
102
{ACAD_REACTORS
330
29
102
}
330
29
100
AcDbVisualStyle
  2
ColorChange
 70
    16
177
     2
291
     1
 71
     2
176
     1
 72
     2
176
     1
 73
     3
176
     1
 90
        0
176
     1
 40
0.6
176
     1
 41
30.0
176
     1
 63
     8
421
  8421504
176
     1
 74
     1
176
     1
 91
        4
176
     1
 64
     7
176
     1
 65
   257
176
     1
 75
     1
176
     1
175
     1
176
     1
 42
1.0
176
     1
 92
        8
176
     1
 66
     8
424
  8421504
176
     1
 43
1.0
176
     1
 76
     1
176
     1
 77
     6
176
     1
 78
     2
176
     1
 67
     7
176
     1
 79
     5
176
     1
170
     0
176
     1
171
     0
176
     1
290
     0
176
     1
 93
        1
176
     1
 44
0.0
176
     1
173
     0
176
     1
1001
ACAD
1000
AcDbSavedByObjectVersion
1070
     0
  0
VISUALSTYLE
  5
32
102
{ACAD_XDICTIONARY
360
11D
102
}
102
{ACAD_REACTORS
330
29
102
}
330
29
100
AcDbVisualStyle
  2
Conceptual
 70
     9
177
     2
291
     0
 71
     3
176
     1
 72
     2
176
     1
 73
     0
176
     1
 90
        0
176
     1
 40
0.6
176
     1
 41
30.0
176
     1
 63
     7
421
 16777215
176
     1
 74
     2
176
     1
 91
        2
176
     1
 64
     7
176
     1
 65
   257
176
     1
 75
     1
176
     1
175
     1
176
     1
 42
179.0
176
     1
 92
        8
176
     1
 66
     7
176
     1
 43
1.0
176
     1
 76
     1
176
     1
 77
     6
176
     1
 78
     2
176
     1
 67
     7
176
     1
 79
     3
176
     1
170
     0
176
     1
171
     0
176
     1
290
     0
176
     1
 93
        1
176
     1
 44
0.0
176
     1
173
     0
176
     1
1001
ACAD
1000
AcDbSavedByObjectVersion
1070
     0
  0
VISUALSTYLE
  5
34
102
{ACAD_XDICTIONARY
360
121
102
}
102
{ACAD_REACTORS
330
29
102
}
330
29
100
AcDbVisualStyle
  2
Dim
 70
    11
177
     2
291
     1
 71
     2
176
     1
 72
     2
176
     1
 73
     0
176
     1
 90
        0
176
     1
 40
0.6
176
     1
 41
30.0
176
     1
 63
     7
421
 16777215
176
     1
 74
     1
176
     1
 91
        4
176
     1
 64
     7
176
     1
 65
   257
176
     1
 75
     1
176
     1
175
     1
176
     1
 42
1.0
176
     1
 92
        8
176
     1
 66
     7
176
     1
 43
1.0
176
     1
 76
     1
176
     1
 77
     6
176
     1
 78
     2
176
     1
 67
     7
176
     1
 79
     5
176
     1
170
     0
176
     1
171
     0
176
     1
290
     0
176
     1
 93
        1
176
     1
 44
-50.0
176
     1
173
     0
176
     1
1001
ACAD
1000
AcDbSavedByObjectVersion
1070
     0
  0
VISUALSTYLE
  5
41
102
{ACAD_XDICTIONARY
360
13B
102
}
102
{ACAD_REACTORS
330
29
102
}
330
29
100
AcDbVisualStyle
  2
EdgeColorOff
 70
    22
177
     2
291
     1
 71
     2
176
     0
 72
     2
176
     0
 73
     0
176
     0
 90
        0
176
     0
 40
0.6
176
     0
 41
30.0
176
     0
 63
     7
421
 16777215
176
     0
 74
     1
176
     0
 91
        4
176
     0
 64
     7
176
     0
 65
   257
176
     0
 75
     1
176
     0
175
     1
176
     0
 42
1.0
176
     0
 92
        8
176
     2
 66
     7
176
     0
 43
1.0
176
     0
 76
     1
176
     0
 77
     6
176
     0
 78
     2
176
     0
 67
     7
176
     0
 79
     5
176
     0
170
     0
176
     0
171
     0
176
     0
290
     0
176
     0
 93
        1
176
     0
 44
0.0
176
     0
173
     0
176
     0
1001
ACAD
1000
AcDbSavedByObjectVersion
1070
     0
  0
VISUALSTYLE
  5
38
102
{ACAD_XDICTIONARY
360
129
102
}
102
{ACAD_REACTORS
330
29
102
}
330
29
100
AcDbVisualStyle
  2
Facepattern
 70
    15
177
     2
291
     1
 71
     2
176
     1
 72
     2
176
     1
 73
     0
176
     1
 90
        0
176
     1
 40
0.6
176
     1
 41
30.0
176
     1
 63
     7
421
 16777215
176
     1
 74
     1
176
     1
 91
        4
176
     1
 64
     7
176
     1
 65
   257
176
     1
 75
     1
176
     1
175
     1
176
     1
 42
1.0
176
     1
 92
        8
176
     1
 66
     7
176
     1
 43
1.0
176
     1
 76
     1
176
     1
 77
     6
176
     1
 78
     2
176
     1
 67
     7
176
     1
 79
     5
176
     1
170
     0
176
     1
171
     0
176
     1
290
     0
176
     1
 93
        1
176
     1
 44
0.0
176
     1
173
     0
176
     1
1001
ACAD
1000
AcDbSavedByObjectVersion
1070
     0
  0
VISUALSTYLE
  5
2A
102
{ACAD_XDICTIONARY
360
10D
102
}
102
{ACAD_REACTORS
330
29
102
}
330
29
100
AcDbVisualStyle
  2
Flat
 70
     0
177
     2
291
     1
 71
     2
176
     1
 72
     1
176
     1
 73
     1
176
     1
 90
        2
176
     1
 40
0.6
176
     1
 41
30.0
176
     1
 63
     7
421
 16777215
176
     1
 74
     0
176
     1
 91
        0
176
     1
 64
     7
176
     1
 65
   257
176
     1
 75
     1
176
     1
175
     1
176
     1
 42
1.0
176
     1
 92
        8
176
     1
 66
     7
176
     1
 43
1.0
176
     1
 76
     1
176
     1
 77
     6
176
     1
 78
     2
176
     1
 67
     7
176
     1
 79
     5
176
     1
170
     0
176
     1
171
     0
176
     1
290
     0
176
     1
 93
       13
176
     1
 44
0.0
176
     1
173
     0
176
     1
1001
ACAD
1000
AcDbSavedByObjectVersion
1070
     0
  0
VISUALSTYLE
  5
2B
102
{ACAD_XDICTIONARY
360
10F
102
}
102
{ACAD_REACTORS
330
29
102
}
330
29
100
AcDbVisualStyle
  2
FlatWithEdges
 70
     1
177
     2
291
     1
 71
     2
176
     1
 72
     1
176
     1
 73
     1
176
     1
 90
        2
176
     1
 40
0.6
176
     1
 41
30.0
176
     1
 63
     7
421
 16777215
176
     1
 74
     1
176
     1
 91
        0
176
     1
 64
     7
176
     1
 65
   257
176
     1
 75
     1
176
     1
175
     1
176
     1
 42
1.0
176
     1
 92
        0
176
     1
 66
   257
176
     1
 43
1.0
176
     1
 76
     1
176
     1
 77
     6
176
     1
 78
     2
176
     1
 67
     7
176
     1
 79
     5
176
     1
170
     0
176
     1
171
     0
176
     1
290
     0
176
     1
 93
       13
176
     1
 44
0.0
176
     1
173
     0
176
     1
1001
ACAD
1000
AcDbSavedByObjectVersion
1070
     0
  0
VISUALSTYLE
  5
2C
102
{ACAD_XDICTIONARY
360
111
102
}
102
{ACAD_REACTORS
330
29
102
}
330
29
100
AcDbVisualStyle
  2
Gouraud
 70
     2
177
     2
291
     1
 71
     2
176
     1
 72
     2
176
     1
 73
     1
176
     1
 90
        2
176
     1
 40
0.6
176
     1
 41
30.0
176
     1
 63
     7
421
 16777215
176
     1
 74
     0
176
     1
 91
        0
176
     1
 64
     7
176
     1
 65
   257
176
     1
 75
     1
176
     1
175
     1
176
     1
 42
1.0
176
     1
 92
        0
176
     1
 66
     7
176
     1
 43
1.0
176
     1
 76
     1
176
     1
 77
     6
176
     1
 78
     2
176
     1
 67
     7
176
     1
 79
     5
176
     1
170
     0
176
     1
171
     0
176
     1
290
     0
176
     1
 93
       13
176
     1
 44
0.0
176
     1
173
     0
176
     1
1001
ACAD
1000
AcDbSavedByObjectVersion
1070
     0
  0
VISUALSTYLE
  5
2D
102
{ACAD_XDICTIONARY
360
113
102
}
102
{ACAD_REACTORS
330
29
102
}
330
29
100
AcDbVisualStyle
  2
GouraudWithEdges
 70
     3
177
     2
291
     1
 71
     2
176
     1
 72
     2
176
     1
 73
     1
176
     1
 90
        2
176
     1
 40
0.6
176
     1
 41
30.0
176
     1
 63
     7
421
 16777215
176
     1
 74
     1
176
     1
 91
        0
176
     1
 64
     7
176
     1
 65
   257
176
     1
 75
     1
176
     1
175
     1
176
     1
 42
1.0
176
     1
 92
        0
176
     1
 66
   257
176
     1
 43
1.0
176
     1
 76
     1
176
     1
 77
     6
176
     1
 78
     2
176
     1
 67
     7
176
     1
 79
     5
176
     1
170
     0
176
     1
171
     0
176
     1
290
     0
176
     1
 93
       13
176
     1
 44
0.0
176
     1
173
     0
176
     1
1001
ACAD
1000
AcDbSavedByObjectVersion
1070
     0
  0
VISUALSTYLE
  5
31
102
{ACAD_XDICTIONARY
360
11B
102
}
102
{ACAD_REACTORS
330
29
102
}
330
29
100
AcDbVisualStyle
  2
Hidden
 70
     6
177
     2
291
     0
 71
     1
176
     1
 72
     2
176
     1
 73
     2
176
     1
 90
        0
176
     1
 40
0.6
176
     1
 41
30.0
176
     1
 63
     7
421
 16777215
176
     1
 74
     2
176
     1
 91
        2
176
     1
 64
     7
176
     1
 65
   257
176
     1
 75
     2
176
     1
175
     1
176
     1
 42
40.0
176
     1
 92
        0
176
     1
 66
   257
176
     1
 43
1.0
176
     1
 76
     1
176
     1
 77
     6
176
     1
 78
     2
176
     1
 67
     7
176
     1
 79
     3
176
     1
170
     0
176
     1
171
     0
176
     1
290
     0
176
     1
 93
        1
176
     1
 44
0.0
176
     1
173
     0
176
     1
1001
ACAD
1000
AcDbSavedByObjectVersion
1070
     0
  0
VISUALSTYLE
  5
3F
102
{ACAD_XDICTIONARY
360
137
102
}
102
{ACAD_REACTORS
330
29
102
}
330
29
100
AcDbVisualStyle
  2
JitterOff
 70
    20
177
     2
291
     1
 71
     2
176
     0
 72
     2
176
     0
 73
     0
176
     0
 90
        0
176
     0
 40
0.6
176
     0
 41
30.0
176
     0
 63
     7
421
 16777215
176
     0
 74
     1
176
     0
 91
        4
176
     0
 64
     7
176
     0
 65
   257
176
     0
 75
     1
176
     0
175
     1
176
     0
 42
1.0
176
     0
 92
       10
176
     2
 66
     7
176
     0
 43
1.0
176
     0
 76
     1
176
     0
 77
     6
176
     0
 78
     2
176
     0
 67
     7
176
     0
 79
     5
176
     0
170
     0
176
     0
171
     0
176
     0
290
     0
176
     0
 93
        1
176
     0
 44
0.0
176
     0
173
     0
176
     0
1001
ACAD
1000
AcDbSavedByObjectVersion
1070
     0
  0
VISUALSTYLE
  5
37
102
{ACAD_XDICTIONARY
360
127
102
}
102
{ACAD_REACTORS
330
29
102
}
330
29
100
AcDbVisualStyle
  2
Linepattern
 70
    14
177
     2
291
     1
 71
     2
176
     1
 72
     2
176
     1
 73
     0
176
     1
 90
        0
176
     1
 40
0.6
176
     1
 41
30.0
176
     1
 63
     7
421
 16777215
176
     1
 74
     1
176
     1
 91
        4
176
     1
 64
     7
176
     1
 65
   257
176
     1
 75
     7
176
     1
175
     7
176
     1
 42
1.0
176
     1
 92
        8
176
     1
 66
     7
176
     1
 43
1.0
176
     1
 76
     1
176
     1
 77
     6
176
     1
 78
     2
176
     1
 67
     7
176
     1
 79
     5
176
     1
170
     0
176
     1
171
     0
176
     1
290
     0
176
     1
 93
        1
176
     1
 44
0.0
176
     1
173
     0
176
     1
1001
ACAD
1000
AcDbSavedByObjectVersion
1070
     0
  0
VISUALSTYLE
  5
40
102
{ACAD_XDICTIONARY
360
139
102
}
102
{ACAD_REACTORS
330
29
102
}
330
29
100
AcDbVisualStyle
  2
OverhangOff
 70
    21
177
     2
291
     1
 71
     2
176
     0
 72
     2
176
     0
 73
     0
176
     0
 90
        0
176
     0
 40
0.6
176
     0
 41
30.0
176
     0
 63
     7
421
 16777215
176
     0
 74
     1
176
     0
 91
        4
176
     0
 64
     7
176
     0
 65
   257
176
     0
 75
     1
176
     0
175
     1
176
     0
 42
1.0
176
     0
 92
        9
176
     2
 66
     7
176
     0
 43
1.0
176
     0
 76
     1
176
     0
 77
     6
176
     0
 78
     2
176
     0
 67
     7
176
     0
 79
     5
176
     0
170
     0
176
     0
171
     0
176
     0
290
     0
176
     0
 93
        1
176
     0
 44
0.0
176
     0
173
     0
176
     0
1001
ACAD
1000
AcDbSavedByObjectVersion
1070
     0
  0
VISUALSTYLE
  5
33
102
{ACAD_XDICTIONARY
360
11F
102
}
102
{ACAD_REACTORS
330
29
102
}
330
29
100
AcDbVisualStyle
  2
Realistic
 70
     8
177
     2
291
     0
 71
     2
176
     1
 72
     3
176
     1
 73
     0
176
     1
 90
        2
176
     1
 40
0.6
176
     1
 41
30.0
176
     1
 63
     7
421
 16777215
176
     1
 74
     0
176
     1
 91
        0
176
     1
 64
     7
176
     1
 65
   257
176
     1
 75
     1
176
     1
175
     1
176
     1
 42
1.0
176
     1
 92
        8
176
     1
 66
   257
176
     1
 43
1.0
176
     1
 76
     1
176
     1
 77
     6
176
     1
 78
     2
176
     1
 67
     7
176
     1
 79
     3
176
     1
170
     0
176
     1
171
     0
176
     1
290
     0
176
     1
 93
       13
176
     1
 44
0.0
176
     1
173
     0
176
     1
1001
ACAD
1000
AcDbSavedByObjectVersion
1070
     0
  0
VISUALSTYLE
  5
3E
102
{ACAD_XDICTIONARY
360
135
102
}
102
{ACAD_REACTORS
330
29
102
}
330
29
100
AcDbVisualStyle
  2
Shaded
 70
    27
177
     2
291
     0
 71
     2
176
     1
 72
     2
176
     1
 73
     1
176
     1
 90
        2
176
     1
 40
0.6
176
     1
 41
30.0
176
     1
 63
     7
421
 16777215
176
     1
 74
     0
176
     1
 91
        4
176
     1
 64
     7
176
     1
 65
   257
176
     1
 75
     1
176
     1
175
     1
176
     1
 42
1.0
176
     1
 92
        8
176
     1
 66
   257
176
     1
 43
1.0
176
     1
 76
     1
176
     1
 77
     6
176
     1
 78
     2
176
     1
 67
     8
425
  7895160
176
     1
 79
     3
176
     1
170
     0
176
     1
171
     0
176
     1
290
     0
176
     1
 93
        5
176
     1
 44
0.0
176
     1
173
     0
176
     1
1001
ACAD
1000
AcDbSavedByObjectVersion
1070
     0
  0
VISUALSTYLE
  5
3D
102
{ACAD_XDICTIONARY
360
133
102
}
102
{ACAD_REACTORS
330
29
102
}
330
29
100
AcDbVisualStyle
  2
Shaded with edges
 70
    26
177
     2
291
     0
 71
     2
176
     1
 72
     2
176
     1
 73
     1
176
     1
 90
        2
176
     1
 40
0.6
176
     1
 41
30.0
176
     1
 63
     7
421
 16777215
176
     1
 74
     1
176
     1
 91
        2
176
     1
 64
     7
176
     1
 65
   257
176
     1
 75
     2
176
     1
175
     1
176
     1
 42
1.0
176
     1
 92
        8
176
     1
 66
   257
176
     1
 43
1.0
176
     1
 76
     1
176
     1
 77
     6
176
     1
 78
     2
176
     1
 67
     7
176
     1
 79
     3
176
     1
170
     0
176
     1
171
     0
176
     1
290
     0
176
     1
 93
        5
176
     1
 44
0.0
176
     1
173
     0
176
     1
1001
ACAD
1000
AcDbSavedByObjectVersion
1070
     0
  0
VISUALSTYLE
  5
3A
102
{ACAD_XDICTIONARY
360
12D
102
}
102
{ACAD_REACTORS
330
29
102
}
330
29
100
AcDbVisualStyle
  2
Shades of Gray
 70
    23
177
     2
291
     0
 71
     2
176
     1
 72
     2
176
     1
 73
     3
176
     1
 90
        0
176
     1
 40
0.6
176
     1
 41
30.0
176
     1
 63
     7
421
 16777215
176
     1
 74
     2
176
     1
 91
        2
176
     1
 64
     7
176
     1
 65
     7
176
     1
 75
     1
176
     1
175
     1
176
     1
 42
40.0
176
     1
 92
        8
176
     1
 66
     7
176
     1
 43
1.0
176
     1
 76
     1
176
     1
 77
     6
176
     1
 78
     2
176
     1
 67
     7
176
     1
 79
     3
176
     1
170
     0
176
     1
171
     0
176
     1
290
     0
176
     1
 93
        1
176
     1
 44
0.0
176
     1
173
     0
176
     1
1001
ACAD
1000
AcDbSavedByObjectVersion
1070
     0
  0
VISUALSTYLE
  5
3B
102
{ACAD_XDICTIONARY
360
12F
102
}
102
{ACAD_REACTORS
330
29
102
}
330
29
100
AcDbVisualStyle
  2
Sketchy
 70
    24
177
     2
291
     0
 71
     1
176
     1
 72
     2
176
     1
 73
     2
176
     1
 90
        0
176
     1
 40
0.6
176
     1
 41
30.0
176
     1
 63
     7
421
 16777215
176
     1
 74
     2
176
     1
 91
        2
176
     1
 64
     7
176
     1
 65
     7
176
     1
 75
     1
176
     1
175
     1
176
     1
 42
40.0
176
     1
 92
       11
176
     1
 66
     7
176
     1
 43
1.0
176
     1
 76
     1
176
     1
 77
     6
176
     1
 78
     2
176
     1
 67
     7
176
     1
 79
     6
176
     1
170
     0
176
     1
171
     0
176
     1
290
     0
176
     1
 93
        1
176
     1
 44
0.0
176
     1
173
     0
176
     1
1001
ACAD
1000
AcDbSavedByObjectVersion
1070
     0
  0
VISUALSTYLE
  5
36
102
{ACAD_XDICTIONARY
360
125
102
}
102
{ACAD_REACTORS
330
29
102
}
330
29
100
AcDbVisualStyle
  2
Thicken
 70
    13
177
     2
291
     1
 71
     2
176
     1
 72
     2
176
     1
 73
     0
176
     1
 90
        0
176
     1
 40
0.6
176
     1
 41
30.0
176
     1
 63
     7
421
 16777215
176
     1
 74
     1
176
     1
 91
        4
176
     1
 64
     7
176
     1
 65
   257
176
     1
 75
     1
176
     1
175
     1
176
     1
 42
1.0
176
     1
 92
       12
176
     1
 66
     7
176
     1
 43
1.0
176
     1
 76
     1
176
     1
 77
     6
176
     1
 78
     2
176
     1
 67
     7
176
     1
 79
     5
176
     1
170
     0
176
     1
171
     0
176
     1
290
     0
176
     1
 93
        1
176
     1
 44
0.0
176
     1
173
     0
176
     1
1001
ACAD
1000
AcDbSavedByObjectVersion
1070
     0
  0
VISUALSTYLE
  5
30
102
{ACAD_XDICTIONARY
360
119
102
}
102
{ACAD_REACTORS
330
29
102
}
330
29
100
AcDbVisualStyle
  2
Wireframe
 70
     5
177
     2
291
     0
 71
     0
176
     1
 72
     2
176
     1
 73
     0
176
     1
 90
        0
176
     1
 40
0.6
176
     1
 41
30.0
176
     1
 63
     7
421
 16777215
176
     1
 74
     1
176
     1
 91
        4
176
     1
 64
     7
176
     1
 65
   257
176
     1
 75
     1
176
     1
175
     1
176
     1
 42
1.0
176
     1
 92
        0
176
     1
 66
   257
176
     1
 43
1.0
176
     1
 76
     1
176
     1
 77
     6
176
     1
 78
     2
176
     1
 67
     7
176
     1
 79
     3
176
     1
170
     0
176
     1
171
     0
176
     1
290
     0
176
     1
 93
        1
176
     1
 44
0.0
176
     1
173
     0
176
     1
1001
ACAD
1000
AcDbSavedByObjectVersion
1070
     0
  0
VISUALSTYLE
  5
3C
102
{ACAD_XDICTIONARY
360
131
102
}
102
{ACAD_REACTORS
330
29
102
}
330
29
100
AcDbVisualStyle
  2
X-Ray
 70
    25
177
     2
291
     0
 71
     2
176
     1
 72
     2
176
     1
 73
     1
176
     1
 90
        1
176
     1
 40
0.5
176
     1
 41
30.0
176
     1
 63
     7
421
 16777215
176
     1
 74
     1
176
     1
 91
        0
176
     1
 64
     7
176
     1
 65
   257
176
     1
 75
     1
176
     1
175
     1
176
     1
 42
1.0
176
     1
 92
        8
176
     1
 66
     7
176
     1
 43
1.0
176
     1
 76
     1
176
     1
 77
     6
176
     1
 78
     2
176
     1
 67
     7
176
     1
 79
     3
176
     1
170
     0
176
     1
171
     0
176
     1
290
     0
176
     1
 93
       13
176
     1
 44
0.0
176
     1
173
     0
176
     1
1001
ACAD
1000
AcDbSavedByObjectVersion
1070
     0
  0
DICTIONARYVAR
  5
109
102
{ACAD_REACTORS
330
104
102
}
330
104
100
DictionaryVariables
280
     0
  1
1:1
  0
DICTIONARYVAR
  5
106
102
{ACAD_REACTORS
330
104
102
}
330
104
100
DictionaryVariables
280
     0
  1
STANDARD
  0
DICTIONARYVAR
  5
105
102
{ACAD_REACTORS
330
104
102
}
330
104
100
DictionaryVariables
280
     0
  1
STANDARD
  0
DICTIONARYVAR
  5
107
102
{ACAD_REACTORS
330
104
102
}
330
104
100
DictionaryVariables
280
     0
  1
Imperial24
  0
DICTIONARYVAR
  5
108
102
{ACAD_REACTORS
330
104
102
}
330
104
100
DictionaryVariables
280
     0
  1
Imperial24
  0
DICTIONARY
  5
141
330
6B
100
AcDbDictionary
280
     1
281
     1
  3
ACAD_XREC_ROUNDTRIP
360
142
  0
DICTIONARY
  5
1A
330
19
100
AcDbDictionary
280
     1
281
     1
  3
BUMPTILE
360
1C
  3
DIFFUSETILE
360
1B
  3
OPACITYTILE
360
1F
  3
REFLECTIONTILE
360
1E
  3
REFRACTIONTILE
360
20
  3
SPECULARTILE
360
1D
  0
DICTIONARY
  5
12
330
11
100
AcDbDictionary
280
     1
281
     1
  3
BUMPTILE
360
14
  3
DIFFUSETILE
360
13
  3
OPACITYTILE
360
17
  3
REFLECTIONTILE
360
16
  3
REFRACTIONTILE
360
18
  3
SPECULARTILE
360
15
  0
DICTIONARY
  5
22
330
21
100
AcDbDictionary
280
     1
281
     1
  3
BUMPTILE
360
24
  3
DIFFUSETILE
360
23
  3
OPACITYTILE
360
27
  3
REFLECTIONTILE
360
26
  3
REFRACTIONTILE
360
28
  3
SPECULARTILE
360
25
  0
DICTIONARY
  5
13D
330
67
100
AcDbDictionary
280
     1
281
     1
  3
ACAD_XREC_ROUNDTRIP
360
13E
  0
DICTIONARY
  5
13F
330
69
100
AcDbDictionary
280
     1
281
     1
  3
ACAD_XREC_ROUNDTRIP
360
140
  0
DICTIONARY
  5
10A
330
65
100
AcDbDictionary
280
     1
281
     1
  3
ACAD_ROUNDTRIP_2008_TABLESTYLE_CELLSTYLEMAP
360
10B
  0
DICTIONARY
  5
117
330
2F
100
AcDbDictionary
280
     1
281
     1
  3
ACAD_XREC_ROUNDTRIP
360
118
  0
DICTIONARY
  5
115
330
2E
100
AcDbDictionary
280
     1
281
     1
  3
ACAD_XREC_ROUNDTRIP
360
116
  0
DICTIONARY
  5
123
330
35
100
AcDbDictionary
280
     1
281
     1
  3
ACAD_XREC_ROUNDTRIP
360
124
  0
DICTIONARY
  5
12B
330
39
100
AcDbDictionary
280
     1
281
     1
  3
ACAD_XREC_ROUNDTRIP
360
12C
  0
DICTIONARY
  5
11D
330
32
100
AcDbDictionary
280
     1
281
     1
  3
ACAD_XREC_ROUNDTRIP
360
11E
  0
DICTIONARY
  5
121
330
34
100
AcDbDictionary
280
     1
281
     1
  3
ACAD_XREC_ROUNDTRIP
360
122
  0
DICTIONARY
  5
13B
330
41
100
AcDbDictionary
280
     1
281
     1
  3
ACAD_XREC_ROUNDTRIP
360
13C
  0
DICTIONARY
  5
129
330
38
100
AcDbDictionary
280
     1
281
     1
  3
ACAD_XREC_ROUNDTRIP
360
12A
  0
DICTIONARY
  5
10D
330
2A
100
AcDbDictionary
280
     1
281
     1
  3
ACAD_XREC_ROUNDTRIP
360
10E
  0
DICTIONARY
  5
10F
330
2B
100
AcDbDictionary
280
     1
281
     1
  3
ACAD_XREC_ROUNDTRIP
360
110
  0
DICTIONARY
  5
111
330
2C
100
AcDbDictionary
280
     1
281
     1
  3
ACAD_XREC_ROUNDTRIP
360
112
  0
DICTIONARY
  5
113
330
2D
100
AcDbDictionary
280
     1
281
     1
  3
ACAD_XREC_ROUNDTRIP
360
114
  0
DICTIONARY
  5
11B
330
31
100
AcDbDictionary
280
     1
281
     1
  3
ACAD_XREC_ROUNDTRIP
360
11C
  0
DICTIONARY
  5
137
330
3F
100
AcDbDictionary
280
     1
281
     1
  3
ACAD_XREC_ROUNDTRIP
360
138
  0
DICTIONARY
  5
127
330
37
100
AcDbDictionary
280
     1
281
     1
  3
ACAD_XREC_ROUNDTRIP
360
128
  0
DICTIONARY
  5
139
330
40
100
AcDbDictionary
280
     1
281
     1
  3
ACAD_XREC_ROUNDTRIP
360
13A
  0
DICTIONARY
  5
11F
330
33
100
AcDbDictionary
280
     1
281
     1
  3
ACAD_XREC_ROUNDTRIP
360
120
  0
DICTIONARY
  5
135
330
3E
100
AcDbDictionary
280
     1
281
     1
  3
ACAD_XREC_ROUNDTRIP
360
136
  0
DICTIONARY
  5
133
330
3D
100
AcDbDictionary
280
     1
281
     1
  3
ACAD_XREC_ROUNDTRIP
360
134
  0
DICTIONARY
  5
12D
330
3A
100
AcDbDictionary
280
     1
281
     1
  3
ACAD_XREC_ROUNDTRIP
360
12E
  0
DICTIONARY
  5
12F
330
3B
100
AcDbDictionary
280
     1
281
     1
  3
ACAD_XREC_ROUNDTRIP
360
130
  0
DICTIONARY
  5
125
330
36
100
AcDbDictionary
280
     1
281
     1
  3
ACAD_XREC_ROUNDTRIP
360
126
  0
DICTIONARY
  5
119
330
30
100
AcDbDictionary
280
     1
281
     1
  3
ACAD_XREC_ROUNDTRIP
360
11A
  0
DICTIONARY
  5
131
330
3C
100
AcDbDictionary
280
     1
281
     1
  3
ACAD_XREC_ROUNDTRIP
360
132
  0
XRECORD
  5
142
102
{ACAD_REACTORS
330
141
102
}
330
141
100
AcDbXrecord
280
     1
102
DISPLAYNAME
  1
Imperial24
102
FLAGS
 90
        0
  0
XRECORD
  5
1C
102
{ACAD_REACTORS
330
1A
102
}
330
1A
100
AcDbXrecord
280
     1
270
     1
271
     1
  0
XRECORD
  5
1B
102
{ACAD_REACTORS
330
1A
102
}
330
1A
100
AcDbXrecord
280
     1
270
     1
271
     1
  0
XRECORD
  5
1F
102
{ACAD_REACTORS
330
1A
102
}
330
1A
100
AcDbXrecord
280
     1
270
     1
271
     1
  0
XRECORD
  5
1E
102
{ACAD_REACTORS
330
1A
102
}
330
1A
100
AcDbXrecord
280
     1
270
     1
271
     1
  0
XRECORD
  5
20
102
{ACAD_REACTORS
330
1A
102
}
330
1A
100
AcDbXrecord
280
     1
270
     1
271
     1
  0
XRECORD
  5
1D
102
{ACAD_REACTORS
330
1A
102
}
330
1A
100
AcDbXrecord
280
     1
270
     1
271
     1
  0
XRECORD
  5
14
102
{ACAD_REACTORS
330
12
102
}
330
12
100
AcDbXrecord
280
     1
270
     1
271
     1
  0
XRECORD
  5
13
102
{ACAD_REACTORS
330
12
102
}
330
12
100
AcDbXrecord
280
     1
270
     1
271
     1
  0
XRECORD
  5
17
102
{ACAD_REACTORS
330
12
102
}
330
12
100
AcDbXrecord
280
     1
270
     1
271
     1
  0
XRECORD
  5
16
102
{ACAD_REACTORS
330
12
102
}
330
12
100
AcDbXrecord
280
     1
270
     1
271
     1
  0
XRECORD
  5
18
102
{ACAD_REACTORS
330
12
102
}
330
12
100
AcDbXrecord
280
     1
270
     1
271
     1
  0
XRECORD
  5
15
102
{ACAD_REACTORS
330
12
102
}
330
12
100
AcDbXrecord
280
     1
270
     1
271
     1
  0
XRECORD
  5
24
102
{ACAD_REACTORS
330
22
102
}
330
22
100
AcDbXrecord
280
     1
270
     1
271
     1
  0
XRECORD
  5
23
102
{ACAD_REACTORS
330
22
102
}
330
22
100
AcDbXrecord
280
     1
270
     1
271
     1
  0
XRECORD
  5
27
102
{ACAD_REACTORS
330
22
102
}
330
22
100
AcDbXrecord
280
     1
270
     1
271
     1
  0
XRECORD
  5
26
102
{ACAD_REACTORS
330
22
102
}
330
22
100
AcDbXrecord
280
     1
270
     1
271
     1
  0
XRECORD
  5
28
102
{ACAD_REACTORS
330
22
102
}
330
22
100
AcDbXrecord
280
     1
270
     1
271
     1
  0
XRECORD
  5
25
102
{ACAD_REACTORS
330
22
102
}
330
22
100
AcDbXrecord
280
     1
270
     1
271
     1
  0
XRECORD
  5
13E
102
{ACAD_REACTORS
330
13D
102
}
330
13D
100
AcDbXrecord
280
     1
102
ACAD_ROUNDTRIP_2012_MLEADER_STYLE
298
     1
  0
XRECORD
  5
140
102
{ACAD_REACTORS
330
13F
102
}
330
13F
100
AcDbXrecord
280
     1
102
DISPLAYNAME
  1
Imperial24
102
FLAGS
 90
        0
  0
CELLSTYLEMAP
  5
10B
102
{ACAD_REACTORS
330
10A
102
}
330
10A
100
AcDbCellStyleMap
 90
        3
300
CELLSTYLE
  1
TABLEFORMAT_BEGIN
 90
        5
170
     1
 91
        0
 92
    32768
 62
   257
 93
        1
300
CONTENTFORMAT
  1
CONTENTFORMAT_BEGIN
 90
        0
 91
        0
 92
      512
 93
        0
300

 40
0.0
140
1.0
 94
        5
 62
     0
340
55
144
0.25
309
CONTENTFORMAT_END
171
     0
 94
        0
309
TABLEFORMAT_END
  1
CELLSTYLE_BEGIN
 90
        1
 91
        1
300
_TITLE
309
CELLSTYLE_END
300
CELLSTYLE
  1
TABLEFORMAT_BEGIN
 90
        5
170
     1
 91
        0
 92
        0
 62
   257
 93
        1
300
CONTENTFORMAT
  1
CONTENTFORMAT_BEGIN
 90
        0
 91
        0
 92
      512
 93
        0
300

 40
0.0
140
1.0
 94
        5
 62
     0
340
55
144
0.18
309
CONTENTFORMAT_END
171
     0
 94
        0
309
TABLEFORMAT_END
  1
CELLSTYLE_BEGIN
 90
        2
 91
        1
300
_HEADER
309
CELLSTYLE_END
300
CELLSTYLE
  1
TABLEFORMAT_BEGIN
 90
        5
170
     1
 91
        0
 92
        0
 62
   257
 93
        1
300
CONTENTFORMAT
  1
CONTENTFORMAT_BEGIN
 90
        0
 91
        0
 92
      512
 93
        0
300

 40
0.0
140
1.0
 94
        2
 62
     0
340
55
144
0.18
309
CONTENTFORMAT_END
171
     0
 94
        0
309
TABLEFORMAT_END
  1
CELLSTYLE_BEGIN
 90
        3
 91
        2
300
_DATA
309
CELLSTYLE_END
  0
XRECORD
  5
118
102
{ACAD_REACTORS
330
117
102
}
330
117
100
AcDbXrecord
280
     1
102
RTVSPost2010Prop28
280
     1
102
RTVSPost2010PropOp28
 70
     1
102
RTVSPost2010Prop29
280
     1
102
RTVSPost2010PropOp29
 70
     1
102
RTVSPost2010Prop30
280
     0
102
RTVSPost2010PropOp30
 70
     1
102
RTVSPost2010Prop31
280
     0
102
RTVSPost2010PropOp31
 70
     1
102
RTVSPost2010Prop32
280
     0
102
RTVSPost2010PropOp32
 70
     1
102
RTVSPost2010Prop33
280
     0
102
RTVSPost2010PropOp33
 70
     1
102
RTVSPost2010Prop34
280
     0
102
RTVSPost2010PropOp34
 70
     1
102
RTVSPost2010Prop35
280
     0
102
RTVSPost2010PropOp35
 70
     1
102
RTVSPost2010Prop36
280
     0
102
RTVSPost2010PropOp36
 70
     1
102
RTVSPost2010Prop37
 90
       50
102
RTVSPost2010PropOp37
 70
     1
102
RTVSPost2010Prop38
140
0.0
102
RTVSPost2010PropOp38
 70
     1
102
RTVSPost2010Prop39
140
1.0
102
RTVSPost2010PropOp39
 70
     1
102
RTVSPost2010Prop40
 90
        0
102
RTVSPost2010PropOp40
 70
     1
102
RTVSPost2010Prop41ColorIndex
 90
       18
102
RTVSPost2010Prop41ColorRGB
 90
        0
102
RTVSPost2010PropOp41
 70
     1
102
RTVSPost2010Prop42
 90
       50
102
RTVSPost2010PropOp42
 70
     1
102
RTVSPost2010Prop43
 90
        3
102
RTVSPost2010PropOp43
 70
     1
102
RTVSPost2010Prop44ColorIndex
 90
        5
102
RTVSPost2010Prop44ColorRGB
 90
      255
102
RTVSPost2010PropOp44
 70
     1
102
RTVSPost2010Prop45
280
     0
102
RTVSPost2010PropOp45
 70
     1
102
RTVSPost2010Prop46
 90
       50
102
RTVSPost2010PropOp46
 70
     1
102
RTVSPost2010Prop47
 90
       50
102
RTVSPost2010PropOp47
 70
     1
102
RTVSPost2010Prop48
 90
       50
102
RTVSPost2010PropOp48
 70
     1
102
RTVSPost2010Prop49
280
     0
102
RTVSPost2010PropOp49
 70
     1
102
RTVSPost2010Prop50
 90
       50
102
RTVSPost2010PropOp50
 70
     1
102
RTVSPost2010Prop51ColorIndex
 90
      256
102
RTVSPost2010Prop51ColorRGB
 90
-16777216
102
RTVSPost2010PropOp51
 70
     0
102
RTVSPost2010Prop52
140
1.0
102
RTVSPost2010PropOp52
 70
     0
102
RTVSPost2010Prop53
 90
        2
102
RTVSPost2010PropOp53
 70
     1
102
RTVSPost2010Prop54
  1
strokes_ogs.tif
102
RTVSPost2010PropOp54
 70
     1
102
RTVSPost2010Prop55
280
     0
102
RTVSPost2010PropOp55
 70
     1
102
RTVSPost2010Prop56
140
1.0
102
RTVSPost2010PropOp56
 70
     1
102
RTVSPost2010Prop57
140
1.0
102
RTVSPost2010PropOp57
 70
     1
  0
XRECORD
  5
116
102
{ACAD_REACTORS
330
115
102
}
330
115
100
AcDbXrecord
280
     1
102
RTVSPost2010Prop28
280
     0
102
RTVSPost2010PropOp28
 70
     1
102
RTVSPost2010Prop29
280
     1
102
RTVSPost2010PropOp29
 70
     1
102
RTVSPost2010Prop30
280
     1
102
RTVSPost2010PropOp30
 70
     1
102
RTVSPost2010Prop31
280
     0
102
RTVSPost2010PropOp31
 70
     1
102
RTVSPost2010Prop32
280
     0
102
RTVSPost2010PropOp32
 70
     1
102
RTVSPost2010Prop33
280
     0
102
RTVSPost2010PropOp33
 70
     1
102
RTVSPost2010Prop34
280
     0
102
RTVSPost2010PropOp34
 70
     1
102
RTVSPost2010Prop35
280
     0
102
RTVSPost2010PropOp35
 70
     1
102
RTVSPost2010Prop36
280
     0
102
RTVSPost2010PropOp36
 70
     1
102
RTVSPost2010Prop37
 90
       50
102
RTVSPost2010PropOp37
 70
     1
102
RTVSPost2010Prop38
140
0.0
102
RTVSPost2010PropOp38
 70
     1
102
RTVSPost2010Prop39
140
1.0
102
RTVSPost2010PropOp39
 70
     1
102
RTVSPost2010Prop40
 90
        0
102
RTVSPost2010PropOp40
 70
     1
102
RTVSPost2010Prop41ColorIndex
 90
       18
102
RTVSPost2010Prop41ColorRGB
 90
        0
102
RTVSPost2010PropOp41
 70
     1
102
RTVSPost2010Prop42
 90
       50
102
RTVSPost2010PropOp42
 70
     1
102
RTVSPost2010Prop43
 90
        3
102
RTVSPost2010PropOp43
 70
     1
102
RTVSPost2010Prop44ColorIndex
 90
        5
102
RTVSPost2010Prop44ColorRGB
 90
      255
102
RTVSPost2010PropOp44
 70
     1
102
RTVSPost2010Prop45
280
     0
102
RTVSPost2010PropOp45
 70
     1
102
RTVSPost2010Prop46
 90
       50
102
RTVSPost2010PropOp46
 70
     1
102
RTVSPost2010Prop47
 90
       50
102
RTVSPost2010PropOp47
 70
     1
102
RTVSPost2010Prop48
 90
       50
102
RTVSPost2010PropOp48
 70
     1
102
RTVSPost2010Prop49
280
     0
102
RTVSPost2010PropOp49
 70
     1
102
RTVSPost2010Prop50
 90
       50
102
RTVSPost2010PropOp50
 70
     1
102
RTVSPost2010Prop51ColorIndex
 90
      256
102
RTVSPost2010Prop51ColorRGB
 90
-16777216
102
RTVSPost2010PropOp51
 70
     0
102
RTVSPost2010Prop52
140
1.0
102
RTVSPost2010PropOp52
 70
     0
102
RTVSPost2010Prop53
 90
        2
102
RTVSPost2010PropOp53
 70
     1
102
RTVSPost2010Prop54
  1
strokes_ogs.tif
102
RTVSPost2010PropOp54
 70
     1
102
RTVSPost2010Prop55
280
     0
102
RTVSPost2010PropOp55
 70
     1
102
RTVSPost2010Prop56
140
1.0
102
RTVSPost2010PropOp56
 70
     1
102
RTVSPost2010Prop57
140
1.0
102
RTVSPost2010PropOp57
 70
     1
  0
XRECORD
  5
124
102
{ACAD_REACTORS
330
123
102
}
330
123
100
AcDbXrecord
280
     1
102
RTVSPost2010Prop28
280
     0
102
RTVSPost2010PropOp28
 70
     1
102
RTVSPost2010Prop29
280
     1
102
RTVSPost2010PropOp29
 70
     1
102
RTVSPost2010Prop30
280
     1
102
RTVSPost2010PropOp30
 70
     1
102
RTVSPost2010Prop31
280
     0
102
RTVSPost2010PropOp31
 70
     1
102
RTVSPost2010Prop32
280
     0
102
RTVSPost2010PropOp32
 70
     1
102
RTVSPost2010Prop33
280
     0
102
RTVSPost2010PropOp33
 70
     1
102
RTVSPost2010Prop34
280
     0
102
RTVSPost2010PropOp34
 70
     1
102
RTVSPost2010Prop35
280
     0
102
RTVSPost2010PropOp35
 70
     1
102
RTVSPost2010Prop36
280
     0
102
RTVSPost2010PropOp36
 70
     1
102
RTVSPost2010Prop37
 90
       50
102
RTVSPost2010PropOp37
 70
     1
102
RTVSPost2010Prop38
140
0.0
102
RTVSPost2010PropOp38
 70
     1
102
RTVSPost2010Prop39
140
1.0
102
RTVSPost2010PropOp39
 70
     1
102
RTVSPost2010Prop40
 90
        0
102
RTVSPost2010PropOp40
 70
     1
102
RTVSPost2010Prop41ColorIndex
 90
       18
102
RTVSPost2010Prop41ColorRGB
 90
        0
102
RTVSPost2010PropOp41
 70
     1
102
RTVSPost2010Prop42
 90
       50
102
RTVSPost2010PropOp42
 70
     1
102
RTVSPost2010Prop43
 90
        3
102
RTVSPost2010PropOp43
 70
     1
102
RTVSPost2010Prop44ColorIndex
 90
        5
102
RTVSPost2010Prop44ColorRGB
 90
      255
102
RTVSPost2010PropOp44
 70
     1
102
RTVSPost2010Prop45
280
     0
102
RTVSPost2010PropOp45
 70
     1
102
RTVSPost2010Prop46
 90
       50
102
RTVSPost2010PropOp46
 70
     1
102
RTVSPost2010Prop47
 90
       50
102
RTVSPost2010PropOp47
 70
     1
102
RTVSPost2010Prop48
 90
       50
102
RTVSPost2010PropOp48
 70
     1
102
RTVSPost2010Prop49
280
     0
102
RTVSPost2010PropOp49
 70
     1
102
RTVSPost2010Prop50
 90
       50
102
RTVSPost2010PropOp50
 70
     1
102
RTVSPost2010Prop51ColorIndex
 90
      256
102
RTVSPost2010Prop51ColorRGB
 90
-16777216
102
RTVSPost2010PropOp51
 70
     0
102
RTVSPost2010Prop52
140
1.0
102
RTVSPost2010PropOp52
 70
     0
102
RTVSPost2010Prop53
 90
        2
102
RTVSPost2010PropOp53
 70
     1
102
RTVSPost2010Prop54
  1
strokes_ogs.tif
102
RTVSPost2010PropOp54
 70
     1
102
RTVSPost2010Prop55
280
     0
102
RTVSPost2010PropOp55
 70
     1
102
RTVSPost2010Prop56
140
1.0
102
RTVSPost2010PropOp56
 70
     1
102
RTVSPost2010Prop57
140
1.0
102
RTVSPost2010PropOp57
 70
     1
  0
XRECORD
  5
12C
102
{ACAD_REACTORS
330
12B
102
}
330
12B
100
AcDbXrecord
280
     1
102
RTVSPost2010Prop28
280
     0
102
RTVSPost2010PropOp28
 70
     1
102
RTVSPost2010Prop29
280
     1
102
RTVSPost2010PropOp29
 70
     1
102
RTVSPost2010Prop30
280
     1
102
RTVSPost2010PropOp30
 70
     1
102
RTVSPost2010Prop31
280
     0
102
RTVSPost2010PropOp31
 70
     1
102
RTVSPost2010Prop32
280
     0
102
RTVSPost2010PropOp32
 70
     1
102
RTVSPost2010Prop33
280
     0
102
RTVSPost2010PropOp33
 70
     1
102
RTVSPost2010Prop34
280
     0
102
RTVSPost2010PropOp34
 70
     1
102
RTVSPost2010Prop35
280
     0
102
RTVSPost2010PropOp35
 70
     1
102
RTVSPost2010Prop36
280
     0
102
RTVSPost2010PropOp36
 70
     1
102
RTVSPost2010Prop37
 90
       50
102
RTVSPost2010PropOp37
 70
     1
102
RTVSPost2010Prop38
140
0.0
102
RTVSPost2010PropOp38
 70
     1
102
RTVSPost2010Prop39
140
1.0
102
RTVSPost2010PropOp39
 70
     1
102
RTVSPost2010Prop40
 90
        0
102
RTVSPost2010PropOp40
 70
     1
102
RTVSPost2010Prop41ColorIndex
 90
       18
102
RTVSPost2010Prop41ColorRGB
 90
        0
102
RTVSPost2010PropOp41
 70
     1
102
RTVSPost2010Prop42
 90
       50
102
RTVSPost2010PropOp42
 70
     1
102
RTVSPost2010Prop43
 90
        3
102
RTVSPost2010PropOp43
 70
     1
102
RTVSPost2010Prop44ColorIndex
 90
        5
102
RTVSPost2010Prop44ColorRGB
 90
      255
102
RTVSPost2010PropOp44
 70
     1
102
RTVSPost2010Prop45
280
     0
102
RTVSPost2010PropOp45
 70
     1
102
RTVSPost2010Prop46
 90
       50
102
RTVSPost2010PropOp46
 70
     1
102
RTVSPost2010Prop47
 90
       50
102
RTVSPost2010PropOp47
 70
     1
102
RTVSPost2010Prop48
 90
       50
102
RTVSPost2010PropOp48
 70
     1
102
RTVSPost2010Prop49
280
     0
102
RTVSPost2010PropOp49
 70
     1
102
RTVSPost2010Prop50
 90
       50
102
RTVSPost2010PropOp50
 70
     1
102
RTVSPost2010Prop51ColorIndex
 90
      256
102
RTVSPost2010Prop51ColorRGB
 90
-16777216
102
RTVSPost2010PropOp51
 70
     0
102
RTVSPost2010Prop52
140
1.0
102
RTVSPost2010PropOp52
 70
     0
102
RTVSPost2010Prop53
 90
        2
102
RTVSPost2010PropOp53
 70
     1
102
RTVSPost2010Prop54
  1
strokes_ogs.tif
102
RTVSPost2010PropOp54
 70
     1
102
RTVSPost2010Prop55
280
     0
102
RTVSPost2010PropOp55
 70
     1
102
RTVSPost2010Prop56
140
1.0
102
RTVSPost2010PropOp56
 70
     1
102
RTVSPost2010Prop57
140
1.0
102
RTVSPost2010PropOp57
 70
     1
  0
XRECORD
  5
11E
102
{ACAD_REACTORS
330
11D
102
}
330
11D
100
AcDbXrecord
280
     1
102
RTVSPost2010Prop28
280
     0
102
RTVSPost2010PropOp28
 70
     1
102
RTVSPost2010Prop29
280
     1
102
RTVSPost2010PropOp29
 70
     1
102
RTVSPost2010Prop30
280
     1
102
RTVSPost2010PropOp30
 70
     1
102
RTVSPost2010Prop31
280
     0
102
RTVSPost2010PropOp31
 70
     1
102
RTVSPost2010Prop32
280
     0
102
RTVSPost2010PropOp32
 70
     1
102
RTVSPost2010Prop33
280
     0
102
RTVSPost2010PropOp33
 70
     1
102
RTVSPost2010Prop34
280
     0
102
RTVSPost2010PropOp34
 70
     1
102
RTVSPost2010Prop35
280
     0
102
RTVSPost2010PropOp35
 70
     1
102
RTVSPost2010Prop36
280
     0
102
RTVSPost2010PropOp36
 70
     1
102
RTVSPost2010Prop37
 90
       50
102
RTVSPost2010PropOp37
 70
     1
102
RTVSPost2010Prop38
140
0.0
102
RTVSPost2010PropOp38
 70
     1
102
RTVSPost2010Prop39
140
1.0
102
RTVSPost2010PropOp39
 70
     1
102
RTVSPost2010Prop40
 90
        0
102
RTVSPost2010PropOp40
 70
     1
102
RTVSPost2010Prop41ColorIndex
 90
       18
102
RTVSPost2010Prop41ColorRGB
 90
        0
102
RTVSPost2010PropOp41
 70
     1
102
RTVSPost2010Prop42
 90
       50
102
RTVSPost2010PropOp42
 70
     1
102
RTVSPost2010Prop43
 90
        3
102
RTVSPost2010PropOp43
 70
     1
102
RTVSPost2010Prop44ColorIndex
 90
        5
102
RTVSPost2010Prop44ColorRGB
 90
      255
102
RTVSPost2010PropOp44
 70
     1
102
RTVSPost2010Prop45
280
     0
102
RTVSPost2010PropOp45
 70
     1
102
RTVSPost2010Prop46
 90
       50
102
RTVSPost2010PropOp46
 70
     1
102
RTVSPost2010Prop47
 90
       50
102
RTVSPost2010PropOp47
 70
     1
102
RTVSPost2010Prop48
 90
       50
102
RTVSPost2010PropOp48
 70
     1
102
RTVSPost2010Prop49
280
     0
102
RTVSPost2010PropOp49
 70
     1
102
RTVSPost2010Prop50
 90
       50
102
RTVSPost2010PropOp50
 70
     1
102
RTVSPost2010Prop51ColorIndex
 90
      256
102
RTVSPost2010Prop51ColorRGB
 90
-16777216
102
RTVSPost2010PropOp51
 70
     0
102
RTVSPost2010Prop52
140
1.0
102
RTVSPost2010PropOp52
 70
     0
102
RTVSPost2010Prop53
 90
        2
102
RTVSPost2010PropOp53
 70
     1
102
RTVSPost2010Prop54
  1
strokes_ogs.tif
102
RTVSPost2010PropOp54
 70
     1
102
RTVSPost2010Prop55
280
     0
102
RTVSPost2010PropOp55
 70
     1
102
RTVSPost2010Prop56
140
1.0
102
RTVSPost2010PropOp56
 70
     1
102
RTVSPost2010Prop57
140
1.0
102
RTVSPost2010PropOp57
 70
     1
  0
XRECORD
  5
122
102
{ACAD_REACTORS
330
121
102
}
330
121
100
AcDbXrecord
280
     1
102
RTVSPost2010Prop28
280
     0
102
RTVSPost2010PropOp28
 70
     1
102
RTVSPost2010Prop29
280
     1
102
RTVSPost2010PropOp29
 70
     1
102
RTVSPost2010Prop30
280
     1
102
RTVSPost2010PropOp30
 70
     1
102
RTVSPost2010Prop31
280
     0
102
RTVSPost2010PropOp31
 70
     1
102
RTVSPost2010Prop32
280
     0
102
RTVSPost2010PropOp32
 70
     1
102
RTVSPost2010Prop33
280
     0
102
RTVSPost2010PropOp33
 70
     1
102
RTVSPost2010Prop34
280
     0
102
RTVSPost2010PropOp34
 70
     1
102
RTVSPost2010Prop35
280
     0
102
RTVSPost2010PropOp35
 70
     1
102
RTVSPost2010Prop36
280
     0
102
RTVSPost2010PropOp36
 70
     1
102
RTVSPost2010Prop37
 90
       50
102
RTVSPost2010PropOp37
 70
     1
102
RTVSPost2010Prop38
140
0.0
102
RTVSPost2010PropOp38
 70
     1
102
RTVSPost2010Prop39
140
1.0
102
RTVSPost2010PropOp39
 70
     1
102
RTVSPost2010Prop40
 90
        0
102
RTVSPost2010PropOp40
 70
     1
102
RTVSPost2010Prop41ColorIndex
 90
       18
102
RTVSPost2010Prop41ColorRGB
 90
        0
102
RTVSPost2010PropOp41
 70
     1
102
RTVSPost2010Prop42
 90
       50
102
RTVSPost2010PropOp42
 70
     1
102
RTVSPost2010Prop43
 90
        3
102
RTVSPost2010PropOp43
 70
     1
102
RTVSPost2010Prop44ColorIndex
 90
        5
102
RTVSPost2010Prop44ColorRGB
 90
      255
102
RTVSPost2010PropOp44
 70
     1
102
RTVSPost2010Prop45
280
     0
102
RTVSPost2010PropOp45
 70
     1
102
RTVSPost2010Prop46
 90
       50
102
RTVSPost2010PropOp46
 70
     1
102
RTVSPost2010Prop47
 90
       50
102
RTVSPost2010PropOp47
 70
     1
102
RTVSPost2010Prop48
 90
       50
102
RTVSPost2010PropOp48
 70
     1
102
RTVSPost2010Prop49
280
     0
102
RTVSPost2010PropOp49
 70
     1
102
RTVSPost2010Prop50
 90
       50
102
RTVSPost2010PropOp50
 70
     1
102
RTVSPost2010Prop51ColorIndex
 90
      256
102
RTVSPost2010Prop51ColorRGB
 90
-16777216
102
RTVSPost2010PropOp51
 70
     0
102
RTVSPost2010Prop52
140
1.0
102
RTVSPost2010PropOp52
 70
     0
102
RTVSPost2010Prop53
 90
        2
102
RTVSPost2010PropOp53
 70
     1
102
RTVSPost2010Prop54
  1
strokes_ogs.tif
102
RTVSPost2010PropOp54
 70
     1
102
RTVSPost2010Prop55
280
     0
102
RTVSPost2010PropOp55
 70
     1
102
RTVSPost2010Prop56
140
1.0
102
RTVSPost2010PropOp56
 70
     1
102
RTVSPost2010Prop57
140
1.0
102
RTVSPost2010PropOp57
 70
     1
  0
XRECORD
  5
13C
102
{ACAD_REACTORS
330
13B
102
}
330
13B
100
AcDbXrecord
280
     1
102
RTVSPost2010Prop28
280
     0
102
RTVSPost2010PropOp28
 70
     0
102
RTVSPost2010Prop29
280
     1
102
RTVSPost2010PropOp29
 70
     0
102
RTVSPost2010Prop30
280
     1
102
RTVSPost2010PropOp30
 70
     0
102
RTVSPost2010Prop31
280
     0
102
RTVSPost2010PropOp31
 70
     0
102
RTVSPost2010Prop32
280
     0
102
RTVSPost2010PropOp32
 70
     0
102
RTVSPost2010Prop33
280
     0
102
RTVSPost2010PropOp33
 70
     0
102
RTVSPost2010Prop34
280
     0
102
RTVSPost2010PropOp34
 70
     0
102
RTVSPost2010Prop35
280
     0
102
RTVSPost2010PropOp35
 70
     0
102
RTVSPost2010Prop36
280
     0
102
RTVSPost2010PropOp36
 70
     0
102
RTVSPost2010Prop37
 90
       50
102
RTVSPost2010PropOp37
 70
     0
102
RTVSPost2010Prop38
140
0.0
102
RTVSPost2010PropOp38
 70
     0
102
RTVSPost2010Prop39
140
1.0
102
RTVSPost2010PropOp39
 70
     0
102
RTVSPost2010Prop40
 90
        0
102
RTVSPost2010PropOp40
 70
     0
102
RTVSPost2010Prop41ColorIndex
 90
       18
102
RTVSPost2010Prop41ColorRGB
 90
        0
102
RTVSPost2010PropOp41
 70
     0
102
RTVSPost2010Prop42
 90
       50
102
RTVSPost2010PropOp42
 70
     0
102
RTVSPost2010Prop43
 90
        3
102
RTVSPost2010PropOp43
 70
     0
102
RTVSPost2010Prop44ColorIndex
 90
        5
102
RTVSPost2010Prop44ColorRGB
 90
      255
102
RTVSPost2010PropOp44
 70
     0
102
RTVSPost2010Prop45
280
     0
102
RTVSPost2010PropOp45
 70
     0
102
RTVSPost2010Prop46
 90
       50
102
RTVSPost2010PropOp46
 70
     0
102
RTVSPost2010Prop47
 90
       50
102
RTVSPost2010PropOp47
 70
     0
102
RTVSPost2010Prop48
 90
       50
102
RTVSPost2010PropOp48
 70
     0
102
RTVSPost2010Prop49
280
     0
102
RTVSPost2010PropOp49
 70
     0
102
RTVSPost2010Prop50
 90
       50
102
RTVSPost2010PropOp50
 70
     0
102
RTVSPost2010Prop51ColorIndex
 90
      256
102
RTVSPost2010Prop51ColorRGB
 90
-16777216
102
RTVSPost2010PropOp51
 70
     0
102
RTVSPost2010Prop52
140
1.0
102
RTVSPost2010PropOp52
 70
     0
102
RTVSPost2010Prop53
 90
        2
102
RTVSPost2010PropOp53
 70
     0
102
RTVSPost2010Prop54
  1
strokes_ogs.tif
102
RTVSPost2010PropOp54
 70
     0
102
RTVSPost2010Prop55
280
     0
102
RTVSPost2010PropOp55
 70
     0
102
RTVSPost2010Prop56
140
1.0
102
RTVSPost2010PropOp56
 70
     0
102
RTVSPost2010Prop57
140
1.0
102
RTVSPost2010PropOp57
 70
     0
  0
XRECORD
  5
12A
102
{ACAD_REACTORS
330
129
102
}
330
129
100
AcDbXrecord
280
     1
102
RTVSPost2010Prop28
280
     0
102
RTVSPost2010PropOp28
 70
     1
102
RTVSPost2010Prop29
280
     1
102
RTVSPost2010PropOp29
 70
     1
102
RTVSPost2010Prop30
280
     1
102
RTVSPost2010PropOp30
 70
     1
102
RTVSPost2010Prop31
280
     0
102
RTVSPost2010PropOp31
 70
     1
102
RTVSPost2010Prop32
280
     0
102
RTVSPost2010PropOp32
 70
     1
102
RTVSPost2010Prop33
280
     0
102
RTVSPost2010PropOp33
 70
     1
102
RTVSPost2010Prop34
280
     0
102
RTVSPost2010PropOp34
 70
     1
102
RTVSPost2010Prop35
280
     0
102
RTVSPost2010PropOp35
 70
     1
102
RTVSPost2010Prop36
280
     0
102
RTVSPost2010PropOp36
 70
     1
102
RTVSPost2010Prop37
 90
       50
102
RTVSPost2010PropOp37
 70
     1
102
RTVSPost2010Prop38
140
0.0
102
RTVSPost2010PropOp38
 70
     1
102
RTVSPost2010Prop39
140
1.0
102
RTVSPost2010PropOp39
 70
     1
102
RTVSPost2010Prop40
 90
        0
102
RTVSPost2010PropOp40
 70
     1
102
RTVSPost2010Prop41ColorIndex
 90
       18
102
RTVSPost2010Prop41ColorRGB
 90
        0
102
RTVSPost2010PropOp41
 70
     1
102
RTVSPost2010Prop42
 90
       50
102
RTVSPost2010PropOp42
 70
     1
102
RTVSPost2010Prop43
 90
        3
102
RTVSPost2010PropOp43
 70
     1
102
RTVSPost2010Prop44ColorIndex
 90
        5
102
RTVSPost2010Prop44ColorRGB
 90
      255
102
RTVSPost2010PropOp44
 70
     1
102
RTVSPost2010Prop45
280
     0
102
RTVSPost2010PropOp45
 70
     1
102
RTVSPost2010Prop46
 90
       50
102
RTVSPost2010PropOp46
 70
     1
102
RTVSPost2010Prop47
 90
       50
102
RTVSPost2010PropOp47
 70
     1
102
RTVSPost2010Prop48
 90
       50
102
RTVSPost2010PropOp48
 70
     1
102
RTVSPost2010Prop49
280
     0
102
RTVSPost2010PropOp49
 70
     1
102
RTVSPost2010Prop50
 90
       50
102
RTVSPost2010PropOp50
 70
     1
102
RTVSPost2010Prop51ColorIndex
 90
      256
102
RTVSPost2010Prop51ColorRGB
 90
-16777216
102
RTVSPost2010PropOp51
 70
     0
102
RTVSPost2010Prop52
140
1.0
102
RTVSPost2010PropOp52
 70
     0
102
RTVSPost2010Prop53
 90
        2
102
RTVSPost2010PropOp53
 70
     1
102
RTVSPost2010Prop54
  1
strokes_ogs.tif
102
RTVSPost2010PropOp54
 70
     1
102
RTVSPost2010Prop55
280
     0
102
RTVSPost2010PropOp55
 70
     1
102
RTVSPost2010Prop56
140
1.0
102
RTVSPost2010PropOp56
 70
     1
102
RTVSPost2010Prop57
140
1.0
102
RTVSPost2010PropOp57
 70
     1
  0
XRECORD
  5
10E
102
{ACAD_REACTORS
330
10D
102
}
330
10D
100
AcDbXrecord
280
     1
102
RTVSPost2010Prop28
280
     0
102
RTVSPost2010PropOp28
 70
     1
102
RTVSPost2010Prop29
280
     1
102
RTVSPost2010PropOp29
 70
     1
102
RTVSPost2010Prop30
280
     1
102
RTVSPost2010PropOp30
 70
     1
102
RTVSPost2010Prop31
280
     0
102
RTVSPost2010PropOp31
 70
     1
102
RTVSPost2010Prop32
280
     0
102
RTVSPost2010PropOp32
 70
     1
102
RTVSPost2010Prop33
280
     0
102
RTVSPost2010PropOp33
 70
     1
102
RTVSPost2010Prop34
280
     0
102
RTVSPost2010PropOp34
 70
     1
102
RTVSPost2010Prop35
280
     0
102
RTVSPost2010PropOp35
 70
     1
102
RTVSPost2010Prop36
280
     0
102
RTVSPost2010PropOp36
 70
     1
102
RTVSPost2010Prop37
 90
       50
102
RTVSPost2010PropOp37
 70
     1
102
RTVSPost2010Prop38
140
0.0
102
RTVSPost2010PropOp38
 70
     1
102
RTVSPost2010Prop39
140
1.0
102
RTVSPost2010PropOp39
 70
     1
102
RTVSPost2010Prop40
 90
        0
102
RTVSPost2010PropOp40
 70
     1
102
RTVSPost2010Prop41ColorIndex
 90
       18
102
RTVSPost2010Prop41ColorRGB
 90
        0
102
RTVSPost2010PropOp41
 70
     1
102
RTVSPost2010Prop42
 90
       50
102
RTVSPost2010PropOp42
 70
     1
102
RTVSPost2010Prop43
 90
        3
102
RTVSPost2010PropOp43
 70
     1
102
RTVSPost2010Prop44ColorIndex
 90
        5
102
RTVSPost2010Prop44ColorRGB
 90
      255
102
RTVSPost2010PropOp44
 70
     1
102
RTVSPost2010Prop45
280
     0
102
RTVSPost2010PropOp45
 70
     1
102
RTVSPost2010Prop46
 90
       50
102
RTVSPost2010PropOp46
 70
     1
102
RTVSPost2010Prop47
 90
       50
102
RTVSPost2010PropOp47
 70
     1
102
RTVSPost2010Prop48
 90
       50
102
RTVSPost2010PropOp48
 70
     1
102
RTVSPost2010Prop49
280
     0
102
RTVSPost2010PropOp49
 70
     1
102
RTVSPost2010Prop50
 90
       50
102
RTVSPost2010PropOp50
 70
     1
102
RTVSPost2010Prop51ColorIndex
 90
      256
102
RTVSPost2010Prop51ColorRGB
 90
-16777216
102
RTVSPost2010PropOp51
 70
     0
102
RTVSPost2010Prop52
140
1.0
102
RTVSPost2010PropOp52
 70
     0
102
RTVSPost2010Prop53
 90
        2
102
RTVSPost2010PropOp53
 70
     1
102
RTVSPost2010Prop54
  1
strokes_ogs.tif
102
RTVSPost2010PropOp54
 70
     1
102
RTVSPost2010Prop55
280
     0
102
RTVSPost2010PropOp55
 70
     1
102
RTVSPost2010Prop56
140
1.0
102
RTVSPost2010PropOp56
 70
     1
102
RTVSPost2010Prop57
140
1.0
102
RTVSPost2010PropOp57
 70
     1
  0
XRECORD
  5
110
102
{ACAD_REACTORS
330
10F
102
}
330
10F
100
AcDbXrecord
280
     1
102
RTVSPost2010Prop28
280
     0
102
RTVSPost2010PropOp28
 70
     1
102
RTVSPost2010Prop29
280
     1
102
RTVSPost2010PropOp29
 70
     1
102
RTVSPost2010Prop30
280
     1
102
RTVSPost2010PropOp30
 70
     1
102
RTVSPost2010Prop31
280
     0
102
RTVSPost2010PropOp31
 70
     1
102
RTVSPost2010Prop32
280
     0
102
RTVSPost2010PropOp32
 70
     1
102
RTVSPost2010Prop33
280
     0
102
RTVSPost2010PropOp33
 70
     1
102
RTVSPost2010Prop34
280
     0
102
RTVSPost2010PropOp34
 70
     1
102
RTVSPost2010Prop35
280
     0
102
RTVSPost2010PropOp35
 70
     1
102
RTVSPost2010Prop36
280
     0
102
RTVSPost2010PropOp36
 70
     1
102
RTVSPost2010Prop37
 90
       50
102
RTVSPost2010PropOp37
 70
     1
102
RTVSPost2010Prop38
140
0.0
102
RTVSPost2010PropOp38
 70
     1
102
RTVSPost2010Prop39
140
1.0
102
RTVSPost2010PropOp39
 70
     1
102
RTVSPost2010Prop40
 90
        0
102
RTVSPost2010PropOp40
 70
     1
102
RTVSPost2010Prop41ColorIndex
 90
       18
102
RTVSPost2010Prop41ColorRGB
 90
        0
102
RTVSPost2010PropOp41
 70
     1
102
RTVSPost2010Prop42
 90
       50
102
RTVSPost2010PropOp42
 70
     1
102
RTVSPost2010Prop43
 90
        3
102
RTVSPost2010PropOp43
 70
     1
102
RTVSPost2010Prop44ColorIndex
 90
        5
102
RTVSPost2010Prop44ColorRGB
 90
      255
102
RTVSPost2010PropOp44
 70
     1
102
RTVSPost2010Prop45
280
     0
102
RTVSPost2010PropOp45
 70
     1
102
RTVSPost2010Prop46
 90
       50
102
RTVSPost2010PropOp46
 70
     1
102
RTVSPost2010Prop47
 90
       50
102
RTVSPost2010PropOp47
 70
     1
102
RTVSPost2010Prop48
 90
       50
102
RTVSPost2010PropOp48
 70
     1
102
RTVSPost2010Prop49
280
     0
102
RTVSPost2010PropOp49
 70
     1
102
RTVSPost2010Prop50
 90
       50
102
RTVSPost2010PropOp50
 70
     1
102
RTVSPost2010Prop51ColorIndex
 90
      256
102
RTVSPost2010Prop51ColorRGB
 90
-16777216
102
RTVSPost2010PropOp51
 70
     0
102
RTVSPost2010Prop52
140
1.0
102
RTVSPost2010PropOp52
 70
     0
102
RTVSPost2010Prop53
 90
        2
102
RTVSPost2010PropOp53
 70
     1
102
RTVSPost2010Prop54
  1
strokes_ogs.tif
102
RTVSPost2010PropOp54
 70
     1
102
RTVSPost2010Prop55
280
     0
102
RTVSPost2010PropOp55
 70
     1
102
RTVSPost2010Prop56
140
1.0
102
RTVSPost2010PropOp56
 70
     1
102
RTVSPost2010Prop57
140
1.0
102
RTVSPost2010PropOp57
 70
     1
  0
XRECORD
  5
112
102
{ACAD_REACTORS
330
111
102
}
330
111
100
AcDbXrecord
280
     1
102
RTVSPost2010Prop28
280
     0
102
RTVSPost2010PropOp28
 70
     1
102
RTVSPost2010Prop29
280
     1
102
RTVSPost2010PropOp29
 70
     1
102
RTVSPost2010Prop30
280
     1
102
RTVSPost2010PropOp30
 70
     1
102
RTVSPost2010Prop31
280
     0
102
RTVSPost2010PropOp31
 70
     1
102
RTVSPost2010Prop32
280
     0
102
RTVSPost2010PropOp32
 70
     1
102
RTVSPost2010Prop33
280
     0
102
RTVSPost2010PropOp33
 70
     1
102
RTVSPost2010Prop34
280
     0
102
RTVSPost2010PropOp34
 70
     1
102
RTVSPost2010Prop35
280
     0
102
RTVSPost2010PropOp35
 70
     1
102
RTVSPost2010Prop36
280
     0
102
RTVSPost2010PropOp36
 70
     1
102
RTVSPost2010Prop37
 90
       50
102
RTVSPost2010PropOp37
 70
     1
102
RTVSPost2010Prop38
140
0.0
102
RTVSPost2010PropOp38
 70
     1
102
RTVSPost2010Prop39
140
1.0
102
RTVSPost2010PropOp39
 70
     1
102
RTVSPost2010Prop40
 90
        0
102
RTVSPost2010PropOp40
 70
     1
102
RTVSPost2010Prop41ColorIndex
 90
       18
102
RTVSPost2010Prop41ColorRGB
 90
        0
102
RTVSPost2010PropOp41
 70
     1
102
RTVSPost2010Prop42
 90
       50
102
RTVSPost2010PropOp42
 70
     1
102
RTVSPost2010Prop43
 90
        3
102
RTVSPost2010PropOp43
 70
     1
102
RTVSPost2010Prop44ColorIndex
 90
        5
102
RTVSPost2010Prop44ColorRGB
 90
      255
102
RTVSPost2010PropOp44
 70
     1
102
RTVSPost2010Prop45
280
     0
102
RTVSPost2010PropOp45
 70
     1
102
RTVSPost2010Prop46
 90
       50
102
RTVSPost2010PropOp46
 70
     1
102
RTVSPost2010Prop47
 90
       50
102
RTVSPost2010PropOp47
 70
     1
102
RTVSPost2010Prop48
 90
       50
102
RTVSPost2010PropOp48
 70
     1
102
RTVSPost2010Prop49
280
     0
102
RTVSPost2010PropOp49
 70
     1
102
RTVSPost2010Prop50
 90
       50
102
RTVSPost2010PropOp50
 70
     1
102
RTVSPost2010Prop51ColorIndex
 90
      256
102
RTVSPost2010Prop51ColorRGB
 90
-16777216
102
RTVSPost2010PropOp51
 70
     0
102
RTVSPost2010Prop52
140
1.0
102
RTVSPost2010PropOp52
 70
     0
102
RTVSPost2010Prop53
 90
        2
102
RTVSPost2010PropOp53
 70
     1
102
RTVSPost2010Prop54
  1
strokes_ogs.tif
102
RTVSPost2010PropOp54
 70
     1
102
RTVSPost2010Prop55
280
     0
102
RTVSPost2010PropOp55
 70
     1
102
RTVSPost2010Prop56
140
1.0
102
RTVSPost2010PropOp56
 70
     1
102
RTVSPost2010Prop57
140
1.0
102
RTVSPost2010PropOp57
 70
     1
  0
XRECORD
  5
114
102
{ACAD_REACTORS
330
113
102
}
330
113
100
AcDbXrecord
280
     1
102
RTVSPost2010Prop28
280
     0
102
RTVSPost2010PropOp28
 70
     1
102
RTVSPost2010Prop29
280
     1
102
RTVSPost2010PropOp29
 70
     1
102
RTVSPost2010Prop30
280
     1
102
RTVSPost2010PropOp30
 70
     1
102
RTVSPost2010Prop31
280
     0
102
RTVSPost2010PropOp31
 70
     1
102
RTVSPost2010Prop32
280
     0
102
RTVSPost2010PropOp32
 70
     1
102
RTVSPost2010Prop33
280
     0
102
RTVSPost2010PropOp33
 70
     1
102
RTVSPost2010Prop34
280
     0
102
RTVSPost2010PropOp34
 70
     1
102
RTVSPost2010Prop35
280
     0
102
RTVSPost2010PropOp35
 70
     1
102
RTVSPost2010Prop36
280
     0
102
RTVSPost2010PropOp36
 70
     1
102
RTVSPost2010Prop37
 90
       50
102
RTVSPost2010PropOp37
 70
     1
102
RTVSPost2010Prop38
140
0.0
102
RTVSPost2010PropOp38
 70
     1
102
RTVSPost2010Prop39
140
1.0
102
RTVSPost2010PropOp39
 70
     1
102
RTVSPost2010Prop40
 90
        0
102
RTVSPost2010PropOp40
 70
     1
102
RTVSPost2010Prop41ColorIndex
 90
       18
102
RTVSPost2010Prop41ColorRGB
 90
        0
102
RTVSPost2010PropOp41
 70
     1
102
RTVSPost2010Prop42
 90
       50
102
RTVSPost2010PropOp42
 70
     1
102
RTVSPost2010Prop43
 90
        3
102
RTVSPost2010PropOp43
 70
     1
102
RTVSPost2010Prop44ColorIndex
 90
        5
102
RTVSPost2010Prop44ColorRGB
 90
      255
102
RTVSPost2010PropOp44
 70
     1
102
RTVSPost2010Prop45
280
     0
102
RTVSPost2010PropOp45
 70
     1
102
RTVSPost2010Prop46
 90
       50
102
RTVSPost2010PropOp46
 70
     1
102
RTVSPost2010Prop47
 90
       50
102
RTVSPost2010PropOp47
 70
     1
102
RTVSPost2010Prop48
 90
       50
102
RTVSPost2010PropOp48
 70
     1
102
RTVSPost2010Prop49
280
     0
102
RTVSPost2010PropOp49
 70
     1
102
RTVSPost2010Prop50
 90
       50
102
RTVSPost2010PropOp50
 70
     1
102
RTVSPost2010Prop51ColorIndex
 90
      256
102
RTVSPost2010Prop51ColorRGB
 90
-16777216
102
RTVSPost2010PropOp51
 70
     0
102
RTVSPost2010Prop52
140
1.0
102
RTVSPost2010PropOp52
 70
     0
102
RTVSPost2010Prop53
 90
        2
102
RTVSPost2010PropOp53
 70
     1
102
RTVSPost2010Prop54
  1
strokes_ogs.tif
102
RTVSPost2010PropOp54
 70
     1
102
RTVSPost2010Prop55
280
     0
102
RTVSPost2010PropOp55
 70
     1
102
RTVSPost2010Prop56
140
1.0
102
RTVSPost2010PropOp56
 70
     1
102
RTVSPost2010Prop57
140
1.0
102
RTVSPost2010PropOp57
 70
     1
  0
XRECORD
  5
11C
102
{ACAD_REACTORS
330
11B
102
}
330
11B
100
AcDbXrecord
280
     1
102
RTVSPost2010Prop28
280
     0
102
RTVSPost2010PropOp28
 70
     1
102
RTVSPost2010Prop29
280
     1
102
RTVSPost2010PropOp29
 70
     1
102
RTVSPost2010Prop30
280
     1
102
RTVSPost2010PropOp30
 70
     1
102
RTVSPost2010Prop31
280
     0
102
RTVSPost2010PropOp31
 70
     1
102
RTVSPost2010Prop32
280
     0
102
RTVSPost2010PropOp32
 70
     1
102
RTVSPost2010Prop33
280
     0
102
RTVSPost2010PropOp33
 70
     1
102
RTVSPost2010Prop34
280
     0
102
RTVSPost2010PropOp34
 70
     1
102
RTVSPost2010Prop35
280
     0
102
RTVSPost2010PropOp35
 70
     1
102
RTVSPost2010Prop36
280
     0
102
RTVSPost2010PropOp36
 70
     1
102
RTVSPost2010Prop37
 90
       50
102
RTVSPost2010PropOp37
 70
     1
102
RTVSPost2010Prop38
140
0.0
102
RTVSPost2010PropOp38
 70
     1
102
RTVSPost2010Prop39
140
1.0
102
RTVSPost2010PropOp39
 70
     1
102
RTVSPost2010Prop40
 90
        0
102
RTVSPost2010PropOp40
 70
     1
102
RTVSPost2010Prop41ColorIndex
 90
       18
102
RTVSPost2010Prop41ColorRGB
 90
        0
102
RTVSPost2010PropOp41
 70
     1
102
RTVSPost2010Prop42
 90
       50
102
RTVSPost2010PropOp42
 70
     1
102
RTVSPost2010Prop43
 90
        3
102
RTVSPost2010PropOp43
 70
     1
102
RTVSPost2010Prop44ColorIndex
 90
        5
102
RTVSPost2010Prop44ColorRGB
 90
      255
102
RTVSPost2010PropOp44
 70
     1
102
RTVSPost2010Prop45
280
     0
102
RTVSPost2010PropOp45
 70
     1
102
RTVSPost2010Prop46
 90
       50
102
RTVSPost2010PropOp46
 70
     1
102
RTVSPost2010Prop47
 90
       50
102
RTVSPost2010PropOp47
 70
     1
102
RTVSPost2010Prop48
 90
       50
102
RTVSPost2010PropOp48
 70
     1
102
RTVSPost2010Prop49
280
     0
102
RTVSPost2010PropOp49
 70
     1
102
RTVSPost2010Prop50
 90
       50
102
RTVSPost2010PropOp50
 70
     1
102
RTVSPost2010Prop51ColorIndex
 90
      256
102
RTVSPost2010Prop51ColorRGB
 90
-16777216
102
RTVSPost2010PropOp51
 70
     0
102
RTVSPost2010Prop52
140
1.0
102
RTVSPost2010PropOp52
 70
     0
102
RTVSPost2010Prop53
 90
        2
102
RTVSPost2010PropOp53
 70
     1
102
RTVSPost2010Prop54
  1
strokes_ogs.tif
102
RTVSPost2010PropOp54
 70
     1
102
RTVSPost2010Prop55
280
     0
102
RTVSPost2010PropOp55
 70
     1
102
RTVSPost2010Prop56
140
1.0
102
RTVSPost2010PropOp56
 70
     1
102
RTVSPost2010Prop57
140
1.0
102
RTVSPost2010PropOp57
 70
     1
  0
XRECORD
  5
138
102
{ACAD_REACTORS
330
137
102
}
330
137
100
AcDbXrecord
280
     1
102
RTVSPost2010Prop28
280
     0
102
RTVSPost2010PropOp28
 70
     0
102
RTVSPost2010Prop29
280
     1
102
RTVSPost2010PropOp29
 70
     0
102
RTVSPost2010Prop30
280
     1
102
RTVSPost2010PropOp30
 70
     0
102
RTVSPost2010Prop31
280
     0
102
RTVSPost2010PropOp31
 70
     0
102
RTVSPost2010Prop32
280
     0
102
RTVSPost2010PropOp32
 70
     0
102
RTVSPost2010Prop33
280
     0
102
RTVSPost2010PropOp33
 70
     0
102
RTVSPost2010Prop34
280
     0
102
RTVSPost2010PropOp34
 70
     0
102
RTVSPost2010Prop35
280
     0
102
RTVSPost2010PropOp35
 70
     0
102
RTVSPost2010Prop36
280
     0
102
RTVSPost2010PropOp36
 70
     0
102
RTVSPost2010Prop37
 90
       50
102
RTVSPost2010PropOp37
 70
     0
102
RTVSPost2010Prop38
140
0.0
102
RTVSPost2010PropOp38
 70
     0
102
RTVSPost2010Prop39
140
1.0
102
RTVSPost2010PropOp39
 70
     0
102
RTVSPost2010Prop40
 90
        0
102
RTVSPost2010PropOp40
 70
     0
102
RTVSPost2010Prop41ColorIndex
 90
       18
102
RTVSPost2010Prop41ColorRGB
 90
        0
102
RTVSPost2010PropOp41
 70
     0
102
RTVSPost2010Prop42
 90
       50
102
RTVSPost2010PropOp42
 70
     0
102
RTVSPost2010Prop43
 90
        3
102
RTVSPost2010PropOp43
 70
     0
102
RTVSPost2010Prop44ColorIndex
 90
        5
102
RTVSPost2010Prop44ColorRGB
 90
      255
102
RTVSPost2010PropOp44
 70
     0
102
RTVSPost2010Prop45
280
     0
102
RTVSPost2010PropOp45
 70
     0
102
RTVSPost2010Prop46
 90
       50
102
RTVSPost2010PropOp46
 70
     0
102
RTVSPost2010Prop47
 90
       50
102
RTVSPost2010PropOp47
 70
     0
102
RTVSPost2010Prop48
 90
       50
102
RTVSPost2010PropOp48
 70
     0
102
RTVSPost2010Prop49
280
     0
102
RTVSPost2010PropOp49
 70
     0
102
RTVSPost2010Prop50
 90
       50
102
RTVSPost2010PropOp50
 70
     0
102
RTVSPost2010Prop51ColorIndex
 90
      256
102
RTVSPost2010Prop51ColorRGB
 90
-16777216
102
RTVSPost2010PropOp51
 70
     0
102
RTVSPost2010Prop52
140
1.0
102
RTVSPost2010PropOp52
 70
     0
102
RTVSPost2010Prop53
 90
        2
102
RTVSPost2010PropOp53
 70
     0
102
RTVSPost2010Prop54
  1
strokes_ogs.tif
102
RTVSPost2010PropOp54
 70
     0
102
RTVSPost2010Prop55
280
     0
102
RTVSPost2010PropOp55
 70
     0
102
RTVSPost2010Prop56
140
1.0
102
RTVSPost2010PropOp56
 70
     0
102
RTVSPost2010Prop57
140
1.0
102
RTVSPost2010PropOp57
 70
     0
  0
XRECORD
  5
128
102
{ACAD_REACTORS
330
127
102
}
330
127
100
AcDbXrecord
280
     1
102
RTVSPost2010Prop28
280
     0
102
RTVSPost2010PropOp28
 70
     1
102
RTVSPost2010Prop29
280
     1
102
RTVSPost2010PropOp29
 70
     1
102
RTVSPost2010Prop30
280
     1
102
RTVSPost2010PropOp30
 70
     1
102
RTVSPost2010Prop31
280
     0
102
RTVSPost2010PropOp31
 70
     1
102
RTVSPost2010Prop32
280
     0
102
RTVSPost2010PropOp32
 70
     1
102
RTVSPost2010Prop33
280
     0
102
RTVSPost2010PropOp33
 70
     1
102
RTVSPost2010Prop34
280
     0
102
RTVSPost2010PropOp34
 70
     1
102
RTVSPost2010Prop35
280
     0
102
RTVSPost2010PropOp35
 70
     1
102
RTVSPost2010Prop36
280
     0
102
RTVSPost2010PropOp36
 70
     1
102
RTVSPost2010Prop37
 90
       50
102
RTVSPost2010PropOp37
 70
     1
102
RTVSPost2010Prop38
140
0.0
102
RTVSPost2010PropOp38
 70
     1
102
RTVSPost2010Prop39
140
1.0
102
RTVSPost2010PropOp39
 70
     1
102
RTVSPost2010Prop40
 90
        0
102
RTVSPost2010PropOp40
 70
     1
102
RTVSPost2010Prop41ColorIndex
 90
       18
102
RTVSPost2010Prop41ColorRGB
 90
        0
102
RTVSPost2010PropOp41
 70
     1
102
RTVSPost2010Prop42
 90
       50
102
RTVSPost2010PropOp42
 70
     1
102
RTVSPost2010Prop43
 90
        3
102
RTVSPost2010PropOp43
 70
     1
102
RTVSPost2010Prop44ColorIndex
 90
        5
102
RTVSPost2010Prop44ColorRGB
 90
      255
102
RTVSPost2010PropOp44
 70
     1
102
RTVSPost2010Prop45
280
     0
102
RTVSPost2010PropOp45
 70
     1
102
RTVSPost2010Prop46
 90
       50
102
RTVSPost2010PropOp46
 70
     1
102
RTVSPost2010Prop47
 90
       50
102
RTVSPost2010PropOp47
 70
     1
102
RTVSPost2010Prop48
 90
       50
102
RTVSPost2010PropOp48
 70
     1
102
RTVSPost2010Prop49
280
     0
102
RTVSPost2010PropOp49
 70
     1
102
RTVSPost2010Prop50
 90
       50
102
RTVSPost2010PropOp50
 70
     1
102
RTVSPost2010Prop51ColorIndex
 90
      256
102
RTVSPost2010Prop51ColorRGB
 90
-16777216
102
RTVSPost2010PropOp51
 70
     0
102
RTVSPost2010Prop52
140
1.0
102
RTVSPost2010PropOp52
 70
     0
102
RTVSPost2010Prop53
 90
        2
102
RTVSPost2010PropOp53
 70
     1
102
RTVSPost2010Prop54
  1
strokes_ogs.tif
102
RTVSPost2010PropOp54
 70
     1
102
RTVSPost2010Prop55
280
     0
102
RTVSPost2010PropOp55
 70
     1
102
RTVSPost2010Prop56
140
1.0
102
RTVSPost2010PropOp56
 70
     1
102
RTVSPost2010Prop57
140
1.0
102
RTVSPost2010PropOp57
 70
     1
  0
XRECORD
  5
13A
102
{ACAD_REACTORS
330
139
102
}
330
139
100
AcDbXrecord
280
     1
102
RTVSPost2010Prop28
280
     0
102
RTVSPost2010PropOp28
 70
     0
102
RTVSPost2010Prop29
280
     1
102
RTVSPost2010PropOp29
 70
     0
102
RTVSPost2010Prop30
280
     1
102
RTVSPost2010PropOp30
 70
     0
102
RTVSPost2010Prop31
280
     0
102
RTVSPost2010PropOp31
 70
     0
102
RTVSPost2010Prop32
280
     0
102
RTVSPost2010PropOp32
 70
     0
102
RTVSPost2010Prop33
280
     0
102
RTVSPost2010PropOp33
 70
     0
102
RTVSPost2010Prop34
280
     0
102
RTVSPost2010PropOp34
 70
     0
102
RTVSPost2010Prop35
280
     0
102
RTVSPost2010PropOp35
 70
     0
102
RTVSPost2010Prop36
280
     0
102
RTVSPost2010PropOp36
 70
     0
102
RTVSPost2010Prop37
 90
       50
102
RTVSPost2010PropOp37
 70
     0
102
RTVSPost2010Prop38
140
0.0
102
RTVSPost2010PropOp38
 70
     0
102
RTVSPost2010Prop39
140
1.0
102
RTVSPost2010PropOp39
 70
     0
102
RTVSPost2010Prop40
 90
        0
102
RTVSPost2010PropOp40
 70
     0
102
RTVSPost2010Prop41ColorIndex
 90
       18
102
RTVSPost2010Prop41ColorRGB
 90
        0
102
RTVSPost2010PropOp41
 70
     0
102
RTVSPost2010Prop42
 90
       50
102
RTVSPost2010PropOp42
 70
     0
102
RTVSPost2010Prop43
 90
        3
102
RTVSPost2010PropOp43
 70
     0
102
RTVSPost2010Prop44ColorIndex
 90
        5
102
RTVSPost2010Prop44ColorRGB
 90
      255
102
RTVSPost2010PropOp44
 70
     0
102
RTVSPost2010Prop45
280
     0
102
RTVSPost2010PropOp45
 70
     0
102
RTVSPost2010Prop46
 90
       50
102
RTVSPost2010PropOp46
 70
     0
102
RTVSPost2010Prop47
 90
       50
102
RTVSPost2010PropOp47
 70
     0
102
RTVSPost2010Prop48
 90
       50
102
RTVSPost2010PropOp48
 70
     0
102
RTVSPost2010Prop49
280
     0
102
RTVSPost2010PropOp49
 70
     0
102
RTVSPost2010Prop50
 90
       50
102
RTVSPost2010PropOp50
 70
     0
102
RTVSPost2010Prop51ColorIndex
 90
      256
102
RTVSPost2010Prop51ColorRGB
 90
-16777216
102
RTVSPost2010PropOp51
 70
     0
102
RTVSPost2010Prop52
140
1.0
102
RTVSPost2010PropOp52
 70
     0
102
RTVSPost2010Prop53
 90
        2
102
RTVSPost2010PropOp53
 70
     0
102
RTVSPost2010Prop54
  1
strokes_ogs.tif
102
RTVSPost2010PropOp54
 70
     0
102
RTVSPost2010Prop55
280
     0
102
RTVSPost2010PropOp55
 70
     0
102
RTVSPost2010Prop56
140
1.0
102
RTVSPost2010PropOp56
 70
     0
102
RTVSPost2010Prop57
140
1.0
102
RTVSPost2010PropOp57
 70
     0
  0
XRECORD
  5
120
102
{ACAD_REACTORS
330
11F
102
}
330
11F
100
AcDbXrecord
280
     1
102
RTVSPost2010Prop28
280
     0
102
RTVSPost2010PropOp28
 70
     1
102
RTVSPost2010Prop29
280
     1
102
RTVSPost2010PropOp29
 70
     1
102
RTVSPost2010Prop30
280
     1
102
RTVSPost2010PropOp30
 70
     1
102
RTVSPost2010Prop31
280
     0
102
RTVSPost2010PropOp31
 70
     1
102
RTVSPost2010Prop32
280
     0
102
RTVSPost2010PropOp32
 70
     1
102
RTVSPost2010Prop33
280
     0
102
RTVSPost2010PropOp33
 70
     1
102
RTVSPost2010Prop34
280
     0
102
RTVSPost2010PropOp34
 70
     1
102
RTVSPost2010Prop35
280
     0
102
RTVSPost2010PropOp35
 70
     1
102
RTVSPost2010Prop36
280
     0
102
RTVSPost2010PropOp36
 70
     1
102
RTVSPost2010Prop37
 90
       50
102
RTVSPost2010PropOp37
 70
     1
102
RTVSPost2010Prop38
140
0.0
102
RTVSPost2010PropOp38
 70
     1
102
RTVSPost2010Prop39
140
1.0
102
RTVSPost2010PropOp39
 70
     1
102
RTVSPost2010Prop40
 90
        0
102
RTVSPost2010PropOp40
 70
     1
102
RTVSPost2010Prop41ColorIndex
 90
       18
102
RTVSPost2010Prop41ColorRGB
 90
        0
102
RTVSPost2010PropOp41
 70
     1
102
RTVSPost2010Prop42
 90
       50
102
RTVSPost2010PropOp42
 70
     1
102
RTVSPost2010Prop43
 90
        3
102
RTVSPost2010PropOp43
 70
     1
102
RTVSPost2010Prop44ColorIndex
 90
        5
102
RTVSPost2010Prop44ColorRGB
 90
      255
102
RTVSPost2010PropOp44
 70
     1
102
RTVSPost2010Prop45
280
     0
102
RTVSPost2010PropOp45
 70
     1
102
RTVSPost2010Prop46
 90
       50
102
RTVSPost2010PropOp46
 70
     1
102
RTVSPost2010Prop47
 90
       50
102
RTVSPost2010PropOp47
 70
     1
102
RTVSPost2010Prop48
 90
       50
102
RTVSPost2010PropOp48
 70
     1
102
RTVSPost2010Prop49
280
     0
102
RTVSPost2010PropOp49
 70
     1
102
RTVSPost2010Prop50
 90
       50
102
RTVSPost2010PropOp50
 70
     1
102
RTVSPost2010Prop51ColorIndex
 90
      256
102
RTVSPost2010Prop51ColorRGB
 90
-16777216
102
RTVSPost2010PropOp51
 70
     0
102
RTVSPost2010Prop52
140
1.0
102
RTVSPost2010PropOp52
 70
     0
102
RTVSPost2010Prop53
 90
        2
102
RTVSPost2010PropOp53
 70
     1
102
RTVSPost2010Prop54
  1
strokes_ogs.tif
102
RTVSPost2010PropOp54
 70
     1
102
RTVSPost2010Prop55
280
     0
102
RTVSPost2010PropOp55
 70
     1
102
RTVSPost2010Prop56
140
1.0
102
RTVSPost2010PropOp56
 70
     1
102
RTVSPost2010Prop57
140
1.0
102
RTVSPost2010PropOp57
 70
     1
  0
XRECORD
  5
136
102
{ACAD_REACTORS
330
135
102
}
330
135
100
AcDbXrecord
280
     1
102
RTVSPost2010Prop28
280
     0
102
RTVSPost2010PropOp28
 70
     1
102
RTVSPost2010Prop29
280
     1
102
RTVSPost2010PropOp29
 70
     1
102
RTVSPost2010Prop30
280
     1
102
RTVSPost2010PropOp30
 70
     1
102
RTVSPost2010Prop31
280
     0
102
RTVSPost2010PropOp31
 70
     1
102
RTVSPost2010Prop32
280
     0
102
RTVSPost2010PropOp32
 70
     1
102
RTVSPost2010Prop33
280
     0
102
RTVSPost2010PropOp33
 70
     1
102
RTVSPost2010Prop34
280
     0
102
RTVSPost2010PropOp34
 70
     1
102
RTVSPost2010Prop35
280
     0
102
RTVSPost2010PropOp35
 70
     1
102
RTVSPost2010Prop36
280
     0
102
RTVSPost2010PropOp36
 70
     1
102
RTVSPost2010Prop37
 90
       50
102
RTVSPost2010PropOp37
 70
     1
102
RTVSPost2010Prop38
140
0.0
102
RTVSPost2010PropOp38
 70
     1
102
RTVSPost2010Prop39
140
1.0
102
RTVSPost2010PropOp39
 70
     1
102
RTVSPost2010Prop40
 90
        0
102
RTVSPost2010PropOp40
 70
     1
102
RTVSPost2010Prop41ColorIndex
 90
       18
102
RTVSPost2010Prop41ColorRGB
 90
        0
102
RTVSPost2010PropOp41
 70
     1
102
RTVSPost2010Prop42
 90
       50
102
RTVSPost2010PropOp42
 70
     1
102
RTVSPost2010Prop43
 90
        3
102
RTVSPost2010PropOp43
 70
     1
102
RTVSPost2010Prop44ColorIndex
 90
        5
102
RTVSPost2010Prop44ColorRGB
 90
      255
102
RTVSPost2010PropOp44
 70
     1
102
RTVSPost2010Prop45
280
     0
102
RTVSPost2010PropOp45
 70
     1
102
RTVSPost2010Prop46
 90
       50
102
RTVSPost2010PropOp46
 70
     1
102
RTVSPost2010Prop47
 90
       50
102
RTVSPost2010PropOp47
 70
     1
102
RTVSPost2010Prop48
 90
       50
102
RTVSPost2010PropOp48
 70
     1
102
RTVSPost2010Prop49
280
     0
102
RTVSPost2010PropOp49
 70
     1
102
RTVSPost2010Prop50
 90
       50
102
RTVSPost2010PropOp50
 70
     1
102
RTVSPost2010Prop51ColorIndex
 90
      256
102
RTVSPost2010Prop51ColorRGB
 90
-16777216
102
RTVSPost2010PropOp51
 70
     0
102
RTVSPost2010Prop52
140
1.0
102
RTVSPost2010PropOp52
 70
     0
102
RTVSPost2010Prop53
 90
        2
102
RTVSPost2010PropOp53
 70
     1
102
RTVSPost2010Prop54
  1
strokes_ogs.tif
102
RTVSPost2010PropOp54
 70
     1
102
RTVSPost2010Prop55
280
     0
102
RTVSPost2010PropOp55
 70
     1
102
RTVSPost2010Prop56
140
1.0
102
RTVSPost2010PropOp56
 70
     1
102
RTVSPost2010Prop57
140
1.0
102
RTVSPost2010PropOp57
 70
     1
  0
XRECORD
  5
134
102
{ACAD_REACTORS
330
133
102
}
330
133
100
AcDbXrecord
280
     1
102
RTVSPost2010Prop28
280
     0
102
RTVSPost2010PropOp28
 70
     1
102
RTVSPost2010Prop29
280
     1
102
RTVSPost2010PropOp29
 70
     1
102
RTVSPost2010Prop30
280
     1
102
RTVSPost2010PropOp30
 70
     1
102
RTVSPost2010Prop31
280
     0
102
RTVSPost2010PropOp31
 70
     1
102
RTVSPost2010Prop32
280
     0
102
RTVSPost2010PropOp32
 70
     1
102
RTVSPost2010Prop33
280
     0
102
RTVSPost2010PropOp33
 70
     1
102
RTVSPost2010Prop34
280
     0
102
RTVSPost2010PropOp34
 70
     1
102
RTVSPost2010Prop35
280
     0
102
RTVSPost2010PropOp35
 70
     1
102
RTVSPost2010Prop36
280
     0
102
RTVSPost2010PropOp36
 70
     1
102
RTVSPost2010Prop37
 90
       50
102
RTVSPost2010PropOp37
 70
     1
102
RTVSPost2010Prop38
140
0.0
102
RTVSPost2010PropOp38
 70
     1
102
RTVSPost2010Prop39
140
1.0
102
RTVSPost2010PropOp39
 70
     1
102
RTVSPost2010Prop40
 90
        0
102
RTVSPost2010PropOp40
 70
     1
102
RTVSPost2010Prop41ColorIndex
 90
       18
102
RTVSPost2010Prop41ColorRGB
 90
        0
102
RTVSPost2010PropOp41
 70
     1
102
RTVSPost2010Prop42
 90
       50
102
RTVSPost2010PropOp42
 70
     1
102
RTVSPost2010Prop43
 90
        3
102
RTVSPost2010PropOp43
 70
     1
102
RTVSPost2010Prop44ColorIndex
 90
        5
102
RTVSPost2010Prop44ColorRGB
 90
      255
102
RTVSPost2010PropOp44
 70
     1
102
RTVSPost2010Prop45
280
     0
102
RTVSPost2010PropOp45
 70
     1
102
RTVSPost2010Prop46
 90
       50
102
RTVSPost2010PropOp46
 70
     1
102
RTVSPost2010Prop47
 90
       50
102
RTVSPost2010PropOp47
 70
     1
102
RTVSPost2010Prop48
 90
       50
102
RTVSPost2010PropOp48
 70
     1
102
RTVSPost2010Prop49
280
     0
102
RTVSPost2010PropOp49
 70
     1
102
RTVSPost2010Prop50
 90
       50
102
RTVSPost2010PropOp50
 70
     1
102
RTVSPost2010Prop51ColorIndex
 90
      256
102
RTVSPost2010Prop51ColorRGB
 90
-16777216
102
RTVSPost2010PropOp51
 70
     0
102
RTVSPost2010Prop52
140
1.0
102
RTVSPost2010PropOp52
 70
     0
102
RTVSPost2010Prop53
 90
        2
102
RTVSPost2010PropOp53
 70
     1
102
RTVSPost2010Prop54
  1
strokes_ogs.tif
102
RTVSPost2010PropOp54
 70
     1
102
RTVSPost2010Prop55
280
     0
102
RTVSPost2010PropOp55
 70
     1
102
RTVSPost2010Prop56
140
1.0
102
RTVSPost2010PropOp56
 70
     1
102
RTVSPost2010Prop57
140
1.0
102
RTVSPost2010PropOp57
 70
     1
  0
XRECORD
  5
12E
102
{ACAD_REACTORS
330
12D
102
}
330
12D
100
AcDbXrecord
280
     1
102
RTVSPost2010Prop28
280
     0
102
RTVSPost2010PropOp28
 70
     1
102
RTVSPost2010Prop29
280
     1
102
RTVSPost2010PropOp29
 70
     1
102
RTVSPost2010Prop30
280
     1
102
RTVSPost2010PropOp30
 70
     1
102
RTVSPost2010Prop31
280
     0
102
RTVSPost2010PropOp31
 70
     1
102
RTVSPost2010Prop32
280
     0
102
RTVSPost2010PropOp32
 70
     1
102
RTVSPost2010Prop33
280
     0
102
RTVSPost2010PropOp33
 70
     1
102
RTVSPost2010Prop34
280
     0
102
RTVSPost2010PropOp34
 70
     1
102
RTVSPost2010Prop35
280
     0
102
RTVSPost2010PropOp35
 70
     1
102
RTVSPost2010Prop36
280
     0
102
RTVSPost2010PropOp36
 70
     1
102
RTVSPost2010Prop37
 90
       50
102
RTVSPost2010PropOp37
 70
     1
102
RTVSPost2010Prop38
140
0.0
102
RTVSPost2010PropOp38
 70
     1
102
RTVSPost2010Prop39
140
1.0
102
RTVSPost2010PropOp39
 70
     1
102
RTVSPost2010Prop40
 90
        0
102
RTVSPost2010PropOp40
 70
     1
102
RTVSPost2010Prop41ColorIndex
 90
       18
102
RTVSPost2010Prop41ColorRGB
 90
        0
102
RTVSPost2010PropOp41
 70
     1
102
RTVSPost2010Prop42
 90
       50
102
RTVSPost2010PropOp42
 70
     1
102
RTVSPost2010Prop43
 90
        3
102
RTVSPost2010PropOp43
 70
     1
102
RTVSPost2010Prop44ColorIndex
 90
        5
102
RTVSPost2010Prop44ColorRGB
 90
      255
102
RTVSPost2010PropOp44
 70
     1
102
RTVSPost2010Prop45
280
     0
102
RTVSPost2010PropOp45
 70
     1
102
RTVSPost2010Prop46
 90
       50
102
RTVSPost2010PropOp46
 70
     1
102
RTVSPost2010Prop47
 90
       50
102
RTVSPost2010PropOp47
 70
     1
102
RTVSPost2010Prop48
 90
       50
102
RTVSPost2010PropOp48
 70
     1
102
RTVSPost2010Prop49
280
     0
102
RTVSPost2010PropOp49
 70
     1
102
RTVSPost2010Prop50
 90
       50
102
RTVSPost2010PropOp50
 70
     1
102
RTVSPost2010Prop51ColorIndex
 90
      256
102
RTVSPost2010Prop51ColorRGB
 90
-16777216
102
RTVSPost2010PropOp51
 70
     0
102
RTVSPost2010Prop52
140
1.0
102
RTVSPost2010PropOp52
 70
     0
102
RTVSPost2010Prop53
 90
        2
102
RTVSPost2010PropOp53
 70
     1
102
RTVSPost2010Prop54
  1
strokes_ogs.tif
102
RTVSPost2010PropOp54
 70
     1
102
RTVSPost2010Prop55
280
     0
102
RTVSPost2010PropOp55
 70
     1
102
RTVSPost2010Prop56
140
1.0
102
RTVSPost2010PropOp56
 70
     1
102
RTVSPost2010Prop57
140
1.0
102
RTVSPost2010PropOp57
 70
     1
  0
XRECORD
  5
130
102
{ACAD_REACTORS
330
12F
102
}
330
12F
100
AcDbXrecord
280
     1
102
RTVSPost2010Prop28
280
     0
102
RTVSPost2010PropOp28
 70
     1
102
RTVSPost2010Prop29
280
     1
102
RTVSPost2010PropOp29
 70
     1
102
RTVSPost2010Prop30
280
     1
102
RTVSPost2010PropOp30
 70
     1
102
RTVSPost2010Prop31
280
     0
102
RTVSPost2010PropOp31
 70
     1
102
RTVSPost2010Prop32
280
     0
102
RTVSPost2010PropOp32
 70
     1
102
RTVSPost2010Prop33
280
     0
102
RTVSPost2010PropOp33
 70
     1
102
RTVSPost2010Prop34
280
     0
102
RTVSPost2010PropOp34
 70
     1
102
RTVSPost2010Prop35
280
     0
102
RTVSPost2010PropOp35
 70
     1
102
RTVSPost2010Prop36
280
     0
102
RTVSPost2010PropOp36
 70
     1
102
RTVSPost2010Prop37
 90
       50
102
RTVSPost2010PropOp37
 70
     1
102
RTVSPost2010Prop38
140
0.0
102
RTVSPost2010PropOp38
 70
     1
102
RTVSPost2010Prop39
140
1.0
102
RTVSPost2010PropOp39
 70
     1
102
RTVSPost2010Prop40
 90
        0
102
RTVSPost2010PropOp40
 70
     1
102
RTVSPost2010Prop41ColorIndex
 90
       18
102
RTVSPost2010Prop41ColorRGB
 90
        0
102
RTVSPost2010PropOp41
 70
     1
102
RTVSPost2010Prop42
 90
       50
102
RTVSPost2010PropOp42
 70
     1
102
RTVSPost2010Prop43
 90
        3
102
RTVSPost2010PropOp43
 70
     1
102
RTVSPost2010Prop44ColorIndex
 90
        5
102
RTVSPost2010Prop44ColorRGB
 90
      255
102
RTVSPost2010PropOp44
 70
     1
102
RTVSPost2010Prop45
280
     0
102
RTVSPost2010PropOp45
 70
     1
102
RTVSPost2010Prop46
 90
       50
102
RTVSPost2010PropOp46
 70
     1
102
RTVSPost2010Prop47
 90
       50
102
RTVSPost2010PropOp47
 70
     1
102
RTVSPost2010Prop48
 90
       50
102
RTVSPost2010PropOp48
 70
     1
102
RTVSPost2010Prop49
280
     0
102
RTVSPost2010PropOp49
 70
     1
102
RTVSPost2010Prop50
 90
       50
102
RTVSPost2010PropOp50
 70
     1
102
RTVSPost2010Prop51ColorIndex
 90
      256
102
RTVSPost2010Prop51ColorRGB
 90
-16777216
102
RTVSPost2010PropOp51
 70
     0
102
RTVSPost2010Prop52
140
1.0
102
RTVSPost2010PropOp52
 70
     0
102
RTVSPost2010Prop53
 90
        2
102
RTVSPost2010PropOp53
 70
     1
102
RTVSPost2010Prop54
  1
strokes_ogs.tif
102
RTVSPost2010PropOp54
 70
     1
102
RTVSPost2010Prop55
280
     0
102
RTVSPost2010PropOp55
 70
     1
102
RTVSPost2010Prop56
140
1.0
102
RTVSPost2010PropOp56
 70
     1
102
RTVSPost2010Prop57
140
1.0
102
RTVSPost2010PropOp57
 70
     1
  0
XRECORD
  5
126
102
{ACAD_REACTORS
330
125
102
}
330
125
100
AcDbXrecord
280
     1
102
RTVSPost2010Prop28
280
     0
102
RTVSPost2010PropOp28
 70
     1
102
RTVSPost2010Prop29
280
     1
102
RTVSPost2010PropOp29
 70
     1
102
RTVSPost2010Prop30
280
     1
102
RTVSPost2010PropOp30
 70
     1
102
RTVSPost2010Prop31
280
     0
102
RTVSPost2010PropOp31
 70
     1
102
RTVSPost2010Prop32
280
     0
102
RTVSPost2010PropOp32
 70
     1
102
RTVSPost2010Prop33
280
     0
102
RTVSPost2010PropOp33
 70
     1
102
RTVSPost2010Prop34
280
     0
102
RTVSPost2010PropOp34
 70
     1
102
RTVSPost2010Prop35
280
     0
102
RTVSPost2010PropOp35
 70
     1
102
RTVSPost2010Prop36
280
     0
102
RTVSPost2010PropOp36
 70
     1
102
RTVSPost2010Prop37
 90
       50
102
RTVSPost2010PropOp37
 70
     1
102
RTVSPost2010Prop38
140
0.0
102
RTVSPost2010PropOp38
 70
     1
102
RTVSPost2010Prop39
140
1.0
102
RTVSPost2010PropOp39
 70
     1
102
RTVSPost2010Prop40
 90
        0
102
RTVSPost2010PropOp40
 70
     1
102
RTVSPost2010Prop41ColorIndex
 90
       18
102
RTVSPost2010Prop41ColorRGB
 90
        0
102
RTVSPost2010PropOp41
 70
     1
102
RTVSPost2010Prop42
 90
       50
102
RTVSPost2010PropOp42
 70
     1
102
RTVSPost2010Prop43
 90
        3
102
RTVSPost2010PropOp43
 70
     1
102
RTVSPost2010Prop44ColorIndex
 90
        5
102
RTVSPost2010Prop44ColorRGB
 90
      255
102
RTVSPost2010PropOp44
 70
     1
102
RTVSPost2010Prop45
280
     0
102
RTVSPost2010PropOp45
 70
     1
102
RTVSPost2010Prop46
 90
       50
102
RTVSPost2010PropOp46
 70
     1
102
RTVSPost2010Prop47
 90
       50
102
RTVSPost2010PropOp47
 70
     1
102
RTVSPost2010Prop48
 90
       50
102
RTVSPost2010PropOp48
 70
     1
102
RTVSPost2010Prop49
280
     0
102
RTVSPost2010PropOp49
 70
     1
102
RTVSPost2010Prop50
 90
       50
102
RTVSPost2010PropOp50
 70
     1
102
RTVSPost2010Prop51ColorIndex
 90
      256
102
RTVSPost2010Prop51ColorRGB
 90
-16777216
102
RTVSPost2010PropOp51
 70
     0
102
RTVSPost2010Prop52
140
1.0
102
RTVSPost2010PropOp52
 70
     0
102
RTVSPost2010Prop53
 90
        2
102
RTVSPost2010PropOp53
 70
     1
102
RTVSPost2010Prop54
  1
strokes_ogs.tif
102
RTVSPost2010PropOp54
 70
     1
102
RTVSPost2010Prop55
280
     0
102
RTVSPost2010PropOp55
 70
     1
102
RTVSPost2010Prop56
140
1.0
102
RTVSPost2010PropOp56
 70
     1
102
RTVSPost2010Prop57
140
1.0
102
RTVSPost2010PropOp57
 70
     1
  0
XRECORD
  5
11A
102
{ACAD_REACTORS
330
119
102
}
330
119
100
AcDbXrecord
280
     1
102
RTVSPost2010Prop28
280
     0
102
RTVSPost2010PropOp28
 70
     1
102
RTVSPost2010Prop29
280
     1
102
RTVSPost2010PropOp29
 70
     1
102
RTVSPost2010Prop30
280
     1
102
RTVSPost2010PropOp30
 70
     1
102
RTVSPost2010Prop31
280
     0
102
RTVSPost2010PropOp31
 70
     1
102
RTVSPost2010Prop32
280
     0
102
RTVSPost2010PropOp32
 70
     1
102
RTVSPost2010Prop33
280
     0
102
RTVSPost2010PropOp33
 70
     1
102
RTVSPost2010Prop34
280
     0
102
RTVSPost2010PropOp34
 70
     1
102
RTVSPost2010Prop35
280
     0
102
RTVSPost2010PropOp35
 70
     1
102
RTVSPost2010Prop36
280
     0
102
RTVSPost2010PropOp36
 70
     1
102
RTVSPost2010Prop37
 90
       50
102
RTVSPost2010PropOp37
 70
     1
102
RTVSPost2010Prop38
140
0.0
102
RTVSPost2010PropOp38
 70
     1
102
RTVSPost2010Prop39
140
1.0
102
RTVSPost2010PropOp39
 70
     1
102
RTVSPost2010Prop40
 90
        0
102
RTVSPost2010PropOp40
 70
     1
102
RTVSPost2010Prop41ColorIndex
 90
       18
102
RTVSPost2010Prop41ColorRGB
 90
        0
102
RTVSPost2010PropOp41
 70
     1
102
RTVSPost2010Prop42
 90
       50
102
RTVSPost2010PropOp42
 70
     1
102
RTVSPost2010Prop43
 90
        3
102
RTVSPost2010PropOp43
 70
     1
102
RTVSPost2010Prop44ColorIndex
 90
        5
102
RTVSPost2010Prop44ColorRGB
 90
      255
102
RTVSPost2010PropOp44
 70
     1
102
RTVSPost2010Prop45
280
     0
102
RTVSPost2010PropOp45
 70
     1
102
RTVSPost2010Prop46
 90
       50
102
RTVSPost2010PropOp46
 70
     1
102
RTVSPost2010Prop47
 90
       50
102
RTVSPost2010PropOp47
 70
     1
102
RTVSPost2010Prop48
 90
       50
102
RTVSPost2010PropOp48
 70
     1
102
RTVSPost2010Prop49
280
     0
102
RTVSPost2010PropOp49
 70
     1
102
RTVSPost2010Prop50
 90
       50
102
RTVSPost2010PropOp50
 70
     1
102
RTVSPost2010Prop51ColorIndex
 90
      256
102
RTVSPost2010Prop51ColorRGB
 90
-16777216
102
RTVSPost2010PropOp51
 70
     0
102
RTVSPost2010Prop52
140
1.0
102
RTVSPost2010PropOp52
 70
     0
102
RTVSPost2010Prop53
 90
        2
102
RTVSPost2010PropOp53
 70
     1
102
RTVSPost2010Prop54
  1
strokes_ogs.tif
102
RTVSPost2010PropOp54
 70
     1
102
RTVSPost2010Prop55
280
     0
102
RTVSPost2010PropOp55
 70
     1
102
RTVSPost2010Prop56
140
1.0
102
RTVSPost2010PropOp56
 70
     1
102
RTVSPost2010Prop57
140
1.0
102
RTVSPost2010PropOp57
 70
     1
  0
XRECORD
  5
132
102
{ACAD_REACTORS
330
131
102
}
330
131
100
AcDbXrecord
280
     1
102
RTVSPost2010Prop28
280
     0
102
RTVSPost2010PropOp28
 70
     1
102
RTVSPost2010Prop29
280
     1
102
RTVSPost2010PropOp29
 70
     1
102
RTVSPost2010Prop30
280
     1
102
RTVSPost2010PropOp30
 70
     1
102
RTVSPost2010Prop31
280
     0
102
RTVSPost2010PropOp31
 70
     1
102
RTVSPost2010Prop32
280
     0
102
RTVSPost2010PropOp32
 70
     1
102
RTVSPost2010Prop33
280
     0
102
RTVSPost2010PropOp33
 70
     1
102
RTVSPost2010Prop34
280
     0
102
RTVSPost2010PropOp34
 70
     1
102
RTVSPost2010Prop35
280
     0
102
RTVSPost2010PropOp35
 70
     1
102
RTVSPost2010Prop36
280
     0
102
RTVSPost2010PropOp36
 70
     1
102
RTVSPost2010Prop37
 90
       50
102
RTVSPost2010PropOp37
 70
     1
102
RTVSPost2010Prop38
140
0.0
102
RTVSPost2010PropOp38
 70
     1
102
RTVSPost2010Prop39
140
1.0
102
RTVSPost2010PropOp39
 70
     1
102
RTVSPost2010Prop40
 90
        0
102
RTVSPost2010PropOp40
 70
     1
102
RTVSPost2010Prop41ColorIndex
 90
       18
102
RTVSPost2010Prop41ColorRGB
 90
        0
102
RTVSPost2010PropOp41
 70
     1
102
RTVSPost2010Prop42
 90
       50
102
RTVSPost2010PropOp42
 70
     1
102
RTVSPost2010Prop43
 90
        3
102
RTVSPost2010PropOp43
 70
     1
102
RTVSPost2010Prop44ColorIndex
 90
        5
102
RTVSPost2010Prop44ColorRGB
 90
      255
102
RTVSPost2010PropOp44
 70
     1
102
RTVSPost2010Prop45
280
     0
102
RTVSPost2010PropOp45
 70
     1
102
RTVSPost2010Prop46
 90
       50
102
RTVSPost2010PropOp46
 70
     1
102
RTVSPost2010Prop47
 90
       50
102
RTVSPost2010PropOp47
 70
     1
102
RTVSPost2010Prop48
 90
       50
102
RTVSPost2010PropOp48
 70
     1
102
RTVSPost2010Prop49
280
     0
102
RTVSPost2010PropOp49
 70
     1
102
RTVSPost2010Prop50
 90
       50
102
RTVSPost2010PropOp50
 70
     1
102
RTVSPost2010Prop51ColorIndex
 90
      256
102
RTVSPost2010Prop51ColorRGB
 90
-16777216
102
RTVSPost2010PropOp51
 70
     0
102
RTVSPost2010Prop52
140
1.0
102
RTVSPost2010PropOp52
 70
     0
102
RTVSPost2010Prop53
 90
        2
102
RTVSPost2010PropOp53
 70
     1
102
RTVSPost2010Prop54
  1
strokes_ogs.tif
102
RTVSPost2010PropOp54
 70
     1
102
RTVSPost2010Prop55
280
     0
102
RTVSPost2010PropOp55
 70
     1
102
RTVSPost2010Prop56
140
1.0
102
RTVSPost2010PropOp56
 70
     1
102
RTVSPost2010Prop57
140
1.0
102
RTVSPost2010PropOp57
 70
     1
  0
ENDSEC
  0
EOF
