  0
SECTION
  2
HEADER
  9
$ACADVER
  1
AC1024
  9
$ACADMAINTVER
 70
   226
  9
$DWGCODEPAGE
  3
ANSI_932
  9
$INSBASE
 10
0.0
 20
0.0
 30
0.0
  9
$EXTMIN
 10
1.000000000000000E+20
 20
1.000000000000000E+20
 30
1.000000000000000E+20
  9
$EXTMAX
 10
-1.000000000000000E+20
 20
-1.000000000000000E+20
 30
-1.000000000000000E+20
  9
$LIMMIN
 10
0.0
 20
0.0
  9
$LIMMAX
 10
12.0
 20
9.0
  9
$ORTHOMODE
 70
     0
  9
$REGENMODE
 70
     1
  9
$FILLMODE
 70
     1
  9
$QTEXTMODE
 70
     0
  9
$MIRRTEXT
 70
     0
  9
$LTSCALE
 40
1.0
  9
$ATTMODE
 70
     1
  9
$TEXTSIZE
 40
0.2
  9
$TRACEWID
 40
0.05
  9
$TEXTSTYLE
  7
Standard
  9
$CLAYER
  8
0
  9
$CELTYPE
  6
ByLayer
  9
$CECOLOR
 62
   256
  9
$CELTSCALE
 40
1.0
  9
$DISPSILH
 70
     0
  9
$DIMSCALE
 40
1.0
  9
$DIMASZ
 40
0.18
  9
$DIMEXO
 40
0.0625
  9
$DIMDLI
 40
0.38
  9
$DIMRND
 40
0.0
  9
$DIMDLE
 40
0.0
  9
$DIMEXE
 40
0.18
  9
$DIMTP
 40
0.0
  9
$DIMTM
 40
0.0
  9
$DIMTXT
 40
0.18
  9
$DIMCEN
 40
0.09
  9
$DIMTSZ
 40
0.0
  9
$DIMTOL
 70
     0
  9
$DIMLIM
 70
     0
  9
$DIMTIH
 70
     1
  9
$DIMTOH
 70
     1
  9
$DIMSE1
 70
     0
  9
$DIMSE2
 70
     0
  9
$DIMTAD
 70
     0
  9
$DIMZIN
 70
     0
  9
$DIMBLK
  1

  9
$DIMASO
 70
     1
  9
$DIMSHO
 70
     1
  9
$DIMPOST
  1

  9
$DIMAPOST
  1

  9
$DIMALT
 70
     0
  9
$DIMALTD
 70
     2
  9
$DIMALTF
 40
25.4
  9
$DIMLFAC
 40
1.0
  9
$DIMTOFL
 70
     0
  9
$DIMTVP
 40
0.0
  9
$DIMTIX
 70
     0
  9
$DIMSOXD
 70
     0
  9
$DIMSAH
 70
     0
  9
$DIMBLK1
  1

  9
$DIMBLK2
  1

  9
$DIMSTYLE
  2
Standard
  9
$DIMCLRD
 70
     0
  9
$DIMCLRE
 70
     0
  9
$DIMCLRT
 70
     0
  9
$DIMTFAC
 40
1.0
  9
$DIMGAP
 40
0.09
  9
$DIMJUST
 70
     0
  9
$DIMSD1
 70
     0
  9
$DIMSD2
 70
     0
  9
$DIMTOLJ
 70
     1
  9
$DIMTZIN
 70
     0
  9
$DIMALTZ
 70
     0
  9
$DIMALTTZ
 70
     0
  9
$DIMUPT
 70
     0
  9
$DIMDEC
 70
     4
  9
$DIMTDEC
 70
     4
  9
$DIMALTU
 70
     2
  9
$DIMALTTD
 70
     2
  9
$DIMTXSTY
  7
Standard
  9
$DIMAUNIT
 70
     0
  9
$DIMADEC
 70
     0
  9
$DIMALTRND
 40
0.0
  9
$DIMAZIN
 70
     0
  9
$DIMDSEP
 70
    46
  9
$DIMATFIT
 70
     3
  9
$DIMFRAC
 70
     0
  9
$DIMLDRBLK
  1

  9
$DIMLUNIT
 70
     2
  9
$DIMLWD
 70
    -2
  9
$DIMLWE
 70
    -2
  9
$DIMTMOVE
 70
     0
  9
$DIMFXL
 40
1.0
  9
$DIMFXLON
 70
     0
  9
$DIMJOGANG
 40
0.7853981633974483
  9
$DIMTFILL
 70
     0
  9
$DIMTFILLCLR
 70
     0
  9
$DIMARCSYM
 70
     0
  9
$DIMLTYPE
  6

  9
$DIMLTEX1
  6

  9
$DIMLTEX2
  6

  9
$DIMTXTDIRECTION
 70
     0
  9
$LUNITS
 70
     2
  9
$LUPREC
 70
     4
  9
$SKETCHINC
 40
0.1
  9
$FILLETRAD
 40
0.0
  9
$AUNITS
 70
     0
  9
$AUPREC
 70
     0
  9
$MENU
  1
.
  9
$ELEVATION
 40
0.0
  9
$PELEVATION
 40
0.0
  9
$THICKNESS
 40
0.0
  9
$LIMCHECK
 70
     0
  9
$CHAMFERA
 40
0.0
  9
$CHAMFERB
 40
0.0
  9
$CHAMFERC
 40
0.0
  9
$CHAMFERD
 40
0.0
  9
$SKPOLY
 70
     0
  9
$TDCREATE
 40
2459676.434363426
  9
$TDUCREATE
 40
2459676.059363426
  9
$TDUPDATE
 40
2459676.434363426
  9
$TDUUPDATE
 40
2459676.059363426
  9
$TDINDWG
 40
0.0000000000
  9
$TDUSRTIMER
 40
0.0000000000
  9
$USRTIMER
 70
     1
  9
$ANGBASE
 50
0.0
  9
$ANGDIR
 70
     0
  9
$PDMODE
 70
     0
  9
$PDSIZE
 40
0.0
  9
$PLINEWID
 40
0.0
  9
$SPLFRAME
 70
     0
  9
$SPLINETYPE
 70
     6
  9
$SPLINESEGS
 70
     8
  9
$HANDSEED
  5
142
  9
$SURFTAB1
 70
     6
  9
$SURFTAB2
 70
     6
  9
$SURFTYPE
 70
     6
  9
$SURFU
 70
     6
  9
$SURFV
 70
     6
  9
$UCSBASE
  2

  9
$UCSNAME
  2

  9
$UCSORG
 10
0.0
 20
0.0
 30
0.0
  9
$UCSXDIR
 10
1.0
 20
0.0
 30
0.0
  9
$UCSYDIR
 10
0.0
 20
1.0
 30
0.0
  9
$UCSORTHOREF
  2

  9
$UCSORTHOVIEW
 70
     0
  9
$UCSORGTOP
 10
0.0
 20
0.0
 30
0.0
  9
$UCSORGBOTTOM
 10
0.0
 20
0.0
 30
0.0
  9
$UCSORGLEFT
 10
0.0
 20
0.0
 30
0.0
  9
$UCSORGRIGHT
 10
0.0
 20
0.0
 30
0.0
  9
$UCSORGFRONT
 10
0.0
 20
0.0
 30
0.0
  9
$UCSORGBACK
 10
0.0
 20
0.0
 30
0.0
  9
$PUCSBASE
  2

  9
$PUCSNAME
  2

  9
$PUCSORG
 10
0.0
 20
0.0
 30
0.0
  9
$PUCSXDIR
 10
1.0
 20
0.0
 30
0.0
  9
$PUCSYDIR
 10
0.0
 20
1.0
 30
0.0
  9
$PUCSORTHOREF
  2

  9
$PUCSORTHOVIEW
 70
     0
  9
$PUCSORGTOP
 10
0.0
 20
0.0
 30
0.0
  9
$PUCSORGBOTTOM
 10
0.0
 20
0.0
 30
0.0
  9
$PUCSORGLEFT
 10
0.0
 20
0.0
 30
0.0
  9
$PUCSORGRIGHT
 10
0.0
 20
0.0
 30
0.0
  9
$PUCSORGFRONT
 10
0.0
 20
0.0
 30
0.0
  9
$PUCSORGBACK
 10
0.0
 20
0.0
 30
0.0
  9
$USERI1
 70
     0
  9
$USERI2
 70
     0
  9
$USERI3
 70
     0
  9
$USERI4
 70
     0
  9
$USERI5
 70
     0
  9
$USERR1
 40
0.0
  9
$USERR2
 40
0.0
  9
$USERR3
 40
0.0
  9
$USERR4
 40
0.0
  9
$USERR5
 40
0.0
  9
$WORLDVIEW
 70
     1
  9
$SHADEDGE
 70
     3
  9
$SHADEDIF
 70
    70
  9
$TILEMODE
 70
     1
  9
$MAXACTVP
 70
    64
  9
$PINSBASE
 10
0.0
 20
0.0
 30
0.0
  9
$PLIMCHECK
 70
     0
  9
$PEXTMIN
 10
1.000000000000000E+20
 20
1.000000000000000E+20
 30
1.000000000000000E+20
  9
$PEXTMAX
 10
-1.000000000000000E+20
 20
-1.000000000000000E+20
 30
-1.000000000000000E+20
  9
$PLIMMIN
 10
0.0
 20
0.0
  9
$PLIMMAX
 10
12.0
 20
9.0
  9
$UNITMODE
 70
     0
  9
$VISRETAIN
 70
     1
  9
$PLINEGEN
 70
     0
  9
$PSLTSCALE
 70
     1
  9
$TREEDEPTH
 70
  3020
  9
$CMLSTYLE
  2
Standard
  9
$CMLJUST
 70
     0
  9
$CMLSCALE
 40
1.0
  9
$PROXYGRAPHICS
 70
     1
  9
$MEASUREMENT
 70
     0
  9
$CELWEIGHT
370
    -1
  9
$ENDCAPS
280
     0
  9
$JOINSTYLE
280
     0
  9
$LWDISPLAY
290
     1
  9
$INSUNITS
 70
     4
  9
$HYPERLINKBASE
  1

  9
$STYLESHEET
  1

  9
$XEDIT
290
     1
  9
$CEPSNTYPE
380
     0
  9
$PSTYLEMODE
290
     1
  9
$FINGERPRINTGUID
  2
{5ED6027F-2D84-6046-A614-557D0C0198A8}
  9
$VERSIONGUID
  2
{0D5BADC5-A9BA-894A-B259-6B0A2F246C17}
  9
$EXTNAMES
290
     1
  9
$PSVPSCALE
 40
0.0
  9
$OLESTARTUP
290
     0
  9
$SORTENTS
280
   127
  9
$INDEXCTL
280
     0
  9
$HIDETEXT
280
     1
  9
$XCLIPFRAME
280
     2
  9
$HALOGAP
280
     0
  9
$OBSCOLOR
 70
   257
  9
$OBSLTYPE
280
     0
  9
$INTERSECTIONDISPLAY
280
     0
  9
$INTERSECTIONCOLOR
 70
   257
  9
$DIMASSOC
280
     2
  9
$PROJECTNAME
  1

  9
$CAMERADISPLAY
290
     0
  9
$LENSLENGTH
 40
50.0
  9
$CAMERAHEIGHT
 40
0.0
  9
$STEPSPERSEC
 40
2.0
  9
$STEPSIZE
 40
6.0
  9
$3DDWFPREC
 40
2.0
  9
$PSOLWIDTH
 40
0.25
  9
$PSOLHEIGHT
 40
4.0
  9
$LOFTANG1
 40
1.570796326794896
  9
$LOFTANG2
 40
1.570796326794896
  9
$LOFTMAG1
 40
0.0
  9
$LOFTMAG2
 40
0.0
  9
$LOFTPARAM
 70
     7
  9
$LOFTNORMALS
280
     1
  9
$LATITUDE
 40
37.795
  9
$LONGITUDE
 40
-122.394
  9
$NORTHDIRECTION
 40
0.0
  9
$TIMEZONE
 70
 -8000
  9
$LIGHTGLYPHDISPLAY
280
     1
  9
$TILEMODELIGHTSYNCH
280
     1
  9
$CMATERIAL
347
11
  9
$SOLIDHIST
280
     0
  9
$SHOWHIST
280
     1
  9
$DWFFRAME
280
     2
  9
$DGNFRAME
280
     0
  9
$REALWORLDSCALE
290
     1
  9
$INTERFERECOLOR
 62
     1
  9
$INTERFEREOBJVS
345
33
  9
$INTERFEREVPVS
346
30
  9
$CSHADOW
280
     0
  9
$SHADOWPLANELOCATION
 40
0.0
  0
ENDSEC
  0
SECTION
  2
CLASSES
  0
CLASS
  1
ACDBDICTIONARYWDFLT
  2
AcDbDictionaryWithDefault
  3
ObjectDBX Classes
 90
        0
 91
        1
280
     0
281
     0
  0
CLASS
  1
MATERIAL
  2
AcDbMaterial
  3
ObjectDBX Classes
 90
     1153
 91
        3
280
     0
281
     0
  0
CLASS
  1
VISUALSTYLE
  2
AcDbVisualStyle
  3
ObjectDBX Classes
 90
     4095
 91
       24
280
     0
281
     0
  0
CLASS
  1
SCALE
  2
AcDbScale
  3
ObjectDBX Classes
 90
     1153
 91
       17
280
     0
281
     0
  0
CLASS
  1
TABLESTYLE
  2
AcDbTableStyle
  3
ObjectDBX Classes
 90
     4095
 91
        1
280
     0
281
     0
  0
CLASS
  1
MLEADERSTYLE
  2
AcDbMLeaderStyle
  3
ACDB_MLEADERSTYLE_CLASS
 90
     4095
 91
        1
280
     0
281
     0
  0
CLASS
  1
ACDBSECTIONVIEWSTYLE
  2
AcDbSectionViewStyle
  3
ObjectDBX Classes
 90
     1025
 91
        1
280
     0
281
     0
  0
CLASS
  1
ACDBDETAILVIEWSTYLE
  2
AcDbDetailViewStyle
  3
ObjectDBX Classes
 90
     1025
 91
        1
280
     0
281
     0
  0
CLASS
  1
DICTIONARYVAR
  2
AcDbDictionaryVar
  3
ObjectDBX Classes
 90
        0
 91
        5
280
     0
281
     0
  0
CLASS
  1
CELLSTYLEMAP
  2
AcDbCellStyleMap
  3
ObjectDBX Classes
 90
     1152
 91
        1
280
     0
281
     0
  0
ENDSEC
  0
SECTION
  2
TABLES
  0
TABLE
  2
VPORT
  5
8
330
0
100
AcDbSymbolTable
 70
     1
  0
VPORT
  5
57
330
8
100
AcDbSymbolTableRecord
100
AcDbViewportTableRecord
  2
*Active
 70
     0
 10
0.0
 20
0.0
 11
1.0
 21
1.0
 12
0.0
 22
0.0
 13
0.0
 23
0.0
 14
1.0
 24
1.0
 15
0.0
 25
0.0
 16
0.0
 26
0.0
 36
1.0
 17
104.9999999737534
 27
-148.4999999628701
 37
0.0
 40
302.939999924255
 41
0.7070707070707534
 42
50.0
 43
0.0
 44
0.0
 50
0.0
 51
0.0
 71
     0
 72
   100
 73
     1
 74
     0
 75
     1
 76
     0
 77
     0
 78
     0
281
     0
 65
     1
110
0.0
120
0.0
130
0.0
111
1.0
121
0.0
131
0.0
112
0.0
122
1.0
132
0.0
 79
     0
146
0.0
 60
     3
 61
     5
292
     1
282
     1
141
0.0
142
0.0
 63
   250
421
  3355443
  0
ENDTAB
  0
TABLE
  2
LTYPE
  5
5
330
0
100
AcDbSymbolTable
 70
     2
  0
LTYPE
  5
5B
330
5
100
AcDbSymbolTableRecord
100
AcDbLinetypeTableRecord
  2
ByBlock
 70
     0
  3

 72
    65
 73
     0
 40
0.0
  0
LTYPE
  5
5C
330
5
100
AcDbSymbolTableRecord
100
AcDbLinetypeTableRecord
  2
ByLayer
 70
     0
  3

 72
    65
 73
     0
 40
0.0
  0
LTYPE
  5
5D
330
5
100
AcDbSymbolTableRecord
100
AcDbLinetypeTableRecord
  2
Continuous
 70
     0
  3
Solid line
 72
    65
 73
     0
 40
0.0
  0
LTYPE
  5
E5
330
5
100
AcDbSymbolTableRecord
100
AcDbLinetypeTableRecord
  2
AI-Linetype-0
 70
     0
  3
Adobe Illustrator Linetype No. 0
 72
    65
 73
     2
 40
1.411111110758333
 49
0.7055555553791667
 74
     0
 49
-0.7055555553791667
 74
     0
  0
ENDTAB
  0
TABLE
  2
LAYER
  5
2
330
0
100
AcDbSymbolTable
 70
     2
  0
LAYER
  5
54
330
2
100
AcDbSymbolTableRecord
100
AcDbLayerTableRecord
  2
0
 70
     0
 62
     7
  6
Continuous
370
    -3
390
F
347
21
  0
LAYER
  5
78
330
2
100
AcDbSymbolTableRecord
100
AcDbLayerTableRecord
  2
レイヤー 1
 70
     0
 62
     7
  6
Continuous
370
     0
390
F
347
21
  0
ENDTAB
  0
TABLE
  2
STYLE
  5
3
330
0
100
AcDbSymbolTable
 70
     2
  0
STYLE
  5
55
330
3
100
AcDbSymbolTableRecord
100
AcDbTextStyleTableRecord
  2
Standard
 70
     0
 40
0.0
 41
1.0
 50
0.0
 71
     0
 42
0.2
  3
txt
  4

  0
STYLE
  5
5A
330
3
100
AcDbSymbolTableRecord
100
AcDbTextStyleTableRecord
  2
Annotative
 70
     0
 40
0.0
 41
1.0
 50
0.0
 71
     0
 42
0.2
  3
txt
  4

1001
AcadAnnotative
1000
AnnotativeData
1002
{
1070
     1
1070
     1
1002
}
  0
ENDTAB
  0
TABLE
  2
VIEW
  5
6
330
0
100
AcDbSymbolTable
 70
     0
  0
ENDTAB
  0
TABLE
  2
UCS
  5
7
330
0
100
AcDbSymbolTable
 70
     0
  0
ENDTAB
  0
TABLE
  2
APPID
  5
9
330
0
100
AcDbSymbolTable
 70
     2
  0
APPID
  5
56
330
9
100
AcDbSymbolTableRecord
100
AcDbRegAppTableRecord
  2
ACAD
 70
     0
  0
APPID
  5
5E
330
9
100
AcDbSymbolTableRecord
100
AcDbRegAppTableRecord
  2
AcadAnnotative
 70
     0
  0
ENDTAB
  0
TABLE
  2
DIMSTYLE
  5
A
330
0
100
AcDbSymbolTable
 70
     2
100
AcDbDimStyleTable
 71
     0
  0
DIMSTYLE
105
58
330
A
100
AcDbSymbolTableRecord
100
AcDbDimStyleTableRecord
  2
Standard
 70
     0
340
55
  0
DIMSTYLE
105
59
330
A
100
AcDbSymbolTableRecord
100
AcDbDimStyleTableRecord
  2
Annotative
 70
     0
340
55
1001
AcadAnnotative
1000
AnnotativeData
1002
{
1070
     1
1070
     1
1002
}
  0
ENDTAB
  0
TABLE
  2
BLOCK_RECORD
  5
1
330
0
100
AcDbSymbolTable
 70
    18
  0
BLOCK_RECORD
  5
70
330
1
100
AcDbSymbolTableRecord
100
AcDbBlockTableRecord
  2
*Model_Space
340
73
 70
     0
280
     1
281
     0
  0
BLOCK_RECORD
  5
6C
330
1
100
AcDbSymbolTableRecord
100
AcDbBlockTableRecord
  2
*Paper_Space
340
6F
 70
     0
280
     1
281
     0
  0
BLOCK_RECORD
  5
74
330
1
100
AcDbSymbolTableRecord
100
AcDbBlockTableRecord
  2
*Paper_Space0
340
77
 70
     0
280
     1
281
     0
  0
BLOCK_RECORD
  5
79
330
1
100
AcDbSymbolTableRecord
100
AcDbBlockTableRecord
  2
Block_0
340
0
102
{BLKREFS
331
7A
102
}
 70
     0
280
     1
281
     0
  0
BLOCK_RECORD
  5
86
330
1
100
AcDbSymbolTableRecord
100
AcDbBlockTableRecord
  2
Block_1
340
0
102
{BLKREFS
331
87
102
}
 70
     0
280
     1
281
     0
  0
BLOCK_RECORD
  5
8E
330
1
100
AcDbSymbolTableRecord
100
AcDbBlockTableRecord
  2
Block_2
340
0
102
{BLKREFS
331
8F
102
}
 70
     0
280
     1
281
     0
  0
BLOCK_RECORD
  5
92
330
1
100
AcDbSymbolTableRecord
100
AcDbBlockTableRecord
  2
Block_3
340
0
102
{BLKREFS
331
93
102
}
 70
     0
280
     1
281
     0
  0
BLOCK_RECORD
  5
9F
330
1
100
AcDbSymbolTableRecord
100
AcDbBlockTableRecord
  2
Block_4
340
0
102
{BLKREFS
331
A0
102
}
 70
     0
280
     1
281
     0
  0
BLOCK_RECORD
  5
A5
330
1
100
AcDbSymbolTableRecord
100
AcDbBlockTableRecord
  2
Block_5
340
0
102
{BLKREFS
331
A6
102
}
 70
     0
280
     1
281
     0
  0
BLOCK_RECORD
  5
AB
330
1
100
AcDbSymbolTableRecord
100
AcDbBlockTableRecord
  2
Block_6
340
0
102
{BLKREFS
331
AC
102
}
 70
     0
280
     1
281
     0
  0
BLOCK_RECORD
  5
B2
330
1
100
AcDbSymbolTableRecord
100
AcDbBlockTableRecord
  2
Block_7
340
0
102
{BLKREFS
331
B3
102
}
 70
     0
280
     1
281
     0
  0
BLOCK_RECORD
  5
B6
330
1
100
AcDbSymbolTableRecord
100
AcDbBlockTableRecord
  2
Block_8
340
0
102
{BLKREFS
331
B7
102
}
 70
     0
280
     1
281
     0
  0
BLOCK_RECORD
  5
BE
330
1
100
AcDbSymbolTableRecord
100
AcDbBlockTableRecord
  2
Block_9
340
0
102
{BLKREFS
331
BF
102
}
 70
     0
280
     1
281
     0
  0
BLOCK_RECORD
  5
C5
330
1
100
AcDbSymbolTableRecord
100
AcDbBlockTableRecord
  2
Block_10
340
0
102
{BLKREFS
331
C6
102
}
 70
     0
280
     1
281
     0
  0
BLOCK_RECORD
  5
C9
330
1
100
AcDbSymbolTableRecord
100
AcDbBlockTableRecord
  2
Block_11
340
0
102
{BLKREFS
331
CA
102
}
 70
     0
280
     1
281
     0
  0
BLOCK_RECORD
  5
D3
330
1
100
AcDbSymbolTableRecord
100
AcDbBlockTableRecord
  2
Block_12
340
0
102
{BLKREFS
331
D4
102
}
 70
     0
280
     1
281
     0
  0
BLOCK_RECORD
  5
DA
330
1
100
AcDbSymbolTableRecord
100
AcDbBlockTableRecord
  2
Block_13
340
0
102
{BLKREFS
331
DB
102
}
 70
     0
280
     1
281
     0
  0
BLOCK_RECORD
  5
E0
330
1
100
AcDbSymbolTableRecord
100
AcDbBlockTableRecord
  2
Block_14
340
0
102
{BLKREFS
331
E1
102
}
 70
     0
280
     1
281
     0
  0
BLOCK_RECORD
  5
E9
330
1
100
AcDbSymbolTableRecord
100
AcDbBlockTableRecord
  2
Block_15
340
0
102
{BLKREFS
331
EA
102
}
 70
     0
280
     1
281
     0
  0
BLOCK_RECORD
  5
ED
330
1
100
AcDbSymbolTableRecord
100
AcDbBlockTableRecord
  2
Block_16
340
0
102
{BLKREFS
331
EE
102
}
 70
     0
280
     1
281
     0
  0
ENDTAB
  0
ENDSEC
  0
SECTION
  2
BLOCKS
  0
BLOCK
  5
71
330
70
100
AcDbEntity
  8
0
100
AcDbBlockBegin
  2
*Model_Space
 70
     0
 10
0.0
 20
0.0
 30
0.0
  3
*Model_Space
  1

  0
ENDBLK
  5
72
330
70
100
AcDbEntity
  8
0
100
AcDbBlockEnd
  0
BLOCK
  5
6D
330
6C
100
AcDbEntity
 67
     1
  8
0
100
AcDbBlockBegin
  2
*Paper_Space
 70
     0
 10
0.0
 20
0.0
 30
0.0
  3
*Paper_Space
  1

  0
ENDBLK
  5
6E
330
6C
100
AcDbEntity
 67
     1
  8
0
100
AcDbBlockEnd
  0
BLOCK
  5
75
330
74
100
AcDbEntity
 67
     1
  8
0
100
AcDbBlockBegin
  2
*Paper_Space0
 70
     0
 10
0.0
 20
0.0
 30
0.0
  3
*Paper_Space0
  1

  0
ENDBLK
  5
76
330
74
100
AcDbEntity
 67
     1
  8
0
100
AcDbBlockEnd
  0
BLOCK
  5
7B
330
79
100
AcDbEntity
  8
0
100
AcDbBlockBegin
  2
Block_0
 70
     0
 10
0.0
 20
0.0
 30
0.0
  3
Block_0
  1

  0
LWPOLYLINE
  5
7D
330
79
100
AcDbEntity
  8
レイヤー 1
 62
   250
420
  2299925
370
    25
100
AcDbPolyline
 90
       10
 70
     1
 43
0.0
 10
106.4809793650328
 20
-155.3460896778096
 10
106.4809793650328
 20
-158.346076545718
 10
99.48095121028504
 20
-158.346076545718
 10
99.48095121028504
 20
-141.5462347520952
 10
117.4810488066198
 20
-141.5462347520952
 10
117.4810488066198
 20
-142.3463700094598
 10
100.2810864676496
 20
-142.3463700094598
 10
100.2810864676496
 20
-157.5462940661222
 10
105.6810910521063
 20
-157.5462940661222
 10
105.6810910521063
 20
-155.3462307889171
  0
SPLINE
  5
7E
330
79
100
AcDbEntity
  8
レイヤー 1
 62
   250
420
  2299925
370
     9
100
AcDbSpline
210
0.0
220
0.0
230
1.0
 70
     9
 71
     3
 72
    17
 73
    13
 74
     0
 42
0.0000000001
 43
0.0000000001
 40
0.0
 40
0.0
 40
0.0
 40
0.0
 40
1.0
 40
1.0
 40
1.0
 40
2.0
 40
2.0
 40
2.0
 40
3.0
 40
3.0
 40
3.0
 40
4.0
 40
4.0
 40
4.0
 40
4.0
 10
121.5810673131308
 20
-141.5462347520952
 30
0.0
 10
121.5810673131308
 20
-141.4907780868433
 30
0.0
 10
121.536264536496
 20
-141.4460068523685
 30
0.0
 10
121.4809842601285
 20
-141.4460068523685
 30
0.0
 10
121.4258450948686
 20
-141.4460068523685
 30
0.0
 10
121.3810775960107
 20
-141.4907780868433
 30
0.0
 10
121.3810775960107
 20
-141.5462347520952
 30
0.0
 10
121.3810775960107
 20
-141.6013739173551
 30
0.0
 10
121.4258450948686
 20
-141.646141416213
 30
0.0
 10
121.4809842601285
 20
-141.646141416213
 30
0.0
 10
121.536264536496
 20
-141.646141416213
 30
0.0
 10
121.5810673131308
 20
-141.6013739173551
 30
0.0
 10
121.5810673131308
 20
-141.5462347520952
 30
0.0
  0
SPLINE
  5
7F
330
79
100
AcDbEntity
  8
レイヤー 1
 62
   250
420
  2299925
370
     9
100
AcDbSpline
210
0.0
220
0.0
230
1.0
 70
     9
 71
     3
 72
    17
 73
    13
 74
     0
 42
0.0000000001
 43
0.0000000001
 40
0.0
 40
0.0
 40
0.0
 40
0.0
 40
1.0
 40
1.0
 40
1.0
 40
2.0
 40
2.0
 40
2.0
 40
3.0
 40
3.0
 40
3.0
 40
4.0
 40
4.0
 40
4.0
 40
4.0
 10
121.5810673131308
 20
-155.3460896778096
 30
0.0
 10
121.5810673131308
 20
-155.2909857903266
 30
0.0
 10
121.536264536496
 20
-155.2461830136918
 30
0.0
 10
121.4809842601285
 20
-155.2461830136918
 30
0.0
 10
121.4258450948686
 20
-155.2461830136918
 30
0.0
 10
121.3810775960107
 20
-155.2909857903266
 30
0.0
 10
121.3810775960107
 20
-155.3460896778096
 30
0.0
 10
121.3810775960107
 20
-155.4015429599908
 30
0.0
 10
121.4258450948686
 20
-155.4463457377575
 30
0.0
 10
121.4809842601285
 20
-155.4463457377575
 30
0.0
 10
121.536264536496
 20
-155.4463457377575
 30
0.0
 10
121.5810673131308
 20
-155.4015429599908
 30
0.0
 10
121.5810673131308
 20
-155.3460896778096
 30
0.0
  0
SPLINE
  5
80
330
79
100
AcDbEntity
  8
レイヤー 1
 62
   250
420
  2299925
370
     9
100
AcDbSpline
210
0.0
220
0.0
230
1.0
 70
     9
 71
     3
 72
    17
 73
    13
 74
     0
 42
0.0000000001
 43
0.0000000001
 40
0.0
 40
0.0
 40
0.0
 40
0.0
 40
1.0
 40
1.0
 40
1.0
 40
2.0
 40
2.0
 40
2.0
 40
3.0
 40
3.0
 40
3.0
 40
4.0
 40
4.0
 40
4.0
 40
4.0
 10
121.5810673131308
 20
-158.346076545718
 30
0.0
 10
121.5810673131308
 20
-158.2909726582349
 30
0.0
 10
121.536264536496
 20
-158.2461698816002
 30
0.0
 10
121.4809842601285
 20
-158.2461698816002
 30
0.0
 10
121.4258450948686
 20
-158.2461698816002
 30
0.0
 10
121.3810775960107
 20
-158.2909726582349
 30
0.0
 10
121.3810775960107
 20
-158.346076545718
 30
0.0
 10
121.3810775960107
 20
-158.4015332109699
 30
0.0
 10
121.4258450948686
 20
-158.4463359876046
 30
0.0
 10
121.4809842601285
 20
-158.4463359876046
 30
0.0
 10
121.536264536496
 20
-158.4463359876046
 30
0.0
 10
121.5810673131308
 20
-158.4015332109699
 30
0.0
 10
121.5810673131308
 20
-158.346076545718
 30
0.0
  0
SPLINE
  5
81
330
79
100
AcDbEntity
  8
レイヤー 1
 62
   250
420
  2299925
370
     9
100
AcDbSpline
210
0.0
220
0.0
230
1.0
 70
     9
 71
     3
 72
    17
 73
    13
 74
     0
 42
0.0000000001
 43
0.0000000001
 40
0.0
 40
0.0
 40
0.0
 40
0.0
 40
1.0
 40
1.0
 40
1.0
 40
2.0
 40
2.0
 40
2.0
 40
3.0
 40
3.0
 40
3.0
 40
4.0
 40
4.0
 40
4.0
 40
4.0
 10
121.5810673131308
 20
-142.3463700094598
 30
0.0
 10
121.5810673131308
 20
-142.2909096299352
 30
0.0
 10
121.536264536496
 20
-142.2461068521684
 30
0.0
 10
121.4809842601285
 20
-142.2461068521684
 30
0.0
 10
121.4258450948686
 20
-142.2461068521684
 30
0.0
 10
121.3810775960107
 20
-142.2909096299352
 30
0.0
 10
121.3810775960107
 20
-142.3463700094598
 30
0.0
 10
121.3810775960107
 20
-142.4015091747197
 30
0.0
 10
121.4258450948686
 20
-142.4462766735776
 30
0.0
 10
121.4809842601285
 20
-142.4462766735776
 30
0.0
 10
121.536264536496
 20
-142.4462766735776
 30
0.0
 10
121.5810673131308
 20
-142.4015091747197
 30
0.0
 10
121.5810673131308
 20
-142.3463700094598
 30
0.0
  0
SPLINE
  5
82
330
79
100
AcDbEntity
  8
レイヤー 1
 62
   250
420
  2299925
370
     9
100
AcDbSpline
210
0.0
220
0.0
230
1.0
 70
     9
 71
     3
 72
    17
 73
    13
 74
     0
 42
0.0000000001
 43
0.0000000001
 40
0.0
 40
0.0
 40
0.0
 40
0.0
 40
1.0
 40
1.0
 40
1.0
 40
2.0
 40
2.0
 40
2.0
 40
3.0
 40
3.0
 40
3.0
 40
4.0
 40
4.0
 40
4.0
 40
4.0
 10
99.58103714285202
 20
-162.3461883881111
 30
0.0
 10
99.58103714285202
 20
-162.2910492228512
 30
0.0
 10
99.5362343650853
 20
-162.2462817239933
 30
0.0
 10
99.48095121028504
 20
-162.2462817239933
 30
0.0
 10
99.42584732280197
 20
-162.2462817239933
 30
0.0
 10
99.3810445461672
 20
-162.2910492228512
 30
0.0
 10
99.3810445461672
 20
-162.3461883881111
 30
0.0
 10
99.3810445461672
 20
-162.4012922755942
 30
0.0
 10
99.42584732280197
 20
-162.446095052229
 30
0.0
 10
99.48095121028504
 20
-162.446095052229
 30
0.0
 10
99.5362343650853
 20
-162.446095052229
 30
0.0
 10
99.58103714285202
 20
-162.4012922755942
 30
0.0
 10
99.58103714285202
 20
-162.3461883881111
 30
0.0
  0
SPLINE
  5
83
330
79
100
AcDbEntity
  8
レイヤー 1
 62
   250
420
  2299925
370
     9
100
AcDbSpline
210
0.0
220
0.0
230
1.0
 70
     9
 71
     3
 72
    17
 73
    13
 74
     0
 42
0.0000000001
 43
0.0000000001
 40
0.0
 40
0.0
 40
0.0
 40
0.0
 40
1.0
 40
1.0
 40
1.0
 40
2.0
 40
2.0
 40
2.0
 40
3.0
 40
3.0
 40
3.0
 40
4.0
 40
4.0
 40
4.0
 40
4.0
 10
99.58103714285202
 20
-138.3461485198103
 30
0.0
 10
99.58103714285202
 20
-138.2910131684761
 30
0.0
 10
99.5362343650853
 20
-138.2462456696182
 30
0.0
 10
99.48095121028504
 20
-138.2462456696182
 30
0.0
 10
99.42584732280197
 20
-138.2462456696182
 30
0.0
 10
99.3810445461672
 20
-138.2910131684761
 30
0.0
 10
99.3810445461672
 20
-138.3461485198103
 30
0.0
 10
99.3810445461672
 20
-138.4012562212188
 30
0.0
 10
99.42584732280197
 20
-138.4460589978539
 30
0.0
 10
99.48095121028504
 20
-138.4460589978539
 30
0.0
 10
99.5362343650853
 20
-138.4460589978539
 30
0.0
 10
99.58103714285202
 20
-138.4012562212188
 30
0.0
 10
99.58103714285202
 20
-138.3461485198103
 30
0.0
  0
SPLINE
  5
84
330
79
100
AcDbEntity
  8
レイヤー 1
 62
   250
420
  2299925
370
     9
100
AcDbSpline
210
0.0
220
0.0
230
1.0
 70
     9
 71
     3
 72
    17
 73
    13
 74
     0
 42
0.0000000001
 43
0.0000000001
 40
0.0
 40
0.0
 40
0.0
 40
0.0
 40
1.0
 40
1.0
 40
1.0
 40
2.0
 40
2.0
 40
2.0
 40
3.0
 40
3.0
 40
3.0
 40
4.0
 40
4.0
 40
4.0
 40
4.0
 10
106.581062418035
 20
-162.3461883881111
 30
0.0
 10
106.581062418035
 20
-162.2910492228512
 30
0.0
 10
106.5362949191764
 20
-162.2462817239933
 30
0.0
 10
106.4809793650328
 20
-162.2462817239933
 30
0.0
 10
106.4256990886653
 20
-162.2462817239933
 30
0.0
 10
106.3809315898074
 20
-162.2910492228512
 30
0.0
 10
106.3809315898074
 20
-162.3461883881111
 30
0.0
 10
106.3809315898074
 20
-162.4012922755942
 30
0.0
 10
106.4256990886653
 20
-162.446095052229
 30
0.0
 10
106.4809793650328
 20
-162.446095052229
 30
0.0
 10
106.5362949191764
 20
-162.446095052229
 30
0.0
 10
106.581062418035
 20
-162.4012922755942
 30
0.0
 10
106.581062418035
 20
-162.3461883881111
 30
0.0
  0
SPLINE
  5
85
330
79
100
AcDbEntity
  8
レイヤー 1
 62
   250
420
  2299925
370
     9
100
AcDbSpline
210
0.0
220
0.0
230
1.0
 70
     9
 71
     3
 72
    17
 73
    13
 74
     0
 42
0.0000000001
 43
0.0000000001
 40
0.0
 40
0.0
 40
0.0
 40
0.0
 40
1.0
 40
1.0
 40
1.0
 40
2.0
 40
2.0
 40
2.0
 40
3.0
 40
3.0
 40
3.0
 40
4.0
 40
4.0
 40
4.0
 40
4.0
 10
117.5809554707377
 20
-138.3461485198103
 30
0.0
 10
117.5809554707377
 20
-138.2910131684761
 30
0.0
 10
117.5361526941029
 20
-138.2462456696182
 30
0.0
 10
117.4810488066198
 20
-138.2462456696182
 30
0.0
 10
117.4257332524755
 20
-138.2462456696182
 30
0.0
 10
117.3809657536176
 20
-138.2910131684761
 30
0.0
 10
117.3809657536176
 20
-138.3461485198103
 30
0.0
 10
117.3809657536176
 20
-138.4012562212188
 30
0.0
 10
117.4257332524755
 20
-138.4460589978539
 30
0.0
 10
117.4810488066198
 20
-138.4460589978539
 30
0.0
 10
117.5361526941029
 20
-138.4460589978539
 30
0.0
 10
117.5809554707377
 20
-138.4012562212188
 30
0.0
 10
117.5809554707377
 20
-138.3461485198103
 30
0.0
  0
INSERT
  5
87
330
79
100
AcDbEntity
  8
レイヤー 1
100
AcDbBlockReference
  2
Block_1
 10
0.0
 20
0.0
 30
0.0
  0
INSERT
  5
A0
330
79
100
AcDbEntity
  8
レイヤー 1
100
AcDbBlockReference
  2
Block_4
 10
0.0
 20
0.0
 30
0.0
  0
INSERT
  5
AC
330
79
100
AcDbEntity
  8
レイヤー 1
100
AcDbBlockReference
  2
Block_6
 10
0.0
 20
0.0
 30
0.0
  0
INSERT
  5
BF
330
79
100
AcDbEntity
  8
レイヤー 1
100
AcDbBlockReference
  2
Block_9
 10
0.0
 20
0.0
 30
0.0
  0
INSERT
  5
D4
330
79
100
AcDbEntity
  8
レイヤー 1
100
AcDbBlockReference
  2
Block_12
 10
0.0
 20
0.0
 30
0.0
  0
ENDBLK
  5
7C
330
79
100
AcDbEntity
  8
0
100
AcDbBlockEnd
  0
BLOCK
  5
88
330
86
100
AcDbEntity
  8
0
100
AcDbBlockBegin
  2
Block_1
 70
     0
 10
0.0
 20
0.0
 30
0.0
  3
Block_1
  1

  0
LINE
  5
8A
330
86
100
AcDbEntity
  8
レイヤー 1
 62
   250
420
  2299925
370
     9
100
AcDbLine
 10
121.4809842601285
 20
-141.5462347520952
 30
0.0
 11
121.4809842601285
 21
-137.6900209615865
 31
0.0
  0
LINE
  5
8B
330
86
100
AcDbEntity
  8
レイヤー 1
 62
   250
420
  2299925
370
     9
100
AcDbLine
 10
121.4809842601285
 20
-141.5462347520952
 30
0.0
 11
121.4809842601285
 21
-142.3463700094598
 31
0.0
  0
LINE
  5
8C
330
86
100
AcDbEntity
  8
レイヤー 1
 62
   250
420
  2299925
370
     9
100
AcDbLine
 10
120.0209429084884
 20
-141.5462347520952
 30
0.0
 11
122.4809010260161
 21
-141.5462347520952
 31
0.0
  0
LINE
  5
8D
330
86
100
AcDbEntity
  8
レイヤー 1
 62
   250
420
  2299925
370
     9
100
AcDbLine
 10
120.0209429084884
 20
-142.3463700094598
 30
0.0
 11
122.4809010260161
 21
-142.3463700094598
 31
0.0
  0
INSERT
  5
8F
330
86
100
AcDbEntity
  8
レイヤー 1
100
AcDbBlockReference
  2
Block_2
 10
0.0
 20
0.0
 30
0.0
  0
ENDBLK
  5
89
330
86
100
AcDbEntity
  8
0
100
AcDbBlockEnd
  0
BLOCK
  5
90
330
8E
100
AcDbEntity
  8
0
100
AcDbBlockBegin
  2
Block_2
 70
     0
 10
0.0
 20
0.0
 30
0.0
  3
Block_2
  1

  0
INSERT
  5
93
330
8E
100
AcDbEntity
  8
レイヤー 1
100
AcDbBlockReference
  2
Block_3
 10
0.0
 20
0.0
 30
0.0
  0
ENDBLK
  5
91
330
8E
100
AcDbEntity
  8
0
100
AcDbBlockEnd
  0
BLOCK
  5
94
330
92
100
AcDbEntity
  8
0
100
AcDbBlockBegin
  2
Block_3
 70
     0
 10
0.0
 20
0.0
 30
0.0
  3
Block_3
  1

  0
SPLINE
  5
96
330
92
100
AcDbEntity
  8
レイヤー 1
100
AcDbSpline
210
0.0
220
0.0
230
1.0
 70
     9
 71
     3
 72
    17
 73
    13
 74
     0
 42
0.0000000001
 43
0.0000000001
 40
0.0
 40
0.0
 40
0.0
 40
0.0
 40
1.0
 40
1.0
 40
1.0
 40
2.0
 40
2.0
 40
2.0
 40
3.0
 40
3.0
 40
3.0
 40
4.0
 40
4.0
 40
4.0
 40
4.0
 10
119.1196885552895
 20
-140.4761799779018
 30
0.0
 10
119.1196885552895
 20
-140.745414190074
 30
0.0
 10
119.4256130343797
 20
-140.7955403293844
 30
0.0
 10
119.7976833467867
 20
-140.7955403293844
 30
0.0
 10
120.1421928953116
 20
-140.7955403293844
 30
0.0
 10
120.4756781382839
 20
-140.7567830051754
 30
0.0
 10
120.4756781382839
 20
-140.4761799779018
 30
0.0
 10
120.4756781382839
 20
-140.2090128230206
 30
0.0
 10
120.1718207164848
 20
-140.1564751168706
 30
0.0
 10
119.7976833467867
 20
-140.1564751168706
 30
0.0
 10
119.4531737982617
 20
-140.1564751168706
 30
0.0
 10
119.1196885552895
 20
-140.1976440079193
 30
0.0
 10
119.1196885552895
 20
-140.4761799779018
 30
0.0
  0
SPLINE
  5
97
330
92
100
AcDbEntity
  8
レイヤー 1
100
AcDbSpline
210
0.0
220
0.0
230
1.0
 70
     9
 71
     3
 72
    29
 73
    25
 74
     0
 42
0.0000000001
 43
0.0000000001
 40
0.0
 40
0.0
 40
0.0
 40
0.0
 40
1.0
 40
1.0
 40
1.0
 40
2.0
 40
2.0
 40
2.0
 40
3.0
 40
3.0
 40
3.0
 40
4.0
 40
4.0
 40
4.0
 40
5.0
 40
5.0
 40
5.0
 40
6.0
 40
6.0
 40
6.0
 40
7.0
 40
7.0
 40
7.0
 40
8.0
 40
8.0
 40
8.0
 40
8.0
 10
120.4391601261402
 20
-140.0469210804396
 30
0.0
 10
120.664813880424
 20
-140.1633653078411
 30
0.0
 10
120.6854844533356
 20
-140.3506062474644
 30
0.0
 10
120.6854844533356
 20
-140.4761799779018
 30
0.0
 10
120.6854844533356
 20
-140.6494682808098
 30
0.0
 10
120.6351860592509
 20
-140.8024305203549
 30
0.0
 10
120.4391601261402
 20
-140.9050943658154
 30
0.0
 10
120.2290093015399
 20
-141.017059969086
 30
0.0
 10
119.9733832165344
 20
-141.0375582872232
 30
0.0
 10
119.7976833467867
 20
-141.0375582872232
 30
0.0
 10
119.6423095404019
 20
-141.0375582872232
 30
0.0
 10
119.3708360161642
 20
-141.0192992811514
 30
0.0
 10
119.1562065674331
 20
-140.9050943658154
 30
0.0
 10
118.9370984945713
 20
-140.7888223931882
 30
0.0
 10
118.9119492975289
 20
-140.6153618355059
 30
0.0
 10
118.9119492975289
 20
-140.4761799779018
 30
0.0
 10
118.9119492975289
 20
-140.3049587322849
 30
0.0
 10
118.9598361247739
 20
-140.1497571806744
 30
0.0
 10
119.1562065674331
 20
-140.0469210804396
 30
0.0
 10
119.3639458251937
 20
-139.9397786108484
 30
0.0
 10
119.6106146619376
 20
-139.9146294138061
 30
0.0
 10
119.7976833467867
 20
-139.9146294138061
 30
0.0
 10
119.982340464796
 20
-139.9146294138061
 30
0.0
 10
120.2314208683796
 20
-139.9373670440087
 30
0.0
 10
120.4391601261402
 20
-140.0469210804396
 30
0.0
  0
HATCH
  5
98
330
92
100
AcDbEntity
  8
レイヤー 1
 62
   250
420
  2299925
440
 33554687
100
AcDbHatch
 10
0.0
 20
0.0
 30
0.0
210
0.0
220
0.0
230
1.0
  2
SOLID
 70
     1
 71
     1
 91
        2
 92
        1
 93
        1
 72
     4
 94
        3
 73
     0
 74
     0
 95
       17
 96
       13
 40
0.0
 40
0.0
 40
0.0
 40
0.0
 40
1.0
 40
1.0
 40
1.0
 40
2.0
 40
2.0
 40
2.0
 40
3.0
 40
3.0
 40
3.0
 40
4.0
 40
4.0
 40
4.0
 40
4.0
 10
119.1196885552895
 20
-140.4761799779018
 10
119.1196885552895
 20
-140.745414190074
 10
119.4256130343797
 20
-140.7955403293844
 10
119.7976833467867
 20
-140.7955403293844
 10
120.1421928953116
 20
-140.7955403293844
 10
120.4756781382839
 20
-140.7567830051754
 10
120.4756781382839
 20
-140.4761799779018
 10
120.4756781382839
 20
-140.2090128230206
 10
120.1718207164848
 20
-140.1564751168706
 10
119.7976833467867
 20
-140.1564751168706
 10
119.4531737982617
 20
-140.1564751168706
 10
119.1196885552895
 20
-140.1976440079193
 10
119.1196885552895
 20
-140.4761799779018
 97
        0
 97
        1
330
96
 92
        1
 93
        1
 72
     4
 94
        3
 73
     0
 74
     0
 95
       29
 96
       25
 40
0.0
 40
0.0
 40
0.0
 40
0.0
 40
1.0
 40
1.0
 40
1.0
 40
2.0
 40
2.0
 40
2.0
 40
3.0
 40
3.0
 40
3.0
 40
4.0
 40
4.0
 40
4.0
 40
5.0
 40
5.0
 40
5.0
 40
6.0
 40
6.0
 40
6.0
 40
7.0
 40
7.0
 40
7.0
 40
8.0
 40
8.0
 40
8.0
 40
8.0
 10
120.4391601261402
 20
-140.0469210804396
 10
120.664813880424
 20
-140.1633653078411
 10
120.6854844533356
 20
-140.3506062474644
 10
120.6854844533356
 20
-140.4761799779018
 10
120.6854844533356
 20
-140.6494682808098
 10
120.6351860592509
 20
-140.8024305203549
 10
120.4391601261402
 20
-140.9050943658154
 10
120.2290093015399
 20
-141.017059969086
 10
119.9733832165344
 20
-141.0375582872232
 10
119.7976833467867
 20
-141.0375582872232
 10
119.6423095404019
 20
-141.0375582872232
 10
119.3708360161642
 20
-141.0192992811514
 10
119.1562065674331
 20
-140.9050943658154
 10
118.9370984945713
 20
-140.7888223931882
 10
118.9119492975289
 20
-140.6153618355059
 10
118.9119492975289
 20
-140.4761799779018
 10
118.9119492975289
 20
-140.3049587322849
 10
118.9598361247739
 20
-140.1497571806744
 10
119.1562065674331
 20
-140.0469210804396
 10
119.3639458251937
 20
-139.9397786108484
 10
119.6106146619376
 20
-139.9146294138061
 10
119.7976833467867
 20
-139.9146294138061
 10
119.982340464796
 20
-139.9146294138061
 10
120.2314208683796
 20
-139.9373670440087
 10
120.4391601261402
 20
-140.0469210804396
 97
        0
 97
        1
330
97
 75
     2
 76
     1
 98
        1
 10
0.0
 20
0.0
450
        0
451
        0
460
0.0
461
0.0
452
        0
462
0.0
453
        0
470

  0
SPLINE
  5
99
330
92
100
AcDbEntity
  8
レイヤー 1
100
AcDbSpline
210
0.0
220
0.0
230
1.0
 70
    11
 71
     3
 72
    17
 73
    13
 74
     0
 42
0.0000000001
 43
0.0000000001
 40
0.0
 40
0.0
 40
0.0
 40
0.0
 40
1.0
 40
1.0
 40
1.0
 40
2.0
 40
2.0
 40
2.0
 40
3.0
 40
3.0
 40
3.0
 40
4.0
 40
4.0
 40
4.0
 40
4.0
 10
120.6307074351201
 20
-139.680362920809
 30
0.0
 10
120.6307074351201
 20
-139.680362920809
 30
0.0
 10
120.3592339108824
 20
-139.680362920809
 30
0.0
 10
120.3592339108824
 20
-139.680362920809
 30
0.0
 10
120.3592339108824
 20
-139.680362920809
 30
0.0
 10
120.3592339108824
 20
-139.4088893965714
 30
0.0
 10
120.3592339108824
 20
-139.4088893965714
 30
0.0
 10
120.3592339108824
 20
-139.4088893965714
 30
0.0
 10
120.6307074351201
 20
-139.4088893965714
 30
0.0
 10
120.6307074351201
 20
-139.4088893965714
 30
0.0
 10
120.6307074351201
 20
-139.4088893965714
 30
0.0
 10
120.6307074351201
 20
-139.680362920809
 30
0.0
 10
120.6307074351201
 20
-139.680362920809
 30
0.0
  0
HATCH
  5
9A
330
92
100
AcDbEntity
  8
レイヤー 1
 62
   250
420
  2299925
440
 33554687
100
AcDbHatch
 10
0.0
 20
0.0
 30
0.0
210
0.0
220
0.0
230
1.0
  2
SOLID
 70
     1
 71
     1
 91
        1
 92
        1
 93
        1
 72
     4
 94
        3
 73
     0
 74
     0
 95
       17
 96
       13
 40
0.0
 40
0.0
 40
0.0
 40
0.0
 40
1.0
 40
1.0
 40
1.0
 40
2.0
 40
2.0
 40
2.0
 40
3.0
 40
3.0
 40
3.0
 40
4.0
 40
4.0
 40
4.0
 40
4.0
 10
120.6307074351201
 20
-139.680362920809
 10
120.6307074351201
 20
-139.680362920809
 10
120.3592339108824
 20
-139.680362920809
 10
120.3592339108824
 20
-139.680362920809
 10
120.3592339108824
 20
-139.680362920809
 10
120.3592339108824
 20
-139.4088893965714
 10
120.3592339108824
 20
-139.4088893965714
 10
120.3592339108824
 20
-139.4088893965714
 10
120.6307074351201
 20
-139.4088893965714
 10
120.6307074351201
 20
-139.4088893965714
 10
120.6307074351201
 20
-139.4088893965714
 10
120.6307074351201
 20
-139.680362920809
 10
120.6307074351201
 20
-139.680362920809
 97
        0
 97
        1
330
99
 75
     2
 76
     1
 98
        1
 10
0.0
 20
0.0
450
        0
451
        0
460
0.0
461
0.0
452
        0
462
0.0
453
        0
470

  0
SPLINE
  5
9B
330
92
100
AcDbEntity
  8
レイヤー 1
100
AcDbSpline
210
0.0
220
0.0
230
1.0
 70
     9
 71
     3
 72
    17
 73
    13
 74
     0
 42
0.0000000001
 43
0.0000000001
 40
0.0
 40
0.0
 40
0.0
 40
0.0
 40
1.0
 40
1.0
 40
1.0
 40
2.0
 40
2.0
 40
2.0
 40
3.0
 40
3.0
 40
3.0
 40
4.0
 40
4.0
 40
4.0
 40
4.0
 10
119.8317897920907
 20
-138.6141058681242
 30
0.0
 10
119.8317897920907
 20
-138.7691351649605
 30
0.0
 10
119.9254963892894
 20
-138.9334662196069
 30
0.0
 10
120.1446044621513
 20
-138.9334662196069
 30
0.0
 10
120.3661241018529
 20
-138.9334662196069
 30
0.0
 10
120.4756781382839
 20
-138.7966959288425
 30
0.0
 10
120.4756781382839
 20
-138.6141058681242
 30
0.0
 10
120.4756781382839
 20
-138.4132568013342
 30
0.0
 10
120.3430419621017
 20
-138.2944010070931
 30
0.0
 10
120.1514946531218
 20
-138.2944010070931
 30
0.0
 10
119.9117160073484
 20
-138.2944010070931
 30
0.0
 10
119.8317897920907
 20
-138.4702731316151
 30
0.0
 10
119.8317897920907
 20
-138.6141058681242
 30
0.0
  0
SPLINE
  5
9C
330
92
100
AcDbEntity
  8
レイヤー 1
100
AcDbSpline
210
0.0
220
0.0
230
1.0
 70
     9
 71
     3
 72
    17
 73
    13
 74
     0
 42
0.0000000001
 43
0.0000000001
 40
0.0
 40
0.0
 40
0.0
 40
0.0
 40
1.0
 40
1.0
 40
1.0
 40
2.0
 40
2.0
 40
2.0
 40
3.0
 40
3.0
 40
3.0
 40
4.0
 40
4.0
 40
4.0
 40
4.0
 10
119.1196885552895
 20
-138.6141058681242
 30
0.0
 10
119.1196885552895
 20
-138.7920450499374
 30
0.0
 10
119.2223524007499
 20
-138.8833400802965
 30
0.0
 10
119.3684244493245
 20
-138.8833400802965
 30
0.0
 10
119.5010606255067
 20
-138.8833400802965
 30
0.0
 10
119.6288736680094
 20
-138.8056531771041
 30
0.0
 10
119.6288736680094
 20
-138.6141058681242
 30
0.0
 10
119.6288736680094
 20
-138.4222140495958
 30
0.0
 10
119.5010606255067
 20
-138.3446994011777
 30
0.0
 10
119.3684244493245
 20
-138.3446994011777
 30
0.0
 10
119.2223524007499
 20
-138.3446994011777
 30
0.0
 10
119.1196885552895
 20
-138.4382337436022
 30
0.0
 10
119.1196885552895
 20
-138.6141058681242
 30
0.0
  0
SPLINE
  5
9D
330
92
100
AcDbEntity
  8
レイヤー 1
100
AcDbSpline
210
0.0
220
0.0
230
1.0
 70
     9
 71
     3
 72
    29
 73
    25
 74
     0
 42
0.0000000001
 43
0.0000000001
 40
0.0
 40
0.0
 40
0.0
 40
0.0
 40
1.0
 40
1.0
 40
1.0
 40
2.0
 40
2.0
 40
2.0
 40
3.0
 40
3.0
 40
3.0
 40
4.0
 40
4.0
 40
4.0
 40
5.0
 40
5.0
 40
5.0
 40
6.0
 40
6.0
 40
6.0
 40
7.0
 40
7.0
 40
7.0
 40
8.0
 40
8.0
 40
8.0
 40
8.0
 10
120.6854844533356
 20
-138.6141058681242
 30
0.0
 10
120.6854844533356
 20
-138.9015990863683
 30
0.0
 10
120.5370008379213
 20
-139.1754841774457
 30
0.0
 10
120.1604519013835
 20
-139.1754841774457
 30
0.0
 10
119.884499753015
 20
-139.1754841774457
 30
0.0
 10
119.7818359075545
 20
-139.0225219379006
 30
0.0
 10
119.7153455646892
 20
-138.9084892773388
 30
0.0
 10
119.6516112982121
 20
-139.0430202560378
 30
0.0
 10
119.5282768798401
 20
-139.1253580381353
 30
0.0
 10
119.3549885769321
 20
-139.1253580381353
 30
0.0
 10
119.0580213461035
 20
-139.1253580381353
 30
0.0
 10
118.9119492975289
 20
-138.9107285894042
 30
0.0
 10
118.9119492975289
 20
-138.6141058681242
 30
0.0
 10
118.9119492975289
 20
-138.308181389034
 30
0.0
 10
119.0673231039137
 20
-138.1028536981132
 30
0.0
 10
119.3549885769321
 20
-138.1028536981132
 30
0.0
 10
119.5282768798401
 20
-138.1028536981132
 30
0.0
 10
119.6516112982121
 20
-138.1872585375018
 30
0.0
 10
119.7153455646892
 20
-138.321961770975
 30
0.0
 10
119.7701225829047
 20
-138.2260158617108
 30
0.0
 10
119.8727864283651
 20
-138.0547946160939
 30
0.0
 10
120.1559732772527
 20
-138.0547946160939
 30
0.0
 10
120.5600829776725
 20
-138.0547946160939
 30
0.0
 10
120.6854844533356
 20
-138.356068216279
 30
0.0
 10
120.6854844533356
 20
-138.6141058681242
 30
0.0
  0
HATCH
  5
9E
330
92
100
AcDbEntity
  8
レイヤー 1
 62
   250
420
  2299925
440
 33554687
100
AcDbHatch
 10
0.0
 20
0.0
 30
0.0
210
0.0
220
0.0
230
1.0
  2
SOLID
 70
     1
 71
     1
 91
        3
 92
        1
 93
        1
 72
     4
 94
        3
 73
     0
 74
     0
 95
       17
 96
       13
 40
0.0
 40
0.0
 40
0.0
 40
0.0
 40
1.0
 40
1.0
 40
1.0
 40
2.0
 40
2.0
 40
2.0
 40
3.0
 40
3.0
 40
3.0
 40
4.0
 40
4.0
 40
4.0
 40
4.0
 10
119.8317897920907
 20
-138.6141058681242
 10
119.8317897920907
 20
-138.7691351649605
 10
119.9254963892894
 20
-138.9334662196069
 10
120.1446044621513
 20
-138.9334662196069
 10
120.3661241018529
 20
-138.9334662196069
 10
120.4756781382839
 20
-138.7966959288425
 10
120.4756781382839
 20
-138.6141058681242
 10
120.4756781382839
 20
-138.4132568013342
 10
120.3430419621017
 20
-138.2944010070931
 10
120.1514946531218
 20
-138.2944010070931
 10
119.9117160073484
 20
-138.2944010070931
 10
119.8317897920907
 20
-138.4702731316151
 10
119.8317897920907
 20
-138.6141058681242
 97
        0
 97
        1
330
9B
 92
        1
 93
        1
 72
     4
 94
        3
 73
     0
 74
     0
 95
       17
 96
       13
 40
0.0
 40
0.0
 40
0.0
 40
0.0
 40
1.0
 40
1.0
 40
1.0
 40
2.0
 40
2.0
 40
2.0
 40
3.0
 40
3.0
 40
3.0
 40
4.0
 40
4.0
 40
4.0
 40
4.0
 10
119.1196885552895
 20
-138.6141058681242
 10
119.1196885552895
 20
-138.7920450499374
 10
119.2223524007499
 20
-138.8833400802965
 10
119.3684244493245
 20
-138.8833400802965
 10
119.5010606255067
 20
-138.8833400802965
 10
119.6288736680094
 20
-138.8056531771041
 10
119.6288736680094
 20
-138.6141058681242
 10
119.6288736680094
 20
-138.4222140495958
 10
119.5010606255067
 20
-138.3446994011777
 10
119.3684244493245
 20
-138.3446994011777
 10
119.2223524007499
 20
-138.3446994011777
 10
119.1196885552895
 20
-138.4382337436022
 10
119.1196885552895
 20
-138.6141058681242
 97
        0
 97
        1
330
9C
 92
        1
 93
        1
 72
     4
 94
        3
 73
     0
 74
     0
 95
       29
 96
       25
 40
0.0
 40
0.0
 40
0.0
 40
0.0
 40
1.0
 40
1.0
 40
1.0
 40
2.0
 40
2.0
 40
2.0
 40
3.0
 40
3.0
 40
3.0
 40
4.0
 40
4.0
 40
4.0
 40
5.0
 40
5.0
 40
5.0
 40
6.0
 40
6.0
 40
6.0
 40
7.0
 40
7.0
 40
7.0
 40
8.0
 40
8.0
 40
8.0
 40
8.0
 10
120.6854844533356
 20
-138.6141058681242
 10
120.6854844533356
 20
-138.9015990863683
 10
120.5370008379213
 20
-139.1754841774457
 10
120.1604519013835
 20
-139.1754841774457
 10
119.884499753015
 20
-139.1754841774457
 10
119.7818359075545
 20
-139.0225219379006
 10
119.7153455646892
 20
-138.9084892773388
 10
119.6516112982121
 20
-139.0430202560378
 10
119.5282768798401
 20
-139.1253580381353
 10
119.3549885769321
 20
-139.1253580381353
 10
119.0580213461035
 20
-139.1253580381353
 10
118.9119492975289
 20
-138.9107285894042
 10
118.9119492975289
 20
-138.6141058681242
 10
118.9119492975289
 20
-138.308181389034
 10
119.0673231039137
 20
-138.1028536981132
 10
119.3549885769321
 20
-138.1028536981132
 10
119.5282768798401
 20
-138.1028536981132
 10
119.6516112982121
 20
-138.1872585375018
 10
119.7153455646892
 20
-138.321961770975
 10
119.7701225829047
 20
-138.2260158617108
 10
119.8727864283651
 20
-138.0547946160939
 10
120.1559732772527
 20
-138.0547946160939
 10
120.5600829776725
 20
-138.0547946160939
 10
120.6854844533356
 20
-138.356068216279
 10
120.6854844533356
 20
-138.6141058681242
 97
        0
 97
        1
330
9D
 75
     2
 76
     1
 98
        1
 10
0.0
 20
0.0
450
        0
451
        0
460
0.0
461
0.0
452
        0
462
0.0
453
        0
470

  0
ENDBLK
  5
95
330
92
100
AcDbEntity
  8
0
100
AcDbBlockEnd
  0
BLOCK
  5
A1
330
9F
100
AcDbEntity
  8
0
100
AcDbBlockBegin
  2
Block_4
 70
     0
 10
0.0
 20
0.0
 30
0.0
  3
Block_4
  1

  0
LINE
  5
A3
330
9F
100
AcDbEntity
  8
レイヤー 1
 62
   250
420
  2299925
370
     9
100
AcDbLine
 10
121.4809842601285
 20
-155.3460896778096
 30
0.0
 11
121.4809842601285
 21
-158.346076545718
 31
0.0
  0
LINE
  5
A4
330
9F
100
AcDbEntity
  8
レイヤー 1
 62
   250
420
  2299925
370
     9
100
AcDbLine
 10
109.0210498557857
 20
-158.346076545718
 30
0.0
 11
122.4809010260161
 21
-158.346076545718
 31
0.0
  0
INSERT
  5
A6
330
9F
100
AcDbEntity
  8
レイヤー 1
100
AcDbBlockReference
  2
Block_5
 10
0.0
 20
0.0
 30
0.0
  0
ENDBLK
  5
A2
330
9F
100
AcDbEntity
  8
0
100
AcDbBlockEnd
  0
BLOCK
  5
A7
330
A5
100
AcDbEntity
  8
0
100
AcDbBlockBegin
  2
Block_5
 70
     0
 10
0.0
 20
0.0
 30
0.0
  3
Block_5
  1

  0
SPLINE
  5
A9
330
A5
100
AcDbEntity
  8
レイヤー 1
100
AcDbSpline
210
0.0
220
0.0
230
1.0
 70
     9
 71
     3
 72
    62
 73
    58
 74
     0
 42
0.0000000001
 43
0.0000000001
 40
0.0
 40
0.0
 40
0.0
 40
0.0
 40
1.0
 40
1.0
 40
1.0
 40
2.0
 40
2.0
 40
2.0
 40
3.0
 40
3.0
 40
3.0
 40
4.0
 40
4.0
 40
4.0
 40
5.0
 40
5.0
 40
5.0
 40
6.0
 40
6.0
 40
6.0
 40
7.0
 40
7.0
 40
7.0
 40
8.0
 40
8.0
 40
8.0
 40
9.0
 40
9.0
 40
9.0
 40
10.0
 40
10.0
 40
10.0
 40
11.0
 40
11.0
 40
11.0
 40
12.0
 40
12.0
 40
12.0
 40
13.0
 40
13.0
 40
13.0
 40
14.0
 40
14.0
 40
14.0
 40
15.0
 40
15.0
 40
15.0
 40
16.0
 40
16.0
 40
16.0
 40
17.0
 40
17.0
 40
17.0
 40
18.0
 40
18.0
 40
18.0
 40
19.0
 40
19.0
 40
19.0
 40
19.0
 10
120.6854844533356
 20
-156.8541639147795
 30
0.0
 10
120.6854844533356
 20
-156.95682776024
 30
0.0
 10
120.6627468231329
 20
-157.191783272334
 30
0.0
 10
120.4618977563428
 20
-157.3264865058073
 30
0.0
 10
120.3409749048106
 20
-157.406412721065
 30
0.0
 10
120.2334879256708
 20
-157.4108913451959
 30
0.0
 10
120.1421928953116
 20
-157.4153699693267
 30
0.0
 10
120.1421928953116
 20
-157.4153699693267
 30
0.0
 10
120.1421928953116
 20
-157.1783473999415
 30
0.0
 10
120.1421928953116
 20
-157.1783473999415
 30
0.0
 10
120.2221191105695
 20
-157.1759358331018
 30
0.0
 10
120.4756781382839
 20
-157.1645670180005
 30
0.0
 10
120.4756781382839
 20
-156.8586425389103
 30
0.0
 10
120.4756781382839
 20
-156.7105034330446
 30
0.0
 10
120.4002305471569
 20
-156.5458278688496
 30
0.0
 10
120.153561710413
 20
-156.5458278688496
 30
0.0
 10
120.0281602347499
 20
-156.5458278688496
 30
0.0
 10
119.9757947833741
 20
-156.5871690146726
 30
0.0
 10
119.9413438285216
 20
-156.6212754599766
 30
0.0
 10
119.8614176132638
 20
-156.7012016752344
 30
0.0
 10
119.8479817408713
 20
-156.8266031508975
 30
0.0
 10
119.8479817408713
 20
-156.8862033027923
 30
0.0
 10
119.8479817408713
 20
-156.9065293661553
 30
0.0
 10
119.8500487981625
 20
-156.9454589451386
 30
0.0
 10
119.8548719318418
 20
-156.9750867663118
 30
0.0
 10
119.8548719318418
 20
-156.9750867663118
 30
0.0
 10
119.6447211072416
 20
-156.9750867663118
 30
0.0
 10
119.6447211072416
 20
-156.9750867663118
 30
0.0
 10
119.6516112982121
 20
-156.9337456204888
 30
0.0
 10
119.6536783555032
 20
-156.8882703600834
 30
0.0
 10
119.6536783555032
 20
-156.881380169113
 30
0.0
 10
119.6536783555032
 20
-156.8107557116653
 30
0.0
 10
119.6309407253006
 20
-156.5961262629343
 30
0.0
 10
119.375314640295
 20
-156.5961262629343
 30
0.0
 10
119.1837673313152
 20
-156.5961262629343
 30
0.0
 10
119.1245116889689
 20
-156.7377196873781
 30
0.0
 10
119.1245116889689
 20
-156.8565754816192
 30
0.0
 10
119.1245116889689
 20
-157.1418293877979
 30
0.0
 10
119.375314640295
 20
-157.1507866360595
 30
0.0
 10
119.4531737982617
 20
-157.1552652601903
 30
0.0
 10
119.4531737982617
 20
-157.1552652601903
 30
0.0
 10
119.4531737982617
 20
-157.3743733330522
 30
0.0
 10
119.4531737982617
 20
-157.3743733330522
 30
0.0
 10
119.3184705647884
 20
-157.3654160847906
 30
0.0
 10
118.9119492975289
 20
-157.3354437540689
 30
0.0
 10
118.9119492975289
 20
-156.8427950996782
 30
0.0
 10
118.9119492975289
 20
-156.6009493966136
 30
0.0
 10
119.0490640978419
 20
-156.3405001779287
 30
0.0
 10
119.3684244493245
 20
-156.3405001779287
 30
0.0
 10
119.5692735161146
 20
-156.3405001779287
 30
0.0
 10
119.6585014891826
 20
-156.4431640233892
 30
0.0
 10
119.7246473224994
 20
-156.550651002529
 30
0.0
 10
119.7542751436725
 20
-156.4845051692122
 30
0.0
 10
119.8410915499008
 20
-156.288134726553
 30
0.0
 10
120.1401258380205
 20
-156.288134726553
 30
0.0
 10
120.505305959457
 20
-156.288134726553
 30
0.0
 10
120.6854844533356
 20
-156.5551296266598
 30
0.0
 10
120.6854844533356
 20
-156.8541639147795
 30
0.0
  0
HATCH
  5
AA
330
A5
100
AcDbEntity
  8
レイヤー 1
 62
   250
420
  2299925
440
 33554687
100
AcDbHatch
 10
0.0
 20
0.0
 30
0.0
210
0.0
220
0.0
230
1.0
  2
SOLID
 70
     1
 71
     1
 91
        1
 92
        1
 93
        1
 72
     4
 94
        3
 73
     0
 74
     0
 95
       62
 96
       58
 40
0.0
 40
0.0
 40
0.0
 40
0.0
 40
1.0
 40
1.0
 40
1.0
 40
2.0
 40
2.0
 40
2.0
 40
3.0
 40
3.0
 40
3.0
 40
4.0
 40
4.0
 40
4.0
 40
5.0
 40
5.0
 40
5.0
 40
6.0
 40
6.0
 40
6.0
 40
7.0
 40
7.0
 40
7.0
 40
8.0
 40
8.0
 40
8.0
 40
9.0
 40
9.0
 40
9.0
 40
10.0
 40
10.0
 40
10.0
 40
11.0
 40
11.0
 40
11.0
 40
12.0
 40
12.0
 40
12.0
 40
13.0
 40
13.0
 40
13.0
 40
14.0
 40
14.0
 40
14.0
 40
15.0
 40
15.0
 40
15.0
 40
16.0
 40
16.0
 40
16.0
 40
17.0
 40
17.0
 40
17.0
 40
18.0
 40
18.0
 40
18.0
 40
19.0
 40
19.0
 40
19.0
 40
19.0
 10
120.6854844533356
 20
-156.8541639147795
 10
120.6854844533356
 20
-156.95682776024
 10
120.6627468231329
 20
-157.191783272334
 10
120.4618977563428
 20
-157.3264865058073
 10
120.3409749048106
 20
-157.406412721065
 10
120.2334879256708
 20
-157.4108913451959
 10
120.1421928953116
 20
-157.4153699693267
 10
120.1421928953116
 20
-157.4153699693267
 10
120.1421928953116
 20
-157.1783473999415
 10
120.1421928953116
 20
-157.1783473999415
 10
120.2221191105695
 20
-157.1759358331018
 10
120.4756781382839
 20
-157.1645670180005
 10
120.4756781382839
 20
-156.8586425389103
 10
120.4756781382839
 20
-156.7105034330446
 10
120.4002305471569
 20
-156.5458278688496
 10
120.153561710413
 20
-156.5458278688496
 10
120.0281602347499
 20
-156.5458278688496
 10
119.9757947833741
 20
-156.5871690146726
 10
119.9413438285216
 20
-156.6212754599766
 10
119.8614176132638
 20
-156.7012016752344
 10
119.8479817408713
 20
-156.8266031508975
 10
119.8479817408713
 20
-156.8862033027923
 10
119.8479817408713
 20
-156.9065293661553
 10
119.8500487981625
 20
-156.9454589451386
 10
119.8548719318418
 20
-156.9750867663118
 10
119.8548719318418
 20
-156.9750867663118
 10
119.6447211072416
 20
-156.9750867663118
 10
119.6447211072416
 20
-156.9750867663118
 10
119.6516112982121
 20
-156.9337456204888
 10
119.6536783555032
 20
-156.8882703600834
 10
119.6536783555032
 20
-156.881380169113
 10
119.6536783555032
 20
-156.8107557116653
 10
119.6309407253006
 20
-156.5961262629343
 10
119.375314640295
 20
-156.5961262629343
 10
119.1837673313152
 20
-156.5961262629343
 10
119.1245116889689
 20
-156.7377196873781
 10
119.1245116889689
 20
-156.8565754816192
 10
119.1245116889689
 20
-157.1418293877979
 10
119.375314640295
 20
-157.1507866360595
 10
119.4531737982617
 20
-157.1552652601903
 10
119.4531737982617
 20
-157.1552652601903
 10
119.4531737982617
 20
-157.3743733330522
 10
119.4531737982617
 20
-157.3743733330522
 10
119.3184705647884
 20
-157.3654160847906
 10
118.9119492975289
 20
-157.3354437540689
 10
118.9119492975289
 20
-156.8427950996782
 10
118.9119492975289
 20
-156.6009493966136
 10
119.0490640978419
 20
-156.3405001779287
 10
119.3684244493245
 20
-156.3405001779287
 10
119.5692735161146
 20
-156.3405001779287
 10
119.6585014891826
 20
-156.4431640233892
 10
119.7246473224994
 20
-156.550651002529
 10
119.7542751436725
 20
-156.4845051692122
 10
119.8410915499008
 20
-156.288134726553
 10
120.1401258380205
 20
-156.288134726553
 10
120.505305959457
 20
-156.288134726553
 10
120.6854844533356
 20
-156.5551296266598
 10
120.6854844533356
 20
-156.8541639147795
 97
        0
 97
        1
330
A9
 75
     2
 76
     1
 98
        1
 10
0.0
 20
0.0
450
        0
451
        0
460
0.0
461
0.0
452
        0
462
0.0
453
        0
470

  0
ENDBLK
  5
A8
330
A5
100
AcDbEntity
  8
0
100
AcDbBlockEnd
  0
BLOCK
  5
AD
330
AB
100
AcDbEntity
  8
0
100
AcDbBlockBegin
  2
Block_6
 70
     0
 10
0.0
 20
0.0
 30
0.0
  3
Block_6
  1

  0
LINE
  5
AF
330
AB
100
AcDbEntity
  8
レイヤー 1
 62
   250
420
  2299925
370
     9
100
AcDbLine
 10
121.4809842601285
 20
-142.3463700094598
 30
0.0
 11
121.4809842601285
 21
-155.3460896778096
 31
0.0
  0
LINE
  5
B0
330
AB
100
AcDbEntity
  8
レイヤー 1
 62
   250
420
  2299925
370
     9
100
AcDbLine
 10
120.0209429084884
 20
-142.3463700094598
 30
0.0
 11
122.4809010260161
 21
-142.3463700094598
 31
0.0
  0
LINE
  5
B1
330
AB
100
AcDbEntity
  8
レイヤー 1
 62
   250
420
  2299925
370
     9
100
AcDbLine
 10
109.0210498557857
 20
-155.3460896778096
 30
0.0
 11
122.4809010260161
 21
-155.3460896778096
 31
0.0
  0
INSERT
  5
B3
330
AB
100
AcDbEntity
  8
レイヤー 1
100
AcDbBlockReference
  2
Block_7
 10
0.0
 20
0.0
 30
0.0
  0
ENDBLK
  5
AE
330
AB
100
AcDbEntity
  8
0
100
AcDbBlockEnd
  0
BLOCK
  5
B4
330
B2
100
AcDbEntity
  8
0
100
AcDbBlockBegin
  2
Block_7
 70
     0
 10
0.0
 20
0.0
 30
0.0
  3
Block_7
  1

  0
INSERT
  5
B7
330
B2
100
AcDbEntity
  8
レイヤー 1
100
AcDbBlockReference
  2
Block_8
 10
0.0
 20
0.0
 30
0.0
  0
ENDBLK
  5
B5
330
B2
100
AcDbEntity
  8
0
100
AcDbBlockEnd
  0
BLOCK
  5
B8
330
B6
100
AcDbEntity
  8
0
100
AcDbBlockBegin
  2
Block_8
 70
     0
 10
0.0
 20
0.0
 30
0.0
  3
Block_8
  1

  0
SPLINE
  5
BA
330
B6
100
AcDbEntity
  8
レイヤー 1
100
AcDbSpline
210
0.0
220
0.0
230
1.0
 70
    11
 71
     3
 72
    26
 73
    22
 74
     0
 42
0.0000000001
 43
0.0000000001
 40
0.0
 40
0.0
 40
0.0
 40
0.0
 40
1.0
 40
1.0
 40
1.0
 40
2.0
 40
2.0
 40
2.0
 40
3.0
 40
3.0
 40
3.0
 40
4.0
 40
4.0
 40
4.0
 40
5.0
 40
5.0
 40
5.0
 40
6.0
 40
6.0
 40
6.0
 40
7.0
 40
7.0
 40
7.0
 40
7.0
 10
120.6303629255716
 20
-149.580189307223
 30
0.0
 10
120.6303629255716
 20
-149.580189307223
 30
0.0
 10
119.4390489067722
 20
-149.580189307223
 30
0.0
 10
119.4390489067722
 20
-149.580189307223
 30
0.0
 10
119.4390489067722
 20
-149.580189307223
 30
0.0
 10
119.4390489067722
 20
-149.9615613774402
 30
0.0
 10
119.4390489067722
 20
-149.9615613774402
 30
0.0
 10
119.4390489067722
 20
-149.9615613774402
 30
0.0
 10
119.2791964762566
 20
-149.9615613774402
 30
0.0
 10
119.2791964762566
 20
-149.9615613774402
 30
0.0
 10
119.2633490370244
 20
-149.5777777403833
 30
0.0
 10
119.0873046577282
 20
-149.5240342508134
 30
0.0
 10
118.9643147489047
 20
-149.4895832959609
 30
0.0
 10
118.9643147489047
 20
-149.4895832959609
 30
0.0
 10
118.9643147489047
 20
-149.3211181267322
 30
0.0
 10
118.9643147489047
 20
-149.3211181267322
 30
0.0
 10
118.9643147489047
 20
-149.3211181267322
 30
0.0
 10
120.6303629255716
 20
-149.3211181267322
 30
0.0
 10
120.6303629255716
 20
-149.3211181267322
 30
0.0
 10
120.6303629255716
 20
-149.3211181267322
 30
0.0
 10
120.6303629255716
 20
-149.580189307223
 30
0.0
 10
120.6303629255716
 20
-149.580189307223
 30
0.0
  0
HATCH
  5
BB
330
B6
100
AcDbEntity
  8
レイヤー 1
 62
   250
420
  2299925
440
 33554687
100
AcDbHatch
 10
0.0
 20
0.0
 30
0.0
210
0.0
220
0.0
230
1.0
  2
SOLID
 70
     1
 71
     1
 91
        1
 92
        1
 93
        1
 72
     4
 94
        3
 73
     0
 74
     0
 95
       26
 96
       22
 40
0.0
 40
0.0
 40
0.0
 40
0.0
 40
1.0
 40
1.0
 40
1.0
 40
2.0
 40
2.0
 40
2.0
 40
3.0
 40
3.0
 40
3.0
 40
4.0
 40
4.0
 40
4.0
 40
5.0
 40
5.0
 40
5.0
 40
6.0
 40
6.0
 40
6.0
 40
7.0
 40
7.0
 40
7.0
 40
7.0
 10
120.6303629255716
 20
-149.580189307223
 10
120.6303629255716
 20
-149.580189307223
 10
119.4390489067722
 20
-149.580189307223
 10
119.4390489067722
 20
-149.580189307223
 10
119.4390489067722
 20
-149.580189307223
 10
119.4390489067722
 20
-149.9615613774402
 10
119.4390489067722
 20
-149.9615613774402
 10
119.4390489067722
 20
-149.9615613774402
 10
119.2791964762566
 20
-149.9615613774402
 10
119.2791964762566
 20
-149.9615613774402
 10
119.2633490370244
 20
-149.5777777403833
 10
119.0873046577282
 20
-149.5240342508134
 10
118.9643147489047
 20
-149.4895832959609
 10
118.9643147489047
 20
-149.4895832959609
 10
118.9643147489047
 20
-149.3211181267322
 10
118.9643147489047
 20
-149.3211181267322
 10
118.9643147489047
 20
-149.3211181267322
 10
120.6303629255716
 20
-149.3211181267322
 10
120.6303629255716
 20
-149.3211181267322
 10
120.6303629255716
 20
-149.3211181267322
 10
120.6303629255716
 20
-149.580189307223
 10
120.6303629255716
 20
-149.580189307223
 97
        0
 97
        1
330
BA
 75
     2
 76
     1
 98
        1
 10
0.0
 20
0.0
450
        0
451
        0
460
0.0
461
0.0
452
        0
462
0.0
453
        0
470

  0
SPLINE
  5
BC
330
B6
100
AcDbEntity
  8
レイヤー 1
100
AcDbSpline
210
0.0
220
0.0
230
1.0
 70
     9
 71
     3
 72
    62
 73
    58
 74
     0
 42
0.0000000001
 43
0.0000000001
 40
0.0
 40
0.0
 40
0.0
 40
0.0
 40
1.0
 40
1.0
 40
1.0
 40
2.0
 40
2.0
 40
2.0
 40
3.0
 40
3.0
 40
3.0
 40
4.0
 40
4.0
 40
4.0
 40
5.0
 40
5.0
 40
5.0
 40
6.0
 40
6.0
 40
6.0
 40
7.0
 40
7.0
 40
7.0
 40
8.0
 40
8.0
 40
8.0
 40
9.0
 40
9.0
 40
9.0
 40
10.0
 40
10.0
 40
10.0
 40
11.0
 40
11.0
 40
11.0
 40
12.0
 40
12.0
 40
12.0
 40
13.0
 40
13.0
 40
13.0
 40
14.0
 40
14.0
 40
14.0
 40
15.0
 40
15.0
 40
15.0
 40
16.0
 40
16.0
 40
16.0
 40
17.0
 40
17.0
 40
17.0
 40
18.0
 40
18.0
 40
18.0
 40
19.0
 40
19.0
 40
19.0
 40
19.0
 10
120.685139943787
 20
-148.1761406422094
 30
0.0
 10
120.685139943787
 20
-148.2860391881889
 30
0.0
 10
120.6624023135844
 20
-148.5377034133864
 30
0.0
 10
120.4615532467943
 20
-148.6818806594441
 30
0.0
 10
120.340630395262
 20
-148.7674912822526
 30
0.0
 10
120.2331434161223
 20
-148.7723144159319
 30
0.0
 10
120.1418483857631
 20
-148.7773098043855
 30
0.0
 10
120.1418483857631
 20
-148.7773098043855
 30
0.0
 10
120.1418483857631
 20
-148.5230617575741
 30
0.0
 10
120.1418483857631
 20
-148.5230617575741
 30
0.0
 10
120.2217746010209
 20
-148.5206501907344
 30
0.0
 10
120.4749891191868
 20
-148.5084201017618
 30
0.0
 10
120.4749891191868
 20
-148.1809637758888
 30
0.0
 10
120.4749891191868
 20
-148.0221448740188
 30
0.0
 10
120.3998860376083
 20
-147.8461004947225
 30
0.0
 10
120.1532172008644
 20
-147.8461004947225
 30
0.0
 10
120.0278157252014
 20
-147.8461004947225
 30
0.0
 10
119.9754502738256
 20
-147.8901977169337
 30
0.0
 10
119.9409993189731
 20
-147.9268879838516
 30
0.0
 10
119.8610731037153
 20
-148.0123263518858
 30
0.0
 10
119.8476372313228
 20
-148.1466850758105
 30
0.0
 10
119.8476372313228
 20
-148.2102470875134
 30
0.0
 10
119.8476372313228
 20
-148.232295698619
 30
0.0
 10
119.8497042886139
 20
-148.2738090992162
 30
0.0
 10
119.8541829127448
 20
-148.3056762324548
 30
0.0
 10
119.8541829127448
 20
-148.3056762324548
 30
0.0
 10
119.6443765976931
 20
-148.3056762324548
 30
0.0
 10
119.6443765976931
 20
-148.3056762324548
 30
0.0
 10
119.6512667886636
 20
-148.2615790102436
 30
0.0
 10
119.6536783555032
 20
-148.2126586543531
 30
0.0
 10
119.6536783555032
 20
-148.205423953834
 30
0.0
 10
119.6536783555032
 20
-148.1296318531585
 30
0.0
 10
119.630596215752
 20
-147.8998439842924
 30
0.0
 10
119.3749701307465
 20
-147.8998439842924
 30
0.0
 10
119.1834228217666
 20
-147.8998439842924
 30
0.0
 10
119.1238226698718
 20
-148.0514281856434
 30
0.0
 10
119.1238226698718
 20
-148.1785522090491
 30
0.0
 10
119.1238226698718
 20
-148.4839599238165
 30
0.0
 10
119.3749701307465
 20
-148.4937784459495
 30
0.0
 10
119.4524847791646
 20
-148.4986015796288
 30
0.0
 10
119.4524847791646
 20
-148.4986015796288
 30
0.0
 10
119.4524847791646
 20
-148.7332125821743
 30
0.0
 10
119.4524847791646
 20
-148.7332125821743
 30
0.0
 10
119.3181260552399
 20
-148.7235663148156
 30
0.0
 10
118.9116047879804
 20
-148.6916991815771
 30
0.0
 10
118.9116047879804
 20
-148.1639105532368
 30
0.0
 10
118.9116047879804
 20
-147.904839372746
 30
0.0
 10
119.0487195882933
 20
-147.6261311479893
 30
0.0
 10
119.368079939776
 20
-147.6261311479893
 30
0.0
 10
119.5689290065661
 20
-147.6261311479893
 30
0.0
 10
119.658156979634
 20
-147.736201948743
 30
0.0
 10
119.7243028129508
 20
-147.8510958831761
 30
0.0
 10
119.753930634124
 20
-147.7801269161799
 30
0.0
 10
119.8407470403523
 20
-147.5699760915797
 30
0.0
 10
120.139781328472
 20
-147.5699760915797
 30
0.0
 10
120.5049614499085
 20
-147.5699760915797
 30
0.0
 10
120.685139943787
 20
-147.8559190168554
 30
0.0
 10
120.685139943787
 20
-148.1761406422094
 30
0.0
  0
HATCH
  5
BD
330
B6
100
AcDbEntity
  8
レイヤー 1
 62
   250
420
  2299925
440
 33554687
100
AcDbHatch
 10
0.0
 20
0.0
 30
0.0
210
0.0
220
0.0
230
1.0
  2
SOLID
 70
     1
 71
     1
 91
        1
 92
        1
 93
        1
 72
     4
 94
        3
 73
     0
 74
     0
 95
       62
 96
       58
 40
0.0
 40
0.0
 40
0.0
 40
0.0
 40
1.0
 40
1.0
 40
1.0
 40
2.0
 40
2.0
 40
2.0
 40
3.0
 40
3.0
 40
3.0
 40
4.0
 40
4.0
 40
4.0
 40
5.0
 40
5.0
 40
5.0
 40
6.0
 40
6.0
 40
6.0
 40
7.0
 40
7.0
 40
7.0
 40
8.0
 40
8.0
 40
8.0
 40
9.0
 40
9.0
 40
9.0
 40
10.0
 40
10.0
 40
10.0
 40
11.0
 40
11.0
 40
11.0
 40
12.0
 40
12.0
 40
12.0
 40
13.0
 40
13.0
 40
13.0
 40
14.0
 40
14.0
 40
14.0
 40
15.0
 40
15.0
 40
15.0
 40
16.0
 40
16.0
 40
16.0
 40
17.0
 40
17.0
 40
17.0
 40
18.0
 40
18.0
 40
18.0
 40
19.0
 40
19.0
 40
19.0
 40
19.0
 10
120.685139943787
 20
-148.1761406422094
 10
120.685139943787
 20
-148.2860391881889
 10
120.6624023135844
 20
-148.5377034133864
 10
120.4615532467943
 20
-148.6818806594441
 10
120.340630395262
 20
-148.7674912822526
 10
120.2331434161223
 20
-148.7723144159319
 10
120.1418483857631
 20
-148.7773098043855
 10
120.1418483857631
 20
-148.7773098043855
 10
120.1418483857631
 20
-148.5230617575741
 10
120.1418483857631
 20
-148.5230617575741
 10
120.2217746010209
 20
-148.5206501907344
 10
120.4749891191868
 20
-148.5084201017618
 10
120.4749891191868
 20
-148.1809637758888
 10
120.4749891191868
 20
-148.0221448740188
 10
120.3998860376083
 20
-147.8461004947225
 10
120.1532172008644
 20
-147.8461004947225
 10
120.0278157252014
 20
-147.8461004947225
 10
119.9754502738256
 20
-147.8901977169337
 10
119.9409993189731
 20
-147.9268879838516
 10
119.8610731037153
 20
-148.0123263518858
 10
119.8476372313228
 20
-148.1466850758105
 10
119.8476372313228
 20
-148.2102470875134
 10
119.8476372313228
 20
-148.232295698619
 10
119.8497042886139
 20
-148.2738090992162
 10
119.8541829127448
 20
-148.3056762324548
 10
119.8541829127448
 20
-148.3056762324548
 10
119.6443765976931
 20
-148.3056762324548
 10
119.6443765976931
 20
-148.3056762324548
 10
119.6512667886636
 20
-148.2615790102436
 10
119.6536783555032
 20
-148.2126586543531
 10
119.6536783555032
 20
-148.205423953834
 10
119.6536783555032
 20
-148.1296318531585
 10
119.630596215752
 20
-147.8998439842924
 10
119.3749701307465
 20
-147.8998439842924
 10
119.1834228217666
 20
-147.8998439842924
 10
119.1238226698718
 20
-148.0514281856434
 10
119.1238226698718
 20
-148.1785522090491
 10
119.1238226698718
 20
-148.4839599238165
 10
119.3749701307465
 20
-148.4937784459495
 10
119.4524847791646
 20
-148.4986015796288
 10
119.4524847791646
 20
-148.4986015796288
 10
119.4524847791646
 20
-148.7332125821743
 10
119.4524847791646
 20
-148.7332125821743
 10
119.3181260552399
 20
-148.7235663148156
 10
118.9116047879804
 20
-148.6916991815771
 10
118.9116047879804
 20
-148.1639105532368
 10
118.9116047879804
 20
-147.904839372746
 10
119.0487195882933
 20
-147.6261311479893
 10
119.368079939776
 20
-147.6261311479893
 10
119.5689290065661
 20
-147.6261311479893
 10
119.658156979634
 20
-147.736201948743
 10
119.7243028129508
 20
-147.8510958831761
 10
119.753930634124
 20
-147.7801269161799
 10
119.8407470403523
 20
-147.5699760915797
 10
120.139781328472
 20
-147.5699760915797
 10
120.5049614499085
 20
-147.5699760915797
 10
120.685139943787
 20
-147.8559190168554
 10
120.685139943787
 20
-148.1761406422094
 97
        0
 97
        1
330
BC
 75
     2
 76
     1
 98
        1
 10
0.0
 20
0.0
450
        0
451
        0
460
0.0
461
0.0
452
        0
462
0.0
453
        0
470

  0
ENDBLK
  5
B9
330
B6
100
AcDbEntity
  8
0
100
AcDbBlockEnd
  0
BLOCK
  5
C0
330
BE
100
AcDbEntity
  8
0
100
AcDbBlockBegin
  2
Block_9
 70
     0
 10
0.0
 20
0.0
 30
0.0
  3
Block_9
  1

  0
LINE
  5
C2
330
BE
100
AcDbEntity
  8
レイヤー 1
 62
   250
420
  2299925
370
     9
100
AcDbLine
 10
99.48095121028504
 20
-138.3461485198103
 30
0.0
 11
117.4810488066198
 21
-138.3461485198103
 31
0.0
  0
LINE
  5
C3
330
BE
100
AcDbEntity
  8
レイヤー 1
 62
   250
420
  2299925
370
     9
100
AcDbLine
 10
99.48095121028504
 20
-139.8061584075996
 30
0.0
 11
99.48095121028504
 21
-137.3463762978378
 31
0.0
  0
LINE
  5
C4
330
BE
100
AcDbEntity
  8
レイヤー 1
 62
   250
420
  2299925
370
     9
100
AcDbLine
 10
117.4810488066198
 20
-139.8061584075996
 30
0.0
 11
117.4810488066198
 21
-137.3463762978378
 31
0.0
  0
INSERT
  5
C6
330
BE
100
AcDbEntity
  8
レイヤー 1
100
AcDbBlockReference
  2
Block_10
 10
0.0
 20
0.0
 30
0.0
  0
ENDBLK
  5
C1
330
BE
100
AcDbEntity
  8
0
100
AcDbBlockEnd
  0
BLOCK
  5
C7
330
C5
100
AcDbEntity
  8
0
100
AcDbBlockBegin
  2
Block_10
 70
     0
 10
0.0
 20
0.0
 30
0.0
  3
Block_10
  1

  0
INSERT
  5
CA
330
C5
100
AcDbEntity
  8
レイヤー 1
100
AcDbBlockReference
  2
Block_11
 10
0.0
 20
0.0
 30
0.0
  0
ENDBLK
  5
C8
330
C5
100
AcDbEntity
  8
0
100
AcDbBlockEnd
  0
BLOCK
  5
CB
330
C9
100
AcDbEntity
  8
0
100
AcDbBlockBegin
  2
Block_11
 70
     0
 10
0.0
 20
0.0
 30
0.0
  3
Block_11
  1

  0
SPLINE
  5
CD
330
C9
100
AcDbEntity
  8
レイヤー 1
100
AcDbSpline
210
0.0
220
0.0
230
1.0
 70
    11
 71
     3
 72
    26
 73
    22
 74
     0
 42
0.0000000001
 43
0.0000000001
 40
0.0
 40
0.0
 40
0.0
 40
0.0
 40
1.0
 40
1.0
 40
1.0
 40
2.0
 40
2.0
 40
2.0
 40
3.0
 40
3.0
 40
3.0
 40
4.0
 40
4.0
 40
4.0
 40
5.0
 40
5.0
 40
5.0
 40
6.0
 40
6.0
 40
6.0
 40
7.0
 40
7.0
 40
7.0
 40
7.0
 10
107.6991970216863
 20
-137.0841389631248
 30
0.0
 10
107.6991970216863
 20
-137.0841389631248
 30
0.0
 10
107.6991970216863
 20
-135.8928249443254
 30
0.0
 10
107.6991970216863
 20
-135.8928249443254
 30
0.0
 10
107.6991970216863
 20
-135.8928249443254
 30
0.0
 10
107.3178249514691
 20
-135.8928249443254
 30
0.0
 10
107.3178249514691
 20
-135.8928249443254
 30
0.0
 10
107.3178249514691
 20
-135.8928249443254
 30
0.0
 10
107.3178249514691
 20
-135.7329725138098
 30
0.0
 10
107.3178249514691
 20
-135.7329725138098
 30
0.0
 10
107.701608588526
 20
-135.7169528198034
 30
0.0
 10
107.7553520780959
 20
-135.5412529500557
 30
0.0
 10
107.7894585233998
 20
-135.418090786458
 30
0.0
 10
107.7894585233998
 20
-135.418090786458
 30
0.0
 10
107.9582682021771
 20
-135.418090786458
 30
0.0
 10
107.9582682021771
 20
-135.418090786458
 30
0.0
 10
107.9582682021771
 20
-135.418090786458
 30
0.0
 10
107.9582682021771
 20
-137.0841389631248
 30
0.0
 10
107.9582682021771
 20
-137.0841389631248
 30
0.0
 10
107.9582682021771
 20
-137.0841389631248
 30
0.0
 10
107.6991970216863
 20
-137.0841389631248
 30
0.0
 10
107.6991970216863
 20
-137.0841389631248
 30
0.0
  0
HATCH
  5
CE
330
C9
100
AcDbEntity
  8
レイヤー 1
 62
   250
420
  2299925
440
 33554687
100
AcDbHatch
 10
0.0
 20
0.0
 30
0.0
210
0.0
220
0.0
230
1.0
  2
SOLID
 70
     1
 71
     1
 91
        1
 92
        1
 93
        1
 72
     4
 94
        3
 73
     0
 74
     0
 95
       26
 96
       22
 40
0.0
 40
0.0
 40
0.0
 40
0.0
 40
1.0
 40
1.0
 40
1.0
 40
2.0
 40
2.0
 40
2.0
 40
3.0
 40
3.0
 40
3.0
 40
4.0
 40
4.0
 40
4.0
 40
5.0
 40
5.0
 40
5.0
 40
6.0
 40
6.0
 40
6.0
 40
7.0
 40
7.0
 40
7.0
 40
7.0
 10
107.6991970216863
 20
-137.0841389631248
 10
107.6991970216863
 20
-137.0841389631248
 10
107.6991970216863
 20
-135.8928249443254
 10
107.6991970216863
 20
-135.8928249443254
 10
107.6991970216863
 20
-135.8928249443254
 10
107.3178249514691
 20
-135.8928249443254
 10
107.3178249514691
 20
-135.8928249443254
 10
107.3178249514691
 20
-135.8928249443254
 10
107.3178249514691
 20
-135.7329725138098
 10
107.3178249514691
 20
-135.7329725138098
 10
107.701608588526
 20
-135.7169528198034
 10
107.7553520780959
 20
-135.5412529500557
 10
107.7894585233998
 20
-135.418090786458
 10
107.7894585233998
 20
-135.418090786458
 10
107.9582682021771
 20
-135.418090786458
 10
107.9582682021771
 20
-135.418090786458
 10
107.9582682021771
 20
-135.418090786458
 10
107.9582682021771
 20
-137.0841389631248
 10
107.9582682021771
 20
-137.0841389631248
 10
107.9582682021771
 20
-137.0841389631248
 10
107.6991970216863
 20
-137.0841389631248
 10
107.6991970216863
 20
-137.0841389631248
 97
        0
 97
        1
330
CD
 75
     2
 76
     1
 98
        1
 10
0.0
 20
0.0
450
        0
451
        0
460
0.0
461
0.0
452
        0
462
0.0
453
        0
470

  0
SPLINE
  5
CF
330
C9
100
AcDbEntity
  8
レイヤー 1
100
AcDbSpline
210
0.0
220
0.0
230
1.0
 70
     9
 71
     3
 72
    17
 73
    13
 74
     0
 42
0.0000000001
 43
0.0000000001
 40
0.0
 40
0.0
 40
0.0
 40
0.0
 40
1.0
 40
1.0
 40
1.0
 40
2.0
 40
2.0
 40
2.0
 40
3.0
 40
3.0
 40
3.0
 40
4.0
 40
4.0
 40
4.0
 40
4.0
 10
109.1130642088328
 20
-135.5731200832942
 30
0.0
 10
108.9225504284985
 20
-135.5731200832942
 30
0.0
 10
108.8247097167174
 20
-135.6759561835289
 30
0.0
 10
108.8247097167174
 20
-135.8220282321035
 30
0.0
 10
108.8247097167174
 20
-135.9543198987371
 30
0.0
 10
108.9077365179119
 20
-136.0821329412398
 30
0.0
 10
109.1130642088328
 20
-136.0821329412398
 30
0.0
 10
109.3183918997537
 20
-136.0821329412398
 30
0.0
 10
109.4014187009482
 20
-135.9543198987371
 30
0.0
 10
109.4014187009482
 20
-135.8220282321035
 30
0.0
 10
109.4014187009482
 20
-135.6759561835289
 30
0.0
 10
109.3011664223275
 20
-135.5731200832942
 30
0.0
 10
109.1130642088328
 20
-135.5731200832942
 30
0.0
  0
SPLINE
  5
D0
330
C9
100
AcDbEntity
  8
レイヤー 1
100
AcDbSpline
210
0.0
220
0.0
230
1.0
 70
     9
 71
     3
 72
    17
 73
    13
 74
     0
 42
0.0000000001
 43
0.0000000001
 40
0.0
 40
0.0
 40
0.0
 40
0.0
 40
1.0
 40
1.0
 40
1.0
 40
2.0
 40
2.0
 40
2.0
 40
3.0
 40
3.0
 40
3.0
 40
4.0
 40
4.0
 40
4.0
 40
4.0
 10
109.1130642088328
 20
-136.2852213200953
 30
0.0
 10
108.9466660968953
 20
-136.2852213200953
 30
0.0
 10
108.7709662271475
 20
-136.3789279172941
 30
0.0
 10
108.7709662271475
 20
-136.598035990156
 30
0.0
 10
108.7709662271475
 20
-136.8193833750833
 30
0.0
 10
108.9173827852706
 20
-136.9289374115143
 30
0.0
 10
109.1130642088328
 20
-136.9289374115143
 30
0.0
 10
109.3280381671124
 20
-136.9289374115143
 30
0.0
 10
109.4551621905181
 20
-136.7964734901064
 30
0.0
 10
109.4551621905181
 20
-136.6049261811265
 30
0.0
 10
109.4551621905181
 20
-136.3651475353532
 30
0.0
 10
109.2670599770235
 20
-136.2852213200953
 30
0.0
 10
109.1130642088328
 20
-136.2852213200953
 30
0.0
  0
SPLINE
  5
D1
330
C9
100
AcDbEntity
  8
レイヤー 1
100
AcDbSpline
210
0.0
220
0.0
230
1.0
 70
     9
 71
     3
 72
    29
 73
    25
 74
     0
 42
0.0000000001
 43
0.0000000001
 40
0.0
 40
0.0
 40
0.0
 40
0.0
 40
1.0
 40
1.0
 40
1.0
 40
2.0
 40
2.0
 40
2.0
 40
3.0
 40
3.0
 40
3.0
 40
4.0
 40
4.0
 40
4.0
 40
5.0
 40
5.0
 40
5.0
 40
6.0
 40
6.0
 40
6.0
 40
7.0
 40
7.0
 40
7.0
 40
8.0
 40
8.0
 40
8.0
 40
8.0
 10
109.1130642088328
 20
-137.1389159813403
 30
0.0
 10
108.8050726724515
 20
-137.1389159813403
 30
0.0
 10
108.5118950466567
 20
-136.9906046207002
 30
0.0
 10
108.5118950466567
 20
-136.6138834293882
 30
0.0
 10
108.5118950466567
 20
-136.3377590262454
 30
0.0
 10
108.6755370822061
 20
-136.235095180785
 30
0.0
 10
108.7978379719325
 20
-136.1689493474682
 30
0.0
 10
108.6534884711005
 20
-136.1050428262168
 30
0.0
 10
108.5656385362266
 20
-135.9817084078448
 30
0.0
 10
108.5656385362266
 20
-135.8082478501625
 30
0.0
 10
108.5656385362266
 20
-135.5116251288825
 30
0.0
 10
108.7954264050928
 20
-135.3655530803079
 30
0.0
 10
109.1130642088328
 20
-135.3655530803079
 30
0.0
 10
109.4403482799316
 20
-135.3655530803079
 30
0.0
 10
109.660489881439
 20
-135.5207546319184
 30
0.0
 10
109.660489881439
 20
-135.8082478501625
 30
0.0
 10
109.660489881439
 20
-135.9817084078448
 30
0.0
 10
109.569883870177
 20
-136.1050428262168
 30
0.0
 10
109.4258788788935
 20
-136.1689493474682
 30
0.0
 10
109.528542724354
 20
-136.2237263656836
 30
0.0
 10
109.7118218041692
 20
-136.3263902111441
 30
0.0
 10
109.7118218041692
 20
-136.6094048052574
 30
0.0
 10
109.7118218041692
 20
-137.0133422509029
 30
0.0
 10
109.3890163572013
 20
-137.1389159813403
 30
0.0
 10
109.1130642088328
 20
-137.1389159813403
 30
0.0
  0
HATCH
  5
D2
330
C9
100
AcDbEntity
  8
レイヤー 1
 62
   250
420
  2299925
440
 33554687
100
AcDbHatch
 10
0.0
 20
0.0
 30
0.0
210
0.0
220
0.0
230
1.0
  2
SOLID
 70
     1
 71
     1
 91
        3
 92
        1
 93
        1
 72
     4
 94
        3
 73
     0
 74
     0
 95
       17
 96
       13
 40
0.0
 40
0.0
 40
0.0
 40
0.0
 40
1.0
 40
1.0
 40
1.0
 40
2.0
 40
2.0
 40
2.0
 40
3.0
 40
3.0
 40
3.0
 40
4.0
 40
4.0
 40
4.0
 40
4.0
 10
109.1130642088328
 20
-135.5731200832942
 10
108.9225504284985
 20
-135.5731200832942
 10
108.8247097167174
 20
-135.6759561835289
 10
108.8247097167174
 20
-135.8220282321035
 10
108.8247097167174
 20
-135.9543198987371
 10
108.9077365179119
 20
-136.0821329412398
 10
109.1130642088328
 20
-136.0821329412398
 10
109.3183918997537
 20
-136.0821329412398
 10
109.4014187009482
 20
-135.9543198987371
 10
109.4014187009482
 20
-135.8220282321035
 10
109.4014187009482
 20
-135.6759561835289
 10
109.3011664223275
 20
-135.5731200832942
 10
109.1130642088328
 20
-135.5731200832942
 97
        0
 97
        1
330
CF
 92
        1
 93
        1
 72
     4
 94
        3
 73
     0
 74
     0
 95
       17
 96
       13
 40
0.0
 40
0.0
 40
0.0
 40
0.0
 40
1.0
 40
1.0
 40
1.0
 40
2.0
 40
2.0
 40
2.0
 40
3.0
 40
3.0
 40
3.0
 40
4.0
 40
4.0
 40
4.0
 40
4.0
 10
109.1130642088328
 20
-136.2852213200953
 10
108.9466660968953
 20
-136.2852213200953
 10
108.7709662271475
 20
-136.3789279172941
 10
108.7709662271475
 20
-136.598035990156
 10
108.7709662271475
 20
-136.8193833750833
 10
108.9173827852706
 20
-136.9289374115143
 10
109.1130642088328
 20
-136.9289374115143
 10
109.3280381671124
 20
-136.9289374115143
 10
109.4551621905181
 20
-136.7964734901064
 10
109.4551621905181
 20
-136.6049261811265
 10
109.4551621905181
 20
-136.3651475353532
 10
109.2670599770235
 20
-136.2852213200953
 10
109.1130642088328
 20
-136.2852213200953
 97
        0
 97
        1
330
D0
 92
        1
 93
        1
 72
     4
 94
        3
 73
     0
 74
     0
 95
       29
 96
       25
 40
0.0
 40
0.0
 40
0.0
 40
0.0
 40
1.0
 40
1.0
 40
1.0
 40
2.0
 40
2.0
 40
2.0
 40
3.0
 40
3.0
 40
3.0
 40
4.0
 40
4.0
 40
4.0
 40
5.0
 40
5.0
 40
5.0
 40
6.0
 40
6.0
 40
6.0
 40
7.0
 40
7.0
 40
7.0
 40
8.0
 40
8.0
 40
8.0
 40
8.0
 10
109.1130642088328
 20
-137.1389159813403
 10
108.8050726724515
 20
-137.1389159813403
 10
108.5118950466567
 20
-136.9906046207002
 10
108.5118950466567
 20
-136.6138834293882
 10
108.5118950466567
 20
-136.3377590262454
 10
108.6755370822061
 20
-136.235095180785
 10
108.7978379719325
 20
-136.1689493474682
 10
108.6534884711005
 20
-136.1050428262168
 10
108.5656385362266
 20
-135.9817084078448
 10
108.5656385362266
 20
-135.8082478501625
 10
108.5656385362266
 20
-135.5116251288825
 10
108.7954264050928
 20
-135.3655530803079
 10
109.1130642088328
 20
-135.3655530803079
 10
109.4403482799316
 20
-135.3655530803079
 10
109.660489881439
 20
-135.5207546319184
 10
109.660489881439
 20
-135.8082478501625
 10
109.660489881439
 20
-135.9817084078448
 10
109.569883870177
 20
-136.1050428262168
 10
109.4258788788935
 20
-136.1689493474682
 10
109.528542724354
 20
-136.2237263656836
 10
109.7118218041692
 20
-136.3263902111441
 10
109.7118218041692
 20
-136.6094048052574
 10
109.7118218041692
 20
-137.0133422509029
 10
109.3890163572013
 20
-137.1389159813403
 10
109.1130642088328
 20
-137.1389159813403
 97
        0
 97
        1
330
D1
 75
     2
 76
     1
 98
        1
 10
0.0
 20
0.0
450
        0
451
        0
460
0.0
461
0.0
452
        0
462
0.0
453
        0
470

  0
ENDBLK
  5
CC
330
C9
100
AcDbEntity
  8
0
100
AcDbBlockEnd
  0
BLOCK
  5
D5
330
D3
100
AcDbEntity
  8
0
100
AcDbBlockBegin
  2
Block_12
 70
     0
 10
0.0
 20
0.0
 30
0.0
  3
Block_12
  1

  0
LINE
  5
D7
330
D3
100
AcDbEntity
  8
レイヤー 1
 62
   250
420
  2299925
370
     9
100
AcDbLine
 10
99.48095121028504
 20
-162.3461883881111
 30
0.0
 11
106.4809793650328
 21
-162.3461883881111
 31
0.0
  0
LINE
  5
D8
330
D3
100
AcDbEntity
  8
レイヤー 1
 62
   250
420
  2299925
370
     9
100
AcDbLine
 10
99.48095121028504
 20
-160.886147036471
 30
0.0
 11
99.48095121028504
 21
-163.3462780848189
 31
0.0
  0
LINE
  5
D9
330
D3
100
AcDbEntity
  8
レイヤー 1
 62
   250
420
  2299925
370
     9
100
AcDbLine
 10
106.4809793650328
 20
-160.886147036471
 30
0.0
 11
106.4809793650328
 21
-163.3462780848189
 31
0.0
  0
INSERT
  5
DB
330
D3
100
AcDbEntity
  8
レイヤー 1
100
AcDbBlockReference
  2
Block_13
 10
0.0
 20
0.0
 30
0.0
  0
ENDBLK
  5
D6
330
D3
100
AcDbEntity
  8
0
100
AcDbBlockEnd
  0
BLOCK
  5
DC
330
DA
100
AcDbEntity
  8
0
100
AcDbBlockBegin
  2
Block_13
 70
     0
 10
0.0
 20
0.0
 30
0.0
  3
Block_13
  1

  0
SPLINE
  5
DE
330
DA
100
AcDbEntity
  8
レイヤー 1
100
AcDbSpline
210
0.0
220
0.0
230
1.0
 70
     9
 71
     3
 72
    26
 73
    22
 74
     0
 42
0.0000000001
 43
0.0000000001
 40
0.0
 40
0.0
 40
0.0
 40
0.0
 40
1.0
 40
1.0
 40
1.0
 40
2.0
 40
2.0
 40
2.0
 40
3.0
 40
3.0
 40
3.0
 40
4.0
 40
4.0
 40
4.0
 40
5.0
 40
5.0
 40
5.0
 40
6.0
 40
6.0
 40
6.0
 40
7.0
 40
7.0
 40
7.0
 40
7.0
 10
102.8397175849671
 20
-161.259752021317
 30
0.0
 10
102.8397175849671
 20
-161.259752021317
 30
0.0
 10
102.5840914999616
 20
-161.259752021317
 30
0.0
 10
102.5840914999616
 20
-161.259752021317
 30
0.0
 10
102.6114800090693
 20
-160.9266112878933
 30
0.0
 10
102.8192192668299
 20
-160.3674722906373
 30
0.0
 10
103.2574354125537
 20
-159.8217691657737
 30
0.0
 10
103.2574354125537
 20
-159.8217691657737
 30
0.0
 10
102.3536146119984
 20
-159.8217691657737
 30
0.0
 10
102.3536146119984
 20
-159.8217691657737
 30
0.0
 10
102.3536146119984
 20
-159.8217691657737
 30
0.0
 10
102.3536146119984
 20
-159.5937038446502
 30
0.0
 10
102.3536146119984
 20
-159.5937038446502
 30
0.0
 10
102.3536146119984
 20
-159.5937038446502
 30
0.0
 10
103.5130614975592
 20
-159.5937038446502
 30
0.0
 10
103.5130614975592
 20
-159.5937038446502
 30
0.0
 10
103.5130614975592
 20
-159.5937038446502
 30
0.0
 10
103.5130614975592
 20
-159.8217691657737
 30
0.0
 10
103.5130614975592
 20
-159.8217691657737
 30
0.0
 10
103.1637288153549
 20
-160.1345838358344
 30
0.0
 10
102.8762355971108
 20
-160.7736490483482
 30
0.0
 10
102.8397175849671
 20
-161.259752021317
 30
0.0
  0
HATCH
  5
DF
330
DA
100
AcDbEntity
  8
レイヤー 1
 62
   250
420
  2299925
440
 33554687
100
AcDbHatch
 10
0.0
 20
0.0
 30
0.0
210
0.0
220
0.0
230
1.0
  2
SOLID
 70
     1
 71
     1
 91
        1
 92
        1
 93
        1
 72
     4
 94
        3
 73
     0
 74
     0
 95
       26
 96
       22
 40
0.0
 40
0.0
 40
0.0
 40
0.0
 40
1.0
 40
1.0
 40
1.0
 40
2.0
 40
2.0
 40
2.0
 40
3.0
 40
3.0
 40
3.0
 40
4.0
 40
4.0
 40
4.0
 40
5.0
 40
5.0
 40
5.0
 40
6.0
 40
6.0
 40
6.0
 40
7.0
 40
7.0
 40
7.0
 40
7.0
 10
102.8397175849671
 20
-161.259752021317
 10
102.8397175849671
 20
-161.259752021317
 10
102.5840914999616
 20
-161.259752021317
 10
102.5840914999616
 20
-161.259752021317
 10
102.6114800090693
 20
-160.9266112878933
 10
102.8192192668299
 20
-160.3674722906373
 10
103.2574354125537
 20
-159.8217691657737
 10
103.2574354125537
 20
-159.8217691657737
 10
102.3536146119984
 20
-159.8217691657737
 10
102.3536146119984
 20
-159.8217691657737
 10
102.3536146119984
 20
-159.8217691657737
 10
102.3536146119984
 20
-159.5937038446502
 10
102.3536146119984
 20
-159.5937038446502
 10
102.3536146119984
 20
-159.5937038446502
 10
103.5130614975592
 20
-159.5937038446502
 10
103.5130614975592
 20
-159.5937038446502
 10
103.5130614975592
 20
-159.5937038446502
 10
103.5130614975592
 20
-159.8217691657737
 10
103.5130614975592
 20
-159.8217691657737
 10
103.1637288153549
 20
-160.1345838358344
 10
102.8762355971108
 20
-160.7736490483482
 10
102.8397175849671
 20
-161.259752021317
 97
        0
 97
        1
330
DE
 75
     2
 76
     1
 98
        1
 10
0.0
 20
0.0
450
        0
451
        0
460
0.0
461
0.0
452
        0
462
0.0
453
        0
470

  0
ENDBLK
  5
DD
330
DA
100
AcDbEntity
  8
0
100
AcDbBlockEnd
  0
BLOCK
  5
E2
330
E0
100
AcDbEntity
  8
0
100
AcDbBlockBegin
  2
Block_14
 70
     0
 10
0.0
 20
0.0
 30
0.0
  3
Block_14
  1

  0
LINE
  5
E4
330
E0
100
AcDbEntity
  8
レイヤー 1
  6
AI-Linetype-0
 62
   154
420
    23468
370
    25
100
AcDbLine
 10
98.80771499074217
 20
-141.4735306009875
 30
0.0
 11
98.80771499074217
 21
-149.4737594974001
 31
0.0
  0
LINE
  5
E6
330
E0
100
AcDbEntity
  8
レイヤー 1
 62
   250
420
  2299925
370
     9
100
AcDbLine
 10
98.58447721754535
 20
-149.4435051662834
 30
0.0
 11
97.7183725174193
 21
-149.9437440424101
 31
0.0
  0
LINE
  5
E7
330
E0
100
AcDbEntity
  8
レイヤー 1
 62
   250
420
  2299925
370
     9
100
AcDbLine
 10
98.58447721754535
 20
-149.4435051662834
 30
0.0
 11
94.0169774133883
 21
-154.0114607405155
 31
0.0
  0
LINE
  5
E8
330
E0
100
AcDbEntity
  8
レイヤー 1
 62
   250
420
  2299925
370
     9
100
AcDbLine
 10
98.58447721754535
 20
-149.4435051662834
 30
0.0
 11
98.08423834141862
 21
-150.3096098664094
 31
0.0
  0
INSERT
  5
EA
330
E0
100
AcDbEntity
  8
レイヤー 1
100
AcDbBlockReference
  2
Block_15
 10
0.0
 20
0.0
 30
0.0
  0
ENDBLK
  5
E3
330
E0
100
AcDbEntity
  8
0
100
AcDbBlockEnd
  0
BLOCK
  5
EB
330
E9
100
AcDbEntity
  8
0
100
AcDbBlockBegin
  2
Block_15
 70
     0
 10
0.0
 20
0.0
 30
0.0
  3
Block_15
  1

  0
INSERT
  5
EE
330
E9
100
AcDbEntity
  8
レイヤー 1
100
AcDbBlockReference
  2
Block_16
 10
0.0
 20
0.0
 30
0.0
  0
ENDBLK
  5
EC
330
E9
100
AcDbEntity
  8
0
100
AcDbBlockEnd
  0
BLOCK
  5
EF
330
ED
100
AcDbEntity
  8
0
100
AcDbBlockBegin
  2
Block_16
 70
     0
 10
0.0
 20
0.0
 30
0.0
  3
Block_16
  1

  0
SPLINE
  5
F1
330
ED
100
AcDbEntity
  8
レイヤー 1
100
AcDbSpline
210
0.0
220
0.0
230
1.0
 70
     9
 71
     3
 72
    17
 73
    13
 74
     0
 42
0.0000000001
 43
0.0000000001
 40
0.0
 40
0.0
 40
0.0
 40
0.0
 40
1.0
 40
1.0
 40
1.0
 40
2.0
 40
2.0
 40
2.0
 40
3.0
 40
3.0
 40
3.0
 40
4.0
 40
4.0
 40
4.0
 40
4.0
 10
88.15654837205809
 20
-155.8792018924538
 30
0.0
 10
88.13966740418036
 20
-155.9084852040784
 30
0.0
 10
88.0890245005472
 20
-156.0018472917287
 30
0.0
 10
88.07834470454292
 20
-156.0207953168976
 30
0.0
 10
88.26885848487723
 20
-156.0800509592439
 30
0.0
 10
88.28987356733724
 20
-156.0862521311173
 30
0.0
 10
88.36187606297897
 20
-156.1138128949993
 30
0.0
 10
88.41699759074298
 20
-156.026996488771
 30
0.0
 10
88.44007973049414
 20
-155.9529269358382
 30
0.0
 10
88.45489364108074
 20
-155.8792018924538
 30
0.0
 10
88.45489364108074
 20
-155.8792018924538
 30
0.0
 10
88.15654837205809
 20
-155.8792018924538
 30
0.0
 10
88.15654837205809
 20
-155.8792018924538
 30
0.0
  0
SPLINE
  5
F2
330
ED
100
AcDbEntity
  8
レイヤー 1
100
AcDbSpline
210
0.0
220
0.0
230
1.0
 70
    11
 71
     3
 72
    20
 73
    16
 74
     0
 42
0.0000000001
 43
0.0000000001
 40
0.0
 40
0.0
 40
0.0
 40
0.0
 40
1.0
 40
1.0
 40
1.0
 40
2.0
 40
2.0
 40
2.0
 40
3.0
 40
3.0
 40
3.0
 40
4.0
 40
4.0
 40
4.0
 40
5.0
 40
5.0
 40
5.0
 40
5.0
 10
88.09315861512949
 20
-155.0286078171456
 30
0.0
 10
88.09315861512949
 20
-155.0286078171456
 30
0.0
 10
88.06146373666519
 20
-155.0286078171456
 30
0.0
 10
88.06146373666519
 20
-155.0286078171456
 30
0.0
 10
88.10797252571607
 20
-155.1281710766693
 30
0.0
 10
88.13966740418036
 20
-155.2084418014757
 30
0.0
 10
88.17342933993581
 20
-155.3352213153328
 30
0.0
 10
88.17342933993581
 20
-155.3352213153328
 30
0.0
 10
88.38082408814784
 20
-155.3352213153328
 30
0.0
 10
88.38082408814784
 20
-155.3352213153328
 30
0.0
 10
88.41251896661216
 20
-155.2422037372311
 30
0.0
 10
88.43594561591185
 20
-155.1577988978425
 30
0.0
 10
88.45902775566303
 20
-155.0286078171456
 30
0.0
 10
88.45902775566303
 20
-155.0286078171456
 30
0.0
 10
88.09315861512949
 20
-155.0286078171456
 30
0.0
 10
88.09315861512949
 20
-155.0286078171456
 30
0.0
  0
SPLINE
  5
F3
330
ED
100
AcDbEntity
  8
レイヤー 1
100
AcDbSpline
210
0.0
220
0.0
230
1.0
 70
     9
 71
     3
 72
   242
 73
   238
 74
     0
 42
0.0000000001
 43
0.0000000001
 40
0.0
 40
0.0
 40
0.0
 40
0.0
 40
1.0
 40
1.0
 40
1.0
 40
2.0
 40
2.0
 40
2.0
 40
3.0
 40
3.0
 40
3.0
 40
4.0
 40
4.0
 40
4.0
 40
5.0
 40
5.0
 40
5.0
 40
6.0
 40
6.0
 40
6.0
 40
7.0
 40
7.0
 40
7.0
 40
8.0
 40
8.0
 40
8.0
 40
9.0
 40
9.0
 40
9.0
 40
10.0
 40
10.0
 40
10.0
 40
11.0
 40
11.0
 40
11.0
 40
12.0
 40
12.0
 40
12.0
 40
13.0
 40
13.0
 40
13.0
 40
14.0
 40
14.0
 40
14.0
 40
15.0
 40
15.0
 40
15.0
 40
16.0
 40
16.0
 40
16.0
 40
17.0
 40
17.0
 40
17.0
 40
18.0
 40
18.0
 40
18.0
 40
19.0
 40
19.0
 40
19.0
 40
20.0
 40
20.0
 40
20.0
 40
21.0
 40
21.0
 40
21.0
 40
22.0
 40
22.0
 40
22.0
 40
23.0
 40
23.0
 40
23.0
 40
24.0
 40
24.0
 40
24.0
 40
25.0
 40
25.0
 40
25.0
 40
26.0
 40
26.0
 40
26.0
 40
27.0
 40
27.0
 40
27.0
 40
28.0
 40
28.0
 40
28.0
 40
29.0
 40
29.0
 40
29.0
 40
30.0
 40
30.0
 40
30.0
 40
31.0
 40
31.0
 40
31.0
 40
32.0
 40
32.0
 40
32.0
 40
33.0
 40
33.0
 40
33.0
 40
34.0
 40
34.0
 40
34.0
 40
35.0
 40
35.0
 40
35.0
 40
36.0
 40
36.0
 40
36.0
 40
37.0
 40
37.0
 40
37.0
 40
38.0
 40
38.0
 40
38.0
 40
39.0
 40
39.0
 40
39.0
 40
40.0
 40
40.0
 40
40.0
 40
41.0
 40
41.0
 40
41.0
 40
42.0
 40
42.0
 40
42.0
 40
43.0
 40
43.0
 40
43.0
 40
44.0
 40
44.0
 40
44.0
 40
45.0
 40
45.0
 40
45.0
 40
46.0
 40
46.0
 40
46.0
 40
47.0
 40
47.0
 40
47.0
 40
48.0
 40
48.0
 40
48.0
 40
49.0
 40
49.0
 40
49.0
 40
50.0
 40
50.0
 40
50.0
 40
51.0
 40
51.0
 40
51.0
 40
52.0
 40
52.0
 40
52.0
 40
53.0
 40
53.0
 40
53.0
 40
54.0
 40
54.0
 40
54.0
 40
55.0
 40
55.0
 40
55.0
 40
56.0
 40
56.0
 40
56.0
 40
57.0
 40
57.0
 40
57.0
 40
58.0
 40
58.0
 40
58.0
 40
59.0
 40
59.0
 40
59.0
 40
60.0
 40
60.0
 40
60.0
 40
61.0
 40
61.0
 40
61.0
 40
62.0
 40
62.0
 40
62.0
 40
63.0
 40
63.0
 40
63.0
 40
64.0
 40
64.0
 40
64.0
 40
65.0
 40
65.0
 40
65.0
 40
66.0
 40
66.0
 40
66.0
 40
67.0
 40
67.0
 40
67.0
 40
68.0
 40
68.0
 40
68.0
 40
69.0
 40
69.0
 40
69.0
 40
70.0
 40
70.0
 40
70.0
 40
71.0
 40
71.0
 40
71.0
 40
72.0
 40
72.0
 40
72.0
 40
73.0
 40
73.0
 40
73.0
 40
74.0
 40
74.0
 40
74.0
 40
75.0
 40
75.0
 40
75.0
 40
76.0
 40
76.0
 40
76.0
 40
77.0
 40
77.0
 40
77.0
 40
78.0
 40
78.0
 40
78.0
 40
79.0
 40
79.0
 40
79.0
 40
79.0
 10
88.72154403163905
 20
-155.4940402172029
 30
0.0
 10
88.72154403163905
 20
-155.4940402172029
 30
0.0
 10
88.46764049437615
 20
-155.4940402172029
 30
0.0
 10
88.46764049437615
 20
-155.4940402172029
 30
0.0
 10
88.46764049437615
 20
-155.4940402172029
 30
0.0
 10
88.19065481736206
 20
-155.4940402172029
 30
0.0
 10
88.19065481736206
 20
-155.4940402172029
 30
0.0
 10
88.19065481736206
 20
-155.4940402172029
 30
0.0
 10
88.31743433121927
 20
-155.5364148916714
 30
0.0
 10
88.31743433121927
 20
-155.5364148916714
 30
0.0
 10
88.32811412722353
 20
-155.5405490062538
 30
0.0
 10
88.34086098051896
 20
-155.5467501781272
 30
0.0
 10
88.34086098051896
 20
-155.5594970314226
 30
0.0
 10
88.34086098051896
 20
-155.5808566234311
 30
0.0
 10
88.30882159250613
 20
-155.5870577953046
 30
0.0
 10
88.28780651004612
 20
-155.5911919098869
 30
0.0
 10
88.27712671404183
 20
-155.6146185591866
 30
0.0
 10
88.24749889286868
 20
-155.6800753734064
 30
0.0
 10
88.22855086769981
 20
-155.7245171051661
 30
0.0
 10
88.22855086769981
 20
-155.7245171051661
 30
0.0
 10
88.49933537284044
 20
-155.7245171051661
 30
0.0
 10
88.49933537284044
 20
-155.7245171051661
 30
0.0
 10
88.59028589365104
 20
-155.7245171051661
 30
0.0
 10
88.78700084585881
 20
-155.7203829905838
 30
0.0
 10
88.92893877985111
 20
-155.7117702518707
 30
0.0
 10
88.92893877985111
 20
-155.7117702518707
 30
0.0
 10
88.92893877985111
 20
-155.8895371789095
 30
0.0
 10
88.92893877985111
 20
-155.8895371789095
 30
0.0
 10
88.84625648820509
 20
-155.8854030643272
 30
0.0
 10
88.82524140574508
 20
-155.8854030643272
 30
0.0
 10
88.64540742141505
 20
-155.8812689497449
 30
0.0
 10
88.61371254295073
 20
-156.0356092274842
 30
0.0
 10
88.56927081119101
 20
-156.1158799522905
 30
0.0
 10
88.5248290794313
 20
-156.185815390641
 30
0.0
 10
88.64540742141505
 20
-156.2450710329873
 30
0.0
 10
88.7511718528122
 20
-156.3125949044982
 30
0.0
 10
88.85486922691823
 20
-156.3952771961442
 30
0.0
 10
88.85486922691823
 20
-156.3952771961442
 30
0.0
 10
88.73635794222563
 20
-156.5623643271788
 30
0.0
 10
88.73635794222563
 20
-156.5623643271788
 30
0.0
 10
88.71293129292594
 20
-156.54341630201
 30
0.0
 10
88.70018443963052
 20
-156.5348035632968
 30
0.0
 10
88.58821883635989
 20
-156.4500542143597
 30
0.0
 10
88.53964299001786
 20
-156.412158164022
 30
0.0
 10
88.48038734767158
 20
-156.3763291709753
 30
0.0
 10
88.39977211331673
 20
-156.3318874392156
 30
0.0
 10
88.18824325052238
 20
-156.5179225954191
 30
0.0
 10
87.98326006915003
 20
-156.5413492447188
 30
0.0
 10
87.69318302929198
 20
-156.5709770658919
 30
0.0
 10
87.69318302929198
 20
-156.5709770658919
 30
0.0
 10
87.58983016473449
 20
-156.3911430815619
 30
0.0
 10
87.58983016473449
 20
-156.3911430815619
 30
0.0
 10
87.90712345892599
 20
-156.3866644574311
 30
0.0
 10
88.08247881912521
 20
-156.3615152603888
 30
0.0
 10
88.23475203957327
 20
-156.2512722048608
 30
0.0
 10
88.11658526442919
 20
-156.2006293012276
 30
0.0
 10
88.02770180090973
 20
-156.1730685373456
 30
0.0
 10
87.99152829831461
 20
-156.1603216840502
 30
0.0
 10
87.97258027314574
 20
-156.1878824479322
 30
0.0
 10
87.95776636255917
 20
-156.206830473101
 30
0.0
 10
87.93020559867718
 20
-156.240936918405
 30
0.0
 10
87.93020559867718
 20
-156.240936918405
 30
0.0
 10
87.73349064646941
 20
-156.158254626759
 30
0.0
 10
87.73349064646941
 20
-156.158254626759
 30
0.0
 10
87.81617293811541
 20
-156.0779839019527
 30
0.0
 10
87.87749563775285
 20
-155.9825547570113
 30
0.0
 10
87.93433971325947
 20
-155.8812689497449
 30
0.0
 10
87.74417044247369
 20
-155.8854030643272
 30
0.0
 10
87.72281085046513
 20
-155.8854030643272
 30
0.0
 10
87.64047306836767
 20
-155.8895371789095
 30
0.0
 10
87.64047306836767
 20
-155.8895371789095
 30
0.0
 10
87.64047306836767
 20
-155.7117702518707
 30
0.0
 10
87.64047306836767
 20
-155.7117702518707
 30
0.0
 10
87.77999943552028
 20
-155.7183159332926
 30
0.0
 10
87.98946124102348
 20
-155.7224500478749
 30
0.0
 10
88.01495494761432
 20
-155.7224500478749
 30
0.0
 10
88.03183591549204
 20
-155.6886881121195
 30
0.0
 10
88.08695744325603
 20
-155.5681097701357
 30
0.0
 10
88.10590546842492
 20
-155.4940402172029
 30
0.0
 10
88.08695744325603
 20
-155.4940402172029
 30
0.0
 10
87.90919051621715
 20
-155.5002413890763
 30
0.0
 10
87.71454262130054
 20
-155.5129882423717
 30
0.0
 10
87.71454262130054
 20
-155.5129882423717
 30
0.0
 10
87.71454262130054
 20
-155.6463134376509
 30
0.0
 10
87.71454262130054
 20
-155.6463134376509
 30
0.0
 10
87.66596677495851
 20
-155.6718071442418
 30
0.0
 10
87.60671113261222
 20
-155.7035020227061
 30
0.0
 10
87.47338593733305
 20
-155.7689588369258
 30
0.0
 10
87.47338593733305
 20
-155.7689588369258
 30
0.0
 10
87.47338593733305
 20
-155.9150308855004
 30
0.0
 10
87.47338593733305
 20
-155.9150308855004
 30
0.0
 10
87.47338593733305
 20
-155.9150308855004
 30
0.0
 10
87.47338593733305
 20
-156.3825303428488
 30
0.0
 10
87.47338593733305
 20
-156.3825303428488
 30
0.0
 10
87.47338593733305
 20
-156.509309856706
 30
0.0
 10
87.43721243473792
 20
-156.5685654990523
 30
0.0
 10
87.15402558585038
 20
-156.5602972698877
 30
0.0
 10
87.15402558585038
 20
-156.5602972698877
 30
0.0
 10
87.05032821174437
 20
-156.3529025216757
 30
0.0
 10
87.05032821174437
 20
-156.3529025216757
 30
0.0
 10
87.11371796867295
 20
-156.3656493749711
 30
0.0
 10
87.16229381501499
 20
-156.3697834895534
 30
0.0
 10
87.2026014321924
 20
-156.3697834895534
 30
0.0
 10
87.27873804241644
 20
-156.3697834895534
 30
0.0
 10
87.28941783842071
 20
-156.3467013498022
 30
0.0
 10
87.28941783842071
 20
-156.2809000260339
 30
0.0
 10
87.28941783842071
 20
-156.2809000260339
 30
0.0
 10
87.28941783842071
 20
-155.8516411285718
 30
0.0
 10
87.28941783842071
 20
-155.8516411285718
 30
0.0
 10
87.19192163618814
 20
-155.8916042362007
 30
0.0
 10
87.17504066831041
 20
-155.8981499176227
 30
0.0
 10
87.12853187925954
 20
-155.9170979427916
 30
0.0
 10
87.12439776467723
 20
-155.9381130252516
 30
0.0
 10
87.11991914054641
 20
-155.9677408464247
 30
0.0
 10
87.10097111537754
 20
-155.9677408464247
 30
0.0
 10
87.09270288621294
 20
-155.9677408464247
 30
0.0
 10
87.08202309020867
 20
-155.9636067318424
 30
0.0
 10
87.0754774087867
 20
-155.9405245920912
 30
0.0
 10
87.0754774087867
 20
-155.9405245920912
 30
0.0
 10
87.02276744786237
 20
-155.7479437544658
 30
0.0
 10
87.02276744786237
 20
-155.7479437544658
 30
0.0
 10
87.16883949643696
 20
-155.7014349654149
 30
0.0
 10
87.2342963106567
 20
-155.6780083161152
 30
0.0
 10
87.28941783842071
 20
-155.6569932336552
 30
0.0
 10
87.28941783842071
 20
-155.6569932336552
 30
0.0
 10
87.28941783842071
 20
-155.2442707945222
 30
0.0
 10
87.28941783842071
 20
-155.2442707945222
 30
0.0
 10
87.28941783842071
 20
-155.2442707945222
 30
0.0
 10
87.23636336794786
 20
-155.2442707945222
 30
0.0
 10
87.23636336794786
 20
-155.2442707945222
 30
0.0
 10
87.23636336794786
 20
-155.2442707945222
 30
0.0
 10
87.15815970043269
 20
-155.2442707945222
 30
0.0
 10
87.15815970043269
 20
-155.2442707945222
 30
0.0
 10
87.09029131937326
 20
-155.2442707945222
 30
0.0
 10
87.08202309020867
 20
-155.2442707945222
 30
0.0
 10
87.04584958761355
 20
-155.2508164759442
 30
0.0
 10
87.04584958761355
 20
-155.2508164759442
 30
0.0
 10
87.04584958761355
 20
-155.0561685810276
 30
0.0
 10
87.04584958761355
 20
-155.0561685810276
 30
0.0
 10
87.07341035149553
 20
-155.0623697529011
 30
0.0
 10
87.08202309020867
 20
-155.0623697529011
 30
0.0
 10
87.1516140190107
 20
-155.0623697529011
 30
0.0
 10
87.1516140190107
 20
-155.0623697529011
 30
0.0
 10
87.28493921428988
 20
-155.0623697529011
 30
0.0
 10
87.28493921428988
 20
-155.0623697529011
 30
0.0
 10
87.28493921428988
 20
-154.992778824099
 30
0.0
 10
87.28493921428988
 20
-154.910096532453
 30
0.0
 10
87.28287215699873
 20
-154.9059624178707
 30
0.0
 10
87.27460392783413
 20
-154.7261284335407
 30
0.0
 10
87.27460392783413
 20
-154.7071804083718
 30
0.0
 10
87.27219236099445
 20
-154.6606716193209
 30
0.0
 10
87.27219236099445
 20
-154.6606716193209
 30
0.0
 10
87.48819984791962
 20
-154.6689398484855
 30
0.0
 10
87.48819984791962
 20
-154.6689398484855
 30
0.0
 10
87.49887964392391
 20
-154.6689398484855
 30
0.0
 10
87.51989472638392
 20
-154.6710069057767
 30
0.0
 10
87.51989472638392
 20
-154.6878878736544
 30
0.0
 10
87.51989472638392
 20
-154.7071804083718
 30
0.0
 10
87.50508081579734
 20
-154.7175156948275
 30
0.0
 10
87.47958710920649
 20
-154.736808229545
 30
0.0
 10
87.47958710920649
 20
-154.7874511331781
 30
0.0
 10
87.47338593733305
 20
-155.0158609638502
 30
0.0
 10
87.47545299462419
 20
-155.0623697529011
 30
0.0
 10
87.60464407532106
 20
-155.0623697529011
 30
0.0
 10
87.61704641906796
 20
-155.0623697529011
 30
0.0
 10
87.71454262130054
 20
-155.0541015237365
 30
0.0
 10
87.71454262130054
 20
-155.0541015237365
 30
0.0
 10
87.71454262130054
 20
-155.2487494186531
 30
0.0
 10
87.71454262130054
 20
-155.2487494186531
 30
0.0
 10
87.67630206141426
 20
-155.2463378518134
 30
0.0
 10
87.60877818990335
 20
-155.2422037372311
 30
0.0
 10
87.47338593733305
 20
-155.2442707945222
 30
0.0
 10
87.47338593733305
 20
-155.2442707945222
 30
0.0
 10
87.47338593733305
 20
-155.5829236807223
 30
0.0
 10
87.47338593733305
 20
-155.5829236807223
 30
0.0
 10
87.52850746509706
 20
-155.5594970314226
 30
0.0
 10
87.5939642793168
 20
-155.5319362675406
 30
0.0
 10
87.64254012565881
 20
-155.5088541277894
 30
0.0
 10
87.64254012565881
 20
-155.5088541277894
 30
0.0
 10
87.64254012565881
 20
-155.3310872007505
 30
0.0
 10
87.64254012565881
 20
-155.3310872007505
 30
0.0
 10
87.75691729576911
 20
-155.343834054046
 30
0.0
 10
87.87542858046171
 20
-155.343834054046
 30
0.0
 10
87.99152829831461
 20
-155.343834054046
 30
0.0
 10
87.96844615856345
 20
-155.2487494186531
 30
0.0
 10
87.94088539468145
 20
-155.1660671270071
 30
0.0
 10
87.87749563775285
 20
-155.0327419317279
 30
0.0
 10
87.83305390599313
 20
-155.034808989019
 30
0.0
 10
87.75037161434713
 20
-155.0392876131499
 30
0.0
 10
87.71247556400938
 20
-155.041354670441
 30
0.0
 10
87.71247556400938
 20
-155.041354670441
 30
0.0
 10
87.71247556400938
 20
-154.861520686111
 30
0.0
 10
87.71247556400938
 20
-154.861520686111
 30
0.0
 10
87.83718802057542
 20
-154.8697889152756
 30
0.0
 10
88.01082083303203
 20
-154.8742675394064
 30
0.0
 10
88.09315861512949
 20
-154.8742675394064
 30
0.0
 10
88.09315861512949
 20
-154.8742675394064
 30
0.0
 10
88.17584090677549
 20
-154.8742675394064
 30
0.0
 10
88.17584090677549
 20
-154.8742675394064
 30
0.0
 10
88.17584090677549
 20
-154.7113145229541
 30
0.0
 10
88.17584090677549
 20
-154.7006347269498
 30
0.0
 10
88.17342933993581
 20
-154.6458577087344
 30
0.0
 10
88.17342933993581
 20
-154.6458577087344
 30
0.0
 10
88.39770505602556
 20
-154.6710069057767
 30
0.0
 10
88.39770505602556
 20
-154.6710069057767
 30
0.0
 10
88.40218368015639
 20
-154.6710069057767
 30
0.0
 10
88.42319876261642
 20
-154.6730739630678
 30
0.0
 10
88.42319876261642
 20
-154.6899549309455
 30
0.0
 10
88.42319876261642
 20
-154.7047688415321
 30
0.0
 10
88.41251896661216
 20
-154.7133815802452
 30
0.0
 10
88.38495820273015
 20
-154.7281954908318
 30
0.0
 10
88.3787570308567
 20
-154.7936523050515
 30
0.0
 10
88.37668997356555
 20
-154.8150118970601
 30
0.0
 10
88.37668997356555
 20
-154.8742675394064
 30
0.0
 10
88.37668997356555
 20
-154.8742675394064
 30
0.0
 10
88.47177460895846
 20
-154.8742675394064
 30
0.0
 10
88.47177460895846
 20
-154.8742675394064
 30
0.0
 10
88.55445690060445
 20
-154.8742675394064
 30
0.0
 10
88.72774520351251
 20
-154.8697889152756
 30
0.0
 10
88.85280216962708
 20
-154.861520686111
 30
0.0
 10
88.85280216962708
 20
-154.861520686111
 30
0.0
 10
88.85280216962708
 20
-155.041354670441
 30
0.0
 10
88.85280216962708
 20
-155.041354670441
 30
0.0
 10
88.82317434845393
 20
-155.0392876131499
 30
0.0
 10
88.70466306376135
 20
-155.034808989019
 30
0.0
 10
88.66435544658392
 20
-155.0327419317279
 30
0.0
 10
88.64954153599734
 20
-155.0837293449096
 30
0.0
 10
88.6157796002419
 20
-155.1956949481802
 30
0.0
 10
88.54997827647363
 20
-155.3352213153328
 30
0.0
 10
88.59235295094221
 20
-155.3352213153328
 30
0.0
 10
88.86968313750481
 20
-155.316273290164
 30
0.0
 10
88.93100583714225
 20
-155.3142062328728
 30
0.0
 10
88.93100583714225
 20
-155.3142062328728
 30
0.0
 10
88.93100583714225
 20
-155.4981743317852
 30
0.0
 10
88.93100583714225
 20
-155.4981743317852
 30
0.0
 10
88.9013780159691
 20
-155.4981743317852
 30
0.0
 10
88.88449704809138
 20
-155.4940402172029
 30
0.0
 10
88.72154403163905
 20
-155.4940402172029
 30
0.0
  0
HATCH
  5
F4
330
ED
100
AcDbEntity
  8
レイヤー 1
 62
   250
420
  2299925
440
 33554687
100
AcDbHatch
 10
0.0
 20
0.0
 30
0.0
210
0.0
220
0.0
230
1.0
  2
SOLID
 70
     1
 71
     1
 91
        3
 92
        1
 93
        1
 72
     4
 94
        3
 73
     0
 74
     0
 95
       17
 96
       13
 40
0.0
 40
0.0
 40
0.0
 40
0.0
 40
1.0
 40
1.0
 40
1.0
 40
2.0
 40
2.0
 40
2.0
 40
3.0
 40
3.0
 40
3.0
 40
4.0
 40
4.0
 40
4.0
 40
4.0
 10
88.15654837205809
 20
-155.8792018924538
 10
88.13966740418036
 20
-155.9084852040784
 10
88.0890245005472
 20
-156.0018472917287
 10
88.07834470454292
 20
-156.0207953168976
 10
88.26885848487723
 20
-156.0800509592439
 10
88.28987356733724
 20
-156.0862521311173
 10
88.36187606297897
 20
-156.1138128949993
 10
88.41699759074298
 20
-156.026996488771
 10
88.44007973049414
 20
-155.9529269358382
 10
88.45489364108074
 20
-155.8792018924538
 10
88.45489364108074
 20
-155.8792018924538
 10
88.15654837205809
 20
-155.8792018924538
 10
88.15654837205809
 20
-155.8792018924538
 97
        0
 97
        1
330
F1
 92
        1
 93
        1
 72
     4
 94
        3
 73
     0
 74
     0
 95
       20
 96
       16
 40
0.0
 40
0.0
 40
0.0
 40
0.0
 40
1.0
 40
1.0
 40
1.0
 40
2.0
 40
2.0
 40
2.0
 40
3.0
 40
3.0
 40
3.0
 40
4.0
 40
4.0
 40
4.0
 40
5.0
 40
5.0
 40
5.0
 40
5.0
 10
88.09315861512949
 20
-155.0286078171456
 10
88.09315861512949
 20
-155.0286078171456
 10
88.06146373666519
 20
-155.0286078171456
 10
88.06146373666519
 20
-155.0286078171456
 10
88.10797252571607
 20
-155.1281710766693
 10
88.13966740418036
 20
-155.2084418014757
 10
88.17342933993581
 20
-155.3352213153328
 10
88.17342933993581
 20
-155.3352213153328
 10
88.38082408814784
 20
-155.3352213153328
 10
88.38082408814784
 20
-155.3352213153328
 10
88.41251896661216
 20
-155.2422037372311
 10
88.43594561591185
 20
-155.1577988978425
 10
88.45902775566303
 20
-155.0286078171456
 10
88.45902775566303
 20
-155.0286078171456
 10
88.09315861512949
 20
-155.0286078171456
 10
88.09315861512949
 20
-155.0286078171456
 97
        0
 97
        1
330
F2
 92
        1
 93
        1
 72
     4
 94
        3
 73
     0
 74
     0
 95
      242
 96
      238
 40
0.0
 40
0.0
 40
0.0
 40
0.0
 40
1.0
 40
1.0
 40
1.0
 40
2.0
 40
2.0
 40
2.0
 40
3.0
 40
3.0
 40
3.0
 40
4.0
 40
4.0
 40
4.0
 40
5.0
 40
5.0
 40
5.0
 40
6.0
 40
6.0
 40
6.0
 40
7.0
 40
7.0
 40
7.0
 40
8.0
 40
8.0
 40
8.0
 40
9.0
 40
9.0
 40
9.0
 40
10.0
 40
10.0
 40
10.0
 40
11.0
 40
11.0
 40
11.0
 40
12.0
 40
12.0
 40
12.0
 40
13.0
 40
13.0
 40
13.0
 40
14.0
 40
14.0
 40
14.0
 40
15.0
 40
15.0
 40
15.0
 40
16.0
 40
16.0
 40
16.0
 40
17.0
 40
17.0
 40
17.0
 40
18.0
 40
18.0
 40
18.0
 40
19.0
 40
19.0
 40
19.0
 40
20.0
 40
20.0
 40
20.0
 40
21.0
 40
21.0
 40
21.0
 40
22.0
 40
22.0
 40
22.0
 40
23.0
 40
23.0
 40
23.0
 40
24.0
 40
24.0
 40
24.0
 40
25.0
 40
25.0
 40
25.0
 40
26.0
 40
26.0
 40
26.0
 40
27.0
 40
27.0
 40
27.0
 40
28.0
 40
28.0
 40
28.0
 40
29.0
 40
29.0
 40
29.0
 40
30.0
 40
30.0
 40
30.0
 40
31.0
 40
31.0
 40
31.0
 40
32.0
 40
32.0
 40
32.0
 40
33.0
 40
33.0
 40
33.0
 40
34.0
 40
34.0
 40
34.0
 40
35.0
 40
35.0
 40
35.0
 40
36.0
 40
36.0
 40
36.0
 40
37.0
 40
37.0
 40
37.0
 40
38.0
 40
38.0
 40
38.0
 40
39.0
 40
39.0
 40
39.0
 40
40.0
 40
40.0
 40
40.0
 40
41.0
 40
41.0
 40
41.0
 40
42.0
 40
42.0
 40
42.0
 40
43.0
 40
43.0
 40
43.0
 40
44.0
 40
44.0
 40
44.0
 40
45.0
 40
45.0
 40
45.0
 40
46.0
 40
46.0
 40
46.0
 40
47.0
 40
47.0
 40
47.0
 40
48.0
 40
48.0
 40
48.0
 40
49.0
 40
49.0
 40
49.0
 40
50.0
 40
50.0
 40
50.0
 40
51.0
 40
51.0
 40
51.0
 40
52.0
 40
52.0
 40
52.0
 40
53.0
 40
53.0
 40
53.0
 40
54.0
 40
54.0
 40
54.0
 40
55.0
 40
55.0
 40
55.0
 40
56.0
 40
56.0
 40
56.0
 40
57.0
 40
57.0
 40
57.0
 40
58.0
 40
58.0
 40
58.0
 40
59.0
 40
59.0
 40
59.0
 40
60.0
 40
60.0
 40
60.0
 40
61.0
 40
61.0
 40
61.0
 40
62.0
 40
62.0
 40
62.0
 40
63.0
 40
63.0
 40
63.0
 40
64.0
 40
64.0
 40
64.0
 40
65.0
 40
65.0
 40
65.0
 40
66.0
 40
66.0
 40
66.0
 40
67.0
 40
67.0
 40
67.0
 40
68.0
 40
68.0
 40
68.0
 40
69.0
 40
69.0
 40
69.0
 40
70.0
 40
70.0
 40
70.0
 40
71.0
 40
71.0
 40
71.0
 40
72.0
 40
72.0
 40
72.0
 40
73.0
 40
73.0
 40
73.0
 40
74.0
 40
74.0
 40
74.0
 40
75.0
 40
75.0
 40
75.0
 40
76.0
 40
76.0
 40
76.0
 40
77.0
 40
77.0
 40
77.0
 40
78.0
 40
78.0
 40
78.0
 40
79.0
 40
79.0
 40
79.0
 40
79.0
 10
88.72154403163905
 20
-155.4940402172029
 10
88.72154403163905
 20
-155.4940402172029
 10
88.46764049437615
 20
-155.4940402172029
 10
88.46764049437615
 20
-155.4940402172029
 10
88.46764049437615
 20
-155.4940402172029
 10
88.19065481736206
 20
-155.4940402172029
 10
88.19065481736206
 20
-155.4940402172029
 10
88.19065481736206
 20
-155.4940402172029
 10
88.31743433121927
 20
-155.5364148916714
 10
88.31743433121927
 20
-155.5364148916714
 10
88.32811412722353
 20
-155.5405490062538
 10
88.34086098051896
 20
-155.5467501781272
 10
88.34086098051896
 20
-155.5594970314226
 10
88.34086098051896
 20
-155.5808566234311
 10
88.30882159250613
 20
-155.5870577953046
 10
88.28780651004612
 20
-155.5911919098869
 10
88.27712671404183
 20
-155.6146185591866
 10
88.24749889286868
 20
-155.6800753734064
 10
88.22855086769981
 20
-155.7245171051661
 10
88.22855086769981
 20
-155.7245171051661
 10
88.49933537284044
 20
-155.7245171051661
 10
88.49933537284044
 20
-155.7245171051661
 10
88.59028589365104
 20
-155.7245171051661
 10
88.78700084585881
 20
-155.7203829905838
 10
88.92893877985111
 20
-155.7117702518707
 10
88.92893877985111
 20
-155.7117702518707
 10
88.92893877985111
 20
-155.8895371789095
 10
88.92893877985111
 20
-155.8895371789095
 10
88.84625648820509
 20
-155.8854030643272
 10
88.82524140574508
 20
-155.8854030643272
 10
88.64540742141505
 20
-155.8812689497449
 10
88.61371254295073
 20
-156.0356092274842
 10
88.56927081119101
 20
-156.1158799522905
 10
88.5248290794313
 20
-156.185815390641
 10
88.64540742141505
 20
-156.2450710329873
 10
88.7511718528122
 20
-156.3125949044982
 10
88.85486922691823
 20
-156.3952771961442
 10
88.85486922691823
 20
-156.3952771961442
 10
88.73635794222563
 20
-156.5623643271788
 10
88.73635794222563
 20
-156.5623643271788
 10
88.71293129292594
 20
-156.54341630201
 10
88.70018443963052
 20
-156.5348035632968
 10
88.58821883635989
 20
-156.4500542143597
 10
88.53964299001786
 20
-156.412158164022
 10
88.48038734767158
 20
-156.3763291709753
 10
88.39977211331673
 20
-156.3318874392156
 10
88.18824325052238
 20
-156.5179225954191
 10
87.98326006915003
 20
-156.5413492447188
 10
87.69318302929198
 20
-156.5709770658919
 10
87.69318302929198
 20
-156.5709770658919
 10
87.58983016473449
 20
-156.3911430815619
 10
87.58983016473449
 20
-156.3911430815619
 10
87.90712345892599
 20
-156.3866644574311
 10
88.08247881912521
 20
-156.3615152603888
 10
88.23475203957327
 20
-156.2512722048608
 10
88.11658526442919
 20
-156.2006293012276
 10
88.02770180090973
 20
-156.1730685373456
 10
87.99152829831461
 20
-156.1603216840502
 10
87.97258027314574
 20
-156.1878824479322
 10
87.95776636255917
 20
-156.206830473101
 10
87.93020559867718
 20
-156.240936918405
 10
87.93020559867718
 20
-156.240936918405
 10
87.73349064646941
 20
-156.158254626759
 10
87.73349064646941
 20
-156.158254626759
 10
87.81617293811541
 20
-156.0779839019527
 10
87.87749563775285
 20
-155.9825547570113
 10
87.93433971325947
 20
-155.8812689497449
 10
87.74417044247369
 20
-155.8854030643272
 10
87.72281085046513
 20
-155.8854030643272
 10
87.64047306836767
 20
-155.8895371789095
 10
87.64047306836767
 20
-155.8895371789095
 10
87.64047306836767
 20
-155.7117702518707
 10
87.64047306836767
 20
-155.7117702518707
 10
87.77999943552028
 20
-155.7183159332926
 10
87.98946124102348
 20
-155.7224500478749
 10
88.01495494761432
 20
-155.7224500478749
 10
88.03183591549204
 20
-155.6886881121195
 10
88.08695744325603
 20
-155.5681097701357
 10
88.10590546842492
 20
-155.4940402172029
 10
88.08695744325603
 20
-155.4940402172029
 10
87.90919051621715
 20
-155.5002413890763
 10
87.71454262130054
 20
-155.5129882423717
 10
87.71454262130054
 20
-155.5129882423717
 10
87.71454262130054
 20
-155.6463134376509
 10
87.71454262130054
 20
-155.6463134376509
 10
87.66596677495851
 20
-155.6718071442418
 10
87.60671113261222
 20
-155.7035020227061
 10
87.47338593733305
 20
-155.7689588369258
 10
87.47338593733305
 20
-155.7689588369258
 10
87.47338593733305
 20
-155.9150308855004
 10
87.47338593733305
 20
-155.9150308855004
 10
87.47338593733305
 20
-155.9150308855004
 10
87.47338593733305
 20
-156.3825303428488
 10
87.47338593733305
 20
-156.3825303428488
 10
87.47338593733305
 20
-156.509309856706
 10
87.43721243473792
 20
-156.5685654990523
 10
87.15402558585038
 20
-156.5602972698877
 10
87.15402558585038
 20
-156.5602972698877
 10
87.05032821174437
 20
-156.3529025216757
 10
87.05032821174437
 20
-156.3529025216757
 10
87.11371796867295
 20
-156.3656493749711
 10
87.16229381501499
 20
-156.3697834895534
 10
87.2026014321924
 20
-156.3697834895534
 10
87.27873804241644
 20
-156.3697834895534
 10
87.28941783842071
 20
-156.3467013498022
 10
87.28941783842071
 20
-156.2809000260339
 10
87.28941783842071
 20
-156.2809000260339
 10
87.28941783842071
 20
-155.8516411285718
 10
87.28941783842071
 20
-155.8516411285718
 10
87.19192163618814
 20
-155.8916042362007
 10
87.17504066831041
 20
-155.8981499176227
 10
87.12853187925954
 20
-155.9170979427916
 10
87.12439776467723
 20
-155.9381130252516
 10
87.11991914054641
 20
-155.9677408464247
 10
87.10097111537754
 20
-155.9677408464247
 10
87.09270288621294
 20
-155.9677408464247
 10
87.08202309020867
 20
-155.9636067318424
 10
87.0754774087867
 20
-155.9405245920912
 10
87.0754774087867
 20
-155.9405245920912
 10
87.02276744786237
 20
-155.7479437544658
 10
87.02276744786237
 20
-155.7479437544658
 10
87.16883949643696
 20
-155.7014349654149
 10
87.2342963106567
 20
-155.6780083161152
 10
87.28941783842071
 20
-155.6569932336552
 10
87.28941783842071
 20
-155.6569932336552
 10
87.28941783842071
 20
-155.2442707945222
 10
87.28941783842071
 20
-155.2442707945222
 10
87.28941783842071
 20
-155.2442707945222
 10
87.23636336794786
 20
-155.2442707945222
 10
87.23636336794786
 20
-155.2442707945222
 10
87.23636336794786
 20
-155.2442707945222
 10
87.15815970043269
 20
-155.2442707945222
 10
87.15815970043269
 20
-155.2442707945222
 10
87.09029131937326
 20
-155.2442707945222
 10
87.08202309020867
 20
-155.2442707945222
 10
87.04584958761355
 20
-155.2508164759442
 10
87.04584958761355
 20
-155.2508164759442
 10
87.04584958761355
 20
-155.0561685810276
 10
87.04584958761355
 20
-155.0561685810276
 10
87.07341035149553
 20
-155.0623697529011
 10
87.08202309020867
 20
-155.0623697529011
 10
87.1516140190107
 20
-155.0623697529011
 10
87.1516140190107
 20
-155.0623697529011
 10
87.28493921428988
 20
-155.0623697529011
 10
87.28493921428988
 20
-155.0623697529011
 10
87.28493921428988
 20
-154.992778824099
 10
87.28493921428988
 20
-154.910096532453
 10
87.28287215699873
 20
-154.9059624178707
 10
87.27460392783413
 20
-154.7261284335407
 10
87.27460392783413
 20
-154.7071804083718
 10
87.27219236099445
 20
-154.6606716193209
 10
87.27219236099445
 20
-154.6606716193209
 10
87.48819984791962
 20
-154.6689398484855
 10
87.48819984791962
 20
-154.6689398484855
 10
87.49887964392391
 20
-154.6689398484855
 10
87.51989472638392
 20
-154.6710069057767
 10
87.51989472638392
 20
-154.6878878736544
 10
87.51989472638392
 20
-154.7071804083718
 10
87.50508081579734
 20
-154.7175156948275
 10
87.47958710920649
 20
-154.736808229545
 10
87.47958710920649
 20
-154.7874511331781
 10
87.47338593733305
 20
-155.0158609638502
 10
87.47545299462419
 20
-155.0623697529011
 10
87.60464407532106
 20
-155.0623697529011
 10
87.61704641906796
 20
-155.0623697529011
 10
87.71454262130054
 20
-155.0541015237365
 10
87.71454262130054
 20
-155.0541015237365
 10
87.71454262130054
 20
-155.2487494186531
 10
87.71454262130054
 20
-155.2487494186531
 10
87.67630206141426
 20
-155.2463378518134
 10
87.60877818990335
 20
-155.2422037372311
 10
87.47338593733305
 20
-155.2442707945222
 10
87.47338593733305
 20
-155.2442707945222
 10
87.47338593733305
 20
-155.5829236807223
 10
87.47338593733305
 20
-155.5829236807223
 10
87.52850746509706
 20
-155.5594970314226
 10
87.5939642793168
 20
-155.5319362675406
 10
87.64254012565881
 20
-155.5088541277894
 10
87.64254012565881
 20
-155.5088541277894
 10
87.64254012565881
 20
-155.3310872007505
 10
87.64254012565881
 20
-155.3310872007505
 10
87.75691729576911
 20
-155.343834054046
 10
87.87542858046171
 20
-155.343834054046
 10
87.99152829831461
 20
-155.343834054046
 10
87.96844615856345
 20
-155.2487494186531
 10
87.94088539468145
 20
-155.1660671270071
 10
87.87749563775285
 20
-155.0327419317279
 10
87.83305390599313
 20
-155.034808989019
 10
87.75037161434713
 20
-155.0392876131499
 10
87.71247556400938
 20
-155.041354670441
 10
87.71247556400938
 20
-155.041354670441
 10
87.71247556400938
 20
-154.861520686111
 10
87.71247556400938
 20
-154.861520686111
 10
87.83718802057542
 20
-154.8697889152756
 10
88.01082083303203
 20
-154.8742675394064
 10
88.09315861512949
 20
-154.8742675394064
 10
88.09315861512949
 20
-154.8742675394064
 10
88.17584090677549
 20
-154.8742675394064
 10
88.17584090677549
 20
-154.8742675394064
 10
88.17584090677549
 20
-154.7113145229541
 10
88.17584090677549
 20
-154.7006347269498
 10
88.17342933993581
 20
-154.6458577087344
 10
88.17342933993581
 20
-154.6458577087344
 10
88.39770505602556
 20
-154.6710069057767
 10
88.39770505602556
 20
-154.6710069057767
 10
88.40218368015639
 20
-154.6710069057767
 10
88.42319876261642
 20
-154.6730739630678
 10
88.42319876261642
 20
-154.6899549309455
 10
88.42319876261642
 20
-154.7047688415321
 10
88.41251896661216
 20
-154.7133815802452
 10
88.38495820273015
 20
-154.7281954908318
 10
88.3787570308567
 20
-154.7936523050515
 10
88.37668997356555
 20
-154.8150118970601
 10
88.37668997356555
 20
-154.8742675394064
 10
88.37668997356555
 20
-154.8742675394064
 10
88.47177460895846
 20
-154.8742675394064
 10
88.47177460895846
 20
-154.8742675394064
 10
88.55445690060445
 20
-154.8742675394064
 10
88.72774520351251
 20
-154.8697889152756
 10
88.85280216962708
 20
-154.861520686111
 10
88.85280216962708
 20
-154.861520686111
 10
88.85280216962708
 20
-155.041354670441
 10
88.85280216962708
 20
-155.041354670441
 10
88.82317434845393
 20
-155.0392876131499
 10
88.70466306376135
 20
-155.034808989019
 10
88.66435544658392
 20
-155.0327419317279
 10
88.64954153599734
 20
-155.0837293449096
 10
88.6157796002419
 20
-155.1956949481802
 10
88.54997827647363
 20
-155.3352213153328
 10
88.59235295094221
 20
-155.3352213153328
 10
88.86968313750481
 20
-155.316273290164
 10
88.93100583714225
 20
-155.3142062328728
 10
88.93100583714225
 20
-155.3142062328728
 10
88.93100583714225
 20
-155.4981743317852
 10
88.93100583714225
 20
-155.4981743317852
 10
88.9013780159691
 20
-155.4981743317852
 10
88.88449704809138
 20
-155.4940402172029
 10
88.72154403163905
 20
-155.4940402172029
 97
        0
 97
        1
330
F3
 75
     2
 76
     1
 98
        1
 10
0.0
 20
0.0
450
        0
451
        0
460
0.0
461
0.0
452
        0
462
0.0
453
        0
470

  0
SPLINE
  5
F5
330
ED
100
AcDbEntity
  8
レイヤー 1
100
AcDbSpline
210
0.0
220
0.0
230
1.0
 70
    11
 71
     3
 72
    17
 73
    13
 74
     0
 42
0.0000000001
 43
0.0000000001
 40
0.0
 40
0.0
 40
0.0
 40
0.0
 40
1.0
 40
1.0
 40
1.0
 40
2.0
 40
2.0
 40
2.0
 40
3.0
 40
3.0
 40
3.0
 40
4.0
 40
4.0
 40
4.0
 40
4.0
 10
90.57810598864021
 20
-156.2936468793294
 30
0.0
 10
90.57810598864021
 20
-156.2936468793294
 30
0.0
 10
89.87151690461546
 20
-156.2936468793294
 30
0.0
 10
89.87151690461546
 20
-156.2936468793294
 30
0.0
 10
89.87151690461546
 20
-156.2936468793294
 30
0.0
 10
89.87151690461546
 20
-156.4080240494396
 30
0.0
 10
89.87151690461546
 20
-156.4080240494396
 30
0.0
 10
89.87151690461546
 20
-156.4080240494396
 30
0.0
 10
90.57810598864021
 20
-156.4080240494396
 30
0.0
 10
90.57810598864021
 20
-156.4080240494396
 30
0.0
 10
90.57810598864021
 20
-156.4080240494396
 30
0.0
 10
90.57810598864021
 20
-156.2936468793294
 30
0.0
 10
90.57810598864021
 20
-156.2936468793294
 30
0.0
  0
SPLINE
  5
F6
330
ED
100
AcDbEntity
  8
レイヤー 1
100
AcDbSpline
210
0.0
220
0.0
230
1.0
 70
    11
 71
     3
 72
    17
 73
    13
 74
     0
 42
0.0000000001
 43
0.0000000001
 40
0.0
 40
0.0
 40
0.0
 40
0.0
 40
1.0
 40
1.0
 40
1.0
 40
2.0
 40
2.0
 40
2.0
 40
3.0
 40
3.0
 40
3.0
 40
4.0
 40
4.0
 40
4.0
 40
4.0
 10
90.57810598864021
 20
-156.0504231380707
 30
0.0
 10
90.57810598864021
 20
-156.0504231380707
 30
0.0
 10
89.87151690461546
 20
-156.0504231380707
 30
0.0
 10
89.87151690461546
 20
-156.0504231380707
 30
0.0
 10
89.87151690461546
 20
-156.0504231380707
 30
0.0
 10
89.87151690461546
 20
-156.164800308181
 30
0.0
 10
89.87151690461546
 20
-156.164800308181
 30
0.0
 10
89.87151690461546
 20
-156.164800308181
 30
0.0
 10
90.57810598864021
 20
-156.164800308181
 30
0.0
 10
90.57810598864021
 20
-156.164800308181
 30
0.0
 10
90.57810598864021
 20
-156.164800308181
 30
0.0
 10
90.57810598864021
 20
-156.0504231380707
 30
0.0
 10
90.57810598864021
 20
-156.0504231380707
 30
0.0
  0
SPLINE
  5
F7
330
ED
100
AcDbEntity
  8
レイヤー 1
100
AcDbSpline
210
0.0
220
0.0
230
1.0
 70
    11
 71
     3
 72
    17
 73
    13
 74
     0
 42
0.0000000001
 43
0.0000000001
 40
0.0
 40
0.0
 40
0.0
 40
0.0
 40
1.0
 40
1.0
 40
1.0
 40
2.0
 40
2.0
 40
2.0
 40
3.0
 40
3.0
 40
3.0
 40
4.0
 40
4.0
 40
4.0
 40
4.0
 10
90.57810598864021
 20
-155.8175346832678
 30
0.0
 10
90.57810598864021
 20
-155.8175346832678
 30
0.0
 10
89.87151690461546
 20
-155.8175346832678
 30
0.0
 10
89.87151690461546
 20
-155.8175346832678
 30
0.0
 10
89.87151690461546
 20
-155.8175346832678
 30
0.0
 10
89.87151690461546
 20
-155.9257106815047
 30
0.0
 10
89.87151690461546
 20
-155.9257106815047
 30
0.0
 10
89.87151690461546
 20
-155.9257106815047
 30
0.0
 10
90.57810598864021
 20
-155.9257106815047
 30
0.0
 10
90.57810598864021
 20
-155.9257106815047
 30
0.0
 10
90.57810598864021
 20
-155.9257106815047
 30
0.0
 10
90.57810598864021
 20
-155.8175346832678
 30
0.0
 10
90.57810598864021
 20
-155.8175346832678
 30
0.0
  0
SPLINE
  5
F8
330
ED
100
AcDbEntity
  8
レイヤー 1
100
AcDbSpline
210
0.0
220
0.0
230
1.0
 70
     9
 71
     3
 72
   203
 73
   199
 74
     0
 42
0.0000000001
 43
0.0000000001
 40
0.0
 40
0.0
 40
0.0
 40
0.0
 40
1.0
 40
1.0
 40
1.0
 40
2.0
 40
2.0
 40
2.0
 40
3.0
 40
3.0
 40
3.0
 40
4.0
 40
4.0
 40
4.0
 40
5.0
 40
5.0
 40
5.0
 40
6.0
 40
6.0
 40
6.0
 40
7.0
 40
7.0
 40
7.0
 40
8.0
 40
8.0
 40
8.0
 40
9.0
 40
9.0
 40
9.0
 40
10.0
 40
10.0
 40
10.0
 40
11.0
 40
11.0
 40
11.0
 40
12.0
 40
12.0
 40
12.0
 40
13.0
 40
13.0
 40
13.0
 40
14.0
 40
14.0
 40
14.0
 40
15.0
 40
15.0
 40
15.0
 40
16.0
 40
16.0
 40
16.0
 40
17.0
 40
17.0
 40
17.0
 40
18.0
 40
18.0
 40
18.0
 40
19.0
 40
19.0
 40
19.0
 40
20.0
 40
20.0
 40
20.0
 40
21.0
 40
21.0
 40
21.0
 40
22.0
 40
22.0
 40
22.0
 40
23.0
 40
23.0
 40
23.0
 40
24.0
 40
24.0
 40
24.0
 40
25.0
 40
25.0
 40
25.0
 40
26.0
 40
26.0
 40
26.0
 40
27.0
 40
27.0
 40
27.0
 40
28.0
 40
28.0
 40
28.0
 40
29.0
 40
29.0
 40
29.0
 40
30.0
 40
30.0
 40
30.0
 40
31.0
 40
31.0
 40
31.0
 40
32.0
 40
32.0
 40
32.0
 40
33.0
 40
33.0
 40
33.0
 40
34.0
 40
34.0
 40
34.0
 40
35.0
 40
35.0
 40
35.0
 40
36.0
 40
36.0
 40
36.0
 40
37.0
 40
37.0
 40
37.0
 40
38.0
 40
38.0
 40
38.0
 40
39.0
 40
39.0
 40
39.0
 40
40.0
 40
40.0
 40
40.0
 40
41.0
 40
41.0
 40
41.0
 40
42.0
 40
42.0
 40
42.0
 40
43.0
 40
43.0
 40
43.0
 40
44.0
 40
44.0
 40
44.0
 40
45.0
 40
45.0
 40
45.0
 40
46.0
 40
46.0
 40
46.0
 40
47.0
 40
47.0
 40
47.0
 40
48.0
 40
48.0
 40
48.0
 40
49.0
 40
49.0
 40
49.0
 40
50.0
 40
50.0
 40
50.0
 40
51.0
 40
51.0
 40
51.0
 40
52.0
 40
52.0
 40
52.0
 40
53.0
 40
53.0
 40
53.0
 40
54.0
 40
54.0
 40
54.0
 40
55.0
 40
55.0
 40
55.0
 40
56.0
 40
56.0
 40
56.0
 40
57.0
 40
57.0
 40
57.0
 40
58.0
 40
58.0
 40
58.0
 40
59.0
 40
59.0
 40
59.0
 40
60.0
 40
60.0
 40
60.0
 40
61.0
 40
61.0
 40
61.0
 40
62.0
 40
62.0
 40
62.0
 40
63.0
 40
63.0
 40
63.0
 40
64.0
 40
64.0
 40
64.0
 40
65.0
 40
65.0
 40
65.0
 40
66.0
 40
66.0
 40
66.0
 40
66.0
 10
90.41308591489672
 20
-155.5615640887138
 30
0.0
 10
90.41308591489672
 20
-155.5615640887138
 30
0.0
 10
89.85429142718921
 20
-155.5615640887138
 30
0.0
 10
89.85429142718921
 20
-155.5615640887138
 30
0.0
 10
89.84395614073346
 20
-155.6060058204735
 30
0.0
 10
89.83534340202032
 20
-155.6377006989378
 30
0.0
 10
89.82259654872491
 20
-155.6759412588241
 30
0.0
 10
89.84809025531575
 20
-155.6759412588241
 30
0.0
 10
89.86290416590234
 20
-155.6780083161152
 30
0.0
 10
89.86910533777578
 20
-155.6780083161152
 30
0.0
 10
89.86910533777578
 20
-155.6780083161152
 30
0.0
 10
90.05755206081895
 20
-155.6780083161152
 30
0.0
 10
90.05755206081895
 20
-155.6780083161152
 30
0.0
 10
90.05755206081895
 20
-155.6780083161152
 30
0.0
 10
90.4320339400656
 20
-155.6780083161152
 30
0.0
 10
90.4320339400656
 20
-155.6780083161152
 30
0.0
 10
90.48267684369879
 20
-155.6780083161152
 30
0.0
 10
90.76620820213483
 20
-155.6652614628198
 30
0.0
 10
90.79790308059914
 20
-155.6652614628198
 30
0.0
 10
90.79583602330798
 20
-155.6928222267018
 30
0.0
 10
90.79376896601685
 20
-155.7117702518707
 30
0.0
 10
90.79376896601685
 20
-155.7413980730438
 30
0.0
 10
90.79170190872568
 20
-155.7730929515081
 30
0.0
 10
90.79170190872568
 20
-155.9084852040784
 30
0.0
 10
90.79170190872568
 20
-155.9360459679604
 30
0.0
 10
90.79170190872568
 20
-155.9360459679604
 30
0.0
 10
90.79170190872568
 20
-156.1816812760587
 30
0.0
 10
90.79170190872568
 20
-156.1816812760587
 30
0.0
 10
90.79170190872568
 20
-156.2261230078185
 30
0.0
 10
90.79583602330798
 20
-156.4228379600262
 30
0.0
 10
90.79997013789029
 20
-156.5751111804743
 30
0.0
 10
90.79997013789029
 20
-156.5751111804743
 30
0.0
 10
90.57362736450938
 20
-156.5751111804743
 30
0.0
 10
90.57362736450938
 20
-156.5751111804743
 30
0.0
 10
90.57362736450938
 20
-156.5751111804743
 30
0.0
 10
90.57569442180051
 20
-156.5413492447188
 30
0.0
 10
90.57569442180051
 20
-156.5413492447188
 30
0.0
 10
90.57569442180051
 20
-156.5413492447188
 30
0.0
 10
89.87358396190661
 20
-156.5413492447188
 30
0.0
 10
89.87358396190661
 20
-156.5413492447188
 30
0.0
 10
89.87358396190661
 20
-156.5413492447188
 30
0.0
 10
89.87565101919775
 20
-156.5751111804743
 30
0.0
 10
89.87565101919775
 20
-156.5751111804743
 30
0.0
 10
89.87565101919775
 20
-156.5751111804743
 30
0.0
 10
89.65757647498143
 20
-156.5751111804743
 30
0.0
 10
89.65757647498143
 20
-156.5751111804743
 30
0.0
 10
89.66205509911226
 20
-156.5199896527103
 30
0.0
 10
89.66205509911226
 20
-156.5072427994148
 30
0.0
 10
89.66825627098572
 20
-156.3932101388531
 30
0.0
 10
89.67032332827686
 20
-156.3656493749711
 30
0.0
 10
89.67239038556803
 20
-156.2323241796919
 30
0.0
 10
89.67239038556803
 20
-156.213376154523
 30
0.0
 10
89.67239038556803
 20
-156.213376154523
 30
0.0
 10
89.67239038556803
 20
-156.0101155208933
 30
0.0
 10
89.67239038556803
 20
-156.0101155208933
 30
0.0
 10
89.53286401841539
 20
-156.2598849435739
 30
0.0
 10
89.36370983008963
 20
-156.3911430815619
 30
0.0
 10
89.25794539869245
 20
-156.4565998957817
 30
0.0
 10
89.25794539869245
 20
-156.4565998957817
 30
0.0
 10
89.08431258623586
 20
-156.317073528629
 30
0.0
 10
89.08431258623586
 20
-156.317073528629
 30
0.0
 10
89.17319604975531
 20
-156.2660861154473
 30
0.0
 10
89.31720104103876
 20
-156.1792697092191
 30
0.0
 10
89.45466035090023
 20
-155.984966323851
 30
0.0
 10
89.54561087171082
 20
-155.8578423004453
 30
0.0
 10
89.61106768593056
 20
-155.7141818187103
 30
0.0
 10
89.64517413123454
 20
-155.5615640887138
 30
0.0
 10
89.41641979101396
 20
-155.5639756555534
 30
0.0
 10
89.23658580668393
 20
-155.5701768274269
 30
0.0
 10
89.14150117129102
 20
-155.572243884718
 30
0.0
 10
89.14150117129102
 20
-155.572243884718
 30
0.0
 10
89.14150117129102
 20
-155.3944769576791
 30
0.0
 10
89.14150117129102
 20
-155.3944769576791
 30
0.0
 10
89.33821612349879
 20
-155.4010226391011
 30
0.0
 10
89.62174748193485
 20
-155.4051567536834
 30
0.0
 10
89.77195364509174
 20
-155.4051567536834
 30
0.0
 10
89.77195364509174
 20
-155.4051567536834
 30
0.0
 10
89.98554956517722
 20
-155.4051567536834
 30
0.0
 10
89.98554956517722
 20
-155.4051567536834
 30
0.0
 10
89.98554956517722
 20
-155.4051567536834
 30
0.0
 10
89.98554956517722
 20
-155.2973252649951
 30
0.0
 10
89.98554956517722
 20
-155.2973252649951
 30
0.0
 10
89.98554956517722
 20
-155.2973252649951
 30
0.0
 10
89.83947751660263
 20
-155.2973252649951
 30
0.0
 10
89.83947751660263
 20
-155.2973252649951
 30
0.0
 10
89.67032332827686
 20
-155.2973252649951
 30
0.0
 10
89.5011691399511
 20
-155.3014593795774
 30
0.0
 10
89.33408200891648
 20
-155.3080050609994
 30
0.0
 10
89.33408200891648
 20
-155.3080050609994
 30
0.0
 10
89.33408200891648
 20
-155.1364393058339
 30
0.0
 10
89.33408200891648
 20
-155.1364393058339
 30
0.0
 10
89.48842228665567
 20
-155.1471191018382
 30
0.0
 10
89.67445744285916
 20
-155.1471191018382
 30
0.0
 10
89.83947751660263
 20
-155.1471191018382
 30
0.0
 10
89.83947751660263
 20
-155.1471191018382
 30
0.0
 10
89.98554956517722
 20
-155.1471191018382
 30
0.0
 10
89.98554956517722
 20
-155.1471191018382
 30
0.0
 10
89.98554956517722
 20
-155.1471191018382
 30
0.0
 10
89.98554956517722
 20
-155.0286078171456
 30
0.0
 10
89.98554956517722
 20
-155.0286078171456
 30
0.0
 10
89.98554956517722
 20
-155.0286078171456
 30
0.0
 10
89.85429142718921
 20
-155.0286078171456
 30
0.0
 10
89.85429142718921
 20
-155.0286078171456
 30
0.0
 10
89.80778263813833
 20
-155.0286078171456
 30
0.0
 10
89.60486651405712
 20
-155.0372205558588
 30
0.0
 10
89.56249183958854
 20
-155.0372205558588
 30
0.0
 10
89.35957571550734
 20
-155.041354670441
 30
0.0
 10
89.28309459573478
 20
-155.0434217277322
 30
0.0
 10
89.20489092821961
 20
-155.0454887850233
 30
0.0
 10
89.20489092821961
 20
-155.0454887850233
 30
0.0
 10
89.20489092821961
 20
-154.861520686111
 30
0.0
 10
89.20489092821961
 20
-154.861520686111
 30
0.0
 10
89.31926809832992
 20
-154.8697889152756
 30
0.0
 10
89.36370983008963
 20
-154.8697889152756
 30
0.0
 10
89.74645993850089
 20
-154.8784016539887
 30
0.0
 10
89.68307018157229
 20
-154.7833170185958
 30
0.0
 10
89.65550941769029
 20
-154.7557562547138
 30
0.0
 10
89.61968042464368
 20
-154.7195827521187
 30
0.0
 10
89.61968042464368
 20
-154.7195827521187
 30
0.0
 10
89.7950357848429
 20
-154.6372449700212
 30
0.0
 10
89.7950357848429
 20
-154.6372449700212
 30
0.0
 10
89.83534340202032
 20
-154.6730739630678
 30
0.0
 10
89.87978513378006
 20
-154.7154486375364
 30
0.0
 10
89.95385468671292
 20
-154.8253471835159
 30
0.0
 10
89.95385468671292
 20
-154.8253471835159
 30
0.0
 10
89.83947751660263
 20
-154.8804687112799
 30
0.0
 10
89.83947751660263
 20
-154.8804687112799
 30
0.0
 10
89.83947751660263
 20
-154.8804687112799
 30
0.0
 10
89.85015731260691
 20
-154.8804687112799
 30
0.0
 10
89.85015731260691
 20
-154.8804687112799
 30
0.0
 10
89.85015731260691
 20
-154.8804687112799
 30
0.0
 10
90.3727782977193
 20
-154.8804687112799
 30
0.0
 10
90.3727782977193
 20
-154.8804687112799
 30
0.0
 10
90.3727782977193
 20
-154.8804687112799
 30
0.0
 10
90.27769366232641
 20
-154.8360269795201
 30
0.0
 10
90.27769366232641
 20
-154.8360269795201
 30
0.0
 10
90.30490991665988
 20
-154.7981309291824
 30
0.0
 10
90.36209850171504
 20
-154.7175156948275
 30
0.0
 10
90.37691241230161
 20
-154.6434461418947
 30
0.0
 10
90.37691241230161
 20
-154.6434461418947
 30
0.0
 10
90.5905083323871
 20
-154.7071804083718
 30
0.0
 10
90.5905083323871
 20
-154.7071804083718
 30
0.0
 10
90.59912107110022
 20
-154.7092474656629
 30
0.0
 10
90.62013615356026
 20
-154.7195827521187
 30
0.0
 10
90.62013615356026
 20
-154.7409423441273
 30
0.0
 10
90.62013615356026
 20
-154.778838394465
 30
0.0
 10
90.5546793393405
 20
-154.778838394465
 30
0.0
 10
90.53573131417163
 20
-154.778838394465
 30
0.0
 10
90.52505151816736
 20
-154.7981309291824
 30
0.0
 10
90.50162486886765
 20
-154.8380940368113
 30
0.0
 10
90.4719970476945
 20
-154.8784016539887
 30
0.0
 10
90.87197263353202
 20
-154.8722004821153
 30
0.0
 10
90.90160045470517
 20
-154.8697889152756
 30
0.0
 10
90.97773706492919
 20
-154.8635877434022
 30
0.0
 10
90.97773706492919
 20
-154.8635877434022
 30
0.0
 10
90.97773706492919
 20
-155.0454887850233
 30
0.0
 10
90.97773706492919
 20
-155.0454887850233
 30
0.0
 10
90.9587890397603
 20
-155.0454887850233
 30
0.0
 10
90.93329533316945
 20
-155.0434217277322
 30
0.0
 10
90.71349824121051
 20
-155.034808989019
 30
0.0
 10
90.66251082802882
 20
-155.0327419317279
 30
0.0
 10
90.44271373606987
 20
-155.0286078171456
 30
0.0
 10
90.39827200431016
 20
-155.0286078171456
 30
0.0
 10
90.39827200431016
 20
-155.0286078171456
 30
0.0
 10
90.18226451738499
 20
-155.0286078171456
 30
0.0
 10
90.18226451738499
 20
-155.0286078171456
 30
0.0
 10
90.18226451738499
 20
-155.0286078171456
 30
0.0
 10
90.18226451738499
 20
-155.1471191018382
 30
0.0
 10
90.18226451738499
 20
-155.1471191018382
 30
0.0
 10
90.18226451738499
 20
-155.1471191018382
 30
0.0
 10
90.35589732984158
 20
-155.1471191018382
 30
0.0
 10
90.35589732984158
 20
-155.1471191018382
 30
0.0
 10
90.51885034629391
 20
-155.1471191018382
 30
0.0
 10
90.70901961707969
 20
-155.1471191018382
 30
0.0
 10
90.86577146165856
 20
-155.1364393058339
 30
0.0
 10
90.86577146165856
 20
-155.1364393058339
 30
0.0
 10
90.86577146165856
 20
-155.3080050609994
 30
0.0
 10
90.86577146165856
 20
-155.3080050609994
 30
0.0
 10
90.65630965615538
 20
-155.2993923222863
 30
0.0
 10
90.45959470394761
 20
-155.2973252649951
 30
0.0
 10
90.35589732984158
 20
-155.2973252649951
 30
0.0
 10
90.35589732984158
 20
-155.2973252649951
 30
0.0
 10
90.18226451738499
 20
-155.2973252649951
 30
0.0
 10
90.18226451738499
 20
-155.2973252649951
 30
0.0
 10
90.18226451738499
 20
-155.2973252649951
 30
0.0
 10
90.18226451738499
 20
-155.4051567536834
 30
0.0
 10
90.18226451738499
 20
-155.4051567536834
 30
0.0
 10
90.18226451738499
 20
-155.4051567536834
 30
0.0
 10
90.41308591489672
 20
-155.4051567536834
 30
0.0
 10
90.41308591489672
 20
-155.4051567536834
 30
0.0
 10
90.54606660062736
 20
-155.4051567536834
 30
0.0
 10
90.83407658319426
 20
-155.4010226391011
 30
0.0
 10
91.04319387914893
 20
-155.3944769576791
 30
0.0
 10
91.04319387914893
 20
-155.3944769576791
 30
0.0
 10
91.04319387914893
 20
-155.572243884718
 30
0.0
 10
91.04319387914893
 20
-155.572243884718
 30
0.0
 10
90.85095755107198
 20
-155.5660427128446
 30
0.0
 10
90.53779837146278
 20
-155.5615640887138
 30
0.0
 10
90.41308591489672
 20
-155.5615640887138
 30
0.0
  0
HATCH
  5
F9
330
ED
100
AcDbEntity
  8
レイヤー 1
 62
   250
420
  2299925
440
 33554687
100
AcDbHatch
 10
0.0
 20
0.0
 30
0.0
210
0.0
220
0.0
230
1.0
  2
SOLID
 70
     1
 71
     1
 91
        4
 92
        1
 93
        1
 72
     4
 94
        3
 73
     0
 74
     0
 95
       17
 96
       13
 40
0.0
 40
0.0
 40
0.0
 40
0.0
 40
1.0
 40
1.0
 40
1.0
 40
2.0
 40
2.0
 40
2.0
 40
3.0
 40
3.0
 40
3.0
 40
4.0
 40
4.0
 40
4.0
 40
4.0
 10
90.57810598864021
 20
-156.2936468793294
 10
90.57810598864021
 20
-156.2936468793294
 10
89.87151690461546
 20
-156.2936468793294
 10
89.87151690461546
 20
-156.2936468793294
 10
89.87151690461546
 20
-156.2936468793294
 10
89.87151690461546
 20
-156.4080240494396
 10
89.87151690461546
 20
-156.4080240494396
 10
89.87151690461546
 20
-156.4080240494396
 10
90.57810598864021
 20
-156.4080240494396
 10
90.57810598864021
 20
-156.4080240494396
 10
90.57810598864021
 20
-156.4080240494396
 10
90.57810598864021
 20
-156.2936468793294
 10
90.57810598864021
 20
-156.2936468793294
 97
        0
 97
        1
330
F5
 92
        1
 93
        1
 72
     4
 94
        3
 73
     0
 74
     0
 95
       17
 96
       13
 40
0.0
 40
0.0
 40
0.0
 40
0.0
 40
1.0
 40
1.0
 40
1.0
 40
2.0
 40
2.0
 40
2.0
 40
3.0
 40
3.0
 40
3.0
 40
4.0
 40
4.0
 40
4.0
 40
4.0
 10
90.57810598864021
 20
-156.0504231380707
 10
90.57810598864021
 20
-156.0504231380707
 10
89.87151690461546
 20
-156.0504231380707
 10
89.87151690461546
 20
-156.0504231380707
 10
89.87151690461546
 20
-156.0504231380707
 10
89.87151690461546
 20
-156.164800308181
 10
89.87151690461546
 20
-156.164800308181
 10
89.87151690461546
 20
-156.164800308181
 10
90.57810598864021
 20
-156.164800308181
 10
90.57810598864021
 20
-156.164800308181
 10
90.57810598864021
 20
-156.164800308181
 10
90.57810598864021
 20
-156.0504231380707
 10
90.57810598864021
 20
-156.0504231380707
 97
        0
 97
        1
330
F6
 92
        1
 93
        1
 72
     4
 94
        3
 73
     0
 74
     0
 95
       17
 96
       13
 40
0.0
 40
0.0
 40
0.0
 40
0.0
 40
1.0
 40
1.0
 40
1.0
 40
2.0
 40
2.0
 40
2.0
 40
3.0
 40
3.0
 40
3.0
 40
4.0
 40
4.0
 40
4.0
 40
4.0
 10
90.57810598864021
 20
-155.8175346832678
 10
90.57810598864021
 20
-155.8175346832678
 10
89.87151690461546
 20
-155.8175346832678
 10
89.87151690461546
 20
-155.8175346832678
 10
89.87151690461546
 20
-155.8175346832678
 10
89.87151690461546
 20
-155.9257106815047
 10
89.87151690461546
 20
-155.9257106815047
 10
89.87151690461546
 20
-155.9257106815047
 10
90.57810598864021
 20
-155.9257106815047
 10
90.57810598864021
 20
-155.9257106815047
 10
90.57810598864021
 20
-155.9257106815047
 10
90.57810598864021
 20
-155.8175346832678
 10
90.57810598864021
 20
-155.8175346832678
 97
        0
 97
        1
330
F7
 92
        1
 93
        1
 72
     4
 94
        3
 73
     0
 74
     0
 95
      203
 96
      199
 40
0.0
 40
0.0
 40
0.0
 40
0.0
 40
1.0
 40
1.0
 40
1.0
 40
2.0
 40
2.0
 40
2.0
 40
3.0
 40
3.0
 40
3.0
 40
4.0
 40
4.0
 40
4.0
 40
5.0
 40
5.0
 40
5.0
 40
6.0
 40
6.0
 40
6.0
 40
7.0
 40
7.0
 40
7.0
 40
8.0
 40
8.0
 40
8.0
 40
9.0
 40
9.0
 40
9.0
 40
10.0
 40
10.0
 40
10.0
 40
11.0
 40
11.0
 40
11.0
 40
12.0
 40
12.0
 40
12.0
 40
13.0
 40
13.0
 40
13.0
 40
14.0
 40
14.0
 40
14.0
 40
15.0
 40
15.0
 40
15.0
 40
16.0
 40
16.0
 40
16.0
 40
17.0
 40
17.0
 40
17.0
 40
18.0
 40
18.0
 40
18.0
 40
19.0
 40
19.0
 40
19.0
 40
20.0
 40
20.0
 40
20.0
 40
21.0
 40
21.0
 40
21.0
 40
22.0
 40
22.0
 40
22.0
 40
23.0
 40
23.0
 40
23.0
 40
24.0
 40
24.0
 40
24.0
 40
25.0
 40
25.0
 40
25.0
 40
26.0
 40
26.0
 40
26.0
 40
27.0
 40
27.0
 40
27.0
 40
28.0
 40
28.0
 40
28.0
 40
29.0
 40
29.0
 40
29.0
 40
30.0
 40
30.0
 40
30.0
 40
31.0
 40
31.0
 40
31.0
 40
32.0
 40
32.0
 40
32.0
 40
33.0
 40
33.0
 40
33.0
 40
34.0
 40
34.0
 40
34.0
 40
35.0
 40
35.0
 40
35.0
 40
36.0
 40
36.0
 40
36.0
 40
37.0
 40
37.0
 40
37.0
 40
38.0
 40
38.0
 40
38.0
 40
39.0
 40
39.0
 40
39.0
 40
40.0
 40
40.0
 40
40.0
 40
41.0
 40
41.0
 40
41.0
 40
42.0
 40
42.0
 40
42.0
 40
43.0
 40
43.0
 40
43.0
 40
44.0
 40
44.0
 40
44.0
 40
45.0
 40
45.0
 40
45.0
 40
46.0
 40
46.0
 40
46.0
 40
47.0
 40
47.0
 40
47.0
 40
48.0
 40
48.0
 40
48.0
 40
49.0
 40
49.0
 40
49.0
 40
50.0
 40
50.0
 40
50.0
 40
51.0
 40
51.0
 40
51.0
 40
52.0
 40
52.0
 40
52.0
 40
53.0
 40
53.0
 40
53.0
 40
54.0
 40
54.0
 40
54.0
 40
55.0
 40
55.0
 40
55.0
 40
56.0
 40
56.0
 40
56.0
 40
57.0
 40
57.0
 40
57.0
 40
58.0
 40
58.0
 40
58.0
 40
59.0
 40
59.0
 40
59.0
 40
60.0
 40
60.0
 40
60.0
 40
61.0
 40
61.0
 40
61.0
 40
62.0
 40
62.0
 40
62.0
 40
63.0
 40
63.0
 40
63.0
 40
64.0
 40
64.0
 40
64.0
 40
65.0
 40
65.0
 40
65.0
 40
66.0
 40
66.0
 40
66.0
 40
66.0
 10
90.41308591489672
 20
-155.5615640887138
 10
90.41308591489672
 20
-155.5615640887138
 10
89.85429142718921
 20
-155.5615640887138
 10
89.85429142718921
 20
-155.5615640887138
 10
89.84395614073346
 20
-155.6060058204735
 10
89.83534340202032
 20
-155.6377006989378
 10
89.82259654872491
 20
-155.6759412588241
 10
89.84809025531575
 20
-155.6759412588241
 10
89.86290416590234
 20
-155.6780083161152
 10
89.86910533777578
 20
-155.6780083161152
 10
89.86910533777578
 20
-155.6780083161152
 10
90.05755206081895
 20
-155.6780083161152
 10
90.05755206081895
 20
-155.6780083161152
 10
90.05755206081895
 20
-155.6780083161152
 10
90.4320339400656
 20
-155.6780083161152
 10
90.4320339400656
 20
-155.6780083161152
 10
90.48267684369879
 20
-155.6780083161152
 10
90.76620820213483
 20
-155.6652614628198
 10
90.79790308059914
 20
-155.6652614628198
 10
90.79583602330798
 20
-155.6928222267018
 10
90.79376896601685
 20
-155.7117702518707
 10
90.79376896601685
 20
-155.7413980730438
 10
90.79170190872568
 20
-155.7730929515081
 10
90.79170190872568
 20
-155.9084852040784
 10
90.79170190872568
 20
-155.9360459679604
 10
90.79170190872568
 20
-155.9360459679604
 10
90.79170190872568
 20
-156.1816812760587
 10
90.79170190872568
 20
-156.1816812760587
 10
90.79170190872568
 20
-156.2261230078185
 10
90.79583602330798
 20
-156.4228379600262
 10
90.79997013789029
 20
-156.5751111804743
 10
90.79997013789029
 20
-156.5751111804743
 10
90.57362736450938
 20
-156.5751111804743
 10
90.57362736450938
 20
-156.5751111804743
 10
90.57362736450938
 20
-156.5751111804743
 10
90.57569442180051
 20
-156.5413492447188
 10
90.57569442180051
 20
-156.5413492447188
 10
90.57569442180051
 20
-156.5413492447188
 10
89.87358396190661
 20
-156.5413492447188
 10
89.87358396190661
 20
-156.5413492447188
 10
89.87358396190661
 20
-156.5413492447188
 10
89.87565101919775
 20
-156.5751111804743
 10
89.87565101919775
 20
-156.5751111804743
 10
89.87565101919775
 20
-156.5751111804743
 10
89.65757647498143
 20
-156.5751111804743
 10
89.65757647498143
 20
-156.5751111804743
 10
89.66205509911226
 20
-156.5199896527103
 10
89.66205509911226
 20
-156.5072427994148
 10
89.66825627098572
 20
-156.3932101388531
 10
89.67032332827686
 20
-156.3656493749711
 10
89.67239038556803
 20
-156.2323241796919
 10
89.67239038556803
 20
-156.213376154523
 10
89.67239038556803
 20
-156.213376154523
 10
89.67239038556803
 20
-156.0101155208933
 10
89.67239038556803
 20
-156.0101155208933
 10
89.53286401841539
 20
-156.2598849435739
 10
89.36370983008963
 20
-156.3911430815619
 10
89.25794539869245
 20
-156.4565998957817
 10
89.25794539869245
 20
-156.4565998957817
 10
89.08431258623586
 20
-156.317073528629
 10
89.08431258623586
 20
-156.317073528629
 10
89.17319604975531
 20
-156.2660861154473
 10
89.31720104103876
 20
-156.1792697092191
 10
89.45466035090023
 20
-155.984966323851
 10
89.54561087171082
 20
-155.8578423004453
 10
89.61106768593056
 20
-155.7141818187103
 10
89.64517413123454
 20
-155.5615640887138
 10
89.41641979101396
 20
-155.5639756555534
 10
89.23658580668393
 20
-155.5701768274269
 10
89.14150117129102
 20
-155.572243884718
 10
89.14150117129102
 20
-155.572243884718
 10
89.14150117129102
 20
-155.3944769576791
 10
89.14150117129102
 20
-155.3944769576791
 10
89.33821612349879
 20
-155.4010226391011
 10
89.62174748193485
 20
-155.4051567536834
 10
89.77195364509174
 20
-155.4051567536834
 10
89.77195364509174
 20
-155.4051567536834
 10
89.98554956517722
 20
-155.4051567536834
 10
89.98554956517722
 20
-155.4051567536834
 10
89.98554956517722
 20
-155.4051567536834
 10
89.98554956517722
 20
-155.2973252649951
 10
89.98554956517722
 20
-155.2973252649951
 10
89.98554956517722
 20
-155.2973252649951
 10
89.83947751660263
 20
-155.2973252649951
 10
89.83947751660263
 20
-155.2973252649951
 10
89.67032332827686
 20
-155.2973252649951
 10
89.5011691399511
 20
-155.3014593795774
 10
89.33408200891648
 20
-155.3080050609994
 10
89.33408200891648
 20
-155.3080050609994
 10
89.33408200891648
 20
-155.1364393058339
 10
89.33408200891648
 20
-155.1364393058339
 10
89.48842228665567
 20
-155.1471191018382
 10
89.67445744285916
 20
-155.1471191018382
 10
89.83947751660263
 20
-155.1471191018382
 10
89.83947751660263
 20
-155.1471191018382
 10
89.98554956517722
 20
-155.1471191018382
 10
89.98554956517722
 20
-155.1471191018382
 10
89.98554956517722
 20
-155.1471191018382
 10
89.98554956517722
 20
-155.0286078171456
 10
89.98554956517722
 20
-155.0286078171456
 10
89.98554956517722
 20
-155.0286078171456
 10
89.85429142718921
 20
-155.0286078171456
 10
89.85429142718921
 20
-155.0286078171456
 10
89.80778263813833
 20
-155.0286078171456
 10
89.60486651405712
 20
-155.0372205558588
 10
89.56249183958854
 20
-155.0372205558588
 10
89.35957571550734
 20
-155.041354670441
 10
89.28309459573478
 20
-155.0434217277322
 10
89.20489092821961
 20
-155.0454887850233
 10
89.20489092821961
 20
-155.0454887850233
 10
89.20489092821961
 20
-154.861520686111
 10
89.20489092821961
 20
-154.861520686111
 10
89.31926809832992
 20
-154.8697889152756
 10
89.36370983008963
 20
-154.8697889152756
 10
89.74645993850089
 20
-154.8784016539887
 10
89.68307018157229
 20
-154.7833170185958
 10
89.65550941769029
 20
-154.7557562547138
 10
89.61968042464368
 20
-154.7195827521187
 10
89.61968042464368
 20
-154.7195827521187
 10
89.7950357848429
 20
-154.6372449700212
 10
89.7950357848429
 20
-154.6372449700212
 10
89.83534340202032
 20
-154.6730739630678
 10
89.87978513378006
 20
-154.7154486375364
 10
89.95385468671292
 20
-154.8253471835159
 10
89.95385468671292
 20
-154.8253471835159
 10
89.83947751660263
 20
-154.8804687112799
 10
89.83947751660263
 20
-154.8804687112799
 10
89.83947751660263
 20
-154.8804687112799
 10
89.85015731260691
 20
-154.8804687112799
 10
89.85015731260691
 20
-154.8804687112799
 10
89.85015731260691
 20
-154.8804687112799
 10
90.3727782977193
 20
-154.8804687112799
 10
90.3727782977193
 20
-154.8804687112799
 10
90.3727782977193
 20
-154.8804687112799
 10
90.27769366232641
 20
-154.8360269795201
 10
90.27769366232641
 20
-154.8360269795201
 10
90.30490991665988
 20
-154.7981309291824
 10
90.36209850171504
 20
-154.7175156948275
 10
90.37691241230161
 20
-154.6434461418947
 10
90.37691241230161
 20
-154.6434461418947
 10
90.5905083323871
 20
-154.7071804083718
 10
90.5905083323871
 20
-154.7071804083718
 10
90.59912107110022
 20
-154.7092474656629
 10
90.62013615356026
 20
-154.7195827521187
 10
90.62013615356026
 20
-154.7409423441273
 10
90.62013615356026
 20
-154.778838394465
 10
90.5546793393405
 20
-154.778838394465
 10
90.53573131417163
 20
-154.778838394465
 10
90.52505151816736
 20
-154.7981309291824
 10
90.50162486886765
 20
-154.8380940368113
 10
90.4719970476945
 20
-154.8784016539887
 10
90.87197263353202
 20
-154.8722004821153
 10
90.90160045470517
 20
-154.8697889152756
 10
90.97773706492919
 20
-154.8635877434022
 10
90.97773706492919
 20
-154.8635877434022
 10
90.97773706492919
 20
-155.0454887850233
 10
90.97773706492919
 20
-155.0454887850233
 10
90.9587890397603
 20
-155.0454887850233
 10
90.93329533316945
 20
-155.0434217277322
 10
90.71349824121051
 20
-155.034808989019
 10
90.66251082802882
 20
-155.0327419317279
 10
90.44271373606987
 20
-155.0286078171456
 10
90.39827200431016
 20
-155.0286078171456
 10
90.39827200431016
 20
-155.0286078171456
 10
90.18226451738499
 20
-155.0286078171456
 10
90.18226451738499
 20
-155.0286078171456
 10
90.18226451738499
 20
-155.0286078171456
 10
90.18226451738499
 20
-155.1471191018382
 10
90.18226451738499
 20
-155.1471191018382
 10
90.18226451738499
 20
-155.1471191018382
 10
90.35589732984158
 20
-155.1471191018382
 10
90.35589732984158
 20
-155.1471191018382
 10
90.51885034629391
 20
-155.1471191018382
 10
90.70901961707969
 20
-155.1471191018382
 10
90.86577146165856
 20
-155.1364393058339
 10
90.86577146165856
 20
-155.1364393058339
 10
90.86577146165856
 20
-155.3080050609994
 10
90.86577146165856
 20
-155.3080050609994
 10
90.65630965615538
 20
-155.2993923222863
 10
90.45959470394761
 20
-155.2973252649951
 10
90.35589732984158
 20
-155.2973252649951
 10
90.35589732984158
 20
-155.2973252649951
 10
90.18226451738499
 20
-155.2973252649951
 10
90.18226451738499
 20
-155.2973252649951
 10
90.18226451738499
 20
-155.2973252649951
 10
90.18226451738499
 20
-155.4051567536834
 10
90.18226451738499
 20
-155.4051567536834
 10
90.18226451738499
 20
-155.4051567536834
 10
90.41308591489672
 20
-155.4051567536834
 10
90.41308591489672
 20
-155.4051567536834
 10
90.54606660062736
 20
-155.4051567536834
 10
90.83407658319426
 20
-155.4010226391011
 10
91.04319387914893
 20
-155.3944769576791
 10
91.04319387914893
 20
-155.3944769576791
 10
91.04319387914893
 20
-155.572243884718
 10
91.04319387914893
 20
-155.572243884718
 10
90.85095755107198
 20
-155.5660427128446
 10
90.53779837146278
 20
-155.5615640887138
 10
90.41308591489672
 20
-155.5615640887138
 97
        0
 97
        1
330
F8
 75
     2
 76
     1
 98
        1
 10
0.0
 20
0.0
450
        0
451
        0
460
0.0
461
0.0
452
        0
462
0.0
453
        0
470

  0
SPLINE
  5
FA
330
ED
100
AcDbEntity
  8
レイヤー 1
100
AcDbSpline
210
0.0
220
0.0
230
1.0
 70
     9
 71
     3
 72
    29
 73
    25
 74
     0
 42
0.0000000001
 43
0.0000000001
 40
0.0
 40
0.0
 40
0.0
 40
0.0
 40
1.0
 40
1.0
 40
1.0
 40
2.0
 40
2.0
 40
2.0
 40
3.0
 40
3.0
 40
3.0
 40
4.0
 40
4.0
 40
4.0
 40
5.0
 40
5.0
 40
5.0
 40
6.0
 40
6.0
 40
6.0
 40
7.0
 40
7.0
 40
7.0
 40
8.0
 40
8.0
 40
8.0
 40
8.0
 10
92.28825138751821
 20
-155.0096597919767
 30
0.0
 10
92.28825138751821
 20
-155.0096597919767
 30
0.0
 10
91.93478459073158
 20
-155.0096597919767
 30
0.0
 10
91.93478459073158
 20
-155.0096597919767
 30
0.0
 10
91.82281898746095
 20
-155.0096597919767
 30
0.0
 10
91.68329262030836
 20
-155.0158609638502
 30
0.0
 10
91.57546113162004
 20
-155.0286078171456
 30
0.0
 10
91.57546113162004
 20
-155.0286078171456
 30
0.0
 10
91.57546113162004
 20
-154.7936523050515
 30
0.0
 10
91.57546113162004
 20
-154.7936523050515
 30
0.0
 10
91.69362790676409
 20
-154.8084662156381
 30
0.0
 10
91.87794051522496
 20
-154.812944839769
 30
0.0
 10
91.93478459073158
 20
-154.812944839769
 30
0.0
 10
91.93478459073158
 20
-154.812944839769
 30
0.0
 10
92.28825138751821
 20
-154.812944839769
 30
0.0
 10
92.28825138751821
 20
-154.812944839769
 30
0.0
 10
92.30719941268709
 20
-154.812944839769
 30
0.0
 10
92.51046004631684
 20
-154.812944839769
 30
0.0
 10
92.6520534707606
 20
-154.7936523050515
 30
0.0
 10
92.6520534707606
 20
-154.7936523050515
 30
0.0
 10
92.6520534707606
 20
-155.0286078171456
 30
0.0
 10
92.6520534707606
 20
-155.0286078171456
 30
0.0
 10
92.49564613573026
 20
-155.0096597919767
 30
0.0
 10
92.30513235539595
 20
-155.0096597919767
 30
0.0
 10
92.28825138751821
 20
-155.0096597919767
 30
0.0
  0
SPLINE
  5
FB
330
ED
100
AcDbEntity
  8
レイヤー 1
100
AcDbSpline
210
0.0
220
0.0
230
1.0
 70
     9
 71
     3
 72
    47
 73
    43
 74
     0
 42
0.0000000001
 43
0.0000000001
 40
0.0
 40
0.0
 40
0.0
 40
0.0
 40
1.0
 40
1.0
 40
1.0
 40
2.0
 40
2.0
 40
2.0
 40
3.0
 40
3.0
 40
3.0
 40
4.0
 40
4.0
 40
4.0
 40
5.0
 40
5.0
 40
5.0
 40
6.0
 40
6.0
 40
6.0
 40
7.0
 40
7.0
 40
7.0
 40
8.0
 40
8.0
 40
8.0
 40
9.0
 40
9.0
 40
9.0
 40
10.0
 40
10.0
 40
10.0
 40
11.0
 40
11.0
 40
11.0
 40
12.0
 40
12.0
 40
12.0
 40
13.0
 40
13.0
 40
13.0
 40
14.0
 40
14.0
 40
14.0
 40
14.0
 10
92.38988170433309
 20
-155.5384819489626
 30
0.0
 10
92.38988170433309
 20
-155.5384819489626
 30
0.0
 10
92.28825138751821
 20
-155.5384819489626
 30
0.0
 10
92.28825138751821
 20
-155.5384819489626
 30
0.0
 10
92.28825138751821
 20
-155.6252983551909
 30
0.0
 10
92.26723630505819
 20
-156.0145941450241
 30
0.0
 10
92.07052135285044
 20
-156.2343912369831
 30
0.0
 10
91.91790362285386
 20
-156.4035454253088
 30
0.0
 10
91.71085338419034
 20
-156.4734808636594
 30
0.0
 10
91.6261040352532
 20
-156.5010416275414
 30
0.0
 10
91.6261040352532
 20
-156.5010416275414
 30
0.0
 10
91.43145614033658
 20
-156.3339544965068
 30
0.0
 10
91.43145614033658
 20
-156.3339544965068
 30
0.0
 10
91.52895234256915
 20
-156.3212076432114
 30
0.0
 10
91.70430770276837
 20
-156.2977809939117
 30
0.0
 10
91.89275442581154
 20
-156.109678780417
 30
0.0
 10
91.96682397874441
 20
-156.0376762847753
 30
0.0
 10
92.07052135285044
 20
-155.8981499176227
 30
0.0
 10
92.07052135285044
 20
-155.5384819489626
 30
0.0
 10
92.07052135285044
 20
-155.5384819489626
 30
0.0
 10
91.83969995533869
 20
-155.5384819489626
 30
0.0
 10
91.83969995533869
 20
-155.5384819489626
 30
0.0
 10
91.65366479913521
 20
-155.5384819489626
 30
0.0
 10
91.46728513338318
 20
-155.5426160635449
 30
0.0
 10
91.2812499771797
 20
-155.5574299741315
 30
0.0
 10
91.2812499771797
 20
-155.5574299741315
 30
0.0
 10
91.2812499771797
 20
-155.3376328821725
 30
0.0
 10
91.2812499771797
 20
-155.3376328821725
 30
0.0
 10
91.46969670022285
 20
-155.3524467927591
 30
0.0
 10
91.75529511595007
 20
-155.3565809073414
 30
0.0
 10
91.83969995533869
 20
-155.3565809073414
 30
0.0
 10
91.83969995533869
 20
-155.3565809073414
 30
0.0
 10
92.38988170433309
 20
-155.3565809073414
 30
0.0
 10
92.38988170433309
 20
-155.3565809073414
 30
0.0
 10
92.40882972950196
 20
-155.3565809073414
 30
0.0
 10
92.72612302369347
 20
-155.3565809073414
 30
0.0
 10
92.95453285436554
 20
-155.3376328821725
 30
0.0
 10
92.95453285436554
 20
-155.3376328821725
 30
0.0
 10
92.95453285436554
 20
-155.5574299741315
 30
0.0
 10
92.95453285436554
 20
-155.5574299741315
 30
0.0
 10
92.76643064087089
 20
-155.5426160635449
 30
0.0
 10
92.57798391782774
 20
-155.5384819489626
 30
0.0
 10
92.38988170433309
 20
-155.5384819489626
 30
0.0
  0
HATCH
  5
FC
330
ED
100
AcDbEntity
  8
レイヤー 1
 62
   250
420
  2299925
440
 33554687
100
AcDbHatch
 10
0.0
 20
0.0
 30
0.0
210
0.0
220
0.0
230
1.0
  2
SOLID
 70
     1
 71
     1
 91
        2
 92
        1
 93
        1
 72
     4
 94
        3
 73
     0
 74
     0
 95
       29
 96
       25
 40
0.0
 40
0.0
 40
0.0
 40
0.0
 40
1.0
 40
1.0
 40
1.0
 40
2.0
 40
2.0
 40
2.0
 40
3.0
 40
3.0
 40
3.0
 40
4.0
 40
4.0
 40
4.0
 40
5.0
 40
5.0
 40
5.0
 40
6.0
 40
6.0
 40
6.0
 40
7.0
 40
7.0
 40
7.0
 40
8.0
 40
8.0
 40
8.0
 40
8.0
 10
92.28825138751821
 20
-155.0096597919767
 10
92.28825138751821
 20
-155.0096597919767
 10
91.93478459073158
 20
-155.0096597919767
 10
91.93478459073158
 20
-155.0096597919767
 10
91.82281898746095
 20
-155.0096597919767
 10
91.68329262030836
 20
-155.0158609638502
 10
91.57546113162004
 20
-155.0286078171456
 10
91.57546113162004
 20
-155.0286078171456
 10
91.57546113162004
 20
-154.7936523050515
 10
91.57546113162004
 20
-154.7936523050515
 10
91.69362790676409
 20
-154.8084662156381
 10
91.87794051522496
 20
-154.812944839769
 10
91.93478459073158
 20
-154.812944839769
 10
91.93478459073158
 20
-154.812944839769
 10
92.28825138751821
 20
-154.812944839769
 10
92.28825138751821
 20
-154.812944839769
 10
92.30719941268709
 20
-154.812944839769
 10
92.51046004631684
 20
-154.812944839769
 10
92.6520534707606
 20
-154.7936523050515
 10
92.6520534707606
 20
-154.7936523050515
 10
92.6520534707606
 20
-155.0286078171456
 10
92.6520534707606
 20
-155.0286078171456
 10
92.49564613573026
 20
-155.0096597919767
 10
92.30513235539595
 20
-155.0096597919767
 10
92.28825138751821
 20
-155.0096597919767
 97
        0
 97
        1
330
FA
 92
        1
 93
        1
 72
     4
 94
        3
 73
     0
 74
     0
 95
       47
 96
       43
 40
0.0
 40
0.0
 40
0.0
 40
0.0
 40
1.0
 40
1.0
 40
1.0
 40
2.0
 40
2.0
 40
2.0
 40
3.0
 40
3.0
 40
3.0
 40
4.0
 40
4.0
 40
4.0
 40
5.0
 40
5.0
 40
5.0
 40
6.0
 40
6.0
 40
6.0
 40
7.0
 40
7.0
 40
7.0
 40
8.0
 40
8.0
 40
8.0
 40
9.0
 40
9.0
 40
9.0
 40
10.0
 40
10.0
 40
10.0
 40
11.0
 40
11.0
 40
11.0
 40
12.0
 40
12.0
 40
12.0
 40
13.0
 40
13.0
 40
13.0
 40
14.0
 40
14.0
 40
14.0
 40
14.0
 10
92.38988170433309
 20
-155.5384819489626
 10
92.38988170433309
 20
-155.5384819489626
 10
92.28825138751821
 20
-155.5384819489626
 10
92.28825138751821
 20
-155.5384819489626
 10
92.28825138751821
 20
-155.6252983551909
 10
92.26723630505819
 20
-156.0145941450241
 10
92.07052135285044
 20
-156.2343912369831
 10
91.91790362285386
 20
-156.4035454253088
 10
91.71085338419034
 20
-156.4734808636594
 10
91.6261040352532
 20
-156.5010416275414
 10
91.6261040352532
 20
-156.5010416275414
 10
91.43145614033658
 20
-156.3339544965068
 10
91.43145614033658
 20
-156.3339544965068
 10
91.52895234256915
 20
-156.3212076432114
 10
91.70430770276837
 20
-156.2977809939117
 10
91.89275442581154
 20
-156.109678780417
 10
91.96682397874441
 20
-156.0376762847753
 10
92.07052135285044
 20
-155.8981499176227
 10
92.07052135285044
 20
-155.5384819489626
 10
92.07052135285044
 20
-155.5384819489626
 10
91.83969995533869
 20
-155.5384819489626
 10
91.83969995533869
 20
-155.5384819489626
 10
91.65366479913521
 20
-155.5384819489626
 10
91.46728513338318
 20
-155.5426160635449
 10
91.2812499771797
 20
-155.5574299741315
 10
91.2812499771797
 20
-155.5574299741315
 10
91.2812499771797
 20
-155.3376328821725
 10
91.2812499771797
 20
-155.3376328821725
 10
91.46969670022285
 20
-155.3524467927591
 10
91.75529511595007
 20
-155.3565809073414
 10
91.83969995533869
 20
-155.3565809073414
 10
91.83969995533869
 20
-155.3565809073414
 10
92.38988170433309
 20
-155.3565809073414
 10
92.38988170433309
 20
-155.3565809073414
 10
92.40882972950196
 20
-155.3565809073414
 10
92.72612302369347
 20
-155.3565809073414
 10
92.95453285436554
 20
-155.3376328821725
 10
92.95453285436554
 20
-155.3376328821725
 10
92.95453285436554
 20
-155.5574299741315
 10
92.95453285436554
 20
-155.5574299741315
 10
92.76643064087089
 20
-155.5426160635449
 10
92.57798391782774
 20
-155.5384819489626
 10
92.38988170433309
 20
-155.5384819489626
 97
        0
 97
        1
330
FB
 75
     2
 76
     1
 98
        1
 10
0.0
 20
0.0
450
        0
451
        0
460
0.0
461
0.0
452
        0
462
0.0
453
        0
470

  0
SPLINE
  5
FD
330
ED
100
AcDbEntity
  8
レイヤー 1
100
AcDbSpline
210
0.0
220
0.0
230
1.0
 70
     9
 71
     3
 72
    29
 73
    25
 74
     0
 42
0.0000000001
 43
0.0000000001
 40
0.0
 40
0.0
 40
0.0
 40
0.0
 40
1.0
 40
1.0
 40
1.0
 40
2.0
 40
2.0
 40
2.0
 40
3.0
 40
3.0
 40
3.0
 40
4.0
 40
4.0
 40
4.0
 40
5.0
 40
5.0
 40
5.0
 40
6.0
 40
6.0
 40
6.0
 40
7.0
 40
7.0
 40
7.0
 40
8.0
 40
8.0
 40
8.0
 40
8.0
 10
94.23576386532996
 20
-155.7014349654149
 30
0.0
 10
94.23576386532996
 20
-155.7014349654149
 30
0.0
 10
93.75138344010382
 20
-155.7014349654149
 30
0.0
 10
93.75138344010382
 20
-155.7014349654149
 30
0.0
 10
93.72382267622183
 20
-155.7014349654149
 30
0.0
 10
93.40652938203032
 20
-155.7014349654149
 30
0.0
 10
93.19500051923597
 20
-155.7265841624572
 30
0.0
 10
93.19500051923597
 20
-155.7265841624572
 30
0.0
 10
93.19500051923597
 20
-155.496107274494
 30
0.0
 10
93.19500051923597
 20
-155.496107274494
 30
0.0
 10
93.35347491155747
 20
-155.5195339237937
 30
0.0
 10
93.54398869189179
 20
-155.5216009810848
 30
0.0
 10
93.75138344010382
 20
-155.5216009810848
 30
0.0
 10
93.75138344010382
 20
-155.5216009810848
 30
0.0
 10
94.23576386532996
 20
-155.5216009810848
 30
0.0
 10
94.23576386532996
 20
-155.5216009810848
 30
0.0
 10
94.42179902153345
 20
-155.5216009810848
 30
0.0
 10
94.60817868728545
 20
-155.5195339237937
 30
0.0
 10
94.79214678619781
 20
-155.496107274494
 30
0.0
 10
94.79214678619781
 20
-155.496107274494
 30
0.0
 10
94.79214678619781
 20
-155.7265841624572
 30
0.0
 10
94.79214678619781
 20
-155.7265841624572
 30
0.0
 10
94.60817868728545
 20
-155.7035020227061
 30
0.0
 10
94.360476321896
 20
-155.7014349654149
 30
0.0
 10
94.23576386532996
 20
-155.7014349654149
 30
0.0
  0
HATCH
  5
FE
330
ED
100
AcDbEntity
  8
レイヤー 1
 62
   250
420
  2299925
440
 33554687
100
AcDbHatch
 10
0.0
 20
0.0
 30
0.0
210
0.0
220
0.0
230
1.0
  2
SOLID
 70
     1
 71
     1
 91
        1
 92
        1
 93
        1
 72
     4
 94
        3
 73
     0
 74
     0
 95
       29
 96
       25
 40
0.0
 40
0.0
 40
0.0
 40
0.0
 40
1.0
 40
1.0
 40
1.0
 40
2.0
 40
2.0
 40
2.0
 40
3.0
 40
3.0
 40
3.0
 40
4.0
 40
4.0
 40
4.0
 40
5.0
 40
5.0
 40
5.0
 40
6.0
 40
6.0
 40
6.0
 40
7.0
 40
7.0
 40
7.0
 40
8.0
 40
8.0
 40
8.0
 40
8.0
 10
94.23576386532996
 20
-155.7014349654149
 10
94.23576386532996
 20
-155.7014349654149
 10
93.75138344010382
 20
-155.7014349654149
 10
93.75138344010382
 20
-155.7014349654149
 10
93.72382267622183
 20
-155.7014349654149
 10
93.40652938203032
 20
-155.7014349654149
 10
93.19500051923597
 20
-155.7265841624572
 10
93.19500051923597
 20
-155.7265841624572
 10
93.19500051923597
 20
-155.496107274494
 10
93.19500051923597
 20
-155.496107274494
 10
93.35347491155747
 20
-155.5195339237937
 10
93.54398869189179
 20
-155.5216009810848
 10
93.75138344010382
 20
-155.5216009810848
 10
93.75138344010382
 20
-155.5216009810848
 10
94.23576386532996
 20
-155.5216009810848
 10
94.23576386532996
 20
-155.5216009810848
 10
94.42179902153345
 20
-155.5216009810848
 10
94.60817868728545
 20
-155.5195339237937
 10
94.79214678619781
 20
-155.496107274494
 10
94.79214678619781
 20
-155.496107274494
 10
94.79214678619781
 20
-155.7265841624572
 10
94.79214678619781
 20
-155.7265841624572
 10
94.60817868728545
 20
-155.7035020227061
 10
94.360476321896
 20
-155.7014349654149
 10
94.23576386532996
 20
-155.7014349654149
 97
        0
 97
        1
330
FD
 75
     2
 76
     1
 98
        1
 10
0.0
 20
0.0
450
        0
451
        0
460
0.0
461
0.0
452
        0
462
0.0
453
        0
470

  0
SPLINE
  5
FF
330
ED
100
AcDbEntity
  8
レイヤー 1
100
AcDbSpline
210
0.0
220
0.0
230
1.0
 70
     9
 71
     3
 72
    17
 73
    13
 74
     0
 42
0.0000000001
 43
0.0000000001
 40
0.0
 40
0.0
 40
0.0
 40
0.0
 40
1.0
 40
1.0
 40
1.0
 40
2.0
 40
2.0
 40
2.0
 40
3.0
 40
3.0
 40
3.0
 40
4.0
 40
4.0
 40
4.0
 40
4.0
 10
96.65456540552387
 20
-154.7343966627053
 30
0.0
 10
96.5997883873084
 20
-154.7343966627053
 30
0.0
 10
96.55534665554867
 20
-154.778838394465
 30
0.0
 10
96.55534665554867
 20
-154.833959922229
 30
0.0
 10
96.55534665554867
 20
-154.8911485072841
 30
0.0
 10
96.5997883873084
 20
-154.9397243536262
 30
0.0
 10
96.65869952010616
 20
-154.9397243536262
 30
0.0
 10
96.71795516245246
 20
-154.9397243536262
 30
0.0
 10
96.7582627796299
 20
-154.889081449993
 30
0.0
 10
96.7582627796299
 20
-154.8360269795201
 30
0.0
 10
96.7582627796299
 20
-154.778838394465
 30
0.0
 10
96.71175399057901
 20
-154.7343966627053
 30
0.0
 10
96.65456540552387
 20
-154.7343966627053
 30
0.0
  0
SPLINE
  5
100
330
ED
100
AcDbEntity
  8
レイヤー 1
100
AcDbSpline
210
0.0
220
0.0
230
1.0
 70
     9
 71
     3
 72
    17
 73
    13
 74
     0
 42
0.0000000001
 43
0.0000000001
 40
0.0
 40
0.0
 40
0.0
 40
0.0
 40
1.0
 40
1.0
 40
1.0
 40
2.0
 40
2.0
 40
2.0
 40
3.0
 40
3.0
 40
3.0
 40
4.0
 40
4.0
 40
4.0
 40
4.0
 10
96.65663246281502
 20
-155.0644368101922
 30
0.0
 10
96.52985294895783
 20
-155.0644368101922
 30
0.0
 10
96.42822263214295
 20
-154.9631510029259
 30
0.0
 10
96.42822263214295
 20
-154.8360269795201
 30
0.0
 10
96.42822263214295
 20
-154.7092474656629
 30
0.0
 10
96.52985294895783
 20
-154.6055500915569
 30
0.0
 10
96.65663246281502
 20
-154.6055500915569
 30
0.0
 10
96.78375648622074
 20
-154.6055500915569
 30
0.0
 10
96.88745386032676
 20
-154.7092474656629
 30
0.0
 10
96.88745386032676
 20
-154.8360269795201
 30
0.0
 10
96.88745386032676
 20
-154.9631510029259
 30
0.0
 10
96.78375648622074
 20
-155.0644368101922
 30
0.0
 10
96.65663246281502
 20
-155.0644368101922
 30
0.0
  0
SPLINE
  5
101
330
ED
100
AcDbEntity
  8
レイヤー 1
100
AcDbSpline
210
0.0
220
0.0
230
1.0
 70
     9
 71
     3
 72
    44
 73
    40
 74
     0
 42
0.0000000001
 43
0.0000000001
 40
0.0
 40
0.0
 40
0.0
 40
0.0
 40
1.0
 40
1.0
 40
1.0
 40
2.0
 40
2.0
 40
2.0
 40
3.0
 40
3.0
 40
3.0
 40
4.0
 40
4.0
 40
4.0
 40
5.0
 40
5.0
 40
5.0
 40
6.0
 40
6.0
 40
6.0
 40
7.0
 40
7.0
 40
7.0
 40
8.0
 40
8.0
 40
8.0
 40
9.0
 40
9.0
 40
9.0
 40
10.0
 40
10.0
 40
10.0
 40
11.0
 40
11.0
 40
11.0
 40
12.0
 40
12.0
 40
12.0
 40
13.0
 40
13.0
 40
13.0
 40
13.0
 10
96.44717065731184
 20
-155.2635633292396
 30
0.0
 10
96.33520505404121
 20
-155.6314995270643
 30
0.0
 10
96.28456215040804
 20
-155.7903184289344
 30
0.0
 10
96.08784719820027
 20
-156.0397433420664
 30
0.0
 10
95.9035345897394
 20
-156.2705647395782
 30
0.0
 10
95.66685652990273
 20
-156.4565998957817
 30
0.0
 10
95.38745928604898
 20
-156.5496174738834
 30
0.0
 10
95.38745928604898
 20
-156.5496174738834
 30
0.0
 10
95.1948784484235
 20
-156.3697834895534
 30
0.0
 10
95.1948784484235
 20
-156.3697834895534
 30
0.0
 10
95.83601071822851
 20
-156.2175102691053
 30
0.0
 10
96.16605086571544
 20
-155.6611273482375
 30
0.0
 10
96.22944062264403
 20
-155.2211886547711
 30
0.0
 10
96.22944062264403
 20
-155.2211886547711
 30
0.0
 10
95.46359589627298
 20
-155.2211886547711
 30
0.0
 10
95.46359589627298
 20
-155.2211886547711
 30
0.0
 10
95.37057831817126
 20
-155.2211886547711
 30
0.0
 10
95.18661021925892
 20
-155.2253227693534
 30
0.0
 10
95.02985837468004
 20
-155.2442707945222
 30
0.0
 10
95.02985837468004
 20
-155.2442707945222
 30
0.0
 10
95.02985837468004
 20
-155.0244737025633
 30
0.0
 10
95.02985837468004
 20
-155.0244737025633
 30
0.0
 10
95.11667478090833
 20
-155.0454887850233
 30
0.0
 10
95.36851126088009
 20
-155.0454887850233
 30
0.0
 10
95.46773001085529
 20
-155.0454887850233
 30
0.0
 10
95.46773001085529
 20
-155.0454887850233
 30
0.0
 10
95.89940047515709
 20
-155.0454887850233
 30
0.0
 10
95.89940047515709
 20
-155.0454887850233
 30
0.0
 10
95.94177514962566
 20
-155.0454887850233
 30
0.0
 10
96.17638615217119
 20
-155.0434217277322
 30
0.0
 10
96.21462671205746
 20
-155.0372205558588
 30
0.0
 10
96.25700138652604
 20
-155.0306748744367
 30
0.0
 10
96.25906844381718
 20
-155.0286078171456
 30
0.0
 10
96.32039114345463
 20
-154.9883001999682
 30
0.0
 10
96.32039114345463
 20
-154.9883001999682
 30
0.0
 10
96.50849335694928
 20
-155.1429849872559
 30
0.0
 10
96.50849335694928
 20
-155.1429849872559
 30
0.0
 10
96.47921004532465
 20
-155.1726128084291
 30
0.0
 10
96.46439613473807
 20
-155.2043076868933
 30
0.0
 10
96.44717065731184
 20
-155.2635633292396
 30
0.0
  0
HATCH
  5
102
330
ED
100
AcDbEntity
  8
レイヤー 1
 62
   250
420
  2299925
440
 33554687
100
AcDbHatch
 10
0.0
 20
0.0
 30
0.0
210
0.0
220
0.0
230
1.0
  2
SOLID
 70
     1
 71
     1
 91
        3
 92
        1
 93
        1
 72
     4
 94
        3
 73
     0
 74
     0
 95
       17
 96
       13
 40
0.0
 40
0.0
 40
0.0
 40
0.0
 40
1.0
 40
1.0
 40
1.0
 40
2.0
 40
2.0
 40
2.0
 40
3.0
 40
3.0
 40
3.0
 40
4.0
 40
4.0
 40
4.0
 40
4.0
 10
96.65456540552387
 20
-154.7343966627053
 10
96.5997883873084
 20
-154.7343966627053
 10
96.55534665554867
 20
-154.778838394465
 10
96.55534665554867
 20
-154.833959922229
 10
96.55534665554867
 20
-154.8911485072841
 10
96.5997883873084
 20
-154.9397243536262
 10
96.65869952010616
 20
-154.9397243536262
 10
96.71795516245246
 20
-154.9397243536262
 10
96.7582627796299
 20
-154.889081449993
 10
96.7582627796299
 20
-154.8360269795201
 10
96.7582627796299
 20
-154.778838394465
 10
96.71175399057901
 20
-154.7343966627053
 10
96.65456540552387
 20
-154.7343966627053
 97
        0
 97
        1
330
FF
 92
        1
 93
        1
 72
     4
 94
        3
 73
     0
 74
     0
 95
       17
 96
       13
 40
0.0
 40
0.0
 40
0.0
 40
0.0
 40
1.0
 40
1.0
 40
1.0
 40
2.0
 40
2.0
 40
2.0
 40
3.0
 40
3.0
 40
3.0
 40
4.0
 40
4.0
 40
4.0
 40
4.0
 10
96.65663246281502
 20
-155.0644368101922
 10
96.52985294895783
 20
-155.0644368101922
 10
96.42822263214295
 20
-154.9631510029259
 10
96.42822263214295
 20
-154.8360269795201
 10
96.42822263214295
 20
-154.7092474656629
 10
96.52985294895783
 20
-154.6055500915569
 10
96.65663246281502
 20
-154.6055500915569
 10
96.78375648622074
 20
-154.6055500915569
 10
96.88745386032676
 20
-154.7092474656629
 10
96.88745386032676
 20
-154.8360269795201
 10
96.88745386032676
 20
-154.9631510029259
 10
96.78375648622074
 20
-155.0644368101922
 10
96.65663246281502
 20
-155.0644368101922
 97
        0
 97
        1
330
100
 92
        1
 93
        1
 72
     4
 94
        3
 73
     0
 74
     0
 95
       44
 96
       40
 40
0.0
 40
0.0
 40
0.0
 40
0.0
 40
1.0
 40
1.0
 40
1.0
 40
2.0
 40
2.0
 40
2.0
 40
3.0
 40
3.0
 40
3.0
 40
4.0
 40
4.0
 40
4.0
 40
5.0
 40
5.0
 40
5.0
 40
6.0
 40
6.0
 40
6.0
 40
7.0
 40
7.0
 40
7.0
 40
8.0
 40
8.0
 40
8.0
 40
9.0
 40
9.0
 40
9.0
 40
10.0
 40
10.0
 40
10.0
 40
11.0
 40
11.0
 40
11.0
 40
12.0
 40
12.0
 40
12.0
 40
13.0
 40
13.0
 40
13.0
 40
13.0
 10
96.44717065731184
 20
-155.2635633292396
 10
96.33520505404121
 20
-155.6314995270643
 10
96.28456215040804
 20
-155.7903184289344
 10
96.08784719820027
 20
-156.0397433420664
 10
95.9035345897394
 20
-156.2705647395782
 10
95.66685652990273
 20
-156.4565998957817
 10
95.38745928604898
 20
-156.5496174738834
 10
95.38745928604898
 20
-156.5496174738834
 10
95.1948784484235
 20
-156.3697834895534
 10
95.1948784484235
 20
-156.3697834895534
 10
95.83601071822851
 20
-156.2175102691053
 10
96.16605086571544
 20
-155.6611273482375
 10
96.22944062264403
 20
-155.2211886547711
 10
96.22944062264403
 20
-155.2211886547711
 10
95.46359589627298
 20
-155.2211886547711
 10
95.46359589627298
 20
-155.2211886547711
 10
95.37057831817126
 20
-155.2211886547711
 10
95.18661021925892
 20
-155.2253227693534
 10
95.02985837468004
 20
-155.2442707945222
 10
95.02985837468004
 20
-155.2442707945222
 10
95.02985837468004
 20
-155.0244737025633
 10
95.02985837468004
 20
-155.0244737025633
 10
95.11667478090833
 20
-155.0454887850233
 10
95.36851126088009
 20
-155.0454887850233
 10
95.46773001085529
 20
-155.0454887850233
 10
95.46773001085529
 20
-155.0454887850233
 10
95.89940047515709
 20
-155.0454887850233
 10
95.89940047515709
 20
-155.0454887850233
 10
95.94177514962566
 20
-155.0454887850233
 10
96.17638615217119
 20
-155.0434217277322
 10
96.21462671205746
 20
-155.0372205558588
 10
96.25700138652604
 20
-155.0306748744367
 10
96.25906844381718
 20
-155.0286078171456
 10
96.32039114345463
 20
-154.9883001999682
 10
96.32039114345463
 20
-154.9883001999682
 10
96.50849335694928
 20
-155.1429849872559
 10
96.50849335694928
 20
-155.1429849872559
 10
96.47921004532465
 20
-155.1726128084291
 10
96.46439613473807
 20
-155.2043076868933
 10
96.44717065731184
 20
-155.2635633292396
 97
        0
 97
        1
330
101
 75
     2
 76
     1
 98
        1
 10
0.0
 20
0.0
450
        0
451
        0
460
0.0
461
0.0
452
        0
462
0.0
453
        0
470

  0
ENDBLK
  5
F0
330
ED
100
AcDbEntity
  8
0
100
AcDbBlockEnd
  0
ENDSEC
  0
SECTION
  2
ENTITIES
  0
INSERT
  5
7A
330
70
100
AcDbEntity
  8
レイヤー 1
100
AcDbBlockReference
  2
Block_0
 10
0.0
 20
0.0
 30
0.0
  0
INSERT
  5
E1
330
70
100
AcDbEntity
  8
レイヤー 1
100
AcDbBlockReference
  2
Block_14
 10
0.0
 20
0.0
 30
0.0
  0
ENDSEC
  0
SECTION
  2
OBJECTS
  0
DICTIONARY
  5
C
330
0
100
AcDbDictionary
281
     1
  3
ACAD_COLOR
350
63
  3
ACAD_DETAILVIEWSTYLE
350
6A
  3
ACAD_GROUP
350
D
  3
ACAD_LAYOUT
350
62
  3
ACAD_MATERIAL
350
10
  3
ACAD_MLEADERSTYLE
350
66
  3
ACAD_MLINESTYLE
350
5F
  3
ACAD_PLOTSETTINGS
350
61
  3
ACAD_PLOTSTYLENAME
350
E
  3
ACAD_SCALELIST
350
42
  3
ACAD_SECTIONVIEWSTYLE
350
68
  3
ACAD_TABLESTYLE
350
64
  3
ACAD_VISUALSTYLE
350
29
  3
ACDB_RECOMPOSE_DATA
350
10B
  3
AcDbVariableDictionary
350
103
  0
DICTIONARY
  5
63
102
{ACAD_REACTORS
330
C
102
}
330
C
100
AcDbDictionary
281
     1
  0
DICTIONARY
  5
6A
102
{ACAD_REACTORS
330
C
102
}
330
C
100
AcDbDictionary
281
     1
  3
Imperial24
350
6B
  0
DICTIONARY
  5
D
102
{ACAD_REACTORS
330
C
102
}
330
C
100
AcDbDictionary
281
     1
  0
DICTIONARY
  5
62
102
{ACAD_REACTORS
330
C
102
}
330
C
100
AcDbDictionary
281
     1
  3
Layout1
350
6F
  3
Layout2
350
77
  3
Model
350
73
  0
DICTIONARY
  5
10
102
{ACAD_REACTORS
330
C
102
}
330
C
100
AcDbDictionary
281
     1
  3
ByBlock
350
19
  3
ByLayer
350
11
  3
Global
350
21
  0
DICTIONARY
  5
66
102
{ACAD_REACTORS
330
C
102
}
330
C
100
AcDbDictionary
281
     1
  3
Standard
350
67
  0
DICTIONARY
  5
5F
102
{ACAD_REACTORS
330
C
102
}
330
C
100
AcDbDictionary
281
     1
  3
Standard
350
60
  0
DICTIONARY
  5
61
102
{ACAD_REACTORS
330
C
102
}
330
C
100
AcDbDictionary
281
     1
  0
ACDBDICTIONARYWDFLT
  5
E
102
{ACAD_REACTORS
330
C
102
}
330
C
100
AcDbDictionary
281
     1
  3
Normal
350
F
100
AcDbDictionaryWithDefault
340
F
  0
DICTIONARY
  5
42
102
{ACAD_REACTORS
330
C
102
}
330
C
100
AcDbDictionary
281
     1
  3
A0
350
43
  3
A1
350
44
  3
A2
350
45
  3
A3
350
46
  3
A4
350
47
  3
A5
350
48
  3
A6
350
49
  3
A7
350
4A
  3
A8
350
4B
  3
A9
350
4C
  3
B0
350
4D
  3
B1
350
4E
  3
B2
350
4F
  3
B3
350
50
  3
B4
350
51
  3
B5
350
52
  3
B6
350
53
  0
DICTIONARY
  5
68
102
{ACAD_REACTORS
330
C
102
}
330
C
100
AcDbDictionary
281
     1
  3
Imperial24
350
69
  0
DICTIONARY
  5
64
102
{ACAD_REACTORS
330
C
102
}
330
C
100
AcDbDictionary
281
     1
  3
Standard
350
65
  0
DICTIONARY
  5
29
102
{ACAD_REACTORS
330
C
102
}
330
C
100
AcDbDictionary
281
     1
  3
2dWireframe
350
2F
  3
Basic
350
2E
  3
Brighten
350
35
  3
ColorChange
350
39
  3
Conceptual
350
32
  3
Dim
350
34
  3
EdgeColorOff
350
41
  3
Facepattern
350
38
  3
Flat
350
2A
  3
FlatWithEdges
350
2B
  3
Gouraud
350
2C
  3
GouraudWithEdges
350
2D
  3
Hidden
350
31
  3
JitterOff
350
3F
  3
Linepattern
350
37
  3
OverhangOff
350
40
  3
Realistic
350
33
  3
Shaded
350
3E
  3
Shaded with edges
350
3D
  3
Shades of Gray
350
3A
  3
Sketchy
350
3B
  3
Thicken
350
36
  3
Wireframe
350
30
  3
X-Ray
350
3C
  0
XRECORD
  5
10B
102
{ACAD_REACTORS
330
C
102
}
330
C
100
AcDbXrecord
280
     1
 90
        1
330
65
  0
DICTIONARY
  5
103
102
{ACAD_REACTORS
330
C
102
}
330
C
100
AcDbDictionary
281
     1
  3
CANNOSCALE
350
108
  3
CMLEADERSTYLE
350
105
  3
CTABLESTYLE
350
104
  3
CVIEWDETAILSTYLE
350
106
  3
CVIEWSECTIONSTYLE
350
107
  0
ACDBDETAILVIEWSTYLE
  5
6B
102
{ACAD_XDICTIONARY
360
140
102
}
102
{ACAD_REACTORS
330
6A
102
}
330
6A
100
AcDbModelDocViewStyle
 70
     0
  3
Imperial24
290
     0
100
AcDbDetailViewStyle
 70
     0
 71
     0
 90
        3
 71
     1
340
55
 62
   256
 40
0.24
340
0
 62
   256
 40
0.24
300

 40
0.36
280
     3
 71
     2
340
5D
 90
       25
 62
   256
 71
     3
340
55
 62
   256
 40
0.24
 90
        1
 40
0.75
 90
        1
300
%<\AcVar ViewType \f "%tc1">% %<\AcVar ViewDetailId>%\PSCALE %<\AcVar ViewScale \f "%sn">%
 71
     4
340
5D
 90
       25
 62
   256
340
5D
 90
       25
 62
   256
280
     0
  0
LAYOUT
  5
6F
102
{ACAD_REACTORS
330
62
102
}
330
62
100
AcDbPlotSettings
  1

  2

  4

  6

 40
0.0
 41
0.0
 42
0.0
 43
0.0
 44
0.0
 45
0.0
 46
0.0
 47
0.0
 48
0.0
 49
0.0
140
0.0
141
0.0
142
1.0
143
1.0
 70
   688
 72
     0
 73
     0
 74
     5
  7

 75
    16
147
1.0
 76
     0
 77
     2
 78
   300
148
0.0
149
0.0
100
AcDbLayout
  1
Layout1
 70
     1
 71
     1
 10
0.0
 20
0.0
 11
12.0
 21
9.0
 12
0.0
 22
0.0
 32
0.0
 14
0.0
 24
0.0
 34
0.0
 15
0.0
 25
0.0
 35
0.0
146
0.0
 13
0.0
 23
0.0
 33
0.0
 16
1.0
 26
0.0
 36
0.0
 17
0.0
 27
1.0
 37
0.0
 76
     0
330
6C
  0
LAYOUT
  5
77
102
{ACAD_REACTORS
330
62
102
}
330
62
100
AcDbPlotSettings
  1

  2

  4

  6

 40
0.0
 41
0.0
 42
0.0
 43
0.0
 44
0.0
 45
0.0
 46
0.0
 47
0.0
 48
0.0
 49
0.0
140
0.0
141
0.0
142
1.0
143
1.0
 70
   688
 72
     0
 73
     0
 74
     5
  7

 75
    16
147
1.0
 76
     0
 77
     2
 78
   300
148
0.0
149
0.0
100
AcDbLayout
  1
Layout2
 70
     1
 71
     2
 10
0.0
 20
0.0
 11
12.0
 21
9.0
 12
0.0
 22
0.0
 32
0.0
 14
0.0
 24
0.0
 34
0.0
 15
0.0
 25
0.0
 35
0.0
146
0.0
 13
0.0
 23
0.0
 33
0.0
 16
1.0
 26
0.0
 36
0.0
 17
0.0
 27
1.0
 37
0.0
 76
     0
330
74
  0
LAYOUT
  5
73
102
{ACAD_REACTORS
330
62
102
}
330
62
100
AcDbPlotSettings
  1

  2

  4

  6

 40
0.0
 41
0.0
 42
0.0
 43
0.0
 44
0.0
 45
0.0
 46
0.0
 47
0.0
 48
0.0
 49
0.0
140
0.0
141
0.0
142
1.0
143
1.0
 70
  1712
 72
     0
 73
     0
 74
     0
  7

 75
     0
147
1.0
 76
     0
 77
     2
 78
   300
148
0.0
149
0.0
100
AcDbLayout
  1
Model
 70
     1
 71
     0
 10
0.0
 20
0.0
 11
12.0
 21
9.0
 12
0.0
 22
0.0
 32
0.0
 14
0.0
 24
0.0
 34
0.0
 15
0.0
 25
0.0
 35
0.0
146
0.0
 13
0.0
 23
0.0
 33
0.0
 16
1.0
 26
0.0
 36
0.0
 17
0.0
 27
1.0
 37
0.0
 76
     0
330
70
  0
MATERIAL
  5
19
102
{ACAD_XDICTIONARY
360
1A
102
}
102
{ACAD_REACTORS
330
10
102
}
330
10
100
AcDbMaterial
  1
ByBlock
 72
     0
 43
0.0208333333333333
 43
0.0
 43
0.0
 43
0.0
 43
0.0
 43
0.0208333333333333
 43
0.0
 43
0.0
 43
0.0
 43
0.0
 43
1.0
 43
0.0
 43
0.0
 43
0.0
 43
0.0
 43
1.0
 77
     0
 47
0.0208333333333333
 47
0.0
 47
0.0
 47
0.0
 47
0.0
 47
0.0208333333333333
 47
0.0
 47
0.0
 47
0.0
 47
0.0
 47
1.0
 47
0.0
 47
0.0
 47
0.0
 47
0.0
 47
1.0
171
     0
 49
0.0208333333333333
 49
0.0
 49
0.0
 49
0.0
 49
0.0
 49
0.0208333333333333
 49
0.0
 49
0.0
 49
0.0
 49
0.0
 49
1.0
 49
0.0
 49
0.0
 49
0.0
 49
0.0
 49
1.0
175
     0
142
0.0208333333333333
142
0.0
142
0.0
142
0.0
142
0.0
142
0.0208333333333333
142
0.0
142
0.0
142
0.0
142
0.0
142
1.0
142
0.0
142
0.0
142
0.0
142
0.0
142
1.0
179
     0
144
0.0208333333333333
144
0.0
144
0.0
144
0.0
144
0.0
144
0.0208333333333333
144
0.0
144
0.0
144
0.0
144
0.0
144
1.0
144
0.0
144
0.0
144
0.0
144
0.0
144
1.0
147
0.0208333333333333
147
0.0
147
0.0
147
0.0
147
0.0
147
0.0208333333333333
147
0.0
147
0.0
147
0.0
147
0.0
147
1.0
147
0.0
147
0.0
147
0.0
147
0.0
147
1.0
  0
MATERIAL
  5
11
102
{ACAD_XDICTIONARY
360
12
102
}
102
{ACAD_REACTORS
330
10
102
}
330
10
100
AcDbMaterial
  1
ByLayer
 72
     0
 43
0.0208333333333333
 43
0.0
 43
0.0
 43
0.0
 43
0.0
 43
0.0208333333333333
 43
0.0
 43
0.0
 43
0.0
 43
0.0
 43
1.0
 43
0.0
 43
0.0
 43
0.0
 43
0.0
 43
1.0
 77
     0
 47
0.0208333333333333
 47
0.0
 47
0.0
 47
0.0
 47
0.0
 47
0.0208333333333333
 47
0.0
 47
0.0
 47
0.0
 47
0.0
 47
1.0
 47
0.0
 47
0.0
 47
0.0
 47
0.0
 47
1.0
171
     0
 49
0.0208333333333333
 49
0.0
 49
0.0
 49
0.0
 49
0.0
 49
0.0208333333333333
 49
0.0
 49
0.0
 49
0.0
 49
0.0
 49
1.0
 49
0.0
 49
0.0
 49
0.0
 49
0.0
 49
1.0
175
     0
142
0.0208333333333333
142
0.0
142
0.0
142
0.0
142
0.0
142
0.0208333333333333
142
0.0
142
0.0
142
0.0
142
0.0
142
1.0
142
0.0
142
0.0
142
0.0
142
0.0
142
1.0
179
     0
144
0.0208333333333333
144
0.0
144
0.0
144
0.0
144
0.0
144
0.0208333333333333
144
0.0
144
0.0
144
0.0
144
0.0
144
1.0
144
0.0
144
0.0
144
0.0
144
0.0
144
1.0
147
0.0208333333333333
147
0.0
147
0.0
147
0.0
147
0.0
147
0.0208333333333333
147
0.0
147
0.0
147
0.0
147
0.0
147
1.0
147
0.0
147
0.0
147
0.0
147
0.0
147
1.0
  0
MATERIAL
  5
21
102
{ACAD_XDICTIONARY
360
22
102
}
102
{ACAD_REACTORS
330
10
102
}
330
10
100
AcDbMaterial
  1
Global
 72
     0
 43
0.0208333333333333
 43
0.0
 43
0.0
 43
0.0
 43
0.0
 43
0.0208333333333333
 43
0.0
 43
0.0
 43
0.0
 43
0.0
 43
1.0
 43
0.0
 43
0.0
 43
0.0
 43
0.0
 43
1.0
 77
     0
 47
0.0208333333333333
 47
0.0
 47
0.0
 47
0.0
 47
0.0
 47
0.0208333333333333
 47
0.0
 47
0.0
 47
0.0
 47
0.0
 47
1.0
 47
0.0
 47
0.0
 47
0.0
 47
0.0
 47
1.0
171
     0
 49
0.0208333333333333
 49
0.0
 49
0.0
 49
0.0
 49
0.0
 49
0.0208333333333333
 49
0.0
 49
0.0
 49
0.0
 49
0.0
 49
1.0
 49
0.0
 49
0.0
 49
0.0
 49
0.0
 49
1.0
175
     0
142
0.0208333333333333
142
0.0
142
0.0
142
0.0
142
0.0
142
0.0208333333333333
142
0.0
142
0.0
142
0.0
142
0.0
142
1.0
142
0.0
142
0.0
142
0.0
142
0.0
142
1.0
179
     0
144
0.0208333333333333
144
0.0
144
0.0
144
0.0
144
0.0
144
0.0208333333333333
144
0.0
144
0.0
144
0.0
144
0.0
144
1.0
144
0.0
144
0.0
144
0.0
144
0.0
144
1.0
147
0.0208333333333333
147
0.0
147
0.0
147
0.0
147
0.0
147
0.0208333333333333
147
0.0
147
0.0
147
0.0
147
0.0
147
1.0
147
0.0
147
0.0
147
0.0
147
0.0
147
1.0
  0
MLEADERSTYLE
  5
67
102
{ACAD_XDICTIONARY
360
13C
102
}
102
{ACAD_REACTORS
330
66
102
}
330
66
100
AcDbMLeaderStyle
179
     2
170
     2
171
     1
172
     0
 90
        2
 40
0.0
 41
0.0
173
     1
 91
-1056964608
340
5B
 92
       -2
290
     1
 42
0.09
291
     1
 43
0.36
  3
Standard
 44
0.18
300

342
55
174
     1
178
     6
175
     1
176
     0
 93
-1056964608
 45
0.18
292
     0
297
     0
 46
0.18
 94
-1056964608
 47
1.0
 49
1.0
140
1.0
293
     1
141
0.0
294
     1
177
     0
142
1.0
295
     0
296
     0
143
0.125
271
     0
272
     9
273
     9
  0
MLINESTYLE
  5
60
102
{ACAD_REACTORS
330
5F
102
}
330
5F
100
AcDbMlineStyle
  2
STANDARD
 70
     0
  3

 62
   256
 51
90.0
 52
90.0
 71
     2
 49
0.5
 62
   256
  6
BYLAYER
 49
-0.5
 62
   256
  6
BYLAYER
  0
ACDBPLACEHOLDER
  5
F
102
{ACAD_REACTORS
330
E
102
}
330
E
  0
SCALE
  5
43
102
{ACAD_REACTORS
330
42
102
}
330
42
100
AcDbScale
 70
     0
300
1:1
140
1.0
141
1.0
290
     1
  0
SCALE
  5
44
102
{ACAD_REACTORS
330
42
102
}
330
42
100
AcDbScale
 70
     0
300
1/128" = 1'-0"
140
0.0078125
141
12.0
290
     0
  0
SCALE
  5
45
102
{ACAD_REACTORS
330
42
102
}
330
42
100
AcDbScale
 70
     0
300
1/64" = 1'-0"
140
0.015625
141
12.0
290
     0
  0
SCALE
  5
46
102
{ACAD_REACTORS
330
42
102
}
330
42
100
AcDbScale
 70
     0
300
1/32" = 1'-0"
140
0.03125
141
12.0
290
     0
  0
SCALE
  5
47
102
{ACAD_REACTORS
330
42
102
}
330
42
100
AcDbScale
 70
     0
300
1/16" = 1'-0"
140
0.0625
141
12.0
290
     0
  0
SCALE
  5
48
102
{ACAD_REACTORS
330
42
102
}
330
42
100
AcDbScale
 70
     0
300
3/32" = 1'-0"
140
0.09375
141
12.0
290
     0
  0
SCALE
  5
49
102
{ACAD_REACTORS
330
42
102
}
330
42
100
AcDbScale
 70
     0
300
1/8" = 1'-0"
140
0.125
141
12.0
290
     0
  0
SCALE
  5
4A
102
{ACAD_REACTORS
330
42
102
}
330
42
100
AcDbScale
 70
     0
300
3/16" = 1'-0"
140
0.1875
141
12.0
290
     0
  0
SCALE
  5
4B
102
{ACAD_REACTORS
330
42
102
}
330
42
100
AcDbScale
 70
     0
300
1/4" = 1'-0"
140
0.25
141
12.0
290
     0
  0
SCALE
  5
4C
102
{ACAD_REACTORS
330
42
102
}
330
42
100
AcDbScale
 70
     0
300
3/8" = 1'-0"
140
0.375
141
12.0
290
     0
  0
SCALE
  5
4D
102
{ACAD_REACTORS
330
42
102
}
330
42
100
AcDbScale
 70
     0
300
1/2" = 1'-0"
140
0.5
141
12.0
290
     0
  0
SCALE
  5
4E
102
{ACAD_REACTORS
330
42
102
}
330
42
100
AcDbScale
 70
     0
300
3/4" = 1'-0"
140
0.75
141
12.0
290
     0
  0
SCALE
  5
4F
102
{ACAD_REACTORS
330
42
102
}
330
42
100
AcDbScale
 70
     0
300
1" = 1'-0"
140
1.0
141
12.0
290
     0
  0
SCALE
  5
50
102
{ACAD_REACTORS
330
42
102
}
330
42
100
AcDbScale
 70
     0
300
1-1/2" = 1'-0"
140
1.5
141
12.0
290
     0
  0
SCALE
  5
51
102
{ACAD_REACTORS
330
42
102
}
330
42
100
AcDbScale
 70
     0
300
3" = 1'-0"
140
3.0
141
12.0
290
     0
  0
SCALE
  5
52
102
{ACAD_REACTORS
330
42
102
}
330
42
100
AcDbScale
 70
     0
300
6" = 1'-0"
140
6.0
141
12.0
290
     0
  0
SCALE
  5
53
102
{ACAD_REACTORS
330
42
102
}
330
42
100
AcDbScale
 70
     0
300
1'-0" = 1'-0"
140
12.0
141
12.0
290
     0
  0
ACDBSECTIONVIEWSTYLE
  5
69
102
{ACAD_XDICTIONARY
360
13E
102
}
102
{ACAD_REACTORS
330
68
102
}
330
68
100
AcDbModelDocViewStyle
 70
     0
  3
Imperial24
290
     0
100
AcDbSectionViewStyle
 70
     0
 71
     0
 90
       78
 71
     1
340
55
 62
   256
 40
0.24
340
0
340
0
 62
   256
 40
0.24
300
I, O, Q, S, X, Z
 40
0.48
 90
        3
 40
0.18
 90
        1
 71
     2
340
5D
 90
       25
 62
   256
340
5D
 90
       50
 62
   256
 40
0.24
 40
0.0
 40
0.24
 71
     3
340
55
 62
   256
 40
0.24
 90
        1
 40
0.75
 90
        1
300
%<\AcVar ViewType \f "%tc1">% %<\AcVar ViewSectionStartId>%-%<\AcVar ViewSectionEndId>%\PSCALE %<\AcVar ViewScale \f "%sn">%
 71
     4
 62
   256
 62
   257
300
ANSI31
 40
1.0
 90
        0
290
     0
290
     0
 90
        6
 40
0.0
 40
1.570796326794896
 40
0.2617993877991494
 40
1.308996938995747
 40
-0.2617993877991494
 40
1.832595714594046
  0
TABLESTYLE
  5
65
102
{ACAD_XDICTIONARY
360
109
102
}
102
{ACAD_REACTORS
330
64
102
}
330
64
100
AcDbTableStyle
280
     0
  3
Standard
 70
     0
 71
     0
 40
0.06
 41
0.06
280
     0
281
     0
  7
Standard
140
0.18
170
     2
 62
     0
 63
     7
283
     0
 90
      512
 91
        0
  1

274
    -2
284
     1
 64
     0
275
    -2
285
     1
 65
     0
276
    -2
286
     1
 66
     0
277
    -2
287
     1
 67
     0
278
    -2
288
     1
 68
     0
279
    -2
289
     1
 69
     0
  7
Standard
140
0.25
170
     5
 62
     0
 63
     7
283
     0
 90
      512
 91
        0
  1

274
    -2
284
     1
 64
     0
275
    -2
285
     1
 65
     0
276
    -2
286
     1
 66
     0
277
    -2
287
     1
 67
     0
278
    -2
288
     1
 68
     0
279
    -2
289
     1
 69
     0
  7
Standard
140
0.18
170
     5
 62
     0
 63
     7
283
     0
 90
      512
 91
        0
  1

274
    -2
284
     1
 64
     0
275
    -2
285
     1
 65
     0
276
    -2
286
     1
 66
     0
277
    -2
287
     1
 67
     0
278
    -2
288
     1
 68
     0
279
    -2
289
     1
 69
     0
  0
VISUALSTYLE
  5
2F
102
{ACAD_XDICTIONARY
360
116
102
}
102
{ACAD_REACTORS
330
29
102
}
330
29
100
AcDbVisualStyle
  2
2dWireframe
 70
     4
177
     2
291
     0
 71
     0
176
     1
 72
     2
176
     1
 73
     0
176
     1
 90
        0
176
     1
 40
0.6
176
     1
 41
30.0
176
     1
 63
     7
421
 16777215
176
     1
 74
     1
176
     1
 91
        4
176
     1
 64
     7
176
     1
 65
   257
176
     1
 75
     1
176
     1
175
     1
176
     1
 42
1.0
176
     1
 92
        0
176
     1
 66
   257
176
     1
 43
1.0
176
     1
 76
     1
176
     1
 77
     6
176
     1
 78
     2
176
     1
 67
     7
176
     1
 79
     5
176
     1
170
     0
176
     1
171
     0
176
     1
290
     0
176
     1
 93
        1
176
     1
 44
0.0
176
     1
173
     0
176
     1
1001
ACAD
1000
AcDbSavedByObjectVersion
1070
     0
  0
VISUALSTYLE
  5
2E
102
{ACAD_XDICTIONARY
360
114
102
}
102
{ACAD_REACTORS
330
29
102
}
330
29
100
AcDbVisualStyle
  2
Basic
 70
     7
177
     2
291
     1
 71
     1
176
     1
 72
     0
176
     1
 73
     1
176
     1
 90
        0
176
     1
 40
0.6
176
     1
 41
30.0
176
     1
 63
     7
421
 16777215
176
     1
 74
     0
176
     1
 91
        4
176
     1
 64
     7
176
     1
 65
   257
176
     1
 75
     1
176
     1
175
     1
176
     1
 42
1.0
176
     1
 92
        8
176
     1
 66
     7
176
     1
 43
1.0
176
     1
 76
     1
176
     1
 77
     6
176
     1
 78
     2
176
     1
 67
     7
176
     1
 79
     5
176
     1
170
     0
176
     1
171
     0
176
     1
290
     0
176
     1
 93
        1
176
     1
 44
0.0
176
     1
173
     0
176
     1
1001
ACAD
1000
AcDbSavedByObjectVersion
1070
     0
  0
VISUALSTYLE
  5
35
102
{ACAD_XDICTIONARY
360
122
102
}
102
{ACAD_REACTORS
330
29
102
}
330
29
100
AcDbVisualStyle
  2
Brighten
 70
    12
177
     2
291
     1
 71
     2
176
     1
 72
     2
176
     1
 73
     0
176
     1
 90
        0
176
     1
 40
0.6
176
     1
 41
30.0
176
     1
 63
     7
421
 16777215
176
     1
 74
     1
176
     1
 91
        4
176
     1
 64
     7
176
     1
 65
   257
176
     1
 75
     1
176
     1
175
     1
176
     1
 42
1.0
176
     1
 92
        8
176
     1
 66
     7
176
     1
 43
1.0
176
     1
 76
     1
176
     1
 77
     6
176
     1
 78
     2
176
     1
 67
     7
176
     1
 79
     5
176
     1
170
     0
176
     1
171
     0
176
     1
290
     0
176
     1
 93
        1
176
     1
 44
50.0
176
     1
173
     0
176
     1
1001
ACAD
1000
AcDbSavedByObjectVersion
1070
     0
  0
VISUALSTYLE
  5
39
102
{ACAD_XDICTIONARY
360
12A
102
}
102
{ACAD_REACTORS
330
29
102
}
330
29
100
AcDbVisualStyle
  2
ColorChange
 70
    16
177
     2
291
     1
 71
     2
176
     1
 72
     2
176
     1
 73
     3
176
     1
 90
        0
176
     1
 40
0.6
176
     1
 41
30.0
176
     1
 63
     8
421
  8421504
176
     1
 74
     1
176
     1
 91
        4
176
     1
 64
     7
176
     1
 65
   257
176
     1
 75
     1
176
     1
175
     1
176
     1
 42
1.0
176
     1
 92
        8
176
     1
 66
     8
424
  8421504
176
     1
 43
1.0
176
     1
 76
     1
176
     1
 77
     6
176
     1
 78
     2
176
     1
 67
     7
176
     1
 79
     5
176
     1
170
     0
176
     1
171
     0
176
     1
290
     0
176
     1
 93
        1
176
     1
 44
0.0
176
     1
173
     0
176
     1
1001
ACAD
1000
AcDbSavedByObjectVersion
1070
     0
  0
VISUALSTYLE
  5
32
102
{ACAD_XDICTIONARY
360
11C
102
}
102
{ACAD_REACTORS
330
29
102
}
330
29
100
AcDbVisualStyle
  2
Conceptual
 70
     9
177
     2
291
     0
 71
     3
176
     1
 72
     2
176
     1
 73
     0
176
     1
 90
        0
176
     1
 40
0.6
176
     1
 41
30.0
176
     1
 63
     7
421
 16777215
176
     1
 74
     2
176
     1
 91
        2
176
     1
 64
     7
176
     1
 65
   257
176
     1
 75
     1
176
     1
175
     1
176
     1
 42
179.0
176
     1
 92
        8
176
     1
 66
     7
176
     1
 43
1.0
176
     1
 76
     1
176
     1
 77
     6
176
     1
 78
     2
176
     1
 67
     7
176
     1
 79
     3
176
     1
170
     0
176
     1
171
     0
176
     1
290
     0
176
     1
 93
        1
176
     1
 44
0.0
176
     1
173
     0
176
     1
1001
ACAD
1000
AcDbSavedByObjectVersion
1070
     0
  0
VISUALSTYLE
  5
34
102
{ACAD_XDICTIONARY
360
120
102
}
102
{ACAD_REACTORS
330
29
102
}
330
29
100
AcDbVisualStyle
  2
Dim
 70
    11
177
     2
291
     1
 71
     2
176
     1
 72
     2
176
     1
 73
     0
176
     1
 90
        0
176
     1
 40
0.6
176
     1
 41
30.0
176
     1
 63
     7
421
 16777215
176
     1
 74
     1
176
     1
 91
        4
176
     1
 64
     7
176
     1
 65
   257
176
     1
 75
     1
176
     1
175
     1
176
     1
 42
1.0
176
     1
 92
        8
176
     1
 66
     7
176
     1
 43
1.0
176
     1
 76
     1
176
     1
 77
     6
176
     1
 78
     2
176
     1
 67
     7
176
     1
 79
     5
176
     1
170
     0
176
     1
171
     0
176
     1
290
     0
176
     1
 93
        1
176
     1
 44
-50.0
176
     1
173
     0
176
     1
1001
ACAD
1000
AcDbSavedByObjectVersion
1070
     0
  0
VISUALSTYLE
  5
41
102
{ACAD_XDICTIONARY
360
13A
102
}
102
{ACAD_REACTORS
330
29
102
}
330
29
100
AcDbVisualStyle
  2
EdgeColorOff
 70
    22
177
     2
291
     1
 71
     2
176
     0
 72
     2
176
     0
 73
     0
176
     0
 90
        0
176
     0
 40
0.6
176
     0
 41
30.0
176
     0
 63
     7
421
 16777215
176
     0
 74
     1
176
     0
 91
        4
176
     0
 64
     7
176
     0
 65
   257
176
     0
 75
     1
176
     0
175
     1
176
     0
 42
1.0
176
     0
 92
        8
176
     2
 66
     7
176
     0
 43
1.0
176
     0
 76
     1
176
     0
 77
     6
176
     0
 78
     2
176
     0
 67
     7
176
     0
 79
     5
176
     0
170
     0
176
     0
171
     0
176
     0
290
     0
176
     0
 93
        1
176
     0
 44
0.0
176
     0
173
     0
176
     0
1001
ACAD
1000
AcDbSavedByObjectVersion
1070
     0
  0
VISUALSTYLE
  5
38
102
{ACAD_XDICTIONARY
360
128
102
}
102
{ACAD_REACTORS
330
29
102
}
330
29
100
AcDbVisualStyle
  2
Facepattern
 70
    15
177
     2
291
     1
 71
     2
176
     1
 72
     2
176
     1
 73
     0
176
     1
 90
        0
176
     1
 40
0.6
176
     1
 41
30.0
176
     1
 63
     7
421
 16777215
176
     1
 74
     1
176
     1
 91
        4
176
     1
 64
     7
176
     1
 65
   257
176
     1
 75
     1
176
     1
175
     1
176
     1
 42
1.0
176
     1
 92
        8
176
     1
 66
     7
176
     1
 43
1.0
176
     1
 76
     1
176
     1
 77
     6
176
     1
 78
     2
176
     1
 67
     7
176
     1
 79
     5
176
     1
170
     0
176
     1
171
     0
176
     1
290
     0
176
     1
 93
        1
176
     1
 44
0.0
176
     1
173
     0
176
     1
1001
ACAD
1000
AcDbSavedByObjectVersion
1070
     0
  0
VISUALSTYLE
  5
2A
102
{ACAD_XDICTIONARY
360
10C
102
}
102
{ACAD_REACTORS
330
29
102
}
330
29
100
AcDbVisualStyle
  2
Flat
 70
     0
177
     2
291
     1
 71
     2
176
     1
 72
     1
176
     1
 73
     1
176
     1
 90
        2
176
     1
 40
0.6
176
     1
 41
30.0
176
     1
 63
     7
421
 16777215
176
     1
 74
     0
176
     1
 91
        0
176
     1
 64
     7
176
     1
 65
   257
176
     1
 75
     1
176
     1
175
     1
176
     1
 42
1.0
176
     1
 92
        8
176
     1
 66
     7
176
     1
 43
1.0
176
     1
 76
     1
176
     1
 77
     6
176
     1
 78
     2
176
     1
 67
     7
176
     1
 79
     5
176
     1
170
     0
176
     1
171
     0
176
     1
290
     0
176
     1
 93
       13
176
     1
 44
0.0
176
     1
173
     0
176
     1
1001
ACAD
1000
AcDbSavedByObjectVersion
1070
     0
  0
VISUALSTYLE
  5
2B
102
{ACAD_XDICTIONARY
360
10E
102
}
102
{ACAD_REACTORS
330
29
102
}
330
29
100
AcDbVisualStyle
  2
FlatWithEdges
 70
     1
177
     2
291
     1
 71
     2
176
     1
 72
     1
176
     1
 73
     1
176
     1
 90
        2
176
     1
 40
0.6
176
     1
 41
30.0
176
     1
 63
     7
421
 16777215
176
     1
 74
     1
176
     1
 91
        0
176
     1
 64
     7
176
     1
 65
   257
176
     1
 75
     1
176
     1
175
     1
176
     1
 42
1.0
176
     1
 92
        0
176
     1
 66
   257
176
     1
 43
1.0
176
     1
 76
     1
176
     1
 77
     6
176
     1
 78
     2
176
     1
 67
     7
176
     1
 79
     5
176
     1
170
     0
176
     1
171
     0
176
     1
290
     0
176
     1
 93
       13
176
     1
 44
0.0
176
     1
173
     0
176
     1
1001
ACAD
1000
AcDbSavedByObjectVersion
1070
     0
  0
VISUALSTYLE
  5
2C
102
{ACAD_XDICTIONARY
360
110
102
}
102
{ACAD_REACTORS
330
29
102
}
330
29
100
AcDbVisualStyle
  2
Gouraud
 70
     2
177
     2
291
     1
 71
     2
176
     1
 72
     2
176
     1
 73
     1
176
     1
 90
        2
176
     1
 40
0.6
176
     1
 41
30.0
176
     1
 63
     7
421
 16777215
176
     1
 74
     0
176
     1
 91
        0
176
     1
 64
     7
176
     1
 65
   257
176
     1
 75
     1
176
     1
175
     1
176
     1
 42
1.0
176
     1
 92
        0
176
     1
 66
     7
176
     1
 43
1.0
176
     1
 76
     1
176
     1
 77
     6
176
     1
 78
     2
176
     1
 67
     7
176
     1
 79
     5
176
     1
170
     0
176
     1
171
     0
176
     1
290
     0
176
     1
 93
       13
176
     1
 44
0.0
176
     1
173
     0
176
     1
1001
ACAD
1000
AcDbSavedByObjectVersion
1070
     0
  0
VISUALSTYLE
  5
2D
102
{ACAD_XDICTIONARY
360
112
102
}
102
{ACAD_REACTORS
330
29
102
}
330
29
100
AcDbVisualStyle
  2
GouraudWithEdges
 70
     3
177
     2
291
     1
 71
     2
176
     1
 72
     2
176
     1
 73
     1
176
     1
 90
        2
176
     1
 40
0.6
176
     1
 41
30.0
176
     1
 63
     7
421
 16777215
176
     1
 74
     1
176
     1
 91
        0
176
     1
 64
     7
176
     1
 65
   257
176
     1
 75
     1
176
     1
175
     1
176
     1
 42
1.0
176
     1
 92
        0
176
     1
 66
   257
176
     1
 43
1.0
176
     1
 76
     1
176
     1
 77
     6
176
     1
 78
     2
176
     1
 67
     7
176
     1
 79
     5
176
     1
170
     0
176
     1
171
     0
176
     1
290
     0
176
     1
 93
       13
176
     1
 44
0.0
176
     1
173
     0
176
     1
1001
ACAD
1000
AcDbSavedByObjectVersion
1070
     0
  0
VISUALSTYLE
  5
31
102
{ACAD_XDICTIONARY
360
11A
102
}
102
{ACAD_REACTORS
330
29
102
}
330
29
100
AcDbVisualStyle
  2
Hidden
 70
     6
177
     2
291
     0
 71
     1
176
     1
 72
     2
176
     1
 73
     2
176
     1
 90
        0
176
     1
 40
0.6
176
     1
 41
30.0
176
     1
 63
     7
421
 16777215
176
     1
 74
     2
176
     1
 91
        2
176
     1
 64
     7
176
     1
 65
   257
176
     1
 75
     2
176
     1
175
     1
176
     1
 42
40.0
176
     1
 92
        0
176
     1
 66
   257
176
     1
 43
1.0
176
     1
 76
     1
176
     1
 77
     6
176
     1
 78
     2
176
     1
 67
     7
176
     1
 79
     3
176
     1
170
     0
176
     1
171
     0
176
     1
290
     0
176
     1
 93
        1
176
     1
 44
0.0
176
     1
173
     0
176
     1
1001
ACAD
1000
AcDbSavedByObjectVersion
1070
     0
  0
VISUALSTYLE
  5
3F
102
{ACAD_XDICTIONARY
360
136
102
}
102
{ACAD_REACTORS
330
29
102
}
330
29
100
AcDbVisualStyle
  2
JitterOff
 70
    20
177
     2
291
     1
 71
     2
176
     0
 72
     2
176
     0
 73
     0
176
     0
 90
        0
176
     0
 40
0.6
176
     0
 41
30.0
176
     0
 63
     7
421
 16777215
176
     0
 74
     1
176
     0
 91
        4
176
     0
 64
     7
176
     0
 65
   257
176
     0
 75
     1
176
     0
175
     1
176
     0
 42
1.0
176
     0
 92
       10
176
     2
 66
     7
176
     0
 43
1.0
176
     0
 76
     1
176
     0
 77
     6
176
     0
 78
     2
176
     0
 67
     7
176
     0
 79
     5
176
     0
170
     0
176
     0
171
     0
176
     0
290
     0
176
     0
 93
        1
176
     0
 44
0.0
176
     0
173
     0
176
     0
1001
ACAD
1000
AcDbSavedByObjectVersion
1070
     0
  0
VISUALSTYLE
  5
37
102
{ACAD_XDICTIONARY
360
126
102
}
102
{ACAD_REACTORS
330
29
102
}
330
29
100
AcDbVisualStyle
  2
Linepattern
 70
    14
177
     2
291
     1
 71
     2
176
     1
 72
     2
176
     1
 73
     0
176
     1
 90
        0
176
     1
 40
0.6
176
     1
 41
30.0
176
     1
 63
     7
421
 16777215
176
     1
 74
     1
176
     1
 91
        4
176
     1
 64
     7
176
     1
 65
   257
176
     1
 75
     7
176
     1
175
     7
176
     1
 42
1.0
176
     1
 92
        8
176
     1
 66
     7
176
     1
 43
1.0
176
     1
 76
     1
176
     1
 77
     6
176
     1
 78
     2
176
     1
 67
     7
176
     1
 79
     5
176
     1
170
     0
176
     1
171
     0
176
     1
290
     0
176
     1
 93
        1
176
     1
 44
0.0
176
     1
173
     0
176
     1
1001
ACAD
1000
AcDbSavedByObjectVersion
1070
     0
  0
VISUALSTYLE
  5
40
102
{ACAD_XDICTIONARY
360
138
102
}
102
{ACAD_REACTORS
330
29
102
}
330
29
100
AcDbVisualStyle
  2
OverhangOff
 70
    21
177
     2
291
     1
 71
     2
176
     0
 72
     2
176
     0
 73
     0
176
     0
 90
        0
176
     0
 40
0.6
176
     0
 41
30.0
176
     0
 63
     7
421
 16777215
176
     0
 74
     1
176
     0
 91
        4
176
     0
 64
     7
176
     0
 65
   257
176
     0
 75
     1
176
     0
175
     1
176
     0
 42
1.0
176
     0
 92
        9
176
     2
 66
     7
176
     0
 43
1.0
176
     0
 76
     1
176
     0
 77
     6
176
     0
 78
     2
176
     0
 67
     7
176
     0
 79
     5
176
     0
170
     0
176
     0
171
     0
176
     0
290
     0
176
     0
 93
        1
176
     0
 44
0.0
176
     0
173
     0
176
     0
1001
ACAD
1000
AcDbSavedByObjectVersion
1070
     0
  0
VISUALSTYLE
  5
33
102
{ACAD_XDICTIONARY
360
11E
102
}
102
{ACAD_REACTORS
330
29
102
}
330
29
100
AcDbVisualStyle
  2
Realistic
 70
     8
177
     2
291
     0
 71
     2
176
     1
 72
     3
176
     1
 73
     0
176
     1
 90
        2
176
     1
 40
0.6
176
     1
 41
30.0
176
     1
 63
     7
421
 16777215
176
     1
 74
     0
176
     1
 91
        0
176
     1
 64
     7
176
     1
 65
   257
176
     1
 75
     1
176
     1
175
     1
176
     1
 42
1.0
176
     1
 92
        8
176
     1
 66
   257
176
     1
 43
1.0
176
     1
 76
     1
176
     1
 77
     6
176
     1
 78
     2
176
     1
 67
     7
176
     1
 79
     3
176
     1
170
     0
176
     1
171
     0
176
     1
290
     0
176
     1
 93
       13
176
     1
 44
0.0
176
     1
173
     0
176
     1
1001
ACAD
1000
AcDbSavedByObjectVersion
1070
     0
  0
VISUALSTYLE
  5
3E
102
{ACAD_XDICTIONARY
360
134
102
}
102
{ACAD_REACTORS
330
29
102
}
330
29
100
AcDbVisualStyle
  2
Shaded
 70
    27
177
     2
291
     0
 71
     2
176
     1
 72
     2
176
     1
 73
     1
176
     1
 90
        2
176
     1
 40
0.6
176
     1
 41
30.0
176
     1
 63
     7
421
 16777215
176
     1
 74
     0
176
     1
 91
        4
176
     1
 64
     7
176
     1
 65
   257
176
     1
 75
     1
176
     1
175
     1
176
     1
 42
1.0
176
     1
 92
        8
176
     1
 66
   257
176
     1
 43
1.0
176
     1
 76
     1
176
     1
 77
     6
176
     1
 78
     2
176
     1
 67
     8
425
  7895160
176
     1
 79
     3
176
     1
170
     0
176
     1
171
     0
176
     1
290
     0
176
     1
 93
        5
176
     1
 44
0.0
176
     1
173
     0
176
     1
1001
ACAD
1000
AcDbSavedByObjectVersion
1070
     0
  0
VISUALSTYLE
  5
3D
102
{ACAD_XDICTIONARY
360
132
102
}
102
{ACAD_REACTORS
330
29
102
}
330
29
100
AcDbVisualStyle
  2
Shaded with edges
 70
    26
177
     2
291
     0
 71
     2
176
     1
 72
     2
176
     1
 73
     1
176
     1
 90
        2
176
     1
 40
0.6
176
     1
 41
30.0
176
     1
 63
     7
421
 16777215
176
     1
 74
     1
176
     1
 91
        2
176
     1
 64
     7
176
     1
 65
   257
176
     1
 75
     2
176
     1
175
     1
176
     1
 42
1.0
176
     1
 92
        8
176
     1
 66
   257
176
     1
 43
1.0
176
     1
 76
     1
176
     1
 77
     6
176
     1
 78
     2
176
     1
 67
     7
176
     1
 79
     3
176
     1
170
     0
176
     1
171
     0
176
     1
290
     0
176
     1
 93
        5
176
     1
 44
0.0
176
     1
173
     0
176
     1
1001
ACAD
1000
AcDbSavedByObjectVersion
1070
     0
  0
VISUALSTYLE
  5
3A
102
{ACAD_XDICTIONARY
360
12C
102
}
102
{ACAD_REACTORS
330
29
102
}
330
29
100
AcDbVisualStyle
  2
Shades of Gray
 70
    23
177
     2
291
     0
 71
     2
176
     1
 72
     2
176
     1
 73
     3
176
     1
 90
        0
176
     1
 40
0.6
176
     1
 41
30.0
176
     1
 63
     7
421
 16777215
176
     1
 74
     2
176
     1
 91
        2
176
     1
 64
     7
176
     1
 65
     7
176
     1
 75
     1
176
     1
175
     1
176
     1
 42
40.0
176
     1
 92
        8
176
     1
 66
     7
176
     1
 43
1.0
176
     1
 76
     1
176
     1
 77
     6
176
     1
 78
     2
176
     1
 67
     7
176
     1
 79
     3
176
     1
170
     0
176
     1
171
     0
176
     1
290
     0
176
     1
 93
        1
176
     1
 44
0.0
176
     1
173
     0
176
     1
1001
ACAD
1000
AcDbSavedByObjectVersion
1070
     0
  0
VISUALSTYLE
  5
3B
102
{ACAD_XDICTIONARY
360
12E
102
}
102
{ACAD_REACTORS
330
29
102
}
330
29
100
AcDbVisualStyle
  2
Sketchy
 70
    24
177
     2
291
     0
 71
     1
176
     1
 72
     2
176
     1
 73
     2
176
     1
 90
        0
176
     1
 40
0.6
176
     1
 41
30.0
176
     1
 63
     7
421
 16777215
176
     1
 74
     2
176
     1
 91
        2
176
     1
 64
     7
176
     1
 65
     7
176
     1
 75
     1
176
     1
175
     1
176
     1
 42
40.0
176
     1
 92
       11
176
     1
 66
     7
176
     1
 43
1.0
176
     1
 76
     1
176
     1
 77
     6
176
     1
 78
     2
176
     1
 67
     7
176
     1
 79
     6
176
     1
170
     0
176
     1
171
     0
176
     1
290
     0
176
     1
 93
        1
176
     1
 44
0.0
176
     1
173
     0
176
     1
1001
ACAD
1000
AcDbSavedByObjectVersion
1070
     0
  0
VISUALSTYLE
  5
36
102
{ACAD_XDICTIONARY
360
124
102
}
102
{ACAD_REACTORS
330
29
102
}
330
29
100
AcDbVisualStyle
  2
Thicken
 70
    13
177
     2
291
     1
 71
     2
176
     1
 72
     2
176
     1
 73
     0
176
     1
 90
        0
176
     1
 40
0.6
176
     1
 41
30.0
176
     1
 63
     7
421
 16777215
176
     1
 74
     1
176
     1
 91
        4
176
     1
 64
     7
176
     1
 65
   257
176
     1
 75
     1
176
     1
175
     1
176
     1
 42
1.0
176
     1
 92
       12
176
     1
 66
     7
176
     1
 43
1.0
176
     1
 76
     1
176
     1
 77
     6
176
     1
 78
     2
176
     1
 67
     7
176
     1
 79
     5
176
     1
170
     0
176
     1
171
     0
176
     1
290
     0
176
     1
 93
        1
176
     1
 44
0.0
176
     1
173
     0
176
     1
1001
ACAD
1000
AcDbSavedByObjectVersion
1070
     0
  0
VISUALSTYLE
  5
30
102
{ACAD_XDICTIONARY
360
118
102
}
102
{ACAD_REACTORS
330
29
102
}
330
29
100
AcDbVisualStyle
  2
Wireframe
 70
     5
177
     2
291
     0
 71
     0
176
     1
 72
     2
176
     1
 73
     0
176
     1
 90
        0
176
     1
 40
0.6
176
     1
 41
30.0
176
     1
 63
     7
421
 16777215
176
     1
 74
     1
176
     1
 91
        4
176
     1
 64
     7
176
     1
 65
   257
176
     1
 75
     1
176
     1
175
     1
176
     1
 42
1.0
176
     1
 92
        0
176
     1
 66
   257
176
     1
 43
1.0
176
     1
 76
     1
176
     1
 77
     6
176
     1
 78
     2
176
     1
 67
     7
176
     1
 79
     3
176
     1
170
     0
176
     1
171
     0
176
     1
290
     0
176
     1
 93
        1
176
     1
 44
0.0
176
     1
173
     0
176
     1
1001
ACAD
1000
AcDbSavedByObjectVersion
1070
     0
  0
VISUALSTYLE
  5
3C
102
{ACAD_XDICTIONARY
360
130
102
}
102
{ACAD_REACTORS
330
29
102
}
330
29
100
AcDbVisualStyle
  2
X-Ray
 70
    25
177
     2
291
     0
 71
     2
176
     1
 72
     2
176
     1
 73
     1
176
     1
 90
        1
176
     1
 40
0.5
176
     1
 41
30.0
176
     1
 63
     7
421
 16777215
176
     1
 74
     1
176
     1
 91
        0
176
     1
 64
     7
176
     1
 65
   257
176
     1
 75
     1
176
     1
175
     1
176
     1
 42
1.0
176
     1
 92
        8
176
     1
 66
     7
176
     1
 43
1.0
176
     1
 76
     1
176
     1
 77
     6
176
     1
 78
     2
176
     1
 67
     7
176
     1
 79
     3
176
     1
170
     0
176
     1
171
     0
176
     1
290
     0
176
     1
 93
       13
176
     1
 44
0.0
176
     1
173
     0
176
     1
1001
ACAD
1000
AcDbSavedByObjectVersion
1070
     0
  0
DICTIONARYVAR
  5
108
102
{ACAD_REACTORS
330
103
102
}
330
103
100
DictionaryVariables
280
     0
  1
1:1
  0
DICTIONARYVAR
  5
105
102
{ACAD_REACTORS
330
103
102
}
330
103
100
DictionaryVariables
280
     0
  1
STANDARD
  0
DICTIONARYVAR
  5
104
102
{ACAD_REACTORS
330
103
102
}
330
103
100
DictionaryVariables
280
     0
  1
STANDARD
  0
DICTIONARYVAR
  5
106
102
{ACAD_REACTORS
330
103
102
}
330
103
100
DictionaryVariables
280
     0
  1
Imperial24
  0
DICTIONARYVAR
  5
107
102
{ACAD_REACTORS
330
103
102
}
330
103
100
DictionaryVariables
280
     0
  1
Imperial24
  0
DICTIONARY
  5
140
330
6B
100
AcDbDictionary
280
     1
281
     1
  3
ACAD_XREC_ROUNDTRIP
360
141
  0
DICTIONARY
  5
1A
330
19
100
AcDbDictionary
280
     1
281
     1
  3
BUMPTILE
360
1C
  3
DIFFUSETILE
360
1B
  3
OPACITYTILE
360
1F
  3
REFLECTIONTILE
360
1E
  3
REFRACTIONTILE
360
20
  3
SPECULARTILE
360
1D
  0
DICTIONARY
  5
12
330
11
100
AcDbDictionary
280
     1
281
     1
  3
BUMPTILE
360
14
  3
DIFFUSETILE
360
13
  3
OPACITYTILE
360
17
  3
REFLECTIONTILE
360
16
  3
REFRACTIONTILE
360
18
  3
SPECULARTILE
360
15
  0
DICTIONARY
  5
22
330
21
100
AcDbDictionary
280
     1
281
     1
  3
BUMPTILE
360
24
  3
DIFFUSETILE
360
23
  3
OPACITYTILE
360
27
  3
REFLECTIONTILE
360
26
  3
REFRACTIONTILE
360
28
  3
SPECULARTILE
360
25
  0
DICTIONARY
  5
13C
330
67
100
AcDbDictionary
280
     1
281
     1
  3
ACAD_XREC_ROUNDTRIP
360
13D
  0
DICTIONARY
  5
13E
330
69
100
AcDbDictionary
280
     1
281
     1
  3
ACAD_XREC_ROUNDTRIP
360
13F
  0
DICTIONARY
  5
109
330
65
100
AcDbDictionary
280
     1
281
     1
  3
ACAD_ROUNDTRIP_2008_TABLESTYLE_CELLSTYLEMAP
360
10A
  0
DICTIONARY
  5
116
330
2F
100
AcDbDictionary
280
     1
281
     1
  3
ACAD_XREC_ROUNDTRIP
360
117
  0
DICTIONARY
  5
114
330
2E
100
AcDbDictionary
280
     1
281
     1
  3
ACAD_XREC_ROUNDTRIP
360
115
  0
DICTIONARY
  5
122
330
35
100
AcDbDictionary
280
     1
281
     1
  3
ACAD_XREC_ROUNDTRIP
360
123
  0
DICTIONARY
  5
12A
330
39
100
AcDbDictionary
280
     1
281
     1
  3
ACAD_XREC_ROUNDTRIP
360
12B
  0
DICTIONARY
  5
11C
330
32
100
AcDbDictionary
280
     1
281
     1
  3
ACAD_XREC_ROUNDTRIP
360
11D
  0
DICTIONARY
  5
120
330
34
100
AcDbDictionary
280
     1
281
     1
  3
ACAD_XREC_ROUNDTRIP
360
121
  0
DICTIONARY
  5
13A
330
41
100
AcDbDictionary
280
     1
281
     1
  3
ACAD_XREC_ROUNDTRIP
360
13B
  0
DICTIONARY
  5
128
330
38
100
AcDbDictionary
280
     1
281
     1
  3
ACAD_XREC_ROUNDTRIP
360
129
  0
DICTIONARY
  5
10C
330
2A
100
AcDbDictionary
280
     1
281
     1
  3
ACAD_XREC_ROUNDTRIP
360
10D
  0
DICTIONARY
  5
10E
330
2B
100
AcDbDictionary
280
     1
281
     1
  3
ACAD_XREC_ROUNDTRIP
360
10F
  0
DICTIONARY
  5
110
330
2C
100
AcDbDictionary
280
     1
281
     1
  3
ACAD_XREC_ROUNDTRIP
360
111
  0
DICTIONARY
  5
112
330
2D
100
AcDbDictionary
280
     1
281
     1
  3
ACAD_XREC_ROUNDTRIP
360
113
  0
DICTIONARY
  5
11A
330
31
100
AcDbDictionary
280
     1
281
     1
  3
ACAD_XREC_ROUNDTRIP
360
11B
  0
DICTIONARY
  5
136
330
3F
100
AcDbDictionary
280
     1
281
     1
  3
ACAD_XREC_ROUNDTRIP
360
137
  0
DICTIONARY
  5
126
330
37
100
AcDbDictionary
280
     1
281
     1
  3
ACAD_XREC_ROUNDTRIP
360
127
  0
DICTIONARY
  5
138
330
40
100
AcDbDictionary
280
     1
281
     1
  3
ACAD_XREC_ROUNDTRIP
360
139
  0
DICTIONARY
  5
11E
330
33
100
AcDbDictionary
280
     1
281
     1
  3
ACAD_XREC_ROUNDTRIP
360
11F
  0
DICTIONARY
  5
134
330
3E
100
AcDbDictionary
280
     1
281
     1
  3
ACAD_XREC_ROUNDTRIP
360
135
  0
DICTIONARY
  5
132
330
3D
100
AcDbDictionary
280
     1
281
     1
  3
ACAD_XREC_ROUNDTRIP
360
133
  0
DICTIONARY
  5
12C
330
3A
100
AcDbDictionary
280
     1
281
     1
  3
ACAD_XREC_ROUNDTRIP
360
12D
  0
DICTIONARY
  5
12E
330
3B
100
AcDbDictionary
280
     1
281
     1
  3
ACAD_XREC_ROUNDTRIP
360
12F
  0
DICTIONARY
  5
124
330
36
100
AcDbDictionary
280
     1
281
     1
  3
ACAD_XREC_ROUNDTRIP
360
125
  0
DICTIONARY
  5
118
330
30
100
AcDbDictionary
280
     1
281
     1
  3
ACAD_XREC_ROUNDTRIP
360
119
  0
DICTIONARY
  5
130
330
3C
100
AcDbDictionary
280
     1
281
     1
  3
ACAD_XREC_ROUNDTRIP
360
131
  0
XRECORD
  5
141
102
{ACAD_REACTORS
330
140
102
}
330
140
100
AcDbXrecord
280
     1
102
DISPLAYNAME
  1
Imperial24
102
FLAGS
 90
        0
  0
XRECORD
  5
1C
102
{ACAD_REACTORS
330
1A
102
}
330
1A
100
AcDbXrecord
280
     1
270
     1
271
     1
  0
XRECORD
  5
1B
102
{ACAD_REACTORS
330
1A
102
}
330
1A
100
AcDbXrecord
280
     1
270
     1
271
     1
  0
XRECORD
  5
1F
102
{ACAD_REACTORS
330
1A
102
}
330
1A
100
AcDbXrecord
280
     1
270
     1
271
     1
  0
XRECORD
  5
1E
102
{ACAD_REACTORS
330
1A
102
}
330
1A
100
AcDbXrecord
280
     1
270
     1
271
     1
  0
XRECORD
  5
20
102
{ACAD_REACTORS
330
1A
102
}
330
1A
100
AcDbXrecord
280
     1
270
     1
271
     1
  0
XRECORD
  5
1D
102
{ACAD_REACTORS
330
1A
102
}
330
1A
100
AcDbXrecord
280
     1
270
     1
271
     1
  0
XRECORD
  5
14
102
{ACAD_REACTORS
330
12
102
}
330
12
100
AcDbXrecord
280
     1
270
     1
271
     1
  0
XRECORD
  5
13
102
{ACAD_REACTORS
330
12
102
}
330
12
100
AcDbXrecord
280
     1
270
     1
271
     1
  0
XRECORD
  5
17
102
{ACAD_REACTORS
330
12
102
}
330
12
100
AcDbXrecord
280
     1
270
     1
271
     1
  0
XRECORD
  5
16
102
{ACAD_REACTORS
330
12
102
}
330
12
100
AcDbXrecord
280
     1
270
     1
271
     1
  0
XRECORD
  5
18
102
{ACAD_REACTORS
330
12
102
}
330
12
100
AcDbXrecord
280
     1
270
     1
271
     1
  0
XRECORD
  5
15
102
{ACAD_REACTORS
330
12
102
}
330
12
100
AcDbXrecord
280
     1
270
     1
271
     1
  0
XRECORD
  5
24
102
{ACAD_REACTORS
330
22
102
}
330
22
100
AcDbXrecord
280
     1
270
     1
271
     1
  0
XRECORD
  5
23
102
{ACAD_REACTORS
330
22
102
}
330
22
100
AcDbXrecord
280
     1
270
     1
271
     1
  0
XRECORD
  5
27
102
{ACAD_REACTORS
330
22
102
}
330
22
100
AcDbXrecord
280
     1
270
     1
271
     1
  0
XRECORD
  5
26
102
{ACAD_REACTORS
330
22
102
}
330
22
100
AcDbXrecord
280
     1
270
     1
271
     1
  0
XRECORD
  5
28
102
{ACAD_REACTORS
330
22
102
}
330
22
100
AcDbXrecord
280
     1
270
     1
271
     1
  0
XRECORD
  5
25
102
{ACAD_REACTORS
330
22
102
}
330
22
100
AcDbXrecord
280
     1
270
     1
271
     1
  0
XRECORD
  5
13D
102
{ACAD_REACTORS
330
13C
102
}
330
13C
100
AcDbXrecord
280
     1
102
ACAD_ROUNDTRIP_2012_MLEADER_STYLE
298
     1
  0
XRECORD
  5
13F
102
{ACAD_REACTORS
330
13E
102
}
330
13E
100
AcDbXrecord
280
     1
102
DISPLAYNAME
  1
Imperial24
102
FLAGS
 90
        0
  0
CELLSTYLEMAP
  5
10A
102
{ACAD_REACTORS
330
109
102
}
330
109
100
AcDbCellStyleMap
 90
        3
300
CELLSTYLE
  1
TABLEFORMAT_BEGIN
 90
        5
170
     1
 91
        0
 92
    32768
 62
   257
 93
        1
300
CONTENTFORMAT
  1
CONTENTFORMAT_BEGIN
 90
        0
 91
        0
 92
      512
 93
        0
300

 40
0.0
140
1.0
 94
        5
 62
     0
340
55
144
0.25
309
CONTENTFORMAT_END
171
     0
 94
        0
309
TABLEFORMAT_END
  1
CELLSTYLE_BEGIN
 90
        1
 91
        1
300
_TITLE
309
CELLSTYLE_END
300
CELLSTYLE
  1
TABLEFORMAT_BEGIN
 90
        5
170
     1
 91
        0
 92
        0
 62
   257
 93
        1
300
CONTENTFORMAT
  1
CONTENTFORMAT_BEGIN
 90
        0
 91
        0
 92
      512
 93
        0
300

 40
0.0
140
1.0
 94
        5
 62
     0
340
55
144
0.18
309
CONTENTFORMAT_END
171
     0
 94
        0
309
TABLEFORMAT_END
  1
CELLSTYLE_BEGIN
 90
        2
 91
        1
300
_HEADER
309
CELLSTYLE_END
300
CELLSTYLE
  1
TABLEFORMAT_BEGIN
 90
        5
170
     1
 91
        0
 92
        0
 62
   257
 93
        1
300
CONTENTFORMAT
  1
CONTENTFORMAT_BEGIN
 90
        0
 91
        0
 92
      512
 93
        0
300

 40
0.0
140
1.0
 94
        2
 62
     0
340
55
144
0.18
309
CONTENTFORMAT_END
171
     0
 94
        0
309
TABLEFORMAT_END
  1
CELLSTYLE_BEGIN
 90
        3
 91
        2
300
_DATA
309
CELLSTYLE_END
  0
XRECORD
  5
117
102
{ACAD_REACTORS
330
116
102
}
330
116
100
AcDbXrecord
280
     1
102
RTVSPost2010Prop28
280
     1
102
RTVSPost2010PropOp28
 70
     1
102
RTVSPost2010Prop29
280
     1
102
RTVSPost2010PropOp29
 70
     1
102
RTVSPost2010Prop30
280
     0
102
RTVSPost2010PropOp30
 70
     1
102
RTVSPost2010Prop31
280
     0
102
RTVSPost2010PropOp31
 70
     1
102
RTVSPost2010Prop32
280
     0
102
RTVSPost2010PropOp32
 70
     1
102
RTVSPost2010Prop33
280
     0
102
RTVSPost2010PropOp33
 70
     1
102
RTVSPost2010Prop34
280
     0
102
RTVSPost2010PropOp34
 70
     1
102
RTVSPost2010Prop35
280
     0
102
RTVSPost2010PropOp35
 70
     1
102
RTVSPost2010Prop36
280
     0
102
RTVSPost2010PropOp36
 70
     1
102
RTVSPost2010Prop37
 90
       50
102
RTVSPost2010PropOp37
 70
     1
102
RTVSPost2010Prop38
140
0.0
102
RTVSPost2010PropOp38
 70
     1
102
RTVSPost2010Prop39
140
1.0
102
RTVSPost2010PropOp39
 70
     1
102
RTVSPost2010Prop40
 90
        0
102
RTVSPost2010PropOp40
 70
     1
102
RTVSPost2010Prop41ColorIndex
 90
       18
102
RTVSPost2010Prop41ColorRGB
 90
        0
102
RTVSPost2010PropOp41
 70
     1
102
RTVSPost2010Prop42
 90
       50
102
RTVSPost2010PropOp42
 70
     1
102
RTVSPost2010Prop43
 90
        3
102
RTVSPost2010PropOp43
 70
     1
102
RTVSPost2010Prop44ColorIndex
 90
        5
102
RTVSPost2010Prop44ColorRGB
 90
      255
102
RTVSPost2010PropOp44
 70
     1
102
RTVSPost2010Prop45
280
     0
102
RTVSPost2010PropOp45
 70
     1
102
RTVSPost2010Prop46
 90
       50
102
RTVSPost2010PropOp46
 70
     1
102
RTVSPost2010Prop47
 90
       50
102
RTVSPost2010PropOp47
 70
     1
102
RTVSPost2010Prop48
 90
       50
102
RTVSPost2010PropOp48
 70
     1
102
RTVSPost2010Prop49
280
     0
102
RTVSPost2010PropOp49
 70
     1
102
RTVSPost2010Prop50
 90
       50
102
RTVSPost2010PropOp50
 70
     1
102
RTVSPost2010Prop51ColorIndex
 90
      256
102
RTVSPost2010Prop51ColorRGB
 90
-16777216
102
RTVSPost2010PropOp51
 70
     0
102
RTVSPost2010Prop52
140
1.0
102
RTVSPost2010PropOp52
 70
     0
102
RTVSPost2010Prop53
 90
        2
102
RTVSPost2010PropOp53
 70
     1
102
RTVSPost2010Prop54
  1
strokes_ogs.tif
102
RTVSPost2010PropOp54
 70
     1
102
RTVSPost2010Prop55
280
     0
102
RTVSPost2010PropOp55
 70
     1
102
RTVSPost2010Prop56
140
1.0
102
RTVSPost2010PropOp56
 70
     1
102
RTVSPost2010Prop57
140
1.0
102
RTVSPost2010PropOp57
 70
     1
  0
XRECORD
  5
115
102
{ACAD_REACTORS
330
114
102
}
330
114
100
AcDbXrecord
280
     1
102
RTVSPost2010Prop28
280
     0
102
RTVSPost2010PropOp28
 70
     1
102
RTVSPost2010Prop29
280
     1
102
RTVSPost2010PropOp29
 70
     1
102
RTVSPost2010Prop30
280
     1
102
RTVSPost2010PropOp30
 70
     1
102
RTVSPost2010Prop31
280
     0
102
RTVSPost2010PropOp31
 70
     1
102
RTVSPost2010Prop32
280
     0
102
RTVSPost2010PropOp32
 70
     1
102
RTVSPost2010Prop33
280
     0
102
RTVSPost2010PropOp33
 70
     1
102
RTVSPost2010Prop34
280
     0
102
RTVSPost2010PropOp34
 70
     1
102
RTVSPost2010Prop35
280
     0
102
RTVSPost2010PropOp35
 70
     1
102
RTVSPost2010Prop36
280
     0
102
RTVSPost2010PropOp36
 70
     1
102
RTVSPost2010Prop37
 90
       50
102
RTVSPost2010PropOp37
 70
     1
102
RTVSPost2010Prop38
140
0.0
102
RTVSPost2010PropOp38
 70
     1
102
RTVSPost2010Prop39
140
1.0
102
RTVSPost2010PropOp39
 70
     1
102
RTVSPost2010Prop40
 90
        0
102
RTVSPost2010PropOp40
 70
     1
102
RTVSPost2010Prop41ColorIndex
 90
       18
102
RTVSPost2010Prop41ColorRGB
 90
        0
102
RTVSPost2010PropOp41
 70
     1
102
RTVSPost2010Prop42
 90
       50
102
RTVSPost2010PropOp42
 70
     1
102
RTVSPost2010Prop43
 90
        3
102
RTVSPost2010PropOp43
 70
     1
102
RTVSPost2010Prop44ColorIndex
 90
        5
102
RTVSPost2010Prop44ColorRGB
 90
      255
102
RTVSPost2010PropOp44
 70
     1
102
RTVSPost2010Prop45
280
     0
102
RTVSPost2010PropOp45
 70
     1
102
RTVSPost2010Prop46
 90
       50
102
RTVSPost2010PropOp46
 70
     1
102
RTVSPost2010Prop47
 90
       50
102
RTVSPost2010PropOp47
 70
     1
102
RTVSPost2010Prop48
 90
       50
102
RTVSPost2010PropOp48
 70
     1
102
RTVSPost2010Prop49
280
     0
102
RTVSPost2010PropOp49
 70
     1
102
RTVSPost2010Prop50
 90
       50
102
RTVSPost2010PropOp50
 70
     1
102
RTVSPost2010Prop51ColorIndex
 90
      256
102
RTVSPost2010Prop51ColorRGB
 90
-16777216
102
RTVSPost2010PropOp51
 70
     0
102
RTVSPost2010Prop52
140
1.0
102
RTVSPost2010PropOp52
 70
     0
102
RTVSPost2010Prop53
 90
        2
102
RTVSPost2010PropOp53
 70
     1
102
RTVSPost2010Prop54
  1
strokes_ogs.tif
102
RTVSPost2010PropOp54
 70
     1
102
RTVSPost2010Prop55
280
     0
102
RTVSPost2010PropOp55
 70
     1
102
RTVSPost2010Prop56
140
1.0
102
RTVSPost2010PropOp56
 70
     1
102
RTVSPost2010Prop57
140
1.0
102
RTVSPost2010PropOp57
 70
     1
  0
XRECORD
  5
123
102
{ACAD_REACTORS
330
122
102
}
330
122
100
AcDbXrecord
280
     1
102
RTVSPost2010Prop28
280
     0
102
RTVSPost2010PropOp28
 70
     1
102
RTVSPost2010Prop29
280
     1
102
RTVSPost2010PropOp29
 70
     1
102
RTVSPost2010Prop30
280
     1
102
RTVSPost2010PropOp30
 70
     1
102
RTVSPost2010Prop31
280
     0
102
RTVSPost2010PropOp31
 70
     1
102
RTVSPost2010Prop32
280
     0
102
RTVSPost2010PropOp32
 70
     1
102
RTVSPost2010Prop33
280
     0
102
RTVSPost2010PropOp33
 70
     1
102
RTVSPost2010Prop34
280
     0
102
RTVSPost2010PropOp34
 70
     1
102
RTVSPost2010Prop35
280
     0
102
RTVSPost2010PropOp35
 70
     1
102
RTVSPost2010Prop36
280
     0
102
RTVSPost2010PropOp36
 70
     1
102
RTVSPost2010Prop37
 90
       50
102
RTVSPost2010PropOp37
 70
     1
102
RTVSPost2010Prop38
140
0.0
102
RTVSPost2010PropOp38
 70
     1
102
RTVSPost2010Prop39
140
1.0
102
RTVSPost2010PropOp39
 70
     1
102
RTVSPost2010Prop40
 90
        0
102
RTVSPost2010PropOp40
 70
     1
102
RTVSPost2010Prop41ColorIndex
 90
       18
102
RTVSPost2010Prop41ColorRGB
 90
        0
102
RTVSPost2010PropOp41
 70
     1
102
RTVSPost2010Prop42
 90
       50
102
RTVSPost2010PropOp42
 70
     1
102
RTVSPost2010Prop43
 90
        3
102
RTVSPost2010PropOp43
 70
     1
102
RTVSPost2010Prop44ColorIndex
 90
        5
102
RTVSPost2010Prop44ColorRGB
 90
      255
102
RTVSPost2010PropOp44
 70
     1
102
RTVSPost2010Prop45
280
     0
102
RTVSPost2010PropOp45
 70
     1
102
RTVSPost2010Prop46
 90
       50
102
RTVSPost2010PropOp46
 70
     1
102
RTVSPost2010Prop47
 90
       50
102
RTVSPost2010PropOp47
 70
     1
102
RTVSPost2010Prop48
 90
       50
102
RTVSPost2010PropOp48
 70
     1
102
RTVSPost2010Prop49
280
     0
102
RTVSPost2010PropOp49
 70
     1
102
RTVSPost2010Prop50
 90
       50
102
RTVSPost2010PropOp50
 70
     1
102
RTVSPost2010Prop51ColorIndex
 90
      256
102
RTVSPost2010Prop51ColorRGB
 90
-16777216
102
RTVSPost2010PropOp51
 70
     0
102
RTVSPost2010Prop52
140
1.0
102
RTVSPost2010PropOp52
 70
     0
102
RTVSPost2010Prop53
 90
        2
102
RTVSPost2010PropOp53
 70
     1
102
RTVSPost2010Prop54
  1
strokes_ogs.tif
102
RTVSPost2010PropOp54
 70
     1
102
RTVSPost2010Prop55
280
     0
102
RTVSPost2010PropOp55
 70
     1
102
RTVSPost2010Prop56
140
1.0
102
RTVSPost2010PropOp56
 70
     1
102
RTVSPost2010Prop57
140
1.0
102
RTVSPost2010PropOp57
 70
     1
  0
XRECORD
  5
12B
102
{ACAD_REACTORS
330
12A
102
}
330
12A
100
AcDbXrecord
280
     1
102
RTVSPost2010Prop28
280
     0
102
RTVSPost2010PropOp28
 70
     1
102
RTVSPost2010Prop29
280
     1
102
RTVSPost2010PropOp29
 70
     1
102
RTVSPost2010Prop30
280
     1
102
RTVSPost2010PropOp30
 70
     1
102
RTVSPost2010Prop31
280
     0
102
RTVSPost2010PropOp31
 70
     1
102
RTVSPost2010Prop32
280
     0
102
RTVSPost2010PropOp32
 70
     1
102
RTVSPost2010Prop33
280
     0
102
RTVSPost2010PropOp33
 70
     1
102
RTVSPost2010Prop34
280
     0
102
RTVSPost2010PropOp34
 70
     1
102
RTVSPost2010Prop35
280
     0
102
RTVSPost2010PropOp35
 70
     1
102
RTVSPost2010Prop36
280
     0
102
RTVSPost2010PropOp36
 70
     1
102
RTVSPost2010Prop37
 90
       50
102
RTVSPost2010PropOp37
 70
     1
102
RTVSPost2010Prop38
140
0.0
102
RTVSPost2010PropOp38
 70
     1
102
RTVSPost2010Prop39
140
1.0
102
RTVSPost2010PropOp39
 70
     1
102
RTVSPost2010Prop40
 90
        0
102
RTVSPost2010PropOp40
 70
     1
102
RTVSPost2010Prop41ColorIndex
 90
       18
102
RTVSPost2010Prop41ColorRGB
 90
        0
102
RTVSPost2010PropOp41
 70
     1
102
RTVSPost2010Prop42
 90
       50
102
RTVSPost2010PropOp42
 70
     1
102
RTVSPost2010Prop43
 90
        3
102
RTVSPost2010PropOp43
 70
     1
102
RTVSPost2010Prop44ColorIndex
 90
        5
102
RTVSPost2010Prop44ColorRGB
 90
      255
102
RTVSPost2010PropOp44
 70
     1
102
RTVSPost2010Prop45
280
     0
102
RTVSPost2010PropOp45
 70
     1
102
RTVSPost2010Prop46
 90
       50
102
RTVSPost2010PropOp46
 70
     1
102
RTVSPost2010Prop47
 90
       50
102
RTVSPost2010PropOp47
 70
     1
102
RTVSPost2010Prop48
 90
       50
102
RTVSPost2010PropOp48
 70
     1
102
RTVSPost2010Prop49
280
     0
102
RTVSPost2010PropOp49
 70
     1
102
RTVSPost2010Prop50
 90
       50
102
RTVSPost2010PropOp50
 70
     1
102
RTVSPost2010Prop51ColorIndex
 90
      256
102
RTVSPost2010Prop51ColorRGB
 90
-16777216
102
RTVSPost2010PropOp51
 70
     0
102
RTVSPost2010Prop52
140
1.0
102
RTVSPost2010PropOp52
 70
     0
102
RTVSPost2010Prop53
 90
        2
102
RTVSPost2010PropOp53
 70
     1
102
RTVSPost2010Prop54
  1
strokes_ogs.tif
102
RTVSPost2010PropOp54
 70
     1
102
RTVSPost2010Prop55
280
     0
102
RTVSPost2010PropOp55
 70
     1
102
RTVSPost2010Prop56
140
1.0
102
RTVSPost2010PropOp56
 70
     1
102
RTVSPost2010Prop57
140
1.0
102
RTVSPost2010PropOp57
 70
     1
  0
XRECORD
  5
11D
102
{ACAD_REACTORS
330
11C
102
}
330
11C
100
AcDbXrecord
280
     1
102
RTVSPost2010Prop28
280
     0
102
RTVSPost2010PropOp28
 70
     1
102
RTVSPost2010Prop29
280
     1
102
RTVSPost2010PropOp29
 70
     1
102
RTVSPost2010Prop30
280
     1
102
RTVSPost2010PropOp30
 70
     1
102
RTVSPost2010Prop31
280
     0
102
RTVSPost2010PropOp31
 70
     1
102
RTVSPost2010Prop32
280
     0
102
RTVSPost2010PropOp32
 70
     1
102
RTVSPost2010Prop33
280
     0
102
RTVSPost2010PropOp33
 70
     1
102
RTVSPost2010Prop34
280
     0
102
RTVSPost2010PropOp34
 70
     1
102
RTVSPost2010Prop35
280
     0
102
RTVSPost2010PropOp35
 70
     1
102
RTVSPost2010Prop36
280
     0
102
RTVSPost2010PropOp36
 70
     1
102
RTVSPost2010Prop37
 90
       50
102
RTVSPost2010PropOp37
 70
     1
102
RTVSPost2010Prop38
140
0.0
102
RTVSPost2010PropOp38
 70
     1
102
RTVSPost2010Prop39
140
1.0
102
RTVSPost2010PropOp39
 70
     1
102
RTVSPost2010Prop40
 90
        0
102
RTVSPost2010PropOp40
 70
     1
102
RTVSPost2010Prop41ColorIndex
 90
       18
102
RTVSPost2010Prop41ColorRGB
 90
        0
102
RTVSPost2010PropOp41
 70
     1
102
RTVSPost2010Prop42
 90
       50
102
RTVSPost2010PropOp42
 70
     1
102
RTVSPost2010Prop43
 90
        3
102
RTVSPost2010PropOp43
 70
     1
102
RTVSPost2010Prop44ColorIndex
 90
        5
102
RTVSPost2010Prop44ColorRGB
 90
      255
102
RTVSPost2010PropOp44
 70
     1
102
RTVSPost2010Prop45
280
     0
102
RTVSPost2010PropOp45
 70
     1
102
RTVSPost2010Prop46
 90
       50
102
RTVSPost2010PropOp46
 70
     1
102
RTVSPost2010Prop47
 90
       50
102
RTVSPost2010PropOp47
 70
     1
102
RTVSPost2010Prop48
 90
       50
102
RTVSPost2010PropOp48
 70
     1
102
RTVSPost2010Prop49
280
     0
102
RTVSPost2010PropOp49
 70
     1
102
RTVSPost2010Prop50
 90
       50
102
RTVSPost2010PropOp50
 70
     1
102
RTVSPost2010Prop51ColorIndex
 90
      256
102
RTVSPost2010Prop51ColorRGB
 90
-16777216
102
RTVSPost2010PropOp51
 70
     0
102
RTVSPost2010Prop52
140
1.0
102
RTVSPost2010PropOp52
 70
     0
102
RTVSPost2010Prop53
 90
        2
102
RTVSPost2010PropOp53
 70
     1
102
RTVSPost2010Prop54
  1
strokes_ogs.tif
102
RTVSPost2010PropOp54
 70
     1
102
RTVSPost2010Prop55
280
     0
102
RTVSPost2010PropOp55
 70
     1
102
RTVSPost2010Prop56
140
1.0
102
RTVSPost2010PropOp56
 70
     1
102
RTVSPost2010Prop57
140
1.0
102
RTVSPost2010PropOp57
 70
     1
  0
XRECORD
  5
121
102
{ACAD_REACTORS
330
120
102
}
330
120
100
AcDbXrecord
280
     1
102
RTVSPost2010Prop28
280
     0
102
RTVSPost2010PropOp28
 70
     1
102
RTVSPost2010Prop29
280
     1
102
RTVSPost2010PropOp29
 70
     1
102
RTVSPost2010Prop30
280
     1
102
RTVSPost2010PropOp30
 70
     1
102
RTVSPost2010Prop31
280
     0
102
RTVSPost2010PropOp31
 70
     1
102
RTVSPost2010Prop32
280
     0
102
RTVSPost2010PropOp32
 70
     1
102
RTVSPost2010Prop33
280
     0
102
RTVSPost2010PropOp33
 70
     1
102
RTVSPost2010Prop34
280
     0
102
RTVSPost2010PropOp34
 70
     1
102
RTVSPost2010Prop35
280
     0
102
RTVSPost2010PropOp35
 70
     1
102
RTVSPost2010Prop36
280
     0
102
RTVSPost2010PropOp36
 70
     1
102
RTVSPost2010Prop37
 90
       50
102
RTVSPost2010PropOp37
 70
     1
102
RTVSPost2010Prop38
140
0.0
102
RTVSPost2010PropOp38
 70
     1
102
RTVSPost2010Prop39
140
1.0
102
RTVSPost2010PropOp39
 70
     1
102
RTVSPost2010Prop40
 90
        0
102
RTVSPost2010PropOp40
 70
     1
102
RTVSPost2010Prop41ColorIndex
 90
       18
102
RTVSPost2010Prop41ColorRGB
 90
        0
102
RTVSPost2010PropOp41
 70
     1
102
RTVSPost2010Prop42
 90
       50
102
RTVSPost2010PropOp42
 70
     1
102
RTVSPost2010Prop43
 90
        3
102
RTVSPost2010PropOp43
 70
     1
102
RTVSPost2010Prop44ColorIndex
 90
        5
102
RTVSPost2010Prop44ColorRGB
 90
      255
102
RTVSPost2010PropOp44
 70
     1
102
RTVSPost2010Prop45
280
     0
102
RTVSPost2010PropOp45
 70
     1
102
RTVSPost2010Prop46
 90
       50
102
RTVSPost2010PropOp46
 70
     1
102
RTVSPost2010Prop47
 90
       50
102
RTVSPost2010PropOp47
 70
     1
102
RTVSPost2010Prop48
 90
       50
102
RTVSPost2010PropOp48
 70
     1
102
RTVSPost2010Prop49
280
     0
102
RTVSPost2010PropOp49
 70
     1
102
RTVSPost2010Prop50
 90
       50
102
RTVSPost2010PropOp50
 70
     1
102
RTVSPost2010Prop51ColorIndex
 90
      256
102
RTVSPost2010Prop51ColorRGB
 90
-16777216
102
RTVSPost2010PropOp51
 70
     0
102
RTVSPost2010Prop52
140
1.0
102
RTVSPost2010PropOp52
 70
     0
102
RTVSPost2010Prop53
 90
        2
102
RTVSPost2010PropOp53
 70
     1
102
RTVSPost2010Prop54
  1
strokes_ogs.tif
102
RTVSPost2010PropOp54
 70
     1
102
RTVSPost2010Prop55
280
     0
102
RTVSPost2010PropOp55
 70
     1
102
RTVSPost2010Prop56
140
1.0
102
RTVSPost2010PropOp56
 70
     1
102
RTVSPost2010Prop57
140
1.0
102
RTVSPost2010PropOp57
 70
     1
  0
XRECORD
  5
13B
102
{ACAD_REACTORS
330
13A
102
}
330
13A
100
AcDbXrecord
280
     1
102
RTVSPost2010Prop28
280
     0
102
RTVSPost2010PropOp28
 70
     0
102
RTVSPost2010Prop29
280
     1
102
RTVSPost2010PropOp29
 70
     0
102
RTVSPost2010Prop30
280
     1
102
RTVSPost2010PropOp30
 70
     0
102
RTVSPost2010Prop31
280
     0
102
RTVSPost2010PropOp31
 70
     0
102
RTVSPost2010Prop32
280
     0
102
RTVSPost2010PropOp32
 70
     0
102
RTVSPost2010Prop33
280
     0
102
RTVSPost2010PropOp33
 70
     0
102
RTVSPost2010Prop34
280
     0
102
RTVSPost2010PropOp34
 70
     0
102
RTVSPost2010Prop35
280
     0
102
RTVSPost2010PropOp35
 70
     0
102
RTVSPost2010Prop36
280
     0
102
RTVSPost2010PropOp36
 70
     0
102
RTVSPost2010Prop37
 90
       50
102
RTVSPost2010PropOp37
 70
     0
102
RTVSPost2010Prop38
140
0.0
102
RTVSPost2010PropOp38
 70
     0
102
RTVSPost2010Prop39
140
1.0
102
RTVSPost2010PropOp39
 70
     0
102
RTVSPost2010Prop40
 90
        0
102
RTVSPost2010PropOp40
 70
     0
102
RTVSPost2010Prop41ColorIndex
 90
       18
102
RTVSPost2010Prop41ColorRGB
 90
        0
102
RTVSPost2010PropOp41
 70
     0
102
RTVSPost2010Prop42
 90
       50
102
RTVSPost2010PropOp42
 70
     0
102
RTVSPost2010Prop43
 90
        3
102
RTVSPost2010PropOp43
 70
     0
102
RTVSPost2010Prop44ColorIndex
 90
        5
102
RTVSPost2010Prop44ColorRGB
 90
      255
102
RTVSPost2010PropOp44
 70
     0
102
RTVSPost2010Prop45
280
     0
102
RTVSPost2010PropOp45
 70
     0
102
RTVSPost2010Prop46
 90
       50
102
RTVSPost2010PropOp46
 70
     0
102
RTVSPost2010Prop47
 90
       50
102
RTVSPost2010PropOp47
 70
     0
102
RTVSPost2010Prop48
 90
       50
102
RTVSPost2010PropOp48
 70
     0
102
RTVSPost2010Prop49
280
     0
102
RTVSPost2010PropOp49
 70
     0
102
RTVSPost2010Prop50
 90
       50
102
RTVSPost2010PropOp50
 70
     0
102
RTVSPost2010Prop51ColorIndex
 90
      256
102
RTVSPost2010Prop51ColorRGB
 90
-16777216
102
RTVSPost2010PropOp51
 70
     0
102
RTVSPost2010Prop52
140
1.0
102
RTVSPost2010PropOp52
 70
     0
102
RTVSPost2010Prop53
 90
        2
102
RTVSPost2010PropOp53
 70
     0
102
RTVSPost2010Prop54
  1
strokes_ogs.tif
102
RTVSPost2010PropOp54
 70
     0
102
RTVSPost2010Prop55
280
     0
102
RTVSPost2010PropOp55
 70
     0
102
RTVSPost2010Prop56
140
1.0
102
RTVSPost2010PropOp56
 70
     0
102
RTVSPost2010Prop57
140
1.0
102
RTVSPost2010PropOp57
 70
     0
  0
XRECORD
  5
129
102
{ACAD_REACTORS
330
128
102
}
330
128
100
AcDbXrecord
280
     1
102
RTVSPost2010Prop28
280
     0
102
RTVSPost2010PropOp28
 70
     1
102
RTVSPost2010Prop29
280
     1
102
RTVSPost2010PropOp29
 70
     1
102
RTVSPost2010Prop30
280
     1
102
RTVSPost2010PropOp30
 70
     1
102
RTVSPost2010Prop31
280
     0
102
RTVSPost2010PropOp31
 70
     1
102
RTVSPost2010Prop32
280
     0
102
RTVSPost2010PropOp32
 70
     1
102
RTVSPost2010Prop33
280
     0
102
RTVSPost2010PropOp33
 70
     1
102
RTVSPost2010Prop34
280
     0
102
RTVSPost2010PropOp34
 70
     1
102
RTVSPost2010Prop35
280
     0
102
RTVSPost2010PropOp35
 70
     1
102
RTVSPost2010Prop36
280
     0
102
RTVSPost2010PropOp36
 70
     1
102
RTVSPost2010Prop37
 90
       50
102
RTVSPost2010PropOp37
 70
     1
102
RTVSPost2010Prop38
140
0.0
102
RTVSPost2010PropOp38
 70
     1
102
RTVSPost2010Prop39
140
1.0
102
RTVSPost2010PropOp39
 70
     1
102
RTVSPost2010Prop40
 90
        0
102
RTVSPost2010PropOp40
 70
     1
102
RTVSPost2010Prop41ColorIndex
 90
       18
102
RTVSPost2010Prop41ColorRGB
 90
        0
102
RTVSPost2010PropOp41
 70
     1
102
RTVSPost2010Prop42
 90
       50
102
RTVSPost2010PropOp42
 70
     1
102
RTVSPost2010Prop43
 90
        3
102
RTVSPost2010PropOp43
 70
     1
102
RTVSPost2010Prop44ColorIndex
 90
        5
102
RTVSPost2010Prop44ColorRGB
 90
      255
102
RTVSPost2010PropOp44
 70
     1
102
RTVSPost2010Prop45
280
     0
102
RTVSPost2010PropOp45
 70
     1
102
RTVSPost2010Prop46
 90
       50
102
RTVSPost2010PropOp46
 70
     1
102
RTVSPost2010Prop47
 90
       50
102
RTVSPost2010PropOp47
 70
     1
102
RTVSPost2010Prop48
 90
       50
102
RTVSPost2010PropOp48
 70
     1
102
RTVSPost2010Prop49
280
     0
102
RTVSPost2010PropOp49
 70
     1
102
RTVSPost2010Prop50
 90
       50
102
RTVSPost2010PropOp50
 70
     1
102
RTVSPost2010Prop51ColorIndex
 90
      256
102
RTVSPost2010Prop51ColorRGB
 90
-16777216
102
RTVSPost2010PropOp51
 70
     0
102
RTVSPost2010Prop52
140
1.0
102
RTVSPost2010PropOp52
 70
     0
102
RTVSPost2010Prop53
 90
        2
102
RTVSPost2010PropOp53
 70
     1
102
RTVSPost2010Prop54
  1
strokes_ogs.tif
102
RTVSPost2010PropOp54
 70
     1
102
RTVSPost2010Prop55
280
     0
102
RTVSPost2010PropOp55
 70
     1
102
RTVSPost2010Prop56
140
1.0
102
RTVSPost2010PropOp56
 70
     1
102
RTVSPost2010Prop57
140
1.0
102
RTVSPost2010PropOp57
 70
     1
  0
XRECORD
  5
10D
102
{ACAD_REACTORS
330
10C
102
}
330
10C
100
AcDbXrecord
280
     1
102
RTVSPost2010Prop28
280
     0
102
RTVSPost2010PropOp28
 70
     1
102
RTVSPost2010Prop29
280
     1
102
RTVSPost2010PropOp29
 70
     1
102
RTVSPost2010Prop30
280
     1
102
RTVSPost2010PropOp30
 70
     1
102
RTVSPost2010Prop31
280
     0
102
RTVSPost2010PropOp31
 70
     1
102
RTVSPost2010Prop32
280
     0
102
RTVSPost2010PropOp32
 70
     1
102
RTVSPost2010Prop33
280
     0
102
RTVSPost2010PropOp33
 70
     1
102
RTVSPost2010Prop34
280
     0
102
RTVSPost2010PropOp34
 70
     1
102
RTVSPost2010Prop35
280
     0
102
RTVSPost2010PropOp35
 70
     1
102
RTVSPost2010Prop36
280
     0
102
RTVSPost2010PropOp36
 70
     1
102
RTVSPost2010Prop37
 90
       50
102
RTVSPost2010PropOp37
 70
     1
102
RTVSPost2010Prop38
140
0.0
102
RTVSPost2010PropOp38
 70
     1
102
RTVSPost2010Prop39
140
1.0
102
RTVSPost2010PropOp39
 70
     1
102
RTVSPost2010Prop40
 90
        0
102
RTVSPost2010PropOp40
 70
     1
102
RTVSPost2010Prop41ColorIndex
 90
       18
102
RTVSPost2010Prop41ColorRGB
 90
        0
102
RTVSPost2010PropOp41
 70
     1
102
RTVSPost2010Prop42
 90
       50
102
RTVSPost2010PropOp42
 70
     1
102
RTVSPost2010Prop43
 90
        3
102
RTVSPost2010PropOp43
 70
     1
102
RTVSPost2010Prop44ColorIndex
 90
        5
102
RTVSPost2010Prop44ColorRGB
 90
      255
102
RTVSPost2010PropOp44
 70
     1
102
RTVSPost2010Prop45
280
     0
102
RTVSPost2010PropOp45
 70
     1
102
RTVSPost2010Prop46
 90
       50
102
RTVSPost2010PropOp46
 70
     1
102
RTVSPost2010Prop47
 90
       50
102
RTVSPost2010PropOp47
 70
     1
102
RTVSPost2010Prop48
 90
       50
102
RTVSPost2010PropOp48
 70
     1
102
RTVSPost2010Prop49
280
     0
102
RTVSPost2010PropOp49
 70
     1
102
RTVSPost2010Prop50
 90
       50
102
RTVSPost2010PropOp50
 70
     1
102
RTVSPost2010Prop51ColorIndex
 90
      256
102
RTVSPost2010Prop51ColorRGB
 90
-16777216
102
RTVSPost2010PropOp51
 70
     0
102
RTVSPost2010Prop52
140
1.0
102
RTVSPost2010PropOp52
 70
     0
102
RTVSPost2010Prop53
 90
        2
102
RTVSPost2010PropOp53
 70
     1
102
RTVSPost2010Prop54
  1
strokes_ogs.tif
102
RTVSPost2010PropOp54
 70
     1
102
RTVSPost2010Prop55
280
     0
102
RTVSPost2010PropOp55
 70
     1
102
RTVSPost2010Prop56
140
1.0
102
RTVSPost2010PropOp56
 70
     1
102
RTVSPost2010Prop57
140
1.0
102
RTVSPost2010PropOp57
 70
     1
  0
XRECORD
  5
10F
102
{ACAD_REACTORS
330
10E
102
}
330
10E
100
AcDbXrecord
280
     1
102
RTVSPost2010Prop28
280
     0
102
RTVSPost2010PropOp28
 70
     1
102
RTVSPost2010Prop29
280
     1
102
RTVSPost2010PropOp29
 70
     1
102
RTVSPost2010Prop30
280
     1
102
RTVSPost2010PropOp30
 70
     1
102
RTVSPost2010Prop31
280
     0
102
RTVSPost2010PropOp31
 70
     1
102
RTVSPost2010Prop32
280
     0
102
RTVSPost2010PropOp32
 70
     1
102
RTVSPost2010Prop33
280
     0
102
RTVSPost2010PropOp33
 70
     1
102
RTVSPost2010Prop34
280
     0
102
RTVSPost2010PropOp34
 70
     1
102
RTVSPost2010Prop35
280
     0
102
RTVSPost2010PropOp35
 70
     1
102
RTVSPost2010Prop36
280
     0
102
RTVSPost2010PropOp36
 70
     1
102
RTVSPost2010Prop37
 90
       50
102
RTVSPost2010PropOp37
 70
     1
102
RTVSPost2010Prop38
140
0.0
102
RTVSPost2010PropOp38
 70
     1
102
RTVSPost2010Prop39
140
1.0
102
RTVSPost2010PropOp39
 70
     1
102
RTVSPost2010Prop40
 90
        0
102
RTVSPost2010PropOp40
 70
     1
102
RTVSPost2010Prop41ColorIndex
 90
       18
102
RTVSPost2010Prop41ColorRGB
 90
        0
102
RTVSPost2010PropOp41
 70
     1
102
RTVSPost2010Prop42
 90
       50
102
RTVSPost2010PropOp42
 70
     1
102
RTVSPost2010Prop43
 90
        3
102
RTVSPost2010PropOp43
 70
     1
102
RTVSPost2010Prop44ColorIndex
 90
        5
102
RTVSPost2010Prop44ColorRGB
 90
      255
102
RTVSPost2010PropOp44
 70
     1
102
RTVSPost2010Prop45
280
     0
102
RTVSPost2010PropOp45
 70
     1
102
RTVSPost2010Prop46
 90
       50
102
RTVSPost2010PropOp46
 70
     1
102
RTVSPost2010Prop47
 90
       50
102
RTVSPost2010PropOp47
 70
     1
102
RTVSPost2010Prop48
 90
       50
102
RTVSPost2010PropOp48
 70
     1
102
RTVSPost2010Prop49
280
     0
102
RTVSPost2010PropOp49
 70
     1
102
RTVSPost2010Prop50
 90
       50
102
RTVSPost2010PropOp50
 70
     1
102
RTVSPost2010Prop51ColorIndex
 90
      256
102
RTVSPost2010Prop51ColorRGB
 90
-16777216
102
RTVSPost2010PropOp51
 70
     0
102
RTVSPost2010Prop52
140
1.0
102
RTVSPost2010PropOp52
 70
     0
102
RTVSPost2010Prop53
 90
        2
102
RTVSPost2010PropOp53
 70
     1
102
RTVSPost2010Prop54
  1
strokes_ogs.tif
102
RTVSPost2010PropOp54
 70
     1
102
RTVSPost2010Prop55
280
     0
102
RTVSPost2010PropOp55
 70
     1
102
RTVSPost2010Prop56
140
1.0
102
RTVSPost2010PropOp56
 70
     1
102
RTVSPost2010Prop57
140
1.0
102
RTVSPost2010PropOp57
 70
     1
  0
XRECORD
  5
111
102
{ACAD_REACTORS
330
110
102
}
330
110
100
AcDbXrecord
280
     1
102
RTVSPost2010Prop28
280
     0
102
RTVSPost2010PropOp28
 70
     1
102
RTVSPost2010Prop29
280
     1
102
RTVSPost2010PropOp29
 70
     1
102
RTVSPost2010Prop30
280
     1
102
RTVSPost2010PropOp30
 70
     1
102
RTVSPost2010Prop31
280
     0
102
RTVSPost2010PropOp31
 70
     1
102
RTVSPost2010Prop32
280
     0
102
RTVSPost2010PropOp32
 70
     1
102
RTVSPost2010Prop33
280
     0
102
RTVSPost2010PropOp33
 70
     1
102
RTVSPost2010Prop34
280
     0
102
RTVSPost2010PropOp34
 70
     1
102
RTVSPost2010Prop35
280
     0
102
RTVSPost2010PropOp35
 70
     1
102
RTVSPost2010Prop36
280
     0
102
RTVSPost2010PropOp36
 70
     1
102
RTVSPost2010Prop37
 90
       50
102
RTVSPost2010PropOp37
 70
     1
102
RTVSPost2010Prop38
140
0.0
102
RTVSPost2010PropOp38
 70
     1
102
RTVSPost2010Prop39
140
1.0
102
RTVSPost2010PropOp39
 70
     1
102
RTVSPost2010Prop40
 90
        0
102
RTVSPost2010PropOp40
 70
     1
102
RTVSPost2010Prop41ColorIndex
 90
       18
102
RTVSPost2010Prop41ColorRGB
 90
        0
102
RTVSPost2010PropOp41
 70
     1
102
RTVSPost2010Prop42
 90
       50
102
RTVSPost2010PropOp42
 70
     1
102
RTVSPost2010Prop43
 90
        3
102
RTVSPost2010PropOp43
 70
     1
102
RTVSPost2010Prop44ColorIndex
 90
        5
102
RTVSPost2010Prop44ColorRGB
 90
      255
102
RTVSPost2010PropOp44
 70
     1
102
RTVSPost2010Prop45
280
     0
102
RTVSPost2010PropOp45
 70
     1
102
RTVSPost2010Prop46
 90
       50
102
RTVSPost2010PropOp46
 70
     1
102
RTVSPost2010Prop47
 90
       50
102
RTVSPost2010PropOp47
 70
     1
102
RTVSPost2010Prop48
 90
       50
102
RTVSPost2010PropOp48
 70
     1
102
RTVSPost2010Prop49
280
     0
102
RTVSPost2010PropOp49
 70
     1
102
RTVSPost2010Prop50
 90
       50
102
RTVSPost2010PropOp50
 70
     1
102
RTVSPost2010Prop51ColorIndex
 90
      256
102
RTVSPost2010Prop51ColorRGB
 90
-16777216
102
RTVSPost2010PropOp51
 70
     0
102
RTVSPost2010Prop52
140
1.0
102
RTVSPost2010PropOp52
 70
     0
102
RTVSPost2010Prop53
 90
        2
102
RTVSPost2010PropOp53
 70
     1
102
RTVSPost2010Prop54
  1
strokes_ogs.tif
102
RTVSPost2010PropOp54
 70
     1
102
RTVSPost2010Prop55
280
     0
102
RTVSPost2010PropOp55
 70
     1
102
RTVSPost2010Prop56
140
1.0
102
RTVSPost2010PropOp56
 70
     1
102
RTVSPost2010Prop57
140
1.0
102
RTVSPost2010PropOp57
 70
     1
  0
XRECORD
  5
113
102
{ACAD_REACTORS
330
112
102
}
330
112
100
AcDbXrecord
280
     1
102
RTVSPost2010Prop28
280
     0
102
RTVSPost2010PropOp28
 70
     1
102
RTVSPost2010Prop29
280
     1
102
RTVSPost2010PropOp29
 70
     1
102
RTVSPost2010Prop30
280
     1
102
RTVSPost2010PropOp30
 70
     1
102
RTVSPost2010Prop31
280
     0
102
RTVSPost2010PropOp31
 70
     1
102
RTVSPost2010Prop32
280
     0
102
RTVSPost2010PropOp32
 70
     1
102
RTVSPost2010Prop33
280
     0
102
RTVSPost2010PropOp33
 70
     1
102
RTVSPost2010Prop34
280
     0
102
RTVSPost2010PropOp34
 70
     1
102
RTVSPost2010Prop35
280
     0
102
RTVSPost2010PropOp35
 70
     1
102
RTVSPost2010Prop36
280
     0
102
RTVSPost2010PropOp36
 70
     1
102
RTVSPost2010Prop37
 90
       50
102
RTVSPost2010PropOp37
 70
     1
102
RTVSPost2010Prop38
140
0.0
102
RTVSPost2010PropOp38
 70
     1
102
RTVSPost2010Prop39
140
1.0
102
RTVSPost2010PropOp39
 70
     1
102
RTVSPost2010Prop40
 90
        0
102
RTVSPost2010PropOp40
 70
     1
102
RTVSPost2010Prop41ColorIndex
 90
       18
102
RTVSPost2010Prop41ColorRGB
 90
        0
102
RTVSPost2010PropOp41
 70
     1
102
RTVSPost2010Prop42
 90
       50
102
RTVSPost2010PropOp42
 70
     1
102
RTVSPost2010Prop43
 90
        3
102
RTVSPost2010PropOp43
 70
     1
102
RTVSPost2010Prop44ColorIndex
 90
        5
102
RTVSPost2010Prop44ColorRGB
 90
      255
102
RTVSPost2010PropOp44
 70
     1
102
RTVSPost2010Prop45
280
     0
102
RTVSPost2010PropOp45
 70
     1
102
RTVSPost2010Prop46
 90
       50
102
RTVSPost2010PropOp46
 70
     1
102
RTVSPost2010Prop47
 90
       50
102
RTVSPost2010PropOp47
 70
     1
102
RTVSPost2010Prop48
 90
       50
102
RTVSPost2010PropOp48
 70
     1
102
RTVSPost2010Prop49
280
     0
102
RTVSPost2010PropOp49
 70
     1
102
RTVSPost2010Prop50
 90
       50
102
RTVSPost2010PropOp50
 70
     1
102
RTVSPost2010Prop51ColorIndex
 90
      256
102
RTVSPost2010Prop51ColorRGB
 90
-16777216
102
RTVSPost2010PropOp51
 70
     0
102
RTVSPost2010Prop52
140
1.0
102
RTVSPost2010PropOp52
 70
     0
102
RTVSPost2010Prop53
 90
        2
102
RTVSPost2010PropOp53
 70
     1
102
RTVSPost2010Prop54
  1
strokes_ogs.tif
102
RTVSPost2010PropOp54
 70
     1
102
RTVSPost2010Prop55
280
     0
102
RTVSPost2010PropOp55
 70
     1
102
RTVSPost2010Prop56
140
1.0
102
RTVSPost2010PropOp56
 70
     1
102
RTVSPost2010Prop57
140
1.0
102
RTVSPost2010PropOp57
 70
     1
  0
XRECORD
  5
11B
102
{ACAD_REACTORS
330
11A
102
}
330
11A
100
AcDbXrecord
280
     1
102
RTVSPost2010Prop28
280
     0
102
RTVSPost2010PropOp28
 70
     1
102
RTVSPost2010Prop29
280
     1
102
RTVSPost2010PropOp29
 70
     1
102
RTVSPost2010Prop30
280
     1
102
RTVSPost2010PropOp30
 70
     1
102
RTVSPost2010Prop31
280
     0
102
RTVSPost2010PropOp31
 70
     1
102
RTVSPost2010Prop32
280
     0
102
RTVSPost2010PropOp32
 70
     1
102
RTVSPost2010Prop33
280
     0
102
RTVSPost2010PropOp33
 70
     1
102
RTVSPost2010Prop34
280
     0
102
RTVSPost2010PropOp34
 70
     1
102
RTVSPost2010Prop35
280
     0
102
RTVSPost2010PropOp35
 70
     1
102
RTVSPost2010Prop36
280
     0
102
RTVSPost2010PropOp36
 70
     1
102
RTVSPost2010Prop37
 90
       50
102
RTVSPost2010PropOp37
 70
     1
102
RTVSPost2010Prop38
140
0.0
102
RTVSPost2010PropOp38
 70
     1
102
RTVSPost2010Prop39
140
1.0
102
RTVSPost2010PropOp39
 70
     1
102
RTVSPost2010Prop40
 90
        0
102
RTVSPost2010PropOp40
 70
     1
102
RTVSPost2010Prop41ColorIndex
 90
       18
102
RTVSPost2010Prop41ColorRGB
 90
        0
102
RTVSPost2010PropOp41
 70
     1
102
RTVSPost2010Prop42
 90
       50
102
RTVSPost2010PropOp42
 70
     1
102
RTVSPost2010Prop43
 90
        3
102
RTVSPost2010PropOp43
 70
     1
102
RTVSPost2010Prop44ColorIndex
 90
        5
102
RTVSPost2010Prop44ColorRGB
 90
      255
102
RTVSPost2010PropOp44
 70
     1
102
RTVSPost2010Prop45
280
     0
102
RTVSPost2010PropOp45
 70
     1
102
RTVSPost2010Prop46
 90
       50
102
RTVSPost2010PropOp46
 70
     1
102
RTVSPost2010Prop47
 90
       50
102
RTVSPost2010PropOp47
 70
     1
102
RTVSPost2010Prop48
 90
       50
102
RTVSPost2010PropOp48
 70
     1
102
RTVSPost2010Prop49
280
     0
102
RTVSPost2010PropOp49
 70
     1
102
RTVSPost2010Prop50
 90
       50
102
RTVSPost2010PropOp50
 70
     1
102
RTVSPost2010Prop51ColorIndex
 90
      256
102
RTVSPost2010Prop51ColorRGB
 90
-16777216
102
RTVSPost2010PropOp51
 70
     0
102
RTVSPost2010Prop52
140
1.0
102
RTVSPost2010PropOp52
 70
     0
102
RTVSPost2010Prop53
 90
        2
102
RTVSPost2010PropOp53
 70
     1
102
RTVSPost2010Prop54
  1
strokes_ogs.tif
102
RTVSPost2010PropOp54
 70
     1
102
RTVSPost2010Prop55
280
     0
102
RTVSPost2010PropOp55
 70
     1
102
RTVSPost2010Prop56
140
1.0
102
RTVSPost2010PropOp56
 70
     1
102
RTVSPost2010Prop57
140
1.0
102
RTVSPost2010PropOp57
 70
     1
  0
XRECORD
  5
137
102
{ACAD_REACTORS
330
136
102
}
330
136
100
AcDbXrecord
280
     1
102
RTVSPost2010Prop28
280
     0
102
RTVSPost2010PropOp28
 70
     0
102
RTVSPost2010Prop29
280
     1
102
RTVSPost2010PropOp29
 70
     0
102
RTVSPost2010Prop30
280
     1
102
RTVSPost2010PropOp30
 70
     0
102
RTVSPost2010Prop31
280
     0
102
RTVSPost2010PropOp31
 70
     0
102
RTVSPost2010Prop32
280
     0
102
RTVSPost2010PropOp32
 70
     0
102
RTVSPost2010Prop33
280
     0
102
RTVSPost2010PropOp33
 70
     0
102
RTVSPost2010Prop34
280
     0
102
RTVSPost2010PropOp34
 70
     0
102
RTVSPost2010Prop35
280
     0
102
RTVSPost2010PropOp35
 70
     0
102
RTVSPost2010Prop36
280
     0
102
RTVSPost2010PropOp36
 70
     0
102
RTVSPost2010Prop37
 90
       50
102
RTVSPost2010PropOp37
 70
     0
102
RTVSPost2010Prop38
140
0.0
102
RTVSPost2010PropOp38
 70
     0
102
RTVSPost2010Prop39
140
1.0
102
RTVSPost2010PropOp39
 70
     0
102
RTVSPost2010Prop40
 90
        0
102
RTVSPost2010PropOp40
 70
     0
102
RTVSPost2010Prop41ColorIndex
 90
       18
102
RTVSPost2010Prop41ColorRGB
 90
        0
102
RTVSPost2010PropOp41
 70
     0
102
RTVSPost2010Prop42
 90
       50
102
RTVSPost2010PropOp42
 70
     0
102
RTVSPost2010Prop43
 90
        3
102
RTVSPost2010PropOp43
 70
     0
102
RTVSPost2010Prop44ColorIndex
 90
        5
102
RTVSPost2010Prop44ColorRGB
 90
      255
102
RTVSPost2010PropOp44
 70
     0
102
RTVSPost2010Prop45
280
     0
102
RTVSPost2010PropOp45
 70
     0
102
RTVSPost2010Prop46
 90
       50
102
RTVSPost2010PropOp46
 70
     0
102
RTVSPost2010Prop47
 90
       50
102
RTVSPost2010PropOp47
 70
     0
102
RTVSPost2010Prop48
 90
       50
102
RTVSPost2010PropOp48
 70
     0
102
RTVSPost2010Prop49
280
     0
102
RTVSPost2010PropOp49
 70
     0
102
RTVSPost2010Prop50
 90
       50
102
RTVSPost2010PropOp50
 70
     0
102
RTVSPost2010Prop51ColorIndex
 90
      256
102
RTVSPost2010Prop51ColorRGB
 90
-16777216
102
RTVSPost2010PropOp51
 70
     0
102
RTVSPost2010Prop52
140
1.0
102
RTVSPost2010PropOp52
 70
     0
102
RTVSPost2010Prop53
 90
        2
102
RTVSPost2010PropOp53
 70
     0
102
RTVSPost2010Prop54
  1
strokes_ogs.tif
102
RTVSPost2010PropOp54
 70
     0
102
RTVSPost2010Prop55
280
     0
102
RTVSPost2010PropOp55
 70
     0
102
RTVSPost2010Prop56
140
1.0
102
RTVSPost2010PropOp56
 70
     0
102
RTVSPost2010Prop57
140
1.0
102
RTVSPost2010PropOp57
 70
     0
  0
XRECORD
  5
127
102
{ACAD_REACTORS
330
126
102
}
330
126
100
AcDbXrecord
280
     1
102
RTVSPost2010Prop28
280
     0
102
RTVSPost2010PropOp28
 70
     1
102
RTVSPost2010Prop29
280
     1
102
RTVSPost2010PropOp29
 70
     1
102
RTVSPost2010Prop30
280
     1
102
RTVSPost2010PropOp30
 70
     1
102
RTVSPost2010Prop31
280
     0
102
RTVSPost2010PropOp31
 70
     1
102
RTVSPost2010Prop32
280
     0
102
RTVSPost2010PropOp32
 70
     1
102
RTVSPost2010Prop33
280
     0
102
RTVSPost2010PropOp33
 70
     1
102
RTVSPost2010Prop34
280
     0
102
RTVSPost2010PropOp34
 70
     1
102
RTVSPost2010Prop35
280
     0
102
RTVSPost2010PropOp35
 70
     1
102
RTVSPost2010Prop36
280
     0
102
RTVSPost2010PropOp36
 70
     1
102
RTVSPost2010Prop37
 90
       50
102
RTVSPost2010PropOp37
 70
     1
102
RTVSPost2010Prop38
140
0.0
102
RTVSPost2010PropOp38
 70
     1
102
RTVSPost2010Prop39
140
1.0
102
RTVSPost2010PropOp39
 70
     1
102
RTVSPost2010Prop40
 90
        0
102
RTVSPost2010PropOp40
 70
     1
102
RTVSPost2010Prop41ColorIndex
 90
       18
102
RTVSPost2010Prop41ColorRGB
 90
        0
102
RTVSPost2010PropOp41
 70
     1
102
RTVSPost2010Prop42
 90
       50
102
RTVSPost2010PropOp42
 70
     1
102
RTVSPost2010Prop43
 90
        3
102
RTVSPost2010PropOp43
 70
     1
102
RTVSPost2010Prop44ColorIndex
 90
        5
102
RTVSPost2010Prop44ColorRGB
 90
      255
102
RTVSPost2010PropOp44
 70
     1
102
RTVSPost2010Prop45
280
     0
102
RTVSPost2010PropOp45
 70
     1
102
RTVSPost2010Prop46
 90
       50
102
RTVSPost2010PropOp46
 70
     1
102
RTVSPost2010Prop47
 90
       50
102
RTVSPost2010PropOp47
 70
     1
102
RTVSPost2010Prop48
 90
       50
102
RTVSPost2010PropOp48
 70
     1
102
RTVSPost2010Prop49
280
     0
102
RTVSPost2010PropOp49
 70
     1
102
RTVSPost2010Prop50
 90
       50
102
RTVSPost2010PropOp50
 70
     1
102
RTVSPost2010Prop51ColorIndex
 90
      256
102
RTVSPost2010Prop51ColorRGB
 90
-16777216
102
RTVSPost2010PropOp51
 70
     0
102
RTVSPost2010Prop52
140
1.0
102
RTVSPost2010PropOp52
 70
     0
102
RTVSPost2010Prop53
 90
        2
102
RTVSPost2010PropOp53
 70
     1
102
RTVSPost2010Prop54
  1
strokes_ogs.tif
102
RTVSPost2010PropOp54
 70
     1
102
RTVSPost2010Prop55
280
     0
102
RTVSPost2010PropOp55
 70
     1
102
RTVSPost2010Prop56
140
1.0
102
RTVSPost2010PropOp56
 70
     1
102
RTVSPost2010Prop57
140
1.0
102
RTVSPost2010PropOp57
 70
     1
  0
XRECORD
  5
139
102
{ACAD_REACTORS
330
138
102
}
330
138
100
AcDbXrecord
280
     1
102
RTVSPost2010Prop28
280
     0
102
RTVSPost2010PropOp28
 70
     0
102
RTVSPost2010Prop29
280
     1
102
RTVSPost2010PropOp29
 70
     0
102
RTVSPost2010Prop30
280
     1
102
RTVSPost2010PropOp30
 70
     0
102
RTVSPost2010Prop31
280
     0
102
RTVSPost2010PropOp31
 70
     0
102
RTVSPost2010Prop32
280
     0
102
RTVSPost2010PropOp32
 70
     0
102
RTVSPost2010Prop33
280
     0
102
RTVSPost2010PropOp33
 70
     0
102
RTVSPost2010Prop34
280
     0
102
RTVSPost2010PropOp34
 70
     0
102
RTVSPost2010Prop35
280
     0
102
RTVSPost2010PropOp35
 70
     0
102
RTVSPost2010Prop36
280
     0
102
RTVSPost2010PropOp36
 70
     0
102
RTVSPost2010Prop37
 90
       50
102
RTVSPost2010PropOp37
 70
     0
102
RTVSPost2010Prop38
140
0.0
102
RTVSPost2010PropOp38
 70
     0
102
RTVSPost2010Prop39
140
1.0
102
RTVSPost2010PropOp39
 70
     0
102
RTVSPost2010Prop40
 90
        0
102
RTVSPost2010PropOp40
 70
     0
102
RTVSPost2010Prop41ColorIndex
 90
       18
102
RTVSPost2010Prop41ColorRGB
 90
        0
102
RTVSPost2010PropOp41
 70
     0
102
RTVSPost2010Prop42
 90
       50
102
RTVSPost2010PropOp42
 70
     0
102
RTVSPost2010Prop43
 90
        3
102
RTVSPost2010PropOp43
 70
     0
102
RTVSPost2010Prop44ColorIndex
 90
        5
102
RTVSPost2010Prop44ColorRGB
 90
      255
102
RTVSPost2010PropOp44
 70
     0
102
RTVSPost2010Prop45
280
     0
102
RTVSPost2010PropOp45
 70
     0
102
RTVSPost2010Prop46
 90
       50
102
RTVSPost2010PropOp46
 70
     0
102
RTVSPost2010Prop47
 90
       50
102
RTVSPost2010PropOp47
 70
     0
102
RTVSPost2010Prop48
 90
       50
102
RTVSPost2010PropOp48
 70
     0
102
RTVSPost2010Prop49
280
     0
102
RTVSPost2010PropOp49
 70
     0
102
RTVSPost2010Prop50
 90
       50
102
RTVSPost2010PropOp50
 70
     0
102
RTVSPost2010Prop51ColorIndex
 90
      256
102
RTVSPost2010Prop51ColorRGB
 90
-16777216
102
RTVSPost2010PropOp51
 70
     0
102
RTVSPost2010Prop52
140
1.0
102
RTVSPost2010PropOp52
 70
     0
102
RTVSPost2010Prop53
 90
        2
102
RTVSPost2010PropOp53
 70
     0
102
RTVSPost2010Prop54
  1
strokes_ogs.tif
102
RTVSPost2010PropOp54
 70
     0
102
RTVSPost2010Prop55
280
     0
102
RTVSPost2010PropOp55
 70
     0
102
RTVSPost2010Prop56
140
1.0
102
RTVSPost2010PropOp56
 70
     0
102
RTVSPost2010Prop57
140
1.0
102
RTVSPost2010PropOp57
 70
     0
  0
XRECORD
  5
11F
102
{ACAD_REACTORS
330
11E
102
}
330
11E
100
AcDbXrecord
280
     1
102
RTVSPost2010Prop28
280
     0
102
RTVSPost2010PropOp28
 70
     1
102
RTVSPost2010Prop29
280
     1
102
RTVSPost2010PropOp29
 70
     1
102
RTVSPost2010Prop30
280
     1
102
RTVSPost2010PropOp30
 70
     1
102
RTVSPost2010Prop31
280
     0
102
RTVSPost2010PropOp31
 70
     1
102
RTVSPost2010Prop32
280
     0
102
RTVSPost2010PropOp32
 70
     1
102
RTVSPost2010Prop33
280
     0
102
RTVSPost2010PropOp33
 70
     1
102
RTVSPost2010Prop34
280
     0
102
RTVSPost2010PropOp34
 70
     1
102
RTVSPost2010Prop35
280
     0
102
RTVSPost2010PropOp35
 70
     1
102
RTVSPost2010Prop36
280
     0
102
RTVSPost2010PropOp36
 70
     1
102
RTVSPost2010Prop37
 90
       50
102
RTVSPost2010PropOp37
 70
     1
102
RTVSPost2010Prop38
140
0.0
102
RTVSPost2010PropOp38
 70
     1
102
RTVSPost2010Prop39
140
1.0
102
RTVSPost2010PropOp39
 70
     1
102
RTVSPost2010Prop40
 90
        0
102
RTVSPost2010PropOp40
 70
     1
102
RTVSPost2010Prop41ColorIndex
 90
       18
102
RTVSPost2010Prop41ColorRGB
 90
        0
102
RTVSPost2010PropOp41
 70
     1
102
RTVSPost2010Prop42
 90
       50
102
RTVSPost2010PropOp42
 70
     1
102
RTVSPost2010Prop43
 90
        3
102
RTVSPost2010PropOp43
 70
     1
102
RTVSPost2010Prop44ColorIndex
 90
        5
102
RTVSPost2010Prop44ColorRGB
 90
      255
102
RTVSPost2010PropOp44
 70
     1
102
RTVSPost2010Prop45
280
     0
102
RTVSPost2010PropOp45
 70
     1
102
RTVSPost2010Prop46
 90
       50
102
RTVSPost2010PropOp46
 70
     1
102
RTVSPost2010Prop47
 90
       50
102
RTVSPost2010PropOp47
 70
     1
102
RTVSPost2010Prop48
 90
       50
102
RTVSPost2010PropOp48
 70
     1
102
RTVSPost2010Prop49
280
     0
102
RTVSPost2010PropOp49
 70
     1
102
RTVSPost2010Prop50
 90
       50
102
RTVSPost2010PropOp50
 70
     1
102
RTVSPost2010Prop51ColorIndex
 90
      256
102
RTVSPost2010Prop51ColorRGB
 90
-16777216
102
RTVSPost2010PropOp51
 70
     0
102
RTVSPost2010Prop52
140
1.0
102
RTVSPost2010PropOp52
 70
     0
102
RTVSPost2010Prop53
 90
        2
102
RTVSPost2010PropOp53
 70
     1
102
RTVSPost2010Prop54
  1
strokes_ogs.tif
102
RTVSPost2010PropOp54
 70
     1
102
RTVSPost2010Prop55
280
     0
102
RTVSPost2010PropOp55
 70
     1
102
RTVSPost2010Prop56
140
1.0
102
RTVSPost2010PropOp56
 70
     1
102
RTVSPost2010Prop57
140
1.0
102
RTVSPost2010PropOp57
 70
     1
  0
XRECORD
  5
135
102
{ACAD_REACTORS
330
134
102
}
330
134
100
AcDbXrecord
280
     1
102
RTVSPost2010Prop28
280
     0
102
RTVSPost2010PropOp28
 70
     1
102
RTVSPost2010Prop29
280
     1
102
RTVSPost2010PropOp29
 70
     1
102
RTVSPost2010Prop30
280
     1
102
RTVSPost2010PropOp30
 70
     1
102
RTVSPost2010Prop31
280
     0
102
RTVSPost2010PropOp31
 70
     1
102
RTVSPost2010Prop32
280
     0
102
RTVSPost2010PropOp32
 70
     1
102
RTVSPost2010Prop33
280
     0
102
RTVSPost2010PropOp33
 70
     1
102
RTVSPost2010Prop34
280
     0
102
RTVSPost2010PropOp34
 70
     1
102
RTVSPost2010Prop35
280
     0
102
RTVSPost2010PropOp35
 70
     1
102
RTVSPost2010Prop36
280
     0
102
RTVSPost2010PropOp36
 70
     1
102
RTVSPost2010Prop37
 90
       50
102
RTVSPost2010PropOp37
 70
     1
102
RTVSPost2010Prop38
140
0.0
102
RTVSPost2010PropOp38
 70
     1
102
RTVSPost2010Prop39
140
1.0
102
RTVSPost2010PropOp39
 70
     1
102
RTVSPost2010Prop40
 90
        0
102
RTVSPost2010PropOp40
 70
     1
102
RTVSPost2010Prop41ColorIndex
 90
       18
102
RTVSPost2010Prop41ColorRGB
 90
        0
102
RTVSPost2010PropOp41
 70
     1
102
RTVSPost2010Prop42
 90
       50
102
RTVSPost2010PropOp42
 70
     1
102
RTVSPost2010Prop43
 90
        3
102
RTVSPost2010PropOp43
 70
     1
102
RTVSPost2010Prop44ColorIndex
 90
        5
102
RTVSPost2010Prop44ColorRGB
 90
      255
102
RTVSPost2010PropOp44
 70
     1
102
RTVSPost2010Prop45
280
     0
102
RTVSPost2010PropOp45
 70
     1
102
RTVSPost2010Prop46
 90
       50
102
RTVSPost2010PropOp46
 70
     1
102
RTVSPost2010Prop47
 90
       50
102
RTVSPost2010PropOp47
 70
     1
102
RTVSPost2010Prop48
 90
       50
102
RTVSPost2010PropOp48
 70
     1
102
RTVSPost2010Prop49
280
     0
102
RTVSPost2010PropOp49
 70
     1
102
RTVSPost2010Prop50
 90
       50
102
RTVSPost2010PropOp50
 70
     1
102
RTVSPost2010Prop51ColorIndex
 90
      256
102
RTVSPost2010Prop51ColorRGB
 90
-16777216
102
RTVSPost2010PropOp51
 70
     0
102
RTVSPost2010Prop52
140
1.0
102
RTVSPost2010PropOp52
 70
     0
102
RTVSPost2010Prop53
 90
        2
102
RTVSPost2010PropOp53
 70
     1
102
RTVSPost2010Prop54
  1
strokes_ogs.tif
102
RTVSPost2010PropOp54
 70
     1
102
RTVSPost2010Prop55
280
     0
102
RTVSPost2010PropOp55
 70
     1
102
RTVSPost2010Prop56
140
1.0
102
RTVSPost2010PropOp56
 70
     1
102
RTVSPost2010Prop57
140
1.0
102
RTVSPost2010PropOp57
 70
     1
  0
XRECORD
  5
133
102
{ACAD_REACTORS
330
132
102
}
330
132
100
AcDbXrecord
280
     1
102
RTVSPost2010Prop28
280
     0
102
RTVSPost2010PropOp28
 70
     1
102
RTVSPost2010Prop29
280
     1
102
RTVSPost2010PropOp29
 70
     1
102
RTVSPost2010Prop30
280
     1
102
RTVSPost2010PropOp30
 70
     1
102
RTVSPost2010Prop31
280
     0
102
RTVSPost2010PropOp31
 70
     1
102
RTVSPost2010Prop32
280
     0
102
RTVSPost2010PropOp32
 70
     1
102
RTVSPost2010Prop33
280
     0
102
RTVSPost2010PropOp33
 70
     1
102
RTVSPost2010Prop34
280
     0
102
RTVSPost2010PropOp34
 70
     1
102
RTVSPost2010Prop35
280
     0
102
RTVSPost2010PropOp35
 70
     1
102
RTVSPost2010Prop36
280
     0
102
RTVSPost2010PropOp36
 70
     1
102
RTVSPost2010Prop37
 90
       50
102
RTVSPost2010PropOp37
 70
     1
102
RTVSPost2010Prop38
140
0.0
102
RTVSPost2010PropOp38
 70
     1
102
RTVSPost2010Prop39
140
1.0
102
RTVSPost2010PropOp39
 70
     1
102
RTVSPost2010Prop40
 90
        0
102
RTVSPost2010PropOp40
 70
     1
102
RTVSPost2010Prop41ColorIndex
 90
       18
102
RTVSPost2010Prop41ColorRGB
 90
        0
102
RTVSPost2010PropOp41
 70
     1
102
RTVSPost2010Prop42
 90
       50
102
RTVSPost2010PropOp42
 70
     1
102
RTVSPost2010Prop43
 90
        3
102
RTVSPost2010PropOp43
 70
     1
102
RTVSPost2010Prop44ColorIndex
 90
        5
102
RTVSPost2010Prop44ColorRGB
 90
      255
102
RTVSPost2010PropOp44
 70
     1
102
RTVSPost2010Prop45
280
     0
102
RTVSPost2010PropOp45
 70
     1
102
RTVSPost2010Prop46
 90
       50
102
RTVSPost2010PropOp46
 70
     1
102
RTVSPost2010Prop47
 90
       50
102
RTVSPost2010PropOp47
 70
     1
102
RTVSPost2010Prop48
 90
       50
102
RTVSPost2010PropOp48
 70
     1
102
RTVSPost2010Prop49
280
     0
102
RTVSPost2010PropOp49
 70
     1
102
RTVSPost2010Prop50
 90
       50
102
RTVSPost2010PropOp50
 70
     1
102
RTVSPost2010Prop51ColorIndex
 90
      256
102
RTVSPost2010Prop51ColorRGB
 90
-16777216
102
RTVSPost2010PropOp51
 70
     0
102
RTVSPost2010Prop52
140
1.0
102
RTVSPost2010PropOp52
 70
     0
102
RTVSPost2010Prop53
 90
        2
102
RTVSPost2010PropOp53
 70
     1
102
RTVSPost2010Prop54
  1
strokes_ogs.tif
102
RTVSPost2010PropOp54
 70
     1
102
RTVSPost2010Prop55
280
     0
102
RTVSPost2010PropOp55
 70
     1
102
RTVSPost2010Prop56
140
1.0
102
RTVSPost2010PropOp56
 70
     1
102
RTVSPost2010Prop57
140
1.0
102
RTVSPost2010PropOp57
 70
     1
  0
XRECORD
  5
12D
102
{ACAD_REACTORS
330
12C
102
}
330
12C
100
AcDbXrecord
280
     1
102
RTVSPost2010Prop28
280
     0
102
RTVSPost2010PropOp28
 70
     1
102
RTVSPost2010Prop29
280
     1
102
RTVSPost2010PropOp29
 70
     1
102
RTVSPost2010Prop30
280
     1
102
RTVSPost2010PropOp30
 70
     1
102
RTVSPost2010Prop31
280
     0
102
RTVSPost2010PropOp31
 70
     1
102
RTVSPost2010Prop32
280
     0
102
RTVSPost2010PropOp32
 70
     1
102
RTVSPost2010Prop33
280
     0
102
RTVSPost2010PropOp33
 70
     1
102
RTVSPost2010Prop34
280
     0
102
RTVSPost2010PropOp34
 70
     1
102
RTVSPost2010Prop35
280
     0
102
RTVSPost2010PropOp35
 70
     1
102
RTVSPost2010Prop36
280
     0
102
RTVSPost2010PropOp36
 70
     1
102
RTVSPost2010Prop37
 90
       50
102
RTVSPost2010PropOp37
 70
     1
102
RTVSPost2010Prop38
140
0.0
102
RTVSPost2010PropOp38
 70
     1
102
RTVSPost2010Prop39
140
1.0
102
RTVSPost2010PropOp39
 70
     1
102
RTVSPost2010Prop40
 90
        0
102
RTVSPost2010PropOp40
 70
     1
102
RTVSPost2010Prop41ColorIndex
 90
       18
102
RTVSPost2010Prop41ColorRGB
 90
        0
102
RTVSPost2010PropOp41
 70
     1
102
RTVSPost2010Prop42
 90
       50
102
RTVSPost2010PropOp42
 70
     1
102
RTVSPost2010Prop43
 90
        3
102
RTVSPost2010PropOp43
 70
     1
102
RTVSPost2010Prop44ColorIndex
 90
        5
102
RTVSPost2010Prop44ColorRGB
 90
      255
102
RTVSPost2010PropOp44
 70
     1
102
RTVSPost2010Prop45
280
     0
102
RTVSPost2010PropOp45
 70
     1
102
RTVSPost2010Prop46
 90
       50
102
RTVSPost2010PropOp46
 70
     1
102
RTVSPost2010Prop47
 90
       50
102
RTVSPost2010PropOp47
 70
     1
102
RTVSPost2010Prop48
 90
       50
102
RTVSPost2010PropOp48
 70
     1
102
RTVSPost2010Prop49
280
     0
102
RTVSPost2010PropOp49
 70
     1
102
RTVSPost2010Prop50
 90
       50
102
RTVSPost2010PropOp50
 70
     1
102
RTVSPost2010Prop51ColorIndex
 90
      256
102
RTVSPost2010Prop51ColorRGB
 90
-16777216
102
RTVSPost2010PropOp51
 70
     0
102
RTVSPost2010Prop52
140
1.0
102
RTVSPost2010PropOp52
 70
     0
102
RTVSPost2010Prop53
 90
        2
102
RTVSPost2010PropOp53
 70
     1
102
RTVSPost2010Prop54
  1
strokes_ogs.tif
102
RTVSPost2010PropOp54
 70
     1
102
RTVSPost2010Prop55
280
     0
102
RTVSPost2010PropOp55
 70
     1
102
RTVSPost2010Prop56
140
1.0
102
RTVSPost2010PropOp56
 70
     1
102
RTVSPost2010Prop57
140
1.0
102
RTVSPost2010PropOp57
 70
     1
  0
XRECORD
  5
12F
102
{ACAD_REACTORS
330
12E
102
}
330
12E
100
AcDbXrecord
280
     1
102
RTVSPost2010Prop28
280
     0
102
RTVSPost2010PropOp28
 70
     1
102
RTVSPost2010Prop29
280
     1
102
RTVSPost2010PropOp29
 70
     1
102
RTVSPost2010Prop30
280
     1
102
RTVSPost2010PropOp30
 70
     1
102
RTVSPost2010Prop31
280
     0
102
RTVSPost2010PropOp31
 70
     1
102
RTVSPost2010Prop32
280
     0
102
RTVSPost2010PropOp32
 70
     1
102
RTVSPost2010Prop33
280
     0
102
RTVSPost2010PropOp33
 70
     1
102
RTVSPost2010Prop34
280
     0
102
RTVSPost2010PropOp34
 70
     1
102
RTVSPost2010Prop35
280
     0
102
RTVSPost2010PropOp35
 70
     1
102
RTVSPost2010Prop36
280
     0
102
RTVSPost2010PropOp36
 70
     1
102
RTVSPost2010Prop37
 90
       50
102
RTVSPost2010PropOp37
 70
     1
102
RTVSPost2010Prop38
140
0.0
102
RTVSPost2010PropOp38
 70
     1
102
RTVSPost2010Prop39
140
1.0
102
RTVSPost2010PropOp39
 70
     1
102
RTVSPost2010Prop40
 90
        0
102
RTVSPost2010PropOp40
 70
     1
102
RTVSPost2010Prop41ColorIndex
 90
       18
102
RTVSPost2010Prop41ColorRGB
 90
        0
102
RTVSPost2010PropOp41
 70
     1
102
RTVSPost2010Prop42
 90
       50
102
RTVSPost2010PropOp42
 70
     1
102
RTVSPost2010Prop43
 90
        3
102
RTVSPost2010PropOp43
 70
     1
102
RTVSPost2010Prop44ColorIndex
 90
        5
102
RTVSPost2010Prop44ColorRGB
 90
      255
102
RTVSPost2010PropOp44
 70
     1
102
RTVSPost2010Prop45
280
     0
102
RTVSPost2010PropOp45
 70
     1
102
RTVSPost2010Prop46
 90
       50
102
RTVSPost2010PropOp46
 70
     1
102
RTVSPost2010Prop47
 90
       50
102
RTVSPost2010PropOp47
 70
     1
102
RTVSPost2010Prop48
 90
       50
102
RTVSPost2010PropOp48
 70
     1
102
RTVSPost2010Prop49
280
     0
102
RTVSPost2010PropOp49
 70
     1
102
RTVSPost2010Prop50
 90
       50
102
RTVSPost2010PropOp50
 70
     1
102
RTVSPost2010Prop51ColorIndex
 90
      256
102
RTVSPost2010Prop51ColorRGB
 90
-16777216
102
RTVSPost2010PropOp51
 70
     0
102
RTVSPost2010Prop52
140
1.0
102
RTVSPost2010PropOp52
 70
     0
102
RTVSPost2010Prop53
 90
        2
102
RTVSPost2010PropOp53
 70
     1
102
RTVSPost2010Prop54
  1
strokes_ogs.tif
102
RTVSPost2010PropOp54
 70
     1
102
RTVSPost2010Prop55
280
     0
102
RTVSPost2010PropOp55
 70
     1
102
RTVSPost2010Prop56
140
1.0
102
RTVSPost2010PropOp56
 70
     1
102
RTVSPost2010Prop57
140
1.0
102
RTVSPost2010PropOp57
 70
     1
  0
XRECORD
  5
125
102
{ACAD_REACTORS
330
124
102
}
330
124
100
AcDbXrecord
280
     1
102
RTVSPost2010Prop28
280
     0
102
RTVSPost2010PropOp28
 70
     1
102
RTVSPost2010Prop29
280
     1
102
RTVSPost2010PropOp29
 70
     1
102
RTVSPost2010Prop30
280
     1
102
RTVSPost2010PropOp30
 70
     1
102
RTVSPost2010Prop31
280
     0
102
RTVSPost2010PropOp31
 70
     1
102
RTVSPost2010Prop32
280
     0
102
RTVSPost2010PropOp32
 70
     1
102
RTVSPost2010Prop33
280
     0
102
RTVSPost2010PropOp33
 70
     1
102
RTVSPost2010Prop34
280
     0
102
RTVSPost2010PropOp34
 70
     1
102
RTVSPost2010Prop35
280
     0
102
RTVSPost2010PropOp35
 70
     1
102
RTVSPost2010Prop36
280
     0
102
RTVSPost2010PropOp36
 70
     1
102
RTVSPost2010Prop37
 90
       50
102
RTVSPost2010PropOp37
 70
     1
102
RTVSPost2010Prop38
140
0.0
102
RTVSPost2010PropOp38
 70
     1
102
RTVSPost2010Prop39
140
1.0
102
RTVSPost2010PropOp39
 70
     1
102
RTVSPost2010Prop40
 90
        0
102
RTVSPost2010PropOp40
 70
     1
102
RTVSPost2010Prop41ColorIndex
 90
       18
102
RTVSPost2010Prop41ColorRGB
 90
        0
102
RTVSPost2010PropOp41
 70
     1
102
RTVSPost2010Prop42
 90
       50
102
RTVSPost2010PropOp42
 70
     1
102
RTVSPost2010Prop43
 90
        3
102
RTVSPost2010PropOp43
 70
     1
102
RTVSPost2010Prop44ColorIndex
 90
        5
102
RTVSPost2010Prop44ColorRGB
 90
      255
102
RTVSPost2010PropOp44
 70
     1
102
RTVSPost2010Prop45
280
     0
102
RTVSPost2010PropOp45
 70
     1
102
RTVSPost2010Prop46
 90
       50
102
RTVSPost2010PropOp46
 70
     1
102
RTVSPost2010Prop47
 90
       50
102
RTVSPost2010PropOp47
 70
     1
102
RTVSPost2010Prop48
 90
       50
102
RTVSPost2010PropOp48
 70
     1
102
RTVSPost2010Prop49
280
     0
102
RTVSPost2010PropOp49
 70
     1
102
RTVSPost2010Prop50
 90
       50
102
RTVSPost2010PropOp50
 70
     1
102
RTVSPost2010Prop51ColorIndex
 90
      256
102
RTVSPost2010Prop51ColorRGB
 90
-16777216
102
RTVSPost2010PropOp51
 70
     0
102
RTVSPost2010Prop52
140
1.0
102
RTVSPost2010PropOp52
 70
     0
102
RTVSPost2010Prop53
 90
        2
102
RTVSPost2010PropOp53
 70
     1
102
RTVSPost2010Prop54
  1
strokes_ogs.tif
102
RTVSPost2010PropOp54
 70
     1
102
RTVSPost2010Prop55
280
     0
102
RTVSPost2010PropOp55
 70
     1
102
RTVSPost2010Prop56
140
1.0
102
RTVSPost2010PropOp56
 70
     1
102
RTVSPost2010Prop57
140
1.0
102
RTVSPost2010PropOp57
 70
     1
  0
XRECORD
  5
119
102
{ACAD_REACTORS
330
118
102
}
330
118
100
AcDbXrecord
280
     1
102
RTVSPost2010Prop28
280
     0
102
RTVSPost2010PropOp28
 70
     1
102
RTVSPost2010Prop29
280
     1
102
RTVSPost2010PropOp29
 70
     1
102
RTVSPost2010Prop30
280
     1
102
RTVSPost2010PropOp30
 70
     1
102
RTVSPost2010Prop31
280
     0
102
RTVSPost2010PropOp31
 70
     1
102
RTVSPost2010Prop32
280
     0
102
RTVSPost2010PropOp32
 70
     1
102
RTVSPost2010Prop33
280
     0
102
RTVSPost2010PropOp33
 70
     1
102
RTVSPost2010Prop34
280
     0
102
RTVSPost2010PropOp34
 70
     1
102
RTVSPost2010Prop35
280
     0
102
RTVSPost2010PropOp35
 70
     1
102
RTVSPost2010Prop36
280
     0
102
RTVSPost2010PropOp36
 70
     1
102
RTVSPost2010Prop37
 90
       50
102
RTVSPost2010PropOp37
 70
     1
102
RTVSPost2010Prop38
140
0.0
102
RTVSPost2010PropOp38
 70
     1
102
RTVSPost2010Prop39
140
1.0
102
RTVSPost2010PropOp39
 70
     1
102
RTVSPost2010Prop40
 90
        0
102
RTVSPost2010PropOp40
 70
     1
102
RTVSPost2010Prop41ColorIndex
 90
       18
102
RTVSPost2010Prop41ColorRGB
 90
        0
102
RTVSPost2010PropOp41
 70
     1
102
RTVSPost2010Prop42
 90
       50
102
RTVSPost2010PropOp42
 70
     1
102
RTVSPost2010Prop43
 90
        3
102
RTVSPost2010PropOp43
 70
     1
102
RTVSPost2010Prop44ColorIndex
 90
        5
102
RTVSPost2010Prop44ColorRGB
 90
      255
102
RTVSPost2010PropOp44
 70
     1
102
RTVSPost2010Prop45
280
     0
102
RTVSPost2010PropOp45
 70
     1
102
RTVSPost2010Prop46
 90
       50
102
RTVSPost2010PropOp46
 70
     1
102
RTVSPost2010Prop47
 90
       50
102
RTVSPost2010PropOp47
 70
     1
102
RTVSPost2010Prop48
 90
       50
102
RTVSPost2010PropOp48
 70
     1
102
RTVSPost2010Prop49
280
     0
102
RTVSPost2010PropOp49
 70
     1
102
RTVSPost2010Prop50
 90
       50
102
RTVSPost2010PropOp50
 70
     1
102
RTVSPost2010Prop51ColorIndex
 90
      256
102
RTVSPost2010Prop51ColorRGB
 90
-16777216
102
RTVSPost2010PropOp51
 70
     0
102
RTVSPost2010Prop52
140
1.0
102
RTVSPost2010PropOp52
 70
     0
102
RTVSPost2010Prop53
 90
        2
102
RTVSPost2010PropOp53
 70
     1
102
RTVSPost2010Prop54
  1
strokes_ogs.tif
102
RTVSPost2010PropOp54
 70
     1
102
RTVSPost2010Prop55
280
     0
102
RTVSPost2010PropOp55
 70
     1
102
RTVSPost2010Prop56
140
1.0
102
RTVSPost2010PropOp56
 70
     1
102
RTVSPost2010Prop57
140
1.0
102
RTVSPost2010PropOp57
 70
     1
  0
XRECORD
  5
131
102
{ACAD_REACTORS
330
130
102
}
330
130
100
AcDbXrecord
280
     1
102
RTVSPost2010Prop28
280
     0
102
RTVSPost2010PropOp28
 70
     1
102
RTVSPost2010Prop29
280
     1
102
RTVSPost2010PropOp29
 70
     1
102
RTVSPost2010Prop30
280
     1
102
RTVSPost2010PropOp30
 70
     1
102
RTVSPost2010Prop31
280
     0
102
RTVSPost2010PropOp31
 70
     1
102
RTVSPost2010Prop32
280
     0
102
RTVSPost2010PropOp32
 70
     1
102
RTVSPost2010Prop33
280
     0
102
RTVSPost2010PropOp33
 70
     1
102
RTVSPost2010Prop34
280
     0
102
RTVSPost2010PropOp34
 70
     1
102
RTVSPost2010Prop35
280
     0
102
RTVSPost2010PropOp35
 70
     1
102
RTVSPost2010Prop36
280
     0
102
RTVSPost2010PropOp36
 70
     1
102
RTVSPost2010Prop37
 90
       50
102
RTVSPost2010PropOp37
 70
     1
102
RTVSPost2010Prop38
140
0.0
102
RTVSPost2010PropOp38
 70
     1
102
RTVSPost2010Prop39
140
1.0
102
RTVSPost2010PropOp39
 70
     1
102
RTVSPost2010Prop40
 90
        0
102
RTVSPost2010PropOp40
 70
     1
102
RTVSPost2010Prop41ColorIndex
 90
       18
102
RTVSPost2010Prop41ColorRGB
 90
        0
102
RTVSPost2010PropOp41
 70
     1
102
RTVSPost2010Prop42
 90
       50
102
RTVSPost2010PropOp42
 70
     1
102
RTVSPost2010Prop43
 90
        3
102
RTVSPost2010PropOp43
 70
     1
102
RTVSPost2010Prop44ColorIndex
 90
        5
102
RTVSPost2010Prop44ColorRGB
 90
      255
102
RTVSPost2010PropOp44
 70
     1
102
RTVSPost2010Prop45
280
     0
102
RTVSPost2010PropOp45
 70
     1
102
RTVSPost2010Prop46
 90
       50
102
RTVSPost2010PropOp46
 70
     1
102
RTVSPost2010Prop47
 90
       50
102
RTVSPost2010PropOp47
 70
     1
102
RTVSPost2010Prop48
 90
       50
102
RTVSPost2010PropOp48
 70
     1
102
RTVSPost2010Prop49
280
     0
102
RTVSPost2010PropOp49
 70
     1
102
RTVSPost2010Prop50
 90
       50
102
RTVSPost2010PropOp50
 70
     1
102
RTVSPost2010Prop51ColorIndex
 90
      256
102
RTVSPost2010Prop51ColorRGB
 90
-16777216
102
RTVSPost2010PropOp51
 70
     0
102
RTVSPost2010Prop52
140
1.0
102
RTVSPost2010PropOp52
 70
     0
102
RTVSPost2010Prop53
 90
        2
102
RTVSPost2010PropOp53
 70
     1
102
RTVSPost2010Prop54
  1
strokes_ogs.tif
102
RTVSPost2010PropOp54
 70
     1
102
RTVSPost2010Prop55
280
     0
102
RTVSPost2010PropOp55
 70
     1
102
RTVSPost2010Prop56
140
1.0
102
RTVSPost2010PropOp56
 70
     1
102
RTVSPost2010Prop57
140
1.0
102
RTVSPost2010PropOp57
 70
     1
  0
ENDSEC
  0
EOF
