  0
SECTION
  2
HEADER
  9
$ACADVER
  1
AC1024
  9
$ACADMAINTVER
 70
   226
  9
$DWGCODEPAGE
  3
ANSI_932
  9
$INSBASE
 10
0.0
 20
0.0
 30
0.0
  9
$EXTMIN
 10
1.000000000000000E+20
 20
1.000000000000000E+20
 30
1.000000000000000E+20
  9
$EXTMAX
 10
-1.000000000000000E+20
 20
-1.000000000000000E+20
 30
-1.000000000000000E+20
  9
$LIMMIN
 10
0.0
 20
0.0
  9
$LIMMAX
 10
12.0
 20
9.0
  9
$ORTHOMODE
 70
     0
  9
$REGENMODE
 70
     1
  9
$FILLMODE
 70
     1
  9
$QTEXTMODE
 70
     0
  9
$MIRRTEXT
 70
     0
  9
$LTSCALE
 40
1.0
  9
$ATTMODE
 70
     1
  9
$TEXTSIZE
 40
0.2
  9
$TRACEWID
 40
0.05
  9
$TEXTSTYLE
  7
Standard
  9
$CLAYER
  8
0
  9
$CELTYPE
  6
ByLayer
  9
$CECOLOR
 62
   256
  9
$CELTSCALE
 40
1.0
  9
$DISPSILH
 70
     0
  9
$DIMSCALE
 40
1.0
  9
$DIMASZ
 40
0.18
  9
$DIMEXO
 40
0.0625
  9
$DIMDLI
 40
0.38
  9
$DIMRND
 40
0.0
  9
$DIMDLE
 40
0.0
  9
$DIMEXE
 40
0.18
  9
$DIMTP
 40
0.0
  9
$DIMTM
 40
0.0
  9
$DIMTXT
 40
0.18
  9
$DIMCEN
 40
0.09
  9
$DIMTSZ
 40
0.0
  9
$DIMTOL
 70
     0
  9
$DIMLIM
 70
     0
  9
$DIMTIH
 70
     1
  9
$DIMTOH
 70
     1
  9
$DIMSE1
 70
     0
  9
$DIMSE2
 70
     0
  9
$DIMTAD
 70
     0
  9
$DIMZIN
 70
     0
  9
$DIMBLK
  1

  9
$DIMASO
 70
     1
  9
$DIMSHO
 70
     1
  9
$DIMPOST
  1

  9
$DIMAPOST
  1

  9
$DIMALT
 70
     0
  9
$DIMALTD
 70
     2
  9
$DIMALTF
 40
25.4
  9
$DIMLFAC
 40
1.0
  9
$DIMTOFL
 70
     0
  9
$DIMTVP
 40
0.0
  9
$DIMTIX
 70
     0
  9
$DIMSOXD
 70
     0
  9
$DIMSAH
 70
     0
  9
$DIMBLK1
  1

  9
$DIMBLK2
  1

  9
$DIMSTYLE
  2
Standard
  9
$DIMCLRD
 70
     0
  9
$DIMCLRE
 70
     0
  9
$DIMCLRT
 70
     0
  9
$DIMTFAC
 40
1.0
  9
$DIMGAP
 40
0.09
  9
$DIMJUST
 70
     0
  9
$DIMSD1
 70
     0
  9
$DIMSD2
 70
     0
  9
$DIMTOLJ
 70
     1
  9
$DIMTZIN
 70
     0
  9
$DIMALTZ
 70
     0
  9
$DIMALTTZ
 70
     0
  9
$DIMUPT
 70
     0
  9
$DIMDEC
 70
     4
  9
$DIMTDEC
 70
     4
  9
$DIMALTU
 70
     2
  9
$DIMALTTD
 70
     2
  9
$DIMTXSTY
  7
Standard
  9
$DIMAUNIT
 70
     0
  9
$DIMADEC
 70
     0
  9
$DIMALTRND
 40
0.0
  9
$DIMAZIN
 70
     0
  9
$DIMDSEP
 70
    46
  9
$DIMATFIT
 70
     3
  9
$DIMFRAC
 70
     0
  9
$DIMLDRBLK
  1

  9
$DIMLUNIT
 70
     2
  9
$DIMLWD
 70
    -2
  9
$DIMLWE
 70
    -2
  9
$DIMTMOVE
 70
     0
  9
$DIMFXL
 40
1.0
  9
$DIMFXLON
 70
     0
  9
$DIMJOGANG
 40
0.7853981633974483
  9
$DIMTFILL
 70
     0
  9
$DIMTFILLCLR
 70
     0
  9
$DIMARCSYM
 70
     0
  9
$DIMLTYPE
  6

  9
$DIMLTEX1
  6

  9
$DIMLTEX2
  6

  9
$DIMTXTDIRECTION
 70
     0
  9
$LUNITS
 70
     2
  9
$LUPREC
 70
     4
  9
$SKETCHINC
 40
0.1
  9
$FILLETRAD
 40
0.0
  9
$AUNITS
 70
     0
  9
$AUPREC
 70
     0
  9
$MENU
  1
.
  9
$ELEVATION
 40
0.0
  9
$PELEVATION
 40
0.0
  9
$THICKNESS
 40
0.0
  9
$LIMCHECK
 70
     0
  9
$CHAMFERA
 40
0.0
  9
$CHAMFERB
 40
0.0
  9
$CHAMFERC
 40
0.0
  9
$CHAMFERD
 40
0.0
  9
$SKPOLY
 70
     0
  9
$TDCREATE
 40
2459569.489895833
  9
$TDUCREATE
 40
2459569.114895833
  9
$TDUPDATE
 40
2459569.489895833
  9
$TDUUPDATE
 40
2459569.114895833
  9
$TDINDWG
 40
0.0000000000
  9
$TDUSRTIMER
 40
0.0000000000
  9
$USRTIMER
 70
     1
  9
$ANGBASE
 50
0.0
  9
$ANGDIR
 70
     0
  9
$PDMODE
 70
     0
  9
$PDSIZE
 40
0.0
  9
$PLINEWID
 40
0.0
  9
$SPLFRAME
 70
     0
  9
$SPLINETYPE
 70
     6
  9
$SPLINESEGS
 70
     8
  9
$HANDSEED
  5
126
  9
$SURFTAB1
 70
     6
  9
$SURFTAB2
 70
     6
  9
$SURFTYPE
 70
     6
  9
$SURFU
 70
     6
  9
$SURFV
 70
     6
  9
$UCSBASE
  2

  9
$UCSNAME
  2

  9
$UCSORG
 10
0.0
 20
0.0
 30
0.0
  9
$UCSXDIR
 10
1.0
 20
0.0
 30
0.0
  9
$UCSYDIR
 10
0.0
 20
1.0
 30
0.0
  9
$UCSORTHOREF
  2

  9
$UCSORTHOVIEW
 70
     0
  9
$UCSORGTOP
 10
0.0
 20
0.0
 30
0.0
  9
$UCSORGBOTTOM
 10
0.0
 20
0.0
 30
0.0
  9
$UCSORGLEFT
 10
0.0
 20
0.0
 30
0.0
  9
$UCSORGRIGHT
 10
0.0
 20
0.0
 30
0.0
  9
$UCSORGFRONT
 10
0.0
 20
0.0
 30
0.0
  9
$UCSORGBACK
 10
0.0
 20
0.0
 30
0.0
  9
$PUCSBASE
  2

  9
$PUCSNAME
  2

  9
$PUCSORG
 10
0.0
 20
0.0
 30
0.0
  9
$PUCSXDIR
 10
1.0
 20
0.0
 30
0.0
  9
$PUCSYDIR
 10
0.0
 20
1.0
 30
0.0
  9
$PUCSORTHOREF
  2

  9
$PUCSORTHOVIEW
 70
     0
  9
$PUCSORGTOP
 10
0.0
 20
0.0
 30
0.0
  9
$PUCSORGBOTTOM
 10
0.0
 20
0.0
 30
0.0
  9
$PUCSORGLEFT
 10
0.0
 20
0.0
 30
0.0
  9
$PUCSORGRIGHT
 10
0.0
 20
0.0
 30
0.0
  9
$PUCSORGFRONT
 10
0.0
 20
0.0
 30
0.0
  9
$PUCSORGBACK
 10
0.0
 20
0.0
 30
0.0
  9
$USERI1
 70
     0
  9
$USERI2
 70
     0
  9
$USERI3
 70
     0
  9
$USERI4
 70
     0
  9
$USERI5
 70
     0
  9
$USERR1
 40
0.0
  9
$USERR2
 40
0.0
  9
$USERR3
 40
0.0
  9
$USERR4
 40
0.0
  9
$USERR5
 40
0.0
  9
$WORLDVIEW
 70
     1
  9
$SHADEDGE
 70
     3
  9
$SHADEDIF
 70
    70
  9
$TILEMODE
 70
     1
  9
$MAXACTVP
 70
    64
  9
$PINSBASE
 10
0.0
 20
0.0
 30
0.0
  9
$PLIMCHECK
 70
     0
  9
$PEXTMIN
 10
1.000000000000000E+20
 20
1.000000000000000E+20
 30
1.000000000000000E+20
  9
$PEXTMAX
 10
-1.000000000000000E+20
 20
-1.000000000000000E+20
 30
-1.000000000000000E+20
  9
$PLIMMIN
 10
0.0
 20
0.0
  9
$PLIMMAX
 10
12.0
 20
9.0
  9
$UNITMODE
 70
     0
  9
$VISRETAIN
 70
     1
  9
$PLINEGEN
 70
     0
  9
$PSLTSCALE
 70
     1
  9
$TREEDEPTH
 70
  3020
  9
$CMLSTYLE
  2
Standard
  9
$CMLJUST
 70
     0
  9
$CMLSCALE
 40
1.0
  9
$PROXYGRAPHICS
 70
     1
  9
$MEASUREMENT
 70
     0
  9
$CELWEIGHT
370
    -1
  9
$ENDCAPS
280
     0
  9
$JOINSTYLE
280
     0
  9
$LWDISPLAY
290
     1
  9
$INSUNITS
 70
     4
  9
$HYPERLINKBASE
  1

  9
$STYLESHEET
  1

  9
$XEDIT
290
     1
  9
$CEPSNTYPE
380
     0
  9
$PSTYLEMODE
290
     1
  9
$FINGERPRINTGUID
  2
{235FE142-7B97-B54B-B8C2-D05FCDE4A656}
  9
$VERSIONGUID
  2
{19CC3765-424C-C54D-A7B1-261776A5D8BC}
  9
$EXTNAMES
290
     1
  9
$PSVPSCALE
 40
0.0
  9
$OLESTARTUP
290
     0
  9
$SORTENTS
280
   127
  9
$INDEXCTL
280
     0
  9
$HIDETEXT
280
     1
  9
$XCLIPFRAME
280
     2
  9
$HALOGAP
280
     0
  9
$OBSCOLOR
 70
   257
  9
$OBSLTYPE
280
     0
  9
$INTERSECTIONDISPLAY
280
     0
  9
$INTERSECTIONCOLOR
 70
   257
  9
$DIMASSOC
280
     2
  9
$PROJECTNAME
  1

  9
$CAMERADISPLAY
290
     0
  9
$LENSLENGTH
 40
50.0
  9
$CAMERAHEIGHT
 40
0.0
  9
$STEPSPERSEC
 40
2.0
  9
$STEPSIZE
 40
6.0
  9
$3DDWFPREC
 40
2.0
  9
$PSOLWIDTH
 40
0.25
  9
$PSOLHEIGHT
 40
4.0
  9
$LOFTANG1
 40
1.570796326794896
  9
$LOFTANG2
 40
1.570796326794896
  9
$LOFTMAG1
 40
0.0
  9
$LOFTMAG2
 40
0.0
  9
$LOFTPARAM
 70
     7
  9
$LOFTNORMALS
280
     1
  9
$LATITUDE
 40
37.795
  9
$LONGITUDE
 40
-122.394
  9
$NORTHDIRECTION
 40
0.0
  9
$TIMEZONE
 70
 -8000
  9
$LIGHTGLYPHDISPLAY
280
     1
  9
$TILEMODELIGHTSYNCH
280
     1
  9
$CMATERIAL
347
11
  9
$SOLIDHIST
280
     0
  9
$SHOWHIST
280
     1
  9
$DWFFRAME
280
     2
  9
$DGNFRAME
280
     0
  9
$REALWORLDSCALE
290
     1
  9
$INTERFERECOLOR
 62
     1
  9
$INTERFEREOBJVS
345
33
  9
$INTERFEREVPVS
346
30
  9
$CSHADOW
280
     0
  9
$SHADOWPLANELOCATION
 40
0.0
  0
ENDSEC
  0
SECTION
  2
CLASSES
  0
CLASS
  1
ACDBDICTIONARYWDFLT
  2
AcDbDictionaryWithDefault
  3
ObjectDBX Classes
 90
        0
 91
        1
280
     0
281
     0
  0
CLASS
  1
MATERIAL
  2
AcDbMaterial
  3
ObjectDBX Classes
 90
     1153
 91
        3
280
     0
281
     0
  0
CLASS
  1
VISUALSTYLE
  2
AcDbVisualStyle
  3
ObjectDBX Classes
 90
     4095
 91
       24
280
     0
281
     0
  0
CLASS
  1
SCALE
  2
AcDbScale
  3
ObjectDBX Classes
 90
     1153
 91
       17
280
     0
281
     0
  0
CLASS
  1
TABLESTYLE
  2
AcDbTableStyle
  3
ObjectDBX Classes
 90
     4095
 91
        1
280
     0
281
     0
  0
CLASS
  1
MLEADERSTYLE
  2
AcDbMLeaderStyle
  3
ACDB_MLEADERSTYLE_CLASS
 90
     4095
 91
        1
280
     0
281
     0
  0
CLASS
  1
ACDBSECTIONVIEWSTYLE
  2
AcDbSectionViewStyle
  3
ObjectDBX Classes
 90
     1025
 91
        1
280
     0
281
     0
  0
CLASS
  1
ACDBDETAILVIEWSTYLE
  2
AcDbDetailViewStyle
  3
ObjectDBX Classes
 90
     1025
 91
        1
280
     0
281
     0
  0
CLASS
  1
DICTIONARYVAR
  2
AcDbDictionaryVar
  3
ObjectDBX Classes
 90
        0
 91
        5
280
     0
281
     0
  0
CLASS
  1
CELLSTYLEMAP
  2
AcDbCellStyleMap
  3
ObjectDBX Classes
 90
     1152
 91
        1
280
     0
281
     0
  0
ENDSEC
  0
SECTION
  2
TABLES
  0
TABLE
  2
VPORT
  5
8
330
0
100
AcDbSymbolTable
 70
     1
  0
VPORT
  5
57
330
8
100
AcDbSymbolTableRecord
100
AcDbViewportTableRecord
  2
*Active
 70
     0
 10
0.0
 20
0.0
 11
1.0
 21
1.0
 12
0.0
 22
0.0
 13
0.0
 23
0.0
 14
1.0
 24
1.0
 15
0.0
 25
0.0
 16
0.0
 26
0.0
 36
1.0
 17
104.9999999737534
 27
-148.4999999628701
 37
0.0
 40
302.939999924255
 41
0.7070707070707534
 42
50.0
 43
0.0
 44
0.0
 50
0.0
 51
0.0
 71
     0
 72
   100
 73
     1
 74
     0
 75
     1
 76
     0
 77
     0
 78
     0
281
     0
 65
     1
110
0.0
120
0.0
130
0.0
111
1.0
121
0.0
131
0.0
112
0.0
122
1.0
132
0.0
 79
     0
146
0.0
 60
     3
 61
     5
292
     1
282
     1
141
0.0
142
0.0
 63
   250
421
  3355443
  0
ENDTAB
  0
TABLE
  2
LTYPE
  5
5
330
0
100
AcDbSymbolTable
 70
     2
  0
LTYPE
  5
5B
330
5
100
AcDbSymbolTableRecord
100
AcDbLinetypeTableRecord
  2
ByBlock
 70
     0
  3

 72
    65
 73
     0
 40
0.0
  0
LTYPE
  5
5C
330
5
100
AcDbSymbolTableRecord
100
AcDbLinetypeTableRecord
  2
ByLayer
 70
     0
  3

 72
    65
 73
     0
 40
0.0
  0
LTYPE
  5
5D
330
5
100
AcDbSymbolTableRecord
100
AcDbLinetypeTableRecord
  2
Continuous
 70
     0
  3
Solid line
 72
    65
 73
     0
 40
0.0
  0
LTYPE
  5
E6
330
5
100
AcDbSymbolTableRecord
100
AcDbLinetypeTableRecord
  2
AI-Linetype-0
 70
     0
  3
Adobe Illustrator Linetype No. 0
 72
    65
 73
     2
 40
1.411111110758333
 49
0.7055555553791667
 74
     0
 49
-0.7055555553791667
 74
     0
  0
ENDTAB
  0
TABLE
  2
LAYER
  5
2
330
0
100
AcDbSymbolTable
 70
     2
  0
LAYER
  5
54
330
2
100
AcDbSymbolTableRecord
100
AcDbLayerTableRecord
  2
0
 70
     0
 62
     7
  6
Continuous
370
    -3
390
F
347
21
  0
LAYER
  5
78
330
2
100
AcDbSymbolTableRecord
100
AcDbLayerTableRecord
  2
レイヤー 1
 70
     0
 62
     7
  6
Continuous
370
     0
390
F
347
21
  0
ENDTAB
  0
TABLE
  2
STYLE
  5
3
330
0
100
AcDbSymbolTable
 70
     2
  0
STYLE
  5
55
330
3
100
AcDbSymbolTableRecord
100
AcDbTextStyleTableRecord
  2
Standard
 70
     0
 40
0.0
 41
1.0
 50
0.0
 71
     0
 42
0.2
  3
txt
  4

  0
STYLE
  5
5A
330
3
100
AcDbSymbolTableRecord
100
AcDbTextStyleTableRecord
  2
Annotative
 70
     0
 40
0.0
 41
1.0
 50
0.0
 71
     0
 42
0.2
  3
txt
  4

1001
AcadAnnotative
1000
AnnotativeData
1002
{
1070
     1
1070
     1
1002
}
  0
ENDTAB
  0
TABLE
  2
VIEW
  5
6
330
0
100
AcDbSymbolTable
 70
     0
  0
ENDTAB
  0
TABLE
  2
UCS
  5
7
330
0
100
AcDbSymbolTable
 70
     0
  0
ENDTAB
  0
TABLE
  2
APPID
  5
9
330
0
100
AcDbSymbolTable
 70
     2
  0
APPID
  5
56
330
9
100
AcDbSymbolTableRecord
100
AcDbRegAppTableRecord
  2
ACAD
 70
     0
  0
APPID
  5
5E
330
9
100
AcDbSymbolTableRecord
100
AcDbRegAppTableRecord
  2
AcadAnnotative
 70
     0
  0
ENDTAB
  0
TABLE
  2
DIMSTYLE
  5
A
330
0
100
AcDbSymbolTable
 70
     2
100
AcDbDimStyleTable
 71
     0
  0
DIMSTYLE
105
58
330
A
100
AcDbSymbolTableRecord
100
AcDbDimStyleTableRecord
  2
Standard
 70
     0
340
55
  0
DIMSTYLE
105
59
330
A
100
AcDbSymbolTableRecord
100
AcDbDimStyleTableRecord
  2
Annotative
 70
     0
340
55
1001
AcadAnnotative
1000
AnnotativeData
1002
{
1070
     1
1070
     1
1002
}
  0
ENDTAB
  0
TABLE
  2
BLOCK_RECORD
  5
1
330
0
100
AcDbSymbolTable
 70
    11
  0
BLOCK_RECORD
  5
70
330
1
100
AcDbSymbolTableRecord
100
AcDbBlockTableRecord
  2
*Model_Space
340
73
 70
     0
280
     1
281
     0
  0
BLOCK_RECORD
  5
6C
330
1
100
AcDbSymbolTableRecord
100
AcDbBlockTableRecord
  2
*Paper_Space
340
6F
 70
     0
280
     1
281
     0
  0
BLOCK_RECORD
  5
74
330
1
100
AcDbSymbolTableRecord
100
AcDbBlockTableRecord
  2
*Paper_Space0
340
77
 70
     0
280
     1
281
     0
  0
BLOCK_RECORD
  5
91
330
1
100
AcDbSymbolTableRecord
100
AcDbBlockTableRecord
  2
Block_0
340
0
102
{BLKREFS
331
92
102
}
 70
     0
280
     1
281
     0
  0
BLOCK_RECORD
  5
95
330
1
100
AcDbSymbolTableRecord
100
AcDbBlockTableRecord
  2
Block_1
340
0
102
{BLKREFS
331
96
102
}
 70
     0
280
     1
281
     0
  0
BLOCK_RECORD
  5
A2
330
1
100
AcDbSymbolTableRecord
100
AcDbBlockTableRecord
  2
Block_2
340
0
102
{BLKREFS
331
A3
102
}
 70
     0
280
     1
281
     0
  0
BLOCK_RECORD
  5
A8
330
1
100
AcDbSymbolTableRecord
100
AcDbBlockTableRecord
  2
Block_3
340
0
102
{BLKREFS
331
A9
102
}
 70
     0
280
     1
281
     0
  0
BLOCK_RECORD
  5
AF
330
1
100
AcDbSymbolTableRecord
100
AcDbBlockTableRecord
  2
Block_4
340
0
102
{BLKREFS
331
B0
102
}
 70
     0
280
     1
281
     0
  0
BLOCK_RECORD
  5
B3
330
1
100
AcDbSymbolTableRecord
100
AcDbBlockTableRecord
  2
Block_5
340
0
102
{BLKREFS
331
B4
102
}
 70
     0
280
     1
281
     0
  0
BLOCK_RECORD
  5
BB
330
1
100
AcDbSymbolTableRecord
100
AcDbBlockTableRecord
  2
Block_6
340
0
102
{BLKREFS
331
BC
102
}
 70
     0
280
     1
281
     0
  0
BLOCK_RECORD
  5
BF
330
1
100
AcDbSymbolTableRecord
100
AcDbBlockTableRecord
  2
Block_7
340
0
102
{BLKREFS
331
C0
102
}
 70
     0
280
     1
281
     0
  0
BLOCK_RECORD
  5
CB
330
1
100
AcDbSymbolTableRecord
100
AcDbBlockTableRecord
  2
Block_8
340
0
102
{BLKREFS
331
CC
102
}
 70
     0
280
     1
281
     0
  0
BLOCK_RECORD
  5
CF
330
1
100
AcDbSymbolTableRecord
100
AcDbBlockTableRecord
  2
Block_9
340
0
102
{BLKREFS
331
D0
102
}
 70
     0
280
     1
281
     0
  0
ENDTAB
  0
ENDSEC
  0
SECTION
  2
BLOCKS
  0
BLOCK
  5
71
330
70
100
AcDbEntity
  8
0
100
AcDbBlockBegin
  2
*Model_Space
 70
     0
 10
0.0
 20
0.0
 30
0.0
  3
*Model_Space
  1

  0
ENDBLK
  5
72
330
70
100
AcDbEntity
  8
0
100
AcDbBlockEnd
  0
BLOCK
  5
6D
330
6C
100
AcDbEntity
 67
     1
  8
0
100
AcDbBlockBegin
  2
*Paper_Space
 70
     0
 10
0.0
 20
0.0
 30
0.0
  3
*Paper_Space
  1

  0
ENDBLK
  5
6E
330
6C
100
AcDbEntity
 67
     1
  8
0
100
AcDbBlockEnd
  0
BLOCK
  5
75
330
74
100
AcDbEntity
 67
     1
  8
0
100
AcDbBlockBegin
  2
*Paper_Space0
 70
     0
 10
0.0
 20
0.0
 30
0.0
  3
*Paper_Space0
  1

  0
ENDBLK
  5
76
330
74
100
AcDbEntity
 67
     1
  8
0
100
AcDbBlockEnd
  0
BLOCK
  5
93
330
91
100
AcDbEntity
  8
0
100
AcDbBlockBegin
  2
Block_0
 70
     0
 10
0.0
 20
0.0
 30
0.0
  3
Block_0
  1

  0
INSERT
  5
96
330
91
100
AcDbEntity
  8
レイヤー 1
100
AcDbBlockReference
  2
Block_1
 10
0.0
 20
0.0
 30
0.0
  0
ENDBLK
  5
94
330
91
100
AcDbEntity
  8
0
100
AcDbBlockEnd
  0
BLOCK
  5
97
330
95
100
AcDbEntity
  8
0
100
AcDbBlockBegin
  2
Block_1
 70
     0
 10
0.0
 20
0.0
 30
0.0
  3
Block_1
  1

  0
SPLINE
  5
99
330
95
100
AcDbEntity
  8
レイヤー 1
100
AcDbSpline
210
0.0
220
0.0
230
1.0
 70
     9
 71
     3
 72
    17
 73
    13
 74
     0
 42
0.0000000001
 43
0.0000000001
 40
0.0
 40
0.0
 40
0.0
 40
0.0
 40
1.0
 40
1.0
 40
1.0
 40
2.0
 40
2.0
 40
2.0
 40
3.0
 40
3.0
 40
3.0
 40
4.0
 40
4.0
 40
4.0
 40
4.0
 10
116.9024251009827
 20
-142.2180202552441
 30
0.0
 10
116.9024251009827
 20
-142.4677896779247
 30
0.0
 10
117.1859564594188
 20
-142.5142984669756
 30
0.0
 10
117.5308105174923
 20
-142.5142984669756
 30
0.0
 10
117.8501708689749
 20
-142.5142984669756
 30
0.0
 10
118.1588514244533
 20
-142.4781249643805
 30
0.0
 10
118.1588514244533
 20
-142.2180202552441
 30
0.0
 10
118.1588514244533
 20
-141.9703178898546
 30
0.0
 10
117.8777316328569
 20
-141.9217420435126
 30
0.0
 10
117.5308105174923
 20
-141.9217420435126
 30
0.0
 10
117.2111056564611
 20
-141.9217420435126
 30
0.0
 10
116.9024251009827
 20
-141.9599826033989
 30
0.0
 10
116.9024251009827
 20
-142.2180202552441
 30
0.0
  0
SPLINE
  5
9A
330
95
100
AcDbEntity
  8
レイヤー 1
100
AcDbSpline
210
0.0
220
0.0
230
1.0
 70
     9
 71
     3
 72
    29
 73
    25
 74
     0
 42
0.0000000001
 43
0.0000000001
 40
0.0
 40
0.0
 40
0.0
 40
0.0
 40
1.0
 40
1.0
 40
1.0
 40
2.0
 40
2.0
 40
2.0
 40
3.0
 40
3.0
 40
3.0
 40
4.0
 40
4.0
 40
4.0
 40
5.0
 40
5.0
 40
5.0
 40
6.0
 40
6.0
 40
6.0
 40
7.0
 40
7.0
 40
7.0
 40
8.0
 40
8.0
 40
8.0
 40
8.0
 10
118.1250894886979
 20
-141.8201117266977
 30
0.0
 10
118.3345512942011
 20
-141.9282877249346
 30
0.0
 10
118.3534993193699
 20
-142.1015760278427
 30
0.0
 10
118.3534993193699
 20
-142.2180202552441
 30
0.0
 10
118.3534993193699
 20
-142.3789062144052
 30
0.0
 10
118.3069905303191
 20
-142.520499638849
 30
0.0
 10
118.1250894886979
 20
-142.6155842742419
 30
0.0
 10
117.9304415937812
 20
-142.7192816483479
 30
0.0
 10
117.6937635339446
 20
-142.7385741830653
 30
0.0
 10
117.5308105174923
 20
-142.7385741830653
 30
0.0
 10
117.3868055262088
 20
-142.7385741830653
 30
0.0
 10
117.1349690462371
 20
-142.7213487056391
 30
0.0
 10
116.9361870367382
 20
-142.6155842742419
 30
0.0
 10
116.7332709126569
 20
-142.5077527855536
 30
0.0
 10
116.7098442633572
 20
-142.3468668263924
 30
0.0
 10
116.7098442633572
 20
-142.2180202552441
 30
0.0
 10
116.7098442633572
 20
-142.0592013533741
 30
0.0
 10
116.754285995117
 20
-141.9155408716392
 30
0.0
 10
116.9361870367382
 20
-141.8201117266977
 30
0.0
 10
117.1287678743636
 20
-141.7208929767225
 30
0.0
 10
117.3571777050357
 20
-141.6974663274228
 30
0.0
 10
117.5308105174923
 20
-141.6974663274228
 30
0.0
 10
117.7020317631092
 20
-141.6974663274228
 30
0.0
 10
117.9325086510724
 20
-141.7188259194314
 30
0.0
 10
118.1250894886979
 20
-141.8201117266977
 30
0.0
  0
HATCH
  5
9B
330
95
100
AcDbEntity
  8
レイヤー 1
 62
    18
420
        0
440
 33554687
100
AcDbHatch
 10
0.0
 20
0.0
 30
0.0
210
0.0
220
0.0
230
1.0
  2
SOLID
 70
     1
 71
     1
 91
        2
 92
        1
 93
        1
 72
     4
 94
        3
 73
     0
 74
     0
 95
       17
 96
       13
 40
0.0
 40
0.0
 40
0.0
 40
0.0
 40
1.0
 40
1.0
 40
1.0
 40
2.0
 40
2.0
 40
2.0
 40
3.0
 40
3.0
 40
3.0
 40
4.0
 40
4.0
 40
4.0
 40
4.0
 10
116.9024251009827
 20
-142.2180202552441
 10
116.9024251009827
 20
-142.4677896779247
 10
117.1859564594188
 20
-142.5142984669756
 10
117.5308105174923
 20
-142.5142984669756
 10
117.8501708689749
 20
-142.5142984669756
 10
118.1588514244533
 20
-142.4781249643805
 10
118.1588514244533
 20
-142.2180202552441
 10
118.1588514244533
 20
-141.9703178898546
 10
117.8777316328569
 20
-141.9217420435126
 10
117.5308105174923
 20
-141.9217420435126
 10
117.2111056564611
 20
-141.9217420435126
 10
116.9024251009827
 20
-141.9599826033989
 10
116.9024251009827
 20
-142.2180202552441
 97
        0
 97
        1
330
99
 92
        1
 93
        1
 72
     4
 94
        3
 73
     0
 74
     0
 95
       29
 96
       25
 40
0.0
 40
0.0
 40
0.0
 40
0.0
 40
1.0
 40
1.0
 40
1.0
 40
2.0
 40
2.0
 40
2.0
 40
3.0
 40
3.0
 40
3.0
 40
4.0
 40
4.0
 40
4.0
 40
5.0
 40
5.0
 40
5.0
 40
6.0
 40
6.0
 40
6.0
 40
7.0
 40
7.0
 40
7.0
 40
8.0
 40
8.0
 40
8.0
 40
8.0
 10
118.1250894886979
 20
-141.8201117266977
 10
118.3345512942011
 20
-141.9282877249346
 10
118.3534993193699
 20
-142.1015760278427
 10
118.3534993193699
 20
-142.2180202552441
 10
118.3534993193699
 20
-142.3789062144052
 10
118.3069905303191
 20
-142.520499638849
 10
118.1250894886979
 20
-142.6155842742419
 10
117.9304415937812
 20
-142.7192816483479
 10
117.6937635339446
 20
-142.7385741830653
 10
117.5308105174923
 20
-142.7385741830653
 10
117.3868055262088
 20
-142.7385741830653
 10
117.1349690462371
 20
-142.7213487056391
 10
116.9361870367382
 20
-142.6155842742419
 10
116.7332709126569
 20
-142.5077527855536
 10
116.7098442633572
 20
-142.3468668263924
 10
116.7098442633572
 20
-142.2180202552441
 10
116.7098442633572
 20
-142.0592013533741
 10
116.754285995117
 20
-141.9155408716392
 10
116.9361870367382
 20
-141.8201117266977
 10
117.1287678743636
 20
-141.7208929767225
 10
117.3571777050357
 20
-141.6974663274228
 10
117.5308105174923
 20
-141.6974663274228
 10
117.7020317631092
 20
-141.6974663274228
 10
117.9325086510724
 20
-141.7188259194314
 10
118.1250894886979
 20
-141.8201117266977
 97
        0
 97
        1
330
9A
 75
     2
 76
     1
 98
        1
 10
0.0
 20
0.0
450
        0
451
        0
460
0.0
461
0.0
452
        0
462
0.0
453
        0
470

  0
SPLINE
  5
9C
330
95
100
AcDbEntity
  8
レイヤー 1
100
AcDbSpline
210
0.0
220
0.0
230
1.0
 70
    11
 71
     3
 72
    17
 73
    13
 74
     0
 42
0.0000000001
 43
0.0000000001
 40
0.0
 40
0.0
 40
0.0
 40
0.0
 40
1.0
 40
1.0
 40
1.0
 40
2.0
 40
2.0
 40
2.0
 40
3.0
 40
3.0
 40
3.0
 40
4.0
 40
4.0
 40
4.0
 40
4.0
 10
118.3028564157368
 20
-141.4811143309491
 30
0.0
 10
118.3028564157368
 20
-141.4811143309491
 30
0.0
 10
118.051019935765
 20
-141.4811143309491
 30
0.0
 10
118.051019935765
 20
-141.4811143309491
 30
0.0
 10
118.051019935765
 20
-141.4811143309491
 30
0.0
 10
118.051019935765
 20
-141.2292778509774
 30
0.0
 10
118.051019935765
 20
-141.2292778509774
 30
0.0
 10
118.051019935765
 20
-141.2292778509774
 30
0.0
 10
118.3028564157368
 20
-141.2292778509774
 30
0.0
 10
118.3028564157368
 20
-141.2292778509774
 30
0.0
 10
118.3028564157368
 20
-141.2292778509774
 30
0.0
 10
118.3028564157368
 20
-141.4811143309491
 30
0.0
 10
118.3028564157368
 20
-141.4811143309491
 30
0.0
  0
HATCH
  5
9D
330
95
100
AcDbEntity
  8
レイヤー 1
 62
    18
420
        0
440
 33554687
100
AcDbHatch
 10
0.0
 20
0.0
 30
0.0
210
0.0
220
0.0
230
1.0
  2
SOLID
 70
     1
 71
     1
 91
        1
 92
        1
 93
        1
 72
     4
 94
        3
 73
     0
 74
     0
 95
       17
 96
       13
 40
0.0
 40
0.0
 40
0.0
 40
0.0
 40
1.0
 40
1.0
 40
1.0
 40
2.0
 40
2.0
 40
2.0
 40
3.0
 40
3.0
 40
3.0
 40
4.0
 40
4.0
 40
4.0
 40
4.0
 10
118.3028564157368
 20
-141.4811143309491
 10
118.3028564157368
 20
-141.4811143309491
 10
118.051019935765
 20
-141.4811143309491
 10
118.051019935765
 20
-141.4811143309491
 10
118.051019935765
 20
-141.4811143309491
 10
118.051019935765
 20
-141.2292778509774
 10
118.051019935765
 20
-141.2292778509774
 10
118.051019935765
 20
-141.2292778509774
 10
118.3028564157368
 20
-141.2292778509774
 10
118.3028564157368
 20
-141.2292778509774
 10
118.3028564157368
 20
-141.2292778509774
 10
118.3028564157368
 20
-141.4811143309491
 10
118.3028564157368
 20
-141.4811143309491
 97
        0
 97
        1
330
9C
 75
     2
 76
     1
 98
        1
 10
0.0
 20
0.0
450
        0
451
        0
460
0.0
461
0.0
452
        0
462
0.0
453
        0
470

  0
SPLINE
  5
9E
330
95
100
AcDbEntity
  8
レイヤー 1
100
AcDbSpline
210
0.0
220
0.0
230
1.0
 70
     9
 71
     3
 72
    17
 73
    13
 74
     0
 42
0.0000000001
 43
0.0000000001
 40
0.0
 40
0.0
 40
0.0
 40
0.0
 40
1.0
 40
1.0
 40
1.0
 40
2.0
 40
2.0
 40
2.0
 40
3.0
 40
3.0
 40
3.0
 40
4.0
 40
4.0
 40
4.0
 40
4.0
 10
117.5625053959566
 20
-140.4930609457795
 30
0.0
 10
117.5625053959566
 20
-140.6367214275144
 30
0.0
 10
117.6493218021849
 20
-140.789339157511
 30
0.0
 10
117.8522379262661
 20
-140.789339157511
 30
0.0
 10
118.057565617187
 20
-140.789339157511
 30
0.0
 10
118.1588514244533
 20
-140.6622151341053
 30
0.0
 10
118.1588514244533
 20
-140.4930609457795
 30
0.0
 10
118.1588514244533
 20
-140.307025789576
 30
0.0
 10
118.0362060251784
 20
-140.196782734048
 30
0.0
 10
117.8584390981395
 20
-140.196782734048
 30
0.0
 10
117.6365749488895
 20
-140.196782734048
 30
0.0
 10
117.5625053959566
 20
-140.3597357505003
 30
0.0
 10
117.5625053959566
 20
-140.4930609457795
 30
0.0
  0
SPLINE
  5
9F
330
95
100
AcDbEntity
  8
レイヤー 1
100
AcDbSpline
210
0.0
220
0.0
230
1.0
 70
     9
 71
     3
 72
    17
 73
    13
 74
     0
 42
0.0000000001
 43
0.0000000001
 40
0.0
 40
0.0
 40
0.0
 40
0.0
 40
1.0
 40
1.0
 40
1.0
 40
2.0
 40
2.0
 40
2.0
 40
3.0
 40
3.0
 40
3.0
 40
4.0
 40
4.0
 40
4.0
 40
4.0
 10
116.9024251009827
 20
-140.4930609457795
 30
0.0
 10
116.9024251009827
 20
-140.658081019523
 30
0.0
 10
116.9975097363756
 20
-140.7424858589116
 30
0.0
 10
117.1329019889459
 20
-140.7424858589116
 30
0.0
 10
117.2555473882208
 20
-140.7424858589116
 30
0.0
 10
117.3740586729134
 20
-140.6708278728184
 30
0.0
 10
117.3740586729134
 20
-140.4930609457795
 30
0.0
 10
117.3740586729134
 20
-140.3152940187406
 30
0.0
 10
117.2555473882208
 20
-140.2432915230989
 30
0.0
 10
117.1329019889459
 20
-140.2432915230989
 30
0.0
 10
116.9975097363756
 20
-140.2432915230989
 30
0.0
 10
116.9024251009827
 20
-140.3301079293272
 30
0.0
 10
116.9024251009827
 20
-140.4930609457795
 30
0.0
  0
SPLINE
  5
A0
330
95
100
AcDbEntity
  8
レイヤー 1
100
AcDbSpline
210
0.0
220
0.0
230
1.0
 70
     9
 71
     3
 72
    29
 73
    25
 74
     0
 42
0.0000000001
 43
0.0000000001
 40
0.0
 40
0.0
 40
0.0
 40
0.0
 40
1.0
 40
1.0
 40
1.0
 40
2.0
 40
2.0
 40
2.0
 40
3.0
 40
3.0
 40
3.0
 40
4.0
 40
4.0
 40
4.0
 40
5.0
 40
5.0
 40
5.0
 40
6.0
 40
6.0
 40
6.0
 40
7.0
 40
7.0
 40
7.0
 40
8.0
 40
8.0
 40
8.0
 40
8.0
 10
118.3534993193699
 20
-140.4930609457795
 30
0.0
 10
118.3534993193699
 20
-140.7597113363378
 30
0.0
 10
118.2160400095085
 20
-141.0132703640522
 30
0.0
 10
117.8670518368527
 20
-141.0132703640522
 30
0.0
 10
117.6110812422986
 20
-141.0132703640522
 30
0.0
 10
117.5159966069057
 20
-140.8716769396084
 30
0.0
 10
117.4546739072683
 20
-140.7659125082113
 30
0.0
 10
117.395418264922
 20
-140.8906249647773
 30
0.0
 10
117.2810410948116
 20
-140.9667615750014
 30
0.0
 10
117.1201551356505
 20
-140.9667615750014
 30
0.0
 10
116.8452365159275
 20
-140.9667615750014
 30
0.0
 10
116.7098442633572
 20
-140.7679795655024
 30
0.0
 10
116.7098442633572
 20
-140.4930609457795
 30
0.0
 10
116.7098442633572
 20
-140.2095295873434
 30
0.0
 10
116.8538492546407
 20
-140.0190158070091
 30
0.0
 10
117.1201551356505
 20
-140.0190158070091
 30
0.0
 10
117.2810410948116
 20
-140.0190158070091
 30
0.0
 10
117.395418264922
 20
-140.0975639840728
 30
0.0
 10
117.4546739072683
 20
-140.2222764406389
 30
0.0
 10
117.5053168109014
 20
-140.1333929771194
 30
0.0
 10
117.6004014462943
 20
-139.9745740752494
 30
0.0
 10
117.8629177222703
 20
-139.9745740752494
 30
0.0
 10
118.237399601517
 20
-139.9745740752494
 30
0.0
 10
118.3534993193699
 20
-140.2539713191032
 30
0.0
 10
118.3534993193699
 20
-140.4930609457795
 30
0.0
  0
HATCH
  5
A1
330
95
100
AcDbEntity
  8
レイヤー 1
 62
    18
420
        0
440
 33554687
100
AcDbHatch
 10
0.0
 20
0.0
 30
0.0
210
0.0
220
0.0
230
1.0
  2
SOLID
 70
     1
 71
     1
 91
        3
 92
        1
 93
        1
 72
     4
 94
        3
 73
     0
 74
     0
 95
       17
 96
       13
 40
0.0
 40
0.0
 40
0.0
 40
0.0
 40
1.0
 40
1.0
 40
1.0
 40
2.0
 40
2.0
 40
2.0
 40
3.0
 40
3.0
 40
3.0
 40
4.0
 40
4.0
 40
4.0
 40
4.0
 10
117.5625053959566
 20
-140.4930609457795
 10
117.5625053959566
 20
-140.6367214275144
 10
117.6493218021849
 20
-140.789339157511
 10
117.8522379262661
 20
-140.789339157511
 10
118.057565617187
 20
-140.789339157511
 10
118.1588514244533
 20
-140.6622151341053
 10
118.1588514244533
 20
-140.4930609457795
 10
118.1588514244533
 20
-140.307025789576
 10
118.0362060251784
 20
-140.196782734048
 10
117.8584390981395
 20
-140.196782734048
 10
117.6365749488895
 20
-140.196782734048
 10
117.5625053959566
 20
-140.3597357505003
 10
117.5625053959566
 20
-140.4930609457795
 97
        0
 97
        1
330
9E
 92
        1
 93
        1
 72
     4
 94
        3
 73
     0
 74
     0
 95
       17
 96
       13
 40
0.0
 40
0.0
 40
0.0
 40
0.0
 40
1.0
 40
1.0
 40
1.0
 40
2.0
 40
2.0
 40
2.0
 40
3.0
 40
3.0
 40
3.0
 40
4.0
 40
4.0
 40
4.0
 40
4.0
 10
116.9024251009827
 20
-140.4930609457795
 10
116.9024251009827
 20
-140.658081019523
 10
116.9975097363756
 20
-140.7424858589116
 10
117.1329019889459
 20
-140.7424858589116
 10
117.2555473882208
 20
-140.7424858589116
 10
117.3740586729134
 20
-140.6708278728184
 10
117.3740586729134
 20
-140.4930609457795
 10
117.3740586729134
 20
-140.3152940187406
 10
117.2555473882208
 20
-140.2432915230989
 10
117.1329019889459
 20
-140.2432915230989
 10
116.9975097363756
 20
-140.2432915230989
 10
116.9024251009827
 20
-140.3301079293272
 10
116.9024251009827
 20
-140.4930609457795
 97
        0
 97
        1
330
9F
 92
        1
 93
        1
 72
     4
 94
        3
 73
     0
 74
     0
 95
       29
 96
       25
 40
0.0
 40
0.0
 40
0.0
 40
0.0
 40
1.0
 40
1.0
 40
1.0
 40
2.0
 40
2.0
 40
2.0
 40
3.0
 40
3.0
 40
3.0
 40
4.0
 40
4.0
 40
4.0
 40
5.0
 40
5.0
 40
5.0
 40
6.0
 40
6.0
 40
6.0
 40
7.0
 40
7.0
 40
7.0
 40
8.0
 40
8.0
 40
8.0
 40
8.0
 10
118.3534993193699
 20
-140.4930609457795
 10
118.3534993193699
 20
-140.7597113363378
 10
118.2160400095085
 20
-141.0132703640522
 10
117.8670518368527
 20
-141.0132703640522
 10
117.6110812422986
 20
-141.0132703640522
 10
117.5159966069057
 20
-140.8716769396084
 10
117.4546739072683
 20
-140.7659125082113
 10
117.395418264922
 20
-140.8906249647773
 10
117.2810410948116
 20
-140.9667615750014
 10
117.1201551356505
 20
-140.9667615750014
 10
116.8452365159275
 20
-140.9667615750014
 10
116.7098442633572
 20
-140.7679795655024
 10
116.7098442633572
 20
-140.4930609457795
 10
116.7098442633572
 20
-140.2095295873434
 10
116.8538492546407
 20
-140.0190158070091
 10
117.1201551356505
 20
-140.0190158070091
 10
117.2810410948116
 20
-140.0190158070091
 10
117.395418264922
 20
-140.0975639840728
 10
117.4546739072683
 20
-140.2222764406389
 10
117.5053168109014
 20
-140.1333929771194
 10
117.6004014462943
 20
-139.9745740752494
 10
117.8629177222703
 20
-139.9745740752494
 10
118.237399601517
 20
-139.9745740752494
 10
118.3534993193699
 20
-140.2539713191032
 10
118.3534993193699
 20
-140.4930609457795
 97
        0
 97
        1
330
A0
 75
     2
 76
     1
 98
        1
 10
0.0
 20
0.0
450
        0
451
        0
460
0.0
461
0.0
452
        0
462
0.0
453
        0
470

  0
ENDBLK
  5
98
330
95
100
AcDbEntity
  8
0
100
AcDbBlockEnd
  0
BLOCK
  5
A4
330
A2
100
AcDbEntity
  8
0
100
AcDbBlockBegin
  2
Block_2
 70
     0
 10
0.0
 20
0.0
 30
0.0
  3
Block_2
  1

  0
SPLINE
  5
A6
330
A2
100
AcDbEntity
  8
レイヤー 1
100
AcDbSpline
210
0.0
220
0.0
230
1.0
 70
     9
 71
     3
 72
    44
 73
    40
 74
     0
 42
0.0000000001
 43
0.0000000001
 40
0.0
 40
0.0
 40
0.0
 40
0.0
 40
1.0
 40
1.0
 40
1.0
 40
2.0
 40
2.0
 40
2.0
 40
3.0
 40
3.0
 40
3.0
 40
4.0
 40
4.0
 40
4.0
 40
5.0
 40
5.0
 40
5.0
 40
6.0
 40
6.0
 40
6.0
 40
7.0
 40
7.0
 40
7.0
 40
8.0
 40
8.0
 40
8.0
 40
9.0
 40
9.0
 40
9.0
 40
10.0
 40
10.0
 40
10.0
 40
11.0
 40
11.0
 40
11.0
 40
12.0
 40
12.0
 40
12.0
 40
13.0
 40
13.0
 40
13.0
 40
13.0
 10
117.7209797882781
 20
-156.061791953172
 30
0.0
 10
117.8797986901481
 20
-156.2795219878398
 30
0.0
 10
117.953868243081
 20
-156.3725395659416
 30
0.0
 10
118.0975287248159
 20
-156.4214599218321
 30
0.0
 10
118.0975287248159
 20
-156.4214599218321
 30
0.0
 10
118.0975287248159
 20
-155.6428683421657
 30
0.0
 10
118.0975287248159
 20
-155.6428683421657
 30
0.0
 10
118.0975287248159
 20
-155.6428683421657
 30
0.0
 10
118.3028564157368
 20
-155.6428683421657
 30
0.0
 10
118.3028564157368
 20
-155.6428683421657
 30
0.0
 10
118.3028564157368
 20
-155.6428683421657
 30
0.0
 10
118.3028564157368
 20
-156.6708848349642
 30
0.0
 10
118.3028564157368
 20
-156.6708848349642
 30
0.0
 10
117.9452555043678
 20
-156.6391899564999
 30
0.0
 10
117.8670518368527
 20
-156.5737331422802
 30
0.0
 10
117.56870656783
 20
-156.1885714670292
 30
0.0
 10
117.3699245583311
 20
-155.9326008724752
 30
0.0
 10
117.3020561772717
 20
-155.8671440582554
 30
0.0
 10
117.1645968674102
 20
-155.8671440582554
 30
0.0
 10
117.0460855827176
 20
-155.8671440582554
 30
0.0
 10
116.9151719542781
 20
-155.9391465538971
 30
0.0
 10
116.9151719542781
 20
-156.1358615061049
 30
0.0
 10
116.9151719542781
 20
-156.3959662152413
 30
0.0
 10
117.1456488422413
 20
-156.4045789539544
 30
0.0
 10
117.2620930696428
 20
-156.4087130685367
 30
0.0
 10
117.2620930696428
 20
-156.4087130685367
 30
0.0
 10
117.2620930696428
 20
-156.6329887846265
 30
0.0
 10
117.2620930696428
 20
-156.6329887846265
 30
0.0
 10
117.1349690462371
 20
-156.6243760459133
 30
0.0
 10
117.0230034429665
 20
-156.6136962499091
 30
0.0
 10
116.9044921582738
 20
-156.5334255251027
 30
0.0
 10
116.7436061991127
 20
-156.4235269791233
 30
0.0
 10
116.7098442633572
 20
-156.2371473133713
 30
0.0
 10
116.7098442633572
 20
-156.1210475955183
 30
0.0
 10
116.7098442633572
 20
-155.8437174089557
 30
0.0
 10
116.8938123622696
 20
-155.6363226607437
 30
0.0
 10
117.1666639247014
 20
-155.6363226607437
 30
0.0
 10
117.395418264922
 20
-155.6363226607437
 30
0.0
 10
117.4946370148971
 20
-155.7527668881451
 30
0.0
 10
117.7209797882781
 20
-156.061791953172
 30
0.0
  0
HATCH
  5
A7
330
A2
100
AcDbEntity
  8
レイヤー 1
 62
    18
420
        0
440
 33554687
100
AcDbHatch
 10
0.0
 20
0.0
 30
0.0
210
0.0
220
0.0
230
1.0
  2
SOLID
 70
     1
 71
     1
 91
        1
 92
        1
 93
        1
 72
     4
 94
        3
 73
     0
 74
     0
 95
       44
 96
       40
 40
0.0
 40
0.0
 40
0.0
 40
0.0
 40
1.0
 40
1.0
 40
1.0
 40
2.0
 40
2.0
 40
2.0
 40
3.0
 40
3.0
 40
3.0
 40
4.0
 40
4.0
 40
4.0
 40
5.0
 40
5.0
 40
5.0
 40
6.0
 40
6.0
 40
6.0
 40
7.0
 40
7.0
 40
7.0
 40
8.0
 40
8.0
 40
8.0
 40
9.0
 40
9.0
 40
9.0
 40
10.0
 40
10.0
 40
10.0
 40
11.0
 40
11.0
 40
11.0
 40
12.0
 40
12.0
 40
12.0
 40
13.0
 40
13.0
 40
13.0
 40
13.0
 10
117.7209797882781
 20
-156.061791953172
 10
117.8797986901481
 20
-156.2795219878398
 10
117.953868243081
 20
-156.3725395659416
 10
118.0975287248159
 20
-156.4214599218321
 10
118.0975287248159
 20
-156.4214599218321
 10
118.0975287248159
 20
-155.6428683421657
 10
118.0975287248159
 20
-155.6428683421657
 10
118.0975287248159
 20
-155.6428683421657
 10
118.3028564157368
 20
-155.6428683421657
 10
118.3028564157368
 20
-155.6428683421657
 10
118.3028564157368
 20
-155.6428683421657
 10
118.3028564157368
 20
-156.6708848349642
 10
118.3028564157368
 20
-156.6708848349642
 10
117.9452555043678
 20
-156.6391899564999
 10
117.8670518368527
 20
-156.5737331422802
 10
117.56870656783
 20
-156.1885714670292
 10
117.3699245583311
 20
-155.9326008724752
 10
117.3020561772717
 20
-155.8671440582554
 10
117.1645968674102
 20
-155.8671440582554
 10
117.0460855827176
 20
-155.8671440582554
 10
116.9151719542781
 20
-155.9391465538971
 10
116.9151719542781
 20
-156.1358615061049
 10
116.9151719542781
 20
-156.3959662152413
 10
117.1456488422413
 20
-156.4045789539544
 10
117.2620930696428
 20
-156.4087130685367
 10
117.2620930696428
 20
-156.4087130685367
 10
117.2620930696428
 20
-156.6329887846265
 10
117.2620930696428
 20
-156.6329887846265
 10
117.1349690462371
 20
-156.6243760459133
 10
117.0230034429665
 20
-156.6136962499091
 10
116.9044921582738
 20
-156.5334255251027
 10
116.7436061991127
 20
-156.4235269791233
 10
116.7098442633572
 20
-156.2371473133713
 10
116.7098442633572
 20
-156.1210475955183
 10
116.7098442633572
 20
-155.8437174089557
 10
116.8938123622696
 20
-155.6363226607437
 10
117.1666639247014
 20
-155.6363226607437
 10
117.395418264922
 20
-155.6363226607437
 10
117.4946370148971
 20
-155.7527668881451
 10
117.7209797882781
 20
-156.061791953172
 97
        0
 97
        1
330
A6
 75
     2
 76
     1
 98
        1
 10
0.0
 20
0.0
450
        0
451
        0
460
0.0
461
0.0
452
        0
462
0.0
453
        0
470

  0
ENDBLK
  5
A5
330
A2
100
AcDbEntity
  8
0
100
AcDbBlockEnd
  0
BLOCK
  5
AA
330
A8
100
AcDbEntity
  8
0
100
AcDbBlockBegin
  2
Block_3
 70
     0
 10
0.0
 20
0.0
 30
0.0
  3
Block_3
  1

  0
SPLINE
  5
AC
330
A8
100
AcDbEntity
  8
レイヤー 1
100
AcDbSpline
210
0.0
220
0.0
230
1.0
 70
    11
 71
     3
 72
    14
 73
    10
 74
     0
 42
0.0000000001
 43
0.0000000001
 40
0.0
 40
0.0
 40
0.0
 40
0.0
 40
1.0
 40
1.0
 40
1.0
 40
2.0
 40
2.0
 40
2.0
 40
3.0
 40
3.0
 40
3.0
 40
3.0
 10
102.768748617971
 20
-158.6015163448982
 30
0.0
 10
102.768748617971
 20
-158.6015163448982
 30
0.0
 10
102.3119289566269
 20
-159.2574625252898
 30
0.0
 10
102.3119289566269
 20
-159.2574625252898
 30
0.0
 10
102.3119289566269
 20
-159.2574625252898
 30
0.0
 10
102.768748617971
 20
-159.2574625252898
 30
0.0
 10
102.768748617971
 20
-159.2574625252898
 30
0.0
 10
102.768748617971
 20
-159.2574625252898
 30
0.0
 10
102.768748617971
 20
-158.6015163448982
 30
0.0
 10
102.768748617971
 20
-158.6015163448982
 30
0.0
  0
SPLINE
  5
AD
330
A8
100
AcDbEntity
  8
レイヤー 1
100
AcDbSpline
210
0.0
220
0.0
230
1.0
 70
    11
 71
     3
 72
    38
 73
    34
 74
     0
 42
0.0000000001
 43
0.0000000001
 40
0.0
 40
0.0
 40
0.0
 40
0.0
 40
1.0
 40
1.0
 40
1.0
 40
2.0
 40
2.0
 40
2.0
 40
3.0
 40
3.0
 40
3.0
 40
4.0
 40
4.0
 40
4.0
 40
5.0
 40
5.0
 40
5.0
 40
6.0
 40
6.0
 40
6.0
 40
7.0
 40
7.0
 40
7.0
 40
8.0
 40
8.0
 40
8.0
 40
9.0
 40
9.0
 40
9.0
 40
10.0
 40
10.0
 40
10.0
 40
11.0
 40
11.0
 40
11.0
 40
11.0
 10
102.986650907413
 20
-159.4562445347887
 30
0.0
 10
102.986650907413
 20
-159.4562445347887
 30
0.0
 10
102.986650907413
 20
-159.8031656501533
 30
0.0
 10
102.986650907413
 20
-159.8031656501533
 30
0.0
 10
102.986650907413
 20
-159.8031656501533
 30
0.0
 10
102.768748617971
 20
-159.8031656501533
 30
0.0
 10
102.768748617971
 20
-159.8031656501533
 30
0.0
 10
102.768748617971
 20
-159.8031656501533
 30
0.0
 10
102.768748617971
 20
-159.4562445347887
 30
0.0
 10
102.768748617971
 20
-159.4562445347887
 30
0.0
 10
102.768748617971
 20
-159.4562445347887
 30
0.0
 10
102.1129746923537
 20
-159.4562445347887
 30
0.0
 10
102.1129746923537
 20
-159.4562445347887
 30
0.0
 10
102.1129746923537
 20
-159.4562445347887
 30
0.0
 10
102.1129746923537
 20
-159.2319688186989
 30
0.0
 10
102.1129746923537
 20
-159.2319688186989
 30
0.0
 10
102.1129746923537
 20
-159.2319688186989
 30
0.0
 10
102.7920030124964
 20
-158.2587293441159
 30
0.0
 10
102.7920030124964
 20
-158.2587293441159
 30
0.0
 10
102.7920030124964
 20
-158.2587293441159
 30
0.0
 10
102.986650907413
 20
-158.2587293441159
 30
0.0
 10
102.986650907413
 20
-158.2587293441159
 30
0.0
 10
102.986650907413
 20
-158.2587293441159
 30
0.0
 10
102.986650907413
 20
-159.2574625252898
 30
0.0
 10
102.986650907413
 20
-159.2574625252898
 30
0.0
 10
102.986650907413
 20
-159.2574625252898
 30
0.0
 10
103.1940456556251
 20
-159.2574625252898
 30
0.0
 10
103.1940456556251
 20
-159.2574625252898
 30
0.0
 10
103.1940456556251
 20
-159.2574625252898
 30
0.0
 10
103.1940456556251
 20
-159.4562445347887
 30
0.0
 10
103.1940456556251
 20
-159.4562445347887
 30
0.0
 10
103.1940456556251
 20
-159.4562445347887
 30
0.0
 10
102.986650907413
 20
-159.4562445347887
 30
0.0
 10
102.986650907413
 20
-159.4562445347887
 30
0.0
  0
HATCH
  5
AE
330
A8
100
AcDbEntity
  8
レイヤー 1
 62
    18
420
        0
440
 33554687
100
AcDbHatch
 10
0.0
 20
0.0
 30
0.0
210
0.0
220
0.0
230
1.0
  2
SOLID
 70
     1
 71
     1
 91
        2
 92
        1
 93
        1
 72
     4
 94
        3
 73
     0
 74
     0
 95
       14
 96
       10
 40
0.0
 40
0.0
 40
0.0
 40
0.0
 40
1.0
 40
1.0
 40
1.0
 40
2.0
 40
2.0
 40
2.0
 40
3.0
 40
3.0
 40
3.0
 40
3.0
 10
102.768748617971
 20
-158.6015163448982
 10
102.768748617971
 20
-158.6015163448982
 10
102.3119289566269
 20
-159.2574625252898
 10
102.3119289566269
 20
-159.2574625252898
 10
102.3119289566269
 20
-159.2574625252898
 10
102.768748617971
 20
-159.2574625252898
 10
102.768748617971
 20
-159.2574625252898
 10
102.768748617971
 20
-159.2574625252898
 10
102.768748617971
 20
-158.6015163448982
 10
102.768748617971
 20
-158.6015163448982
 97
        0
 97
        1
330
AC
 92
        1
 93
        1
 72
     4
 94
        3
 73
     0
 74
     0
 95
       38
 96
       34
 40
0.0
 40
0.0
 40
0.0
 40
0.0
 40
1.0
 40
1.0
 40
1.0
 40
2.0
 40
2.0
 40
2.0
 40
3.0
 40
3.0
 40
3.0
 40
4.0
 40
4.0
 40
4.0
 40
5.0
 40
5.0
 40
5.0
 40
6.0
 40
6.0
 40
6.0
 40
7.0
 40
7.0
 40
7.0
 40
8.0
 40
8.0
 40
8.0
 40
9.0
 40
9.0
 40
9.0
 40
10.0
 40
10.0
 40
10.0
 40
11.0
 40
11.0
 40
11.0
 40
11.0
 10
102.986650907413
 20
-159.4562445347887
 10
102.986650907413
 20
-159.4562445347887
 10
102.986650907413
 20
-159.8031656501533
 10
102.986650907413
 20
-159.8031656501533
 10
102.986650907413
 20
-159.8031656501533
 10
102.768748617971
 20
-159.8031656501533
 10
102.768748617971
 20
-159.8031656501533
 10
102.768748617971
 20
-159.8031656501533
 10
102.768748617971
 20
-159.4562445347887
 10
102.768748617971
 20
-159.4562445347887
 10
102.768748617971
 20
-159.4562445347887
 10
102.1129746923537
 20
-159.4562445347887
 10
102.1129746923537
 20
-159.4562445347887
 10
102.1129746923537
 20
-159.4562445347887
 10
102.1129746923537
 20
-159.2319688186989
 10
102.1129746923537
 20
-159.2319688186989
 10
102.1129746923537
 20
-159.2319688186989
 10
102.7920030124964
 20
-158.2587293441159
 10
102.7920030124964
 20
-158.2587293441159
 10
102.7920030124964
 20
-158.2587293441159
 10
102.986650907413
 20
-158.2587293441159
 10
102.986650907413
 20
-158.2587293441159
 10
102.986650907413
 20
-158.2587293441159
 10
102.986650907413
 20
-159.2574625252898
 10
102.986650907413
 20
-159.2574625252898
 10
102.986650907413
 20
-159.2574625252898
 10
103.1940456556251
 20
-159.2574625252898
 10
103.1940456556251
 20
-159.2574625252898
 10
103.1940456556251
 20
-159.2574625252898
 10
103.1940456556251
 20
-159.4562445347887
 10
103.1940456556251
 20
-159.4562445347887
 10
103.1940456556251
 20
-159.4562445347887
 10
102.986650907413
 20
-159.4562445347887
 10
102.986650907413
 20
-159.4562445347887
 97
        0
 97
        1
330
AD
 75
     2
 76
     1
 98
        1
 10
0.0
 20
0.0
450
        0
451
        0
460
0.0
461
0.0
452
        0
462
0.0
453
        0
470

  0
ENDBLK
  5
AB
330
A8
100
AcDbEntity
  8
0
100
AcDbBlockEnd
  0
BLOCK
  5
B1
330
AF
100
AcDbEntity
  8
0
100
AcDbBlockBegin
  2
Block_4
 70
     0
 10
0.0
 20
0.0
 30
0.0
  3
Block_4
  1

  0
INSERT
  5
B4
330
AF
100
AcDbEntity
  8
レイヤー 1
100
AcDbBlockReference
  2
Block_5
 10
0.0
 20
0.0
 30
0.0
  0
ENDBLK
  5
B2
330
AF
100
AcDbEntity
  8
0
100
AcDbBlockEnd
  0
BLOCK
  5
B5
330
B3
100
AcDbEntity
  8
0
100
AcDbBlockBegin
  2
Block_5
 70
     0
 10
0.0
 20
0.0
 30
0.0
  3
Block_5
  1

  0
SPLINE
  5
B7
330
B3
100
AcDbEntity
  8
レイヤー 1
100
AcDbSpline
210
0.0
220
0.0
230
1.0
 70
    11
 71
     3
 72
    26
 73
    22
 74
     0
 42
0.0000000001
 43
0.0000000001
 40
0.0
 40
0.0
 40
0.0
 40
0.0
 40
1.0
 40
1.0
 40
1.0
 40
2.0
 40
2.0
 40
2.0
 40
3.0
 40
3.0
 40
3.0
 40
4.0
 40
4.0
 40
4.0
 40
5.0
 40
5.0
 40
5.0
 40
6.0
 40
6.0
 40
6.0
 40
7.0
 40
7.0
 40
7.0
 40
7.0
 10
107.5172959800651
 20
-139.0030571484089
 30
0.0
 10
107.5172959800651
 20
-139.0030571484089
 30
0.0
 10
107.5172959800651
 20
-137.8987317906121
 30
0.0
 10
107.5172959800651
 20
-137.8987317906121
 30
0.0
 10
107.5172959800651
 20
-137.8987317906121
 30
0.0
 10
107.1872558325782
 20
-137.8987317906121
 30
0.0
 10
107.1872558325782
 20
-137.8987317906121
 30
0.0
 10
107.1872558325782
 20
-137.8987317906121
 30
0.0
 10
107.1872558325782
 20
-137.7507649395206
 30
0.0
 10
107.1872558325782
 20
-137.7507649395206
 30
0.0
 10
107.5193630373562
 20
-137.7359510289341
 30
0.0
 10
107.5658718264071
 20
-137.5729980124817
 30
0.0
 10
107.5954996475803
 20
-137.4587930971457
 30
0.0
 10
107.5954996475803
 20
-137.4587930971457
 30
0.0
 10
107.7415716961549
 20
-137.4587930971457
 30
0.0
 10
107.7415716961549
 20
-137.4587930971457
 30
0.0
 10
107.7415716961549
 20
-137.4587930971457
 30
0.0
 10
107.7415716961549
 20
-139.0030571484089
 30
0.0
 10
107.7415716961549
 20
-139.0030571484089
 30
0.0
 10
107.7415716961549
 20
-139.0030571484089
 30
0.0
 10
107.5172959800651
 20
-139.0030571484089
 30
0.0
 10
107.5172959800651
 20
-139.0030571484089
 30
0.0
  0
HATCH
  5
B8
330
B3
100
AcDbEntity
  8
レイヤー 1
 62
    18
420
        0
440
 33554687
100
AcDbHatch
 10
0.0
 20
0.0
 30
0.0
210
0.0
220
0.0
230
1.0
  2
SOLID
 70
     1
 71
     1
 91
        1
 92
        1
 93
        1
 72
     4
 94
        3
 73
     0
 74
     0
 95
       26
 96
       22
 40
0.0
 40
0.0
 40
0.0
 40
0.0
 40
1.0
 40
1.0
 40
1.0
 40
2.0
 40
2.0
 40
2.0
 40
3.0
 40
3.0
 40
3.0
 40
4.0
 40
4.0
 40
4.0
 40
5.0
 40
5.0
 40
5.0
 40
6.0
 40
6.0
 40
6.0
 40
7.0
 40
7.0
 40
7.0
 40
7.0
 10
107.5172959800651
 20
-139.0030571484089
 10
107.5172959800651
 20
-139.0030571484089
 10
107.5172959800651
 20
-137.8987317906121
 10
107.5172959800651
 20
-137.8987317906121
 10
107.5172959800651
 20
-137.8987317906121
 10
107.1872558325782
 20
-137.8987317906121
 10
107.1872558325782
 20
-137.8987317906121
 10
107.1872558325782
 20
-137.8987317906121
 10
107.1872558325782
 20
-137.7507649395206
 10
107.1872558325782
 20
-137.7507649395206
 10
107.5193630373562
 20
-137.7359510289341
 10
107.5658718264071
 20
-137.5729980124817
 10
107.5954996475803
 20
-137.4587930971457
 10
107.5954996475803
 20
-137.4587930971457
 10
107.7415716961549
 20
-137.4587930971457
 10
107.7415716961549
 20
-137.4587930971457
 10
107.7415716961549
 20
-137.4587930971457
 10
107.7415716961549
 20
-139.0030571484089
 10
107.7415716961549
 20
-139.0030571484089
 10
107.7415716961549
 20
-139.0030571484089
 10
107.5172959800651
 20
-139.0030571484089
 10
107.5172959800651
 20
-139.0030571484089
 97
        0
 97
        1
330
B7
 75
     2
 76
     1
 98
        1
 10
0.0
 20
0.0
450
        0
451
        0
460
0.0
461
0.0
452
        0
462
0.0
453
        0
470

  0
SPLINE
  5
B9
330
B3
100
AcDbEntity
  8
レイヤー 1
100
AcDbSpline
210
0.0
220
0.0
230
1.0
 70
     9
 71
     3
 72
    53
 73
    49
 74
     0
 42
0.0000000001
 43
0.0000000001
 40
0.0
 40
0.0
 40
0.0
 40
0.0
 40
1.0
 40
1.0
 40
1.0
 40
2.0
 40
2.0
 40
2.0
 40
3.0
 40
3.0
 40
3.0
 40
4.0
 40
4.0
 40
4.0
 40
5.0
 40
5.0
 40
5.0
 40
6.0
 40
6.0
 40
6.0
 40
7.0
 40
7.0
 40
7.0
 40
8.0
 40
8.0
 40
8.0
 40
9.0
 40
9.0
 40
9.0
 40
10.0
 40
10.0
 40
10.0
 40
11.0
 40
11.0
 40
11.0
 40
12.0
 40
12.0
 40
12.0
 40
13.0
 40
13.0
 40
13.0
 40
14.0
 40
14.0
 40
14.0
 40
15.0
 40
15.0
 40
15.0
 40
16.0
 40
16.0
 40
16.0
 40
16.0
 10
108.7237684189996
 20
-139.0538723068164
 30
0.0
 10
108.6455647514844
 20
-139.0538723068164
 30
0.0
 10
108.5439344346696
 20
-139.0368190841644
 30
0.0
 10
108.4423041178547
 20
-138.9734293272358
 30
0.0
 10
108.2690158149466
 20
-138.8633585264821
 30
0.0
 10
108.2476562229381
 20
-138.7322726432683
 30
0.0
 10
108.2287081977692
 20
-138.62444115458
 30
0.0
 10
108.2287081977692
 20
-138.62444115458
 30
0.0
 10
108.4509168565678
 20
-138.62444115458
 30
0.0
 10
108.4509168565678
 20
-138.62444115458
 30
0.0
 10
108.5056938747833
 20
-138.8232231640789
 30
0.0
 10
108.632817898189
 20
-138.8528509852521
 30
0.0
 10
108.7258354762908
 20
-138.8528509852521
 30
0.0
 10
108.8653618434433
 20
-138.8528509852521
 30
0.0
 10
109.0176350638914
 20
-138.7534599805026
 30
0.0
 10
109.0176350638914
 20
-138.520743780474
 30
0.0
 10
109.0176350638914
 20
-138.2647731859199
 30
0.0
 10
108.8378010795614
 20
-138.1950100023436
 30
0.0
 10
108.7172227375776
 20
-138.1950100023436
 30
0.0
 10
108.6855278591133
 20
-138.1950100023436
 30
0.0
 10
108.5439344346696
 20
-138.1950100023436
 30
0.0
 10
108.4550509711501
 20
-138.3240288282662
 30
0.0
 10
108.4550509711501
 20
-138.3240288282662
 30
0.0
 10
108.2793511014024
 20
-138.3049085483231
 30
0.0
 10
108.2793511014024
 20
-138.3049085483231
 30
0.0
 10
108.2793511014024
 20
-138.3049085483231
 30
0.0
 10
108.3999294433861
 20
-137.4587930971457
 30
0.0
 10
108.3999294433861
 20
-137.4587930971457
 30
0.0
 10
108.3999294433861
 20
-137.4587930971457
 30
0.0
 10
109.1785210230526
 20
-137.4587930971457
 30
0.0
 10
109.1785210230526
 20
-137.4587930971457
 30
0.0
 10
109.1785210230526
 20
-137.4587930971457
 30
0.0
 10
109.1785210230526
 20
-137.6534409920623
 30
0.0
 10
109.1785210230526
 20
-137.6534409920623
 30
0.0
 10
109.1785210230526
 20
-137.6534409920623
 30
0.0
 10
108.5628824598384
 20
-137.6534409920623
 30
0.0
 10
108.5628824598384
 20
-137.6534409920623
 30
0.0
 10
108.5628824598384
 20
-137.6534409920623
 30
0.0
 10
108.4974256456187
 20
-138.076498717651
 30
0.0
 10
108.4974256456187
 20
-138.076498717651
 30
0.0
 10
108.5587483452561
 20
-138.0425645271213
 30
0.0
 10
108.6410861273536
 20
-138.0024291647181
 30
0.0
 10
108.7595974120462
 20
-138.0024291647181
 30
0.0
 10
109.0135009493091
 20
-138.0024291647181
 30
0.0
 10
109.2505235186943
 20
-138.1886365756959
 30
0.0
 10
109.2505235186943
 20
-138.5016235005308
 30
0.0
 10
109.2505235186943
 20
-138.8190890494966
 30
0.0
 10
109.0262478026045
 20
-139.0538723068164
 30
0.0
 10
108.7237684189996
 20
-139.0538723068164
 30
0.0
  0
HATCH
  5
BA
330
B3
100
AcDbEntity
  8
レイヤー 1
 62
    18
420
        0
440
 33554687
100
AcDbHatch
 10
0.0
 20
0.0
 30
0.0
210
0.0
220
0.0
230
1.0
  2
SOLID
 70
     1
 71
     1
 91
        1
 92
        1
 93
        1
 72
     4
 94
        3
 73
     0
 74
     0
 95
       53
 96
       49
 40
0.0
 40
0.0
 40
0.0
 40
0.0
 40
1.0
 40
1.0
 40
1.0
 40
2.0
 40
2.0
 40
2.0
 40
3.0
 40
3.0
 40
3.0
 40
4.0
 40
4.0
 40
4.0
 40
5.0
 40
5.0
 40
5.0
 40
6.0
 40
6.0
 40
6.0
 40
7.0
 40
7.0
 40
7.0
 40
8.0
 40
8.0
 40
8.0
 40
9.0
 40
9.0
 40
9.0
 40
10.0
 40
10.0
 40
10.0
 40
11.0
 40
11.0
 40
11.0
 40
12.0
 40
12.0
 40
12.0
 40
13.0
 40
13.0
 40
13.0
 40
14.0
 40
14.0
 40
14.0
 40
15.0
 40
15.0
 40
15.0
 40
16.0
 40
16.0
 40
16.0
 40
16.0
 10
108.7237684189996
 20
-139.0538723068164
 10
108.6455647514844
 20
-139.0538723068164
 10
108.5439344346696
 20
-139.0368190841644
 10
108.4423041178547
 20
-138.9734293272358
 10
108.2690158149466
 20
-138.8633585264821
 10
108.2476562229381
 20
-138.7322726432683
 10
108.2287081977692
 20
-138.62444115458
 10
108.2287081977692
 20
-138.62444115458
 10
108.4509168565678
 20
-138.62444115458
 10
108.4509168565678
 20
-138.62444115458
 10
108.5056938747833
 20
-138.8232231640789
 10
108.632817898189
 20
-138.8528509852521
 10
108.7258354762908
 20
-138.8528509852521
 10
108.8653618434433
 20
-138.8528509852521
 10
109.0176350638914
 20
-138.7534599805026
 10
109.0176350638914
 20
-138.520743780474
 10
109.0176350638914
 20
-138.2647731859199
 10
108.8378010795614
 20
-138.1950100023436
 10
108.7172227375776
 20
-138.1950100023436
 10
108.6855278591133
 20
-138.1950100023436
 10
108.5439344346696
 20
-138.1950100023436
 10
108.4550509711501
 20
-138.3240288282662
 10
108.4550509711501
 20
-138.3240288282662
 10
108.2793511014024
 20
-138.3049085483231
 10
108.2793511014024
 20
-138.3049085483231
 10
108.2793511014024
 20
-138.3049085483231
 10
108.3999294433861
 20
-137.4587930971457
 10
108.3999294433861
 20
-137.4587930971457
 10
108.3999294433861
 20
-137.4587930971457
 10
109.1785210230526
 20
-137.4587930971457
 10
109.1785210230526
 20
-137.4587930971457
 10
109.1785210230526
 20
-137.4587930971457
 10
109.1785210230526
 20
-137.6534409920623
 10
109.1785210230526
 20
-137.6534409920623
 10
109.1785210230526
 20
-137.6534409920623
 10
108.5628824598384
 20
-137.6534409920623
 10
108.5628824598384
 20
-137.6534409920623
 10
108.5628824598384
 20
-137.6534409920623
 10
108.4974256456187
 20
-138.076498717651
 10
108.4974256456187
 20
-138.076498717651
 10
108.5587483452561
 20
-138.0425645271213
 10
108.6410861273536
 20
-138.0024291647181
 10
108.7595974120462
 20
-138.0024291647181
 10
109.0135009493091
 20
-138.0024291647181
 10
109.2505235186943
 20
-138.1886365756959
 10
109.2505235186943
 20
-138.5016235005308
 10
109.2505235186943
 20
-138.8190890494966
 10
109.0262478026045
 20
-139.0538723068164
 10
108.7237684189996
 20
-139.0538723068164
 97
        0
 97
        1
330
B9
 75
     2
 76
     1
 98
        1
 10
0.0
 20
0.0
450
        0
451
        0
460
0.0
461
0.0
452
        0
462
0.0
453
        0
470

  0
ENDBLK
  5
B6
330
B3
100
AcDbEntity
  8
0
100
AcDbBlockEnd
  0
BLOCK
  5
BD
330
BB
100
AcDbEntity
  8
0
100
AcDbBlockBegin
  2
Block_6
 70
     0
 10
0.0
 20
0.0
 30
0.0
  3
Block_6
  1

  0
INSERT
  5
C0
330
BB
100
AcDbEntity
  8
レイヤー 1
100
AcDbBlockReference
  2
Block_7
 10
0.0
 20
0.0
 30
0.0
  0
ENDBLK
  5
BE
330
BB
100
AcDbEntity
  8
0
100
AcDbBlockEnd
  0
BLOCK
  5
C1
330
BF
100
AcDbEntity
  8
0
100
AcDbBlockBegin
  2
Block_7
 70
     0
 10
0.0
 20
0.0
 30
0.0
  3
Block_7
  1

  0
SPLINE
  5
C3
330
BF
100
AcDbEntity
  8
レイヤー 1
100
AcDbSpline
210
0.0
220
0.0
230
1.0
 70
    11
 71
     3
 72
    26
 73
    22
 74
     0
 42
0.0000000001
 43
0.0000000001
 40
0.0
 40
0.0
 40
0.0
 40
0.0
 40
1.0
 40
1.0
 40
1.0
 40
2.0
 40
2.0
 40
2.0
 40
3.0
 40
3.0
 40
3.0
 40
4.0
 40
4.0
 40
4.0
 40
5.0
 40
5.0
 40
5.0
 40
6.0
 40
6.0
 40
6.0
 40
7.0
 40
7.0
 40
7.0
 40
7.0
 10
118.3028564157368
 20
-150.7925184084824
 30
0.0
 10
118.3028564157368
 20
-150.7925184084824
 30
0.0
 10
117.1987033127142
 20
-150.7925184084824
 30
0.0
 10
117.1987033127142
 20
-150.7925184084824
 30
0.0
 10
117.1987033127142
 20
-150.7925184084824
 30
0.0
 10
117.1987033127142
 20
-151.1225585559693
 30
0.0
 10
117.1987033127142
 20
-151.1225585559693
 30
0.0
 10
117.1987033127142
 20
-151.1225585559693
 30
0.0
 10
117.0505642068484
 20
-151.1225585559693
 30
0.0
 10
117.0505642068484
 20
-151.1225585559693
 30
0.0
 10
117.0357502962619
 20
-150.7904513511913
 30
0.0
 10
116.8727972798096
 20
-150.7439425621404
 30
0.0
 10
116.7584201096993
 20
-150.7143147409673
 30
0.0
 10
116.7584201096993
 20
-150.7143147409673
 30
0.0
 10
116.7584201096993
 20
-150.5682426923926
 30
0.0
 10
116.7584201096993
 20
-150.5682426923926
 30
0.0
 10
116.7584201096993
 20
-150.5682426923926
 30
0.0
 10
118.3028564157368
 20
-150.5682426923926
 30
0.0
 10
118.3028564157368
 20
-150.5682426923926
 30
0.0
 10
118.3028564157368
 20
-150.5682426923926
 30
0.0
 10
118.3028564157368
 20
-150.7925184084824
 30
0.0
 10
118.3028564157368
 20
-150.7925184084824
 30
0.0
  0
HATCH
  5
C4
330
BF
100
AcDbEntity
  8
レイヤー 1
 62
    18
420
        0
440
 33554687
100
AcDbHatch
 10
0.0
 20
0.0
 30
0.0
210
0.0
220
0.0
230
1.0
  2
SOLID
 70
     1
 71
     1
 91
        1
 92
        1
 93
        1
 72
     4
 94
        3
 73
     0
 74
     0
 95
       26
 96
       22
 40
0.0
 40
0.0
 40
0.0
 40
0.0
 40
1.0
 40
1.0
 40
1.0
 40
2.0
 40
2.0
 40
2.0
 40
3.0
 40
3.0
 40
3.0
 40
4.0
 40
4.0
 40
4.0
 40
5.0
 40
5.0
 40
5.0
 40
6.0
 40
6.0
 40
6.0
 40
7.0
 40
7.0
 40
7.0
 40
7.0
 10
118.3028564157368
 20
-150.7925184084824
 10
118.3028564157368
 20
-150.7925184084824
 10
117.1987033127142
 20
-150.7925184084824
 10
117.1987033127142
 20
-150.7925184084824
 10
117.1987033127142
 20
-150.7925184084824
 10
117.1987033127142
 20
-151.1225585559693
 10
117.1987033127142
 20
-151.1225585559693
 10
117.1987033127142
 20
-151.1225585559693
 10
117.0505642068484
 20
-151.1225585559693
 10
117.0505642068484
 20
-151.1225585559693
 10
117.0357502962619
 20
-150.7904513511913
 10
116.8727972798096
 20
-150.7439425621404
 10
116.7584201096993
 20
-150.7143147409673
 10
116.7584201096993
 20
-150.7143147409673
 10
116.7584201096993
 20
-150.5682426923926
 10
116.7584201096993
 20
-150.5682426923926
 10
116.7584201096993
 20
-150.5682426923926
 10
118.3028564157368
 20
-150.5682426923926
 10
118.3028564157368
 20
-150.5682426923926
 10
118.3028564157368
 20
-150.5682426923926
 10
118.3028564157368
 20
-150.7925184084824
 10
118.3028564157368
 20
-150.7925184084824
 97
        0
 97
        1
330
C3
 75
     2
 76
     1
 98
        1
 10
0.0
 20
0.0
450
        0
451
        0
460
0.0
461
0.0
452
        0
462
0.0
453
        0
470

  0
SPLINE
  5
C5
330
BF
100
AcDbEntity
  8
レイヤー 1
100
AcDbSpline
210
0.0
220
0.0
230
1.0
 70
     9
 71
     3
 72
    17
 73
    13
 74
     0
 42
0.0000000001
 43
0.0000000001
 40
0.0
 40
0.0
 40
0.0
 40
0.0
 40
1.0
 40
1.0
 40
1.0
 40
2.0
 40
2.0
 40
2.0
 40
3.0
 40
3.0
 40
3.0
 40
4.0
 40
4.0
 40
4.0
 40
4.0
 10
116.9024251009827
 20
-149.5670979443791
 30
0.0
 10
116.9024251009827
 20
-149.8168673670597
 30
0.0
 10
117.1859564594188
 20
-149.8633761561105
 30
0.0
 10
117.5308105174923
 20
-149.8633761561105
 30
0.0
 10
117.8501708689749
 20
-149.8633761561105
 30
0.0
 10
118.1588514244533
 20
-149.8272026535154
 30
0.0
 10
118.1588514244533
 20
-149.5670979443791
 30
0.0
 10
118.1588514244533
 20
-149.3193955789896
 30
0.0
 10
117.8777316328569
 20
-149.2708197326475
 30
0.0
 10
117.5308105174923
 20
-149.2708197326475
 30
0.0
 10
117.2111056564611
 20
-149.2708197326475
 30
0.0
 10
116.9024251009827
 20
-149.3090602925338
 30
0.0
 10
116.9024251009827
 20
-149.5670979443791
 30
0.0
  0
SPLINE
  5
C6
330
BF
100
AcDbEntity
  8
レイヤー 1
100
AcDbSpline
210
0.0
220
0.0
230
1.0
 70
     9
 71
     3
 72
    29
 73
    25
 74
     0
 42
0.0000000001
 43
0.0000000001
 40
0.0
 40
0.0
 40
0.0
 40
0.0
 40
1.0
 40
1.0
 40
1.0
 40
2.0
 40
2.0
 40
2.0
 40
3.0
 40
3.0
 40
3.0
 40
4.0
 40
4.0
 40
4.0
 40
5.0
 40
5.0
 40
5.0
 40
6.0
 40
6.0
 40
6.0
 40
7.0
 40
7.0
 40
7.0
 40
8.0
 40
8.0
 40
8.0
 40
8.0
 10
118.1250894886979
 20
-149.1691894158327
 30
0.0
 10
118.3345512942011
 20
-149.2773654140695
 30
0.0
 10
118.3534993193699
 20
-149.4506537169776
 30
0.0
 10
118.3534993193699
 20
-149.5670979443791
 30
0.0
 10
118.3534993193699
 20
-149.7279839035402
 30
0.0
 10
118.3069905303191
 20
-149.869577327984
 30
0.0
 10
118.1250894886979
 20
-149.9646619633769
 30
0.0
 10
117.9304415937812
 20
-150.0683593374829
 30
0.0
 10
117.6937635339446
 20
-150.0876518722003
 30
0.0
 10
117.5308105174923
 20
-150.0876518722003
 30
0.0
 10
117.3868055262088
 20
-150.0876518722003
 30
0.0
 10
117.1349690462371
 20
-150.070426394774
 30
0.0
 10
116.9361870367382
 20
-149.9646619633769
 30
0.0
 10
116.7332709126569
 20
-149.8568304746885
 30
0.0
 10
116.7098442633572
 20
-149.6959445155274
 30
0.0
 10
116.7098442633572
 20
-149.5670979443791
 30
0.0
 10
116.7098442633572
 20
-149.408279042509
 30
0.0
 10
116.754285995117
 20
-149.2646185607741
 30
0.0
 10
116.9361870367382
 20
-149.1691894158327
 30
0.0
 10
117.1287678743636
 20
-149.0699706658575
 30
0.0
 10
117.3571777050357
 20
-149.0465440165578
 30
0.0
 10
117.5308105174923
 20
-149.0465440165578
 30
0.0
 10
117.7020317631092
 20
-149.0465440165578
 30
0.0
 10
117.9325086510724
 20
-149.0679036085663
 30
0.0
 10
118.1250894886979
 20
-149.1691894158327
 30
0.0
  0
HATCH
  5
C7
330
BF
100
AcDbEntity
  8
レイヤー 1
 62
    18
420
        0
440
 33554687
100
AcDbHatch
 10
0.0
 20
0.0
 30
0.0
210
0.0
220
0.0
230
1.0
  2
SOLID
 70
     1
 71
     1
 91
        2
 92
        1
 93
        1
 72
     4
 94
        3
 73
     0
 74
     0
 95
       17
 96
       13
 40
0.0
 40
0.0
 40
0.0
 40
0.0
 40
1.0
 40
1.0
 40
1.0
 40
2.0
 40
2.0
 40
2.0
 40
3.0
 40
3.0
 40
3.0
 40
4.0
 40
4.0
 40
4.0
 40
4.0
 10
116.9024251009827
 20
-149.5670979443791
 10
116.9024251009827
 20
-149.8168673670597
 10
117.1859564594188
 20
-149.8633761561105
 10
117.5308105174923
 20
-149.8633761561105
 10
117.8501708689749
 20
-149.8633761561105
 10
118.1588514244533
 20
-149.8272026535154
 10
118.1588514244533
 20
-149.5670979443791
 10
118.1588514244533
 20
-149.3193955789896
 10
117.8777316328569
 20
-149.2708197326475
 10
117.5308105174923
 20
-149.2708197326475
 10
117.2111056564611
 20
-149.2708197326475
 10
116.9024251009827
 20
-149.3090602925338
 10
116.9024251009827
 20
-149.5670979443791
 97
        0
 97
        1
330
C5
 92
        1
 93
        1
 72
     4
 94
        3
 73
     0
 74
     0
 95
       29
 96
       25
 40
0.0
 40
0.0
 40
0.0
 40
0.0
 40
1.0
 40
1.0
 40
1.0
 40
2.0
 40
2.0
 40
2.0
 40
3.0
 40
3.0
 40
3.0
 40
4.0
 40
4.0
 40
4.0
 40
5.0
 40
5.0
 40
5.0
 40
6.0
 40
6.0
 40
6.0
 40
7.0
 40
7.0
 40
7.0
 40
8.0
 40
8.0
 40
8.0
 40
8.0
 10
118.1250894886979
 20
-149.1691894158327
 10
118.3345512942011
 20
-149.2773654140695
 10
118.3534993193699
 20
-149.4506537169776
 10
118.3534993193699
 20
-149.5670979443791
 10
118.3534993193699
 20
-149.7279839035402
 10
118.3069905303191
 20
-149.869577327984
 10
118.1250894886979
 20
-149.9646619633769
 10
117.9304415937812
 20
-150.0683593374829
 10
117.6937635339446
 20
-150.0876518722003
 10
117.5308105174923
 20
-150.0876518722003
 10
117.3868055262088
 20
-150.0876518722003
 10
117.1349690462371
 20
-150.070426394774
 10
116.9361870367382
 20
-149.9646619633769
 10
116.7332709126569
 20
-149.8568304746885
 10
116.7098442633572
 20
-149.6959445155274
 10
116.7098442633572
 20
-149.5670979443791
 10
116.7098442633572
 20
-149.408279042509
 10
116.754285995117
 20
-149.2646185607741
 10
116.9361870367382
 20
-149.1691894158327
 10
117.1287678743636
 20
-149.0699706658575
 10
117.3571777050357
 20
-149.0465440165578
 10
117.5308105174923
 20
-149.0465440165578
 10
117.7020317631092
 20
-149.0465440165578
 10
117.9325086510724
 20
-149.0679036085663
 10
118.1250894886979
 20
-149.1691894158327
 97
        0
 97
        1
330
C6
 75
     2
 76
     1
 98
        1
 10
0.0
 20
0.0
450
        0
451
        0
460
0.0
461
0.0
452
        0
462
0.0
453
        0
470

  0
ENDBLK
  5
C2
330
BF
100
AcDbEntity
  8
0
100
AcDbBlockEnd
  0
BLOCK
  5
CD
330
CB
100
AcDbEntity
  8
0
100
AcDbBlockBegin
  2
Block_8
 70
     0
 10
0.0
 20
0.0
 30
0.0
  3
Block_8
  1

  0
INSERT
  5
D0
330
CB
100
AcDbEntity
  8
レイヤー 1
100
AcDbBlockReference
  2
Block_9
 10
0.0
 20
0.0
 30
0.0
  0
ENDBLK
  5
CE
330
CB
100
AcDbEntity
  8
0
100
AcDbBlockEnd
  0
BLOCK
  5
D1
330
CF
100
AcDbEntity
  8
0
100
AcDbBlockBegin
  2
Block_9
 70
     0
 10
0.0
 20
0.0
 30
0.0
  3
Block_9
  1

  0
SPLINE
  5
D3
330
CF
100
AcDbEntity
  8
レイヤー 1
100
AcDbSpline
210
0.0
220
0.0
230
1.0
 70
     9
 71
     3
 72
    17
 73
    13
 74
     0
 42
0.0000000001
 43
0.0000000001
 40
0.0
 40
0.0
 40
0.0
 40
0.0
 40
1.0
 40
1.0
 40
1.0
 40
2.0
 40
2.0
 40
2.0
 40
3.0
 40
3.0
 40
3.0
 40
4.0
 40
4.0
 40
4.0
 40
4.0
 10
90.60532224297366
 20
-158.4430419525767
 30
0.0
 10
90.58844127509594
 20
-158.4723252642014
 30
0.0
 10
90.53779837146278
 20
-158.5656873518516
 30
0.0
 10
90.52711857545849
 20
-158.5846353770205
 30
0.0
 10
90.71763235579281
 20
-158.6438910193668
 30
0.0
 10
90.73864743825284
 20
-158.6500921912403
 30
0.0
 10
90.81064993389457
 20
-158.6776529551222
 30
0.0
 10
90.86577146165856
 20
-158.590836548894
 30
0.0
 10
90.88885360140974
 20
-158.5167669959611
 30
0.0
 10
90.9036675119963
 20
-158.4430419525767
 30
0.0
 10
90.9036675119963
 20
-158.4430419525767
 30
0.0
 10
90.60532224297366
 20
-158.4430419525767
 30
0.0
 10
90.60532224297366
 20
-158.4430419525767
 30
0.0
  0
SPLINE
  5
D4
330
CF
100
AcDbEntity
  8
レイヤー 1
100
AcDbSpline
210
0.0
220
0.0
230
1.0
 70
    11
 71
     3
 72
    20
 73
    16
 74
     0
 42
0.0000000001
 43
0.0000000001
 40
0.0
 40
0.0
 40
0.0
 40
0.0
 40
1.0
 40
1.0
 40
1.0
 40
2.0
 40
2.0
 40
2.0
 40
3.0
 40
3.0
 40
3.0
 40
4.0
 40
4.0
 40
4.0
 40
5.0
 40
5.0
 40
5.0
 40
5.0
 10
90.54193248604507
 20
-157.5924478772686
 30
0.0
 10
90.54193248604507
 20
-157.5924478772686
 30
0.0
 10
90.51023760758077
 20
-157.5924478772686
 30
0.0
 10
90.51023760758077
 20
-157.5924478772686
 30
0.0
 10
90.55674639663164
 20
-157.6920111367923
 30
0.0
 10
90.58844127509594
 20
-157.7722818615986
 30
0.0
 10
90.6222032108514
 20
-157.8990613754558
 30
0.0
 10
90.6222032108514
 20
-157.8990613754558
 30
0.0
 10
90.82959795906344
 20
-157.8990613754558
 30
0.0
 10
90.82959795906344
 20
-157.8990613754558
 30
0.0
 10
90.86129283752773
 20
-157.806043797354
 30
0.0
 10
90.88471948682743
 20
-157.7216389579654
 30
0.0
 10
90.90780162657861
 20
-157.5924478772686
 30
0.0
 10
90.90780162657861
 20
-157.5924478772686
 30
0.0
 10
90.54193248604507
 20
-157.5924478772686
 30
0.0
 10
90.54193248604507
 20
-157.5924478772686
 30
0.0
  0
SPLINE
  5
D5
330
CF
100
AcDbEntity
  8
レイヤー 1
100
AcDbSpline
210
0.0
220
0.0
230
1.0
 70
     9
 71
     3
 72
   242
 73
   238
 74
     0
 42
0.0000000001
 43
0.0000000001
 40
0.0
 40
0.0
 40
0.0
 40
0.0
 40
1.0
 40
1.0
 40
1.0
 40
2.0
 40
2.0
 40
2.0
 40
3.0
 40
3.0
 40
3.0
 40
4.0
 40
4.0
 40
4.0
 40
5.0
 40
5.0
 40
5.0
 40
6.0
 40
6.0
 40
6.0
 40
7.0
 40
7.0
 40
7.0
 40
8.0
 40
8.0
 40
8.0
 40
9.0
 40
9.0
 40
9.0
 40
10.0
 40
10.0
 40
10.0
 40
11.0
 40
11.0
 40
11.0
 40
12.0
 40
12.0
 40
12.0
 40
13.0
 40
13.0
 40
13.0
 40
14.0
 40
14.0
 40
14.0
 40
15.0
 40
15.0
 40
15.0
 40
16.0
 40
16.0
 40
16.0
 40
17.0
 40
17.0
 40
17.0
 40
18.0
 40
18.0
 40
18.0
 40
19.0
 40
19.0
 40
19.0
 40
20.0
 40
20.0
 40
20.0
 40
21.0
 40
21.0
 40
21.0
 40
22.0
 40
22.0
 40
22.0
 40
23.0
 40
23.0
 40
23.0
 40
24.0
 40
24.0
 40
24.0
 40
25.0
 40
25.0
 40
25.0
 40
26.0
 40
26.0
 40
26.0
 40
27.0
 40
27.0
 40
27.0
 40
28.0
 40
28.0
 40
28.0
 40
29.0
 40
29.0
 40
29.0
 40
30.0
 40
30.0
 40
30.0
 40
31.0
 40
31.0
 40
31.0
 40
32.0
 40
32.0
 40
32.0
 40
33.0
 40
33.0
 40
33.0
 40
34.0
 40
34.0
 40
34.0
 40
35.0
 40
35.0
 40
35.0
 40
36.0
 40
36.0
 40
36.0
 40
37.0
 40
37.0
 40
37.0
 40
38.0
 40
38.0
 40
38.0
 40
39.0
 40
39.0
 40
39.0
 40
40.0
 40
40.0
 40
40.0
 40
41.0
 40
41.0
 40
41.0
 40
42.0
 40
42.0
 40
42.0
 40
43.0
 40
43.0
 40
43.0
 40
44.0
 40
44.0
 40
44.0
 40
45.0
 40
45.0
 40
45.0
 40
46.0
 40
46.0
 40
46.0
 40
47.0
 40
47.0
 40
47.0
 40
48.0
 40
48.0
 40
48.0
 40
49.0
 40
49.0
 40
49.0
 40
50.0
 40
50.0
 40
50.0
 40
51.0
 40
51.0
 40
51.0
 40
52.0
 40
52.0
 40
52.0
 40
53.0
 40
53.0
 40
53.0
 40
54.0
 40
54.0
 40
54.0
 40
55.0
 40
55.0
 40
55.0
 40
56.0
 40
56.0
 40
56.0
 40
57.0
 40
57.0
 40
57.0
 40
58.0
 40
58.0
 40
58.0
 40
59.0
 40
59.0
 40
59.0
 40
60.0
 40
60.0
 40
60.0
 40
61.0
 40
61.0
 40
61.0
 40
62.0
 40
62.0
 40
62.0
 40
63.0
 40
63.0
 40
63.0
 40
64.0
 40
64.0
 40
64.0
 40
65.0
 40
65.0
 40
65.0
 40
66.0
 40
66.0
 40
66.0
 40
67.0
 40
67.0
 40
67.0
 40
68.0
 40
68.0
 40
68.0
 40
69.0
 40
69.0
 40
69.0
 40
70.0
 40
70.0
 40
70.0
 40
71.0
 40
71.0
 40
71.0
 40
72.0
 40
72.0
 40
72.0
 40
73.0
 40
73.0
 40
73.0
 40
74.0
 40
74.0
 40
74.0
 40
75.0
 40
75.0
 40
75.0
 40
76.0
 40
76.0
 40
76.0
 40
77.0
 40
77.0
 40
77.0
 40
78.0
 40
78.0
 40
78.0
 40
79.0
 40
79.0
 40
79.0
 40
79.0
 10
91.17031790255465
 20
-158.0578802773258
 30
0.0
 10
91.17031790255465
 20
-158.0578802773258
 30
0.0
 10
90.91641436529172
 20
-158.0578802773258
 30
0.0
 10
90.91641436529172
 20
-158.0578802773258
 30
0.0
 10
90.91641436529172
 20
-158.0578802773258
 30
0.0
 10
90.63942868827764
 20
-158.0578802773258
 30
0.0
 10
90.63942868827764
 20
-158.0578802773258
 30
0.0
 10
90.63942868827764
 20
-158.0578802773258
 30
0.0
 10
90.76620820213483
 20
-158.1002549517944
 30
0.0
 10
90.76620820213483
 20
-158.1002549517944
 30
0.0
 10
90.77688799813911
 20
-158.1043890663767
 30
0.0
 10
90.78963485143454
 20
-158.1105902382501
 30
0.0
 10
90.78963485143454
 20
-158.1233370915455
 30
0.0
 10
90.78963485143454
 20
-158.1446966835541
 30
0.0
 10
90.75759546342172
 20
-158.1508978554275
 30
0.0
 10
90.73658038096169
 20
-158.1550319700099
 30
0.0
 10
90.72590058495741
 20
-158.1784586193095
 30
0.0
 10
90.69627276378426
 20
-158.2439154335293
 30
0.0
 10
90.67732473861539
 20
-158.288357165289
 30
0.0
 10
90.67732473861539
 20
-158.288357165289
 30
0.0
 10
90.94810924375604
 20
-158.288357165289
 30
0.0
 10
90.94810924375604
 20
-158.288357165289
 30
0.0
 10
91.03905976456664
 20
-158.288357165289
 30
0.0
 10
91.23577471677441
 20
-158.2842230507067
 30
0.0
 10
91.37771265076668
 20
-158.2756103119936
 30
0.0
 10
91.37771265076668
 20
-158.2756103119936
 30
0.0
 10
91.37771265076668
 20
-158.4533772390325
 30
0.0
 10
91.37771265076668
 20
-158.4533772390325
 30
0.0
 10
91.29503035912069
 20
-158.4492431244502
 30
0.0
 10
91.27401527666066
 20
-158.4492431244502
 30
0.0
 10
91.09418129233063
 20
-158.4451090098679
 30
0.0
 10
91.06248641386633
 20
-158.5994492876071
 30
0.0
 10
91.0180446821066
 20
-158.6797200124134
 30
0.0
 10
90.97360295034688
 20
-158.749655450764
 30
0.0
 10
91.09418129233063
 20
-158.8089110931103
 30
0.0
 10
91.1999457237278
 20
-158.8764349646212
 30
0.0
 10
91.30364309783381
 20
-158.9591172562672
 30
0.0
 10
91.30364309783381
 20
-158.9591172562672
 30
0.0
 10
91.18513181314122
 20
-159.1262043873018
 30
0.0
 10
91.18513181314122
 20
-159.1262043873018
 30
0.0
 10
91.16170516384151
 20
-159.1072563621329
 30
0.0
 10
91.14895831054608
 20
-159.0986436234198
 30
0.0
 10
91.03699270727547
 20
-159.0138942744826
 30
0.0
 10
90.98841686093345
 20
-158.9759982241449
 30
0.0
 10
90.92916121858715
 20
-158.9401692310983
 30
0.0
 10
90.84854598423232
 20
-158.8957274993385
 30
0.0
 10
90.63701712143798
 20
-159.081762655542
 30
0.0
 10
90.4320339400656
 20
-159.1051893048417
 30
0.0
 10
90.14195690020757
 20
-159.1348171260149
 30
0.0
 10
90.14195690020757
 20
-159.1348171260149
 30
0.0
 10
90.03860403565008
 20
-158.9549831416848
 30
0.0
 10
90.03860403565008
 20
-158.9549831416848
 30
0.0
 10
90.35589732984158
 20
-158.950504517554
 30
0.0
 10
90.5312526900408
 20
-158.9253553205117
 30
0.0
 10
90.68352591048883
 20
-158.8151122649837
 30
0.0
 10
90.56535913534478
 20
-158.7644693613505
 30
0.0
 10
90.47647567182533
 20
-158.7369085974685
 30
0.0
 10
90.44030216923021
 20
-158.7241617441731
 30
0.0
 10
90.42135414406132
 20
-158.7517225080551
 30
0.0
 10
90.40654023347476
 20
-158.770670533224
 30
0.0
 10
90.37897946959276
 20
-158.8047769785279
 30
0.0
 10
90.37897946959276
 20
-158.8047769785279
 30
0.0
 10
90.18226451738499
 20
-158.722094686882
 30
0.0
 10
90.18226451738499
 20
-158.722094686882
 30
0.0
 10
90.26494680903098
 20
-158.6418239620757
 30
0.0
 10
90.32626950866843
 20
-158.5463948171342
 30
0.0
 10
90.38311358417507
 20
-158.4451090098679
 30
0.0
 10
90.19294431338925
 20
-158.4492431244502
 30
0.0
 10
90.17158472138072
 20
-158.4492431244502
 30
0.0
 10
90.08924693928324
 20
-158.4533772390325
 30
0.0
 10
90.08924693928324
 20
-158.4533772390325
 30
0.0
 10
90.08924693928324
 20
-158.2756103119936
 30
0.0
 10
90.08924693928324
 20
-158.2756103119936
 30
0.0
 10
90.22877330643586
 20
-158.2821559934156
 30
0.0
 10
90.43823511193904
 20
-158.2862901079979
 30
0.0
 10
90.4637288185299
 20
-158.2862901079979
 30
0.0
 10
90.48060978640762
 20
-158.2525281722424
 30
0.0
 10
90.53573131417163
 20
-158.1319498302587
 30
0.0
 10
90.5546793393405
 20
-158.0578802773258
 30
0.0
 10
90.53573131417163
 20
-158.0578802773258
 30
0.0
 10
90.35796438713274
 20
-158.0640814491992
 30
0.0
 10
90.16331649221612
 20
-158.0768283024946
 30
0.0
 10
90.16331649221612
 20
-158.0768283024946
 30
0.0
 10
90.16331649221612
 20
-158.2101534977738
 30
0.0
 10
90.16331649221612
 20
-158.2101534977738
 30
0.0
 10
90.11474064587408
 20
-158.2356472043647
 30
0.0
 10
90.0554850035278
 20
-158.267342082829
 30
0.0
 10
89.92215980824864
 20
-158.3327988970487
 30
0.0
 10
89.92215980824864
 20
-158.3327988970487
 30
0.0
 10
89.92215980824864
 20
-158.4788709456233
 30
0.0
 10
89.92215980824864
 20
-158.4788709456233
 30
0.0
 10
89.92215980824864
 20
-158.4788709456233
 30
0.0
 10
89.92215980824864
 20
-158.9463704029717
 30
0.0
 10
89.92215980824864
 20
-158.9463704029717
 30
0.0
 10
89.92215980824864
 20
-159.0731499168289
 30
0.0
 10
89.8859863056535
 20
-159.1324055591752
 30
0.0
 10
89.60279945676596
 20
-159.1241373300106
 30
0.0
 10
89.60279945676596
 20
-159.1241373300106
 30
0.0
 10
89.49910208265995
 20
-158.9167425817986
 30
0.0
 10
89.49910208265995
 20
-158.9167425817986
 30
0.0
 10
89.56249183958854
 20
-158.929489435094
 30
0.0
 10
89.61106768593056
 20
-158.9336235496763
 30
0.0
 10
89.651375303108
 20
-158.9336235496763
 30
0.0
 10
89.727511913332
 20
-158.9336235496763
 30
0.0
 10
89.73819170933628
 20
-158.9105414099251
 30
0.0
 10
89.73819170933628
 20
-158.8447400861569
 30
0.0
 10
89.73819170933628
 20
-158.8447400861569
 30
0.0
 10
89.73819170933628
 20
-158.4154811886947
 30
0.0
 10
89.73819170933628
 20
-158.4154811886947
 30
0.0
 10
89.64069550710371
 20
-158.4554442963236
 30
0.0
 10
89.62381453922599
 20
-158.4619899777456
 30
0.0
 10
89.57730575017512
 20
-158.4809380029145
 30
0.0
 10
89.57317163559283
 20
-158.5019530853745
 30
0.0
 10
89.568693011462
 20
-158.5315809065477
 30
0.0
 10
89.54974498629312
 20
-158.5315809065477
 30
0.0
 10
89.54147675712851
 20
-158.5315809065477
 30
0.0
 10
89.53079696112425
 20
-158.5274467919653
 30
0.0
 10
89.52425127970228
 20
-158.5043646522142
 30
0.0
 10
89.52425127970228
 20
-158.5043646522142
 30
0.0
 10
89.47154131877795
 20
-158.3117838145887
 30
0.0
 10
89.47154131877795
 20
-158.3117838145887
 30
0.0
 10
89.61761336735255
 20
-158.2652750255378
 30
0.0
 10
89.68307018157229
 20
-158.2418483762381
 30
0.0
 10
89.73819170933628
 20
-158.2208332937781
 30
0.0
 10
89.73819170933628
 20
-158.2208332937781
 30
0.0
 10
89.73819170933628
 20
-157.8081108546452
 30
0.0
 10
89.73819170933628
 20
-157.8081108546452
 30
0.0
 10
89.73819170933628
 20
-157.8081108546452
 30
0.0
 10
89.68513723886344
 20
-157.8081108546452
 30
0.0
 10
89.68513723886344
 20
-157.8081108546452
 30
0.0
 10
89.68513723886344
 20
-157.8081108546452
 30
0.0
 10
89.60693357134827
 20
-157.8081108546452
 30
0.0
 10
89.60693357134827
 20
-157.8081108546452
 30
0.0
 10
89.53906519028885
 20
-157.8081108546452
 30
0.0
 10
89.53079696112425
 20
-157.8081108546452
 30
0.0
 10
89.49462345852913
 20
-157.8146565360672
 30
0.0
 10
89.49462345852913
 20
-157.8146565360672
 30
0.0
 10
89.49462345852913
 20
-157.6200086411505
 30
0.0
 10
89.49462345852913
 20
-157.6200086411505
 30
0.0
 10
89.52218422241113
 20
-157.626209813024
 30
0.0
 10
89.53079696112425
 20
-157.626209813024
 30
0.0
 10
89.6003878899263
 20
-157.626209813024
 30
0.0
 10
89.6003878899263
 20
-157.626209813024
 30
0.0
 10
89.73371308520546
 20
-157.626209813024
 30
0.0
 10
89.73371308520546
 20
-157.626209813024
 30
0.0
 10
89.73371308520546
 20
-157.5566188842219
 30
0.0
 10
89.73371308520546
 20
-157.473936592576
 30
0.0
 10
89.73164602791431
 20
-157.4698024779937
 30
0.0
 10
89.72337779874971
 20
-157.2899684936636
 30
0.0
 10
89.72337779874971
 20
-157.2710204684947
 30
0.0
 10
89.72096623191005
 20
-157.2245116794439
 30
0.0
 10
89.72096623191005
 20
-157.2245116794439
 30
0.0
 10
89.9369737188352
 20
-157.2327799086085
 30
0.0
 10
89.9369737188352
 20
-157.2327799086085
 30
0.0
 10
89.94765351483946
 20
-157.2327799086085
 30
0.0
 10
89.9686685972995
 20
-157.2348469658996
 30
0.0
 10
89.9686685972995
 20
-157.2517279337773
 30
0.0
 10
89.9686685972995
 20
-157.2710204684947
 30
0.0
 10
89.95385468671292
 20
-157.2813557549505
 30
0.0
 10
89.92836098012208
 20
-157.3006482896679
 30
0.0
 10
89.92836098012208
 20
-157.3512911933011
 30
0.0
 10
89.92215980824864
 20
-157.5797010239731
 30
0.0
 10
89.92422686553977
 20
-157.626209813024
 30
0.0
 10
90.05341794623666
 20
-157.626209813024
 30
0.0
 10
90.06582028998355
 20
-157.626209813024
 30
0.0
 10
90.16331649221612
 20
-157.6179415838594
 30
0.0
 10
90.16331649221612
 20
-157.6179415838594
 30
0.0
 10
90.16331649221612
 20
-157.812589478776
 30
0.0
 10
90.16331649221612
 20
-157.812589478776
 30
0.0
 10
90.12507593232985
 20
-157.8101779119363
 30
0.0
 10
90.05755206081895
 20
-157.806043797354
 30
0.0
 10
89.92215980824864
 20
-157.8081108546452
 30
0.0
 10
89.92215980824864
 20
-157.8081108546452
 30
0.0
 10
89.92215980824864
 20
-158.1467637408453
 30
0.0
 10
89.92215980824864
 20
-158.1467637408453
 30
0.0
 10
89.97728133601262
 20
-158.1233370915455
 30
0.0
 10
90.04273815023237
 20
-158.0957763276636
 30
0.0
 10
90.09131399657439
 20
-158.0726941879124
 30
0.0
 10
90.09131399657439
 20
-158.0726941879124
 30
0.0
 10
90.09131399657439
 20
-157.8949272608735
 30
0.0
 10
90.09131399657439
 20
-157.8949272608735
 30
0.0
 10
90.20569116668468
 20
-157.9076741141689
 30
0.0
 10
90.32420245137728
 20
-157.9076741141689
 30
0.0
 10
90.44030216923021
 20
-157.9076741141689
 30
0.0
 10
90.41722002947903
 20
-157.812589478776
 30
0.0
 10
90.38965926559702
 20
-157.72990718713
 30
0.0
 10
90.32626950866843
 20
-157.5965819918508
 30
0.0
 10
90.2818277769087
 20
-157.598649049142
 30
0.0
 10
90.19914548526271
 20
-157.6031276732728
 30
0.0
 10
90.16124943492497
 20
-157.605194730564
 30
0.0
 10
90.16124943492497
 20
-157.605194730564
 30
0.0
 10
90.16124943492497
 20
-157.4253607462339
 30
0.0
 10
90.16124943492497
 20
-157.4253607462339
 30
0.0
 10
90.28596189149102
 20
-157.4336289753985
 30
0.0
 10
90.45959470394761
 20
-157.4381075995293
 30
0.0
 10
90.54193248604507
 20
-157.4381075995293
 30
0.0
 10
90.54193248604507
 20
-157.4381075995293
 30
0.0
 10
90.62461477769108
 20
-157.4381075995293
 30
0.0
 10
90.62461477769108
 20
-157.4381075995293
 30
0.0
 10
90.62461477769108
 20
-157.275154583077
 30
0.0
 10
90.62461477769108
 20
-157.2644747870727
 30
0.0
 10
90.6222032108514
 20
-157.2096977688573
 30
0.0
 10
90.6222032108514
 20
-157.2096977688573
 30
0.0
 10
90.84647892694116
 20
-157.2348469658996
 30
0.0
 10
90.84647892694116
 20
-157.2348469658996
 30
0.0
 10
90.85095755107198
 20
-157.2348469658996
 30
0.0
 10
90.87197263353202
 20
-157.2369140231908
 30
0.0
 10
90.87197263353202
 20
-157.2537949910685
 30
0.0
 10
90.87197263353202
 20
-157.2686089016551
 30
0.0
 10
90.86129283752773
 20
-157.2772216403682
 30
0.0
 10
90.83373207364573
 20
-157.2920355509548
 30
0.0
 10
90.82753090177229
 20
-157.3574923651745
 30
0.0
 10
90.82546384448113
 20
-157.378851957183
 30
0.0
 10
90.82546384448113
 20
-157.4381075995293
 30
0.0
 10
90.82546384448113
 20
-157.4381075995293
 30
0.0
 10
90.92054847987403
 20
-157.4381075995293
 30
0.0
 10
90.92054847987403
 20
-157.4381075995293
 30
0.0
 10
91.00323077152003
 20
-157.4381075995293
 30
0.0
 10
91.17651907442811
 20
-157.4336289753985
 30
0.0
 10
91.30157604054266
 20
-157.4253607462339
 30
0.0
 10
91.30157604054266
 20
-157.4253607462339
 30
0.0
 10
91.30157604054266
 20
-157.605194730564
 30
0.0
 10
91.30157604054266
 20
-157.605194730564
 30
0.0
 10
91.27194821936951
 20
-157.6031276732728
 30
0.0
 10
91.15343693467691
 20
-157.598649049142
 30
0.0
 10
91.11312931749949
 20
-157.5965819918508
 30
0.0
 10
91.09831540691294
 20
-157.6475694050325
 30
0.0
 10
91.06455347115748
 20
-157.7595350083031
 30
0.0
 10
90.9987521473892
 20
-157.8990613754558
 30
0.0
 10
91.04112682185776
 20
-157.8990613754558
 30
0.0
 10
91.3184570084204
 20
-157.8801133502869
 30
0.0
 10
91.37977970805783
 20
-157.8780462929957
 30
0.0
 10
91.37977970805783
 20
-157.8780462929957
 30
0.0
 10
91.37977970805783
 20
-158.0620143919081
 30
0.0
 10
91.37977970805783
 20
-158.0620143919081
 30
0.0
 10
91.35015188688468
 20
-158.0620143919081
 30
0.0
 10
91.33327091900696
 20
-158.0578802773258
 30
0.0
 10
91.17031790255465
 20
-158.0578802773258
 30
0.0
  0
HATCH
  5
D6
330
CF
100
AcDbEntity
  8
レイヤー 1
 62
    18
420
        0
440
 33554687
100
AcDbHatch
 10
0.0
 20
0.0
 30
0.0
210
0.0
220
0.0
230
1.0
  2
SOLID
 70
     1
 71
     1
 91
        3
 92
        1
 93
        1
 72
     4
 94
        3
 73
     0
 74
     0
 95
       17
 96
       13
 40
0.0
 40
0.0
 40
0.0
 40
0.0
 40
1.0
 40
1.0
 40
1.0
 40
2.0
 40
2.0
 40
2.0
 40
3.0
 40
3.0
 40
3.0
 40
4.0
 40
4.0
 40
4.0
 40
4.0
 10
90.60532224297366
 20
-158.4430419525767
 10
90.58844127509594
 20
-158.4723252642014
 10
90.53779837146278
 20
-158.5656873518516
 10
90.52711857545849
 20
-158.5846353770205
 10
90.71763235579281
 20
-158.6438910193668
 10
90.73864743825284
 20
-158.6500921912403
 10
90.81064993389457
 20
-158.6776529551222
 10
90.86577146165856
 20
-158.590836548894
 10
90.88885360140974
 20
-158.5167669959611
 10
90.9036675119963
 20
-158.4430419525767
 10
90.9036675119963
 20
-158.4430419525767
 10
90.60532224297366
 20
-158.4430419525767
 10
90.60532224297366
 20
-158.4430419525767
 97
        0
 97
        1
330
D3
 92
        1
 93
        1
 72
     4
 94
        3
 73
     0
 74
     0
 95
       20
 96
       16
 40
0.0
 40
0.0
 40
0.0
 40
0.0
 40
1.0
 40
1.0
 40
1.0
 40
2.0
 40
2.0
 40
2.0
 40
3.0
 40
3.0
 40
3.0
 40
4.0
 40
4.0
 40
4.0
 40
5.0
 40
5.0
 40
5.0
 40
5.0
 10
90.54193248604507
 20
-157.5924478772686
 10
90.54193248604507
 20
-157.5924478772686
 10
90.51023760758077
 20
-157.5924478772686
 10
90.51023760758077
 20
-157.5924478772686
 10
90.55674639663164
 20
-157.6920111367923
 10
90.58844127509594
 20
-157.7722818615986
 10
90.6222032108514
 20
-157.8990613754558
 10
90.6222032108514
 20
-157.8990613754558
 10
90.82959795906344
 20
-157.8990613754558
 10
90.82959795906344
 20
-157.8990613754558
 10
90.86129283752773
 20
-157.806043797354
 10
90.88471948682743
 20
-157.7216389579654
 10
90.90780162657861
 20
-157.5924478772686
 10
90.90780162657861
 20
-157.5924478772686
 10
90.54193248604507
 20
-157.5924478772686
 10
90.54193248604507
 20
-157.5924478772686
 97
        0
 97
        1
330
D4
 92
        1
 93
        1
 72
     4
 94
        3
 73
     0
 74
     0
 95
      242
 96
      238
 40
0.0
 40
0.0
 40
0.0
 40
0.0
 40
1.0
 40
1.0
 40
1.0
 40
2.0
 40
2.0
 40
2.0
 40
3.0
 40
3.0
 40
3.0
 40
4.0
 40
4.0
 40
4.0
 40
5.0
 40
5.0
 40
5.0
 40
6.0
 40
6.0
 40
6.0
 40
7.0
 40
7.0
 40
7.0
 40
8.0
 40
8.0
 40
8.0
 40
9.0
 40
9.0
 40
9.0
 40
10.0
 40
10.0
 40
10.0
 40
11.0
 40
11.0
 40
11.0
 40
12.0
 40
12.0
 40
12.0
 40
13.0
 40
13.0
 40
13.0
 40
14.0
 40
14.0
 40
14.0
 40
15.0
 40
15.0
 40
15.0
 40
16.0
 40
16.0
 40
16.0
 40
17.0
 40
17.0
 40
17.0
 40
18.0
 40
18.0
 40
18.0
 40
19.0
 40
19.0
 40
19.0
 40
20.0
 40
20.0
 40
20.0
 40
21.0
 40
21.0
 40
21.0
 40
22.0
 40
22.0
 40
22.0
 40
23.0
 40
23.0
 40
23.0
 40
24.0
 40
24.0
 40
24.0
 40
25.0
 40
25.0
 40
25.0
 40
26.0
 40
26.0
 40
26.0
 40
27.0
 40
27.0
 40
27.0
 40
28.0
 40
28.0
 40
28.0
 40
29.0
 40
29.0
 40
29.0
 40
30.0
 40
30.0
 40
30.0
 40
31.0
 40
31.0
 40
31.0
 40
32.0
 40
32.0
 40
32.0
 40
33.0
 40
33.0
 40
33.0
 40
34.0
 40
34.0
 40
34.0
 40
35.0
 40
35.0
 40
35.0
 40
36.0
 40
36.0
 40
36.0
 40
37.0
 40
37.0
 40
37.0
 40
38.0
 40
38.0
 40
38.0
 40
39.0
 40
39.0
 40
39.0
 40
40.0
 40
40.0
 40
40.0
 40
41.0
 40
41.0
 40
41.0
 40
42.0
 40
42.0
 40
42.0
 40
43.0
 40
43.0
 40
43.0
 40
44.0
 40
44.0
 40
44.0
 40
45.0
 40
45.0
 40
45.0
 40
46.0
 40
46.0
 40
46.0
 40
47.0
 40
47.0
 40
47.0
 40
48.0
 40
48.0
 40
48.0
 40
49.0
 40
49.0
 40
49.0
 40
50.0
 40
50.0
 40
50.0
 40
51.0
 40
51.0
 40
51.0
 40
52.0
 40
52.0
 40
52.0
 40
53.0
 40
53.0
 40
53.0
 40
54.0
 40
54.0
 40
54.0
 40
55.0
 40
55.0
 40
55.0
 40
56.0
 40
56.0
 40
56.0
 40
57.0
 40
57.0
 40
57.0
 40
58.0
 40
58.0
 40
58.0
 40
59.0
 40
59.0
 40
59.0
 40
60.0
 40
60.0
 40
60.0
 40
61.0
 40
61.0
 40
61.0
 40
62.0
 40
62.0
 40
62.0
 40
63.0
 40
63.0
 40
63.0
 40
64.0
 40
64.0
 40
64.0
 40
65.0
 40
65.0
 40
65.0
 40
66.0
 40
66.0
 40
66.0
 40
67.0
 40
67.0
 40
67.0
 40
68.0
 40
68.0
 40
68.0
 40
69.0
 40
69.0
 40
69.0
 40
70.0
 40
70.0
 40
70.0
 40
71.0
 40
71.0
 40
71.0
 40
72.0
 40
72.0
 40
72.0
 40
73.0
 40
73.0
 40
73.0
 40
74.0
 40
74.0
 40
74.0
 40
75.0
 40
75.0
 40
75.0
 40
76.0
 40
76.0
 40
76.0
 40
77.0
 40
77.0
 40
77.0
 40
78.0
 40
78.0
 40
78.0
 40
79.0
 40
79.0
 40
79.0
 40
79.0
 10
91.17031790255465
 20
-158.0578802773258
 10
91.17031790255465
 20
-158.0578802773258
 10
90.91641436529172
 20
-158.0578802773258
 10
90.91641436529172
 20
-158.0578802773258
 10
90.91641436529172
 20
-158.0578802773258
 10
90.63942868827764
 20
-158.0578802773258
 10
90.63942868827764
 20
-158.0578802773258
 10
90.63942868827764
 20
-158.0578802773258
 10
90.76620820213483
 20
-158.1002549517944
 10
90.76620820213483
 20
-158.1002549517944
 10
90.77688799813911
 20
-158.1043890663767
 10
90.78963485143454
 20
-158.1105902382501
 10
90.78963485143454
 20
-158.1233370915455
 10
90.78963485143454
 20
-158.1446966835541
 10
90.75759546342172
 20
-158.1508978554275
 10
90.73658038096169
 20
-158.1550319700099
 10
90.72590058495741
 20
-158.1784586193095
 10
90.69627276378426
 20
-158.2439154335293
 10
90.67732473861539
 20
-158.288357165289
 10
90.67732473861539
 20
-158.288357165289
 10
90.94810924375604
 20
-158.288357165289
 10
90.94810924375604
 20
-158.288357165289
 10
91.03905976456664
 20
-158.288357165289
 10
91.23577471677441
 20
-158.2842230507067
 10
91.37771265076668
 20
-158.2756103119936
 10
91.37771265076668
 20
-158.2756103119936
 10
91.37771265076668
 20
-158.4533772390325
 10
91.37771265076668
 20
-158.4533772390325
 10
91.29503035912069
 20
-158.4492431244502
 10
91.27401527666066
 20
-158.4492431244502
 10
91.09418129233063
 20
-158.4451090098679
 10
91.06248641386633
 20
-158.5994492876071
 10
91.0180446821066
 20
-158.6797200124134
 10
90.97360295034688
 20
-158.749655450764
 10
91.09418129233063
 20
-158.8089110931103
 10
91.1999457237278
 20
-158.8764349646212
 10
91.30364309783381
 20
-158.9591172562672
 10
91.30364309783381
 20
-158.9591172562672
 10
91.18513181314122
 20
-159.1262043873018
 10
91.18513181314122
 20
-159.1262043873018
 10
91.16170516384151
 20
-159.1072563621329
 10
91.14895831054608
 20
-159.0986436234198
 10
91.03699270727547
 20
-159.0138942744826
 10
90.98841686093345
 20
-158.9759982241449
 10
90.92916121858715
 20
-158.9401692310983
 10
90.84854598423232
 20
-158.8957274993385
 10
90.63701712143798
 20
-159.081762655542
 10
90.4320339400656
 20
-159.1051893048417
 10
90.14195690020757
 20
-159.1348171260149
 10
90.14195690020757
 20
-159.1348171260149
 10
90.03860403565008
 20
-158.9549831416848
 10
90.03860403565008
 20
-158.9549831416848
 10
90.35589732984158
 20
-158.950504517554
 10
90.5312526900408
 20
-158.9253553205117
 10
90.68352591048883
 20
-158.8151122649837
 10
90.56535913534478
 20
-158.7644693613505
 10
90.47647567182533
 20
-158.7369085974685
 10
90.44030216923021
 20
-158.7241617441731
 10
90.42135414406132
 20
-158.7517225080551
 10
90.40654023347476
 20
-158.770670533224
 10
90.37897946959276
 20
-158.8047769785279
 10
90.37897946959276
 20
-158.8047769785279
 10
90.18226451738499
 20
-158.722094686882
 10
90.18226451738499
 20
-158.722094686882
 10
90.26494680903098
 20
-158.6418239620757
 10
90.32626950866843
 20
-158.5463948171342
 10
90.38311358417507
 20
-158.4451090098679
 10
90.19294431338925
 20
-158.4492431244502
 10
90.17158472138072
 20
-158.4492431244502
 10
90.08924693928324
 20
-158.4533772390325
 10
90.08924693928324
 20
-158.4533772390325
 10
90.08924693928324
 20
-158.2756103119936
 10
90.08924693928324
 20
-158.2756103119936
 10
90.22877330643586
 20
-158.2821559934156
 10
90.43823511193904
 20
-158.2862901079979
 10
90.4637288185299
 20
-158.2862901079979
 10
90.48060978640762
 20
-158.2525281722424
 10
90.53573131417163
 20
-158.1319498302587
 10
90.5546793393405
 20
-158.0578802773258
 10
90.53573131417163
 20
-158.0578802773258
 10
90.35796438713274
 20
-158.0640814491992
 10
90.16331649221612
 20
-158.0768283024946
 10
90.16331649221612
 20
-158.0768283024946
 10
90.16331649221612
 20
-158.2101534977738
 10
90.16331649221612
 20
-158.2101534977738
 10
90.11474064587408
 20
-158.2356472043647
 10
90.0554850035278
 20
-158.267342082829
 10
89.92215980824864
 20
-158.3327988970487
 10
89.92215980824864
 20
-158.3327988970487
 10
89.92215980824864
 20
-158.4788709456233
 10
89.92215980824864
 20
-158.4788709456233
 10
89.92215980824864
 20
-158.4788709456233
 10
89.92215980824864
 20
-158.9463704029717
 10
89.92215980824864
 20
-158.9463704029717
 10
89.92215980824864
 20
-159.0731499168289
 10
89.8859863056535
 20
-159.1324055591752
 10
89.60279945676596
 20
-159.1241373300106
 10
89.60279945676596
 20
-159.1241373300106
 10
89.49910208265995
 20
-158.9167425817986
 10
89.49910208265995
 20
-158.9167425817986
 10
89.56249183958854
 20
-158.929489435094
 10
89.61106768593056
 20
-158.9336235496763
 10
89.651375303108
 20
-158.9336235496763
 10
89.727511913332
 20
-158.9336235496763
 10
89.73819170933628
 20
-158.9105414099251
 10
89.73819170933628
 20
-158.8447400861569
 10
89.73819170933628
 20
-158.8447400861569
 10
89.73819170933628
 20
-158.4154811886947
 10
89.73819170933628
 20
-158.4154811886947
 10
89.64069550710371
 20
-158.4554442963236
 10
89.62381453922599
 20
-158.4619899777456
 10
89.57730575017512
 20
-158.4809380029145
 10
89.57317163559283
 20
-158.5019530853745
 10
89.568693011462
 20
-158.5315809065477
 10
89.54974498629312
 20
-158.5315809065477
 10
89.54147675712851
 20
-158.5315809065477
 10
89.53079696112425
 20
-158.5274467919653
 10
89.52425127970228
 20
-158.5043646522142
 10
89.52425127970228
 20
-158.5043646522142
 10
89.47154131877795
 20
-158.3117838145887
 10
89.47154131877795
 20
-158.3117838145887
 10
89.61761336735255
 20
-158.2652750255378
 10
89.68307018157229
 20
-158.2418483762381
 10
89.73819170933628
 20
-158.2208332937781
 10
89.73819170933628
 20
-158.2208332937781
 10
89.73819170933628
 20
-157.8081108546452
 10
89.73819170933628
 20
-157.8081108546452
 10
89.73819170933628
 20
-157.8081108546452
 10
89.68513723886344
 20
-157.8081108546452
 10
89.68513723886344
 20
-157.8081108546452
 10
89.68513723886344
 20
-157.8081108546452
 10
89.60693357134827
 20
-157.8081108546452
 10
89.60693357134827
 20
-157.8081108546452
 10
89.53906519028885
 20
-157.8081108546452
 10
89.53079696112425
 20
-157.8081108546452
 10
89.49462345852913
 20
-157.8146565360672
 10
89.49462345852913
 20
-157.8146565360672
 10
89.49462345852913
 20
-157.6200086411505
 10
89.49462345852913
 20
-157.6200086411505
 10
89.52218422241113
 20
-157.626209813024
 10
89.53079696112425
 20
-157.626209813024
 10
89.6003878899263
 20
-157.626209813024
 10
89.6003878899263
 20
-157.626209813024
 10
89.73371308520546
 20
-157.626209813024
 10
89.73371308520546
 20
-157.626209813024
 10
89.73371308520546
 20
-157.5566188842219
 10
89.73371308520546
 20
-157.473936592576
 10
89.73164602791431
 20
-157.4698024779937
 10
89.72337779874971
 20
-157.2899684936636
 10
89.72337779874971
 20
-157.2710204684947
 10
89.72096623191005
 20
-157.2245116794439
 10
89.72096623191005
 20
-157.2245116794439
 10
89.9369737188352
 20
-157.2327799086085
 10
89.9369737188352
 20
-157.2327799086085
 10
89.94765351483946
 20
-157.2327799086085
 10
89.9686685972995
 20
-157.2348469658996
 10
89.9686685972995
 20
-157.2517279337773
 10
89.9686685972995
 20
-157.2710204684947
 10
89.95385468671292
 20
-157.2813557549505
 10
89.92836098012208
 20
-157.3006482896679
 10
89.92836098012208
 20
-157.3512911933011
 10
89.92215980824864
 20
-157.5797010239731
 10
89.92422686553977
 20
-157.626209813024
 10
90.05341794623666
 20
-157.626209813024
 10
90.06582028998355
 20
-157.626209813024
 10
90.16331649221612
 20
-157.6179415838594
 10
90.16331649221612
 20
-157.6179415838594
 10
90.16331649221612
 20
-157.812589478776
 10
90.16331649221612
 20
-157.812589478776
 10
90.12507593232985
 20
-157.8101779119363
 10
90.05755206081895
 20
-157.806043797354
 10
89.92215980824864
 20
-157.8081108546452
 10
89.92215980824864
 20
-157.8081108546452
 10
89.92215980824864
 20
-158.1467637408453
 10
89.92215980824864
 20
-158.1467637408453
 10
89.97728133601262
 20
-158.1233370915455
 10
90.04273815023237
 20
-158.0957763276636
 10
90.09131399657439
 20
-158.0726941879124
 10
90.09131399657439
 20
-158.0726941879124
 10
90.09131399657439
 20
-157.8949272608735
 10
90.09131399657439
 20
-157.8949272608735
 10
90.20569116668468
 20
-157.9076741141689
 10
90.32420245137728
 20
-157.9076741141689
 10
90.44030216923021
 20
-157.9076741141689
 10
90.41722002947903
 20
-157.812589478776
 10
90.38965926559702
 20
-157.72990718713
 10
90.32626950866843
 20
-157.5965819918508
 10
90.2818277769087
 20
-157.598649049142
 10
90.19914548526271
 20
-157.6031276732728
 10
90.16124943492497
 20
-157.605194730564
 10
90.16124943492497
 20
-157.605194730564
 10
90.16124943492497
 20
-157.4253607462339
 10
90.16124943492497
 20
-157.4253607462339
 10
90.28596189149102
 20
-157.4336289753985
 10
90.45959470394761
 20
-157.4381075995293
 10
90.54193248604507
 20
-157.4381075995293
 10
90.54193248604507
 20
-157.4381075995293
 10
90.62461477769108
 20
-157.4381075995293
 10
90.62461477769108
 20
-157.4381075995293
 10
90.62461477769108
 20
-157.275154583077
 10
90.62461477769108
 20
-157.2644747870727
 10
90.6222032108514
 20
-157.2096977688573
 10
90.6222032108514
 20
-157.2096977688573
 10
90.84647892694116
 20
-157.2348469658996
 10
90.84647892694116
 20
-157.2348469658996
 10
90.85095755107198
 20
-157.2348469658996
 10
90.87197263353202
 20
-157.2369140231908
 10
90.87197263353202
 20
-157.2537949910685
 10
90.87197263353202
 20
-157.2686089016551
 10
90.86129283752773
 20
-157.2772216403682
 10
90.83373207364573
 20
-157.2920355509548
 10
90.82753090177229
 20
-157.3574923651745
 10
90.82546384448113
 20
-157.378851957183
 10
90.82546384448113
 20
-157.4381075995293
 10
90.82546384448113
 20
-157.4381075995293
 10
90.92054847987403
 20
-157.4381075995293
 10
90.92054847987403
 20
-157.4381075995293
 10
91.00323077152003
 20
-157.4381075995293
 10
91.17651907442811
 20
-157.4336289753985
 10
91.30157604054266
 20
-157.4253607462339
 10
91.30157604054266
 20
-157.4253607462339
 10
91.30157604054266
 20
-157.605194730564
 10
91.30157604054266
 20
-157.605194730564
 10
91.27194821936951
 20
-157.6031276732728
 10
91.15343693467691
 20
-157.598649049142
 10
91.11312931749949
 20
-157.5965819918508
 10
91.09831540691294
 20
-157.6475694050325
 10
91.06455347115748
 20
-157.7595350083031
 10
90.9987521473892
 20
-157.8990613754558
 10
91.04112682185776
 20
-157.8990613754558
 10
91.3184570084204
 20
-157.8801133502869
 10
91.37977970805783
 20
-157.8780462929957
 10
91.37977970805783
 20
-157.8780462929957
 10
91.37977970805783
 20
-158.0620143919081
 10
91.37977970805783
 20
-158.0620143919081
 10
91.35015188688468
 20
-158.0620143919081
 10
91.33327091900696
 20
-158.0578802773258
 10
91.17031790255465
 20
-158.0578802773258
 97
        0
 97
        1
330
D5
 75
     2
 76
     1
 98
        1
 10
0.0
 20
0.0
450
        0
451
        0
460
0.0
461
0.0
452
        0
462
0.0
453
        0
470

  0
SPLINE
  5
D7
330
CF
100
AcDbEntity
  8
レイヤー 1
100
AcDbSpline
210
0.0
220
0.0
230
1.0
 70
    11
 71
     3
 72
    17
 73
    13
 74
     0
 42
0.0000000001
 43
0.0000000001
 40
0.0
 40
0.0
 40
0.0
 40
0.0
 40
1.0
 40
1.0
 40
1.0
 40
2.0
 40
2.0
 40
2.0
 40
3.0
 40
3.0
 40
3.0
 40
4.0
 40
4.0
 40
4.0
 40
4.0
 10
93.02687985955579
 20
-158.8574869394523
 30
0.0
 10
93.02687985955579
 20
-158.8574869394523
 30
0.0
 10
92.32029077553105
 20
-158.8574869394523
 30
0.0
 10
92.32029077553105
 20
-158.8574869394523
 30
0.0
 10
92.32029077553105
 20
-158.8574869394523
 30
0.0
 10
92.32029077553105
 20
-158.9718641095626
 30
0.0
 10
92.32029077553105
 20
-158.9718641095626
 30
0.0
 10
92.32029077553105
 20
-158.9718641095626
 30
0.0
 10
93.02687985955579
 20
-158.9718641095626
 30
0.0
 10
93.02687985955579
 20
-158.9718641095626
 30
0.0
 10
93.02687985955579
 20
-158.9718641095626
 30
0.0
 10
93.02687985955579
 20
-158.8574869394523
 30
0.0
 10
93.02687985955579
 20
-158.8574869394523
 30
0.0
  0
SPLINE
  5
D8
330
CF
100
AcDbEntity
  8
レイヤー 1
100
AcDbSpline
210
0.0
220
0.0
230
1.0
 70
    11
 71
     3
 72
    17
 73
    13
 74
     0
 42
0.0000000001
 43
0.0000000001
 40
0.0
 40
0.0
 40
0.0
 40
0.0
 40
1.0
 40
1.0
 40
1.0
 40
2.0
 40
2.0
 40
2.0
 40
3.0
 40
3.0
 40
3.0
 40
4.0
 40
4.0
 40
4.0
 40
4.0
 10
93.02687985955579
 20
-158.6142631981936
 30
0.0
 10
93.02687985955579
 20
-158.6142631981936
 30
0.0
 10
92.32029077553105
 20
-158.6142631981936
 30
0.0
 10
92.32029077553105
 20
-158.6142631981936
 30
0.0
 10
92.32029077553105
 20
-158.6142631981936
 30
0.0
 10
92.32029077553105
 20
-158.7286403683039
 30
0.0
 10
92.32029077553105
 20
-158.7286403683039
 30
0.0
 10
92.32029077553105
 20
-158.7286403683039
 30
0.0
 10
93.02687985955579
 20
-158.7286403683039
 30
0.0
 10
93.02687985955579
 20
-158.7286403683039
 30
0.0
 10
93.02687985955579
 20
-158.7286403683039
 30
0.0
 10
93.02687985955579
 20
-158.6142631981936
 30
0.0
 10
93.02687985955579
 20
-158.6142631981936
 30
0.0
  0
SPLINE
  5
D9
330
CF
100
AcDbEntity
  8
レイヤー 1
100
AcDbSpline
210
0.0
220
0.0
230
1.0
 70
    11
 71
     3
 72
    17
 73
    13
 74
     0
 42
0.0000000001
 43
0.0000000001
 40
0.0
 40
0.0
 40
0.0
 40
0.0
 40
1.0
 40
1.0
 40
1.0
 40
2.0
 40
2.0
 40
2.0
 40
3.0
 40
3.0
 40
3.0
 40
4.0
 40
4.0
 40
4.0
 40
4.0
 10
93.02687985955579
 20
-158.3813747433907
 30
0.0
 10
93.02687985955579
 20
-158.3813747433907
 30
0.0
 10
92.32029077553105
 20
-158.3813747433907
 30
0.0
 10
92.32029077553105
 20
-158.3813747433907
 30
0.0
 10
92.32029077553105
 20
-158.3813747433907
 30
0.0
 10
92.32029077553105
 20
-158.4895507416276
 30
0.0
 10
92.32029077553105
 20
-158.4895507416276
 30
0.0
 10
92.32029077553105
 20
-158.4895507416276
 30
0.0
 10
93.02687985955579
 20
-158.4895507416276
 30
0.0
 10
93.02687985955579
 20
-158.4895507416276
 30
0.0
 10
93.02687985955579
 20
-158.4895507416276
 30
0.0
 10
93.02687985955579
 20
-158.3813747433907
 30
0.0
 10
93.02687985955579
 20
-158.3813747433907
 30
0.0
  0
SPLINE
  5
DA
330
CF
100
AcDbEntity
  8
レイヤー 1
100
AcDbSpline
210
0.0
220
0.0
230
1.0
 70
     9
 71
     3
 72
   203
 73
   199
 74
     0
 42
0.0000000001
 43
0.0000000001
 40
0.0
 40
0.0
 40
0.0
 40
0.0
 40
1.0
 40
1.0
 40
1.0
 40
2.0
 40
2.0
 40
2.0
 40
3.0
 40
3.0
 40
3.0
 40
4.0
 40
4.0
 40
4.0
 40
5.0
 40
5.0
 40
5.0
 40
6.0
 40
6.0
 40
6.0
 40
7.0
 40
7.0
 40
7.0
 40
8.0
 40
8.0
 40
8.0
 40
9.0
 40
9.0
 40
9.0
 40
10.0
 40
10.0
 40
10.0
 40
11.0
 40
11.0
 40
11.0
 40
12.0
 40
12.0
 40
12.0
 40
13.0
 40
13.0
 40
13.0
 40
14.0
 40
14.0
 40
14.0
 40
15.0
 40
15.0
 40
15.0
 40
16.0
 40
16.0
 40
16.0
 40
17.0
 40
17.0
 40
17.0
 40
18.0
 40
18.0
 40
18.0
 40
19.0
 40
19.0
 40
19.0
 40
20.0
 40
20.0
 40
20.0
 40
21.0
 40
21.0
 40
21.0
 40
22.0
 40
22.0
 40
22.0
 40
23.0
 40
23.0
 40
23.0
 40
24.0
 40
24.0
 40
24.0
 40
25.0
 40
25.0
 40
25.0
 40
26.0
 40
26.0
 40
26.0
 40
27.0
 40
27.0
 40
27.0
 40
28.0
 40
28.0
 40
28.0
 40
29.0
 40
29.0
 40
29.0
 40
30.0
 40
30.0
 40
30.0
 40
31.0
 40
31.0
 40
31.0
 40
32.0
 40
32.0
 40
32.0
 40
33.0
 40
33.0
 40
33.0
 40
34.0
 40
34.0
 40
34.0
 40
35.0
 40
35.0
 40
35.0
 40
36.0
 40
36.0
 40
36.0
 40
37.0
 40
37.0
 40
37.0
 40
38.0
 40
38.0
 40
38.0
 40
39.0
 40
39.0
 40
39.0
 40
40.0
 40
40.0
 40
40.0
 40
41.0
 40
41.0
 40
41.0
 40
42.0
 40
42.0
 40
42.0
 40
43.0
 40
43.0
 40
43.0
 40
44.0
 40
44.0
 40
44.0
 40
45.0
 40
45.0
 40
45.0
 40
46.0
 40
46.0
 40
46.0
 40
47.0
 40
47.0
 40
47.0
 40
48.0
 40
48.0
 40
48.0
 40
49.0
 40
49.0
 40
49.0
 40
50.0
 40
50.0
 40
50.0
 40
51.0
 40
51.0
 40
51.0
 40
52.0
 40
52.0
 40
52.0
 40
53.0
 40
53.0
 40
53.0
 40
54.0
 40
54.0
 40
54.0
 40
55.0
 40
55.0
 40
55.0
 40
56.0
 40
56.0
 40
56.0
 40
57.0
 40
57.0
 40
57.0
 40
58.0
 40
58.0
 40
58.0
 40
59.0
 40
59.0
 40
59.0
 40
60.0
 40
60.0
 40
60.0
 40
61.0
 40
61.0
 40
61.0
 40
62.0
 40
62.0
 40
62.0
 40
63.0
 40
63.0
 40
63.0
 40
64.0
 40
64.0
 40
64.0
 40
65.0
 40
65.0
 40
65.0
 40
66.0
 40
66.0
 40
66.0
 40
66.0
 10
92.86185978581231
 20
-158.1254041488367
 30
0.0
 10
92.86185978581231
 20
-158.1254041488367
 30
0.0
 10
92.3030652981048
 20
-158.1254041488367
 30
0.0
 10
92.3030652981048
 20
-158.1254041488367
 30
0.0
 10
92.29273001164903
 20
-158.1698458805964
 30
0.0
 10
92.28411727293591
 20
-158.2015407590607
 30
0.0
 10
92.27137041964049
 20
-158.239781318947
 30
0.0
 10
92.29686412623134
 20
-158.239781318947
 30
0.0
 10
92.31167803681792
 20
-158.2418483762381
 30
0.0
 10
92.31787920869136
 20
-158.2418483762381
 30
0.0
 10
92.31787920869136
 20
-158.2418483762381
 30
0.0
 10
92.50632593173454
 20
-158.2418483762381
 30
0.0
 10
92.50632593173454
 20
-158.2418483762381
 30
0.0
 10
92.50632593173454
 20
-158.2418483762381
 30
0.0
 10
92.8808078109812
 20
-158.2418483762381
 30
0.0
 10
92.8808078109812
 20
-158.2418483762381
 30
0.0
 10
92.93145071461436
 20
-158.2418483762381
 30
0.0
 10
93.21498207305042
 20
-158.2291015229427
 30
0.0
 10
93.24667695151473
 20
-158.2291015229427
 30
0.0
 10
93.24460989422357
 20
-158.2566622868247
 30
0.0
 10
93.24254283693242
 20
-158.2756103119936
 30
0.0
 10
93.24254283693242
 20
-158.3052381331667
 30
0.0
 10
93.24047577964128
 20
-158.336933011631
 30
0.0
 10
93.24047577964128
 20
-158.4723252642014
 30
0.0
 10
93.24047577964128
 20
-158.4998860280833
 30
0.0
 10
93.24047577964128
 20
-158.4998860280833
 30
0.0
 10
93.24047577964128
 20
-158.7455213361817
 30
0.0
 10
93.24047577964128
 20
-158.7455213361817
 30
0.0
 10
93.24047577964128
 20
-158.7899630679414
 30
0.0
 10
93.24460989422357
 20
-158.9866780201492
 30
0.0
 10
93.24874400880586
 20
-159.1389512405972
 30
0.0
 10
93.24874400880586
 20
-159.1389512405972
 30
0.0
 10
93.02240123542496
 20
-159.1389512405972
 30
0.0
 10
93.02240123542496
 20
-159.1389512405972
 30
0.0
 10
93.02240123542496
 20
-159.1389512405972
 30
0.0
 10
93.02446829271611
 20
-159.1051893048417
 30
0.0
 10
93.02446829271611
 20
-159.1051893048417
 30
0.0
 10
93.02446829271611
 20
-159.1051893048417
 30
0.0
 10
92.32235783282218
 20
-159.1051893048417
 30
0.0
 10
92.32235783282218
 20
-159.1051893048417
 30
0.0
 10
92.32235783282218
 20
-159.1051893048417
 30
0.0
 10
92.32442489011335
 20
-159.1389512405972
 30
0.0
 10
92.32442489011335
 20
-159.1389512405972
 30
0.0
 10
92.32442489011335
 20
-159.1389512405972
 30
0.0
 10
92.10635034589703
 20
-159.1389512405972
 30
0.0
 10
92.10635034589703
 20
-159.1389512405972
 30
0.0
 10
92.11082897002786
 20
-159.0838297128332
 30
0.0
 10
92.11082897002786
 20
-159.0710828595378
 30
0.0
 10
92.11703014190129
 20
-158.957050198976
 30
0.0
 10
92.11909719919246
 20
-158.929489435094
 30
0.0
 10
92.12116425648359
 20
-158.7961642398148
 30
0.0
 10
92.12116425648359
 20
-158.777216214646
 30
0.0
 10
92.12116425648359
 20
-158.777216214646
 30
0.0
 10
92.12116425648359
 20
-158.5739555810162
 30
0.0
 10
92.12116425648359
 20
-158.5739555810162
 30
0.0
 10
91.98163788933099
 20
-158.8237250036968
 30
0.0
 10
91.81248370100522
 20
-158.9549831416848
 30
0.0
 10
91.70671926960805
 20
-159.0204399559046
 30
0.0
 10
91.70671926960805
 20
-159.0204399559046
 30
0.0
 10
91.53308645715146
 20
-158.880913588752
 30
0.0
 10
91.53308645715146
 20
-158.880913588752
 30
0.0
 10
91.62196992067091
 20
-158.8299261755703
 30
0.0
 10
91.76597491195435
 20
-158.743109769342
 30
0.0
 10
91.90343422181582
 20
-158.5488063839739
 30
0.0
 10
91.9943847426264
 20
-158.4216823605682
 30
0.0
 10
92.05984155684616
 20
-158.2780218788333
 30
0.0
 10
92.09394800215013
 20
-158.1254041488367
 30
0.0
 10
91.86519366192953
 20
-158.1278157156764
 30
0.0
 10
91.68535967759948
 20
-158.1340168875498
 30
0.0
 10
91.59027504220659
 20
-158.1360839448409
 30
0.0
 10
91.59027504220659
 20
-158.1360839448409
 30
0.0
 10
91.59027504220659
 20
-157.9583170178021
 30
0.0
 10
91.59027504220659
 20
-157.9583170178021
 30
0.0
 10
91.78698999441436
 20
-157.964862699224
 30
0.0
 10
92.07052135285044
 20
-157.9689968138064
 30
0.0
 10
92.22072751600732
 20
-157.9689968138064
 30
0.0
 10
92.22072751600732
 20
-157.9689968138064
 30
0.0
 10
92.43432343609281
 20
-157.9689968138064
 30
0.0
 10
92.43432343609281
 20
-157.9689968138064
 30
0.0
 10
92.43432343609281
 20
-157.9689968138064
 30
0.0
 10
92.43432343609281
 20
-157.861165325118
 30
0.0
 10
92.43432343609281
 20
-157.861165325118
 30
0.0
 10
92.43432343609281
 20
-157.861165325118
 30
0.0
 10
92.28825138751821
 20
-157.861165325118
 30
0.0
 10
92.28825138751821
 20
-157.861165325118
 30
0.0
 10
92.11909719919246
 20
-157.861165325118
 30
0.0
 10
91.94994301086669
 20
-157.8652994397003
 30
0.0
 10
91.78285587983207
 20
-157.8718451211223
 30
0.0
 10
91.78285587983207
 20
-157.8718451211223
 30
0.0
 10
91.78285587983207
 20
-157.7002793659568
 30
0.0
 10
91.78285587983207
 20
-157.7002793659568
 30
0.0
 10
91.93719615757126
 20
-157.7109591619611
 30
0.0
 10
92.12323131377475
 20
-157.7109591619611
 30
0.0
 10
92.28825138751821
 20
-157.7109591619611
 30
0.0
 10
92.28825138751821
 20
-157.7109591619611
 30
0.0
 10
92.43432343609281
 20
-157.7109591619611
 30
0.0
 10
92.43432343609281
 20
-157.7109591619611
 30
0.0
 10
92.43432343609281
 20
-157.7109591619611
 30
0.0
 10
92.43432343609281
 20
-157.5924478772686
 30
0.0
 10
92.43432343609281
 20
-157.5924478772686
 30
0.0
 10
92.43432343609281
 20
-157.5924478772686
 30
0.0
 10
92.3030652981048
 20
-157.5924478772686
 30
0.0
 10
92.3030652981048
 20
-157.5924478772686
 30
0.0
 10
92.25655650905393
 20
-157.5924478772686
 30
0.0
 10
92.0536403849727
 20
-157.6010606159817
 30
0.0
 10
92.01126571050414
 20
-157.6010606159817
 30
0.0
 10
91.80834958642291
 20
-157.605194730564
 30
0.0
 10
91.73186846665037
 20
-157.6072617878551
 30
0.0
 10
91.65366479913521
 20
-157.6093288451463
 30
0.0
 10
91.65366479913521
 20
-157.6093288451463
 30
0.0
 10
91.65366479913521
 20
-157.4253607462339
 30
0.0
 10
91.65366479913521
 20
-157.4253607462339
 30
0.0
 10
91.76804196924548
 20
-157.4336289753985
 30
0.0
 10
91.81248370100522
 20
-157.4336289753985
 30
0.0
 10
92.19523380941648
 20
-157.4422417141116
 30
0.0
 10
92.13184405248787
 20
-157.3471570787187
 30
0.0
 10
92.10428328860588
 20
-157.3195963148368
 30
0.0
 10
92.06845429555928
 20
-157.2834228122416
 30
0.0
 10
92.06845429555928
 20
-157.2834228122416
 30
0.0
 10
92.2438096557585
 20
-157.2010850301442
 30
0.0
 10
92.2438096557585
 20
-157.2010850301442
 30
0.0
 10
92.28411727293591
 20
-157.2369140231908
 30
0.0
 10
92.32855900469564
 20
-157.2792886976593
 30
0.0
 10
92.40262855762852
 20
-157.3891872436388
 30
0.0
 10
92.40262855762852
 20
-157.3891872436388
 30
0.0
 10
92.28825138751821
 20
-157.4443087714028
 30
0.0
 10
92.28825138751821
 20
-157.4443087714028
 30
0.0
 10
92.28825138751821
 20
-157.4443087714028
 30
0.0
 10
92.29893118352249
 20
-157.4443087714028
 30
0.0
 10
92.29893118352249
 20
-157.4443087714028
 30
0.0
 10
92.29893118352249
 20
-157.4443087714028
 30
0.0
 10
92.8215521686349
 20
-157.4443087714028
 30
0.0
 10
92.8215521686349
 20
-157.4443087714028
 30
0.0
 10
92.8215521686349
 20
-157.4443087714028
 30
0.0
 10
92.72646753324201
 20
-157.3998670396431
 30
0.0
 10
92.72646753324201
 20
-157.3998670396431
 30
0.0
 10
92.75368378757546
 20
-157.3619709893053
 30
0.0
 10
92.81087237263061
 20
-157.2813557549505
 30
0.0
 10
92.82568628321719
 20
-157.2072862020176
 30
0.0
 10
92.82568628321719
 20
-157.2072862020176
 30
0.0
 10
93.03928220330268
 20
-157.2710204684947
 30
0.0
 10
93.03928220330268
 20
-157.2710204684947
 30
0.0
 10
93.0478949420158
 20
-157.2730875257859
 30
0.0
 10
93.06891002447583
 20
-157.2834228122416
 30
0.0
 10
93.06891002447583
 20
-157.3047824042502
 30
0.0
 10
93.06891002447583
 20
-157.3426784545879
 30
0.0
 10
93.00345321025607
 20
-157.3426784545879
 30
0.0
 10
92.98450518508721
 20
-157.3426784545879
 30
0.0
 10
92.97382538908292
 20
-157.3619709893053
 30
0.0
 10
92.95039873978323
 20
-157.4019340969342
 30
0.0
 10
92.92077091861008
 20
-157.4422417141116
 30
0.0
 10
93.32074650444759
 20
-157.4360405422382
 30
0.0
 10
93.35037432562074
 20
-157.4336289753985
 30
0.0
 10
93.42651093584477
 20
-157.4274278035251
 30
0.0
 10
93.42651093584477
 20
-157.4274278035251
 30
0.0
 10
93.42651093584477
 20
-157.6093288451463
 30
0.0
 10
93.42651093584477
 20
-157.6093288451463
 30
0.0
 10
93.4075629106759
 20
-157.6093288451463
 30
0.0
 10
93.38206920408504
 20
-157.6072617878551
 30
0.0
 10
93.16227211212611
 20
-157.598649049142
 30
0.0
 10
93.11128469894439
 20
-157.5965819918508
 30
0.0
 10
92.89148760698546
 20
-157.5924478772686
 30
0.0
 10
92.84704587522574
 20
-157.5924478772686
 30
0.0
 10
92.84704587522574
 20
-157.5924478772686
 30
0.0
 10
92.63103838830058
 20
-157.5924478772686
 30
0.0
 10
92.63103838830058
 20
-157.5924478772686
 30
0.0
 10
92.63103838830058
 20
-157.5924478772686
 30
0.0
 10
92.63103838830058
 20
-157.7109591619611
 30
0.0
 10
92.63103838830058
 20
-157.7109591619611
 30
0.0
 10
92.63103838830058
 20
-157.7109591619611
 30
0.0
 10
92.80467120075718
 20
-157.7109591619611
 30
0.0
 10
92.80467120075718
 20
-157.7109591619611
 30
0.0
 10
92.96762421720949
 20
-157.7109591619611
 30
0.0
 10
93.15779348799528
 20
-157.7109591619611
 30
0.0
 10
93.31454533257414
 20
-157.7002793659568
 30
0.0
 10
93.31454533257414
 20
-157.7002793659568
 30
0.0
 10
93.31454533257414
 20
-157.8718451211223
 30
0.0
 10
93.31454533257414
 20
-157.8718451211223
 30
0.0
 10
93.10508352707095
 20
-157.8632323824092
 30
0.0
 10
92.90836857486318
 20
-157.861165325118
 30
0.0
 10
92.80467120075718
 20
-157.861165325118
 30
0.0
 10
92.80467120075718
 20
-157.861165325118
 30
0.0
 10
92.63103838830058
 20
-157.861165325118
 30
0.0
 10
92.63103838830058
 20
-157.861165325118
 30
0.0
 10
92.63103838830058
 20
-157.861165325118
 30
0.0
 10
92.63103838830058
 20
-157.9689968138064
 30
0.0
 10
92.63103838830058
 20
-157.9689968138064
 30
0.0
 10
92.63103838830058
 20
-157.9689968138064
 30
0.0
 10
92.86185978581231
 20
-157.9689968138064
 30
0.0
 10
92.86185978581231
 20
-157.9689968138064
 30
0.0
 10
92.99484047154296
 20
-157.9689968138064
 30
0.0
 10
93.28285045410984
 20
-157.964862699224
 30
0.0
 10
93.49196775006452
 20
-157.9583170178021
 30
0.0
 10
93.49196775006452
 20
-157.9583170178021
 30
0.0
 10
93.49196775006452
 20
-158.1360839448409
 30
0.0
 10
93.49196775006452
 20
-158.1360839448409
 30
0.0
 10
93.29973142198758
 20
-158.1298827729675
 30
0.0
 10
92.98657224237835
 20
-158.1254041488367
 30
0.0
 10
92.86185978581231
 20
-158.1254041488367
 30
0.0
  0
HATCH
  5
DB
330
CF
100
AcDbEntity
  8
レイヤー 1
 62
    18
420
        0
440
 33554687
100
AcDbHatch
 10
0.0
 20
0.0
 30
0.0
210
0.0
220
0.0
230
1.0
  2
SOLID
 70
     1
 71
     1
 91
        4
 92
        1
 93
        1
 72
     4
 94
        3
 73
     0
 74
     0
 95
       17
 96
       13
 40
0.0
 40
0.0
 40
0.0
 40
0.0
 40
1.0
 40
1.0
 40
1.0
 40
2.0
 40
2.0
 40
2.0
 40
3.0
 40
3.0
 40
3.0
 40
4.0
 40
4.0
 40
4.0
 40
4.0
 10
93.02687985955579
 20
-158.8574869394523
 10
93.02687985955579
 20
-158.8574869394523
 10
92.32029077553105
 20
-158.8574869394523
 10
92.32029077553105
 20
-158.8574869394523
 10
92.32029077553105
 20
-158.8574869394523
 10
92.32029077553105
 20
-158.9718641095626
 10
92.32029077553105
 20
-158.9718641095626
 10
92.32029077553105
 20
-158.9718641095626
 10
93.02687985955579
 20
-158.9718641095626
 10
93.02687985955579
 20
-158.9718641095626
 10
93.02687985955579
 20
-158.9718641095626
 10
93.02687985955579
 20
-158.8574869394523
 10
93.02687985955579
 20
-158.8574869394523
 97
        0
 97
        1
330
D7
 92
        1
 93
        1
 72
     4
 94
        3
 73
     0
 74
     0
 95
       17
 96
       13
 40
0.0
 40
0.0
 40
0.0
 40
0.0
 40
1.0
 40
1.0
 40
1.0
 40
2.0
 40
2.0
 40
2.0
 40
3.0
 40
3.0
 40
3.0
 40
4.0
 40
4.0
 40
4.0
 40
4.0
 10
93.02687985955579
 20
-158.6142631981936
 10
93.02687985955579
 20
-158.6142631981936
 10
92.32029077553105
 20
-158.6142631981936
 10
92.32029077553105
 20
-158.6142631981936
 10
92.32029077553105
 20
-158.6142631981936
 10
92.32029077553105
 20
-158.7286403683039
 10
92.32029077553105
 20
-158.7286403683039
 10
92.32029077553105
 20
-158.7286403683039
 10
93.02687985955579
 20
-158.7286403683039
 10
93.02687985955579
 20
-158.7286403683039
 10
93.02687985955579
 20
-158.7286403683039
 10
93.02687985955579
 20
-158.6142631981936
 10
93.02687985955579
 20
-158.6142631981936
 97
        0
 97
        1
330
D8
 92
        1
 93
        1
 72
     4
 94
        3
 73
     0
 74
     0
 95
       17
 96
       13
 40
0.0
 40
0.0
 40
0.0
 40
0.0
 40
1.0
 40
1.0
 40
1.0
 40
2.0
 40
2.0
 40
2.0
 40
3.0
 40
3.0
 40
3.0
 40
4.0
 40
4.0
 40
4.0
 40
4.0
 10
93.02687985955579
 20
-158.3813747433907
 10
93.02687985955579
 20
-158.3813747433907
 10
92.32029077553105
 20
-158.3813747433907
 10
92.32029077553105
 20
-158.3813747433907
 10
92.32029077553105
 20
-158.3813747433907
 10
92.32029077553105
 20
-158.4895507416276
 10
92.32029077553105
 20
-158.4895507416276
 10
92.32029077553105
 20
-158.4895507416276
 10
93.02687985955579
 20
-158.4895507416276
 10
93.02687985955579
 20
-158.4895507416276
 10
93.02687985955579
 20
-158.4895507416276
 10
93.02687985955579
 20
-158.3813747433907
 10
93.02687985955579
 20
-158.3813747433907
 97
        0
 97
        1
330
D9
 92
        1
 93
        1
 72
     4
 94
        3
 73
     0
 74
     0
 95
      203
 96
      199
 40
0.0
 40
0.0
 40
0.0
 40
0.0
 40
1.0
 40
1.0
 40
1.0
 40
2.0
 40
2.0
 40
2.0
 40
3.0
 40
3.0
 40
3.0
 40
4.0
 40
4.0
 40
4.0
 40
5.0
 40
5.0
 40
5.0
 40
6.0
 40
6.0
 40
6.0
 40
7.0
 40
7.0
 40
7.0
 40
8.0
 40
8.0
 40
8.0
 40
9.0
 40
9.0
 40
9.0
 40
10.0
 40
10.0
 40
10.0
 40
11.0
 40
11.0
 40
11.0
 40
12.0
 40
12.0
 40
12.0
 40
13.0
 40
13.0
 40
13.0
 40
14.0
 40
14.0
 40
14.0
 40
15.0
 40
15.0
 40
15.0
 40
16.0
 40
16.0
 40
16.0
 40
17.0
 40
17.0
 40
17.0
 40
18.0
 40
18.0
 40
18.0
 40
19.0
 40
19.0
 40
19.0
 40
20.0
 40
20.0
 40
20.0
 40
21.0
 40
21.0
 40
21.0
 40
22.0
 40
22.0
 40
22.0
 40
23.0
 40
23.0
 40
23.0
 40
24.0
 40
24.0
 40
24.0
 40
25.0
 40
25.0
 40
25.0
 40
26.0
 40
26.0
 40
26.0
 40
27.0
 40
27.0
 40
27.0
 40
28.0
 40
28.0
 40
28.0
 40
29.0
 40
29.0
 40
29.0
 40
30.0
 40
30.0
 40
30.0
 40
31.0
 40
31.0
 40
31.0
 40
32.0
 40
32.0
 40
32.0
 40
33.0
 40
33.0
 40
33.0
 40
34.0
 40
34.0
 40
34.0
 40
35.0
 40
35.0
 40
35.0
 40
36.0
 40
36.0
 40
36.0
 40
37.0
 40
37.0
 40
37.0
 40
38.0
 40
38.0
 40
38.0
 40
39.0
 40
39.0
 40
39.0
 40
40.0
 40
40.0
 40
40.0
 40
41.0
 40
41.0
 40
41.0
 40
42.0
 40
42.0
 40
42.0
 40
43.0
 40
43.0
 40
43.0
 40
44.0
 40
44.0
 40
44.0
 40
45.0
 40
45.0
 40
45.0
 40
46.0
 40
46.0
 40
46.0
 40
47.0
 40
47.0
 40
47.0
 40
48.0
 40
48.0
 40
48.0
 40
49.0
 40
49.0
 40
49.0
 40
50.0
 40
50.0
 40
50.0
 40
51.0
 40
51.0
 40
51.0
 40
52.0
 40
52.0
 40
52.0
 40
53.0
 40
53.0
 40
53.0
 40
54.0
 40
54.0
 40
54.0
 40
55.0
 40
55.0
 40
55.0
 40
56.0
 40
56.0
 40
56.0
 40
57.0
 40
57.0
 40
57.0
 40
58.0
 40
58.0
 40
58.0
 40
59.0
 40
59.0
 40
59.0
 40
60.0
 40
60.0
 40
60.0
 40
61.0
 40
61.0
 40
61.0
 40
62.0
 40
62.0
 40
62.0
 40
63.0
 40
63.0
 40
63.0
 40
64.0
 40
64.0
 40
64.0
 40
65.0
 40
65.0
 40
65.0
 40
66.0
 40
66.0
 40
66.0
 40
66.0
 10
92.86185978581231
 20
-158.1254041488367
 10
92.86185978581231
 20
-158.1254041488367
 10
92.3030652981048
 20
-158.1254041488367
 10
92.3030652981048
 20
-158.1254041488367
 10
92.29273001164903
 20
-158.1698458805964
 10
92.28411727293591
 20
-158.2015407590607
 10
92.27137041964049
 20
-158.239781318947
 10
92.29686412623134
 20
-158.239781318947
 10
92.31167803681792
 20
-158.2418483762381
 10
92.31787920869136
 20
-158.2418483762381
 10
92.31787920869136
 20
-158.2418483762381
 10
92.50632593173454
 20
-158.2418483762381
 10
92.50632593173454
 20
-158.2418483762381
 10
92.50632593173454
 20
-158.2418483762381
 10
92.8808078109812
 20
-158.2418483762381
 10
92.8808078109812
 20
-158.2418483762381
 10
92.93145071461436
 20
-158.2418483762381
 10
93.21498207305042
 20
-158.2291015229427
 10
93.24667695151473
 20
-158.2291015229427
 10
93.24460989422357
 20
-158.2566622868247
 10
93.24254283693242
 20
-158.2756103119936
 10
93.24254283693242
 20
-158.3052381331667
 10
93.24047577964128
 20
-158.336933011631
 10
93.24047577964128
 20
-158.4723252642014
 10
93.24047577964128
 20
-158.4998860280833
 10
93.24047577964128
 20
-158.4998860280833
 10
93.24047577964128
 20
-158.7455213361817
 10
93.24047577964128
 20
-158.7455213361817
 10
93.24047577964128
 20
-158.7899630679414
 10
93.24460989422357
 20
-158.9866780201492
 10
93.24874400880586
 20
-159.1389512405972
 10
93.24874400880586
 20
-159.1389512405972
 10
93.02240123542496
 20
-159.1389512405972
 10
93.02240123542496
 20
-159.1389512405972
 10
93.02240123542496
 20
-159.1389512405972
 10
93.02446829271611
 20
-159.1051893048417
 10
93.02446829271611
 20
-159.1051893048417
 10
93.02446829271611
 20
-159.1051893048417
 10
92.32235783282218
 20
-159.1051893048417
 10
92.32235783282218
 20
-159.1051893048417
 10
92.32235783282218
 20
-159.1051893048417
 10
92.32442489011335
 20
-159.1389512405972
 10
92.32442489011335
 20
-159.1389512405972
 10
92.32442489011335
 20
-159.1389512405972
 10
92.10635034589703
 20
-159.1389512405972
 10
92.10635034589703
 20
-159.1389512405972
 10
92.11082897002786
 20
-159.0838297128332
 10
92.11082897002786
 20
-159.0710828595378
 10
92.11703014190129
 20
-158.957050198976
 10
92.11909719919246
 20
-158.929489435094
 10
92.12116425648359
 20
-158.7961642398148
 10
92.12116425648359
 20
-158.777216214646
 10
92.12116425648359
 20
-158.777216214646
 10
92.12116425648359
 20
-158.5739555810162
 10
92.12116425648359
 20
-158.5739555810162
 10
91.98163788933099
 20
-158.8237250036968
 10
91.81248370100522
 20
-158.9549831416848
 10
91.70671926960805
 20
-159.0204399559046
 10
91.70671926960805
 20
-159.0204399559046
 10
91.53308645715146
 20
-158.880913588752
 10
91.53308645715146
 20
-158.880913588752
 10
91.62196992067091
 20
-158.8299261755703
 10
91.76597491195435
 20
-158.743109769342
 10
91.90343422181582
 20
-158.5488063839739
 10
91.9943847426264
 20
-158.4216823605682
 10
92.05984155684616
 20
-158.2780218788333
 10
92.09394800215013
 20
-158.1254041488367
 10
91.86519366192953
 20
-158.1278157156764
 10
91.68535967759948
 20
-158.1340168875498
 10
91.59027504220659
 20
-158.1360839448409
 10
91.59027504220659
 20
-158.1360839448409
 10
91.59027504220659
 20
-157.9583170178021
 10
91.59027504220659
 20
-157.9583170178021
 10
91.78698999441436
 20
-157.964862699224
 10
92.07052135285044
 20
-157.9689968138064
 10
92.22072751600732
 20
-157.9689968138064
 10
92.22072751600732
 20
-157.9689968138064
 10
92.43432343609281
 20
-157.9689968138064
 10
92.43432343609281
 20
-157.9689968138064
 10
92.43432343609281
 20
-157.9689968138064
 10
92.43432343609281
 20
-157.861165325118
 10
92.43432343609281
 20
-157.861165325118
 10
92.43432343609281
 20
-157.861165325118
 10
92.28825138751821
 20
-157.861165325118
 10
92.28825138751821
 20
-157.861165325118
 10
92.11909719919246
 20
-157.861165325118
 10
91.94994301086669
 20
-157.8652994397003
 10
91.78285587983207
 20
-157.8718451211223
 10
91.78285587983207
 20
-157.8718451211223
 10
91.78285587983207
 20
-157.7002793659568
 10
91.78285587983207
 20
-157.7002793659568
 10
91.93719615757126
 20
-157.7109591619611
 10
92.12323131377475
 20
-157.7109591619611
 10
92.28825138751821
 20
-157.7109591619611
 10
92.28825138751821
 20
-157.7109591619611
 10
92.43432343609281
 20
-157.7109591619611
 10
92.43432343609281
 20
-157.7109591619611
 10
92.43432343609281
 20
-157.7109591619611
 10
92.43432343609281
 20
-157.5924478772686
 10
92.43432343609281
 20
-157.5924478772686
 10
92.43432343609281
 20
-157.5924478772686
 10
92.3030652981048
 20
-157.5924478772686
 10
92.3030652981048
 20
-157.5924478772686
 10
92.25655650905393
 20
-157.5924478772686
 10
92.0536403849727
 20
-157.6010606159817
 10
92.01126571050414
 20
-157.6010606159817
 10
91.80834958642291
 20
-157.605194730564
 10
91.73186846665037
 20
-157.6072617878551
 10
91.65366479913521
 20
-157.6093288451463
 10
91.65366479913521
 20
-157.6093288451463
 10
91.65366479913521
 20
-157.4253607462339
 10
91.65366479913521
 20
-157.4253607462339
 10
91.76804196924548
 20
-157.4336289753985
 10
91.81248370100522
 20
-157.4336289753985
 10
92.19523380941648
 20
-157.4422417141116
 10
92.13184405248787
 20
-157.3471570787187
 10
92.10428328860588
 20
-157.3195963148368
 10
92.06845429555928
 20
-157.2834228122416
 10
92.06845429555928
 20
-157.2834228122416
 10
92.2438096557585
 20
-157.2010850301442
 10
92.2438096557585
 20
-157.2010850301442
 10
92.28411727293591
 20
-157.2369140231908
 10
92.32855900469564
 20
-157.2792886976593
 10
92.40262855762852
 20
-157.3891872436388
 10
92.40262855762852
 20
-157.3891872436388
 10
92.28825138751821
 20
-157.4443087714028
 10
92.28825138751821
 20
-157.4443087714028
 10
92.28825138751821
 20
-157.4443087714028
 10
92.29893118352249
 20
-157.4443087714028
 10
92.29893118352249
 20
-157.4443087714028
 10
92.29893118352249
 20
-157.4443087714028
 10
92.8215521686349
 20
-157.4443087714028
 10
92.8215521686349
 20
-157.4443087714028
 10
92.8215521686349
 20
-157.4443087714028
 10
92.72646753324201
 20
-157.3998670396431
 10
92.72646753324201
 20
-157.3998670396431
 10
92.75368378757546
 20
-157.3619709893053
 10
92.81087237263061
 20
-157.2813557549505
 10
92.82568628321719
 20
-157.2072862020176
 10
92.82568628321719
 20
-157.2072862020176
 10
93.03928220330268
 20
-157.2710204684947
 10
93.03928220330268
 20
-157.2710204684947
 10
93.0478949420158
 20
-157.2730875257859
 10
93.06891002447583
 20
-157.2834228122416
 10
93.06891002447583
 20
-157.3047824042502
 10
93.06891002447583
 20
-157.3426784545879
 10
93.00345321025607
 20
-157.3426784545879
 10
92.98450518508721
 20
-157.3426784545879
 10
92.97382538908292
 20
-157.3619709893053
 10
92.95039873978323
 20
-157.4019340969342
 10
92.92077091861008
 20
-157.4422417141116
 10
93.32074650444759
 20
-157.4360405422382
 10
93.35037432562074
 20
-157.4336289753985
 10
93.42651093584477
 20
-157.4274278035251
 10
93.42651093584477
 20
-157.4274278035251
 10
93.42651093584477
 20
-157.6093288451463
 10
93.42651093584477
 20
-157.6093288451463
 10
93.4075629106759
 20
-157.6093288451463
 10
93.38206920408504
 20
-157.6072617878551
 10
93.16227211212611
 20
-157.598649049142
 10
93.11128469894439
 20
-157.5965819918508
 10
92.89148760698546
 20
-157.5924478772686
 10
92.84704587522574
 20
-157.5924478772686
 10
92.84704587522574
 20
-157.5924478772686
 10
92.63103838830058
 20
-157.5924478772686
 10
92.63103838830058
 20
-157.5924478772686
 10
92.63103838830058
 20
-157.5924478772686
 10
92.63103838830058
 20
-157.7109591619611
 10
92.63103838830058
 20
-157.7109591619611
 10
92.63103838830058
 20
-157.7109591619611
 10
92.80467120075718
 20
-157.7109591619611
 10
92.80467120075718
 20
-157.7109591619611
 10
92.96762421720949
 20
-157.7109591619611
 10
93.15779348799528
 20
-157.7109591619611
 10
93.31454533257414
 20
-157.7002793659568
 10
93.31454533257414
 20
-157.7002793659568
 10
93.31454533257414
 20
-157.8718451211223
 10
93.31454533257414
 20
-157.8718451211223
 10
93.10508352707095
 20
-157.8632323824092
 10
92.90836857486318
 20
-157.861165325118
 10
92.80467120075718
 20
-157.861165325118
 10
92.80467120075718
 20
-157.861165325118
 10
92.63103838830058
 20
-157.861165325118
 10
92.63103838830058
 20
-157.861165325118
 10
92.63103838830058
 20
-157.861165325118
 10
92.63103838830058
 20
-157.9689968138064
 10
92.63103838830058
 20
-157.9689968138064
 10
92.63103838830058
 20
-157.9689968138064
 10
92.86185978581231
 20
-157.9689968138064
 10
92.86185978581231
 20
-157.9689968138064
 10
92.99484047154296
 20
-157.9689968138064
 10
93.28285045410984
 20
-157.964862699224
 10
93.49196775006452
 20
-157.9583170178021
 10
93.49196775006452
 20
-157.9583170178021
 10
93.49196775006452
 20
-158.1360839448409
 10
93.49196775006452
 20
-158.1360839448409
 10
93.29973142198758
 20
-158.1298827729675
 10
92.98657224237835
 20
-158.1254041488367
 10
92.86185978581231
 20
-158.1254041488367
 97
        0
 97
        1
330
DA
 75
     2
 76
     1
 98
        1
 10
0.0
 20
0.0
450
        0
451
        0
460
0.0
461
0.0
452
        0
462
0.0
453
        0
470

  0
SPLINE
  5
DC
330
CF
100
AcDbEntity
  8
レイヤー 1
100
AcDbSpline
210
0.0
220
0.0
230
1.0
 70
     9
 71
     3
 72
    29
 73
    25
 74
     0
 42
0.0000000001
 43
0.0000000001
 40
0.0
 40
0.0
 40
0.0
 40
0.0
 40
1.0
 40
1.0
 40
1.0
 40
2.0
 40
2.0
 40
2.0
 40
3.0
 40
3.0
 40
3.0
 40
4.0
 40
4.0
 40
4.0
 40
5.0
 40
5.0
 40
5.0
 40
6.0
 40
6.0
 40
6.0
 40
7.0
 40
7.0
 40
7.0
 40
8.0
 40
8.0
 40
8.0
 40
8.0
 10
94.7370252584338
 20
-157.5734998520997
 30
0.0
 10
94.7370252584338
 20
-157.5734998520997
 30
0.0
 10
94.38355846164716
 20
-157.5734998520997
 30
0.0
 10
94.38355846164716
 20
-157.5734998520997
 30
0.0
 10
94.27159285837655
 20
-157.5734998520997
 30
0.0
 10
94.13206649122393
 20
-157.5797010239731
 30
0.0
 10
94.02423500253561
 20
-157.5924478772686
 30
0.0
 10
94.02423500253561
 20
-157.5924478772686
 30
0.0
 10
94.02423500253561
 20
-157.3574923651745
 30
0.0
 10
94.02423500253561
 20
-157.3574923651745
 30
0.0
 10
94.14240177767968
 20
-157.3723062757611
 30
0.0
 10
94.32671438614056
 20
-157.3767848998919
 30
0.0
 10
94.38355846164716
 20
-157.3767848998919
 30
0.0
 10
94.38355846164716
 20
-157.3767848998919
 30
0.0
 10
94.7370252584338
 20
-157.3767848998919
 30
0.0
 10
94.7370252584338
 20
-157.3767848998919
 30
0.0
 10
94.75597328360267
 20
-157.3767848998919
 30
0.0
 10
94.95923391723243
 20
-157.3767848998919
 30
0.0
 10
95.10082734167617
 20
-157.3574923651745
 30
0.0
 10
95.10082734167617
 20
-157.3574923651745
 30
0.0
 10
95.10082734167617
 20
-157.5924478772686
 30
0.0
 10
95.10082734167617
 20
-157.5924478772686
 30
0.0
 10
94.94442000664584
 20
-157.5734998520997
 30
0.0
 10
94.75390622631152
 20
-157.5734998520997
 30
0.0
 10
94.7370252584338
 20
-157.5734998520997
 30
0.0
  0
SPLINE
  5
DD
330
CF
100
AcDbEntity
  8
レイヤー 1
100
AcDbSpline
210
0.0
220
0.0
230
1.0
 70
     9
 71
     3
 72
    47
 73
    43
 74
     0
 42
0.0000000001
 43
0.0000000001
 40
0.0
 40
0.0
 40
0.0
 40
0.0
 40
1.0
 40
1.0
 40
1.0
 40
2.0
 40
2.0
 40
2.0
 40
3.0
 40
3.0
 40
3.0
 40
4.0
 40
4.0
 40
4.0
 40
5.0
 40
5.0
 40
5.0
 40
6.0
 40
6.0
 40
6.0
 40
7.0
 40
7.0
 40
7.0
 40
8.0
 40
8.0
 40
8.0
 40
9.0
 40
9.0
 40
9.0
 40
10.0
 40
10.0
 40
10.0
 40
11.0
 40
11.0
 40
11.0
 40
12.0
 40
12.0
 40
12.0
 40
13.0
 40
13.0
 40
13.0
 40
14.0
 40
14.0
 40
14.0
 40
14.0
 10
94.83865557524868
 20
-158.1023220090855
 30
0.0
 10
94.83865557524868
 20
-158.1023220090855
 30
0.0
 10
94.7370252584338
 20
-158.1023220090855
 30
0.0
 10
94.7370252584338
 20
-158.1023220090855
 30
0.0
 10
94.7370252584338
 20
-158.1891384153138
 30
0.0
 10
94.71601017597377
 20
-158.578434205147
 30
0.0
 10
94.519295223766
 20
-158.798231297106
 30
0.0
 10
94.36667749376944
 20
-158.9673854854318
 30
0.0
 10
94.15962725510594
 20
-159.0373209237823
 30
0.0
 10
94.07487790616878
 20
-159.0648816876643
 30
0.0
 10
94.07487790616878
 20
-159.0648816876643
 30
0.0
 10
93.88023001125217
 20
-158.8977945566297
 30
0.0
 10
93.88023001125217
 20
-158.8977945566297
 30
0.0
 10
93.97772621348474
 20
-158.8850477033343
 30
0.0
 10
94.15308157368396
 20
-158.8616210540346
 30
0.0
 10
94.34152829672711
 20
-158.6735188405399
 30
0.0
 10
94.41559784965999
 20
-158.6015163448982
 30
0.0
 10
94.519295223766
 20
-158.4619899777456
 30
0.0
 10
94.519295223766
 20
-158.1023220090855
 30
0.0
 10
94.519295223766
 20
-158.1023220090855
 30
0.0
 10
94.28847382625427
 20
-158.1023220090855
 30
0.0
 10
94.28847382625427
 20
-158.1023220090855
 30
0.0
 10
94.10243867005078
 20
-158.1023220090855
 30
0.0
 10
93.91605900429878
 20
-158.1064561236678
 30
0.0
 10
93.73002384809527
 20
-158.1212700342544
 30
0.0
 10
93.73002384809527
 20
-158.1212700342544
 30
0.0
 10
93.73002384809527
 20
-157.9014729422955
 30
0.0
 10
93.73002384809527
 20
-157.9014729422955
 30
0.0
 10
93.91847057113844
 20
-157.916286852882
 30
0.0
 10
94.20406898686565
 20
-157.9204209674643
 30
0.0
 10
94.28847382625427
 20
-157.9204209674643
 30
0.0
 10
94.28847382625427
 20
-157.9204209674643
 30
0.0
 10
94.83865557524868
 20
-157.9204209674643
 30
0.0
 10
94.83865557524868
 20
-157.9204209674643
 30
0.0
 10
94.85760360041755
 20
-157.9204209674643
 30
0.0
 10
95.17489689460907
 20
-157.9204209674643
 30
0.0
 10
95.40330672528112
 20
-157.9014729422955
 30
0.0
 10
95.40330672528112
 20
-157.9014729422955
 30
0.0
 10
95.40330672528112
 20
-158.1212700342544
 30
0.0
 10
95.40330672528112
 20
-158.1212700342544
 30
0.0
 10
95.21520451178648
 20
-158.1064561236678
 30
0.0
 10
95.02675778874332
 20
-158.1023220090855
 30
0.0
 10
94.83865557524868
 20
-158.1023220090855
 30
0.0
  0
HATCH
  5
DE
330
CF
100
AcDbEntity
  8
レイヤー 1
 62
    18
420
        0
440
 33554687
100
AcDbHatch
 10
0.0
 20
0.0
 30
0.0
210
0.0
220
0.0
230
1.0
  2
SOLID
 70
     1
 71
     1
 91
        2
 92
        1
 93
        1
 72
     4
 94
        3
 73
     0
 74
     0
 95
       29
 96
       25
 40
0.0
 40
0.0
 40
0.0
 40
0.0
 40
1.0
 40
1.0
 40
1.0
 40
2.0
 40
2.0
 40
2.0
 40
3.0
 40
3.0
 40
3.0
 40
4.0
 40
4.0
 40
4.0
 40
5.0
 40
5.0
 40
5.0
 40
6.0
 40
6.0
 40
6.0
 40
7.0
 40
7.0
 40
7.0
 40
8.0
 40
8.0
 40
8.0
 40
8.0
 10
94.7370252584338
 20
-157.5734998520997
 10
94.7370252584338
 20
-157.5734998520997
 10
94.38355846164716
 20
-157.5734998520997
 10
94.38355846164716
 20
-157.5734998520997
 10
94.27159285837655
 20
-157.5734998520997
 10
94.13206649122393
 20
-157.5797010239731
 10
94.02423500253561
 20
-157.5924478772686
 10
94.02423500253561
 20
-157.5924478772686
 10
94.02423500253561
 20
-157.3574923651745
 10
94.02423500253561
 20
-157.3574923651745
 10
94.14240177767968
 20
-157.3723062757611
 10
94.32671438614056
 20
-157.3767848998919
 10
94.38355846164716
 20
-157.3767848998919
 10
94.38355846164716
 20
-157.3767848998919
 10
94.7370252584338
 20
-157.3767848998919
 10
94.7370252584338
 20
-157.3767848998919
 10
94.75597328360267
 20
-157.3767848998919
 10
94.95923391723243
 20
-157.3767848998919
 10
95.10082734167617
 20
-157.3574923651745
 10
95.10082734167617
 20
-157.3574923651745
 10
95.10082734167617
 20
-157.5924478772686
 10
95.10082734167617
 20
-157.5924478772686
 10
94.94442000664584
 20
-157.5734998520997
 10
94.75390622631152
 20
-157.5734998520997
 10
94.7370252584338
 20
-157.5734998520997
 97
        0
 97
        1
330
DC
 92
        1
 93
        1
 72
     4
 94
        3
 73
     0
 74
     0
 95
       47
 96
       43
 40
0.0
 40
0.0
 40
0.0
 40
0.0
 40
1.0
 40
1.0
 40
1.0
 40
2.0
 40
2.0
 40
2.0
 40
3.0
 40
3.0
 40
3.0
 40
4.0
 40
4.0
 40
4.0
 40
5.0
 40
5.0
 40
5.0
 40
6.0
 40
6.0
 40
6.0
 40
7.0
 40
7.0
 40
7.0
 40
8.0
 40
8.0
 40
8.0
 40
9.0
 40
9.0
 40
9.0
 40
10.0
 40
10.0
 40
10.0
 40
11.0
 40
11.0
 40
11.0
 40
12.0
 40
12.0
 40
12.0
 40
13.0
 40
13.0
 40
13.0
 40
14.0
 40
14.0
 40
14.0
 40
14.0
 10
94.83865557524868
 20
-158.1023220090855
 10
94.83865557524868
 20
-158.1023220090855
 10
94.7370252584338
 20
-158.1023220090855
 10
94.7370252584338
 20
-158.1023220090855
 10
94.7370252584338
 20
-158.1891384153138
 10
94.71601017597377
 20
-158.578434205147
 10
94.519295223766
 20
-158.798231297106
 10
94.36667749376944
 20
-158.9673854854318
 10
94.15962725510594
 20
-159.0373209237823
 10
94.07487790616878
 20
-159.0648816876643
 10
94.07487790616878
 20
-159.0648816876643
 10
93.88023001125217
 20
-158.8977945566297
 10
93.88023001125217
 20
-158.8977945566297
 10
93.97772621348474
 20
-158.8850477033343
 10
94.15308157368396
 20
-158.8616210540346
 10
94.34152829672711
 20
-158.6735188405399
 10
94.41559784965999
 20
-158.6015163448982
 10
94.519295223766
 20
-158.4619899777456
 10
94.519295223766
 20
-158.1023220090855
 10
94.519295223766
 20
-158.1023220090855
 10
94.28847382625427
 20
-158.1023220090855
 10
94.28847382625427
 20
-158.1023220090855
 10
94.10243867005078
 20
-158.1023220090855
 10
93.91605900429878
 20
-158.1064561236678
 10
93.73002384809527
 20
-158.1212700342544
 10
93.73002384809527
 20
-158.1212700342544
 10
93.73002384809527
 20
-157.9014729422955
 10
93.73002384809527
 20
-157.9014729422955
 10
93.91847057113844
 20
-157.916286852882
 10
94.20406898686565
 20
-157.9204209674643
 10
94.28847382625427
 20
-157.9204209674643
 10
94.28847382625427
 20
-157.9204209674643
 10
94.83865557524868
 20
-157.9204209674643
 10
94.83865557524868
 20
-157.9204209674643
 10
94.85760360041755
 20
-157.9204209674643
 10
95.17489689460907
 20
-157.9204209674643
 10
95.40330672528112
 20
-157.9014729422955
 10
95.40330672528112
 20
-157.9014729422955
 10
95.40330672528112
 20
-158.1212700342544
 10
95.40330672528112
 20
-158.1212700342544
 10
95.21520451178648
 20
-158.1064561236678
 10
95.02675778874332
 20
-158.1023220090855
 10
94.83865557524868
 20
-158.1023220090855
 97
        0
 97
        1
330
DD
 75
     2
 76
     1
 98
        1
 10
0.0
 20
0.0
450
        0
451
        0
460
0.0
461
0.0
452
        0
462
0.0
453
        0
470

  0
SPLINE
  5
DF
330
CF
100
AcDbEntity
  8
レイヤー 1
100
AcDbSpline
210
0.0
220
0.0
230
1.0
 70
     9
 71
     3
 72
    29
 73
    25
 74
     0
 42
0.0000000001
 43
0.0000000001
 40
0.0
 40
0.0
 40
0.0
 40
0.0
 40
1.0
 40
1.0
 40
1.0
 40
2.0
 40
2.0
 40
2.0
 40
3.0
 40
3.0
 40
3.0
 40
4.0
 40
4.0
 40
4.0
 40
5.0
 40
5.0
 40
5.0
 40
6.0
 40
6.0
 40
6.0
 40
7.0
 40
7.0
 40
7.0
 40
8.0
 40
8.0
 40
8.0
 40
8.0
 10
96.68453773624554
 20
-158.2652750255378
 30
0.0
 10
96.68453773624554
 20
-158.2652750255378
 30
0.0
 10
96.20015731101942
 20
-158.2652750255378
 30
0.0
 10
96.20015731101942
 20
-158.2652750255378
 30
0.0
 10
96.17259654713741
 20
-158.2652750255378
 30
0.0
 10
95.85530325294589
 20
-158.2652750255378
 30
0.0
 10
95.64377439015157
 20
-158.2904242225802
 30
0.0
 10
95.64377439015157
 20
-158.2904242225802
 30
0.0
 10
95.64377439015157
 20
-158.0599473346169
 30
0.0
 10
95.64377439015157
 20
-158.0599473346169
 30
0.0
 10
95.80224878247305
 20
-158.0833739839166
 30
0.0
 10
95.99276256280736
 20
-158.0854410412078
 30
0.0
 10
96.20015731101942
 20
-158.0854410412078
 30
0.0
 10
96.20015731101942
 20
-158.0854410412078
 30
0.0
 10
96.68453773624554
 20
-158.0854410412078
 30
0.0
 10
96.68453773624554
 20
-158.0854410412078
 30
0.0
 10
96.87057289244904
 20
-158.0854410412078
 30
0.0
 10
97.05695255820105
 20
-158.0833739839166
 30
0.0
 10
97.24092065711339
 20
-158.0599473346169
 30
0.0
 10
97.24092065711339
 20
-158.0599473346169
 30
0.0
 10
97.24092065711339
 20
-158.2904242225802
 30
0.0
 10
97.24092065711339
 20
-158.2904242225802
 30
0.0
 10
97.05695255820105
 20
-158.267342082829
 30
0.0
 10
96.80925019281158
 20
-158.2652750255378
 30
0.0
 10
96.68453773624554
 20
-158.2652750255378
 30
0.0
  0
HATCH
  5
E0
330
CF
100
AcDbEntity
  8
レイヤー 1
 62
    18
420
        0
440
 33554687
100
AcDbHatch
 10
0.0
 20
0.0
 30
0.0
210
0.0
220
0.0
230
1.0
  2
SOLID
 70
     1
 71
     1
 91
        1
 92
        1
 93
        1
 72
     4
 94
        3
 73
     0
 74
     0
 95
       29
 96
       25
 40
0.0
 40
0.0
 40
0.0
 40
0.0
 40
1.0
 40
1.0
 40
1.0
 40
2.0
 40
2.0
 40
2.0
 40
3.0
 40
3.0
 40
3.0
 40
4.0
 40
4.0
 40
4.0
 40
5.0
 40
5.0
 40
5.0
 40
6.0
 40
6.0
 40
6.0
 40
7.0
 40
7.0
 40
7.0
 40
8.0
 40
8.0
 40
8.0
 40
8.0
 10
96.68453773624554
 20
-158.2652750255378
 10
96.68453773624554
 20
-158.2652750255378
 10
96.20015731101942
 20
-158.2652750255378
 10
96.20015731101942
 20
-158.2652750255378
 10
96.17259654713741
 20
-158.2652750255378
 10
95.85530325294589
 20
-158.2652750255378
 10
95.64377439015157
 20
-158.2904242225802
 10
95.64377439015157
 20
-158.2904242225802
 10
95.64377439015157
 20
-158.0599473346169
 10
95.64377439015157
 20
-158.0599473346169
 10
95.80224878247305
 20
-158.0833739839166
 10
95.99276256280736
 20
-158.0854410412078
 10
96.20015731101942
 20
-158.0854410412078
 10
96.20015731101942
 20
-158.0854410412078
 10
96.68453773624554
 20
-158.0854410412078
 10
96.68453773624554
 20
-158.0854410412078
 10
96.87057289244904
 20
-158.0854410412078
 10
97.05695255820105
 20
-158.0833739839166
 10
97.24092065711339
 20
-158.0599473346169
 10
97.24092065711339
 20
-158.0599473346169
 10
97.24092065711339
 20
-158.2904242225802
 10
97.24092065711339
 20
-158.2904242225802
 10
97.05695255820105
 20
-158.267342082829
 10
96.80925019281158
 20
-158.2652750255378
 10
96.68453773624554
 20
-158.2652750255378
 97
        0
 97
        1
330
DF
 75
     2
 76
     1
 98
        1
 10
0.0
 20
0.0
450
        0
451
        0
460
0.0
461
0.0
452
        0
462
0.0
453
        0
470

  0
SPLINE
  5
E1
330
CF
100
AcDbEntity
  8
レイヤー 1
100
AcDbSpline
210
0.0
220
0.0
230
1.0
 70
     9
 71
     3
 72
    17
 73
    13
 74
     0
 42
0.0000000001
 43
0.0000000001
 40
0.0
 40
0.0
 40
0.0
 40
0.0
 40
1.0
 40
1.0
 40
1.0
 40
2.0
 40
2.0
 40
2.0
 40
3.0
 40
3.0
 40
3.0
 40
4.0
 40
4.0
 40
4.0
 40
4.0
 10
99.10333927643945
 20
-157.2982367228282
 30
0.0
 10
99.04856225822399
 20
-157.2982367228282
 30
0.0
 10
99.00412052646425
 20
-157.3426784545879
 30
0.0
 10
99.00412052646425
 20
-157.3977999823519
 30
0.0
 10
99.00412052646425
 20
-157.4549885674071
 30
0.0
 10
99.04856225822399
 20
-157.5035644137491
 30
0.0
 10
99.10747339102174
 20
-157.5035644137491
 30
0.0
 10
99.16672903336804
 20
-157.5035644137491
 30
0.0
 10
99.20703665054546
 20
-157.4529215101159
 30
0.0
 10
99.20703665054546
 20
-157.3998670396431
 30
0.0
 10
99.20703665054546
 20
-157.3426784545879
 30
0.0
 10
99.1605278614946
 20
-157.2982367228282
 30
0.0
 10
99.10333927643945
 20
-157.2982367228282
 30
0.0
  0
SPLINE
  5
E2
330
CF
100
AcDbEntity
  8
レイヤー 1
100
AcDbSpline
210
0.0
220
0.0
230
1.0
 70
     9
 71
     3
 72
    17
 73
    13
 74
     0
 42
0.0000000001
 43
0.0000000001
 40
0.0
 40
0.0
 40
0.0
 40
0.0
 40
1.0
 40
1.0
 40
1.0
 40
2.0
 40
2.0
 40
2.0
 40
3.0
 40
3.0
 40
3.0
 40
4.0
 40
4.0
 40
4.0
 40
4.0
 10
99.10540633373059
 20
-157.6282768703151
 30
0.0
 10
98.97862681987341
 20
-157.6282768703151
 30
0.0
 10
98.87699650305854
 20
-157.5269910630488
 30
0.0
 10
98.87699650305854
 20
-157.3998670396431
 30
0.0
 10
98.87699650305854
 20
-157.2730875257859
 30
0.0
 10
98.97862681987341
 20
-157.1693901516799
 30
0.0
 10
99.10540633373059
 20
-157.1693901516799
 30
0.0
 10
99.23253035713631
 20
-157.1693901516799
 30
0.0
 10
99.33622773124234
 20
-157.2730875257859
 30
0.0
 10
99.33622773124234
 20
-157.3998670396431
 30
0.0
 10
99.33622773124234
 20
-157.5269910630488
 30
0.0
 10
99.23253035713631
 20
-157.6282768703151
 30
0.0
 10
99.10540633373059
 20
-157.6282768703151
 30
0.0
  0
SPLINE
  5
E3
330
CF
100
AcDbEntity
  8
レイヤー 1
100
AcDbSpline
210
0.0
220
0.0
230
1.0
 70
     9
 71
     3
 72
    44
 73
    40
 74
     0
 42
0.0000000001
 43
0.0000000001
 40
0.0
 40
0.0
 40
0.0
 40
0.0
 40
1.0
 40
1.0
 40
1.0
 40
2.0
 40
2.0
 40
2.0
 40
3.0
 40
3.0
 40
3.0
 40
4.0
 40
4.0
 40
4.0
 40
5.0
 40
5.0
 40
5.0
 40
6.0
 40
6.0
 40
6.0
 40
7.0
 40
7.0
 40
7.0
 40
8.0
 40
8.0
 40
8.0
 40
9.0
 40
9.0
 40
9.0
 40
10.0
 40
10.0
 40
10.0
 40
11.0
 40
11.0
 40
11.0
 40
12.0
 40
12.0
 40
12.0
 40
13.0
 40
13.0
 40
13.0
 40
13.0
 10
98.89594452822741
 20
-157.8274033893626
 30
0.0
 10
98.78397892495678
 20
-158.1953395871873
 30
0.0
 10
98.73333602132362
 20
-158.3541584890573
 30
0.0
 10
98.53662106911585
 20
-158.6035834021894
 30
0.0
 10
98.35230846065499
 20
-158.8344047997011
 30
0.0
 10
98.11563040081832
 20
-159.0204399559046
 30
0.0
 10
97.83623315696456
 20
-159.1134575340063
 30
0.0
 10
97.83623315696456
 20
-159.1134575340063
 30
0.0
 10
97.6436523193391
 20
-158.9336235496763
 30
0.0
 10
97.6436523193391
 20
-158.9336235496763
 30
0.0
 10
98.28478458914409
 20
-158.7813503292283
 30
0.0
 10
98.61482473663102
 20
-158.2249674083604
 30
0.0
 10
98.67821449355963
 20
-157.785028714894
 30
0.0
 10
98.67821449355963
 20
-157.785028714894
 30
0.0
 10
97.91236976718858
 20
-157.785028714894
 30
0.0
 10
97.91236976718858
 20
-157.785028714894
 30
0.0
 10
97.81935218908683
 20
-157.785028714894
 30
0.0
 10
97.63538409017449
 20
-157.7891628294763
 30
0.0
 10
97.47863224559562
 20
-157.8081108546452
 30
0.0
 10
97.47863224559562
 20
-157.8081108546452
 30
0.0
 10
97.47863224559562
 20
-157.5883137626862
 30
0.0
 10
97.47863224559562
 20
-157.5883137626862
 30
0.0
 10
97.56544865182391
 20
-157.6093288451463
 30
0.0
 10
97.81728513179569
 20
-157.6093288451463
 30
0.0
 10
97.91650388177089
 20
-157.6093288451463
 30
0.0
 10
97.91650388177089
 20
-157.6093288451463
 30
0.0
 10
98.34817434607268
 20
-157.6093288451463
 30
0.0
 10
98.34817434607268
 20
-157.6093288451463
 30
0.0
 10
98.39054902054126
 20
-157.6093288451463
 30
0.0
 10
98.62516002308677
 20
-157.6072617878551
 30
0.0
 10
98.66340058297303
 20
-157.6010606159817
 30
0.0
 10
98.70577525744161
 20
-157.5945149345597
 30
0.0
 10
98.70784231473278
 20
-157.5924478772686
 30
0.0
 10
98.76916501437023
 20
-157.5521402600911
 30
0.0
 10
98.76916501437023
 20
-157.5521402600911
 30
0.0
 10
98.95726722786486
 20
-157.7068250473788
 30
0.0
 10
98.95726722786486
 20
-157.7068250473788
 30
0.0
 10
98.92798391624024
 20
-157.736452868552
 30
0.0
 10
98.91317000565365
 20
-157.7681477470163
 30
0.0
 10
98.89594452822741
 20
-157.8274033893626
 30
0.0
  0
HATCH
  5
E4
330
CF
100
AcDbEntity
  8
レイヤー 1
 62
    18
420
        0
440
 33554687
100
AcDbHatch
 10
0.0
 20
0.0
 30
0.0
210
0.0
220
0.0
230
1.0
  2
SOLID
 70
     1
 71
     1
 91
        3
 92
        1
 93
        1
 72
     4
 94
        3
 73
     0
 74
     0
 95
       17
 96
       13
 40
0.0
 40
0.0
 40
0.0
 40
0.0
 40
1.0
 40
1.0
 40
1.0
 40
2.0
 40
2.0
 40
2.0
 40
3.0
 40
3.0
 40
3.0
 40
4.0
 40
4.0
 40
4.0
 40
4.0
 10
99.10333927643945
 20
-157.2982367228282
 10
99.04856225822399
 20
-157.2982367228282
 10
99.00412052646425
 20
-157.3426784545879
 10
99.00412052646425
 20
-157.3977999823519
 10
99.00412052646425
 20
-157.4549885674071
 10
99.04856225822399
 20
-157.5035644137491
 10
99.10747339102174
 20
-157.5035644137491
 10
99.16672903336804
 20
-157.5035644137491
 10
99.20703665054546
 20
-157.4529215101159
 10
99.20703665054546
 20
-157.3998670396431
 10
99.20703665054546
 20
-157.3426784545879
 10
99.1605278614946
 20
-157.2982367228282
 10
99.10333927643945
 20
-157.2982367228282
 97
        0
 97
        1
330
E1
 92
        1
 93
        1
 72
     4
 94
        3
 73
     0
 74
     0
 95
       17
 96
       13
 40
0.0
 40
0.0
 40
0.0
 40
0.0
 40
1.0
 40
1.0
 40
1.0
 40
2.0
 40
2.0
 40
2.0
 40
3.0
 40
3.0
 40
3.0
 40
4.0
 40
4.0
 40
4.0
 40
4.0
 10
99.10540633373059
 20
-157.6282768703151
 10
98.97862681987341
 20
-157.6282768703151
 10
98.87699650305854
 20
-157.5269910630488
 10
98.87699650305854
 20
-157.3998670396431
 10
98.87699650305854
 20
-157.2730875257859
 10
98.97862681987341
 20
-157.1693901516799
 10
99.10540633373059
 20
-157.1693901516799
 10
99.23253035713631
 20
-157.1693901516799
 10
99.33622773124234
 20
-157.2730875257859
 10
99.33622773124234
 20
-157.3998670396431
 10
99.33622773124234
 20
-157.5269910630488
 10
99.23253035713631
 20
-157.6282768703151
 10
99.10540633373059
 20
-157.6282768703151
 97
        0
 97
        1
330
E2
 92
        1
 93
        1
 72
     4
 94
        3
 73
     0
 74
     0
 95
       44
 96
       40
 40
0.0
 40
0.0
 40
0.0
 40
0.0
 40
1.0
 40
1.0
 40
1.0
 40
2.0
 40
2.0
 40
2.0
 40
3.0
 40
3.0
 40
3.0
 40
4.0
 40
4.0
 40
4.0
 40
5.0
 40
5.0
 40
5.0
 40
6.0
 40
6.0
 40
6.0
 40
7.0
 40
7.0
 40
7.0
 40
8.0
 40
8.0
 40
8.0
 40
9.0
 40
9.0
 40
9.0
 40
10.0
 40
10.0
 40
10.0
 40
11.0
 40
11.0
 40
11.0
 40
12.0
 40
12.0
 40
12.0
 40
13.0
 40
13.0
 40
13.0
 40
13.0
 10
98.89594452822741
 20
-157.8274033893626
 10
98.78397892495678
 20
-158.1953395871873
 10
98.73333602132362
 20
-158.3541584890573
 10
98.53662106911585
 20
-158.6035834021894
 10
98.35230846065499
 20
-158.8344047997011
 10
98.11563040081832
 20
-159.0204399559046
 10
97.83623315696456
 20
-159.1134575340063
 10
97.83623315696456
 20
-159.1134575340063
 10
97.6436523193391
 20
-158.9336235496763
 10
97.6436523193391
 20
-158.9336235496763
 10
98.28478458914409
 20
-158.7813503292283
 10
98.61482473663102
 20
-158.2249674083604
 10
98.67821449355963
 20
-157.785028714894
 10
98.67821449355963
 20
-157.785028714894
 10
97.91236976718858
 20
-157.785028714894
 10
97.91236976718858
 20
-157.785028714894
 10
97.81935218908683
 20
-157.785028714894
 10
97.63538409017449
 20
-157.7891628294763
 10
97.47863224559562
 20
-157.8081108546452
 10
97.47863224559562
 20
-157.8081108546452
 10
97.47863224559562
 20
-157.5883137626862
 10
97.47863224559562
 20
-157.5883137626862
 10
97.56544865182391
 20
-157.6093288451463
 10
97.81728513179569
 20
-157.6093288451463
 10
97.91650388177089
 20
-157.6093288451463
 10
97.91650388177089
 20
-157.6093288451463
 10
98.34817434607268
 20
-157.6093288451463
 10
98.34817434607268
 20
-157.6093288451463
 10
98.39054902054126
 20
-157.6093288451463
 10
98.62516002308677
 20
-157.6072617878551
 10
98.66340058297303
 20
-157.6010606159817
 10
98.70577525744161
 20
-157.5945149345597
 10
98.70784231473278
 20
-157.5924478772686
 10
98.76916501437023
 20
-157.5521402600911
 10
98.76916501437023
 20
-157.5521402600911
 10
98.95726722786486
 20
-157.7068250473788
 10
98.95726722786486
 20
-157.7068250473788
 10
98.92798391624024
 20
-157.736452868552
 10
98.91317000565365
 20
-157.7681477470163
 10
98.89594452822741
 20
-157.8274033893626
 97
        0
 97
        1
330
E3
 75
     2
 76
     1
 98
        1
 10
0.0
 20
0.0
450
        0
451
        0
460
0.0
461
0.0
452
        0
462
0.0
453
        0
470

  0
ENDBLK
  5
D2
330
CF
100
AcDbEntity
  8
0
100
AcDbBlockEnd
  0
ENDSEC
  0
SECTION
  2
ENTITIES
  0
LWPOLYLINE
  5
79
330
70
100
AcDbEntity
  8
レイヤー 1
 62
    18
420
        0
370
    25
100
AcDbPolyline
 90
       10
 70
     1
 43
0.0
 10
104.654743252197
 20
-157.1547885443457
 10
104.654743252197
 20
-155.1548913226235
 10
103.8547843837167
 20
-155.1548913226235
 10
103.8547843837167
 20
-156.3548343419845
 10
101.4549430560529
 20
-156.3548343419845
 10
101.4549430560529
 20
-145.1545423170879
 10
115.6547774160075
 20
-145.1545423170879
 10
115.6547774160075
 20
-144.3545834486076
 10
100.6546314098039
 20
-144.3545834486076
 10
100.6546314098039
 20
-157.1547885443457
  0
HATCH
  5
7A
330
70
100
AcDbEntity
  8
レイヤー 1
 62
    18
420
        0
440
 33554687
100
AcDbHatch
 10
0.0
 20
0.0
 30
0.0
210
0.0
220
0.0
230
1.0
  2
SOLID
 70
     1
 71
     1
 91
        1
 92
        1
 93
       10
 72
     1
 10
104.654743252197
 20
-157.1547885443457
 11
104.654743252197
 21
-155.1548913226235
 72
     1
 10
104.654743252197
 20
-155.1548913226235
 11
103.8547843837167
 21
-155.1548913226235
 72
     1
 10
103.8547843837167
 20
-155.1548913226235
 11
103.8547843837167
 21
-156.3548343419845
 72
     1
 10
103.8547843837167
 20
-156.3548343419845
 11
101.4549430560529
 21
-156.3548343419845
 72
     1
 10
101.4549430560529
 20
-156.3548343419845
 11
101.4549430560529
 21
-145.1545423170879
 72
     1
 10
101.4549430560529
 20
-145.1545423170879
 11
115.6547774160075
 21
-145.1545423170879
 72
     1
 10
115.6547774160075
 20
-145.1545423170879
 11
115.6547774160075
 21
-144.3545834486076
 72
     1
 10
115.6547774160075
 20
-144.3545834486076
 11
100.6546314098039
 21
-144.3545834486076
 72
     1
 10
100.6546314098039
 20
-144.3545834486076
 11
100.6546314098039
 21
-157.1547885443457
 72
     1
 10
100.6546314098039
 20
-157.1547885443457
 11
104.654743252197
 21
-157.1547885443457
 97
        1
330
79
 75
     2
 76
     1
 98
        1
 10
0.0
 20
0.0
450
        0
451
        0
460
0.0
461
0.0
452
        0
462
0.0
453
        0
470

  0
SPLINE
  5
7B
330
70
100
AcDbEntity
  8
レイヤー 1
 62
    18
420
        0
370
     9
100
AcDbSpline
210
0.0
220
0.0
230
1.0
 70
     9
 71
     3
 72
    17
 73
    13
 74
     0
 42
0.0000000001
 43
0.0000000001
 40
0.0
 40
0.0
 40
0.0
 40
0.0
 40
1.0
 40
1.0
 40
1.0
 40
2.0
 40
2.0
 40
2.0
 40
3.0
 40
3.0
 40
3.0
 40
4.0
 40
4.0
 40
4.0
 40
4.0
 10
119.7545857887067
 20
-144.3545834353624
 30
0.0
 10
119.7545857887067
 20
-144.2994442701024
 30
0.0
 10
119.7098182898489
 20
-144.254671867659
 30
0.0
 10
119.6546791245889
 20
-144.254671867659
 30
0.0
 10
119.5995761295988
 20
-144.254671867659
 30
0.0
 10
119.5547733518321
 20
-144.2994442701024
 30
0.0
 10
119.5547733518321
 20
-144.3545834353624
 30
0.0
 10
119.5547733518321
 20
-144.410392878383
 30
0.0
 10
119.5995761295988
 20
-144.4544900994802
 30
0.0
 10
119.6546791245889
 20
-144.4544900994802
 30
0.0
 10
119.7098182898489
 20
-144.4544900994802
 30
0.0
 10
119.7545857887067
 20
-144.410392878383
 30
0.0
 10
119.7545857887067
 20
-144.3545834353624
 30
0.0
  0
SPLINE
  5
7C
330
70
100
AcDbEntity
  8
レイヤー 1
 62
    18
420
        0
370
     9
100
AcDbSpline
210
0.0
220
0.0
230
1.0
 70
     9
 71
     3
 72
    17
 73
    13
 74
     0
 42
0.0000000001
 43
0.0000000001
 40
0.0
 40
0.0
 40
0.0
 40
0.0
 40
1.0
 40
1.0
 40
1.0
 40
2.0
 40
2.0
 40
2.0
 40
3.0
 40
3.0
 40
3.0
 40
4.0
 40
4.0
 40
4.0
 40
4.0
 10
119.7545857887067
 20
-145.1545423038426
 30
0.0
 10
119.7545857887067
 20
-145.0994031385827
 30
0.0
 10
119.7098182898489
 20
-145.0546356397248
 30
0.0
 10
119.6546791245889
 20
-145.0546356397248
 30
0.0
 10
119.5995761295988
 20
-145.0546356397248
 30
0.0
 10
119.5547733518321
 20
-145.0994031385827
 30
0.0
 10
119.5547733518321
 20
-145.1545423038426
 30
0.0
 10
119.5547733518321
 20
-145.2103468674197
 30
0.0
 10
119.5995761295988
 20
-145.2551192457211
 30
0.0
 10
119.6546791245889
 20
-145.2551192457211
 30
0.0
 10
119.7098182898489
 20
-145.2551192457211
 30
0.0
 10
119.7545857887067
 20
-145.2103468674197
 30
0.0
 10
119.7545857887067
 20
-145.1545423038426
 30
0.0
  0
SPLINE
  5
7D
330
70
100
AcDbEntity
  8
レイヤー 1
 62
    18
420
        0
370
     9
100
AcDbSpline
210
0.0
220
0.0
230
1.0
 70
     9
 71
     3
 72
    17
 73
    13
 74
     0
 42
0.0000000001
 43
0.0000000001
 40
0.0
 40
0.0
 40
0.0
 40
0.0
 40
1.0
 40
1.0
 40
1.0
 40
2.0
 40
2.0
 40
2.0
 40
3.0
 40
3.0
 40
3.0
 40
4.0
 40
4.0
 40
4.0
 40
4.0
 10
115.7548604690097
 20
-140.3548243707381
 30
0.0
 10
115.7548604690097
 20
-140.2996802019806
 30
0.0
 10
115.7100576923749
 20
-140.2549177066202
 30
0.0
 10
115.6547774160075
 20
-140.2549177066202
 30
0.0
 10
115.5996382507475
 20
-140.2549177066202
 30
0.0
 10
115.5548707518896
 20
-140.2996802019806
 30
0.0
 10
115.5548707518896
 20
-140.3548243707381
 30
0.0
 10
115.5548707518896
 20
-140.4099282582211
 30
0.0
 10
115.5996382507475
 20
-140.4547310348559
 30
0.0
 10
115.6547774160075
 20
-140.4547310348559
 30
0.0
 10
115.7100576923749
 20
-140.4547310348559
 30
0.0
 10
115.7548604690097
 20
-140.4099282582211
 30
0.0
 10
115.7548604690097
 20
-140.3548243707381
 30
0.0
  0
SPLINE
  5
7E
330
70
100
AcDbEntity
  8
レイヤー 1
 62
    18
420
        0
370
     9
100
AcDbSpline
210
0.0
220
0.0
230
1.0
 70
     9
 71
     3
 72
    17
 73
    13
 74
     0
 42
0.0000000001
 43
0.0000000001
 40
0.0
 40
0.0
 40
0.0
 40
0.0
 40
1.0
 40
1.0
 40
1.0
 40
2.0
 40
2.0
 40
2.0
 40
3.0
 40
3.0
 40
3.0
 40
4.0
 40
4.0
 40
4.0
 40
4.0
 10
104.7550026940836
 20
-161.154552275089
 30
0.0
 10
104.7550026940836
 20
-161.0994131098291
 30
0.0
 10
104.7101999174488
 20
-161.0546456109712
 30
0.0
 10
104.654743252197
 20
-161.0546456109712
 30
0.0
 10
104.5996393647139
 20
-161.0546456109712
 30
0.0
 10
104.5548365880791
 20
-161.0994131098291
 30
0.0
 10
104.5548365880791
 20
-161.154552275089
 30
0.0
 10
104.5548365880791
 20
-161.2096561625721
 30
0.0
 10
104.5996393647139
 20
-161.2544589392069
 30
0.0
 10
104.654743252197
 20
-161.2544589392069
 30
0.0
 10
104.7101999174488
 20
-161.2544589392069
 30
0.0
 10
104.7550026940836
 20
-161.2096561625721
 30
0.0
 10
104.7550026940836
 20
-161.154552275089
 30
0.0
  0
SPLINE
  5
7F
330
70
100
AcDbEntity
  8
レイヤー 1
 62
    18
420
        0
370
     9
100
AcDbSpline
210
0.0
220
0.0
230
1.0
 70
     9
 71
     3
 72
    17
 73
    13
 74
     0
 42
0.0000000001
 43
0.0000000001
 40
0.0
 40
0.0
 40
0.0
 40
0.0
 40
1.0
 40
1.0
 40
1.0
 40
2.0
 40
2.0
 40
2.0
 40
3.0
 40
3.0
 40
3.0
 40
4.0
 40
4.0
 40
4.0
 40
4.0
 10
119.7545857887067
 20
-157.1547885443457
 30
0.0
 10
119.7545857887067
 20
-157.0996540452048
 30
0.0
 10
119.7098182898489
 20
-157.0548865463469
 30
0.0
 10
119.6546791245889
 20
-157.0548865463469
 30
0.0
 10
119.5995761295988
 20
-157.0548865463469
 30
0.0
 10
119.5547733518321
 20
-157.0996540452048
 30
0.0
 10
119.5547733518321
 20
-157.1547885443457
 30
0.0
 10
119.5547733518321
 20
-157.2098970979478
 30
0.0
 10
119.5995761295988
 20
-157.2546998745826
 30
0.0
 10
119.6546791245889
 20
-157.2546998745826
 30
0.0
 10
119.7098182898489
 20
-157.2546998745826
 30
0.0
 10
119.7545857887067
 20
-157.2098970979478
 30
0.0
 10
119.7545857887067
 20
-157.1547885443457
 30
0.0
  0
SPLINE
  5
80
330
70
100
AcDbEntity
  8
レイヤー 1
 62
    18
420
        0
370
     9
100
AcDbSpline
210
0.0
220
0.0
230
1.0
 70
     9
 71
     3
 72
    17
 73
    13
 74
     0
 42
0.0000000001
 43
0.0000000001
 40
0.0
 40
0.0
 40
0.0
 40
0.0
 40
1.0
 40
1.0
 40
1.0
 40
2.0
 40
2.0
 40
2.0
 40
3.0
 40
3.0
 40
3.0
 40
4.0
 40
4.0
 40
4.0
 40
4.0
 10
119.7545857887067
 20
-155.1548913226235
 30
0.0
 10
119.7545857887067
 20
-155.0997921517811
 30
0.0
 10
119.7098182898489
 20
-155.0549893751463
 30
0.0
 10
119.6546791245889
 20
-155.0549893751463
 30
0.0
 10
119.5995761295988
 20
-155.0549893751463
 30
0.0
 10
119.5547733518321
 20
-155.0997921517811
 30
0.0
 10
119.5547733518321
 20
-155.1548913226235
 30
0.0
 10
119.5547733518321
 20
-155.2100352045241
 30
0.0
 10
119.5995761295988
 20
-155.254802703382
 30
0.0
 10
119.6546791245889
 20
-155.254802703382
 30
0.0
 10
119.7098182898489
 20
-155.254802703382
 30
0.0
 10
119.7545857887067
 20
-155.2100352045241
 30
0.0
 10
119.7545857887067
 20
-155.1548913226235
 30
0.0
  0
SPLINE
  5
81
330
70
100
AcDbEntity
  8
レイヤー 1
 62
    18
420
        0
370
     9
100
AcDbSpline
210
0.0
220
0.0
230
1.0
 70
     9
 71
     3
 72
    17
 73
    13
 74
     0
 42
0.0000000001
 43
0.0000000001
 40
0.0
 40
0.0
 40
0.0
 40
0.0
 40
1.0
 40
1.0
 40
1.0
 40
2.0
 40
2.0
 40
2.0
 40
3.0
 40
3.0
 40
3.0
 40
4.0
 40
4.0
 40
4.0
 40
4.0
 10
100.7548928009758
 20
-140.3548243707381
 30
0.0
 10
100.7548928009758
 20
-140.2996802019806
 30
0.0
 10
100.7101233528326
 20
-140.2549177066202
 30
0.0
 10
100.6546314098039
 20
-140.2549177066202
 30
0.0
 10
100.5995275223211
 20
-140.2549177066202
 30
0.0
 10
100.554724745686
 20
-140.2996802019806
 30
0.0
 10
100.554724745686
 20
-140.3548243707381
 30
0.0
 10
100.554724745686
 20
-140.4099282582211
 30
0.0
 10
100.5995275223211
 20
-140.4547310348559
 30
0.0
 10
100.6546314098039
 20
-140.4547310348559
 30
0.0
 10
100.7101233528326
 20
-140.4547310348559
 30
0.0
 10
100.7548928009758
 20
-140.4099282582211
 30
0.0
 10
100.7548928009758
 20
-140.3548243707381
 30
0.0
  0
SPLINE
  5
82
330
70
100
AcDbEntity
  8
レイヤー 1
 62
    18
420
        0
370
     9
100
AcDbSpline
210
0.0
220
0.0
230
1.0
 70
     9
 71
     3
 72
    17
 73
    13
 74
     0
 42
0.0000000001
 43
0.0000000001
 40
0.0
 40
0.0
 40
0.0
 40
0.0
 40
1.0
 40
1.0
 40
1.0
 40
2.0
 40
2.0
 40
2.0
 40
3.0
 40
3.0
 40
3.0
 40
4.0
 40
4.0
 40
4.0
 40
4.0
 10
100.7548928009758
 20
-161.154552275089
 30
0.0
 10
100.7548928009758
 20
-161.0994131098291
 30
0.0
 10
100.7101233528326
 20
-161.0546456109712
 30
0.0
 10
100.6546314098039
 20
-161.0546456109712
 30
0.0
 10
100.5995275223211
 20
-161.0546456109712
 30
0.0
 10
100.554724745686
 20
-161.0994131098291
 30
0.0
 10
100.554724745686
 20
-161.154552275089
 30
0.0
 10
100.554724745686
 20
-161.2096561625721
 30
0.0
 10
100.5995275223211
 20
-161.2544589392069
 30
0.0
 10
100.6546314098039
 20
-161.2544589392069
 30
0.0
 10
100.7101233528326
 20
-161.2544589392069
 30
0.0
 10
100.7548928009758
 20
-161.2096561625721
 30
0.0
 10
100.7548928009758
 20
-161.154552275089
 30
0.0
  0
LINE
  5
83
330
70
100
AcDbEntity
  8
レイヤー 1
 62
    18
420
        0
370
     9
100
AcDbLine
 10
119.6546791245889
 20
-144.3545834353624
 30
0.0
 11
119.6546791245889
 21
-139.0966777361694
 31
0.0
  0
LINE
  5
84
330
70
100
AcDbEntity
  8
レイヤー 1
 62
    18
420
        0
370
     9
100
AcDbLine
 10
119.6546791245889
 20
-144.3545834353624
 30
0.0
 11
119.6546791245889
 21
-145.1545423038426
 31
0.0
  0
LINE
  5
85
330
70
100
AcDbEntity
  8
レイヤー 1
 62
    18
420
        0
370
     9
100
AcDbLine
 10
118.1946715178761
 20
-144.3545834353624
 30
0.0
 11
120.6551568768424
 21
-144.3545834353624
 31
0.0
  0
LINE
  5
86
330
70
100
AcDbEntity
  8
レイヤー 1
 62
    18
420
        0
370
     9
100
AcDbLine
 10
118.1946715178761
 20
-145.1545423038426
 30
0.0
 11
120.6551568768424
 21
-145.1545423038426
 31
0.0
  0
LINE
  5
87
330
70
100
AcDbEntity
  8
レイヤー 1
 62
    18
420
        0
370
     9
100
AcDbLine
 10
119.6546791245889
 20
-154.1548063425563
 30
0.0
 11
119.6546791245889
 21
-157.1547885443457
 31
0.0
  0
LINE
  5
88
330
70
100
AcDbEntity
  8
レイヤー 1
 62
    18
420
        0
370
     9
100
AcDbLine
 10
107.1948137429503
 20
-157.1547885443457
 30
0.0
 11
120.6551568768424
 21
-157.1547885443457
 31
0.0
  0
LINE
  5
89
330
70
100
AcDbEntity
  8
レイヤー 1
 62
    18
420
        0
370
     9
100
AcDbLine
 10
100.6546314098039
 20
-161.154552275089
 30
0.0
 11
104.654743252197
 21
-161.154552275089
 31
0.0
  0
LINE
  5
8A
330
70
100
AcDbEntity
  8
レイヤー 1
 62
    18
420
        0
370
     9
100
AcDbLine
 10
100.6546314098039
 20
-159.6945109234489
 30
0.0
 11
100.6546314098039
 21
-162.1542891940281
 31
0.0
  0
LINE
  5
8B
330
70
100
AcDbEntity
  8
レイヤー 1
 62
    18
420
        0
370
     9
100
AcDbLine
 10
104.654743252197
 20
-159.6945109234489
 30
0.0
 11
104.654743252197
 21
-162.1542891940281
 31
0.0
  0
LINE
  5
8C
330
70
100
AcDbEntity
  8
レイヤー 1
 62
    18
420
        0
370
     9
100
AcDbLine
 10
100.6546314098039
 20
-140.3548243707381
 30
0.0
 11
115.6547774160075
 21
-140.3548243707381
 31
0.0
  0
LINE
  5
8D
330
70
100
AcDbEntity
  8
レイヤー 1
 62
    18
420
        0
370
     9
100
AcDbLine
 10
100.6546314098039
 20
-141.8148607571574
 30
0.0
 11
100.6546314098039
 21
-139.3543466184846
 31
0.0
  0
LINE
  5
8E
330
70
100
AcDbEntity
  8
レイヤー 1
 62
    18
420
        0
370
     9
100
AcDbLine
 10
115.6547774160075
 20
-141.8148607571574
 30
0.0
 11
115.6547774160075
 21
-139.3543466184846
 31
0.0
  0
LINE
  5
8F
330
70
100
AcDbEntity
  8
レイヤー 1
 62
    18
420
        0
370
     9
100
AcDbLine
 10
119.6546791245889
 20
-154.1548063425563
 30
0.0
 11
119.6546791245889
 21
-145.1545423170879
 31
0.0
  0
LINE
  5
90
330
70
100
AcDbEntity
  8
レイヤー 1
 62
    18
420
        0
370
     9
100
AcDbLine
 10
107.1948137429503
 20
-155.1548913226235
 30
0.0
 11
120.6551568768424
 21
-155.1548913226235
 31
0.0
  0
INSERT
  5
92
330
70
100
AcDbEntity
  8
レイヤー 1
100
AcDbBlockReference
  2
Block_0
 10
0.0
 20
0.0
 30
0.0
  0
INSERT
  5
A3
330
70
100
AcDbEntity
  8
レイヤー 1
100
AcDbBlockReference
  2
Block_2
 10
0.0
 20
0.0
 30
0.0
  0
INSERT
  5
A9
330
70
100
AcDbEntity
  8
レイヤー 1
100
AcDbBlockReference
  2
Block_3
 10
0.0
 20
0.0
 30
0.0
  0
INSERT
  5
B0
330
70
100
AcDbEntity
  8
レイヤー 1
100
AcDbBlockReference
  2
Block_4
 10
0.0
 20
0.0
 30
0.0
  0
INSERT
  5
BC
330
70
100
AcDbEntity
  8
レイヤー 1
100
AcDbBlockReference
  2
Block_6
 10
0.0
 20
0.0
 30
0.0
  0
LINE
  5
C8
330
70
100
AcDbEntity
  8
レイヤー 1
 62
    18
420
        0
370
     9
100
AcDbLine
 10
99.87106641211907
 20
-152.8016976553387
 30
0.0
 11
99.00496171199302
 21
-153.3019050588811
 31
0.0
  0
LINE
  5
C9
330
70
100
AcDbEntity
  8
レイヤー 1
 62
    18
420
        0
370
     9
100
AcDbLine
 10
99.87106641211907
 20
-152.8016976553387
 30
0.0
 11
95.88785262485043
 21
-156.7854444144531
 31
0.0
  0
LINE
  5
CA
330
70
100
AcDbEntity
  8
レイヤー 1
 62
    18
420
        0
370
     9
100
AcDbLine
 10
99.87106641211907
 20
-152.8016976553387
 30
0.0
 11
99.37082753599202
 21
-153.6678061606567
 31
0.0
  0
INSERT
  5
CC
330
70
100
AcDbEntity
  8
レイヤー 1
100
AcDbBlockReference
  2
Block_8
 10
0.0
 20
0.0
 30
0.0
  0
LINE
  5
E5
330
70
100
AcDbEntity
  8
レイヤー 1
  6
AI-Linetype-0
 62
   154
420
    23468
370
    25
100
AcDbLine
 10
100.0502069631044
 20
-144.7394947217705
 30
0.0
 11
100.0502069631044
 21
-152.7396831287801
 31
0.0
  0
ENDSEC
  0
SECTION
  2
OBJECTS
  0
DICTIONARY
  5
C
330
0
100
AcDbDictionary
281
     1
  3
ACAD_COLOR
350
63
  3
ACAD_DETAILVIEWSTYLE
350
6A
  3
ACAD_GROUP
350
D
  3
ACAD_LAYOUT
350
62
  3
ACAD_MATERIAL
350
10
  3
ACAD_MLEADERSTYLE
350
66
  3
ACAD_MLINESTYLE
350
5F
  3
ACAD_PLOTSETTINGS
350
61
  3
ACAD_PLOTSTYLENAME
350
E
  3
ACAD_SCALELIST
350
42
  3
ACAD_SECTIONVIEWSTYLE
350
68
  3
ACAD_TABLESTYLE
350
64
  3
ACAD_VISUALSTYLE
350
29
  3
ACDB_RECOMPOSE_DATA
350
EF
  3
AcDbVariableDictionary
350
E7
  0
DICTIONARY
  5
63
102
{ACAD_REACTORS
330
C
102
}
330
C
100
AcDbDictionary
281
     1
  0
DICTIONARY
  5
6A
102
{ACAD_REACTORS
330
C
102
}
330
C
100
AcDbDictionary
281
     1
  3
Imperial24
350
6B
  0
DICTIONARY
  5
D
102
{ACAD_REACTORS
330
C
102
}
330
C
100
AcDbDictionary
281
     1
  0
DICTIONARY
  5
62
102
{ACAD_REACTORS
330
C
102
}
330
C
100
AcDbDictionary
281
     1
  3
Layout1
350
6F
  3
Layout2
350
77
  3
Model
350
73
  0
DICTIONARY
  5
10
102
{ACAD_REACTORS
330
C
102
}
330
C
100
AcDbDictionary
281
     1
  3
ByBlock
350
19
  3
ByLayer
350
11
  3
Global
350
21
  0
DICTIONARY
  5
66
102
{ACAD_REACTORS
330
C
102
}
330
C
100
AcDbDictionary
281
     1
  3
Standard
350
67
  0
DICTIONARY
  5
5F
102
{ACAD_REACTORS
330
C
102
}
330
C
100
AcDbDictionary
281
     1
  3
Standard
350
60
  0
DICTIONARY
  5
61
102
{ACAD_REACTORS
330
C
102
}
330
C
100
AcDbDictionary
281
     1
  0
ACDBDICTIONARYWDFLT
  5
E
102
{ACAD_REACTORS
330
C
102
}
330
C
100
AcDbDictionary
281
     1
  3
Normal
350
F
100
AcDbDictionaryWithDefault
340
F
  0
DICTIONARY
  5
42
102
{ACAD_REACTORS
330
C
102
}
330
C
100
AcDbDictionary
281
     1
  3
A0
350
43
  3
A1
350
44
  3
A2
350
45
  3
A3
350
46
  3
A4
350
47
  3
A5
350
48
  3
A6
350
49
  3
A7
350
4A
  3
A8
350
4B
  3
A9
350
4C
  3
B0
350
4D
  3
B1
350
4E
  3
B2
350
4F
  3
B3
350
50
  3
B4
350
51
  3
B5
350
52
  3
B6
350
53
  0
DICTIONARY
  5
68
102
{ACAD_REACTORS
330
C
102
}
330
C
100
AcDbDictionary
281
     1
  3
Imperial24
350
69
  0
DICTIONARY
  5
64
102
{ACAD_REACTORS
330
C
102
}
330
C
100
AcDbDictionary
281
     1
  3
Standard
350
65
  0
DICTIONARY
  5
29
102
{ACAD_REACTORS
330
C
102
}
330
C
100
AcDbDictionary
281
     1
  3
2dWireframe
350
2F
  3
Basic
350
2E
  3
Brighten
350
35
  3
ColorChange
350
39
  3
Conceptual
350
32
  3
Dim
350
34
  3
EdgeColorOff
350
41
  3
Facepattern
350
38
  3
Flat
350
2A
  3
FlatWithEdges
350
2B
  3
Gouraud
350
2C
  3
GouraudWithEdges
350
2D
  3
Hidden
350
31
  3
JitterOff
350
3F
  3
Linepattern
350
37
  3
OverhangOff
350
40
  3
Realistic
350
33
  3
Shaded
350
3E
  3
Shaded with edges
350
3D
  3
Shades of Gray
350
3A
  3
Sketchy
350
3B
  3
Thicken
350
36
  3
Wireframe
350
30
  3
X-Ray
350
3C
  0
XRECORD
  5
EF
102
{ACAD_REACTORS
330
C
102
}
330
C
100
AcDbXrecord
280
     1
 90
        1
330
65
  0
DICTIONARY
  5
E7
102
{ACAD_REACTORS
330
C
102
}
330
C
100
AcDbDictionary
281
     1
  3
CANNOSCALE
350
EC
  3
CMLEADERSTYLE
350
E9
  3
CTABLESTYLE
350
E8
  3
CVIEWDETAILSTYLE
350
EA
  3
CVIEWSECTIONSTYLE
350
EB
  0
ACDBDETAILVIEWSTYLE
  5
6B
102
{ACAD_XDICTIONARY
360
124
102
}
102
{ACAD_REACTORS
330
6A
102
}
330
6A
100
AcDbModelDocViewStyle
 70
     0
  3
Imperial24
290
     0
100
AcDbDetailViewStyle
 70
     0
 71
     0
 90
        3
 71
     1
340
55
 62
   256
 40
0.24
340
0
 62
   256
 40
0.24
300

 40
0.36
280
     3
 71
     2
340
5D
 90
       25
 62
   256
 71
     3
340
55
 62
   256
 40
0.24
 90
        1
 40
0.75
 90
        1
300
%<\AcVar ViewType \f "%tc1">% %<\AcVar ViewDetailId>%\PSCALE %<\AcVar ViewScale \f "%sn">%
 71
     4
340
5D
 90
       25
 62
   256
340
5D
 90
       25
 62
   256
280
     0
  0
LAYOUT
  5
6F
102
{ACAD_REACTORS
330
62
102
}
330
62
100
AcDbPlotSettings
  1

  2

  4

  6

 40
0.0
 41
0.0
 42
0.0
 43
0.0
 44
0.0
 45
0.0
 46
0.0
 47
0.0
 48
0.0
 49
0.0
140
0.0
141
0.0
142
1.0
143
1.0
 70
   688
 72
     0
 73
     0
 74
     5
  7

 75
    16
147
1.0
 76
     0
 77
     2
 78
   300
148
0.0
149
0.0
100
AcDbLayout
  1
Layout1
 70
     1
 71
     1
 10
0.0
 20
0.0
 11
12.0
 21
9.0
 12
0.0
 22
0.0
 32
0.0
 14
0.0
 24
0.0
 34
0.0
 15
0.0
 25
0.0
 35
0.0
146
0.0
 13
0.0
 23
0.0
 33
0.0
 16
1.0
 26
0.0
 36
0.0
 17
0.0
 27
1.0
 37
0.0
 76
     0
330
6C
  0
LAYOUT
  5
77
102
{ACAD_REACTORS
330
62
102
}
330
62
100
AcDbPlotSettings
  1

  2

  4

  6

 40
0.0
 41
0.0
 42
0.0
 43
0.0
 44
0.0
 45
0.0
 46
0.0
 47
0.0
 48
0.0
 49
0.0
140
0.0
141
0.0
142
1.0
143
1.0
 70
   688
 72
     0
 73
     0
 74
     5
  7

 75
    16
147
1.0
 76
     0
 77
     2
 78
   300
148
0.0
149
0.0
100
AcDbLayout
  1
Layout2
 70
     1
 71
     2
 10
0.0
 20
0.0
 11
12.0
 21
9.0
 12
0.0
 22
0.0
 32
0.0
 14
0.0
 24
0.0
 34
0.0
 15
0.0
 25
0.0
 35
0.0
146
0.0
 13
0.0
 23
0.0
 33
0.0
 16
1.0
 26
0.0
 36
0.0
 17
0.0
 27
1.0
 37
0.0
 76
     0
330
74
  0
LAYOUT
  5
73
102
{ACAD_REACTORS
330
62
102
}
330
62
100
AcDbPlotSettings
  1

  2

  4

  6

 40
0.0
 41
0.0
 42
0.0
 43
0.0
 44
0.0
 45
0.0
 46
0.0
 47
0.0
 48
0.0
 49
0.0
140
0.0
141
0.0
142
1.0
143
1.0
 70
  1712
 72
     0
 73
     0
 74
     0
  7

 75
     0
147
1.0
 76
     0
 77
     2
 78
   300
148
0.0
149
0.0
100
AcDbLayout
  1
Model
 70
     1
 71
     0
 10
0.0
 20
0.0
 11
12.0
 21
9.0
 12
0.0
 22
0.0
 32
0.0
 14
0.0
 24
0.0
 34
0.0
 15
0.0
 25
0.0
 35
0.0
146
0.0
 13
0.0
 23
0.0
 33
0.0
 16
1.0
 26
0.0
 36
0.0
 17
0.0
 27
1.0
 37
0.0
 76
     0
330
70
  0
MATERIAL
  5
19
102
{ACAD_XDICTIONARY
360
1A
102
}
102
{ACAD_REACTORS
330
10
102
}
330
10
100
AcDbMaterial
  1
ByBlock
 72
     0
 43
0.0208333333333333
 43
0.0
 43
0.0
 43
0.0
 43
0.0
 43
0.0208333333333333
 43
0.0
 43
0.0
 43
0.0
 43
0.0
 43
1.0
 43
0.0
 43
0.0
 43
0.0
 43
0.0
 43
1.0
 77
     0
 47
0.0208333333333333
 47
0.0
 47
0.0
 47
0.0
 47
0.0
 47
0.0208333333333333
 47
0.0
 47
0.0
 47
0.0
 47
0.0
 47
1.0
 47
0.0
 47
0.0
 47
0.0
 47
0.0
 47
1.0
171
     0
 49
0.0208333333333333
 49
0.0
 49
0.0
 49
0.0
 49
0.0
 49
0.0208333333333333
 49
0.0
 49
0.0
 49
0.0
 49
0.0
 49
1.0
 49
0.0
 49
0.0
 49
0.0
 49
0.0
 49
1.0
175
     0
142
0.0208333333333333
142
0.0
142
0.0
142
0.0
142
0.0
142
0.0208333333333333
142
0.0
142
0.0
142
0.0
142
0.0
142
1.0
142
0.0
142
0.0
142
0.0
142
0.0
142
1.0
179
     0
144
0.0208333333333333
144
0.0
144
0.0
144
0.0
144
0.0
144
0.0208333333333333
144
0.0
144
0.0
144
0.0
144
0.0
144
1.0
144
0.0
144
0.0
144
0.0
144
0.0
144
1.0
147
0.0208333333333333
147
0.0
147
0.0
147
0.0
147
0.0
147
0.0208333333333333
147
0.0
147
0.0
147
0.0
147
0.0
147
1.0
147
0.0
147
0.0
147
0.0
147
0.0
147
1.0
  0
MATERIAL
  5
11
102
{ACAD_XDICTIONARY
360
12
102
}
102
{ACAD_REACTORS
330
10
102
}
330
10
100
AcDbMaterial
  1
ByLayer
 72
     0
 43
0.0208333333333333
 43
0.0
 43
0.0
 43
0.0
 43
0.0
 43
0.0208333333333333
 43
0.0
 43
0.0
 43
0.0
 43
0.0
 43
1.0
 43
0.0
 43
0.0
 43
0.0
 43
0.0
 43
1.0
 77
     0
 47
0.0208333333333333
 47
0.0
 47
0.0
 47
0.0
 47
0.0
 47
0.0208333333333333
 47
0.0
 47
0.0
 47
0.0
 47
0.0
 47
1.0
 47
0.0
 47
0.0
 47
0.0
 47
0.0
 47
1.0
171
     0
 49
0.0208333333333333
 49
0.0
 49
0.0
 49
0.0
 49
0.0
 49
0.0208333333333333
 49
0.0
 49
0.0
 49
0.0
 49
0.0
 49
1.0
 49
0.0
 49
0.0
 49
0.0
 49
0.0
 49
1.0
175
     0
142
0.0208333333333333
142
0.0
142
0.0
142
0.0
142
0.0
142
0.0208333333333333
142
0.0
142
0.0
142
0.0
142
0.0
142
1.0
142
0.0
142
0.0
142
0.0
142
0.0
142
1.0
179
     0
144
0.0208333333333333
144
0.0
144
0.0
144
0.0
144
0.0
144
0.0208333333333333
144
0.0
144
0.0
144
0.0
144
0.0
144
1.0
144
0.0
144
0.0
144
0.0
144
0.0
144
1.0
147
0.0208333333333333
147
0.0
147
0.0
147
0.0
147
0.0
147
0.0208333333333333
147
0.0
147
0.0
147
0.0
147
0.0
147
1.0
147
0.0
147
0.0
147
0.0
147
0.0
147
1.0
  0
MATERIAL
  5
21
102
{ACAD_XDICTIONARY
360
22
102
}
102
{ACAD_REACTORS
330
10
102
}
330
10
100
AcDbMaterial
  1
Global
 72
     0
 43
0.0208333333333333
 43
0.0
 43
0.0
 43
0.0
 43
0.0
 43
0.0208333333333333
 43
0.0
 43
0.0
 43
0.0
 43
0.0
 43
1.0
 43
0.0
 43
0.0
 43
0.0
 43
0.0
 43
1.0
 77
     0
 47
0.0208333333333333
 47
0.0
 47
0.0
 47
0.0
 47
0.0
 47
0.0208333333333333
 47
0.0
 47
0.0
 47
0.0
 47
0.0
 47
1.0
 47
0.0
 47
0.0
 47
0.0
 47
0.0
 47
1.0
171
     0
 49
0.0208333333333333
 49
0.0
 49
0.0
 49
0.0
 49
0.0
 49
0.0208333333333333
 49
0.0
 49
0.0
 49
0.0
 49
0.0
 49
1.0
 49
0.0
 49
0.0
 49
0.0
 49
0.0
 49
1.0
175
     0
142
0.0208333333333333
142
0.0
142
0.0
142
0.0
142
0.0
142
0.0208333333333333
142
0.0
142
0.0
142
0.0
142
0.0
142
1.0
142
0.0
142
0.0
142
0.0
142
0.0
142
1.0
179
     0
144
0.0208333333333333
144
0.0
144
0.0
144
0.0
144
0.0
144
0.0208333333333333
144
0.0
144
0.0
144
0.0
144
0.0
144
1.0
144
0.0
144
0.0
144
0.0
144
0.0
144
1.0
147
0.0208333333333333
147
0.0
147
0.0
147
0.0
147
0.0
147
0.0208333333333333
147
0.0
147
0.0
147
0.0
147
0.0
147
1.0
147
0.0
147
0.0
147
0.0
147
0.0
147
1.0
  0
MLEADERSTYLE
  5
67
102
{ACAD_XDICTIONARY
360
120
102
}
102
{ACAD_REACTORS
330
66
102
}
330
66
100
AcDbMLeaderStyle
179
     2
170
     2
171
     1
172
     0
 90
        2
 40
0.0
 41
0.0
173
     1
 91
-1056964608
340
5B
 92
       -2
290
     1
 42
0.09
291
     1
 43
0.36
  3
Standard
 44
0.18
300

342
55
174
     1
178
     6
175
     1
176
     0
 93
-1056964608
 45
0.18
292
     0
297
     0
 46
0.18
 94
-1056964608
 47
1.0
 49
1.0
140
1.0
293
     1
141
0.0
294
     1
177
     0
142
1.0
295
     0
296
     0
143
0.125
271
     0
272
     9
273
     9
  0
MLINESTYLE
  5
60
102
{ACAD_REACTORS
330
5F
102
}
330
5F
100
AcDbMlineStyle
  2
STANDARD
 70
     0
  3

 62
   256
 51
90.0
 52
90.0
 71
     2
 49
0.5
 62
   256
  6
BYLAYER
 49
-0.5
 62
   256
  6
BYLAYER
  0
ACDBPLACEHOLDER
  5
F
102
{ACAD_REACTORS
330
E
102
}
330
E
  0
SCALE
  5
43
102
{ACAD_REACTORS
330
42
102
}
330
42
100
AcDbScale
 70
     0
300
1:1
140
1.0
141
1.0
290
     1
  0
SCALE
  5
44
102
{ACAD_REACTORS
330
42
102
}
330
42
100
AcDbScale
 70
     0
300
1/128" = 1'-0"
140
0.0078125
141
12.0
290
     0
  0
SCALE
  5
45
102
{ACAD_REACTORS
330
42
102
}
330
42
100
AcDbScale
 70
     0
300
1/64" = 1'-0"
140
0.015625
141
12.0
290
     0
  0
SCALE
  5
46
102
{ACAD_REACTORS
330
42
102
}
330
42
100
AcDbScale
 70
     0
300
1/32" = 1'-0"
140
0.03125
141
12.0
290
     0
  0
SCALE
  5
47
102
{ACAD_REACTORS
330
42
102
}
330
42
100
AcDbScale
 70
     0
300
1/16" = 1'-0"
140
0.0625
141
12.0
290
     0
  0
SCALE
  5
48
102
{ACAD_REACTORS
330
42
102
}
330
42
100
AcDbScale
 70
     0
300
3/32" = 1'-0"
140
0.09375
141
12.0
290
     0
  0
SCALE
  5
49
102
{ACAD_REACTORS
330
42
102
}
330
42
100
AcDbScale
 70
     0
300
1/8" = 1'-0"
140
0.125
141
12.0
290
     0
  0
SCALE
  5
4A
102
{ACAD_REACTORS
330
42
102
}
330
42
100
AcDbScale
 70
     0
300
3/16" = 1'-0"
140
0.1875
141
12.0
290
     0
  0
SCALE
  5
4B
102
{ACAD_REACTORS
330
42
102
}
330
42
100
AcDbScale
 70
     0
300
1/4" = 1'-0"
140
0.25
141
12.0
290
     0
  0
SCALE
  5
4C
102
{ACAD_REACTORS
330
42
102
}
330
42
100
AcDbScale
 70
     0
300
3/8" = 1'-0"
140
0.375
141
12.0
290
     0
  0
SCALE
  5
4D
102
{ACAD_REACTORS
330
42
102
}
330
42
100
AcDbScale
 70
     0
300
1/2" = 1'-0"
140
0.5
141
12.0
290
     0
  0
SCALE
  5
4E
102
{ACAD_REACTORS
330
42
102
}
330
42
100
AcDbScale
 70
     0
300
3/4" = 1'-0"
140
0.75
141
12.0
290
     0
  0
SCALE
  5
4F
102
{ACAD_REACTORS
330
42
102
}
330
42
100
AcDbScale
 70
     0
300
1" = 1'-0"
140
1.0
141
12.0
290
     0
  0
SCALE
  5
50
102
{ACAD_REACTORS
330
42
102
}
330
42
100
AcDbScale
 70
     0
300
1-1/2" = 1'-0"
140
1.5
141
12.0
290
     0
  0
SCALE
  5
51
102
{ACAD_REACTORS
330
42
102
}
330
42
100
AcDbScale
 70
     0
300
3" = 1'-0"
140
3.0
141
12.0
290
     0
  0
SCALE
  5
52
102
{ACAD_REACTORS
330
42
102
}
330
42
100
AcDbScale
 70
     0
300
6" = 1'-0"
140
6.0
141
12.0
290
     0
  0
SCALE
  5
53
102
{ACAD_REACTORS
330
42
102
}
330
42
100
AcDbScale
 70
     0
300
1'-0" = 1'-0"
140
12.0
141
12.0
290
     0
  0
ACDBSECTIONVIEWSTYLE
  5
69
102
{ACAD_XDICTIONARY
360
122
102
}
102
{ACAD_REACTORS
330
68
102
}
330
68
100
AcDbModelDocViewStyle
 70
     0
  3
Imperial24
290
     0
100
AcDbSectionViewStyle
 70
     0
 71
     0
 90
       78
 71
     1
340
55
 62
   256
 40
0.24
340
0
340
0
 62
   256
 40
0.24
300
I, O, Q, S, X, Z
 40
0.48
 90
        3
 40
0.18
 90
        1
 71
     2
340
5D
 90
       25
 62
   256
340
5D
 90
       50
 62
   256
 40
0.24
 40
0.0
 40
0.24
 71
     3
340
55
 62
   256
 40
0.24
 90
        1
 40
0.75
 90
        1
300
%<\AcVar ViewType \f "%tc1">% %<\AcVar ViewSectionStartId>%-%<\AcVar ViewSectionEndId>%\PSCALE %<\AcVar ViewScale \f "%sn">%
 71
     4
 62
   256
 62
   257
300
ANSI31
 40
1.0
 90
        0
290
     0
290
     0
 90
        6
 40
0.0
 40
1.570796326794896
 40
0.2617993877991494
 40
1.308996938995747
 40
-0.2617993877991494
 40
1.832595714594046
  0
TABLESTYLE
  5
65
102
{ACAD_XDICTIONARY
360
ED
102
}
102
{ACAD_REACTORS
330
64
102
}
330
64
100
AcDbTableStyle
280
     0
  3
Standard
 70
     0
 71
     0
 40
0.06
 41
0.06
280
     0
281
     0
  7
Standard
140
0.18
170
     2
 62
     0
 63
     7
283
     0
 90
      512
 91
        0
  1

274
    -2
284
     1
 64
     0
275
    -2
285
     1
 65
     0
276
    -2
286
     1
 66
     0
277
    -2
287
     1
 67
     0
278
    -2
288
     1
 68
     0
279
    -2
289
     1
 69
     0
  7
Standard
140
0.25
170
     5
 62
     0
 63
     7
283
     0
 90
      512
 91
        0
  1

274
    -2
284
     1
 64
     0
275
    -2
285
     1
 65
     0
276
    -2
286
     1
 66
     0
277
    -2
287
     1
 67
     0
278
    -2
288
     1
 68
     0
279
    -2
289
     1
 69
     0
  7
Standard
140
0.18
170
     5
 62
     0
 63
     7
283
     0
 90
      512
 91
        0
  1

274
    -2
284
     1
 64
     0
275
    -2
285
     1
 65
     0
276
    -2
286
     1
 66
     0
277
    -2
287
     1
 67
     0
278
    -2
288
     1
 68
     0
279
    -2
289
     1
 69
     0
  0
VISUALSTYLE
  5
2F
102
{ACAD_XDICTIONARY
360
FA
102
}
102
{ACAD_REACTORS
330
29
102
}
330
29
100
AcDbVisualStyle
  2
2dWireframe
 70
     4
177
     2
291
     0
 71
     0
176
     1
 72
     2
176
     1
 73
     0
176
     1
 90
        0
176
     1
 40
0.6
176
     1
 41
30.0
176
     1
 63
     7
421
 16777215
176
     1
 74
     1
176
     1
 91
        4
176
     1
 64
     7
176
     1
 65
   257
176
     1
 75
     1
176
     1
175
     1
176
     1
 42
1.0
176
     1
 92
        0
176
     1
 66
   257
176
     1
 43
1.0
176
     1
 76
     1
176
     1
 77
     6
176
     1
 78
     2
176
     1
 67
     7
176
     1
 79
     5
176
     1
170
     0
176
     1
171
     0
176
     1
290
     0
176
     1
 93
        1
176
     1
 44
0.0
176
     1
173
     0
176
     1
1001
ACAD
1000
AcDbSavedByObjectVersion
1070
     0
  0
VISUALSTYLE
  5
2E
102
{ACAD_XDICTIONARY
360
F8
102
}
102
{ACAD_REACTORS
330
29
102
}
330
29
100
AcDbVisualStyle
  2
Basic
 70
     7
177
     2
291
     1
 71
     1
176
     1
 72
     0
176
     1
 73
     1
176
     1
 90
        0
176
     1
 40
0.6
176
     1
 41
30.0
176
     1
 63
     7
421
 16777215
176
     1
 74
     0
176
     1
 91
        4
176
     1
 64
     7
176
     1
 65
   257
176
     1
 75
     1
176
     1
175
     1
176
     1
 42
1.0
176
     1
 92
        8
176
     1
 66
     7
176
     1
 43
1.0
176
     1
 76
     1
176
     1
 77
     6
176
     1
 78
     2
176
     1
 67
     7
176
     1
 79
     5
176
     1
170
     0
176
     1
171
     0
176
     1
290
     0
176
     1
 93
        1
176
     1
 44
0.0
176
     1
173
     0
176
     1
1001
ACAD
1000
AcDbSavedByObjectVersion
1070
     0
  0
VISUALSTYLE
  5
35
102
{ACAD_XDICTIONARY
360
106
102
}
102
{ACAD_REACTORS
330
29
102
}
330
29
100
AcDbVisualStyle
  2
Brighten
 70
    12
177
     2
291
     1
 71
     2
176
     1
 72
     2
176
     1
 73
     0
176
     1
 90
        0
176
     1
 40
0.6
176
     1
 41
30.0
176
     1
 63
     7
421
 16777215
176
     1
 74
     1
176
     1
 91
        4
176
     1
 64
     7
176
     1
 65
   257
176
     1
 75
     1
176
     1
175
     1
176
     1
 42
1.0
176
     1
 92
        8
176
     1
 66
     7
176
     1
 43
1.0
176
     1
 76
     1
176
     1
 77
     6
176
     1
 78
     2
176
     1
 67
     7
176
     1
 79
     5
176
     1
170
     0
176
     1
171
     0
176
     1
290
     0
176
     1
 93
        1
176
     1
 44
50.0
176
     1
173
     0
176
     1
1001
ACAD
1000
AcDbSavedByObjectVersion
1070
     0
  0
VISUALSTYLE
  5
39
102
{ACAD_XDICTIONARY
360
10E
102
}
102
{ACAD_REACTORS
330
29
102
}
330
29
100
AcDbVisualStyle
  2
ColorChange
 70
    16
177
     2
291
     1
 71
     2
176
     1
 72
     2
176
     1
 73
     3
176
     1
 90
        0
176
     1
 40
0.6
176
     1
 41
30.0
176
     1
 63
     8
421
  8421504
176
     1
 74
     1
176
     1
 91
        4
176
     1
 64
     7
176
     1
 65
   257
176
     1
 75
     1
176
     1
175
     1
176
     1
 42
1.0
176
     1
 92
        8
176
     1
 66
     8
424
  8421504
176
     1
 43
1.0
176
     1
 76
     1
176
     1
 77
     6
176
     1
 78
     2
176
     1
 67
     7
176
     1
 79
     5
176
     1
170
     0
176
     1
171
     0
176
     1
290
     0
176
     1
 93
        1
176
     1
 44
0.0
176
     1
173
     0
176
     1
1001
ACAD
1000
AcDbSavedByObjectVersion
1070
     0
  0
VISUALSTYLE
  5
32
102
{ACAD_XDICTIONARY
360
100
102
}
102
{ACAD_REACTORS
330
29
102
}
330
29
100
AcDbVisualStyle
  2
Conceptual
 70
     9
177
     2
291
     0
 71
     3
176
     1
 72
     2
176
     1
 73
     0
176
     1
 90
        0
176
     1
 40
0.6
176
     1
 41
30.0
176
     1
 63
     7
421
 16777215
176
     1
 74
     2
176
     1
 91
        2
176
     1
 64
     7
176
     1
 65
   257
176
     1
 75
     1
176
     1
175
     1
176
     1
 42
179.0
176
     1
 92
        8
176
     1
 66
     7
176
     1
 43
1.0
176
     1
 76
     1
176
     1
 77
     6
176
     1
 78
     2
176
     1
 67
     7
176
     1
 79
     3
176
     1
170
     0
176
     1
171
     0
176
     1
290
     0
176
     1
 93
        1
176
     1
 44
0.0
176
     1
173
     0
176
     1
1001
ACAD
1000
AcDbSavedByObjectVersion
1070
     0
  0
VISUALSTYLE
  5
34
102
{ACAD_XDICTIONARY
360
104
102
}
102
{ACAD_REACTORS
330
29
102
}
330
29
100
AcDbVisualStyle
  2
Dim
 70
    11
177
     2
291
     1
 71
     2
176
     1
 72
     2
176
     1
 73
     0
176
     1
 90
        0
176
     1
 40
0.6
176
     1
 41
30.0
176
     1
 63
     7
421
 16777215
176
     1
 74
     1
176
     1
 91
        4
176
     1
 64
     7
176
     1
 65
   257
176
     1
 75
     1
176
     1
175
     1
176
     1
 42
1.0
176
     1
 92
        8
176
     1
 66
     7
176
     1
 43
1.0
176
     1
 76
     1
176
     1
 77
     6
176
     1
 78
     2
176
     1
 67
     7
176
     1
 79
     5
176
     1
170
     0
176
     1
171
     0
176
     1
290
     0
176
     1
 93
        1
176
     1
 44
-50.0
176
     1
173
     0
176
     1
1001
ACAD
1000
AcDbSavedByObjectVersion
1070
     0
  0
VISUALSTYLE
  5
41
102
{ACAD_XDICTIONARY
360
11E
102
}
102
{ACAD_REACTORS
330
29
102
}
330
29
100
AcDbVisualStyle
  2
EdgeColorOff
 70
    22
177
     2
291
     1
 71
     2
176
     0
 72
     2
176
     0
 73
     0
176
     0
 90
        0
176
     0
 40
0.6
176
     0
 41
30.0
176
     0
 63
     7
421
 16777215
176
     0
 74
     1
176
     0
 91
        4
176
     0
 64
     7
176
     0
 65
   257
176
     0
 75
     1
176
     0
175
     1
176
     0
 42
1.0
176
     0
 92
        8
176
     2
 66
     7
176
     0
 43
1.0
176
     0
 76
     1
176
     0
 77
     6
176
     0
 78
     2
176
     0
 67
     7
176
     0
 79
     5
176
     0
170
     0
176
     0
171
     0
176
     0
290
     0
176
     0
 93
        1
176
     0
 44
0.0
176
     0
173
     0
176
     0
1001
ACAD
1000
AcDbSavedByObjectVersion
1070
     0
  0
VISUALSTYLE
  5
38
102
{ACAD_XDICTIONARY
360
10C
102
}
102
{ACAD_REACTORS
330
29
102
}
330
29
100
AcDbVisualStyle
  2
Facepattern
 70
    15
177
     2
291
     1
 71
     2
176
     1
 72
     2
176
     1
 73
     0
176
     1
 90
        0
176
     1
 40
0.6
176
     1
 41
30.0
176
     1
 63
     7
421
 16777215
176
     1
 74
     1
176
     1
 91
        4
176
     1
 64
     7
176
     1
 65
   257
176
     1
 75
     1
176
     1
175
     1
176
     1
 42
1.0
176
     1
 92
        8
176
     1
 66
     7
176
     1
 43
1.0
176
     1
 76
     1
176
     1
 77
     6
176
     1
 78
     2
176
     1
 67
     7
176
     1
 79
     5
176
     1
170
     0
176
     1
171
     0
176
     1
290
     0
176
     1
 93
        1
176
     1
 44
0.0
176
     1
173
     0
176
     1
1001
ACAD
1000
AcDbSavedByObjectVersion
1070
     0
  0
VISUALSTYLE
  5
2A
102
{ACAD_XDICTIONARY
360
F0
102
}
102
{ACAD_REACTORS
330
29
102
}
330
29
100
AcDbVisualStyle
  2
Flat
 70
     0
177
     2
291
     1
 71
     2
176
     1
 72
     1
176
     1
 73
     1
176
     1
 90
        2
176
     1
 40
0.6
176
     1
 41
30.0
176
     1
 63
     7
421
 16777215
176
     1
 74
     0
176
     1
 91
        0
176
     1
 64
     7
176
     1
 65
   257
176
     1
 75
     1
176
     1
175
     1
176
     1
 42
1.0
176
     1
 92
        8
176
     1
 66
     7
176
     1
 43
1.0
176
     1
 76
     1
176
     1
 77
     6
176
     1
 78
     2
176
     1
 67
     7
176
     1
 79
     5
176
     1
170
     0
176
     1
171
     0
176
     1
290
     0
176
     1
 93
       13
176
     1
 44
0.0
176
     1
173
     0
176
     1
1001
ACAD
1000
AcDbSavedByObjectVersion
1070
     0
  0
VISUALSTYLE
  5
2B
102
{ACAD_XDICTIONARY
360
F2
102
}
102
{ACAD_REACTORS
330
29
102
}
330
29
100
AcDbVisualStyle
  2
FlatWithEdges
 70
     1
177
     2
291
     1
 71
     2
176
     1
 72
     1
176
     1
 73
     1
176
     1
 90
        2
176
     1
 40
0.6
176
     1
 41
30.0
176
     1
 63
     7
421
 16777215
176
     1
 74
     1
176
     1
 91
        0
176
     1
 64
     7
176
     1
 65
   257
176
     1
 75
     1
176
     1
175
     1
176
     1
 42
1.0
176
     1
 92
        0
176
     1
 66
   257
176
     1
 43
1.0
176
     1
 76
     1
176
     1
 77
     6
176
     1
 78
     2
176
     1
 67
     7
176
     1
 79
     5
176
     1
170
     0
176
     1
171
     0
176
     1
290
     0
176
     1
 93
       13
176
     1
 44
0.0
176
     1
173
     0
176
     1
1001
ACAD
1000
AcDbSavedByObjectVersion
1070
     0
  0
VISUALSTYLE
  5
2C
102
{ACAD_XDICTIONARY
360
F4
102
}
102
{ACAD_REACTORS
330
29
102
}
330
29
100
AcDbVisualStyle
  2
Gouraud
 70
     2
177
     2
291
     1
 71
     2
176
     1
 72
     2
176
     1
 73
     1
176
     1
 90
        2
176
     1
 40
0.6
176
     1
 41
30.0
176
     1
 63
     7
421
 16777215
176
     1
 74
     0
176
     1
 91
        0
176
     1
 64
     7
176
     1
 65
   257
176
     1
 75
     1
176
     1
175
     1
176
     1
 42
1.0
176
     1
 92
        0
176
     1
 66
     7
176
     1
 43
1.0
176
     1
 76
     1
176
     1
 77
     6
176
     1
 78
     2
176
     1
 67
     7
176
     1
 79
     5
176
     1
170
     0
176
     1
171
     0
176
     1
290
     0
176
     1
 93
       13
176
     1
 44
0.0
176
     1
173
     0
176
     1
1001
ACAD
1000
AcDbSavedByObjectVersion
1070
     0
  0
VISUALSTYLE
  5
2D
102
{ACAD_XDICTIONARY
360
F6
102
}
102
{ACAD_REACTORS
330
29
102
}
330
29
100
AcDbVisualStyle
  2
GouraudWithEdges
 70
     3
177
     2
291
     1
 71
     2
176
     1
 72
     2
176
     1
 73
     1
176
     1
 90
        2
176
     1
 40
0.6
176
     1
 41
30.0
176
     1
 63
     7
421
 16777215
176
     1
 74
     1
176
     1
 91
        0
176
     1
 64
     7
176
     1
 65
   257
176
     1
 75
     1
176
     1
175
     1
176
     1
 42
1.0
176
     1
 92
        0
176
     1
 66
   257
176
     1
 43
1.0
176
     1
 76
     1
176
     1
 77
     6
176
     1
 78
     2
176
     1
 67
     7
176
     1
 79
     5
176
     1
170
     0
176
     1
171
     0
176
     1
290
     0
176
     1
 93
       13
176
     1
 44
0.0
176
     1
173
     0
176
     1
1001
ACAD
1000
AcDbSavedByObjectVersion
1070
     0
  0
VISUALSTYLE
  5
31
102
{ACAD_XDICTIONARY
360
FE
102
}
102
{ACAD_REACTORS
330
29
102
}
330
29
100
AcDbVisualStyle
  2
Hidden
 70
     6
177
     2
291
     0
 71
     1
176
     1
 72
     2
176
     1
 73
     2
176
     1
 90
        0
176
     1
 40
0.6
176
     1
 41
30.0
176
     1
 63
     7
421
 16777215
176
     1
 74
     2
176
     1
 91
        2
176
     1
 64
     7
176
     1
 65
   257
176
     1
 75
     2
176
     1
175
     1
176
     1
 42
40.0
176
     1
 92
        0
176
     1
 66
   257
176
     1
 43
1.0
176
     1
 76
     1
176
     1
 77
     6
176
     1
 78
     2
176
     1
 67
     7
176
     1
 79
     3
176
     1
170
     0
176
     1
171
     0
176
     1
290
     0
176
     1
 93
        1
176
     1
 44
0.0
176
     1
173
     0
176
     1
1001
ACAD
1000
AcDbSavedByObjectVersion
1070
     0
  0
VISUALSTYLE
  5
3F
102
{ACAD_XDICTIONARY
360
11A
102
}
102
{ACAD_REACTORS
330
29
102
}
330
29
100
AcDbVisualStyle
  2
JitterOff
 70
    20
177
     2
291
     1
 71
     2
176
     0
 72
     2
176
     0
 73
     0
176
     0
 90
        0
176
     0
 40
0.6
176
     0
 41
30.0
176
     0
 63
     7
421
 16777215
176
     0
 74
     1
176
     0
 91
        4
176
     0
 64
     7
176
     0
 65
   257
176
     0
 75
     1
176
     0
175
     1
176
     0
 42
1.0
176
     0
 92
       10
176
     2
 66
     7
176
     0
 43
1.0
176
     0
 76
     1
176
     0
 77
     6
176
     0
 78
     2
176
     0
 67
     7
176
     0
 79
     5
176
     0
170
     0
176
     0
171
     0
176
     0
290
     0
176
     0
 93
        1
176
     0
 44
0.0
176
     0
173
     0
176
     0
1001
ACAD
1000
AcDbSavedByObjectVersion
1070
     0
  0
VISUALSTYLE
  5
37
102
{ACAD_XDICTIONARY
360
10A
102
}
102
{ACAD_REACTORS
330
29
102
}
330
29
100
AcDbVisualStyle
  2
Linepattern
 70
    14
177
     2
291
     1
 71
     2
176
     1
 72
     2
176
     1
 73
     0
176
     1
 90
        0
176
     1
 40
0.6
176
     1
 41
30.0
176
     1
 63
     7
421
 16777215
176
     1
 74
     1
176
     1
 91
        4
176
     1
 64
     7
176
     1
 65
   257
176
     1
 75
     7
176
     1
175
     7
176
     1
 42
1.0
176
     1
 92
        8
176
     1
 66
     7
176
     1
 43
1.0
176
     1
 76
     1
176
     1
 77
     6
176
     1
 78
     2
176
     1
 67
     7
176
     1
 79
     5
176
     1
170
     0
176
     1
171
     0
176
     1
290
     0
176
     1
 93
        1
176
     1
 44
0.0
176
     1
173
     0
176
     1
1001
ACAD
1000
AcDbSavedByObjectVersion
1070
     0
  0
VISUALSTYLE
  5
40
102
{ACAD_XDICTIONARY
360
11C
102
}
102
{ACAD_REACTORS
330
29
102
}
330
29
100
AcDbVisualStyle
  2
OverhangOff
 70
    21
177
     2
291
     1
 71
     2
176
     0
 72
     2
176
     0
 73
     0
176
     0
 90
        0
176
     0
 40
0.6
176
     0
 41
30.0
176
     0
 63
     7
421
 16777215
176
     0
 74
     1
176
     0
 91
        4
176
     0
 64
     7
176
     0
 65
   257
176
     0
 75
     1
176
     0
175
     1
176
     0
 42
1.0
176
     0
 92
        9
176
     2
 66
     7
176
     0
 43
1.0
176
     0
 76
     1
176
     0
 77
     6
176
     0
 78
     2
176
     0
 67
     7
176
     0
 79
     5
176
     0
170
     0
176
     0
171
     0
176
     0
290
     0
176
     0
 93
        1
176
     0
 44
0.0
176
     0
173
     0
176
     0
1001
ACAD
1000
AcDbSavedByObjectVersion
1070
     0
  0
VISUALSTYLE
  5
33
102
{ACAD_XDICTIONARY
360
102
102
}
102
{ACAD_REACTORS
330
29
102
}
330
29
100
AcDbVisualStyle
  2
Realistic
 70
     8
177
     2
291
     0
 71
     2
176
     1
 72
     3
176
     1
 73
     0
176
     1
 90
        2
176
     1
 40
0.6
176
     1
 41
30.0
176
     1
 63
     7
421
 16777215
176
     1
 74
     0
176
     1
 91
        0
176
     1
 64
     7
176
     1
 65
   257
176
     1
 75
     1
176
     1
175
     1
176
     1
 42
1.0
176
     1
 92
        8
176
     1
 66
   257
176
     1
 43
1.0
176
     1
 76
     1
176
     1
 77
     6
176
     1
 78
     2
176
     1
 67
     7
176
     1
 79
     3
176
     1
170
     0
176
     1
171
     0
176
     1
290
     0
176
     1
 93
       13
176
     1
 44
0.0
176
     1
173
     0
176
     1
1001
ACAD
1000
AcDbSavedByObjectVersion
1070
     0
  0
VISUALSTYLE
  5
3E
102
{ACAD_XDICTIONARY
360
118
102
}
102
{ACAD_REACTORS
330
29
102
}
330
29
100
AcDbVisualStyle
  2
Shaded
 70
    27
177
     2
291
     0
 71
     2
176
     1
 72
     2
176
     1
 73
     1
176
     1
 90
        2
176
     1
 40
0.6
176
     1
 41
30.0
176
     1
 63
     7
421
 16777215
176
     1
 74
     0
176
     1
 91
        4
176
     1
 64
     7
176
     1
 65
   257
176
     1
 75
     1
176
     1
175
     1
176
     1
 42
1.0
176
     1
 92
        8
176
     1
 66
   257
176
     1
 43
1.0
176
     1
 76
     1
176
     1
 77
     6
176
     1
 78
     2
176
     1
 67
     8
425
  7895160
176
     1
 79
     3
176
     1
170
     0
176
     1
171
     0
176
     1
290
     0
176
     1
 93
        5
176
     1
 44
0.0
176
     1
173
     0
176
     1
1001
ACAD
1000
AcDbSavedByObjectVersion
1070
     0
  0
VISUALSTYLE
  5
3D
102
{ACAD_XDICTIONARY
360
116
102
}
102
{ACAD_REACTORS
330
29
102
}
330
29
100
AcDbVisualStyle
  2
Shaded with edges
 70
    26
177
     2
291
     0
 71
     2
176
     1
 72
     2
176
     1
 73
     1
176
     1
 90
        2
176
     1
 40
0.6
176
     1
 41
30.0
176
     1
 63
     7
421
 16777215
176
     1
 74
     1
176
     1
 91
        2
176
     1
 64
     7
176
     1
 65
   257
176
     1
 75
     2
176
     1
175
     1
176
     1
 42
1.0
176
     1
 92
        8
176
     1
 66
   257
176
     1
 43
1.0
176
     1
 76
     1
176
     1
 77
     6
176
     1
 78
     2
176
     1
 67
     7
176
     1
 79
     3
176
     1
170
     0
176
     1
171
     0
176
     1
290
     0
176
     1
 93
        5
176
     1
 44
0.0
176
     1
173
     0
176
     1
1001
ACAD
1000
AcDbSavedByObjectVersion
1070
     0
  0
VISUALSTYLE
  5
3A
102
{ACAD_XDICTIONARY
360
110
102
}
102
{ACAD_REACTORS
330
29
102
}
330
29
100
AcDbVisualStyle
  2
Shades of Gray
 70
    23
177
     2
291
     0
 71
     2
176
     1
 72
     2
176
     1
 73
     3
176
     1
 90
        0
176
     1
 40
0.6
176
     1
 41
30.0
176
     1
 63
     7
421
 16777215
176
     1
 74
     2
176
     1
 91
        2
176
     1
 64
     7
176
     1
 65
     7
176
     1
 75
     1
176
     1
175
     1
176
     1
 42
40.0
176
     1
 92
        8
176
     1
 66
     7
176
     1
 43
1.0
176
     1
 76
     1
176
     1
 77
     6
176
     1
 78
     2
176
     1
 67
     7
176
     1
 79
     3
176
     1
170
     0
176
     1
171
     0
176
     1
290
     0
176
     1
 93
        1
176
     1
 44
0.0
176
     1
173
     0
176
     1
1001
ACAD
1000
AcDbSavedByObjectVersion
1070
     0
  0
VISUALSTYLE
  5
3B
102
{ACAD_XDICTIONARY
360
112
102
}
102
{ACAD_REACTORS
330
29
102
}
330
29
100
AcDbVisualStyle
  2
Sketchy
 70
    24
177
     2
291
     0
 71
     1
176
     1
 72
     2
176
     1
 73
     2
176
     1
 90
        0
176
     1
 40
0.6
176
     1
 41
30.0
176
     1
 63
     7
421
 16777215
176
     1
 74
     2
176
     1
 91
        2
176
     1
 64
     7
176
     1
 65
     7
176
     1
 75
     1
176
     1
175
     1
176
     1
 42
40.0
176
     1
 92
       11
176
     1
 66
     7
176
     1
 43
1.0
176
     1
 76
     1
176
     1
 77
     6
176
     1
 78
     2
176
     1
 67
     7
176
     1
 79
     6
176
     1
170
     0
176
     1
171
     0
176
     1
290
     0
176
     1
 93
        1
176
     1
 44
0.0
176
     1
173
     0
176
     1
1001
ACAD
1000
AcDbSavedByObjectVersion
1070
     0
  0
VISUALSTYLE
  5
36
102
{ACAD_XDICTIONARY
360
108
102
}
102
{ACAD_REACTORS
330
29
102
}
330
29
100
AcDbVisualStyle
  2
Thicken
 70
    13
177
     2
291
     1
 71
     2
176
     1
 72
     2
176
     1
 73
     0
176
     1
 90
        0
176
     1
 40
0.6
176
     1
 41
30.0
176
     1
 63
     7
421
 16777215
176
     1
 74
     1
176
     1
 91
        4
176
     1
 64
     7
176
     1
 65
   257
176
     1
 75
     1
176
     1
175
     1
176
     1
 42
1.0
176
     1
 92
       12
176
     1
 66
     7
176
     1
 43
1.0
176
     1
 76
     1
176
     1
 77
     6
176
     1
 78
     2
176
     1
 67
     7
176
     1
 79
     5
176
     1
170
     0
176
     1
171
     0
176
     1
290
     0
176
     1
 93
        1
176
     1
 44
0.0
176
     1
173
     0
176
     1
1001
ACAD
1000
AcDbSavedByObjectVersion
1070
     0
  0
VISUALSTYLE
  5
30
102
{ACAD_XDICTIONARY
360
FC
102
}
102
{ACAD_REACTORS
330
29
102
}
330
29
100
AcDbVisualStyle
  2
Wireframe
 70
     5
177
     2
291
     0
 71
     0
176
     1
 72
     2
176
     1
 73
     0
176
     1
 90
        0
176
     1
 40
0.6
176
     1
 41
30.0
176
     1
 63
     7
421
 16777215
176
     1
 74
     1
176
     1
 91
        4
176
     1
 64
     7
176
     1
 65
   257
176
     1
 75
     1
176
     1
175
     1
176
     1
 42
1.0
176
     1
 92
        0
176
     1
 66
   257
176
     1
 43
1.0
176
     1
 76
     1
176
     1
 77
     6
176
     1
 78
     2
176
     1
 67
     7
176
     1
 79
     3
176
     1
170
     0
176
     1
171
     0
176
     1
290
     0
176
     1
 93
        1
176
     1
 44
0.0
176
     1
173
     0
176
     1
1001
ACAD
1000
AcDbSavedByObjectVersion
1070
     0
  0
VISUALSTYLE
  5
3C
102
{ACAD_XDICTIONARY
360
114
102
}
102
{ACAD_REACTORS
330
29
102
}
330
29
100
AcDbVisualStyle
  2
X-Ray
 70
    25
177
     2
291
     0
 71
     2
176
     1
 72
     2
176
     1
 73
     1
176
     1
 90
        1
176
     1
 40
0.5
176
     1
 41
30.0
176
     1
 63
     7
421
 16777215
176
     1
 74
     1
176
     1
 91
        0
176
     1
 64
     7
176
     1
 65
   257
176
     1
 75
     1
176
     1
175
     1
176
     1
 42
1.0
176
     1
 92
        8
176
     1
 66
     7
176
     1
 43
1.0
176
     1
 76
     1
176
     1
 77
     6
176
     1
 78
     2
176
     1
 67
     7
176
     1
 79
     3
176
     1
170
     0
176
     1
171
     0
176
     1
290
     0
176
     1
 93
       13
176
     1
 44
0.0
176
     1
173
     0
176
     1
1001
ACAD
1000
AcDbSavedByObjectVersion
1070
     0
  0
DICTIONARYVAR
  5
EC
102
{ACAD_REACTORS
330
E7
102
}
330
E7
100
DictionaryVariables
280
     0
  1
1:1
  0
DICTIONARYVAR
  5
E9
102
{ACAD_REACTORS
330
E7
102
}
330
E7
100
DictionaryVariables
280
     0
  1
STANDARD
  0
DICTIONARYVAR
  5
E8
102
{ACAD_REACTORS
330
E7
102
}
330
E7
100
DictionaryVariables
280
     0
  1
STANDARD
  0
DICTIONARYVAR
  5
EA
102
{ACAD_REACTORS
330
E7
102
}
330
E7
100
DictionaryVariables
280
     0
  1
Imperial24
  0
DICTIONARYVAR
  5
EB
102
{ACAD_REACTORS
330
E7
102
}
330
E7
100
DictionaryVariables
280
     0
  1
Imperial24
  0
DICTIONARY
  5
124
330
6B
100
AcDbDictionary
280
     1
281
     1
  3
ACAD_XREC_ROUNDTRIP
360
125
  0
DICTIONARY
  5
1A
330
19
100
AcDbDictionary
280
     1
281
     1
  3
BUMPTILE
360
1C
  3
DIFFUSETILE
360
1B
  3
OPACITYTILE
360
1F
  3
REFLECTIONTILE
360
1E
  3
REFRACTIONTILE
360
20
  3
SPECULARTILE
360
1D
  0
DICTIONARY
  5
12
330
11
100
AcDbDictionary
280
     1
281
     1
  3
BUMPTILE
360
14
  3
DIFFUSETILE
360
13
  3
OPACITYTILE
360
17
  3
REFLECTIONTILE
360
16
  3
REFRACTIONTILE
360
18
  3
SPECULARTILE
360
15
  0
DICTIONARY
  5
22
330
21
100
AcDbDictionary
280
     1
281
     1
  3
BUMPTILE
360
24
  3
DIFFUSETILE
360
23
  3
OPACITYTILE
360
27
  3
REFLECTIONTILE
360
26
  3
REFRACTIONTILE
360
28
  3
SPECULARTILE
360
25
  0
DICTIONARY
  5
120
330
67
100
AcDbDictionary
280
     1
281
     1
  3
ACAD_XREC_ROUNDTRIP
360
121
  0
DICTIONARY
  5
122
330
69
100
AcDbDictionary
280
     1
281
     1
  3
ACAD_XREC_ROUNDTRIP
360
123
  0
DICTIONARY
  5
ED
330
65
100
AcDbDictionary
280
     1
281
     1
  3
ACAD_ROUNDTRIP_2008_TABLESTYLE_CELLSTYLEMAP
360
EE
  0
DICTIONARY
  5
FA
330
2F
100
AcDbDictionary
280
     1
281
     1
  3
ACAD_XREC_ROUNDTRIP
360
FB
  0
DICTIONARY
  5
F8
330
2E
100
AcDbDictionary
280
     1
281
     1
  3
ACAD_XREC_ROUNDTRIP
360
F9
  0
DICTIONARY
  5
106
330
35
100
AcDbDictionary
280
     1
281
     1
  3
ACAD_XREC_ROUNDTRIP
360
107
  0
DICTIONARY
  5
10E
330
39
100
AcDbDictionary
280
     1
281
     1
  3
ACAD_XREC_ROUNDTRIP
360
10F
  0
DICTIONARY
  5
100
330
32
100
AcDbDictionary
280
     1
281
     1
  3
ACAD_XREC_ROUNDTRIP
360
101
  0
DICTIONARY
  5
104
330
34
100
AcDbDictionary
280
     1
281
     1
  3
ACAD_XREC_ROUNDTRIP
360
105
  0
DICTIONARY
  5
11E
330
41
100
AcDbDictionary
280
     1
281
     1
  3
ACAD_XREC_ROUNDTRIP
360
11F
  0
DICTIONARY
  5
10C
330
38
100
AcDbDictionary
280
     1
281
     1
  3
ACAD_XREC_ROUNDTRIP
360
10D
  0
DICTIONARY
  5
F0
330
2A
100
AcDbDictionary
280
     1
281
     1
  3
ACAD_XREC_ROUNDTRIP
360
F1
  0
DICTIONARY
  5
F2
330
2B
100
AcDbDictionary
280
     1
281
     1
  3
ACAD_XREC_ROUNDTRIP
360
F3
  0
DICTIONARY
  5
F4
330
2C
100
AcDbDictionary
280
     1
281
     1
  3
ACAD_XREC_ROUNDTRIP
360
F5
  0
DICTIONARY
  5
F6
330
2D
100
AcDbDictionary
280
     1
281
     1
  3
ACAD_XREC_ROUNDTRIP
360
F7
  0
DICTIONARY
  5
FE
330
31
100
AcDbDictionary
280
     1
281
     1
  3
ACAD_XREC_ROUNDTRIP
360
FF
  0
DICTIONARY
  5
11A
330
3F
100
AcDbDictionary
280
     1
281
     1
  3
ACAD_XREC_ROUNDTRIP
360
11B
  0
DICTIONARY
  5
10A
330
37
100
AcDbDictionary
280
     1
281
     1
  3
ACAD_XREC_ROUNDTRIP
360
10B
  0
DICTIONARY
  5
11C
330
40
100
AcDbDictionary
280
     1
281
     1
  3
ACAD_XREC_ROUNDTRIP
360
11D
  0
DICTIONARY
  5
102
330
33
100
AcDbDictionary
280
     1
281
     1
  3
ACAD_XREC_ROUNDTRIP
360
103
  0
DICTIONARY
  5
118
330
3E
100
AcDbDictionary
280
     1
281
     1
  3
ACAD_XREC_ROUNDTRIP
360
119
  0
DICTIONARY
  5
116
330
3D
100
AcDbDictionary
280
     1
281
     1
  3
ACAD_XREC_ROUNDTRIP
360
117
  0
DICTIONARY
  5
110
330
3A
100
AcDbDictionary
280
     1
281
     1
  3
ACAD_XREC_ROUNDTRIP
360
111
  0
DICTIONARY
  5
112
330
3B
100
AcDbDictionary
280
     1
281
     1
  3
ACAD_XREC_ROUNDTRIP
360
113
  0
DICTIONARY
  5
108
330
36
100
AcDbDictionary
280
     1
281
     1
  3
ACAD_XREC_ROUNDTRIP
360
109
  0
DICTIONARY
  5
FC
330
30
100
AcDbDictionary
280
     1
281
     1
  3
ACAD_XREC_ROUNDTRIP
360
FD
  0
DICTIONARY
  5
114
330
3C
100
AcDbDictionary
280
     1
281
     1
  3
ACAD_XREC_ROUNDTRIP
360
115
  0
XRECORD
  5
125
102
{ACAD_REACTORS
330
124
102
}
330
124
100
AcDbXrecord
280
     1
102
DISPLAYNAME
  1
Imperial24
102
FLAGS
 90
        0
  0
XRECORD
  5
1C
102
{ACAD_REACTORS
330
1A
102
}
330
1A
100
AcDbXrecord
280
     1
270
     1
271
     1
  0
XRECORD
  5
1B
102
{ACAD_REACTORS
330
1A
102
}
330
1A
100
AcDbXrecord
280
     1
270
     1
271
     1
  0
XRECORD
  5
1F
102
{ACAD_REACTORS
330
1A
102
}
330
1A
100
AcDbXrecord
280
     1
270
     1
271
     1
  0
XRECORD
  5
1E
102
{ACAD_REACTORS
330
1A
102
}
330
1A
100
AcDbXrecord
280
     1
270
     1
271
     1
  0
XRECORD
  5
20
102
{ACAD_REACTORS
330
1A
102
}
330
1A
100
AcDbXrecord
280
     1
270
     1
271
     1
  0
XRECORD
  5
1D
102
{ACAD_REACTORS
330
1A
102
}
330
1A
100
AcDbXrecord
280
     1
270
     1
271
     1
  0
XRECORD
  5
14
102
{ACAD_REACTORS
330
12
102
}
330
12
100
AcDbXrecord
280
     1
270
     1
271
     1
  0
XRECORD
  5
13
102
{ACAD_REACTORS
330
12
102
}
330
12
100
AcDbXrecord
280
     1
270
     1
271
     1
  0
XRECORD
  5
17
102
{ACAD_REACTORS
330
12
102
}
330
12
100
AcDbXrecord
280
     1
270
     1
271
     1
  0
XRECORD
  5
16
102
{ACAD_REACTORS
330
12
102
}
330
12
100
AcDbXrecord
280
     1
270
     1
271
     1
  0
XRECORD
  5
18
102
{ACAD_REACTORS
330
12
102
}
330
12
100
AcDbXrecord
280
     1
270
     1
271
     1
  0
XRECORD
  5
15
102
{ACAD_REACTORS
330
12
102
}
330
12
100
AcDbXrecord
280
     1
270
     1
271
     1
  0
XRECORD
  5
24
102
{ACAD_REACTORS
330
22
102
}
330
22
100
AcDbXrecord
280
     1
270
     1
271
     1
  0
XRECORD
  5
23
102
{ACAD_REACTORS
330
22
102
}
330
22
100
AcDbXrecord
280
     1
270
     1
271
     1
  0
XRECORD
  5
27
102
{ACAD_REACTORS
330
22
102
}
330
22
100
AcDbXrecord
280
     1
270
     1
271
     1
  0
XRECORD
  5
26
102
{ACAD_REACTORS
330
22
102
}
330
22
100
AcDbXrecord
280
     1
270
     1
271
     1
  0
XRECORD
  5
28
102
{ACAD_REACTORS
330
22
102
}
330
22
100
AcDbXrecord
280
     1
270
     1
271
     1
  0
XRECORD
  5
25
102
{ACAD_REACTORS
330
22
102
}
330
22
100
AcDbXrecord
280
     1
270
     1
271
     1
  0
XRECORD
  5
121
102
{ACAD_REACTORS
330
120
102
}
330
120
100
AcDbXrecord
280
     1
102
ACAD_ROUNDTRIP_2012_MLEADER_STYLE
298
     1
  0
XRECORD
  5
123
102
{ACAD_REACTORS
330
122
102
}
330
122
100
AcDbXrecord
280
     1
102
DISPLAYNAME
  1
Imperial24
102
FLAGS
 90
        0
  0
CELLSTYLEMAP
  5
EE
102
{ACAD_REACTORS
330
ED
102
}
330
ED
100
AcDbCellStyleMap
 90
        3
300
CELLSTYLE
  1
TABLEFORMAT_BEGIN
 90
        5
170
     1
 91
        0
 92
    32768
 62
   257
 93
        1
300
CONTENTFORMAT
  1
CONTENTFORMAT_BEGIN
 90
        0
 91
        0
 92
      512
 93
        0
300

 40
0.0
140
1.0
 94
        5
 62
     0
340
55
144
0.25
309
CONTENTFORMAT_END
171
     0
 94
        0
309
TABLEFORMAT_END
  1
CELLSTYLE_BEGIN
 90
        1
 91
        1
300
_TITLE
309
CELLSTYLE_END
300
CELLSTYLE
  1
TABLEFORMAT_BEGIN
 90
        5
170
     1
 91
        0
 92
        0
 62
   257
 93
        1
300
CONTENTFORMAT
  1
CONTENTFORMAT_BEGIN
 90
        0
 91
        0
 92
      512
 93
        0
300

 40
0.0
140
1.0
 94
        5
 62
     0
340
55
144
0.18
309
CONTENTFORMAT_END
171
     0
 94
        0
309
TABLEFORMAT_END
  1
CELLSTYLE_BEGIN
 90
        2
 91
        1
300
_HEADER
309
CELLSTYLE_END
300
CELLSTYLE
  1
TABLEFORMAT_BEGIN
 90
        5
170
     1
 91
        0
 92
        0
 62
   257
 93
        1
300
CONTENTFORMAT
  1
CONTENTFORMAT_BEGIN
 90
        0
 91
        0
 92
      512
 93
        0
300

 40
0.0
140
1.0
 94
        2
 62
     0
340
55
144
0.18
309
CONTENTFORMAT_END
171
     0
 94
        0
309
TABLEFORMAT_END
  1
CELLSTYLE_BEGIN
 90
        3
 91
        2
300
_DATA
309
CELLSTYLE_END
  0
XRECORD
  5
FB
102
{ACAD_REACTORS
330
FA
102
}
330
FA
100
AcDbXrecord
280
     1
102
RTVSPost2010Prop28
280
     1
102
RTVSPost2010PropOp28
 70
     1
102
RTVSPost2010Prop29
280
     1
102
RTVSPost2010PropOp29
 70
     1
102
RTVSPost2010Prop30
280
     0
102
RTVSPost2010PropOp30
 70
     1
102
RTVSPost2010Prop31
280
     0
102
RTVSPost2010PropOp31
 70
     1
102
RTVSPost2010Prop32
280
     0
102
RTVSPost2010PropOp32
 70
     1
102
RTVSPost2010Prop33
280
     0
102
RTVSPost2010PropOp33
 70
     1
102
RTVSPost2010Prop34
280
     0
102
RTVSPost2010PropOp34
 70
     1
102
RTVSPost2010Prop35
280
     0
102
RTVSPost2010PropOp35
 70
     1
102
RTVSPost2010Prop36
280
     0
102
RTVSPost2010PropOp36
 70
     1
102
RTVSPost2010Prop37
 90
       50
102
RTVSPost2010PropOp37
 70
     1
102
RTVSPost2010Prop38
140
0.0
102
RTVSPost2010PropOp38
 70
     1
102
RTVSPost2010Prop39
140
1.0
102
RTVSPost2010PropOp39
 70
     1
102
RTVSPost2010Prop40
 90
        0
102
RTVSPost2010PropOp40
 70
     1
102
RTVSPost2010Prop41ColorIndex
 90
       18
102
RTVSPost2010Prop41ColorRGB
 90
        0
102
RTVSPost2010PropOp41
 70
     1
102
RTVSPost2010Prop42
 90
       50
102
RTVSPost2010PropOp42
 70
     1
102
RTVSPost2010Prop43
 90
        3
102
RTVSPost2010PropOp43
 70
     1
102
RTVSPost2010Prop44ColorIndex
 90
        5
102
RTVSPost2010Prop44ColorRGB
 90
      255
102
RTVSPost2010PropOp44
 70
     1
102
RTVSPost2010Prop45
280
     0
102
RTVSPost2010PropOp45
 70
     1
102
RTVSPost2010Prop46
 90
       50
102
RTVSPost2010PropOp46
 70
     1
102
RTVSPost2010Prop47
 90
       50
102
RTVSPost2010PropOp47
 70
     1
102
RTVSPost2010Prop48
 90
       50
102
RTVSPost2010PropOp48
 70
     1
102
RTVSPost2010Prop49
280
     0
102
RTVSPost2010PropOp49
 70
     1
102
RTVSPost2010Prop50
 90
       50
102
RTVSPost2010PropOp50
 70
     1
102
RTVSPost2010Prop51ColorIndex
 90
      256
102
RTVSPost2010Prop51ColorRGB
 90
-16777216
102
RTVSPost2010PropOp51
 70
     0
102
RTVSPost2010Prop52
140
1.0
102
RTVSPost2010PropOp52
 70
     0
102
RTVSPost2010Prop53
 90
        2
102
RTVSPost2010PropOp53
 70
     1
102
RTVSPost2010Prop54
  1
strokes_ogs.tif
102
RTVSPost2010PropOp54
 70
     1
102
RTVSPost2010Prop55
280
     0
102
RTVSPost2010PropOp55
 70
     1
102
RTVSPost2010Prop56
140
1.0
102
RTVSPost2010PropOp56
 70
     1
102
RTVSPost2010Prop57
140
1.0
102
RTVSPost2010PropOp57
 70
     1
  0
XRECORD
  5
F9
102
{ACAD_REACTORS
330
F8
102
}
330
F8
100
AcDbXrecord
280
     1
102
RTVSPost2010Prop28
280
     0
102
RTVSPost2010PropOp28
 70
     1
102
RTVSPost2010Prop29
280
     1
102
RTVSPost2010PropOp29
 70
     1
102
RTVSPost2010Prop30
280
     1
102
RTVSPost2010PropOp30
 70
     1
102
RTVSPost2010Prop31
280
     0
102
RTVSPost2010PropOp31
 70
     1
102
RTVSPost2010Prop32
280
     0
102
RTVSPost2010PropOp32
 70
     1
102
RTVSPost2010Prop33
280
     0
102
RTVSPost2010PropOp33
 70
     1
102
RTVSPost2010Prop34
280
     0
102
RTVSPost2010PropOp34
 70
     1
102
RTVSPost2010Prop35
280
     0
102
RTVSPost2010PropOp35
 70
     1
102
RTVSPost2010Prop36
280
     0
102
RTVSPost2010PropOp36
 70
     1
102
RTVSPost2010Prop37
 90
       50
102
RTVSPost2010PropOp37
 70
     1
102
RTVSPost2010Prop38
140
0.0
102
RTVSPost2010PropOp38
 70
     1
102
RTVSPost2010Prop39
140
1.0
102
RTVSPost2010PropOp39
 70
     1
102
RTVSPost2010Prop40
 90
        0
102
RTVSPost2010PropOp40
 70
     1
102
RTVSPost2010Prop41ColorIndex
 90
       18
102
RTVSPost2010Prop41ColorRGB
 90
        0
102
RTVSPost2010PropOp41
 70
     1
102
RTVSPost2010Prop42
 90
       50
102
RTVSPost2010PropOp42
 70
     1
102
RTVSPost2010Prop43
 90
        3
102
RTVSPost2010PropOp43
 70
     1
102
RTVSPost2010Prop44ColorIndex
 90
        5
102
RTVSPost2010Prop44ColorRGB
 90
      255
102
RTVSPost2010PropOp44
 70
     1
102
RTVSPost2010Prop45
280
     0
102
RTVSPost2010PropOp45
 70
     1
102
RTVSPost2010Prop46
 90
       50
102
RTVSPost2010PropOp46
 70
     1
102
RTVSPost2010Prop47
 90
       50
102
RTVSPost2010PropOp47
 70
     1
102
RTVSPost2010Prop48
 90
       50
102
RTVSPost2010PropOp48
 70
     1
102
RTVSPost2010Prop49
280
     0
102
RTVSPost2010PropOp49
 70
     1
102
RTVSPost2010Prop50
 90
       50
102
RTVSPost2010PropOp50
 70
     1
102
RTVSPost2010Prop51ColorIndex
 90
      256
102
RTVSPost2010Prop51ColorRGB
 90
-16777216
102
RTVSPost2010PropOp51
 70
     0
102
RTVSPost2010Prop52
140
1.0
102
RTVSPost2010PropOp52
 70
     0
102
RTVSPost2010Prop53
 90
        2
102
RTVSPost2010PropOp53
 70
     1
102
RTVSPost2010Prop54
  1
strokes_ogs.tif
102
RTVSPost2010PropOp54
 70
     1
102
RTVSPost2010Prop55
280
     0
102
RTVSPost2010PropOp55
 70
     1
102
RTVSPost2010Prop56
140
1.0
102
RTVSPost2010PropOp56
 70
     1
102
RTVSPost2010Prop57
140
1.0
102
RTVSPost2010PropOp57
 70
     1
  0
XRECORD
  5
107
102
{ACAD_REACTORS
330
106
102
}
330
106
100
AcDbXrecord
280
     1
102
RTVSPost2010Prop28
280
     0
102
RTVSPost2010PropOp28
 70
     1
102
RTVSPost2010Prop29
280
     1
102
RTVSPost2010PropOp29
 70
     1
102
RTVSPost2010Prop30
280
     1
102
RTVSPost2010PropOp30
 70
     1
102
RTVSPost2010Prop31
280
     0
102
RTVSPost2010PropOp31
 70
     1
102
RTVSPost2010Prop32
280
     0
102
RTVSPost2010PropOp32
 70
     1
102
RTVSPost2010Prop33
280
     0
102
RTVSPost2010PropOp33
 70
     1
102
RTVSPost2010Prop34
280
     0
102
RTVSPost2010PropOp34
 70
     1
102
RTVSPost2010Prop35
280
     0
102
RTVSPost2010PropOp35
 70
     1
102
RTVSPost2010Prop36
280
     0
102
RTVSPost2010PropOp36
 70
     1
102
RTVSPost2010Prop37
 90
       50
102
RTVSPost2010PropOp37
 70
     1
102
RTVSPost2010Prop38
140
0.0
102
RTVSPost2010PropOp38
 70
     1
102
RTVSPost2010Prop39
140
1.0
102
RTVSPost2010PropOp39
 70
     1
102
RTVSPost2010Prop40
 90
        0
102
RTVSPost2010PropOp40
 70
     1
102
RTVSPost2010Prop41ColorIndex
 90
       18
102
RTVSPost2010Prop41ColorRGB
 90
        0
102
RTVSPost2010PropOp41
 70
     1
102
RTVSPost2010Prop42
 90
       50
102
RTVSPost2010PropOp42
 70
     1
102
RTVSPost2010Prop43
 90
        3
102
RTVSPost2010PropOp43
 70
     1
102
RTVSPost2010Prop44ColorIndex
 90
        5
102
RTVSPost2010Prop44ColorRGB
 90
      255
102
RTVSPost2010PropOp44
 70
     1
102
RTVSPost2010Prop45
280
     0
102
RTVSPost2010PropOp45
 70
     1
102
RTVSPost2010Prop46
 90
       50
102
RTVSPost2010PropOp46
 70
     1
102
RTVSPost2010Prop47
 90
       50
102
RTVSPost2010PropOp47
 70
     1
102
RTVSPost2010Prop48
 90
       50
102
RTVSPost2010PropOp48
 70
     1
102
RTVSPost2010Prop49
280
     0
102
RTVSPost2010PropOp49
 70
     1
102
RTVSPost2010Prop50
 90
       50
102
RTVSPost2010PropOp50
 70
     1
102
RTVSPost2010Prop51ColorIndex
 90
      256
102
RTVSPost2010Prop51ColorRGB
 90
-16777216
102
RTVSPost2010PropOp51
 70
     0
102
RTVSPost2010Prop52
140
1.0
102
RTVSPost2010PropOp52
 70
     0
102
RTVSPost2010Prop53
 90
        2
102
RTVSPost2010PropOp53
 70
     1
102
RTVSPost2010Prop54
  1
strokes_ogs.tif
102
RTVSPost2010PropOp54
 70
     1
102
RTVSPost2010Prop55
280
     0
102
RTVSPost2010PropOp55
 70
     1
102
RTVSPost2010Prop56
140
1.0
102
RTVSPost2010PropOp56
 70
     1
102
RTVSPost2010Prop57
140
1.0
102
RTVSPost2010PropOp57
 70
     1
  0
XRECORD
  5
10F
102
{ACAD_REACTORS
330
10E
102
}
330
10E
100
AcDbXrecord
280
     1
102
RTVSPost2010Prop28
280
     0
102
RTVSPost2010PropOp28
 70
     1
102
RTVSPost2010Prop29
280
     1
102
RTVSPost2010PropOp29
 70
     1
102
RTVSPost2010Prop30
280
     1
102
RTVSPost2010PropOp30
 70
     1
102
RTVSPost2010Prop31
280
     0
102
RTVSPost2010PropOp31
 70
     1
102
RTVSPost2010Prop32
280
     0
102
RTVSPost2010PropOp32
 70
     1
102
RTVSPost2010Prop33
280
     0
102
RTVSPost2010PropOp33
 70
     1
102
RTVSPost2010Prop34
280
     0
102
RTVSPost2010PropOp34
 70
     1
102
RTVSPost2010Prop35
280
     0
102
RTVSPost2010PropOp35
 70
     1
102
RTVSPost2010Prop36
280
     0
102
RTVSPost2010PropOp36
 70
     1
102
RTVSPost2010Prop37
 90
       50
102
RTVSPost2010PropOp37
 70
     1
102
RTVSPost2010Prop38
140
0.0
102
RTVSPost2010PropOp38
 70
     1
102
RTVSPost2010Prop39
140
1.0
102
RTVSPost2010PropOp39
 70
     1
102
RTVSPost2010Prop40
 90
        0
102
RTVSPost2010PropOp40
 70
     1
102
RTVSPost2010Prop41ColorIndex
 90
       18
102
RTVSPost2010Prop41ColorRGB
 90
        0
102
RTVSPost2010PropOp41
 70
     1
102
RTVSPost2010Prop42
 90
       50
102
RTVSPost2010PropOp42
 70
     1
102
RTVSPost2010Prop43
 90
        3
102
RTVSPost2010PropOp43
 70
     1
102
RTVSPost2010Prop44ColorIndex
 90
        5
102
RTVSPost2010Prop44ColorRGB
 90
      255
102
RTVSPost2010PropOp44
 70
     1
102
RTVSPost2010Prop45
280
     0
102
RTVSPost2010PropOp45
 70
     1
102
RTVSPost2010Prop46
 90
       50
102
RTVSPost2010PropOp46
 70
     1
102
RTVSPost2010Prop47
 90
       50
102
RTVSPost2010PropOp47
 70
     1
102
RTVSPost2010Prop48
 90
       50
102
RTVSPost2010PropOp48
 70
     1
102
RTVSPost2010Prop49
280
     0
102
RTVSPost2010PropOp49
 70
     1
102
RTVSPost2010Prop50
 90
       50
102
RTVSPost2010PropOp50
 70
     1
102
RTVSPost2010Prop51ColorIndex
 90
      256
102
RTVSPost2010Prop51ColorRGB
 90
-16777216
102
RTVSPost2010PropOp51
 70
     0
102
RTVSPost2010Prop52
140
1.0
102
RTVSPost2010PropOp52
 70
     0
102
RTVSPost2010Prop53
 90
        2
102
RTVSPost2010PropOp53
 70
     1
102
RTVSPost2010Prop54
  1
strokes_ogs.tif
102
RTVSPost2010PropOp54
 70
     1
102
RTVSPost2010Prop55
280
     0
102
RTVSPost2010PropOp55
 70
     1
102
RTVSPost2010Prop56
140
1.0
102
RTVSPost2010PropOp56
 70
     1
102
RTVSPost2010Prop57
140
1.0
102
RTVSPost2010PropOp57
 70
     1
  0
XRECORD
  5
101
102
{ACAD_REACTORS
330
100
102
}
330
100
100
AcDbXrecord
280
     1
102
RTVSPost2010Prop28
280
     0
102
RTVSPost2010PropOp28
 70
     1
102
RTVSPost2010Prop29
280
     1
102
RTVSPost2010PropOp29
 70
     1
102
RTVSPost2010Prop30
280
     1
102
RTVSPost2010PropOp30
 70
     1
102
RTVSPost2010Prop31
280
     0
102
RTVSPost2010PropOp31
 70
     1
102
RTVSPost2010Prop32
280
     0
102
RTVSPost2010PropOp32
 70
     1
102
RTVSPost2010Prop33
280
     0
102
RTVSPost2010PropOp33
 70
     1
102
RTVSPost2010Prop34
280
     0
102
RTVSPost2010PropOp34
 70
     1
102
RTVSPost2010Prop35
280
     0
102
RTVSPost2010PropOp35
 70
     1
102
RTVSPost2010Prop36
280
     0
102
RTVSPost2010PropOp36
 70
     1
102
RTVSPost2010Prop37
 90
       50
102
RTVSPost2010PropOp37
 70
     1
102
RTVSPost2010Prop38
140
0.0
102
RTVSPost2010PropOp38
 70
     1
102
RTVSPost2010Prop39
140
1.0
102
RTVSPost2010PropOp39
 70
     1
102
RTVSPost2010Prop40
 90
        0
102
RTVSPost2010PropOp40
 70
     1
102
RTVSPost2010Prop41ColorIndex
 90
       18
102
RTVSPost2010Prop41ColorRGB
 90
        0
102
RTVSPost2010PropOp41
 70
     1
102
RTVSPost2010Prop42
 90
       50
102
RTVSPost2010PropOp42
 70
     1
102
RTVSPost2010Prop43
 90
        3
102
RTVSPost2010PropOp43
 70
     1
102
RTVSPost2010Prop44ColorIndex
 90
        5
102
RTVSPost2010Prop44ColorRGB
 90
      255
102
RTVSPost2010PropOp44
 70
     1
102
RTVSPost2010Prop45
280
     0
102
RTVSPost2010PropOp45
 70
     1
102
RTVSPost2010Prop46
 90
       50
102
RTVSPost2010PropOp46
 70
     1
102
RTVSPost2010Prop47
 90
       50
102
RTVSPost2010PropOp47
 70
     1
102
RTVSPost2010Prop48
 90
       50
102
RTVSPost2010PropOp48
 70
     1
102
RTVSPost2010Prop49
280
     0
102
RTVSPost2010PropOp49
 70
     1
102
RTVSPost2010Prop50
 90
       50
102
RTVSPost2010PropOp50
 70
     1
102
RTVSPost2010Prop51ColorIndex
 90
      256
102
RTVSPost2010Prop51ColorRGB
 90
-16777216
102
RTVSPost2010PropOp51
 70
     0
102
RTVSPost2010Prop52
140
1.0
102
RTVSPost2010PropOp52
 70
     0
102
RTVSPost2010Prop53
 90
        2
102
RTVSPost2010PropOp53
 70
     1
102
RTVSPost2010Prop54
  1
strokes_ogs.tif
102
RTVSPost2010PropOp54
 70
     1
102
RTVSPost2010Prop55
280
     0
102
RTVSPost2010PropOp55
 70
     1
102
RTVSPost2010Prop56
140
1.0
102
RTVSPost2010PropOp56
 70
     1
102
RTVSPost2010Prop57
140
1.0
102
RTVSPost2010PropOp57
 70
     1
  0
XRECORD
  5
105
102
{ACAD_REACTORS
330
104
102
}
330
104
100
AcDbXrecord
280
     1
102
RTVSPost2010Prop28
280
     0
102
RTVSPost2010PropOp28
 70
     1
102
RTVSPost2010Prop29
280
     1
102
RTVSPost2010PropOp29
 70
     1
102
RTVSPost2010Prop30
280
     1
102
RTVSPost2010PropOp30
 70
     1
102
RTVSPost2010Prop31
280
     0
102
RTVSPost2010PropOp31
 70
     1
102
RTVSPost2010Prop32
280
     0
102
RTVSPost2010PropOp32
 70
     1
102
RTVSPost2010Prop33
280
     0
102
RTVSPost2010PropOp33
 70
     1
102
RTVSPost2010Prop34
280
     0
102
RTVSPost2010PropOp34
 70
     1
102
RTVSPost2010Prop35
280
     0
102
RTVSPost2010PropOp35
 70
     1
102
RTVSPost2010Prop36
280
     0
102
RTVSPost2010PropOp36
 70
     1
102
RTVSPost2010Prop37
 90
       50
102
RTVSPost2010PropOp37
 70
     1
102
RTVSPost2010Prop38
140
0.0
102
RTVSPost2010PropOp38
 70
     1
102
RTVSPost2010Prop39
140
1.0
102
RTVSPost2010PropOp39
 70
     1
102
RTVSPost2010Prop40
 90
        0
102
RTVSPost2010PropOp40
 70
     1
102
RTVSPost2010Prop41ColorIndex
 90
       18
102
RTVSPost2010Prop41ColorRGB
 90
        0
102
RTVSPost2010PropOp41
 70
     1
102
RTVSPost2010Prop42
 90
       50
102
RTVSPost2010PropOp42
 70
     1
102
RTVSPost2010Prop43
 90
        3
102
RTVSPost2010PropOp43
 70
     1
102
RTVSPost2010Prop44ColorIndex
 90
        5
102
RTVSPost2010Prop44ColorRGB
 90
      255
102
RTVSPost2010PropOp44
 70
     1
102
RTVSPost2010Prop45
280
     0
102
RTVSPost2010PropOp45
 70
     1
102
RTVSPost2010Prop46
 90
       50
102
RTVSPost2010PropOp46
 70
     1
102
RTVSPost2010Prop47
 90
       50
102
RTVSPost2010PropOp47
 70
     1
102
RTVSPost2010Prop48
 90
       50
102
RTVSPost2010PropOp48
 70
     1
102
RTVSPost2010Prop49
280
     0
102
RTVSPost2010PropOp49
 70
     1
102
RTVSPost2010Prop50
 90
       50
102
RTVSPost2010PropOp50
 70
     1
102
RTVSPost2010Prop51ColorIndex
 90
      256
102
RTVSPost2010Prop51ColorRGB
 90
-16777216
102
RTVSPost2010PropOp51
 70
     0
102
RTVSPost2010Prop52
140
1.0
102
RTVSPost2010PropOp52
 70
     0
102
RTVSPost2010Prop53
 90
        2
102
RTVSPost2010PropOp53
 70
     1
102
RTVSPost2010Prop54
  1
strokes_ogs.tif
102
RTVSPost2010PropOp54
 70
     1
102
RTVSPost2010Prop55
280
     0
102
RTVSPost2010PropOp55
 70
     1
102
RTVSPost2010Prop56
140
1.0
102
RTVSPost2010PropOp56
 70
     1
102
RTVSPost2010Prop57
140
1.0
102
RTVSPost2010PropOp57
 70
     1
  0
XRECORD
  5
11F
102
{ACAD_REACTORS
330
11E
102
}
330
11E
100
AcDbXrecord
280
     1
102
RTVSPost2010Prop28
280
     0
102
RTVSPost2010PropOp28
 70
     0
102
RTVSPost2010Prop29
280
     1
102
RTVSPost2010PropOp29
 70
     0
102
RTVSPost2010Prop30
280
     1
102
RTVSPost2010PropOp30
 70
     0
102
RTVSPost2010Prop31
280
     0
102
RTVSPost2010PropOp31
 70
     0
102
RTVSPost2010Prop32
280
     0
102
RTVSPost2010PropOp32
 70
     0
102
RTVSPost2010Prop33
280
     0
102
RTVSPost2010PropOp33
 70
     0
102
RTVSPost2010Prop34
280
     0
102
RTVSPost2010PropOp34
 70
     0
102
RTVSPost2010Prop35
280
     0
102
RTVSPost2010PropOp35
 70
     0
102
RTVSPost2010Prop36
280
     0
102
RTVSPost2010PropOp36
 70
     0
102
RTVSPost2010Prop37
 90
       50
102
RTVSPost2010PropOp37
 70
     0
102
RTVSPost2010Prop38
140
0.0
102
RTVSPost2010PropOp38
 70
     0
102
RTVSPost2010Prop39
140
1.0
102
RTVSPost2010PropOp39
 70
     0
102
RTVSPost2010Prop40
 90
        0
102
RTVSPost2010PropOp40
 70
     0
102
RTVSPost2010Prop41ColorIndex
 90
       18
102
RTVSPost2010Prop41ColorRGB
 90
        0
102
RTVSPost2010PropOp41
 70
     0
102
RTVSPost2010Prop42
 90
       50
102
RTVSPost2010PropOp42
 70
     0
102
RTVSPost2010Prop43
 90
        3
102
RTVSPost2010PropOp43
 70
     0
102
RTVSPost2010Prop44ColorIndex
 90
        5
102
RTVSPost2010Prop44ColorRGB
 90
      255
102
RTVSPost2010PropOp44
 70
     0
102
RTVSPost2010Prop45
280
     0
102
RTVSPost2010PropOp45
 70
     0
102
RTVSPost2010Prop46
 90
       50
102
RTVSPost2010PropOp46
 70
     0
102
RTVSPost2010Prop47
 90
       50
102
RTVSPost2010PropOp47
 70
     0
102
RTVSPost2010Prop48
 90
       50
102
RTVSPost2010PropOp48
 70
     0
102
RTVSPost2010Prop49
280
     0
102
RTVSPost2010PropOp49
 70
     0
102
RTVSPost2010Prop50
 90
       50
102
RTVSPost2010PropOp50
 70
     0
102
RTVSPost2010Prop51ColorIndex
 90
      256
102
RTVSPost2010Prop51ColorRGB
 90
-16777216
102
RTVSPost2010PropOp51
 70
     0
102
RTVSPost2010Prop52
140
1.0
102
RTVSPost2010PropOp52
 70
     0
102
RTVSPost2010Prop53
 90
        2
102
RTVSPost2010PropOp53
 70
     0
102
RTVSPost2010Prop54
  1
strokes_ogs.tif
102
RTVSPost2010PropOp54
 70
     0
102
RTVSPost2010Prop55
280
     0
102
RTVSPost2010PropOp55
 70
     0
102
RTVSPost2010Prop56
140
1.0
102
RTVSPost2010PropOp56
 70
     0
102
RTVSPost2010Prop57
140
1.0
102
RTVSPost2010PropOp57
 70
     0
  0
XRECORD
  5
10D
102
{ACAD_REACTORS
330
10C
102
}
330
10C
100
AcDbXrecord
280
     1
102
RTVSPost2010Prop28
280
     0
102
RTVSPost2010PropOp28
 70
     1
102
RTVSPost2010Prop29
280
     1
102
RTVSPost2010PropOp29
 70
     1
102
RTVSPost2010Prop30
280
     1
102
RTVSPost2010PropOp30
 70
     1
102
RTVSPost2010Prop31
280
     0
102
RTVSPost2010PropOp31
 70
     1
102
RTVSPost2010Prop32
280
     0
102
RTVSPost2010PropOp32
 70
     1
102
RTVSPost2010Prop33
280
     0
102
RTVSPost2010PropOp33
 70
     1
102
RTVSPost2010Prop34
280
     0
102
RTVSPost2010PropOp34
 70
     1
102
RTVSPost2010Prop35
280
     0
102
RTVSPost2010PropOp35
 70
     1
102
RTVSPost2010Prop36
280
     0
102
RTVSPost2010PropOp36
 70
     1
102
RTVSPost2010Prop37
 90
       50
102
RTVSPost2010PropOp37
 70
     1
102
RTVSPost2010Prop38
140
0.0
102
RTVSPost2010PropOp38
 70
     1
102
RTVSPost2010Prop39
140
1.0
102
RTVSPost2010PropOp39
 70
     1
102
RTVSPost2010Prop40
 90
        0
102
RTVSPost2010PropOp40
 70
     1
102
RTVSPost2010Prop41ColorIndex
 90
       18
102
RTVSPost2010Prop41ColorRGB
 90
        0
102
RTVSPost2010PropOp41
 70
     1
102
RTVSPost2010Prop42
 90
       50
102
RTVSPost2010PropOp42
 70
     1
102
RTVSPost2010Prop43
 90
        3
102
RTVSPost2010PropOp43
 70
     1
102
RTVSPost2010Prop44ColorIndex
 90
        5
102
RTVSPost2010Prop44ColorRGB
 90
      255
102
RTVSPost2010PropOp44
 70
     1
102
RTVSPost2010Prop45
280
     0
102
RTVSPost2010PropOp45
 70
     1
102
RTVSPost2010Prop46
 90
       50
102
RTVSPost2010PropOp46
 70
     1
102
RTVSPost2010Prop47
 90
       50
102
RTVSPost2010PropOp47
 70
     1
102
RTVSPost2010Prop48
 90
       50
102
RTVSPost2010PropOp48
 70
     1
102
RTVSPost2010Prop49
280
     0
102
RTVSPost2010PropOp49
 70
     1
102
RTVSPost2010Prop50
 90
       50
102
RTVSPost2010PropOp50
 70
     1
102
RTVSPost2010Prop51ColorIndex
 90
      256
102
RTVSPost2010Prop51ColorRGB
 90
-16777216
102
RTVSPost2010PropOp51
 70
     0
102
RTVSPost2010Prop52
140
1.0
102
RTVSPost2010PropOp52
 70
     0
102
RTVSPost2010Prop53
 90
        2
102
RTVSPost2010PropOp53
 70
     1
102
RTVSPost2010Prop54
  1
strokes_ogs.tif
102
RTVSPost2010PropOp54
 70
     1
102
RTVSPost2010Prop55
280
     0
102
RTVSPost2010PropOp55
 70
     1
102
RTVSPost2010Prop56
140
1.0
102
RTVSPost2010PropOp56
 70
     1
102
RTVSPost2010Prop57
140
1.0
102
RTVSPost2010PropOp57
 70
     1
  0
XRECORD
  5
F1
102
{ACAD_REACTORS
330
F0
102
}
330
F0
100
AcDbXrecord
280
     1
102
RTVSPost2010Prop28
280
     0
102
RTVSPost2010PropOp28
 70
     1
102
RTVSPost2010Prop29
280
     1
102
RTVSPost2010PropOp29
 70
     1
102
RTVSPost2010Prop30
280
     1
102
RTVSPost2010PropOp30
 70
     1
102
RTVSPost2010Prop31
280
     0
102
RTVSPost2010PropOp31
 70
     1
102
RTVSPost2010Prop32
280
     0
102
RTVSPost2010PropOp32
 70
     1
102
RTVSPost2010Prop33
280
     0
102
RTVSPost2010PropOp33
 70
     1
102
RTVSPost2010Prop34
280
     0
102
RTVSPost2010PropOp34
 70
     1
102
RTVSPost2010Prop35
280
     0
102
RTVSPost2010PropOp35
 70
     1
102
RTVSPost2010Prop36
280
     0
102
RTVSPost2010PropOp36
 70
     1
102
RTVSPost2010Prop37
 90
       50
102
RTVSPost2010PropOp37
 70
     1
102
RTVSPost2010Prop38
140
0.0
102
RTVSPost2010PropOp38
 70
     1
102
RTVSPost2010Prop39
140
1.0
102
RTVSPost2010PropOp39
 70
     1
102
RTVSPost2010Prop40
 90
        0
102
RTVSPost2010PropOp40
 70
     1
102
RTVSPost2010Prop41ColorIndex
 90
       18
102
RTVSPost2010Prop41ColorRGB
 90
        0
102
RTVSPost2010PropOp41
 70
     1
102
RTVSPost2010Prop42
 90
       50
102
RTVSPost2010PropOp42
 70
     1
102
RTVSPost2010Prop43
 90
        3
102
RTVSPost2010PropOp43
 70
     1
102
RTVSPost2010Prop44ColorIndex
 90
        5
102
RTVSPost2010Prop44ColorRGB
 90
      255
102
RTVSPost2010PropOp44
 70
     1
102
RTVSPost2010Prop45
280
     0
102
RTVSPost2010PropOp45
 70
     1
102
RTVSPost2010Prop46
 90
       50
102
RTVSPost2010PropOp46
 70
     1
102
RTVSPost2010Prop47
 90
       50
102
RTVSPost2010PropOp47
 70
     1
102
RTVSPost2010Prop48
 90
       50
102
RTVSPost2010PropOp48
 70
     1
102
RTVSPost2010Prop49
280
     0
102
RTVSPost2010PropOp49
 70
     1
102
RTVSPost2010Prop50
 90
       50
102
RTVSPost2010PropOp50
 70
     1
102
RTVSPost2010Prop51ColorIndex
 90
      256
102
RTVSPost2010Prop51ColorRGB
 90
-16777216
102
RTVSPost2010PropOp51
 70
     0
102
RTVSPost2010Prop52
140
1.0
102
RTVSPost2010PropOp52
 70
     0
102
RTVSPost2010Prop53
 90
        2
102
RTVSPost2010PropOp53
 70
     1
102
RTVSPost2010Prop54
  1
strokes_ogs.tif
102
RTVSPost2010PropOp54
 70
     1
102
RTVSPost2010Prop55
280
     0
102
RTVSPost2010PropOp55
 70
     1
102
RTVSPost2010Prop56
140
1.0
102
RTVSPost2010PropOp56
 70
     1
102
RTVSPost2010Prop57
140
1.0
102
RTVSPost2010PropOp57
 70
     1
  0
XRECORD
  5
F3
102
{ACAD_REACTORS
330
F2
102
}
330
F2
100
AcDbXrecord
280
     1
102
RTVSPost2010Prop28
280
     0
102
RTVSPost2010PropOp28
 70
     1
102
RTVSPost2010Prop29
280
     1
102
RTVSPost2010PropOp29
 70
     1
102
RTVSPost2010Prop30
280
     1
102
RTVSPost2010PropOp30
 70
     1
102
RTVSPost2010Prop31
280
     0
102
RTVSPost2010PropOp31
 70
     1
102
RTVSPost2010Prop32
280
     0
102
RTVSPost2010PropOp32
 70
     1
102
RTVSPost2010Prop33
280
     0
102
RTVSPost2010PropOp33
 70
     1
102
RTVSPost2010Prop34
280
     0
102
RTVSPost2010PropOp34
 70
     1
102
RTVSPost2010Prop35
280
     0
102
RTVSPost2010PropOp35
 70
     1
102
RTVSPost2010Prop36
280
     0
102
RTVSPost2010PropOp36
 70
     1
102
RTVSPost2010Prop37
 90
       50
102
RTVSPost2010PropOp37
 70
     1
102
RTVSPost2010Prop38
140
0.0
102
RTVSPost2010PropOp38
 70
     1
102
RTVSPost2010Prop39
140
1.0
102
RTVSPost2010PropOp39
 70
     1
102
RTVSPost2010Prop40
 90
        0
102
RTVSPost2010PropOp40
 70
     1
102
RTVSPost2010Prop41ColorIndex
 90
       18
102
RTVSPost2010Prop41ColorRGB
 90
        0
102
RTVSPost2010PropOp41
 70
     1
102
RTVSPost2010Prop42
 90
       50
102
RTVSPost2010PropOp42
 70
     1
102
RTVSPost2010Prop43
 90
        3
102
RTVSPost2010PropOp43
 70
     1
102
RTVSPost2010Prop44ColorIndex
 90
        5
102
RTVSPost2010Prop44ColorRGB
 90
      255
102
RTVSPost2010PropOp44
 70
     1
102
RTVSPost2010Prop45
280
     0
102
RTVSPost2010PropOp45
 70
     1
102
RTVSPost2010Prop46
 90
       50
102
RTVSPost2010PropOp46
 70
     1
102
RTVSPost2010Prop47
 90
       50
102
RTVSPost2010PropOp47
 70
     1
102
RTVSPost2010Prop48
 90
       50
102
RTVSPost2010PropOp48
 70
     1
102
RTVSPost2010Prop49
280
     0
102
RTVSPost2010PropOp49
 70
     1
102
RTVSPost2010Prop50
 90
       50
102
RTVSPost2010PropOp50
 70
     1
102
RTVSPost2010Prop51ColorIndex
 90
      256
102
RTVSPost2010Prop51ColorRGB
 90
-16777216
102
RTVSPost2010PropOp51
 70
     0
102
RTVSPost2010Prop52
140
1.0
102
RTVSPost2010PropOp52
 70
     0
102
RTVSPost2010Prop53
 90
        2
102
RTVSPost2010PropOp53
 70
     1
102
RTVSPost2010Prop54
  1
strokes_ogs.tif
102
RTVSPost2010PropOp54
 70
     1
102
RTVSPost2010Prop55
280
     0
102
RTVSPost2010PropOp55
 70
     1
102
RTVSPost2010Prop56
140
1.0
102
RTVSPost2010PropOp56
 70
     1
102
RTVSPost2010Prop57
140
1.0
102
RTVSPost2010PropOp57
 70
     1
  0
XRECORD
  5
F5
102
{ACAD_REACTORS
330
F4
102
}
330
F4
100
AcDbXrecord
280
     1
102
RTVSPost2010Prop28
280
     0
102
RTVSPost2010PropOp28
 70
     1
102
RTVSPost2010Prop29
280
     1
102
RTVSPost2010PropOp29
 70
     1
102
RTVSPost2010Prop30
280
     1
102
RTVSPost2010PropOp30
 70
     1
102
RTVSPost2010Prop31
280
     0
102
RTVSPost2010PropOp31
 70
     1
102
RTVSPost2010Prop32
280
     0
102
RTVSPost2010PropOp32
 70
     1
102
RTVSPost2010Prop33
280
     0
102
RTVSPost2010PropOp33
 70
     1
102
RTVSPost2010Prop34
280
     0
102
RTVSPost2010PropOp34
 70
     1
102
RTVSPost2010Prop35
280
     0
102
RTVSPost2010PropOp35
 70
     1
102
RTVSPost2010Prop36
280
     0
102
RTVSPost2010PropOp36
 70
     1
102
RTVSPost2010Prop37
 90
       50
102
RTVSPost2010PropOp37
 70
     1
102
RTVSPost2010Prop38
140
0.0
102
RTVSPost2010PropOp38
 70
     1
102
RTVSPost2010Prop39
140
1.0
102
RTVSPost2010PropOp39
 70
     1
102
RTVSPost2010Prop40
 90
        0
102
RTVSPost2010PropOp40
 70
     1
102
RTVSPost2010Prop41ColorIndex
 90
       18
102
RTVSPost2010Prop41ColorRGB
 90
        0
102
RTVSPost2010PropOp41
 70
     1
102
RTVSPost2010Prop42
 90
       50
102
RTVSPost2010PropOp42
 70
     1
102
RTVSPost2010Prop43
 90
        3
102
RTVSPost2010PropOp43
 70
     1
102
RTVSPost2010Prop44ColorIndex
 90
        5
102
RTVSPost2010Prop44ColorRGB
 90
      255
102
RTVSPost2010PropOp44
 70
     1
102
RTVSPost2010Prop45
280
     0
102
RTVSPost2010PropOp45
 70
     1
102
RTVSPost2010Prop46
 90
       50
102
RTVSPost2010PropOp46
 70
     1
102
RTVSPost2010Prop47
 90
       50
102
RTVSPost2010PropOp47
 70
     1
102
RTVSPost2010Prop48
 90
       50
102
RTVSPost2010PropOp48
 70
     1
102
RTVSPost2010Prop49
280
     0
102
RTVSPost2010PropOp49
 70
     1
102
RTVSPost2010Prop50
 90
       50
102
RTVSPost2010PropOp50
 70
     1
102
RTVSPost2010Prop51ColorIndex
 90
      256
102
RTVSPost2010Prop51ColorRGB
 90
-16777216
102
RTVSPost2010PropOp51
 70
     0
102
RTVSPost2010Prop52
140
1.0
102
RTVSPost2010PropOp52
 70
     0
102
RTVSPost2010Prop53
 90
        2
102
RTVSPost2010PropOp53
 70
     1
102
RTVSPost2010Prop54
  1
strokes_ogs.tif
102
RTVSPost2010PropOp54
 70
     1
102
RTVSPost2010Prop55
280
     0
102
RTVSPost2010PropOp55
 70
     1
102
RTVSPost2010Prop56
140
1.0
102
RTVSPost2010PropOp56
 70
     1
102
RTVSPost2010Prop57
140
1.0
102
RTVSPost2010PropOp57
 70
     1
  0
XRECORD
  5
F7
102
{ACAD_REACTORS
330
F6
102
}
330
F6
100
AcDbXrecord
280
     1
102
RTVSPost2010Prop28
280
     0
102
RTVSPost2010PropOp28
 70
     1
102
RTVSPost2010Prop29
280
     1
102
RTVSPost2010PropOp29
 70
     1
102
RTVSPost2010Prop30
280
     1
102
RTVSPost2010PropOp30
 70
     1
102
RTVSPost2010Prop31
280
     0
102
RTVSPost2010PropOp31
 70
     1
102
RTVSPost2010Prop32
280
     0
102
RTVSPost2010PropOp32
 70
     1
102
RTVSPost2010Prop33
280
     0
102
RTVSPost2010PropOp33
 70
     1
102
RTVSPost2010Prop34
280
     0
102
RTVSPost2010PropOp34
 70
     1
102
RTVSPost2010Prop35
280
     0
102
RTVSPost2010PropOp35
 70
     1
102
RTVSPost2010Prop36
280
     0
102
RTVSPost2010PropOp36
 70
     1
102
RTVSPost2010Prop37
 90
       50
102
RTVSPost2010PropOp37
 70
     1
102
RTVSPost2010Prop38
140
0.0
102
RTVSPost2010PropOp38
 70
     1
102
RTVSPost2010Prop39
140
1.0
102
RTVSPost2010PropOp39
 70
     1
102
RTVSPost2010Prop40
 90
        0
102
RTVSPost2010PropOp40
 70
     1
102
RTVSPost2010Prop41ColorIndex
 90
       18
102
RTVSPost2010Prop41ColorRGB
 90
        0
102
RTVSPost2010PropOp41
 70
     1
102
RTVSPost2010Prop42
 90
       50
102
RTVSPost2010PropOp42
 70
     1
102
RTVSPost2010Prop43
 90
        3
102
RTVSPost2010PropOp43
 70
     1
102
RTVSPost2010Prop44ColorIndex
 90
        5
102
RTVSPost2010Prop44ColorRGB
 90
      255
102
RTVSPost2010PropOp44
 70
     1
102
RTVSPost2010Prop45
280
     0
102
RTVSPost2010PropOp45
 70
     1
102
RTVSPost2010Prop46
 90
       50
102
RTVSPost2010PropOp46
 70
     1
102
RTVSPost2010Prop47
 90
       50
102
RTVSPost2010PropOp47
 70
     1
102
RTVSPost2010Prop48
 90
       50
102
RTVSPost2010PropOp48
 70
     1
102
RTVSPost2010Prop49
280
     0
102
RTVSPost2010PropOp49
 70
     1
102
RTVSPost2010Prop50
 90
       50
102
RTVSPost2010PropOp50
 70
     1
102
RTVSPost2010Prop51ColorIndex
 90
      256
102
RTVSPost2010Prop51ColorRGB
 90
-16777216
102
RTVSPost2010PropOp51
 70
     0
102
RTVSPost2010Prop52
140
1.0
102
RTVSPost2010PropOp52
 70
     0
102
RTVSPost2010Prop53
 90
        2
102
RTVSPost2010PropOp53
 70
     1
102
RTVSPost2010Prop54
  1
strokes_ogs.tif
102
RTVSPost2010PropOp54
 70
     1
102
RTVSPost2010Prop55
280
     0
102
RTVSPost2010PropOp55
 70
     1
102
RTVSPost2010Prop56
140
1.0
102
RTVSPost2010PropOp56
 70
     1
102
RTVSPost2010Prop57
140
1.0
102
RTVSPost2010PropOp57
 70
     1
  0
XRECORD
  5
FF
102
{ACAD_REACTORS
330
FE
102
}
330
FE
100
AcDbXrecord
280
     1
102
RTVSPost2010Prop28
280
     0
102
RTVSPost2010PropOp28
 70
     1
102
RTVSPost2010Prop29
280
     1
102
RTVSPost2010PropOp29
 70
     1
102
RTVSPost2010Prop30
280
     1
102
RTVSPost2010PropOp30
 70
     1
102
RTVSPost2010Prop31
280
     0
102
RTVSPost2010PropOp31
 70
     1
102
RTVSPost2010Prop32
280
     0
102
RTVSPost2010PropOp32
 70
     1
102
RTVSPost2010Prop33
280
     0
102
RTVSPost2010PropOp33
 70
     1
102
RTVSPost2010Prop34
280
     0
102
RTVSPost2010PropOp34
 70
     1
102
RTVSPost2010Prop35
280
     0
102
RTVSPost2010PropOp35
 70
     1
102
RTVSPost2010Prop36
280
     0
102
RTVSPost2010PropOp36
 70
     1
102
RTVSPost2010Prop37
 90
       50
102
RTVSPost2010PropOp37
 70
     1
102
RTVSPost2010Prop38
140
0.0
102
RTVSPost2010PropOp38
 70
     1
102
RTVSPost2010Prop39
140
1.0
102
RTVSPost2010PropOp39
 70
     1
102
RTVSPost2010Prop40
 90
        0
102
RTVSPost2010PropOp40
 70
     1
102
RTVSPost2010Prop41ColorIndex
 90
       18
102
RTVSPost2010Prop41ColorRGB
 90
        0
102
RTVSPost2010PropOp41
 70
     1
102
RTVSPost2010Prop42
 90
       50
102
RTVSPost2010PropOp42
 70
     1
102
RTVSPost2010Prop43
 90
        3
102
RTVSPost2010PropOp43
 70
     1
102
RTVSPost2010Prop44ColorIndex
 90
        5
102
RTVSPost2010Prop44ColorRGB
 90
      255
102
RTVSPost2010PropOp44
 70
     1
102
RTVSPost2010Prop45
280
     0
102
RTVSPost2010PropOp45
 70
     1
102
RTVSPost2010Prop46
 90
       50
102
RTVSPost2010PropOp46
 70
     1
102
RTVSPost2010Prop47
 90
       50
102
RTVSPost2010PropOp47
 70
     1
102
RTVSPost2010Prop48
 90
       50
102
RTVSPost2010PropOp48
 70
     1
102
RTVSPost2010Prop49
280
     0
102
RTVSPost2010PropOp49
 70
     1
102
RTVSPost2010Prop50
 90
       50
102
RTVSPost2010PropOp50
 70
     1
102
RTVSPost2010Prop51ColorIndex
 90
      256
102
RTVSPost2010Prop51ColorRGB
 90
-16777216
102
RTVSPost2010PropOp51
 70
     0
102
RTVSPost2010Prop52
140
1.0
102
RTVSPost2010PropOp52
 70
     0
102
RTVSPost2010Prop53
 90
        2
102
RTVSPost2010PropOp53
 70
     1
102
RTVSPost2010Prop54
  1
strokes_ogs.tif
102
RTVSPost2010PropOp54
 70
     1
102
RTVSPost2010Prop55
280
     0
102
RTVSPost2010PropOp55
 70
     1
102
RTVSPost2010Prop56
140
1.0
102
RTVSPost2010PropOp56
 70
     1
102
RTVSPost2010Prop57
140
1.0
102
RTVSPost2010PropOp57
 70
     1
  0
XRECORD
  5
11B
102
{ACAD_REACTORS
330
11A
102
}
330
11A
100
AcDbXrecord
280
     1
102
RTVSPost2010Prop28
280
     0
102
RTVSPost2010PropOp28
 70
     0
102
RTVSPost2010Prop29
280
     1
102
RTVSPost2010PropOp29
 70
     0
102
RTVSPost2010Prop30
280
     1
102
RTVSPost2010PropOp30
 70
     0
102
RTVSPost2010Prop31
280
     0
102
RTVSPost2010PropOp31
 70
     0
102
RTVSPost2010Prop32
280
     0
102
RTVSPost2010PropOp32
 70
     0
102
RTVSPost2010Prop33
280
     0
102
RTVSPost2010PropOp33
 70
     0
102
RTVSPost2010Prop34
280
     0
102
RTVSPost2010PropOp34
 70
     0
102
RTVSPost2010Prop35
280
     0
102
RTVSPost2010PropOp35
 70
     0
102
RTVSPost2010Prop36
280
     0
102
RTVSPost2010PropOp36
 70
     0
102
RTVSPost2010Prop37
 90
       50
102
RTVSPost2010PropOp37
 70
     0
102
RTVSPost2010Prop38
140
0.0
102
RTVSPost2010PropOp38
 70
     0
102
RTVSPost2010Prop39
140
1.0
102
RTVSPost2010PropOp39
 70
     0
102
RTVSPost2010Prop40
 90
        0
102
RTVSPost2010PropOp40
 70
     0
102
RTVSPost2010Prop41ColorIndex
 90
       18
102
RTVSPost2010Prop41ColorRGB
 90
        0
102
RTVSPost2010PropOp41
 70
     0
102
RTVSPost2010Prop42
 90
       50
102
RTVSPost2010PropOp42
 70
     0
102
RTVSPost2010Prop43
 90
        3
102
RTVSPost2010PropOp43
 70
     0
102
RTVSPost2010Prop44ColorIndex
 90
        5
102
RTVSPost2010Prop44ColorRGB
 90
      255
102
RTVSPost2010PropOp44
 70
     0
102
RTVSPost2010Prop45
280
     0
102
RTVSPost2010PropOp45
 70
     0
102
RTVSPost2010Prop46
 90
       50
102
RTVSPost2010PropOp46
 70
     0
102
RTVSPost2010Prop47
 90
       50
102
RTVSPost2010PropOp47
 70
     0
102
RTVSPost2010Prop48
 90
       50
102
RTVSPost2010PropOp48
 70
     0
102
RTVSPost2010Prop49
280
     0
102
RTVSPost2010PropOp49
 70
     0
102
RTVSPost2010Prop50
 90
       50
102
RTVSPost2010PropOp50
 70
     0
102
RTVSPost2010Prop51ColorIndex
 90
      256
102
RTVSPost2010Prop51ColorRGB
 90
-16777216
102
RTVSPost2010PropOp51
 70
     0
102
RTVSPost2010Prop52
140
1.0
102
RTVSPost2010PropOp52
 70
     0
102
RTVSPost2010Prop53
 90
        2
102
RTVSPost2010PropOp53
 70
     0
102
RTVSPost2010Prop54
  1
strokes_ogs.tif
102
RTVSPost2010PropOp54
 70
     0
102
RTVSPost2010Prop55
280
     0
102
RTVSPost2010PropOp55
 70
     0
102
RTVSPost2010Prop56
140
1.0
102
RTVSPost2010PropOp56
 70
     0
102
RTVSPost2010Prop57
140
1.0
102
RTVSPost2010PropOp57
 70
     0
  0
XRECORD
  5
10B
102
{ACAD_REACTORS
330
10A
102
}
330
10A
100
AcDbXrecord
280
     1
102
RTVSPost2010Prop28
280
     0
102
RTVSPost2010PropOp28
 70
     1
102
RTVSPost2010Prop29
280
     1
102
RTVSPost2010PropOp29
 70
     1
102
RTVSPost2010Prop30
280
     1
102
RTVSPost2010PropOp30
 70
     1
102
RTVSPost2010Prop31
280
     0
102
RTVSPost2010PropOp31
 70
     1
102
RTVSPost2010Prop32
280
     0
102
RTVSPost2010PropOp32
 70
     1
102
RTVSPost2010Prop33
280
     0
102
RTVSPost2010PropOp33
 70
     1
102
RTVSPost2010Prop34
280
     0
102
RTVSPost2010PropOp34
 70
     1
102
RTVSPost2010Prop35
280
     0
102
RTVSPost2010PropOp35
 70
     1
102
RTVSPost2010Prop36
280
     0
102
RTVSPost2010PropOp36
 70
     1
102
RTVSPost2010Prop37
 90
       50
102
RTVSPost2010PropOp37
 70
     1
102
RTVSPost2010Prop38
140
0.0
102
RTVSPost2010PropOp38
 70
     1
102
RTVSPost2010Prop39
140
1.0
102
RTVSPost2010PropOp39
 70
     1
102
RTVSPost2010Prop40
 90
        0
102
RTVSPost2010PropOp40
 70
     1
102
RTVSPost2010Prop41ColorIndex
 90
       18
102
RTVSPost2010Prop41ColorRGB
 90
        0
102
RTVSPost2010PropOp41
 70
     1
102
RTVSPost2010Prop42
 90
       50
102
RTVSPost2010PropOp42
 70
     1
102
RTVSPost2010Prop43
 90
        3
102
RTVSPost2010PropOp43
 70
     1
102
RTVSPost2010Prop44ColorIndex
 90
        5
102
RTVSPost2010Prop44ColorRGB
 90
      255
102
RTVSPost2010PropOp44
 70
     1
102
RTVSPost2010Prop45
280
     0
102
RTVSPost2010PropOp45
 70
     1
102
RTVSPost2010Prop46
 90
       50
102
RTVSPost2010PropOp46
 70
     1
102
RTVSPost2010Prop47
 90
       50
102
RTVSPost2010PropOp47
 70
     1
102
RTVSPost2010Prop48
 90
       50
102
RTVSPost2010PropOp48
 70
     1
102
RTVSPost2010Prop49
280
     0
102
RTVSPost2010PropOp49
 70
     1
102
RTVSPost2010Prop50
 90
       50
102
RTVSPost2010PropOp50
 70
     1
102
RTVSPost2010Prop51ColorIndex
 90
      256
102
RTVSPost2010Prop51ColorRGB
 90
-16777216
102
RTVSPost2010PropOp51
 70
     0
102
RTVSPost2010Prop52
140
1.0
102
RTVSPost2010PropOp52
 70
     0
102
RTVSPost2010Prop53
 90
        2
102
RTVSPost2010PropOp53
 70
     1
102
RTVSPost2010Prop54
  1
strokes_ogs.tif
102
RTVSPost2010PropOp54
 70
     1
102
RTVSPost2010Prop55
280
     0
102
RTVSPost2010PropOp55
 70
     1
102
RTVSPost2010Prop56
140
1.0
102
RTVSPost2010PropOp56
 70
     1
102
RTVSPost2010Prop57
140
1.0
102
RTVSPost2010PropOp57
 70
     1
  0
XRECORD
  5
11D
102
{ACAD_REACTORS
330
11C
102
}
330
11C
100
AcDbXrecord
280
     1
102
RTVSPost2010Prop28
280
     0
102
RTVSPost2010PropOp28
 70
     0
102
RTVSPost2010Prop29
280
     1
102
RTVSPost2010PropOp29
 70
     0
102
RTVSPost2010Prop30
280
     1
102
RTVSPost2010PropOp30
 70
     0
102
RTVSPost2010Prop31
280
     0
102
RTVSPost2010PropOp31
 70
     0
102
RTVSPost2010Prop32
280
     0
102
RTVSPost2010PropOp32
 70
     0
102
RTVSPost2010Prop33
280
     0
102
RTVSPost2010PropOp33
 70
     0
102
RTVSPost2010Prop34
280
     0
102
RTVSPost2010PropOp34
 70
     0
102
RTVSPost2010Prop35
280
     0
102
RTVSPost2010PropOp35
 70
     0
102
RTVSPost2010Prop36
280
     0
102
RTVSPost2010PropOp36
 70
     0
102
RTVSPost2010Prop37
 90
       50
102
RTVSPost2010PropOp37
 70
     0
102
RTVSPost2010Prop38
140
0.0
102
RTVSPost2010PropOp38
 70
     0
102
RTVSPost2010Prop39
140
1.0
102
RTVSPost2010PropOp39
 70
     0
102
RTVSPost2010Prop40
 90
        0
102
RTVSPost2010PropOp40
 70
     0
102
RTVSPost2010Prop41ColorIndex
 90
       18
102
RTVSPost2010Prop41ColorRGB
 90
        0
102
RTVSPost2010PropOp41
 70
     0
102
RTVSPost2010Prop42
 90
       50
102
RTVSPost2010PropOp42
 70
     0
102
RTVSPost2010Prop43
 90
        3
102
RTVSPost2010PropOp43
 70
     0
102
RTVSPost2010Prop44ColorIndex
 90
        5
102
RTVSPost2010Prop44ColorRGB
 90
      255
102
RTVSPost2010PropOp44
 70
     0
102
RTVSPost2010Prop45
280
     0
102
RTVSPost2010PropOp45
 70
     0
102
RTVSPost2010Prop46
 90
       50
102
RTVSPost2010PropOp46
 70
     0
102
RTVSPost2010Prop47
 90
       50
102
RTVSPost2010PropOp47
 70
     0
102
RTVSPost2010Prop48
 90
       50
102
RTVSPost2010PropOp48
 70
     0
102
RTVSPost2010Prop49
280
     0
102
RTVSPost2010PropOp49
 70
     0
102
RTVSPost2010Prop50
 90
       50
102
RTVSPost2010PropOp50
 70
     0
102
RTVSPost2010Prop51ColorIndex
 90
      256
102
RTVSPost2010Prop51ColorRGB
 90
-16777216
102
RTVSPost2010PropOp51
 70
     0
102
RTVSPost2010Prop52
140
1.0
102
RTVSPost2010PropOp52
 70
     0
102
RTVSPost2010Prop53
 90
        2
102
RTVSPost2010PropOp53
 70
     0
102
RTVSPost2010Prop54
  1
strokes_ogs.tif
102
RTVSPost2010PropOp54
 70
     0
102
RTVSPost2010Prop55
280
     0
102
RTVSPost2010PropOp55
 70
     0
102
RTVSPost2010Prop56
140
1.0
102
RTVSPost2010PropOp56
 70
     0
102
RTVSPost2010Prop57
140
1.0
102
RTVSPost2010PropOp57
 70
     0
  0
XRECORD
  5
103
102
{ACAD_REACTORS
330
102
102
}
330
102
100
AcDbXrecord
280
     1
102
RTVSPost2010Prop28
280
     0
102
RTVSPost2010PropOp28
 70
     1
102
RTVSPost2010Prop29
280
     1
102
RTVSPost2010PropOp29
 70
     1
102
RTVSPost2010Prop30
280
     1
102
RTVSPost2010PropOp30
 70
     1
102
RTVSPost2010Prop31
280
     0
102
RTVSPost2010PropOp31
 70
     1
102
RTVSPost2010Prop32
280
     0
102
RTVSPost2010PropOp32
 70
     1
102
RTVSPost2010Prop33
280
     0
102
RTVSPost2010PropOp33
 70
     1
102
RTVSPost2010Prop34
280
     0
102
RTVSPost2010PropOp34
 70
     1
102
RTVSPost2010Prop35
280
     0
102
RTVSPost2010PropOp35
 70
     1
102
RTVSPost2010Prop36
280
     0
102
RTVSPost2010PropOp36
 70
     1
102
RTVSPost2010Prop37
 90
       50
102
RTVSPost2010PropOp37
 70
     1
102
RTVSPost2010Prop38
140
0.0
102
RTVSPost2010PropOp38
 70
     1
102
RTVSPost2010Prop39
140
1.0
102
RTVSPost2010PropOp39
 70
     1
102
RTVSPost2010Prop40
 90
        0
102
RTVSPost2010PropOp40
 70
     1
102
RTVSPost2010Prop41ColorIndex
 90
       18
102
RTVSPost2010Prop41ColorRGB
 90
        0
102
RTVSPost2010PropOp41
 70
     1
102
RTVSPost2010Prop42
 90
       50
102
RTVSPost2010PropOp42
 70
     1
102
RTVSPost2010Prop43
 90
        3
102
RTVSPost2010PropOp43
 70
     1
102
RTVSPost2010Prop44ColorIndex
 90
        5
102
RTVSPost2010Prop44ColorRGB
 90
      255
102
RTVSPost2010PropOp44
 70
     1
102
RTVSPost2010Prop45
280
     0
102
RTVSPost2010PropOp45
 70
     1
102
RTVSPost2010Prop46
 90
       50
102
RTVSPost2010PropOp46
 70
     1
102
RTVSPost2010Prop47
 90
       50
102
RTVSPost2010PropOp47
 70
     1
102
RTVSPost2010Prop48
 90
       50
102
RTVSPost2010PropOp48
 70
     1
102
RTVSPost2010Prop49
280
     0
102
RTVSPost2010PropOp49
 70
     1
102
RTVSPost2010Prop50
 90
       50
102
RTVSPost2010PropOp50
 70
     1
102
RTVSPost2010Prop51ColorIndex
 90
      256
102
RTVSPost2010Prop51ColorRGB
 90
-16777216
102
RTVSPost2010PropOp51
 70
     0
102
RTVSPost2010Prop52
140
1.0
102
RTVSPost2010PropOp52
 70
     0
102
RTVSPost2010Prop53
 90
        2
102
RTVSPost2010PropOp53
 70
     1
102
RTVSPost2010Prop54
  1
strokes_ogs.tif
102
RTVSPost2010PropOp54
 70
     1
102
RTVSPost2010Prop55
280
     0
102
RTVSPost2010PropOp55
 70
     1
102
RTVSPost2010Prop56
140
1.0
102
RTVSPost2010PropOp56
 70
     1
102
RTVSPost2010Prop57
140
1.0
102
RTVSPost2010PropOp57
 70
     1
  0
XRECORD
  5
119
102
{ACAD_REACTORS
330
118
102
}
330
118
100
AcDbXrecord
280
     1
102
RTVSPost2010Prop28
280
     0
102
RTVSPost2010PropOp28
 70
     1
102
RTVSPost2010Prop29
280
     1
102
RTVSPost2010PropOp29
 70
     1
102
RTVSPost2010Prop30
280
     1
102
RTVSPost2010PropOp30
 70
     1
102
RTVSPost2010Prop31
280
     0
102
RTVSPost2010PropOp31
 70
     1
102
RTVSPost2010Prop32
280
     0
102
RTVSPost2010PropOp32
 70
     1
102
RTVSPost2010Prop33
280
     0
102
RTVSPost2010PropOp33
 70
     1
102
RTVSPost2010Prop34
280
     0
102
RTVSPost2010PropOp34
 70
     1
102
RTVSPost2010Prop35
280
     0
102
RTVSPost2010PropOp35
 70
     1
102
RTVSPost2010Prop36
280
     0
102
RTVSPost2010PropOp36
 70
     1
102
RTVSPost2010Prop37
 90
       50
102
RTVSPost2010PropOp37
 70
     1
102
RTVSPost2010Prop38
140
0.0
102
RTVSPost2010PropOp38
 70
     1
102
RTVSPost2010Prop39
140
1.0
102
RTVSPost2010PropOp39
 70
     1
102
RTVSPost2010Prop40
 90
        0
102
RTVSPost2010PropOp40
 70
     1
102
RTVSPost2010Prop41ColorIndex
 90
       18
102
RTVSPost2010Prop41ColorRGB
 90
        0
102
RTVSPost2010PropOp41
 70
     1
102
RTVSPost2010Prop42
 90
       50
102
RTVSPost2010PropOp42
 70
     1
102
RTVSPost2010Prop43
 90
        3
102
RTVSPost2010PropOp43
 70
     1
102
RTVSPost2010Prop44ColorIndex
 90
        5
102
RTVSPost2010Prop44ColorRGB
 90
      255
102
RTVSPost2010PropOp44
 70
     1
102
RTVSPost2010Prop45
280
     0
102
RTVSPost2010PropOp45
 70
     1
102
RTVSPost2010Prop46
 90
       50
102
RTVSPost2010PropOp46
 70
     1
102
RTVSPost2010Prop47
 90
       50
102
RTVSPost2010PropOp47
 70
     1
102
RTVSPost2010Prop48
 90
       50
102
RTVSPost2010PropOp48
 70
     1
102
RTVSPost2010Prop49
280
     0
102
RTVSPost2010PropOp49
 70
     1
102
RTVSPost2010Prop50
 90
       50
102
RTVSPost2010PropOp50
 70
     1
102
RTVSPost2010Prop51ColorIndex
 90
      256
102
RTVSPost2010Prop51ColorRGB
 90
-16777216
102
RTVSPost2010PropOp51
 70
     0
102
RTVSPost2010Prop52
140
1.0
102
RTVSPost2010PropOp52
 70
     0
102
RTVSPost2010Prop53
 90
        2
102
RTVSPost2010PropOp53
 70
     1
102
RTVSPost2010Prop54
  1
strokes_ogs.tif
102
RTVSPost2010PropOp54
 70
     1
102
RTVSPost2010Prop55
280
     0
102
RTVSPost2010PropOp55
 70
     1
102
RTVSPost2010Prop56
140
1.0
102
RTVSPost2010PropOp56
 70
     1
102
RTVSPost2010Prop57
140
1.0
102
RTVSPost2010PropOp57
 70
     1
  0
XRECORD
  5
117
102
{ACAD_REACTORS
330
116
102
}
330
116
100
AcDbXrecord
280
     1
102
RTVSPost2010Prop28
280
     0
102
RTVSPost2010PropOp28
 70
     1
102
RTVSPost2010Prop29
280
     1
102
RTVSPost2010PropOp29
 70
     1
102
RTVSPost2010Prop30
280
     1
102
RTVSPost2010PropOp30
 70
     1
102
RTVSPost2010Prop31
280
     0
102
RTVSPost2010PropOp31
 70
     1
102
RTVSPost2010Prop32
280
     0
102
RTVSPost2010PropOp32
 70
     1
102
RTVSPost2010Prop33
280
     0
102
RTVSPost2010PropOp33
 70
     1
102
RTVSPost2010Prop34
280
     0
102
RTVSPost2010PropOp34
 70
     1
102
RTVSPost2010Prop35
280
     0
102
RTVSPost2010PropOp35
 70
     1
102
RTVSPost2010Prop36
280
     0
102
RTVSPost2010PropOp36
 70
     1
102
RTVSPost2010Prop37
 90
       50
102
RTVSPost2010PropOp37
 70
     1
102
RTVSPost2010Prop38
140
0.0
102
RTVSPost2010PropOp38
 70
     1
102
RTVSPost2010Prop39
140
1.0
102
RTVSPost2010PropOp39
 70
     1
102
RTVSPost2010Prop40
 90
        0
102
RTVSPost2010PropOp40
 70
     1
102
RTVSPost2010Prop41ColorIndex
 90
       18
102
RTVSPost2010Prop41ColorRGB
 90
        0
102
RTVSPost2010PropOp41
 70
     1
102
RTVSPost2010Prop42
 90
       50
102
RTVSPost2010PropOp42
 70
     1
102
RTVSPost2010Prop43
 90
        3
102
RTVSPost2010PropOp43
 70
     1
102
RTVSPost2010Prop44ColorIndex
 90
        5
102
RTVSPost2010Prop44ColorRGB
 90
      255
102
RTVSPost2010PropOp44
 70
     1
102
RTVSPost2010Prop45
280
     0
102
RTVSPost2010PropOp45
 70
     1
102
RTVSPost2010Prop46
 90
       50
102
RTVSPost2010PropOp46
 70
     1
102
RTVSPost2010Prop47
 90
       50
102
RTVSPost2010PropOp47
 70
     1
102
RTVSPost2010Prop48
 90
       50
102
RTVSPost2010PropOp48
 70
     1
102
RTVSPost2010Prop49
280
     0
102
RTVSPost2010PropOp49
 70
     1
102
RTVSPost2010Prop50
 90
       50
102
RTVSPost2010PropOp50
 70
     1
102
RTVSPost2010Prop51ColorIndex
 90
      256
102
RTVSPost2010Prop51ColorRGB
 90
-16777216
102
RTVSPost2010PropOp51
 70
     0
102
RTVSPost2010Prop52
140
1.0
102
RTVSPost2010PropOp52
 70
     0
102
RTVSPost2010Prop53
 90
        2
102
RTVSPost2010PropOp53
 70
     1
102
RTVSPost2010Prop54
  1
strokes_ogs.tif
102
RTVSPost2010PropOp54
 70
     1
102
RTVSPost2010Prop55
280
     0
102
RTVSPost2010PropOp55
 70
     1
102
RTVSPost2010Prop56
140
1.0
102
RTVSPost2010PropOp56
 70
     1
102
RTVSPost2010Prop57
140
1.0
102
RTVSPost2010PropOp57
 70
     1
  0
XRECORD
  5
111
102
{ACAD_REACTORS
330
110
102
}
330
110
100
AcDbXrecord
280
     1
102
RTVSPost2010Prop28
280
     0
102
RTVSPost2010PropOp28
 70
     1
102
RTVSPost2010Prop29
280
     1
102
RTVSPost2010PropOp29
 70
     1
102
RTVSPost2010Prop30
280
     1
102
RTVSPost2010PropOp30
 70
     1
102
RTVSPost2010Prop31
280
     0
102
RTVSPost2010PropOp31
 70
     1
102
RTVSPost2010Prop32
280
     0
102
RTVSPost2010PropOp32
 70
     1
102
RTVSPost2010Prop33
280
     0
102
RTVSPost2010PropOp33
 70
     1
102
RTVSPost2010Prop34
280
     0
102
RTVSPost2010PropOp34
 70
     1
102
RTVSPost2010Prop35
280
     0
102
RTVSPost2010PropOp35
 70
     1
102
RTVSPost2010Prop36
280
     0
102
RTVSPost2010PropOp36
 70
     1
102
RTVSPost2010Prop37
 90
       50
102
RTVSPost2010PropOp37
 70
     1
102
RTVSPost2010Prop38
140
0.0
102
RTVSPost2010PropOp38
 70
     1
102
RTVSPost2010Prop39
140
1.0
102
RTVSPost2010PropOp39
 70
     1
102
RTVSPost2010Prop40
 90
        0
102
RTVSPost2010PropOp40
 70
     1
102
RTVSPost2010Prop41ColorIndex
 90
       18
102
RTVSPost2010Prop41ColorRGB
 90
        0
102
RTVSPost2010PropOp41
 70
     1
102
RTVSPost2010Prop42
 90
       50
102
RTVSPost2010PropOp42
 70
     1
102
RTVSPost2010Prop43
 90
        3
102
RTVSPost2010PropOp43
 70
     1
102
RTVSPost2010Prop44ColorIndex
 90
        5
102
RTVSPost2010Prop44ColorRGB
 90
      255
102
RTVSPost2010PropOp44
 70
     1
102
RTVSPost2010Prop45
280
     0
102
RTVSPost2010PropOp45
 70
     1
102
RTVSPost2010Prop46
 90
       50
102
RTVSPost2010PropOp46
 70
     1
102
RTVSPost2010Prop47
 90
       50
102
RTVSPost2010PropOp47
 70
     1
102
RTVSPost2010Prop48
 90
       50
102
RTVSPost2010PropOp48
 70
     1
102
RTVSPost2010Prop49
280
     0
102
RTVSPost2010PropOp49
 70
     1
102
RTVSPost2010Prop50
 90
       50
102
RTVSPost2010PropOp50
 70
     1
102
RTVSPost2010Prop51ColorIndex
 90
      256
102
RTVSPost2010Prop51ColorRGB
 90
-16777216
102
RTVSPost2010PropOp51
 70
     0
102
RTVSPost2010Prop52
140
1.0
102
RTVSPost2010PropOp52
 70
     0
102
RTVSPost2010Prop53
 90
        2
102
RTVSPost2010PropOp53
 70
     1
102
RTVSPost2010Prop54
  1
strokes_ogs.tif
102
RTVSPost2010PropOp54
 70
     1
102
RTVSPost2010Prop55
280
     0
102
RTVSPost2010PropOp55
 70
     1
102
RTVSPost2010Prop56
140
1.0
102
RTVSPost2010PropOp56
 70
     1
102
RTVSPost2010Prop57
140
1.0
102
RTVSPost2010PropOp57
 70
     1
  0
XRECORD
  5
113
102
{ACAD_REACTORS
330
112
102
}
330
112
100
AcDbXrecord
280
     1
102
RTVSPost2010Prop28
280
     0
102
RTVSPost2010PropOp28
 70
     1
102
RTVSPost2010Prop29
280
     1
102
RTVSPost2010PropOp29
 70
     1
102
RTVSPost2010Prop30
280
     1
102
RTVSPost2010PropOp30
 70
     1
102
RTVSPost2010Prop31
280
     0
102
RTVSPost2010PropOp31
 70
     1
102
RTVSPost2010Prop32
280
     0
102
RTVSPost2010PropOp32
 70
     1
102
RTVSPost2010Prop33
280
     0
102
RTVSPost2010PropOp33
 70
     1
102
RTVSPost2010Prop34
280
     0
102
RTVSPost2010PropOp34
 70
     1
102
RTVSPost2010Prop35
280
     0
102
RTVSPost2010PropOp35
 70
     1
102
RTVSPost2010Prop36
280
     0
102
RTVSPost2010PropOp36
 70
     1
102
RTVSPost2010Prop37
 90
       50
102
RTVSPost2010PropOp37
 70
     1
102
RTVSPost2010Prop38
140
0.0
102
RTVSPost2010PropOp38
 70
     1
102
RTVSPost2010Prop39
140
1.0
102
RTVSPost2010PropOp39
 70
     1
102
RTVSPost2010Prop40
 90
        0
102
RTVSPost2010PropOp40
 70
     1
102
RTVSPost2010Prop41ColorIndex
 90
       18
102
RTVSPost2010Prop41ColorRGB
 90
        0
102
RTVSPost2010PropOp41
 70
     1
102
RTVSPost2010Prop42
 90
       50
102
RTVSPost2010PropOp42
 70
     1
102
RTVSPost2010Prop43
 90
        3
102
RTVSPost2010PropOp43
 70
     1
102
RTVSPost2010Prop44ColorIndex
 90
        5
102
RTVSPost2010Prop44ColorRGB
 90
      255
102
RTVSPost2010PropOp44
 70
     1
102
RTVSPost2010Prop45
280
     0
102
RTVSPost2010PropOp45
 70
     1
102
RTVSPost2010Prop46
 90
       50
102
RTVSPost2010PropOp46
 70
     1
102
RTVSPost2010Prop47
 90
       50
102
RTVSPost2010PropOp47
 70
     1
102
RTVSPost2010Prop48
 90
       50
102
RTVSPost2010PropOp48
 70
     1
102
RTVSPost2010Prop49
280
     0
102
RTVSPost2010PropOp49
 70
     1
102
RTVSPost2010Prop50
 90
       50
102
RTVSPost2010PropOp50
 70
     1
102
RTVSPost2010Prop51ColorIndex
 90
      256
102
RTVSPost2010Prop51ColorRGB
 90
-16777216
102
RTVSPost2010PropOp51
 70
     0
102
RTVSPost2010Prop52
140
1.0
102
RTVSPost2010PropOp52
 70
     0
102
RTVSPost2010Prop53
 90
        2
102
RTVSPost2010PropOp53
 70
     1
102
RTVSPost2010Prop54
  1
strokes_ogs.tif
102
RTVSPost2010PropOp54
 70
     1
102
RTVSPost2010Prop55
280
     0
102
RTVSPost2010PropOp55
 70
     1
102
RTVSPost2010Prop56
140
1.0
102
RTVSPost2010PropOp56
 70
     1
102
RTVSPost2010Prop57
140
1.0
102
RTVSPost2010PropOp57
 70
     1
  0
XRECORD
  5
109
102
{ACAD_REACTORS
330
108
102
}
330
108
100
AcDbXrecord
280
     1
102
RTVSPost2010Prop28
280
     0
102
RTVSPost2010PropOp28
 70
     1
102
RTVSPost2010Prop29
280
     1
102
RTVSPost2010PropOp29
 70
     1
102
RTVSPost2010Prop30
280
     1
102
RTVSPost2010PropOp30
 70
     1
102
RTVSPost2010Prop31
280
     0
102
RTVSPost2010PropOp31
 70
     1
102
RTVSPost2010Prop32
280
     0
102
RTVSPost2010PropOp32
 70
     1
102
RTVSPost2010Prop33
280
     0
102
RTVSPost2010PropOp33
 70
     1
102
RTVSPost2010Prop34
280
     0
102
RTVSPost2010PropOp34
 70
     1
102
RTVSPost2010Prop35
280
     0
102
RTVSPost2010PropOp35
 70
     1
102
RTVSPost2010Prop36
280
     0
102
RTVSPost2010PropOp36
 70
     1
102
RTVSPost2010Prop37
 90
       50
102
RTVSPost2010PropOp37
 70
     1
102
RTVSPost2010Prop38
140
0.0
102
RTVSPost2010PropOp38
 70
     1
102
RTVSPost2010Prop39
140
1.0
102
RTVSPost2010PropOp39
 70
     1
102
RTVSPost2010Prop40
 90
        0
102
RTVSPost2010PropOp40
 70
     1
102
RTVSPost2010Prop41ColorIndex
 90
       18
102
RTVSPost2010Prop41ColorRGB
 90
        0
102
RTVSPost2010PropOp41
 70
     1
102
RTVSPost2010Prop42
 90
       50
102
RTVSPost2010PropOp42
 70
     1
102
RTVSPost2010Prop43
 90
        3
102
RTVSPost2010PropOp43
 70
     1
102
RTVSPost2010Prop44ColorIndex
 90
        5
102
RTVSPost2010Prop44ColorRGB
 90
      255
102
RTVSPost2010PropOp44
 70
     1
102
RTVSPost2010Prop45
280
     0
102
RTVSPost2010PropOp45
 70
     1
102
RTVSPost2010Prop46
 90
       50
102
RTVSPost2010PropOp46
 70
     1
102
RTVSPost2010Prop47
 90
       50
102
RTVSPost2010PropOp47
 70
     1
102
RTVSPost2010Prop48
 90
       50
102
RTVSPost2010PropOp48
 70
     1
102
RTVSPost2010Prop49
280
     0
102
RTVSPost2010PropOp49
 70
     1
102
RTVSPost2010Prop50
 90
       50
102
RTVSPost2010PropOp50
 70
     1
102
RTVSPost2010Prop51ColorIndex
 90
      256
102
RTVSPost2010Prop51ColorRGB
 90
-16777216
102
RTVSPost2010PropOp51
 70
     0
102
RTVSPost2010Prop52
140
1.0
102
RTVSPost2010PropOp52
 70
     0
102
RTVSPost2010Prop53
 90
        2
102
RTVSPost2010PropOp53
 70
     1
102
RTVSPost2010Prop54
  1
strokes_ogs.tif
102
RTVSPost2010PropOp54
 70
     1
102
RTVSPost2010Prop55
280
     0
102
RTVSPost2010PropOp55
 70
     1
102
RTVSPost2010Prop56
140
1.0
102
RTVSPost2010PropOp56
 70
     1
102
RTVSPost2010Prop57
140
1.0
102
RTVSPost2010PropOp57
 70
     1
  0
XRECORD
  5
FD
102
{ACAD_REACTORS
330
FC
102
}
330
FC
100
AcDbXrecord
280
     1
102
RTVSPost2010Prop28
280
     0
102
RTVSPost2010PropOp28
 70
     1
102
RTVSPost2010Prop29
280
     1
102
RTVSPost2010PropOp29
 70
     1
102
RTVSPost2010Prop30
280
     1
102
RTVSPost2010PropOp30
 70
     1
102
RTVSPost2010Prop31
280
     0
102
RTVSPost2010PropOp31
 70
     1
102
RTVSPost2010Prop32
280
     0
102
RTVSPost2010PropOp32
 70
     1
102
RTVSPost2010Prop33
280
     0
102
RTVSPost2010PropOp33
 70
     1
102
RTVSPost2010Prop34
280
     0
102
RTVSPost2010PropOp34
 70
     1
102
RTVSPost2010Prop35
280
     0
102
RTVSPost2010PropOp35
 70
     1
102
RTVSPost2010Prop36
280
     0
102
RTVSPost2010PropOp36
 70
     1
102
RTVSPost2010Prop37
 90
       50
102
RTVSPost2010PropOp37
 70
     1
102
RTVSPost2010Prop38
140
0.0
102
RTVSPost2010PropOp38
 70
     1
102
RTVSPost2010Prop39
140
1.0
102
RTVSPost2010PropOp39
 70
     1
102
RTVSPost2010Prop40
 90
        0
102
RTVSPost2010PropOp40
 70
     1
102
RTVSPost2010Prop41ColorIndex
 90
       18
102
RTVSPost2010Prop41ColorRGB
 90
        0
102
RTVSPost2010PropOp41
 70
     1
102
RTVSPost2010Prop42
 90
       50
102
RTVSPost2010PropOp42
 70
     1
102
RTVSPost2010Prop43
 90
        3
102
RTVSPost2010PropOp43
 70
     1
102
RTVSPost2010Prop44ColorIndex
 90
        5
102
RTVSPost2010Prop44ColorRGB
 90
      255
102
RTVSPost2010PropOp44
 70
     1
102
RTVSPost2010Prop45
280
     0
102
RTVSPost2010PropOp45
 70
     1
102
RTVSPost2010Prop46
 90
       50
102
RTVSPost2010PropOp46
 70
     1
102
RTVSPost2010Prop47
 90
       50
102
RTVSPost2010PropOp47
 70
     1
102
RTVSPost2010Prop48
 90
       50
102
RTVSPost2010PropOp48
 70
     1
102
RTVSPost2010Prop49
280
     0
102
RTVSPost2010PropOp49
 70
     1
102
RTVSPost2010Prop50
 90
       50
102
RTVSPost2010PropOp50
 70
     1
102
RTVSPost2010Prop51ColorIndex
 90
      256
102
RTVSPost2010Prop51ColorRGB
 90
-16777216
102
RTVSPost2010PropOp51
 70
     0
102
RTVSPost2010Prop52
140
1.0
102
RTVSPost2010PropOp52
 70
     0
102
RTVSPost2010Prop53
 90
        2
102
RTVSPost2010PropOp53
 70
     1
102
RTVSPost2010Prop54
  1
strokes_ogs.tif
102
RTVSPost2010PropOp54
 70
     1
102
RTVSPost2010Prop55
280
     0
102
RTVSPost2010PropOp55
 70
     1
102
RTVSPost2010Prop56
140
1.0
102
RTVSPost2010PropOp56
 70
     1
102
RTVSPost2010Prop57
140
1.0
102
RTVSPost2010PropOp57
 70
     1
  0
XRECORD
  5
115
102
{ACAD_REACTORS
330
114
102
}
330
114
100
AcDbXrecord
280
     1
102
RTVSPost2010Prop28
280
     0
102
RTVSPost2010PropOp28
 70
     1
102
RTVSPost2010Prop29
280
     1
102
RTVSPost2010PropOp29
 70
     1
102
RTVSPost2010Prop30
280
     1
102
RTVSPost2010PropOp30
 70
     1
102
RTVSPost2010Prop31
280
     0
102
RTVSPost2010PropOp31
 70
     1
102
RTVSPost2010Prop32
280
     0
102
RTVSPost2010PropOp32
 70
     1
102
RTVSPost2010Prop33
280
     0
102
RTVSPost2010PropOp33
 70
     1
102
RTVSPost2010Prop34
280
     0
102
RTVSPost2010PropOp34
 70
     1
102
RTVSPost2010Prop35
280
     0
102
RTVSPost2010PropOp35
 70
     1
102
RTVSPost2010Prop36
280
     0
102
RTVSPost2010PropOp36
 70
     1
102
RTVSPost2010Prop37
 90
       50
102
RTVSPost2010PropOp37
 70
     1
102
RTVSPost2010Prop38
140
0.0
102
RTVSPost2010PropOp38
 70
     1
102
RTVSPost2010Prop39
140
1.0
102
RTVSPost2010PropOp39
 70
     1
102
RTVSPost2010Prop40
 90
        0
102
RTVSPost2010PropOp40
 70
     1
102
RTVSPost2010Prop41ColorIndex
 90
       18
102
RTVSPost2010Prop41ColorRGB
 90
        0
102
RTVSPost2010PropOp41
 70
     1
102
RTVSPost2010Prop42
 90
       50
102
RTVSPost2010PropOp42
 70
     1
102
RTVSPost2010Prop43
 90
        3
102
RTVSPost2010PropOp43
 70
     1
102
RTVSPost2010Prop44ColorIndex
 90
        5
102
RTVSPost2010Prop44ColorRGB
 90
      255
102
RTVSPost2010PropOp44
 70
     1
102
RTVSPost2010Prop45
280
     0
102
RTVSPost2010PropOp45
 70
     1
102
RTVSPost2010Prop46
 90
       50
102
RTVSPost2010PropOp46
 70
     1
102
RTVSPost2010Prop47
 90
       50
102
RTVSPost2010PropOp47
 70
     1
102
RTVSPost2010Prop48
 90
       50
102
RTVSPost2010PropOp48
 70
     1
102
RTVSPost2010Prop49
280
     0
102
RTVSPost2010PropOp49
 70
     1
102
RTVSPost2010Prop50
 90
       50
102
RTVSPost2010PropOp50
 70
     1
102
RTVSPost2010Prop51ColorIndex
 90
      256
102
RTVSPost2010Prop51ColorRGB
 90
-16777216
102
RTVSPost2010PropOp51
 70
     0
102
RTVSPost2010Prop52
140
1.0
102
RTVSPost2010PropOp52
 70
     0
102
RTVSPost2010Prop53
 90
        2
102
RTVSPost2010PropOp53
 70
     1
102
RTVSPost2010Prop54
  1
strokes_ogs.tif
102
RTVSPost2010PropOp54
 70
     1
102
RTVSPost2010Prop55
280
     0
102
RTVSPost2010PropOp55
 70
     1
102
RTVSPost2010Prop56
140
1.0
102
RTVSPost2010PropOp56
 70
     1
102
RTVSPost2010Prop57
140
1.0
102
RTVSPost2010PropOp57
 70
     1
  0
ENDSEC
  0
EOF
