  0
SECTION
  2
HEADER
  9
$ACADVER
  1
AC1024
  9
$ACADMAINTVER
 70
   226
  9
$DWGCODEPAGE
  3
ANSI_932
  9
$INSBASE
 10
0.0
 20
0.0
 30
0.0
  9
$EXTMIN
 10
1.000000000000000E+20
 20
1.000000000000000E+20
 30
1.000000000000000E+20
  9
$EXTMAX
 10
-1.000000000000000E+20
 20
-1.000000000000000E+20
 30
-1.000000000000000E+20
  9
$LIMMIN
 10
0.0
 20
0.0
  9
$LIMMAX
 10
12.0
 20
9.0
  9
$ORTHOMODE
 70
     0
  9
$REGENMODE
 70
     1
  9
$FILLMODE
 70
     1
  9
$QTEXTMODE
 70
     0
  9
$MIRRTEXT
 70
     0
  9
$LTSCALE
 40
1.0
  9
$ATTMODE
 70
     1
  9
$TEXTSIZE
 40
0.2
  9
$TRACEWID
 40
0.05
  9
$TEXTSTYLE
  7
Standard
  9
$CLAYER
  8
0
  9
$CELTYPE
  6
ByLayer
  9
$CECOLOR
 62
   256
  9
$CELTSCALE
 40
1.0
  9
$DISPSILH
 70
     0
  9
$DIMSCALE
 40
1.0
  9
$DIMASZ
 40
0.18
  9
$DIMEXO
 40
0.0625
  9
$DIMDLI
 40
0.38
  9
$DIMRND
 40
0.0
  9
$DIMDLE
 40
0.0
  9
$DIMEXE
 40
0.18
  9
$DIMTP
 40
0.0
  9
$DIMTM
 40
0.0
  9
$DIMTXT
 40
0.18
  9
$DIMCEN
 40
0.09
  9
$DIMTSZ
 40
0.0
  9
$DIMTOL
 70
     0
  9
$DIMLIM
 70
     0
  9
$DIMTIH
 70
     1
  9
$DIMTOH
 70
     1
  9
$DIMSE1
 70
     0
  9
$DIMSE2
 70
     0
  9
$DIMTAD
 70
     0
  9
$DIMZIN
 70
     0
  9
$DIMBLK
  1

  9
$DIMASO
 70
     1
  9
$DIMSHO
 70
     1
  9
$DIMPOST
  1

  9
$DIMAPOST
  1

  9
$DIMALT
 70
     0
  9
$DIMALTD
 70
     2
  9
$DIMALTF
 40
25.4
  9
$DIMLFAC
 40
1.0
  9
$DIMTOFL
 70
     0
  9
$DIMTVP
 40
0.0
  9
$DIMTIX
 70
     0
  9
$DIMSOXD
 70
     0
  9
$DIMSAH
 70
     0
  9
$DIMBLK1
  1

  9
$DIMBLK2
  1

  9
$DIMSTYLE
  2
Standard
  9
$DIMCLRD
 70
     0
  9
$DIMCLRE
 70
     0
  9
$DIMCLRT
 70
     0
  9
$DIMTFAC
 40
1.0
  9
$DIMGAP
 40
0.09
  9
$DIMJUST
 70
     0
  9
$DIMSD1
 70
     0
  9
$DIMSD2
 70
     0
  9
$DIMTOLJ
 70
     1
  9
$DIMTZIN
 70
     0
  9
$DIMALTZ
 70
     0
  9
$DIMALTTZ
 70
     0
  9
$DIMUPT
 70
     0
  9
$DIMDEC
 70
     4
  9
$DIMTDEC
 70
     4
  9
$DIMALTU
 70
     2
  9
$DIMALTTD
 70
     2
  9
$DIMTXSTY
  7
Standard
  9
$DIMAUNIT
 70
     0
  9
$DIMADEC
 70
     0
  9
$DIMALTRND
 40
0.0
  9
$DIMAZIN
 70
     0
  9
$DIMDSEP
 70
    46
  9
$DIMATFIT
 70
     3
  9
$DIMFRAC
 70
     0
  9
$DIMLDRBLK
  1

  9
$DIMLUNIT
 70
     2
  9
$DIMLWD
 70
    -2
  9
$DIMLWE
 70
    -2
  9
$DIMTMOVE
 70
     0
  9
$DIMFXL
 40
1.0
  9
$DIMFXLON
 70
     0
  9
$DIMJOGANG
 40
0.7853981633974483
  9
$DIMTFILL
 70
     0
  9
$DIMTFILLCLR
 70
     0
  9
$DIMARCSYM
 70
     0
  9
$DIMLTYPE
  6

  9
$DIMLTEX1
  6

  9
$DIMLTEX2
  6

  9
$DIMTXTDIRECTION
 70
     0
  9
$LUNITS
 70
     2
  9
$LUPREC
 70
     4
  9
$SKETCHINC
 40
0.1
  9
$FILLETRAD
 40
0.0
  9
$AUNITS
 70
     0
  9
$AUPREC
 70
     0
  9
$MENU
  1
.
  9
$ELEVATION
 40
0.0
  9
$PELEVATION
 40
0.0
  9
$THICKNESS
 40
0.0
  9
$LIMCHECK
 70
     0
  9
$CHAMFERA
 40
0.0
  9
$CHAMFERB
 40
0.0
  9
$CHAMFERC
 40
0.0
  9
$CHAMFERD
 40
0.0
  9
$SKPOLY
 70
     0
  9
$TDCREATE
 40
2459569.489884259
  9
$TDUCREATE
 40
2459569.114884259
  9
$TDUPDATE
 40
2459569.489884259
  9
$TDUUPDATE
 40
2459569.114884259
  9
$TDINDWG
 40
0.0000000000
  9
$TDUSRTIMER
 40
0.0000000000
  9
$USRTIMER
 70
     1
  9
$ANGBASE
 50
0.0
  9
$ANGDIR
 70
     0
  9
$PDMODE
 70
     0
  9
$PDSIZE
 40
0.0
  9
$PLINEWID
 40
0.0
  9
$SPLFRAME
 70
     0
  9
$SPLINETYPE
 70
     6
  9
$SPLINESEGS
 70
     8
  9
$HANDSEED
  5
12B
  9
$SURFTAB1
 70
     6
  9
$SURFTAB2
 70
     6
  9
$SURFTYPE
 70
     6
  9
$SURFU
 70
     6
  9
$SURFV
 70
     6
  9
$UCSBASE
  2

  9
$UCSNAME
  2

  9
$UCSORG
 10
0.0
 20
0.0
 30
0.0
  9
$UCSXDIR
 10
1.0
 20
0.0
 30
0.0
  9
$UCSYDIR
 10
0.0
 20
1.0
 30
0.0
  9
$UCSORTHOREF
  2

  9
$UCSORTHOVIEW
 70
     0
  9
$UCSORGTOP
 10
0.0
 20
0.0
 30
0.0
  9
$UCSORGBOTTOM
 10
0.0
 20
0.0
 30
0.0
  9
$UCSORGLEFT
 10
0.0
 20
0.0
 30
0.0
  9
$UCSORGRIGHT
 10
0.0
 20
0.0
 30
0.0
  9
$UCSORGFRONT
 10
0.0
 20
0.0
 30
0.0
  9
$UCSORGBACK
 10
0.0
 20
0.0
 30
0.0
  9
$PUCSBASE
  2

  9
$PUCSNAME
  2

  9
$PUCSORG
 10
0.0
 20
0.0
 30
0.0
  9
$PUCSXDIR
 10
1.0
 20
0.0
 30
0.0
  9
$PUCSYDIR
 10
0.0
 20
1.0
 30
0.0
  9
$PUCSORTHOREF
  2

  9
$PUCSORTHOVIEW
 70
     0
  9
$PUCSORGTOP
 10
0.0
 20
0.0
 30
0.0
  9
$PUCSORGBOTTOM
 10
0.0
 20
0.0
 30
0.0
  9
$PUCSORGLEFT
 10
0.0
 20
0.0
 30
0.0
  9
$PUCSORGRIGHT
 10
0.0
 20
0.0
 30
0.0
  9
$PUCSORGFRONT
 10
0.0
 20
0.0
 30
0.0
  9
$PUCSORGBACK
 10
0.0
 20
0.0
 30
0.0
  9
$USERI1
 70
     0
  9
$USERI2
 70
     0
  9
$USERI3
 70
     0
  9
$USERI4
 70
     0
  9
$USERI5
 70
     0
  9
$USERR1
 40
0.0
  9
$USERR2
 40
0.0
  9
$USERR3
 40
0.0
  9
$USERR4
 40
0.0
  9
$USERR5
 40
0.0
  9
$WORLDVIEW
 70
     1
  9
$SHADEDGE
 70
     3
  9
$SHADEDIF
 70
    70
  9
$TILEMODE
 70
     1
  9
$MAXACTVP
 70
    64
  9
$PINSBASE
 10
0.0
 20
0.0
 30
0.0
  9
$PLIMCHECK
 70
     0
  9
$PEXTMIN
 10
1.000000000000000E+20
 20
1.000000000000000E+20
 30
1.000000000000000E+20
  9
$PEXTMAX
 10
-1.000000000000000E+20
 20
-1.000000000000000E+20
 30
-1.000000000000000E+20
  9
$PLIMMIN
 10
0.0
 20
0.0
  9
$PLIMMAX
 10
12.0
 20
9.0
  9
$UNITMODE
 70
     0
  9
$VISRETAIN
 70
     1
  9
$PLINEGEN
 70
     0
  9
$PSLTSCALE
 70
     1
  9
$TREEDEPTH
 70
  3020
  9
$CMLSTYLE
  2
Standard
  9
$CMLJUST
 70
     0
  9
$CMLSCALE
 40
1.0
  9
$PROXYGRAPHICS
 70
     1
  9
$MEASUREMENT
 70
     0
  9
$CELWEIGHT
370
    -1
  9
$ENDCAPS
280
     0
  9
$JOINSTYLE
280
     0
  9
$LWDISPLAY
290
     1
  9
$INSUNITS
 70
     4
  9
$HYPERLINKBASE
  1

  9
$STYLESHEET
  1

  9
$XEDIT
290
     1
  9
$CEPSNTYPE
380
     0
  9
$PSTYLEMODE
290
     1
  9
$FINGERPRINTGUID
  2
{D8738D12-85D6-CB45-8E83-57E435809D17}
  9
$VERSIONGUID
  2
{F5D72088-13AA-8F45-BEBD-96AF2F090249}
  9
$EXTNAMES
290
     1
  9
$PSVPSCALE
 40
0.0
  9
$OLESTARTUP
290
     0
  9
$SORTENTS
280
   127
  9
$INDEXCTL
280
     0
  9
$HIDETEXT
280
     1
  9
$XCLIPFRAME
280
     2
  9
$HALOGAP
280
     0
  9
$OBSCOLOR
 70
   257
  9
$OBSLTYPE
280
     0
  9
$INTERSECTIONDISPLAY
280
     0
  9
$INTERSECTIONCOLOR
 70
   257
  9
$DIMASSOC
280
     2
  9
$PROJECTNAME
  1

  9
$CAMERADISPLAY
290
     0
  9
$LENSLENGTH
 40
50.0
  9
$CAMERAHEIGHT
 40
0.0
  9
$STEPSPERSEC
 40
2.0
  9
$STEPSIZE
 40
6.0
  9
$3DDWFPREC
 40
2.0
  9
$PSOLWIDTH
 40
0.25
  9
$PSOLHEIGHT
 40
4.0
  9
$LOFTANG1
 40
1.570796326794896
  9
$LOFTANG2
 40
1.570796326794896
  9
$LOFTMAG1
 40
0.0
  9
$LOFTMAG2
 40
0.0
  9
$LOFTPARAM
 70
     7
  9
$LOFTNORMALS
280
     1
  9
$LATITUDE
 40
37.795
  9
$LONGITUDE
 40
-122.394
  9
$NORTHDIRECTION
 40
0.0
  9
$TIMEZONE
 70
 -8000
  9
$LIGHTGLYPHDISPLAY
280
     1
  9
$TILEMODELIGHTSYNCH
280
     1
  9
$CMATERIAL
347
11
  9
$SOLIDHIST
280
     0
  9
$SHOWHIST
280
     1
  9
$DWFFRAME
280
     2
  9
$DGNFRAME
280
     0
  9
$REALWORLDSCALE
290
     1
  9
$INTERFERECOLOR
 62
     1
  9
$INTERFEREOBJVS
345
33
  9
$INTERFEREVPVS
346
30
  9
$CSHADOW
280
     0
  9
$SHADOWPLANELOCATION
 40
0.0
  0
ENDSEC
  0
SECTION
  2
CLASSES
  0
CLASS
  1
ACDBDICTIONARYWDFLT
  2
AcDbDictionaryWithDefault
  3
ObjectDBX Classes
 90
        0
 91
        1
280
     0
281
     0
  0
CLASS
  1
MATERIAL
  2
AcDbMaterial
  3
ObjectDBX Classes
 90
     1153
 91
        3
280
     0
281
     0
  0
CLASS
  1
VISUALSTYLE
  2
AcDbVisualStyle
  3
ObjectDBX Classes
 90
     4095
 91
       24
280
     0
281
     0
  0
CLASS
  1
SCALE
  2
AcDbScale
  3
ObjectDBX Classes
 90
     1153
 91
       17
280
     0
281
     0
  0
CLASS
  1
TABLESTYLE
  2
AcDbTableStyle
  3
ObjectDBX Classes
 90
     4095
 91
        1
280
     0
281
     0
  0
CLASS
  1
MLEADERSTYLE
  2
AcDbMLeaderStyle
  3
ACDB_MLEADERSTYLE_CLASS
 90
     4095
 91
        1
280
     0
281
     0
  0
CLASS
  1
ACDBSECTIONVIEWSTYLE
  2
AcDbSectionViewStyle
  3
ObjectDBX Classes
 90
     1025
 91
        1
280
     0
281
     0
  0
CLASS
  1
ACDBDETAILVIEWSTYLE
  2
AcDbDetailViewStyle
  3
ObjectDBX Classes
 90
     1025
 91
        1
280
     0
281
     0
  0
CLASS
  1
DICTIONARYVAR
  2
AcDbDictionaryVar
  3
ObjectDBX Classes
 90
        0
 91
        5
280
     0
281
     0
  0
CLASS
  1
CELLSTYLEMAP
  2
AcDbCellStyleMap
  3
ObjectDBX Classes
 90
     1152
 91
        1
280
     0
281
     0
  0
ENDSEC
  0
SECTION
  2
TABLES
  0
TABLE
  2
VPORT
  5
8
330
0
100
AcDbSymbolTable
 70
     1
  0
VPORT
  5
57
330
8
100
AcDbSymbolTableRecord
100
AcDbViewportTableRecord
  2
*Active
 70
     0
 10
0.0
 20
0.0
 11
1.0
 21
1.0
 12
0.0
 22
0.0
 13
0.0
 23
0.0
 14
1.0
 24
1.0
 15
0.0
 25
0.0
 16
0.0
 26
0.0
 36
1.0
 17
104.9999999737534
 27
-148.4999999628701
 37
0.0
 40
302.939999924255
 41
0.7070707070707534
 42
50.0
 43
0.0
 44
0.0
 50
0.0
 51
0.0
 71
     0
 72
   100
 73
     1
 74
     0
 75
     1
 76
     0
 77
     0
 78
     0
281
     0
 65
     1
110
0.0
120
0.0
130
0.0
111
1.0
121
0.0
131
0.0
112
0.0
122
1.0
132
0.0
 79
     0
146
0.0
 60
     3
 61
     5
292
     1
282
     1
141
0.0
142
0.0
 63
   250
421
  3355443
  0
ENDTAB
  0
TABLE
  2
LTYPE
  5
5
330
0
100
AcDbSymbolTable
 70
     2
  0
LTYPE
  5
5B
330
5
100
AcDbSymbolTableRecord
100
AcDbLinetypeTableRecord
  2
ByBlock
 70
     0
  3

 72
    65
 73
     0
 40
0.0
  0
LTYPE
  5
5C
330
5
100
AcDbSymbolTableRecord
100
AcDbLinetypeTableRecord
  2
ByLayer
 70
     0
  3

 72
    65
 73
     0
 40
0.0
  0
LTYPE
  5
5D
330
5
100
AcDbSymbolTableRecord
100
AcDbLinetypeTableRecord
  2
Continuous
 70
     0
  3
Solid line
 72
    65
 73
     0
 40
0.0
  0
LTYPE
  5
CE
330
5
100
AcDbSymbolTableRecord
100
AcDbLinetypeTableRecord
  2
AI-Linetype-0
 70
     0
  3
Adobe Illustrator Linetype No. 0
 72
    65
 73
     2
 40
1.411111110758333
 49
0.7055555553791667
 74
     0
 49
-0.7055555553791667
 74
     0
  0
ENDTAB
  0
TABLE
  2
LAYER
  5
2
330
0
100
AcDbSymbolTable
 70
     2
  0
LAYER
  5
54
330
2
100
AcDbSymbolTableRecord
100
AcDbLayerTableRecord
  2
0
 70
     0
 62
     7
  6
Continuous
370
    -3
390
F
347
21
  0
LAYER
  5
78
330
2
100
AcDbSymbolTableRecord
100
AcDbLayerTableRecord
  2
レイヤー 1
 70
     0
 62
     7
  6
Continuous
370
     0
390
F
347
21
  0
ENDTAB
  0
TABLE
  2
STYLE
  5
3
330
0
100
AcDbSymbolTable
 70
     2
  0
STYLE
  5
55
330
3
100
AcDbSymbolTableRecord
100
AcDbTextStyleTableRecord
  2
Standard
 70
     0
 40
0.0
 41
1.0
 50
0.0
 71
     0
 42
0.2
  3
txt
  4

  0
STYLE
  5
5A
330
3
100
AcDbSymbolTableRecord
100
AcDbTextStyleTableRecord
  2
Annotative
 70
     0
 40
0.0
 41
1.0
 50
0.0
 71
     0
 42
0.2
  3
txt
  4

1001
AcadAnnotative
1000
AnnotativeData
1002
{
1070
     1
1070
     1
1002
}
  0
ENDTAB
  0
TABLE
  2
VIEW
  5
6
330
0
100
AcDbSymbolTable
 70
     0
  0
ENDTAB
  0
TABLE
  2
UCS
  5
7
330
0
100
AcDbSymbolTable
 70
     0
  0
ENDTAB
  0
TABLE
  2
APPID
  5
9
330
0
100
AcDbSymbolTable
 70
     2
  0
APPID
  5
56
330
9
100
AcDbSymbolTableRecord
100
AcDbRegAppTableRecord
  2
ACAD
 70
     0
  0
APPID
  5
5E
330
9
100
AcDbSymbolTableRecord
100
AcDbRegAppTableRecord
  2
AcadAnnotative
 70
     0
  0
ENDTAB
  0
TABLE
  2
DIMSTYLE
  5
A
330
0
100
AcDbSymbolTable
 70
     2
100
AcDbDimStyleTable
 71
     0
  0
DIMSTYLE
105
58
330
A
100
AcDbSymbolTableRecord
100
AcDbDimStyleTableRecord
  2
Standard
 70
     0
340
55
  0
DIMSTYLE
105
59
330
A
100
AcDbSymbolTableRecord
100
AcDbDimStyleTableRecord
  2
Annotative
 70
     0
340
55
1001
AcadAnnotative
1000
AnnotativeData
1002
{
1070
     1
1070
     1
1002
}
  0
ENDTAB
  0
TABLE
  2
BLOCK_RECORD
  5
1
330
0
100
AcDbSymbolTable
 70
    12
  0
BLOCK_RECORD
  5
70
330
1
100
AcDbSymbolTableRecord
100
AcDbBlockTableRecord
  2
*Model_Space
340
73
 70
     0
280
     1
281
     0
  0
BLOCK_RECORD
  5
6C
330
1
100
AcDbSymbolTableRecord
100
AcDbBlockTableRecord
  2
*Paper_Space
340
6F
 70
     0
280
     1
281
     0
  0
BLOCK_RECORD
  5
74
330
1
100
AcDbSymbolTableRecord
100
AcDbBlockTableRecord
  2
*Paper_Space0
340
77
 70
     0
280
     1
281
     0
  0
BLOCK_RECORD
  5
87
330
1
100
AcDbSymbolTableRecord
100
AcDbBlockTableRecord
  2
Block_0
340
0
102
{BLKREFS
331
88
102
}
 70
     0
280
     1
281
     0
  0
BLOCK_RECORD
  5
8B
330
1
100
AcDbSymbolTableRecord
100
AcDbBlockTableRecord
  2
Block_1
340
0
102
{BLKREFS
331
8C
102
}
 70
     0
280
     1
281
     0
  0
BLOCK_RECORD
  5
9A
330
1
100
AcDbSymbolTableRecord
100
AcDbBlockTableRecord
  2
Block_2
340
0
102
{BLKREFS
331
9B
102
}
 70
     0
280
     1
281
     0
  0
BLOCK_RECORD
  5
A3
330
1
100
AcDbSymbolTableRecord
100
AcDbBlockTableRecord
  2
Block_3
340
0
102
{BLKREFS
331
A4
102
}
 70
     0
280
     1
281
     0
  0
BLOCK_RECORD
  5
A7
330
1
100
AcDbSymbolTableRecord
100
AcDbBlockTableRecord
  2
Block_4
340
0
102
{BLKREFS
331
A8
102
}
 70
     0
280
     1
281
     0
  0
BLOCK_RECORD
  5
B3
330
1
100
AcDbSymbolTableRecord
100
AcDbBlockTableRecord
  2
Block_5
340
0
102
{BLKREFS
331
B4
102
}
 70
     0
280
     1
281
     0
  0
BLOCK_RECORD
  5
B7
330
1
100
AcDbSymbolTableRecord
100
AcDbBlockTableRecord
  2
Block_6
340
0
102
{BLKREFS
331
B8
102
}
 70
     0
280
     1
281
     0
  0
BLOCK_RECORD
  5
C1
330
1
100
AcDbSymbolTableRecord
100
AcDbBlockTableRecord
  2
Block_7
340
0
102
{BLKREFS
331
C2
102
}
 70
     0
280
     1
281
     0
  0
BLOCK_RECORD
  5
C5
330
1
100
AcDbSymbolTableRecord
100
AcDbBlockTableRecord
  2
Block_8
340
0
102
{BLKREFS
331
C6
102
}
 70
     0
280
     1
281
     0
  0
BLOCK_RECORD
  5
D2
330
1
100
AcDbSymbolTableRecord
100
AcDbBlockTableRecord
  2
Block_9
340
0
102
{BLKREFS
331
D3
102
}
 70
     0
280
     1
281
     0
  0
BLOCK_RECORD
  5
D6
330
1
100
AcDbSymbolTableRecord
100
AcDbBlockTableRecord
  2
Block_10
340
0
102
{BLKREFS
331
D7
102
}
 70
     0
280
     1
281
     0
  0
ENDTAB
  0
ENDSEC
  0
SECTION
  2
BLOCKS
  0
BLOCK
  5
71
330
70
100
AcDbEntity
  8
0
100
AcDbBlockBegin
  2
*Model_Space
 70
     0
 10
0.0
 20
0.0
 30
0.0
  3
*Model_Space
  1

  0
ENDBLK
  5
72
330
70
100
AcDbEntity
  8
0
100
AcDbBlockEnd
  0
BLOCK
  5
6D
330
6C
100
AcDbEntity
 67
     1
  8
0
100
AcDbBlockBegin
  2
*Paper_Space
 70
     0
 10
0.0
 20
0.0
 30
0.0
  3
*Paper_Space
  1

  0
ENDBLK
  5
6E
330
6C
100
AcDbEntity
 67
     1
  8
0
100
AcDbBlockEnd
  0
BLOCK
  5
75
330
74
100
AcDbEntity
 67
     1
  8
0
100
AcDbBlockBegin
  2
*Paper_Space0
 70
     0
 10
0.0
 20
0.0
 30
0.0
  3
*Paper_Space0
  1

  0
ENDBLK
  5
76
330
74
100
AcDbEntity
 67
     1
  8
0
100
AcDbBlockEnd
  0
BLOCK
  5
89
330
87
100
AcDbEntity
  8
0
100
AcDbBlockBegin
  2
Block_0
 70
     0
 10
0.0
 20
0.0
 30
0.0
  3
Block_0
  1

  0
INSERT
  5
8C
330
87
100
AcDbEntity
  8
レイヤー 1
100
AcDbBlockReference
  2
Block_1
 10
0.0
 20
0.0
 30
0.0
  0
ENDBLK
  5
8A
330
87
100
AcDbEntity
  8
0
100
AcDbBlockEnd
  0
BLOCK
  5
8D
330
8B
100
AcDbEntity
  8
0
100
AcDbBlockBegin
  2
Block_1
 70
     0
 10
0.0
 20
0.0
 30
0.0
  3
Block_1
  1

  0
SPLINE
  5
8F
330
8B
100
AcDbEntity
  8
レイヤー 1
100
AcDbSpline
210
0.0
220
0.0
230
1.0
 70
     9
 71
     3
 72
    17
 73
    13
 74
     0
 42
0.0000000001
 43
0.0000000001
 40
0.0
 40
0.0
 40
0.0
 40
0.0
 40
1.0
 40
1.0
 40
1.0
 40
2.0
 40
2.0
 40
2.0
 40
3.0
 40
3.0
 40
3.0
 40
4.0
 40
4.0
 40
4.0
 40
4.0
 10
121.0871825869157
 20
-140.2763644397573
 30
0.0
 10
121.0871825869157
 20
-140.5430148303156
 30
0.0
 10
121.3707139453517
 20
-140.5926242053032
 30
0.0
 10
121.7155680034252
 20
-140.5926242053032
 30
0.0
 10
122.0349283549079
 20
-140.5926242053032
 30
0.0
 10
122.3436089103863
 20
-140.5543836454169
 30
0.0
 10
122.3436089103863
 20
-140.2763644397573
 30
0.0
 10
122.3436089103863
 20
-140.0117811064901
 30
0.0
 10
122.0624891187899
 20
-139.9597601646628
 30
0.0
 10
121.7155680034252
 20
-139.9597601646628
 30
0.0
 10
121.3958631423941
 20
-139.9597601646628
 30
0.0
 10
121.0871825869157
 20
-140.0004122913887
 30
0.0
 10
121.0871825869157
 20
-140.2763644397573
 30
0.0
  0
SPLINE
  5
90
330
8B
100
AcDbEntity
  8
レイヤー 1
100
AcDbSpline
210
0.0
220
0.0
230
1.0
 70
     9
 71
     3
 72
    29
 73
    25
 74
     0
 42
0.0000000001
 43
0.0000000001
 40
0.0
 40
0.0
 40
0.0
 40
0.0
 40
1.0
 40
1.0
 40
1.0
 40
2.0
 40
2.0
 40
2.0
 40
3.0
 40
3.0
 40
3.0
 40
4.0
 40
4.0
 40
4.0
 40
5.0
 40
5.0
 40
5.0
 40
6.0
 40
6.0
 40
6.0
 40
7.0
 40
7.0
 40
7.0
 40
8.0
 40
8.0
 40
8.0
 40
8.0
 10
122.3098469746308
 20
-139.8512396568775
 30
0.0
 10
122.519308780134
 20
-139.9666503556333
 30
0.0
 10
122.5382568053029
 20
-140.1519964927398
 30
0.0
 10
122.5382568053029
 20
-140.2763644397573
 30
0.0
 10
122.5382568053029
 20
-140.4479301949227
 30
0.0
 10
122.491748016252
 20
-140.5995143962737
 30
0.0
 10
122.3098469746308
 20
-140.7011447130886
 30
0.0
 10
122.1151990797142
 20
-140.8120767877136
 30
0.0
 10
121.8785210198776
 20
-140.8324028510766
 30
0.0
 10
121.7155680034252
 20
-140.8324028510766
 30
0.0
 10
121.5715630121418
 20
-140.8324028510766
 30
0.0
 10
121.3197265321701
 20
-140.8141438450048
 30
0.0
 10
121.1209445226711
 20
-140.7011447130886
 30
0.0
 10
120.9180283985899
 20
-140.5860785238813
 30
0.0
 10
120.8946017492902
 20
-140.4141682591673
 30
0.0
 10
120.8946017492902
 20
-140.2763644397573
 30
0.0
 10
120.8946017492902
 20
-140.1065212323345
 30
0.0
 10
120.9390434810499
 20
-139.9528699736923
 30
0.0
 10
121.1209445226711
 20
-139.8512396568775
 30
0.0
 10
121.3135253602966
 20
-139.7447862063832
 30
0.0
 10
121.5419351909687
 20
-139.7199815188894
 30
0.0
 10
121.7155680034252
 20
-139.7199815188894
 30
0.0
 10
121.8867892490422
 20
-139.7199815188894
 30
0.0
 10
122.1172661370054
 20
-139.7427191490921
 30
0.0
 10
122.3098469746308
 20
-139.8512396568775
 30
0.0
  0
HATCH
  5
91
330
8B
100
AcDbEntity
  8
レイヤー 1
 62
   250
420
  2299925
440
 33554687
100
AcDbHatch
 10
0.0
 20
0.0
 30
0.0
210
0.0
220
0.0
230
1.0
  2
SOLID
 70
     1
 71
     1
 91
        2
 92
        1
 93
        1
 72
     4
 94
        3
 73
     0
 74
     0
 95
       17
 96
       13
 40
0.0
 40
0.0
 40
0.0
 40
0.0
 40
1.0
 40
1.0
 40
1.0
 40
2.0
 40
2.0
 40
2.0
 40
3.0
 40
3.0
 40
3.0
 40
4.0
 40
4.0
 40
4.0
 40
4.0
 10
121.0871825869157
 20
-140.2763644397573
 10
121.0871825869157
 20
-140.5430148303156
 10
121.3707139453517
 20
-140.5926242053032
 10
121.7155680034252
 20
-140.5926242053032
 10
122.0349283549079
 20
-140.5926242053032
 10
122.3436089103863
 20
-140.5543836454169
 10
122.3436089103863
 20
-140.2763644397573
 10
122.3436089103863
 20
-140.0117811064901
 10
122.0624891187899
 20
-139.9597601646628
 10
121.7155680034252
 20
-139.9597601646628
 10
121.3958631423941
 20
-139.9597601646628
 10
121.0871825869157
 20
-140.0004122913887
 10
121.0871825869157
 20
-140.2763644397573
 97
        0
 97
        1
330
8F
 92
        1
 93
        1
 72
     4
 94
        3
 73
     0
 74
     0
 95
       29
 96
       25
 40
0.0
 40
0.0
 40
0.0
 40
0.0
 40
1.0
 40
1.0
 40
1.0
 40
2.0
 40
2.0
 40
2.0
 40
3.0
 40
3.0
 40
3.0
 40
4.0
 40
4.0
 40
4.0
 40
5.0
 40
5.0
 40
5.0
 40
6.0
 40
6.0
 40
6.0
 40
7.0
 40
7.0
 40
7.0
 40
8.0
 40
8.0
 40
8.0
 40
8.0
 10
122.3098469746308
 20
-139.8512396568775
 10
122.519308780134
 20
-139.9666503556333
 10
122.5382568053029
 20
-140.1519964927398
 10
122.5382568053029
 20
-140.2763644397573
 10
122.5382568053029
 20
-140.4479301949227
 10
122.491748016252
 20
-140.5995143962737
 10
122.3098469746308
 20
-140.7011447130886
 10
122.1151990797142
 20
-140.8120767877136
 10
121.8785210198776
 20
-140.8324028510766
 10
121.7155680034252
 20
-140.8324028510766
 10
121.5715630121418
 20
-140.8324028510766
 10
121.3197265321701
 20
-140.8141438450048
 10
121.1209445226711
 20
-140.7011447130886
 10
120.9180283985899
 20
-140.5860785238813
 10
120.8946017492902
 20
-140.4141682591673
 10
120.8946017492902
 20
-140.2763644397573
 10
120.8946017492902
 20
-140.1065212323345
 10
120.9390434810499
 20
-139.9528699736923
 10
121.1209445226711
 20
-139.8512396568775
 10
121.3135253602966
 20
-139.7447862063832
 10
121.5419351909687
 20
-139.7199815188894
 10
121.7155680034252
 20
-139.7199815188894
 10
121.8867892490422
 20
-139.7199815188894
 10
122.1172661370054
 20
-139.7427191490921
 10
122.3098469746308
 20
-139.8512396568775
 97
        0
 97
        1
330
90
 75
     2
 76
     1
 98
        1
 10
0.0
 20
0.0
450
        0
451
        0
460
0.0
461
0.0
452
        0
462
0.0
453
        0
470

  0
SPLINE
  5
92
330
8B
100
AcDbEntity
  8
レイヤー 1
100
AcDbSpline
210
0.0
220
0.0
230
1.0
 70
    11
 71
     3
 72
    17
 73
    13
 74
     0
 42
0.0000000001
 43
0.0000000001
 40
0.0
 40
0.0
 40
0.0
 40
0.0
 40
1.0
 40
1.0
 40
1.0
 40
2.0
 40
2.0
 40
2.0
 40
3.0
 40
3.0
 40
3.0
 40
4.0
 40
4.0
 40
4.0
 40
4.0
 10
122.4876139016698
 20
-139.4888156118291
 30
0.0
 10
122.4876139016698
 20
-139.4888156118291
 30
0.0
 10
122.235777421698
 20
-139.4888156118291
 30
0.0
 10
122.235777421698
 20
-139.4888156118291
 30
0.0
 10
122.235777421698
 20
-139.4888156118291
 30
0.0
 10
122.235777421698
 20
-139.2197536544311
 30
0.0
 10
122.235777421698
 20
-139.2197536544311
 30
0.0
 10
122.235777421698
 20
-139.2197536544311
 30
0.0
 10
122.4876139016698
 20
-139.2197536544311
 30
0.0
 10
122.4876139016698
 20
-139.2197536544311
 30
0.0
 10
122.4876139016698
 20
-139.2197536544311
 30
0.0
 10
122.4876139016698
 20
-139.4888156118291
 30
0.0
 10
122.4876139016698
 20
-139.4888156118291
 30
0.0
  0
HATCH
  5
93
330
8B
100
AcDbEntity
  8
レイヤー 1
 62
   250
420
  2299925
440
 33554687
100
AcDbHatch
 10
0.0
 20
0.0
 30
0.0
210
0.0
220
0.0
230
1.0
  2
SOLID
 70
     1
 71
     1
 91
        1
 92
        1
 93
        1
 72
     4
 94
        3
 73
     0
 74
     0
 95
       17
 96
       13
 40
0.0
 40
0.0
 40
0.0
 40
0.0
 40
1.0
 40
1.0
 40
1.0
 40
2.0
 40
2.0
 40
2.0
 40
3.0
 40
3.0
 40
3.0
 40
4.0
 40
4.0
 40
4.0
 40
4.0
 10
122.4876139016698
 20
-139.4888156118291
 10
122.4876139016698
 20
-139.4888156118291
 10
122.235777421698
 20
-139.4888156118291
 10
122.235777421698
 20
-139.4888156118291
 10
122.235777421698
 20
-139.4888156118291
 10
122.235777421698
 20
-139.2197536544311
 10
122.235777421698
 20
-139.2197536544311
 10
122.235777421698
 20
-139.2197536544311
 10
122.4876139016698
 20
-139.2197536544311
 10
122.4876139016698
 20
-139.2197536544311
 10
122.4876139016698
 20
-139.2197536544311
 10
122.4876139016698
 20
-139.4888156118291
 10
122.4876139016698
 20
-139.4888156118291
 97
        0
 97
        1
330
92
 75
     2
 76
     1
 98
        1
 10
0.0
 20
0.0
450
        0
451
        0
460
0.0
461
0.0
452
        0
462
0.0
453
        0
470

  0
SPLINE
  5
94
330
8B
100
AcDbEntity
  8
レイヤー 1
100
AcDbSpline
210
0.0
220
0.0
230
1.0
 70
     9
 71
     3
 72
    17
 73
    13
 74
     0
 42
0.0000000001
 43
0.0000000001
 40
0.0
 40
0.0
 40
0.0
 40
0.0
 40
1.0
 40
1.0
 40
1.0
 40
2.0
 40
2.0
 40
2.0
 40
3.0
 40
3.0
 40
3.0
 40
4.0
 40
4.0
 40
4.0
 40
4.0
 10
121.7472628818896
 20
-138.4325493360516
 30
0.0
 10
121.7472628818896
 20
-138.5862005946937
 30
0.0
 10
121.8340792881178
 20
-138.7488091015975
 30
0.0
 10
122.0369954121991
 20
-138.7488091015975
 30
0.0
 10
122.24232310312
 20
-138.7488091015975
 30
0.0
 10
122.3436089103863
 20
-138.6134168490272
 30
0.0
 10
122.3436089103863
 20
-138.4325493360516
 30
0.0
 10
122.3436089103863
 20
-138.2334228170041
 30
0.0
 10
122.2209635111114
 20
-138.1159450609571
 30
0.0
 10
122.0431965840725
 20
-138.1159450609571
 30
0.0
 10
121.8213324348224
 20
-138.1159450609571
 30
0.0
 10
121.7472628818896
 20
-138.2899223829622
 30
0.0
 10
121.7472628818896
 20
-138.4325493360516
 30
0.0
  0
SPLINE
  5
95
330
8B
100
AcDbEntity
  8
レイヤー 1
100
AcDbSpline
210
0.0
220
0.0
230
1.0
 70
     9
 71
     3
 72
    17
 73
    13
 74
     0
 42
0.0000000001
 43
0.0000000001
 40
0.0
 40
0.0
 40
0.0
 40
0.0
 40
1.0
 40
1.0
 40
1.0
 40
2.0
 40
2.0
 40
2.0
 40
3.0
 40
3.0
 40
3.0
 40
4.0
 40
4.0
 40
4.0
 40
4.0
 10
121.0871825869157
 20
-138.4325493360516
 30
0.0
 10
121.0871825869157
 20
-138.6085937153478
 30
0.0
 10
121.1822672223086
 20
-138.6991997266099
 30
0.0
 10
121.3176594748789
 20
-138.6991997266099
 30
0.0
 10
121.4403048741538
 20
-138.6991997266099
 30
0.0
 10
121.5588161588464
 20
-138.6223740972888
 30
0.0
 10
121.5588161588464
 20
-138.4325493360516
 30
0.0
 10
121.5588161588464
 20
-138.2423800652658
 30
0.0
 10
121.4403048741538
 20
-138.1655544359447
 30
0.0
 10
121.3176594748789
 20
-138.1655544359447
 30
0.0
 10
121.1822672223086
 20
-138.1655544359447
 30
0.0
 10
121.0871825869157
 20
-138.2582275044979
 30
0.0
 10
121.0871825869157
 20
-138.4325493360516
 30
0.0
  0
SPLINE
  5
96
330
8B
100
AcDbEntity
  8
レイヤー 1
100
AcDbSpline
210
0.0
220
0.0
230
1.0
 70
     9
 71
     3
 72
    29
 73
    25
 74
     0
 42
0.0000000001
 43
0.0000000001
 40
0.0
 40
0.0
 40
0.0
 40
0.0
 40
1.0
 40
1.0
 40
1.0
 40
2.0
 40
2.0
 40
2.0
 40
3.0
 40
3.0
 40
3.0
 40
4.0
 40
4.0
 40
4.0
 40
5.0
 40
5.0
 40
5.0
 40
6.0
 40
6.0
 40
6.0
 40
7.0
 40
7.0
 40
7.0
 40
8.0
 40
8.0
 40
8.0
 40
8.0
 10
122.5382568053029
 20
-138.4325493360516
 30
0.0
 10
122.5382568053029
 20
-138.7174587326817
 30
0.0
 10
122.4007974954414
 20
-138.9885877473709
 30
0.0
 10
122.0518093227856
 20
-138.9885877473709
 30
0.0
 10
121.7958387282316
 20
-138.9885877473709
 30
0.0
 10
121.7007540928387
 20
-138.8370035460199
 30
0.0
 10
121.6394313932012
 20
-138.7240044141037
 30
0.0
 10
121.5801757508549
 20
-138.8573296093829
 30
0.0
 10
121.4657985807446
 20
-138.9389783723833
 30
0.0
 10
121.3049126215835
 20
-138.9389783723833
 30
0.0
 10
121.0299940018605
 20
-138.9389783723833
 30
0.0
 10
120.8946017492902
 20
-138.7264159809434
 30
0.0
 10
120.8946017492902
 20
-138.4325493360516
 30
0.0
 10
120.8946017492902
 20
-138.1293809333496
 30
0.0
 10
121.0386067405737
 20
-137.9261202997198
 30
0.0
 10
121.3049126215835
 20
-137.9261202997198
 30
0.0
 10
121.4657985807446
 20
-137.9261202997198
 30
0.0
 10
121.5801757508549
 20
-138.0094916104629
 30
0.0
 10
121.6394313932012
 20
-138.1431613152906
 30
0.0
 10
121.6900742968344
 20
-138.0480766798977
 30
0.0
 10
121.7851589322273
 20
-137.8785779820234
 30
0.0
 10
122.0476752082033
 20
-137.8785779820234
 30
0.0
 10
122.42215708745
 20
-137.8785779820234
 30
0.0
 10
122.5382568053029
 20
-138.176923251046
 30
0.0
 10
122.5382568053029
 20
-138.4325493360516
 30
0.0
  0
HATCH
  5
97
330
8B
100
AcDbEntity
  8
レイヤー 1
 62
   250
420
  2299925
440
 33554687
100
AcDbHatch
 10
0.0
 20
0.0
 30
0.0
210
0.0
220
0.0
230
1.0
  2
SOLID
 70
     1
 71
     1
 91
        3
 92
        1
 93
        1
 72
     4
 94
        3
 73
     0
 74
     0
 95
       17
 96
       13
 40
0.0
 40
0.0
 40
0.0
 40
0.0
 40
1.0
 40
1.0
 40
1.0
 40
2.0
 40
2.0
 40
2.0
 40
3.0
 40
3.0
 40
3.0
 40
4.0
 40
4.0
 40
4.0
 40
4.0
 10
121.7472628818896
 20
-138.4325493360516
 10
121.7472628818896
 20
-138.5862005946937
 10
121.8340792881178
 20
-138.7488091015975
 10
122.0369954121991
 20
-138.7488091015975
 10
122.24232310312
 20
-138.7488091015975
 10
122.3436089103863
 20
-138.6134168490272
 10
122.3436089103863
 20
-138.4325493360516
 10
122.3436089103863
 20
-138.2334228170041
 10
122.2209635111114
 20
-138.1159450609571
 10
122.0431965840725
 20
-138.1159450609571
 10
121.8213324348224
 20
-138.1159450609571
 10
121.7472628818896
 20
-138.2899223829622
 10
121.7472628818896
 20
-138.4325493360516
 97
        0
 97
        1
330
94
 92
        1
 93
        1
 72
     4
 94
        3
 73
     0
 74
     0
 95
       17
 96
       13
 40
0.0
 40
0.0
 40
0.0
 40
0.0
 40
1.0
 40
1.0
 40
1.0
 40
2.0
 40
2.0
 40
2.0
 40
3.0
 40
3.0
 40
3.0
 40
4.0
 40
4.0
 40
4.0
 40
4.0
 10
121.0871825869157
 20
-138.4325493360516
 10
121.0871825869157
 20
-138.6085937153478
 10
121.1822672223086
 20
-138.6991997266099
 10
121.3176594748789
 20
-138.6991997266099
 10
121.4403048741538
 20
-138.6991997266099
 10
121.5588161588464
 20
-138.6223740972888
 10
121.5588161588464
 20
-138.4325493360516
 10
121.5588161588464
 20
-138.2423800652658
 10
121.4403048741538
 20
-138.1655544359447
 10
121.3176594748789
 20
-138.1655544359447
 10
121.1822672223086
 20
-138.1655544359447
 10
121.0871825869157
 20
-138.2582275044979
 10
121.0871825869157
 20
-138.4325493360516
 97
        0
 97
        1
330
95
 92
        1
 93
        1
 72
     4
 94
        3
 73
     0
 74
     0
 95
       29
 96
       25
 40
0.0
 40
0.0
 40
0.0
 40
0.0
 40
1.0
 40
1.0
 40
1.0
 40
2.0
 40
2.0
 40
2.0
 40
3.0
 40
3.0
 40
3.0
 40
4.0
 40
4.0
 40
4.0
 40
5.0
 40
5.0
 40
5.0
 40
6.0
 40
6.0
 40
6.0
 40
7.0
 40
7.0
 40
7.0
 40
8.0
 40
8.0
 40
8.0
 40
8.0
 10
122.5382568053029
 20
-138.4325493360516
 10
122.5382568053029
 20
-138.7174587326817
 10
122.4007974954414
 20
-138.9885877473709
 10
122.0518093227856
 20
-138.9885877473709
 10
121.7958387282316
 20
-138.9885877473709
 10
121.7007540928387
 20
-138.8370035460199
 10
121.6394313932012
 20
-138.7240044141037
 10
121.5801757508549
 20
-138.8573296093829
 10
121.4657985807446
 20
-138.9389783723833
 10
121.3049126215835
 20
-138.9389783723833
 10
121.0299940018605
 20
-138.9389783723833
 10
120.8946017492902
 20
-138.7264159809434
 10
120.8946017492902
 20
-138.4325493360516
 10
120.8946017492902
 20
-138.1293809333496
 10
121.0386067405737
 20
-137.9261202997198
 10
121.3049126215835
 20
-137.9261202997198
 10
121.4657985807446
 20
-137.9261202997198
 10
121.5801757508549
 20
-138.0094916104629
 10
121.6394313932012
 20
-138.1431613152906
 10
121.6900742968344
 20
-138.0480766798977
 10
121.7851589322273
 20
-137.8785779820234
 10
122.0476752082033
 20
-137.8785779820234
 10
122.42215708745
 20
-137.8785779820234
 10
122.5382568053029
 20
-138.176923251046
 10
122.5382568053029
 20
-138.4325493360516
 97
        0
 97
        1
330
96
 75
     2
 76
     1
 98
        1
 10
0.0
 20
0.0
450
        0
451
        0
460
0.0
461
0.0
452
        0
462
0.0
453
        0
470

  0
ENDBLK
  5
8E
330
8B
100
AcDbEntity
  8
0
100
AcDbBlockEnd
  0
BLOCK
  5
9C
330
9A
100
AcDbEntity
  8
0
100
AcDbBlockBegin
  2
Block_2
 70
     0
 10
0.0
 20
0.0
 30
0.0
  3
Block_2
  1

  0
SPLINE
  5
9E
330
9A
100
AcDbEntity
  8
レイヤー 1
100
AcDbSpline
210
0.0
220
0.0
230
1.0
 70
     9
 71
     3
 72
    62
 73
    58
 74
     0
 42
0.0000000001
 43
0.0000000001
 40
0.0
 40
0.0
 40
0.0
 40
0.0
 40
1.0
 40
1.0
 40
1.0
 40
2.0
 40
2.0
 40
2.0
 40
3.0
 40
3.0
 40
3.0
 40
4.0
 40
4.0
 40
4.0
 40
5.0
 40
5.0
 40
5.0
 40
6.0
 40
6.0
 40
6.0
 40
7.0
 40
7.0
 40
7.0
 40
8.0
 40
8.0
 40
8.0
 40
9.0
 40
9.0
 40
9.0
 40
10.0
 40
10.0
 40
10.0
 40
11.0
 40
11.0
 40
11.0
 40
12.0
 40
12.0
 40
12.0
 40
13.0
 40
13.0
 40
13.0
 40
14.0
 40
14.0
 40
14.0
 40
15.0
 40
15.0
 40
15.0
 40
16.0
 40
16.0
 40
16.0
 40
17.0
 40
17.0
 40
17.0
 40
18.0
 40
18.0
 40
18.0
 40
19.0
 40
19.0
 40
19.0
 40
19.0
 10
122.5382568053029
 20
-157.6634168442647
 30
0.0
 10
122.5382568053029
 20
-157.7650471610795
 30
0.0
 10
122.5172417228429
 20
-157.9979356158824
 30
0.0
 10
122.3312065666394
 20
-158.1312608111616
 30
0.0
 10
122.2188964538203
 20
-158.2104980073223
 30
0.0
 10
122.1196777038451
 20
-158.2149766314532
 30
0.0
 10
122.0349283549079
 20
-158.219455255584
 30
0.0
 10
122.0349283549079
 20
-158.219455255584
 30
0.0
 10
122.0349283549079
 20
-157.98449974349
 30
0.0
 10
122.0349283549079
 20
-157.98449974349
 30
0.0
 10
122.1089979078408
 20
-157.9820881766503
 30
0.0
 10
122.3436089103863
 20
-157.970719361549
 30
0.0
 10
122.3436089103863
 20
-157.6678954683955
 30
0.0
 10
122.3436089103863
 20
-157.5207898911753
 30
0.0
 10
122.2740179815843
 20
-157.3581813842715
 30
0.0
 10
122.0456081509122
 20
-157.3581813842715
 30
0.0
 10
121.9291639235107
 20
-157.3581813842715
 30
0.0
 10
121.8805880771687
 20
-157.3988335109975
 30
0.0
 10
121.8488931987044
 20
-157.4325954467529
 30
0.0
 10
121.7748236457715
 20
-157.5118326429137
 30
0.0
 10
121.7620767924761
 20
-157.6362005899312
 30
0.0
 10
121.7620767924761
 20
-157.695111722729
 30
0.0
 10
121.7620767924761
 20
-157.7154377860919
 30
0.0
 10
121.7641438497673
 20
-157.7536783459782
 30
0.0
 10
121.7682779643496
 20
-157.7833061671514
 30
0.0
 10
121.7682779643496
 20
-157.7833061671514
 30
0.0
 10
121.573630069433
 20
-157.7833061671514
 30
0.0
 10
121.573630069433
 20
-157.7833061671514
 30
0.0
 10
121.5801757508549
 20
-157.7426540404254
 30
0.0
 10
121.5822428081461
 20
-157.6971787800201
 30
0.0
 10
121.5822428081461
 20
-157.6906330985981
 30
0.0
 10
121.5822428081461
 20
-157.6203531506991
 30
0.0
 10
121.5608832161375
 20
-157.4077907592591
 30
0.0
 10
121.3242051563009
 20
-157.4077907592591
 30
0.0
 10
121.146438229262
 20
-157.4077907592591
 30
0.0
 10
121.091316701498
 20
-157.5480061455088
 30
0.0
 10
121.091316701498
 20
-157.6654839015558
 30
0.0
 10
121.091316701498
 20
-157.9483262408948
 30
0.0
 10
121.3242051563009
 20
-157.9572834891565
 30
0.0
 10
121.3958631423941
 20
-157.9617621132873
 30
0.0
 10
121.3958631423941
 20
-157.9617621132873
 30
0.0
 10
121.3958631423941
 20
-158.1788031288581
 30
0.0
 10
121.3958631423941
 20
-158.1788031288581
 30
0.0
 10
121.271150685828
 20
-158.1698458805964
 30
0.0
 10
120.8946017492902
 20
-158.1405625689718
 30
0.0
 10
120.8946017492902
 20
-157.6520480291634
 30
0.0
 10
120.8946017492902
 20
-157.41226938339
 30
0.0
 10
121.0217257726959
 20
-157.1545762410933
 30
0.0
 10
121.3176594748789
 20
-157.1545762410933
 30
0.0
 10
121.5040391406309
 20
-157.1545762410933
 30
0.0
 10
121.5863769227284
 20
-157.2565510674567
 30
0.0
 10
121.6476996223658
 20
-157.3626600084024
 30
0.0
 10
121.6752603862478
 20
-157.2972031941826
 30
0.0
 10
121.7555311110542
 20
-157.102555299266
 30
0.0
 10
122.0328612976168
 20
-157.102555299266
 30
0.0
 10
122.3711696742683
 20
-157.102555299266
 30
0.0
 10
122.5382568053029
 20
-157.3671386325332
 30
0.0
 10
122.5382568053029
 20
-157.6634168442647
 30
0.0
  0
HATCH
  5
9F
330
9A
100
AcDbEntity
  8
レイヤー 1
 62
   250
420
  2299925
440
 33554687
100
AcDbHatch
 10
0.0
 20
0.0
 30
0.0
210
0.0
220
0.0
230
1.0
  2
SOLID
 70
     1
 71
     1
 91
        1
 92
        1
 93
        1
 72
     4
 94
        3
 73
     0
 74
     0
 95
       62
 96
       58
 40
0.0
 40
0.0
 40
0.0
 40
0.0
 40
1.0
 40
1.0
 40
1.0
 40
2.0
 40
2.0
 40
2.0
 40
3.0
 40
3.0
 40
3.0
 40
4.0
 40
4.0
 40
4.0
 40
5.0
 40
5.0
 40
5.0
 40
6.0
 40
6.0
 40
6.0
 40
7.0
 40
7.0
 40
7.0
 40
8.0
 40
8.0
 40
8.0
 40
9.0
 40
9.0
 40
9.0
 40
10.0
 40
10.0
 40
10.0
 40
11.0
 40
11.0
 40
11.0
 40
12.0
 40
12.0
 40
12.0
 40
13.0
 40
13.0
 40
13.0
 40
14.0
 40
14.0
 40
14.0
 40
15.0
 40
15.0
 40
15.0
 40
16.0
 40
16.0
 40
16.0
 40
17.0
 40
17.0
 40
17.0
 40
18.0
 40
18.0
 40
18.0
 40
19.0
 40
19.0
 40
19.0
 40
19.0
 10
122.5382568053029
 20
-157.6634168442647
 10
122.5382568053029
 20
-157.7650471610795
 10
122.5172417228429
 20
-157.9979356158824
 10
122.3312065666394
 20
-158.1312608111616
 10
122.2188964538203
 20
-158.2104980073223
 10
122.1196777038451
 20
-158.2149766314532
 10
122.0349283549079
 20
-158.219455255584
 10
122.0349283549079
 20
-158.219455255584
 10
122.0349283549079
 20
-157.98449974349
 10
122.0349283549079
 20
-157.98449974349
 10
122.1089979078408
 20
-157.9820881766503
 10
122.3436089103863
 20
-157.970719361549
 10
122.3436089103863
 20
-157.6678954683955
 10
122.3436089103863
 20
-157.5207898911753
 10
122.2740179815843
 20
-157.3581813842715
 10
122.0456081509122
 20
-157.3581813842715
 10
121.9291639235107
 20
-157.3581813842715
 10
121.8805880771687
 20
-157.3988335109975
 10
121.8488931987044
 20
-157.4325954467529
 10
121.7748236457715
 20
-157.5118326429137
 10
121.7620767924761
 20
-157.6362005899312
 10
121.7620767924761
 20
-157.695111722729
 10
121.7620767924761
 20
-157.7154377860919
 10
121.7641438497673
 20
-157.7536783459782
 10
121.7682779643496
 20
-157.7833061671514
 10
121.7682779643496
 20
-157.7833061671514
 10
121.573630069433
 20
-157.7833061671514
 10
121.573630069433
 20
-157.7833061671514
 10
121.5801757508549
 20
-157.7426540404254
 10
121.5822428081461
 20
-157.6971787800201
 10
121.5822428081461
 20
-157.6906330985981
 10
121.5822428081461
 20
-157.6203531506991
 10
121.5608832161375
 20
-157.4077907592591
 10
121.3242051563009
 20
-157.4077907592591
 10
121.146438229262
 20
-157.4077907592591
 10
121.091316701498
 20
-157.5480061455088
 10
121.091316701498
 20
-157.6654839015558
 10
121.091316701498
 20
-157.9483262408948
 10
121.3242051563009
 20
-157.9572834891565
 10
121.3958631423941
 20
-157.9617621132873
 10
121.3958631423941
 20
-157.9617621132873
 10
121.3958631423941
 20
-158.1788031288581
 10
121.3958631423941
 20
-158.1788031288581
 10
121.271150685828
 20
-158.1698458805964
 10
120.8946017492902
 20
-158.1405625689718
 10
120.8946017492902
 20
-157.6520480291634
 10
120.8946017492902
 20
-157.41226938339
 10
121.0217257726959
 20
-157.1545762410933
 10
121.3176594748789
 20
-157.1545762410933
 10
121.5040391406309
 20
-157.1545762410933
 10
121.5863769227284
 20
-157.2565510674567
 10
121.6476996223658
 20
-157.3626600084024
 10
121.6752603862478
 20
-157.2972031941826
 10
121.7555311110542
 20
-157.102555299266
 10
122.0328612976168
 20
-157.102555299266
 10
122.3711696742683
 20
-157.102555299266
 10
122.5382568053029
 20
-157.3671386325332
 10
122.5382568053029
 20
-157.6634168442647
 97
        0
 97
        1
330
9E
 75
     2
 76
     1
 98
        1
 10
0.0
 20
0.0
450
        0
451
        0
460
0.0
461
0.0
452
        0
462
0.0
453
        0
470

  0
ENDBLK
  5
9D
330
9A
100
AcDbEntity
  8
0
100
AcDbBlockEnd
  0
BLOCK
  5
A5
330
A3
100
AcDbEntity
  8
0
100
AcDbBlockBegin
  2
Block_3
 70
     0
 10
0.0
 20
0.0
 30
0.0
  3
Block_3
  1

  0
INSERT
  5
A8
330
A3
100
AcDbEntity
  8
レイヤー 1
100
AcDbBlockReference
  2
Block_4
 10
0.0
 20
0.0
 30
0.0
  0
ENDBLK
  5
A6
330
A3
100
AcDbEntity
  8
0
100
AcDbBlockEnd
  0
BLOCK
  5
A9
330
A7
100
AcDbEntity
  8
0
100
AcDbBlockBegin
  2
Block_4
 70
     0
 10
0.0
 20
0.0
 30
0.0
  3
Block_4
  1

  0
SPLINE
  5
AB
330
A7
100
AcDbEntity
  8
レイヤー 1
100
AcDbSpline
210
0.0
220
0.0
230
1.0
 70
    11
 71
     3
 72
    26
 73
    22
 74
     0
 42
0.0000000001
 43
0.0000000001
 40
0.0
 40
0.0
 40
0.0
 40
0.0
 40
1.0
 40
1.0
 40
1.0
 40
2.0
 40
2.0
 40
2.0
 40
3.0
 40
3.0
 40
3.0
 40
4.0
 40
4.0
 40
4.0
 40
5.0
 40
5.0
 40
5.0
 40
6.0
 40
6.0
 40
6.0
 40
7.0
 40
7.0
 40
7.0
 40
7.0
 10
101.1576497142939
 20
-161.8030435793409
 30
0.0
 10
101.1576497142939
 20
-161.8030435793409
 30
0.0
 10
101.1576497142939
 20
-160.6988904763183
 30
0.0
 10
101.1576497142939
 20
-160.6988904763183
 30
0.0
 10
101.1576497142939
 20
-160.6988904763183
 30
0.0
 10
100.8048719366043
 20
-160.6988904763183
 30
0.0
 10
100.8048719366043
 20
-160.6988904763183
 30
0.0
 10
100.8048719366043
 20
-160.6988904763183
 30
0.0
 10
100.8048719366043
 20
-160.5507513704526
 30
0.0
 10
100.8048719366043
 20
-160.5507513704526
 30
0.0
 10
101.1598890263593
 20
-160.535937459866
 30
0.0
 10
101.2096706561212
 20
-160.3729844434137
 30
0.0
 10
101.2411932798112
 20
-160.2586072733034
 30
0.0
 10
101.2411932798112
 20
-160.2586072733034
 30
0.0
 10
101.397256105293
 20
-160.2586072733034
 30
0.0
 10
101.397256105293
 20
-160.2586072733034
 30
0.0
 10
101.397256105293
 20
-160.2586072733034
 30
0.0
 10
101.397256105293
 20
-161.8030435793409
 30
0.0
 10
101.397256105293
 20
-161.8030435793409
 30
0.0
 10
101.397256105293
 20
-161.8030435793409
 30
0.0
 10
101.1576497142939
 20
-161.8030435793409
 30
0.0
 10
101.1576497142939
 20
-161.8030435793409
 30
0.0
  0
HATCH
  5
AC
330
A7
100
AcDbEntity
  8
レイヤー 1
 62
   250
420
  2299925
440
 33554687
100
AcDbHatch
 10
0.0
 20
0.0
 30
0.0
210
0.0
220
0.0
230
1.0
  2
SOLID
 70
     1
 71
     1
 91
        1
 92
        1
 93
        1
 72
     4
 94
        3
 73
     0
 74
     0
 95
       26
 96
       22
 40
0.0
 40
0.0
 40
0.0
 40
0.0
 40
1.0
 40
1.0
 40
1.0
 40
2.0
 40
2.0
 40
2.0
 40
3.0
 40
3.0
 40
3.0
 40
4.0
 40
4.0
 40
4.0
 40
5.0
 40
5.0
 40
5.0
 40
6.0
 40
6.0
 40
6.0
 40
7.0
 40
7.0
 40
7.0
 40
7.0
 10
101.1576497142939
 20
-161.8030435793409
 10
101.1576497142939
 20
-161.8030435793409
 10
101.1576497142939
 20
-160.6988904763183
 10
101.1576497142939
 20
-160.6988904763183
 10
101.1576497142939
 20
-160.6988904763183
 10
100.8048719366043
 20
-160.6988904763183
 10
100.8048719366043
 20
-160.6988904763183
 10
100.8048719366043
 20
-160.6988904763183
 10
100.8048719366043
 20
-160.5507513704526
 10
100.8048719366043
 20
-160.5507513704526
 10
101.1598890263593
 20
-160.535937459866
 10
101.2096706561212
 20
-160.3729844434137
 10
101.2411932798112
 20
-160.2586072733034
 10
101.2411932798112
 20
-160.2586072733034
 10
101.397256105293
 20
-160.2586072733034
 10
101.397256105293
 20
-160.2586072733034
 10
101.397256105293
 20
-160.2586072733034
 10
101.397256105293
 20
-161.8030435793409
 10
101.397256105293
 20
-161.8030435793409
 10
101.397256105293
 20
-161.8030435793409
 10
101.1576497142939
 20
-161.8030435793409
 10
101.1576497142939
 20
-161.8030435793409
 97
        0
 97
        1
330
AB
 75
     2
 76
     1
 98
        1
 10
0.0
 20
0.0
450
        0
451
        0
460
0.0
461
0.0
452
        0
462
0.0
453
        0
470

  0
SPLINE
  5
AD
330
A7
100
AcDbEntity
  8
レイヤー 1
100
AcDbSpline
210
0.0
220
0.0
230
1.0
 70
     9
 71
     3
 72
    17
 73
    13
 74
     0
 42
0.0000000001
 43
0.0000000001
 40
0.0
 40
0.0
 40
0.0
 40
0.0
 40
1.0
 40
1.0
 40
1.0
 40
2.0
 40
2.0
 40
2.0
 40
3.0
 40
3.0
 40
3.0
 40
4.0
 40
4.0
 40
4.0
 40
4.0
 10
102.4674750177859
 20
-160.4026122645868
 30
0.0
 10
102.2006523724533
 20
-160.4026122645868
 30
0.0
 10
102.1508707426914
 20
-160.6861436230229
 30
0.0
 10
102.1508707426914
 20
-161.0309976810964
 30
0.0
 10
102.1508707426914
 20
-161.3503580325791
 30
0.0
 10
102.189283557352
 20
-161.6590385880574
 30
0.0
 10
102.4674750177859
 20
-161.6590385880574
 30
0.0
 10
102.7318860962788
 20
-161.6590385880574
 30
0.0
 10
102.7839070381061
 20
-161.3779187964611
 30
0.0
 10
102.7839070381061
 20
-161.0309976810964
 30
0.0
 10
102.7839070381061
 20
-160.7112928200652
 30
0.0
 10
102.7432549113801
 20
-160.4026122645868
 30
0.0
 10
102.4674750177859
 20
-160.4026122645868
 30
0.0
  0
SPLINE
  5
AE
330
A7
100
AcDbEntity
  8
レイヤー 1
100
AcDbSpline
210
0.0
220
0.0
230
1.0
 70
     9
 71
     3
 72
    29
 73
    25
 74
     0
 42
0.0000000001
 43
0.0000000001
 40
0.0
 40
0.0
 40
0.0
 40
0.0
 40
1.0
 40
1.0
 40
1.0
 40
2.0
 40
2.0
 40
2.0
 40
3.0
 40
3.0
 40
3.0
 40
4.0
 40
4.0
 40
4.0
 40
5.0
 40
5.0
 40
5.0
 40
6.0
 40
6.0
 40
6.0
 40
7.0
 40
7.0
 40
7.0
 40
8.0
 40
8.0
 40
8.0
 40
8.0
 10
102.8924275458914
 20
-161.625276652302
 30
0.0
 10
102.7771891019098
 20
-161.8347384578052
 30
0.0
 10
102.5918429648034
 20
-161.8536864829741
 30
0.0
 10
102.4674750177859
 20
-161.8536864829741
 30
0.0
 10
102.2955647530719
 20
-161.8536864829741
 30
0.0
 10
102.1441528064952
 20
-161.8071776939232
 30
0.0
 10
102.0423502349061
 20
-161.625276652302
 30
0.0
 10
101.9315904150553
 20
-161.4306287573854
 30
0.0
 10
101.9112643516923
 20
-161.1936061880002
 30
0.0
 10
101.9112643516923
 20
-161.0309976810964
 30
0.0
 10
101.9112643516923
 20
-160.886992689813
 30
0.0
 10
101.9293511029899
 20
-160.6351562098412
 30
0.0
 10
102.0423502349061
 20
-160.4363742003423
 30
0.0
 10
102.1577609336619
 20
-160.2334580762611
 30
0.0
 10
102.3294989436016
 20
-160.2100314269614
 30
0.0
 10
102.4674750177859
 20
-160.2100314269614
 30
0.0
 10
102.6369737156602
 20
-160.2100314269614
 30
0.0
 10
102.7907972290766
 20
-160.2544731587211
 30
0.0
 10
102.8924275458914
 20
-160.4363742003423
 30
0.0
 10
102.9987087416114
 20
-160.6289550379677
 30
0.0
 10
103.0236856838795
 20
-160.8573648686398
 30
0.0
 10
103.0236856838795
 20
-161.0309976810964
 30
0.0
 10
103.0236856838795
 20
-161.2022189267133
 30
0.0
 10
103.0009480536768
 20
-161.4326958146765
 30
0.0
 10
102.8924275458914
 20
-161.625276652302
 30
0.0
  0
HATCH
  5
AF
330
A7
100
AcDbEntity
  8
レイヤー 1
 62
   250
420
  2299925
440
 33554687
100
AcDbHatch
 10
0.0
 20
0.0
 30
0.0
210
0.0
220
0.0
230
1.0
  2
SOLID
 70
     1
 71
     1
 91
        2
 92
        1
 93
        1
 72
     4
 94
        3
 73
     0
 74
     0
 95
       17
 96
       13
 40
0.0
 40
0.0
 40
0.0
 40
0.0
 40
1.0
 40
1.0
 40
1.0
 40
2.0
 40
2.0
 40
2.0
 40
3.0
 40
3.0
 40
3.0
 40
4.0
 40
4.0
 40
4.0
 40
4.0
 10
102.4674750177859
 20
-160.4026122645868
 10
102.2006523724533
 20
-160.4026122645868
 10
102.1508707426914
 20
-160.6861436230229
 10
102.1508707426914
 20
-161.0309976810964
 10
102.1508707426914
 20
-161.3503580325791
 10
102.189283557352
 20
-161.6590385880574
 10
102.4674750177859
 20
-161.6590385880574
 10
102.7318860962788
 20
-161.6590385880574
 10
102.7839070381061
 20
-161.3779187964611
 10
102.7839070381061
 20
-161.0309976810964
 10
102.7839070381061
 20
-160.7112928200652
 10
102.7432549113801
 20
-160.4026122645868
 10
102.4674750177859
 20
-160.4026122645868
 97
        0
 97
        1
330
AD
 92
        1
 93
        1
 72
     4
 94
        3
 73
     0
 74
     0
 95
       29
 96
       25
 40
0.0
 40
0.0
 40
0.0
 40
0.0
 40
1.0
 40
1.0
 40
1.0
 40
2.0
 40
2.0
 40
2.0
 40
3.0
 40
3.0
 40
3.0
 40
4.0
 40
4.0
 40
4.0
 40
5.0
 40
5.0
 40
5.0
 40
6.0
 40
6.0
 40
6.0
 40
7.0
 40
7.0
 40
7.0
 40
8.0
 40
8.0
 40
8.0
 40
8.0
 10
102.8924275458914
 20
-161.625276652302
 10
102.7771891019098
 20
-161.8347384578052
 10
102.5918429648034
 20
-161.8536864829741
 10
102.4674750177859
 20
-161.8536864829741
 10
102.2955647530719
 20
-161.8536864829741
 10
102.1441528064952
 20
-161.8071776939232
 10
102.0423502349061
 20
-161.625276652302
 10
101.9315904150553
 20
-161.4306287573854
 10
101.9112643516923
 20
-161.1936061880002
 10
101.9112643516923
 20
-161.0309976810964
 10
101.9112643516923
 20
-160.886992689813
 10
101.9293511029899
 20
-160.6351562098412
 10
102.0423502349061
 20
-160.4363742003423
 10
102.1577609336619
 20
-160.2334580762611
 10
102.3294989436016
 20
-160.2100314269614
 10
102.4674750177859
 20
-160.2100314269614
 10
102.6369737156602
 20
-160.2100314269614
 10
102.7907972290766
 20
-160.2544731587211
 10
102.8924275458914
 20
-160.4363742003423
 10
102.9987087416114
 20
-160.6289550379677
 10
103.0236856838795
 20
-160.8573648686398
 10
103.0236856838795
 20
-161.0309976810964
 10
103.0236856838795
 20
-161.2022189267133
 10
103.0009480536768
 20
-161.4326958146765
 10
102.8924275458914
 20
-161.625276652302
 97
        0
 97
        1
330
AE
 75
     2
 76
     1
 98
        1
 10
0.0
 20
0.0
450
        0
451
        0
460
0.0
461
0.0
452
        0
462
0.0
453
        0
470

  0
ENDBLK
  5
AA
330
A7
100
AcDbEntity
  8
0
100
AcDbBlockEnd
  0
BLOCK
  5
B5
330
B3
100
AcDbEntity
  8
0
100
AcDbBlockBegin
  2
Block_5
 70
     0
 10
0.0
 20
0.0
 30
0.0
  3
Block_5
  1

  0
INSERT
  5
B8
330
B3
100
AcDbEntity
  8
レイヤー 1
100
AcDbBlockReference
  2
Block_6
 10
0.0
 20
0.0
 30
0.0
  0
ENDBLK
  5
B6
330
B3
100
AcDbEntity
  8
0
100
AcDbBlockEnd
  0
BLOCK
  5
B9
330
B7
100
AcDbEntity
  8
0
100
AcDbBlockBegin
  2
Block_6
 70
     0
 10
0.0
 20
0.0
 30
0.0
  3
Block_6
  1

  0
SPLINE
  5
BB
330
B7
100
AcDbEntity
  8
レイヤー 1
100
AcDbSpline
210
0.0
220
0.0
230
1.0
 70
     9
 71
     3
 72
    44
 73
    40
 74
     0
 42
0.0000000001
 43
0.0000000001
 40
0.0
 40
0.0
 40
0.0
 40
0.0
 40
1.0
 40
1.0
 40
1.0
 40
2.0
 40
2.0
 40
2.0
 40
3.0
 40
3.0
 40
3.0
 40
4.0
 40
4.0
 40
4.0
 40
5.0
 40
5.0
 40
5.0
 40
6.0
 40
6.0
 40
6.0
 40
7.0
 40
7.0
 40
7.0
 40
8.0
 40
8.0
 40
8.0
 40
9.0
 40
9.0
 40
9.0
 40
10.0
 40
10.0
 40
10.0
 40
11.0
 40
11.0
 40
11.0
 40
12.0
 40
12.0
 40
12.0
 40
13.0
 40
13.0
 40
13.0
 40
13.0
 10
107.8090955676658
 20
-136.4211303369885
 30
0.0
 10
107.5762071128629
 20
-136.5797769840842
 30
0.0
 10
107.4766438533392
 20
-136.6538465370171
 30
0.0
 10
107.4246229115119
 20
-136.7976792735263
 30
0.0
 10
107.4246229115119
 20
-136.7976792735263
 30
0.0
 10
108.2569579807483
 20
-136.7976792735263
 30
0.0
 10
108.2569579807483
 20
-136.7976792735263
 30
0.0
 10
108.2569579807483
 20
-136.7976792735263
 30
0.0
 10
108.2569579807483
 20
-137.0028347096729
 30
0.0
 10
108.2569579807483
 20
-137.0028347096729
 30
0.0
 10
108.2569579807483
 20
-137.0028347096729
 30
0.0
 10
107.1579725209535
 20
-137.0028347096729
 30
0.0
 10
107.1579725209535
 20
-137.0028347096729
 30
0.0
 10
107.1920789662575
 20
-136.6452337983039
 30
0.0
 10
107.2620144046081
 20
-136.5670301307888
 30
0.0
 10
107.6733588055469
 20
-136.2686848617661
 30
0.0
 10
107.9468993870758
 20
-136.0699028522672
 30
0.0
 10
108.0171793349748
 20
-136.0022067259821
 30
0.0
 10
108.0171793349748
 20
-135.8647474161206
 30
0.0
 10
108.0171793349748
 20
-135.746236131428
 30
0.0
 10
107.9403537056538
 20
-135.6151502482142
 30
0.0
 10
107.729858371505
 20
-135.6151502482142
 30
0.0
 10
107.4518391658454
 20
-135.6151502482142
 30
0.0
 10
107.4428819175837
 20
-135.8456271361775
 30
0.0
 10
107.4384032934529
 20
-135.9620713635789
 30
0.0
 10
107.4384032934529
 20
-135.9620713635789
 30
0.0
 10
107.1986246476795
 20
-135.9620713635789
 30
0.0
 10
107.1986246476795
 20
-135.9620713635789
 30
0.0
 10
107.2075818959411
 20
-135.8351195949475
 30
0.0
 10
107.2189507110425
 20
-135.7229817369026
 30
0.0
 10
107.3050780981737
 20
-135.60447045221
 30
0.0
 10
107.4225558542207
 20
-135.4437567478231
 30
0.0
 10
107.6213378637197
 20
-135.4098225572934
 30
0.0
 10
107.7457058107372
 20
-135.4098225572934
 30
0.0
 10
108.0419840224687
 20
-135.4098225572934
 30
0.0
 10
108.2635036621702
 20
-135.59396291098
 30
0.0
 10
108.2635036621702
 20
-135.8668144734118
 30
0.0
 10
108.2635036621702
 20
-136.0952243040838
 30
0.0
 10
108.1391357151527
 20
-136.1947875636075
 30
0.0
 10
107.8090955676658
 20
-136.4211303369885
 30
0.0
  0
HATCH
  5
BC
330
B7
100
AcDbEntity
  8
レイヤー 1
 62
   250
420
  2299925
440
 33554687
100
AcDbHatch
 10
0.0
 20
0.0
 30
0.0
210
0.0
220
0.0
230
1.0
  2
SOLID
 70
     1
 71
     1
 91
        1
 92
        1
 93
        1
 72
     4
 94
        3
 73
     0
 74
     0
 95
       44
 96
       40
 40
0.0
 40
0.0
 40
0.0
 40
0.0
 40
1.0
 40
1.0
 40
1.0
 40
2.0
 40
2.0
 40
2.0
 40
3.0
 40
3.0
 40
3.0
 40
4.0
 40
4.0
 40
4.0
 40
5.0
 40
5.0
 40
5.0
 40
6.0
 40
6.0
 40
6.0
 40
7.0
 40
7.0
 40
7.0
 40
8.0
 40
8.0
 40
8.0
 40
9.0
 40
9.0
 40
9.0
 40
10.0
 40
10.0
 40
10.0
 40
11.0
 40
11.0
 40
11.0
 40
12.0
 40
12.0
 40
12.0
 40
13.0
 40
13.0
 40
13.0
 40
13.0
 10
107.8090955676658
 20
-136.4211303369885
 10
107.5762071128629
 20
-136.5797769840842
 10
107.4766438533392
 20
-136.6538465370171
 10
107.4246229115119
 20
-136.7976792735263
 10
107.4246229115119
 20
-136.7976792735263
 10
108.2569579807483
 20
-136.7976792735263
 10
108.2569579807483
 20
-136.7976792735263
 10
108.2569579807483
 20
-136.7976792735263
 10
108.2569579807483
 20
-137.0028347096729
 10
108.2569579807483
 20
-137.0028347096729
 10
108.2569579807483
 20
-137.0028347096729
 10
107.1579725209535
 20
-137.0028347096729
 10
107.1579725209535
 20
-137.0028347096729
 10
107.1920789662575
 20
-136.6452337983039
 10
107.2620144046081
 20
-136.5670301307888
 10
107.6733588055469
 20
-136.2686848617661
 10
107.9468993870758
 20
-136.0699028522672
 10
108.0171793349748
 20
-136.0022067259821
 10
108.0171793349748
 20
-135.8647474161206
 10
108.0171793349748
 20
-135.746236131428
 10
107.9403537056538
 20
-135.6151502482142
 10
107.729858371505
 20
-135.6151502482142
 10
107.4518391658454
 20
-135.6151502482142
 10
107.4428819175837
 20
-135.8456271361775
 10
107.4384032934529
 20
-135.9620713635789
 10
107.4384032934529
 20
-135.9620713635789
 10
107.1986246476795
 20
-135.9620713635789
 10
107.1986246476795
 20
-135.9620713635789
 10
107.2075818959411
 20
-135.8351195949475
 10
107.2189507110425
 20
-135.7229817369026
 10
107.3050780981737
 20
-135.60447045221
 10
107.4225558542207
 20
-135.4437567478231
 10
107.6213378637197
 20
-135.4098225572934
 10
107.7457058107372
 20
-135.4098225572934
 10
108.0419840224687
 20
-135.4098225572934
 10
108.2635036621702
 20
-135.59396291098
 10
108.2635036621702
 20
-135.8668144734118
 10
108.2635036621702
 20
-136.0952243040838
 10
108.1391357151527
 20
-136.1947875636075
 10
107.8090955676658
 20
-136.4211303369885
 97
        0
 97
        1
330
BB
 75
     2
 76
     1
 98
        1
 10
0.0
 20
0.0
450
        0
451
        0
460
0.0
461
0.0
452
        0
462
0.0
453
        0
470

  0
SPLINE
  5
BD
330
B7
100
AcDbEntity
  8
レイヤー 1
100
AcDbSpline
210
0.0
220
0.0
230
1.0
 70
     9
 71
     3
 72
    62
 73
    58
 74
     0
 42
0.0000000001
 43
0.0000000001
 40
0.0
 40
0.0
 40
0.0
 40
0.0
 40
1.0
 40
1.0
 40
1.0
 40
2.0
 40
2.0
 40
2.0
 40
3.0
 40
3.0
 40
3.0
 40
4.0
 40
4.0
 40
4.0
 40
5.0
 40
5.0
 40
5.0
 40
6.0
 40
6.0
 40
6.0
 40
7.0
 40
7.0
 40
7.0
 40
8.0
 40
8.0
 40
8.0
 40
9.0
 40
9.0
 40
9.0
 40
10.0
 40
10.0
 40
10.0
 40
11.0
 40
11.0
 40
11.0
 40
12.0
 40
12.0
 40
12.0
 40
13.0
 40
13.0
 40
13.0
 40
14.0
 40
14.0
 40
14.0
 40
15.0
 40
15.0
 40
15.0
 40
16.0
 40
16.0
 40
16.0
 40
17.0
 40
17.0
 40
17.0
 40
18.0
 40
18.0
 40
18.0
 40
19.0
 40
19.0
 40
19.0
 40
19.0
 10
108.9583794215451
 20
-137.0536498680803
 30
0.0
 10
108.8567491047302
 20
-137.0536498680803
 30
0.0
 10
108.6238606499273
 20
-137.032462530846
 30
0.0
 10
108.4905354546482
 20
-136.8462551198683
 30
0.0
 10
108.4112982584874
 20
-136.7341172618234
 30
0.0
 10
108.4068196343566
 20
-136.6347262570739
 30
0.0
 10
108.4023410102258
 20
-136.5501491629111
 30
0.0
 10
108.4023410102258
 20
-136.5501491629111
 30
0.0
 10
108.6372965223198
 20
-136.5501491629111
 30
0.0
 10
108.6372965223198
 20
-136.5501491629111
 30
0.0
 10
108.6397080891595
 20
-136.6242187158439
 30
0.0
 10
108.6510769042608
 20
-136.8590019731637
 30
0.0
 10
108.9539007974143
 20
-136.8590019731637
 30
0.0
 10
109.1010063746345
 20
-136.8590019731637
 30
0.0
 10
109.2636148815383
 20
-136.7892387895874
 30
0.0
 10
109.2636148815383
 20
-136.5606567041411
 30
0.0
 10
109.2636148815383
 20
-136.4443847315139
 30
0.0
 10
109.2229627548123
 20
-136.3956366303976
 30
0.0
 10
109.1892008190568
 20
-136.3639417519333
 30
0.0
 10
109.1099636228961
 20
-136.2898721990004
 30
0.0
 10
108.9855956758786
 20
-136.2772976004793
 30
0.0
 10
108.9266845430808
 20
-136.2772976004793
 30
0.0
 10
108.9063584797179
 20
-136.2772976004793
 30
0.0
 10
108.8681179198316
 20
-136.2793646577704
 30
0.0
 10
108.8384900986584
 20
-136.2834987723527
 30
0.0
 10
108.8384900986584
 20
-136.2834987723527
 30
0.0
 10
108.8384900986584
 20
-136.0888508774361
 30
0.0
 10
108.8384900986584
 20
-136.0888508774361
 30
0.0
 10
108.8791422253844
 20
-136.0952243040838
 30
0.0
 10
108.9246174857896
 20
-136.0974636161492
 30
0.0
 10
108.9311631672116
 20
-136.0974636161492
 30
0.0
 10
109.0014431151107
 20
-136.0974636161492
 30
0.0
 10
109.2140055065506
 20
-136.076276278915
 30
0.0
 10
109.2140055065506
 20
-135.8392537095298
 30
0.0
 10
109.2140055065506
 20
-135.6616590372651
 30
0.0
 10
109.073790120301
 20
-135.6065375095011
 30
0.0
 10
108.956312364254
 20
-135.6065375095011
 30
0.0
 10
108.673470024915
 20
-135.6065375095011
 30
0.0
 10
108.6645127766533
 20
-135.8392537095298
 30
0.0
 10
108.6600341525225
 20
-135.9112562051715
 30
0.0
 10
108.6600341525225
 20
-135.9112562051715
 30
0.0
 10
108.4429931369517
 20
-135.9112562051715
 30
0.0
 10
108.4429931369517
 20
-135.9112562051715
 30
0.0
 10
108.4519503852134
 20
-135.7863714938312
 30
0.0
 10
108.481233696838
 20
-135.4098225572934
 30
0.0
 10
108.9697482366464
 20
-135.4098225572934
 30
0.0
 10
109.2095268824198
 20
-135.4098225572934
 30
0.0
 10
109.4672200247165
 20
-135.5367743259248
 30
0.0
 10
109.4672200247165
 20
-135.832880282882
 30
0.0
 10
109.4672200247165
 20
-136.0190876938598
 30
0.0
 10
109.3652451983531
 20
-136.1015977307315
 30
0.0
 10
109.2591362574074
 20
-136.162920430369
 30
0.0
 10
109.3245930716272
 20
-136.190481194251
 30
0.0
 10
109.5192409665438
 20
-136.2709241738316
 30
0.0
 10
109.5192409665438
 20
-136.5480821056199
 30
0.0
 10
109.5192409665438
 20
-136.8865627370457
 30
0.0
 10
109.2546576332766
 20
-137.0536498680803
 30
0.0
 10
108.9583794215451
 20
-137.0536498680803
 30
0.0
  0
HATCH
  5
BE
330
B7
100
AcDbEntity
  8
レイヤー 1
 62
   250
420
  2299925
440
 33554687
100
AcDbHatch
 10
0.0
 20
0.0
 30
0.0
210
0.0
220
0.0
230
1.0
  2
SOLID
 70
     1
 71
     1
 91
        1
 92
        1
 93
        1
 72
     4
 94
        3
 73
     0
 74
     0
 95
       62
 96
       58
 40
0.0
 40
0.0
 40
0.0
 40
0.0
 40
1.0
 40
1.0
 40
1.0
 40
2.0
 40
2.0
 40
2.0
 40
3.0
 40
3.0
 40
3.0
 40
4.0
 40
4.0
 40
4.0
 40
5.0
 40
5.0
 40
5.0
 40
6.0
 40
6.0
 40
6.0
 40
7.0
 40
7.0
 40
7.0
 40
8.0
 40
8.0
 40
8.0
 40
9.0
 40
9.0
 40
9.0
 40
10.0
 40
10.0
 40
10.0
 40
11.0
 40
11.0
 40
11.0
 40
12.0
 40
12.0
 40
12.0
 40
13.0
 40
13.0
 40
13.0
 40
14.0
 40
14.0
 40
14.0
 40
15.0
 40
15.0
 40
15.0
 40
16.0
 40
16.0
 40
16.0
 40
17.0
 40
17.0
 40
17.0
 40
18.0
 40
18.0
 40
18.0
 40
19.0
 40
19.0
 40
19.0
 40
19.0
 10
108.9583794215451
 20
-137.0536498680803
 10
108.8567491047302
 20
-137.0536498680803
 10
108.6238606499273
 20
-137.032462530846
 10
108.4905354546482
 20
-136.8462551198683
 10
108.4112982584874
 20
-136.7341172618234
 10
108.4068196343566
 20
-136.6347262570739
 10
108.4023410102258
 20
-136.5501491629111
 10
108.4023410102258
 20
-136.5501491629111
 10
108.6372965223198
 20
-136.5501491629111
 10
108.6372965223198
 20
-136.5501491629111
 10
108.6397080891595
 20
-136.6242187158439
 10
108.6510769042608
 20
-136.8590019731637
 10
108.9539007974143
 20
-136.8590019731637
 10
109.1010063746345
 20
-136.8590019731637
 10
109.2636148815383
 20
-136.7892387895874
 10
109.2636148815383
 20
-136.5606567041411
 10
109.2636148815383
 20
-136.4443847315139
 10
109.2229627548123
 20
-136.3956366303976
 10
109.1892008190568
 20
-136.3639417519333
 10
109.1099636228961
 20
-136.2898721990004
 10
108.9855956758786
 20
-136.2772976004793
 10
108.9266845430808
 20
-136.2772976004793
 10
108.9063584797179
 20
-136.2772976004793
 10
108.8681179198316
 20
-136.2793646577704
 10
108.8384900986584
 20
-136.2834987723527
 10
108.8384900986584
 20
-136.2834987723527
 10
108.8384900986584
 20
-136.0888508774361
 10
108.8384900986584
 20
-136.0888508774361
 10
108.8791422253844
 20
-136.0952243040838
 10
108.9246174857896
 20
-136.0974636161492
 10
108.9311631672116
 20
-136.0974636161492
 10
109.0014431151107
 20
-136.0974636161492
 10
109.2140055065506
 20
-136.076276278915
 10
109.2140055065506
 20
-135.8392537095298
 10
109.2140055065506
 20
-135.6616590372651
 10
109.073790120301
 20
-135.6065375095011
 10
108.956312364254
 20
-135.6065375095011
 10
108.673470024915
 20
-135.6065375095011
 10
108.6645127766533
 20
-135.8392537095298
 10
108.6600341525225
 20
-135.9112562051715
 10
108.6600341525225
 20
-135.9112562051715
 10
108.4429931369517
 20
-135.9112562051715
 10
108.4429931369517
 20
-135.9112562051715
 10
108.4519503852134
 20
-135.7863714938312
 10
108.481233696838
 20
-135.4098225572934
 10
108.9697482366464
 20
-135.4098225572934
 10
109.2095268824198
 20
-135.4098225572934
 10
109.4672200247165
 20
-135.5367743259248
 10
109.4672200247165
 20
-135.832880282882
 10
109.4672200247165
 20
-136.0190876938598
 10
109.3652451983531
 20
-136.1015977307315
 10
109.2591362574074
 20
-136.162920430369
 10
109.3245930716272
 20
-136.190481194251
 10
109.5192409665438
 20
-136.2709241738316
 10
109.5192409665438
 20
-136.5480821056199
 10
109.5192409665438
 20
-136.8865627370457
 10
109.2546576332766
 20
-137.0536498680803
 10
108.9583794215451
 20
-137.0536498680803
 97
        0
 97
        1
330
BD
 75
     2
 76
     1
 98
        1
 10
0.0
 20
0.0
450
        0
451
        0
460
0.0
461
0.0
452
        0
462
0.0
453
        0
470

  0
ENDBLK
  5
BA
330
B7
100
AcDbEntity
  8
0
100
AcDbBlockEnd
  0
BLOCK
  5
C3
330
C1
100
AcDbEntity
  8
0
100
AcDbBlockBegin
  2
Block_7
 70
     0
 10
0.0
 20
0.0
 30
0.0
  3
Block_7
  1

  0
INSERT
  5
C6
330
C1
100
AcDbEntity
  8
レイヤー 1
100
AcDbBlockReference
  2
Block_8
 10
0.0
 20
0.0
 30
0.0
  0
ENDBLK
  5
C4
330
C1
100
AcDbEntity
  8
0
100
AcDbBlockEnd
  0
BLOCK
  5
C7
330
C5
100
AcDbEntity
  8
0
100
AcDbBlockBegin
  2
Block_8
 70
     0
 10
0.0
 20
0.0
 30
0.0
  3
Block_8
  1

  0
SPLINE
  5
C9
330
C5
100
AcDbEntity
  8
レイヤー 1
100
AcDbSpline
210
0.0
220
0.0
230
1.0
 70
    11
 71
     3
 72
    26
 73
    22
 74
     0
 42
0.0000000001
 43
0.0000000001
 40
0.0
 40
0.0
 40
0.0
 40
0.0
 40
1.0
 40
1.0
 40
1.0
 40
2.0
 40
2.0
 40
2.0
 40
3.0
 40
3.0
 40
3.0
 40
4.0
 40
4.0
 40
4.0
 40
5.0
 40
5.0
 40
5.0
 40
6.0
 40
6.0
 40
6.0
 40
7.0
 40
7.0
 40
7.0
 40
7.0
 10
122.4876139016698
 20
-150.3353542375897
 30
0.0
 10
122.4876139016698
 20
-150.3353542375897
 30
0.0
 10
121.3834607986472
 20
-150.3353542375897
 30
0.0
 10
121.3834607986472
 20
-150.3353542375897
 30
0.0
 10
121.3834607986472
 20
-150.3353542375897
 30
0.0
 10
121.3834607986472
 20
-150.6877875057308
 30
0.0
 10
121.3834607986472
 20
-150.6877875057308
 30
0.0
 10
121.3834607986472
 20
-150.6877875057308
 30
0.0
 10
121.2353216927814
 20
-150.6877875057308
 30
0.0
 10
121.2353216927814
 20
-150.6877875057308
 30
0.0
 10
121.2205077821948
 20
-150.3329426707501
 30
0.0
 10
121.0575547657425
 20
-150.2833332957625
 30
0.0
 10
120.9431775956322
 20
-150.2516384172982
 30
0.0
 10
120.9431775956322
 20
-150.2516384172982
 30
0.0
 10
120.9431775956322
 20
-150.0955755918164
 30
0.0
 10
120.9431775956322
 20
-150.0955755918164
 30
0.0
 10
120.9431775956322
 20
-150.0955755918164
 30
0.0
 10
122.4876139016698
 20
-150.0955755918164
 30
0.0
 10
122.4876139016698
 20
-150.0955755918164
 30
0.0
 10
122.4876139016698
 20
-150.0955755918164
 30
0.0
 10
122.4876139016698
 20
-150.3353542375897
 30
0.0
 10
122.4876139016698
 20
-150.3353542375897
 30
0.0
  0
HATCH
  5
CA
330
C5
100
AcDbEntity
  8
レイヤー 1
 62
   250
420
  2299925
440
 33554687
100
AcDbHatch
 10
0.0
 20
0.0
 30
0.0
210
0.0
220
0.0
230
1.0
  2
SOLID
 70
     1
 71
     1
 91
        1
 92
        1
 93
        1
 72
     4
 94
        3
 73
     0
 74
     0
 95
       26
 96
       22
 40
0.0
 40
0.0
 40
0.0
 40
0.0
 40
1.0
 40
1.0
 40
1.0
 40
2.0
 40
2.0
 40
2.0
 40
3.0
 40
3.0
 40
3.0
 40
4.0
 40
4.0
 40
4.0
 40
5.0
 40
5.0
 40
5.0
 40
6.0
 40
6.0
 40
6.0
 40
7.0
 40
7.0
 40
7.0
 40
7.0
 10
122.4876139016698
 20
-150.3353542375897
 10
122.4876139016698
 20
-150.3353542375897
 10
121.3834607986472
 20
-150.3353542375897
 10
121.3834607986472
 20
-150.3353542375897
 10
121.3834607986472
 20
-150.3353542375897
 10
121.3834607986472
 20
-150.6877875057308
 10
121.3834607986472
 20
-150.6877875057308
 10
121.3834607986472
 20
-150.6877875057308
 10
121.2353216927814
 20
-150.6877875057308
 10
121.2353216927814
 20
-150.6877875057308
 10
121.2205077821948
 20
-150.3329426707501
 10
121.0575547657425
 20
-150.2833332957625
 10
120.9431775956322
 20
-150.2516384172982
 10
120.9431775956322
 20
-150.2516384172982
 10
120.9431775956322
 20
-150.0955755918164
 10
120.9431775956322
 20
-150.0955755918164
 10
120.9431775956322
 20
-150.0955755918164
 10
122.4876139016698
 20
-150.0955755918164
 10
122.4876139016698
 20
-150.0955755918164
 10
122.4876139016698
 20
-150.0955755918164
 10
122.4876139016698
 20
-150.3353542375897
 10
122.4876139016698
 20
-150.3353542375897
 97
        0
 97
        1
330
C9
 75
     2
 76
     1
 98
        1
 10
0.0
 20
0.0
450
        0
451
        0
460
0.0
461
0.0
452
        0
462
0.0
453
        0
470

  0
SPLINE
  5
CB
330
C5
100
AcDbEntity
  8
レイヤー 1
100
AcDbSpline
210
0.0
220
0.0
230
1.0
 70
     9
 71
     3
 72
    62
 73
    58
 74
     0
 42
0.0000000001
 43
0.0000000001
 40
0.0
 40
0.0
 40
0.0
 40
0.0
 40
1.0
 40
1.0
 40
1.0
 40
2.0
 40
2.0
 40
2.0
 40
3.0
 40
3.0
 40
3.0
 40
4.0
 40
4.0
 40
4.0
 40
5.0
 40
5.0
 40
5.0
 40
6.0
 40
6.0
 40
6.0
 40
7.0
 40
7.0
 40
7.0
 40
8.0
 40
8.0
 40
8.0
 40
9.0
 40
9.0
 40
9.0
 40
10.0
 40
10.0
 40
10.0
 40
11.0
 40
11.0
 40
11.0
 40
12.0
 40
12.0
 40
12.0
 40
13.0
 40
13.0
 40
13.0
 40
14.0
 40
14.0
 40
14.0
 40
15.0
 40
15.0
 40
15.0
 40
16.0
 40
16.0
 40
16.0
 40
17.0
 40
17.0
 40
17.0
 40
18.0
 40
18.0
 40
18.0
 40
19.0
 40
19.0
 40
19.0
 40
19.0
 10
122.5382568053029
 20
-149.0344861823594
 30
0.0
 10
122.5382568053029
 20
-149.1361164991743
 30
0.0
 10
122.5172417228429
 20
-149.3690049539772
 30
0.0
 10
122.3312065666394
 20
-149.5023301492564
 30
0.0
 10
122.2188964538203
 20
-149.5815673454171
 30
0.0
 10
122.1196777038451
 20
-149.5860459695479
 30
0.0
 10
122.0349283549079
 20
-149.5905245936787
 30
0.0
 10
122.0349283549079
 20
-149.5905245936787
 30
0.0
 10
122.0349283549079
 20
-149.3555690815847
 30
0.0
 10
122.0349283549079
 20
-149.3555690815847
 30
0.0
 10
122.1089979078408
 20
-149.353157514745
 30
0.0
 10
122.3436089103863
 20
-149.3417886996437
 30
0.0
 10
122.3436089103863
 20
-149.0389648064903
 30
0.0
 10
122.3436089103863
 20
-148.8918592292701
 30
0.0
 10
122.2740179815843
 20
-148.7292507223663
 30
0.0
 10
122.0456081509122
 20
-148.7292507223663
 30
0.0
 10
121.9291639235107
 20
-148.7292507223663
 30
0.0
 10
121.8805880771687
 20
-148.7699028490922
 30
0.0
 10
121.8488931987044
 20
-148.8040092943962
 30
0.0
 10
121.7748236457715
 20
-148.8829019810084
 30
0.0
 10
121.7620767924761
 20
-149.0072699280259
 30
0.0
 10
121.7620767924761
 20
-149.0661810608237
 30
0.0
 10
121.7620767924761
 20
-149.0865071241867
 30
0.0
 10
121.7641438497673
 20
-149.124747684073
 30
0.0
 10
121.7682779643496
 20
-149.1543755052461
 30
0.0
 10
121.7682779643496
 20
-149.1543755052461
 30
0.0
 10
121.573630069433
 20
-149.1543755052461
 30
0.0
 10
121.573630069433
 20
-149.1543755052461
 30
0.0
 10
121.5801757508549
 20
-149.1137233785202
 30
0.0
 10
121.5822428081461
 20
-149.0682481181149
 30
0.0
 10
121.5822428081461
 20
-149.0617024366929
 30
0.0
 10
121.5822428081461
 20
-148.9914224887938
 30
0.0
 10
121.5608832161375
 20
-148.7788600973539
 30
0.0
 10
121.3242051563009
 20
-148.7788600973539
 30
0.0
 10
121.146438229262
 20
-148.7788600973539
 30
0.0
 10
121.091316701498
 20
-148.9190754836035
 30
0.0
 10
121.091316701498
 20
-149.0365532396506
 30
0.0
 10
121.091316701498
 20
-149.3193955789896
 30
0.0
 10
121.3242051563009
 20
-149.3283528272512
 30
0.0
 10
121.3958631423941
 20
-149.3328314513821
 30
0.0
 10
121.3958631423941
 20
-149.3328314513821
 30
0.0
 10
121.3958631423941
 20
-149.5498724669528
 30
0.0
 10
121.3958631423941
 20
-149.5498724669528
 30
0.0
 10
121.271150685828
 20
-149.5409152186911
 30
0.0
 10
120.8946017492902
 20
-149.5116319070665
 30
0.0
 10
120.8946017492902
 20
-149.0231173672581
 30
0.0
 10
120.8946017492902
 20
-148.7833387214847
 30
0.0
 10
121.0217257726959
 20
-148.525645579188
 30
0.0
 10
121.3176594748789
 20
-148.525645579188
 30
0.0
 10
121.5040391406309
 20
-148.525645579188
 30
0.0
 10
121.5863769227284
 20
-148.6276204055514
 30
0.0
 10
121.6476996223658
 20
-148.7337293464971
 30
0.0
 10
121.6752603862478
 20
-148.6682725322773
 30
0.0
 10
121.7555311110542
 20
-148.4736246373607
 30
0.0
 10
122.0328612976168
 20
-148.4736246373607
 30
0.0
 10
122.3711696742683
 20
-148.4736246373607
 30
0.0
 10
122.5382568053029
 20
-148.738207970628
 30
0.0
 10
122.5382568053029
 20
-149.0344861823594
 30
0.0
  0
HATCH
  5
CC
330
C5
100
AcDbEntity
  8
レイヤー 1
 62
   250
420
  2299925
440
 33554687
100
AcDbHatch
 10
0.0
 20
0.0
 30
0.0
210
0.0
220
0.0
230
1.0
  2
SOLID
 70
     1
 71
     1
 91
        1
 92
        1
 93
        1
 72
     4
 94
        3
 73
     0
 74
     0
 95
       62
 96
       58
 40
0.0
 40
0.0
 40
0.0
 40
0.0
 40
1.0
 40
1.0
 40
1.0
 40
2.0
 40
2.0
 40
2.0
 40
3.0
 40
3.0
 40
3.0
 40
4.0
 40
4.0
 40
4.0
 40
5.0
 40
5.0
 40
5.0
 40
6.0
 40
6.0
 40
6.0
 40
7.0
 40
7.0
 40
7.0
 40
8.0
 40
8.0
 40
8.0
 40
9.0
 40
9.0
 40
9.0
 40
10.0
 40
10.0
 40
10.0
 40
11.0
 40
11.0
 40
11.0
 40
12.0
 40
12.0
 40
12.0
 40
13.0
 40
13.0
 40
13.0
 40
14.0
 40
14.0
 40
14.0
 40
15.0
 40
15.0
 40
15.0
 40
16.0
 40
16.0
 40
16.0
 40
17.0
 40
17.0
 40
17.0
 40
18.0
 40
18.0
 40
18.0
 40
19.0
 40
19.0
 40
19.0
 40
19.0
 10
122.5382568053029
 20
-149.0344861823594
 10
122.5382568053029
 20
-149.1361164991743
 10
122.5172417228429
 20
-149.3690049539772
 10
122.3312065666394
 20
-149.5023301492564
 10
122.2188964538203
 20
-149.5815673454171
 10
122.1196777038451
 20
-149.5860459695479
 10
122.0349283549079
 20
-149.5905245936787
 10
122.0349283549079
 20
-149.5905245936787
 10
122.0349283549079
 20
-149.3555690815847
 10
122.0349283549079
 20
-149.3555690815847
 10
122.1089979078408
 20
-149.353157514745
 10
122.3436089103863
 20
-149.3417886996437
 10
122.3436089103863
 20
-149.0389648064903
 10
122.3436089103863
 20
-148.8918592292701
 10
122.2740179815843
 20
-148.7292507223663
 10
122.0456081509122
 20
-148.7292507223663
 10
121.9291639235107
 20
-148.7292507223663
 10
121.8805880771687
 20
-148.7699028490922
 10
121.8488931987044
 20
-148.8040092943962
 10
121.7748236457715
 20
-148.8829019810084
 10
121.7620767924761
 20
-149.0072699280259
 10
121.7620767924761
 20
-149.0661810608237
 10
121.7620767924761
 20
-149.0865071241867
 10
121.7641438497673
 20
-149.124747684073
 10
121.7682779643496
 20
-149.1543755052461
 10
121.7682779643496
 20
-149.1543755052461
 10
121.573630069433
 20
-149.1543755052461
 10
121.573630069433
 20
-149.1543755052461
 10
121.5801757508549
 20
-149.1137233785202
 10
121.5822428081461
 20
-149.0682481181149
 10
121.5822428081461
 20
-149.0617024366929
 10
121.5822428081461
 20
-148.9914224887938
 10
121.5608832161375
 20
-148.7788600973539
 10
121.3242051563009
 20
-148.7788600973539
 10
121.146438229262
 20
-148.7788600973539
 10
121.091316701498
 20
-148.9190754836035
 10
121.091316701498
 20
-149.0365532396506
 10
121.091316701498
 20
-149.3193955789896
 10
121.3242051563009
 20
-149.3283528272512
 10
121.3958631423941
 20
-149.3328314513821
 10
121.3958631423941
 20
-149.3328314513821
 10
121.3958631423941
 20
-149.5498724669528
 10
121.3958631423941
 20
-149.5498724669528
 10
121.271150685828
 20
-149.5409152186911
 10
120.8946017492902
 20
-149.5116319070665
 10
120.8946017492902
 20
-149.0231173672581
 10
120.8946017492902
 20
-148.7833387214847
 10
121.0217257726959
 20
-148.525645579188
 10
121.3176594748789
 20
-148.525645579188
 10
121.5040391406309
 20
-148.525645579188
 10
121.5863769227284
 20
-148.6276204055514
 10
121.6476996223658
 20
-148.7337293464971
 10
121.6752603862478
 20
-148.6682725322773
 10
121.7555311110542
 20
-148.4736246373607
 10
122.0328612976168
 20
-148.4736246373607
 10
122.3711696742683
 20
-148.4736246373607
 10
122.5382568053029
 20
-148.738207970628
 10
122.5382568053029
 20
-149.0344861823594
 97
        0
 97
        1
330
CB
 75
     2
 76
     1
 98
        1
 10
0.0
 20
0.0
450
        0
451
        0
460
0.0
461
0.0
452
        0
462
0.0
453
        0
470

  0
ENDBLK
  5
C8
330
C5
100
AcDbEntity
  8
0
100
AcDbBlockEnd
  0
BLOCK
  5
D4
330
D2
100
AcDbEntity
  8
0
100
AcDbBlockBegin
  2
Block_9
 70
     0
 10
0.0
 20
0.0
 30
0.0
  3
Block_9
  1

  0
INSERT
  5
D7
330
D2
100
AcDbEntity
  8
レイヤー 1
100
AcDbBlockReference
  2
Block_10
 10
0.0
 20
0.0
 30
0.0
  0
ENDBLK
  5
D5
330
D2
100
AcDbEntity
  8
0
100
AcDbBlockEnd
  0
BLOCK
  5
D8
330
D6
100
AcDbEntity
  8
0
100
AcDbBlockBegin
  2
Block_10
 70
     0
 10
0.0
 20
0.0
 30
0.0
  3
Block_10
  1

  0
SPLINE
  5
DA
330
D6
100
AcDbEntity
  8
レイヤー 1
100
AcDbSpline
210
0.0
220
0.0
230
1.0
 70
     9
 71
     3
 72
    17
 73
    13
 74
     0
 42
0.0000000001
 43
0.0000000001
 40
0.0
 40
0.0
 40
0.0
 40
0.0
 40
1.0
 40
1.0
 40
1.0
 40
2.0
 40
2.0
 40
2.0
 40
3.0
 40
3.0
 40
3.0
 40
4.0
 40
4.0
 40
4.0
 40
4.0
 10
86.4205647570407
 20
-159.0039034975754
 30
0.0
 10
86.40368378916297
 20
-159.0331868092
 30
0.0
 10
86.35304088552979
 20
-159.1265488968503
 30
0.0
 10
86.34236108952553
 20
-159.1454969220192
 30
0.0
 10
86.53287486985984
 20
-159.2047525643655
 30
0.0
 10
86.55388995231986
 20
-159.2109537362389
 30
0.0
 10
86.62589244796158
 20
-159.2385145001209
 30
0.0
 10
86.68101397572558
 20
-159.1516980938926
 30
0.0
 10
86.70409611547675
 20
-159.0776285409598
 30
0.0
 10
86.71891002606333
 20
-159.0039034975754
 30
0.0
 10
86.71891002606333
 20
-159.0039034975754
 30
0.0
 10
86.4205647570407
 20
-159.0039034975754
 30
0.0
 10
86.4205647570407
 20
-159.0039034975754
 30
0.0
  0
SPLINE
  5
DB
330
D6
100
AcDbEntity
  8
レイヤー 1
100
AcDbSpline
210
0.0
220
0.0
230
1.0
 70
    11
 71
     3
 72
    20
 73
    16
 74
     0
 42
0.0000000001
 43
0.0000000001
 40
0.0
 40
0.0
 40
0.0
 40
0.0
 40
1.0
 40
1.0
 40
1.0
 40
2.0
 40
2.0
 40
2.0
 40
3.0
 40
3.0
 40
3.0
 40
4.0
 40
4.0
 40
4.0
 40
5.0
 40
5.0
 40
5.0
 40
5.0
 10
86.35717500011208
 20
-158.1533094222672
 30
0.0
 10
86.35717500011208
 20
-158.1533094222672
 30
0.0
 10
86.32548012164781
 20
-158.1533094222672
 30
0.0
 10
86.32548012164781
 20
-158.1533094222672
 30
0.0
 10
86.37198891069868
 20
-158.2528726817909
 30
0.0
 10
86.40368378916297
 20
-158.3331434065973
 30
0.0
 10
86.43744572491842
 20
-158.4599229204544
 30
0.0
 10
86.43744572491842
 20
-158.4599229204544
 30
0.0
 10
86.64484047313045
 20
-158.4599229204544
 30
0.0
 10
86.64484047313045
 20
-158.4599229204544
 30
0.0
 10
86.67653535159477
 20
-158.3669053423527
 30
0.0
 10
86.69996200089446
 20
-158.2825005029641
 30
0.0
 10
86.72304414064562
 20
-158.1533094222672
 30
0.0
 10
86.72304414064562
 20
-158.1533094222672
 30
0.0
 10
86.35717500011208
 20
-158.1533094222672
 30
0.0
 10
86.35717500011208
 20
-158.1533094222672
 30
0.0
  0
SPLINE
  5
DC
330
D6
100
AcDbEntity
  8
レイヤー 1
100
AcDbSpline
210
0.0
220
0.0
230
1.0
 70
     9
 71
     3
 72
   242
 73
   238
 74
     0
 42
0.0000000001
 43
0.0000000001
 40
0.0
 40
0.0
 40
0.0
 40
0.0
 40
1.0
 40
1.0
 40
1.0
 40
2.0
 40
2.0
 40
2.0
 40
3.0
 40
3.0
 40
3.0
 40
4.0
 40
4.0
 40
4.0
 40
5.0
 40
5.0
 40
5.0
 40
6.0
 40
6.0
 40
6.0
 40
7.0
 40
7.0
 40
7.0
 40
8.0
 40
8.0
 40
8.0
 40
9.0
 40
9.0
 40
9.0
 40
10.0
 40
10.0
 40
10.0
 40
11.0
 40
11.0
 40
11.0
 40
12.0
 40
12.0
 40
12.0
 40
13.0
 40
13.0
 40
13.0
 40
14.0
 40
14.0
 40
14.0
 40
15.0
 40
15.0
 40
15.0
 40
16.0
 40
16.0
 40
16.0
 40
17.0
 40
17.0
 40
17.0
 40
18.0
 40
18.0
 40
18.0
 40
19.0
 40
19.0
 40
19.0
 40
20.0
 40
20.0
 40
20.0
 40
21.0
 40
21.0
 40
21.0
 40
22.0
 40
22.0
 40
22.0
 40
23.0
 40
23.0
 40
23.0
 40
24.0
 40
24.0
 40
24.0
 40
25.0
 40
25.0
 40
25.0
 40
26.0
 40
26.0
 40
26.0
 40
27.0
 40
27.0
 40
27.0
 40
28.0
 40
28.0
 40
28.0
 40
29.0
 40
29.0
 40
29.0
 40
30.0
 40
30.0
 40
30.0
 40
31.0
 40
31.0
 40
31.0
 40
32.0
 40
32.0
 40
32.0
 40
33.0
 40
33.0
 40
33.0
 40
34.0
 40
34.0
 40
34.0
 40
35.0
 40
35.0
 40
35.0
 40
36.0
 40
36.0
 40
36.0
 40
37.0
 40
37.0
 40
37.0
 40
38.0
 40
38.0
 40
38.0
 40
39.0
 40
39.0
 40
39.0
 40
40.0
 40
40.0
 40
40.0
 40
41.0
 40
41.0
 40
41.0
 40
42.0
 40
42.0
 40
42.0
 40
43.0
 40
43.0
 40
43.0
 40
44.0
 40
44.0
 40
44.0
 40
45.0
 40
45.0
 40
45.0
 40
46.0
 40
46.0
 40
46.0
 40
47.0
 40
47.0
 40
47.0
 40
48.0
 40
48.0
 40
48.0
 40
49.0
 40
49.0
 40
49.0
 40
50.0
 40
50.0
 40
50.0
 40
51.0
 40
51.0
 40
51.0
 40
52.0
 40
52.0
 40
52.0
 40
53.0
 40
53.0
 40
53.0
 40
54.0
 40
54.0
 40
54.0
 40
55.0
 40
55.0
 40
55.0
 40
56.0
 40
56.0
 40
56.0
 40
57.0
 40
57.0
 40
57.0
 40
58.0
 40
58.0
 40
58.0
 40
59.0
 40
59.0
 40
59.0
 40
60.0
 40
60.0
 40
60.0
 40
61.0
 40
61.0
 40
61.0
 40
62.0
 40
62.0
 40
62.0
 40
63.0
 40
63.0
 40
63.0
 40
64.0
 40
64.0
 40
64.0
 40
65.0
 40
65.0
 40
65.0
 40
66.0
 40
66.0
 40
66.0
 40
67.0
 40
67.0
 40
67.0
 40
68.0
 40
68.0
 40
68.0
 40
69.0
 40
69.0
 40
69.0
 40
70.0
 40
70.0
 40
70.0
 40
71.0
 40
71.0
 40
71.0
 40
72.0
 40
72.0
 40
72.0
 40
73.0
 40
73.0
 40
73.0
 40
74.0
 40
74.0
 40
74.0
 40
75.0
 40
75.0
 40
75.0
 40
76.0
 40
76.0
 40
76.0
 40
77.0
 40
77.0
 40
77.0
 40
78.0
 40
78.0
 40
78.0
 40
79.0
 40
79.0
 40
79.0
 40
79.0
 10
86.98556041662167
 20
-158.6187418223245
 30
0.0
 10
86.98556041662167
 20
-158.6187418223245
 30
0.0
 10
86.73165687935876
 20
-158.6187418223245
 30
0.0
 10
86.73165687935876
 20
-158.6187418223245
 30
0.0
 10
86.73165687935876
 20
-158.6187418223245
 30
0.0
 10
86.45467120234467
 20
-158.6187418223245
 30
0.0
 10
86.45467120234467
 20
-158.6187418223245
 30
0.0
 10
86.45467120234467
 20
-158.6187418223245
 30
0.0
 10
86.58145071620186
 20
-158.661116496793
 30
0.0
 10
86.58145071620186
 20
-158.661116496793
 30
0.0
 10
86.59213051220614
 20
-158.6652506113753
 30
0.0
 10
86.60487736550157
 20
-158.6714517832488
 30
0.0
 10
86.60487736550157
 20
-158.6841986365442
 30
0.0
 10
86.60487736550157
 20
-158.7055582285527
 30
0.0
 10
86.57283797748874
 20
-158.7117594004262
 30
0.0
 10
86.55182289502873
 20
-158.7158935150085
 30
0.0
 10
86.54114309902444
 20
-158.7393201643082
 30
0.0
 10
86.51151527785129
 20
-158.8047769785279
 30
0.0
 10
86.49256725268243
 20
-158.8492187102877
 30
0.0
 10
86.49256725268243
 20
-158.8492187102877
 30
0.0
 10
86.76335175782305
 20
-158.8492187102877
 30
0.0
 10
86.76335175782305
 20
-158.8492187102877
 30
0.0
 10
86.85430227863365
 20
-158.8492187102877
 30
0.0
 10
87.0510172308414
 20
-158.8450845957054
 30
0.0
 10
87.1929551648337
 20
-158.8364718569923
 30
0.0
 10
87.1929551648337
 20
-158.8364718569923
 30
0.0
 10
87.1929551648337
 20
-159.0142387840311
 30
0.0
 10
87.1929551648337
 20
-159.0142387840311
 30
0.0
 10
87.11027287318771
 20
-159.0101046694489
 30
0.0
 10
87.08925779072769
 20
-159.0101046694489
 30
0.0
 10
86.90942380639766
 20
-159.0059705548665
 30
0.0
 10
86.87772892793335
 20
-159.1603108326058
 30
0.0
 10
86.83328719617362
 20
-159.240581557412
 30
0.0
 10
86.78884546441391
 20
-159.3105169957626
 30
0.0
 10
86.90942380639766
 20
-159.3697726381089
 30
0.0
 10
87.01518823779482
 20
-159.4372965096198
 30
0.0
 10
87.11888561190084
 20
-159.5199788012658
 30
0.0
 10
87.11888561190084
 20
-159.5199788012658
 30
0.0
 10
87.00037432720824
 20
-159.6870659323004
 30
0.0
 10
87.00037432720824
 20
-159.6870659323004
 30
0.0
 10
86.97694767790855
 20
-159.6681179071316
 30
0.0
 10
86.96420082461312
 20
-159.6595051684184
 30
0.0
 10
86.85223522134249
 20
-159.5747558194813
 30
0.0
 10
86.80365937500047
 20
-159.5368597691436
 30
0.0
 10
86.74440373265417
 20
-159.5010307760969
 30
0.0
 10
86.66378849829934
 20
-159.4565890443372
 30
0.0
 10
86.45225963550499
 20
-159.6426242005407
 30
0.0
 10
86.24727645413264
 20
-159.6660508498404
 30
0.0
 10
85.95719941427459
 20
-159.6956786710135
 30
0.0
 10
85.95719941427459
 20
-159.6956786710135
 30
0.0
 10
85.8538465497171
 20
-159.5158446866835
 30
0.0
 10
85.8538465497171
 20
-159.5158446866835
 30
0.0
 10
86.1711398439086
 20
-159.5113660625527
 30
0.0
 10
86.34649520410782
 20
-159.4862168655104
 30
0.0
 10
86.49876842455586
 20
-159.3759738099824
 30
0.0
 10
86.3806016494118
 20
-159.3253309063492
 30
0.0
 10
86.29171818589234
 20
-159.2977701424672
 30
0.0
 10
86.25554468329722
 20
-159.2850232891718
 30
0.0
 10
86.23659665812835
 20
-159.3125840530538
 30
0.0
 10
86.22178274754178
 20
-159.3315320782227
 30
0.0
 10
86.19422198365979
 20
-159.3656385235266
 30
0.0
 10
86.19422198365979
 20
-159.3656385235266
 30
0.0
 10
85.99750703145202
 20
-159.2829562318806
 30
0.0
 10
85.99750703145202
 20
-159.2829562318806
 30
0.0
 10
86.08018932309802
 20
-159.2026855070743
 30
0.0
 10
86.14151202273545
 20
-159.1072563621329
 30
0.0
 10
86.19835609824209
 20
-159.0059705548665
 30
0.0
 10
86.00818682745629
 20
-159.0101046694489
 30
0.0
 10
85.98682723544774
 20
-159.0101046694489
 30
0.0
 10
85.90448945335026
 20
-159.0142387840311
 30
0.0
 10
85.90448945335026
 20
-159.0142387840311
 30
0.0
 10
85.90448945335026
 20
-158.8364718569923
 30
0.0
 10
85.90448945335026
 20
-158.8364718569923
 30
0.0
 10
86.04401582050289
 20
-158.8430175384142
 30
0.0
 10
86.25347762600608
 20
-158.8471516529965
 30
0.0
 10
86.27897133259692
 20
-158.8471516529965
 30
0.0
 10
86.29585230047466
 20
-158.8133897172411
 30
0.0
 10
86.35097382823865
 20
-158.6928113752573
 30
0.0
 10
86.36992185340751
 20
-158.6187418223245
 30
0.0
 10
86.35097382823865
 20
-158.6187418223245
 30
0.0
 10
86.17320690119976
 20
-158.6249429941979
 30
0.0
 10
85.97855900628315
 20
-158.6376898474933
 30
0.0
 10
85.97855900628315
 20
-158.6376898474933
 30
0.0
 10
85.97855900628315
 20
-158.7710150427725
 30
0.0
 10
85.97855900628315
 20
-158.7710150427725
 30
0.0
 10
85.92998315994112
 20
-158.7965087493634
 30
0.0
 10
85.87072751759482
 20
-158.8282036278277
 30
0.0
 10
85.73740232231566
 20
-158.8936604420474
 30
0.0
 10
85.73740232231566
 20
-158.8936604420474
 30
0.0
 10
85.73740232231566
 20
-159.039732490622
 30
0.0
 10
85.73740232231566
 20
-159.039732490622
 30
0.0
 10
85.73740232231566
 20
-159.039732490622
 30
0.0
 10
85.73740232231566
 20
-159.5072319479704
 30
0.0
 10
85.73740232231566
 20
-159.5072319479704
 30
0.0
 10
85.73740232231566
 20
-159.6340114618276
 30
0.0
 10
85.70122881972052
 20
-159.6932671041739
 30
0.0
 10
85.41804197083299
 20
-159.6849988750093
 30
0.0
 10
85.41804197083299
 20
-159.6849988750093
 30
0.0
 10
85.31434459672697
 20
-159.4776041267973
 30
0.0
 10
85.31434459672697
 20
-159.4776041267973
 30
0.0
 10
85.37773435365556
 20
-159.4903509800927
 30
0.0
 10
85.42631019999758
 20
-159.494485094675
 30
0.0
 10
85.46661781717501
 20
-159.494485094675
 30
0.0
 10
85.54275442739903
 20
-159.494485094675
 30
0.0
 10
85.55343422340332
 20
-159.4714029549238
 30
0.0
 10
85.55343422340332
 20
-159.4056016311555
 30
0.0
 10
85.55343422340332
 20
-159.4056016311555
 30
0.0
 10
85.55343422340332
 20
-158.9763427336934
 30
0.0
 10
85.55343422340332
 20
-158.9763427336934
 30
0.0
 10
85.45593802117073
 20
-159.0163058413223
 30
0.0
 10
85.43905705329301
 20
-159.0228515227443
 30
0.0
 10
85.39254826424215
 20
-159.0417995479131
 30
0.0
 10
85.38841414965984
 20
-159.0628146303732
 30
0.0
 10
85.38393552552902
 20
-159.0924424515463
 30
0.0
 10
85.36498750036015
 20
-159.0924424515463
 30
0.0
 10
85.35671927119555
 20
-159.0924424515463
 30
0.0
 10
85.34603947519128
 20
-159.088308336964
 30
0.0
 10
85.33949379376929
 20
-159.0652261972128
 30
0.0
 10
85.33949379376929
 20
-159.0652261972128
 30
0.0
 10
85.28678383284498
 20
-158.8726453595874
 30
0.0
 10
85.28678383284498
 20
-158.8726453595874
 30
0.0
 10
85.43285588141957
 20
-158.8261365705365
 30
0.0
 10
85.49831269563931
 20
-158.8027099212368
 30
0.0
 10
85.55343422340332
 20
-158.7816948387768
 30
0.0
 10
85.55343422340332
 20
-158.7816948387768
 30
0.0
 10
85.55343422340332
 20
-158.3689723996438
 30
0.0
 10
85.55343422340332
 20
-158.3689723996438
 30
0.0
 10
85.55343422340332
 20
-158.3689723996438
 30
0.0
 10
85.50037975293047
 20
-158.3689723996438
 30
0.0
 10
85.50037975293047
 20
-158.3689723996438
 30
0.0
 10
85.50037975293047
 20
-158.3689723996438
 30
0.0
 10
85.42217608541529
 20
-158.3689723996438
 30
0.0
 10
85.42217608541529
 20
-158.3689723996438
 30
0.0
 10
85.35430770435587
 20
-158.3689723996438
 30
0.0
 10
85.34603947519128
 20
-158.3689723996438
 30
0.0
 10
85.30986597259614
 20
-158.3755180810658
 30
0.0
 10
85.30986597259614
 20
-158.3755180810658
 30
0.0
 10
85.30986597259614
 20
-158.1808701861492
 30
0.0
 10
85.30986597259614
 20
-158.1808701861492
 30
0.0
 10
85.33742673647815
 20
-158.1870713580227
 30
0.0
 10
85.34603947519128
 20
-158.1870713580227
 30
0.0
 10
85.41563040399331
 20
-158.1870713580227
 30
0.0
 10
85.41563040399331
 20
-158.1870713580227
 30
0.0
 10
85.54895559927249
 20
-158.1870713580227
 30
0.0
 10
85.54895559927249
 20
-158.1870713580227
 30
0.0
 10
85.54895559927249
 20
-158.1174804292206
 30
0.0
 10
85.54895559927249
 20
-158.0347981375746
 30
0.0
 10
85.54688854198133
 20
-158.0306640229923
 30
0.0
 10
85.53862031281672
 20
-157.8508300386623
 30
0.0
 10
85.53862031281672
 20
-157.8318820134934
 30
0.0
 10
85.53620874597706
 20
-157.7853732244425
 30
0.0
 10
85.53620874597706
 20
-157.7853732244425
 30
0.0
 10
85.75221623290223
 20
-157.7936414536071
 30
0.0
 10
85.75221623290223
 20
-157.7936414536071
 30
0.0
 10
85.7628960289065
 20
-157.7936414536071
 30
0.0
 10
85.78391111136651
 20
-157.7957085108983
 30
0.0
 10
85.78391111136651
 20
-157.812589478776
 30
0.0
 10
85.78391111136651
 20
-157.8318820134934
 30
0.0
 10
85.76909720077996
 20
-157.8422172999492
 30
0.0
 10
85.7436034941891
 20
-157.8615098346666
 30
0.0
 10
85.7436034941891
 20
-157.9121527382997
 30
0.0
 10
85.73740232231566
 20
-158.1405625689718
 30
0.0
 10
85.7394693796068
 20
-158.1870713580227
 30
0.0
 10
85.86866046030367
 20
-158.1870713580227
 30
0.0
 10
85.88106280405057
 20
-158.1870713580227
 30
0.0
 10
85.97855900628315
 20
-158.1788031288581
 30
0.0
 10
85.97855900628315
 20
-158.1788031288581
 30
0.0
 10
85.97855900628315
 20
-158.3734510237747
 30
0.0
 10
85.97855900628315
 20
-158.3734510237747
 30
0.0
 10
85.94031844639687
 20
-158.371039456935
 30
0.0
 10
85.87279457488596
 20
-158.3669053423527
 30
0.0
 10
85.73740232231566
 20
-158.3689723996438
 30
0.0
 10
85.73740232231566
 20
-158.3689723996438
 30
0.0
 10
85.73740232231566
 20
-158.7076252858439
 30
0.0
 10
85.73740232231566
 20
-158.7076252858439
 30
0.0
 10
85.79252385007965
 20
-158.6841986365442
 30
0.0
 10
85.85798066429941
 20
-158.6566378726622
 30
0.0
 10
85.90655651064142
 20
-158.633555732911
 30
0.0
 10
85.90655651064142
 20
-158.633555732911
 30
0.0
 10
85.90655651064142
 20
-158.4557888058722
 30
0.0
 10
85.90655651064142
 20
-158.4557888058722
 30
0.0
 10
86.02093368075172
 20
-158.4685356591676
 30
0.0
 10
86.13944496544432
 20
-158.4685356591676
 30
0.0
 10
86.25554468329722
 20
-158.4685356591676
 30
0.0
 10
86.23246254354604
 20
-158.3734510237747
 30
0.0
 10
86.20490177966406
 20
-158.2907687321287
 30
0.0
 10
86.14151202273545
 20
-158.1574435368495
 30
0.0
 10
86.09707029097574
 20
-158.1595105941407
 30
0.0
 10
86.01438799932974
 20
-158.1639892182715
 30
0.0
 10
85.97649194899199
 20
-158.1660562755626
 30
0.0
 10
85.97649194899199
 20
-158.1660562755626
 30
0.0
 10
85.97649194899199
 20
-157.9862222912326
 30
0.0
 10
85.97649194899199
 20
-157.9862222912326
 30
0.0
 10
86.10120440555803
 20
-157.9944905203972
 30
0.0
 10
86.27483721801462
 20
-157.998969144528
 30
0.0
 10
86.35717500011208
 20
-157.998969144528
 30
0.0
 10
86.35717500011208
 20
-157.998969144528
 30
0.0
 10
86.4398572917581
 20
-157.998969144528
 30
0.0
 10
86.4398572917581
 20
-157.998969144528
 30
0.0
 10
86.4398572917581
 20
-157.8360161280757
 30
0.0
 10
86.4398572917581
 20
-157.8253363320714
 30
0.0
 10
86.43744572491842
 20
-157.770559313856
 30
0.0
 10
86.43744572491842
 20
-157.770559313856
 30
0.0
 10
86.66172144100817
 20
-157.7957085108983
 30
0.0
 10
86.66172144100817
 20
-157.7957085108983
 30
0.0
 10
86.666200065139
 20
-157.7957085108983
 30
0.0
 10
86.68721514759903
 20
-157.7977755681894
 30
0.0
 10
86.68721514759903
 20
-157.8146565360672
 30
0.0
 10
86.68721514759903
 20
-157.8294704466537
 30
0.0
 10
86.67653535159477
 20
-157.8380831853669
 30
0.0
 10
86.64897458771276
 20
-157.8528970959534
 30
0.0
 10
86.64277341583931
 20
-157.9183539101732
 30
0.0
 10
86.64070635854816
 20
-157.9397135021817
 30
0.0
 10
86.64070635854816
 20
-157.998969144528
 30
0.0
 10
86.64070635854816
 20
-157.998969144528
 30
0.0
 10
86.73579099394105
 20
-157.998969144528
 30
0.0
 10
86.73579099394105
 20
-157.998969144528
 30
0.0
 10
86.81847328558705
 20
-157.998969144528
 30
0.0
 10
86.99176158849512
 20
-157.9944905203972
 30
0.0
 10
87.1168185546097
 20
-157.9862222912326
 30
0.0
 10
87.1168185546097
 20
-157.9862222912326
 30
0.0
 10
87.1168185546097
 20
-158.1660562755626
 30
0.0
 10
87.1168185546097
 20
-158.1660562755626
 30
0.0
 10
87.08719073343655
 20
-158.1639892182715
 30
0.0
 10
86.96867944874394
 20
-158.1595105941407
 30
0.0
 10
86.92837183156653
 20
-158.1574435368495
 30
0.0
 10
86.91355792097995
 20
-158.2084309500312
 30
0.0
 10
86.87979598522451
 20
-158.3203965533018
 30
0.0
 10
86.81399466145622
 20
-158.4599229204544
 30
0.0
 10
86.8563693359248
 20
-158.4599229204544
 30
0.0
 10
87.13369952248742
 20
-158.4409748952856
 30
0.0
 10
87.19502222212486
 20
-158.4389078379944
 30
0.0
 10
87.19502222212486
 20
-158.4389078379944
 30
0.0
 10
87.19502222212486
 20
-158.6228759369068
 30
0.0
 10
87.19502222212486
 20
-158.6228759369068
 30
0.0
 10
87.16539440095171
 20
-158.6228759369068
 30
0.0
 10
87.14851343307399
 20
-158.6187418223245
 30
0.0
 10
86.98556041662167
 20
-158.6187418223245
 30
0.0
  0
HATCH
  5
DD
330
D6
100
AcDbEntity
  8
レイヤー 1
 62
   250
420
  2299925
440
 33554687
100
AcDbHatch
 10
0.0
 20
0.0
 30
0.0
210
0.0
220
0.0
230
1.0
  2
SOLID
 70
     1
 71
     1
 91
        3
 92
        1
 93
        1
 72
     4
 94
        3
 73
     0
 74
     0
 95
       17
 96
       13
 40
0.0
 40
0.0
 40
0.0
 40
0.0
 40
1.0
 40
1.0
 40
1.0
 40
2.0
 40
2.0
 40
2.0
 40
3.0
 40
3.0
 40
3.0
 40
4.0
 40
4.0
 40
4.0
 40
4.0
 10
86.4205647570407
 20
-159.0039034975754
 10
86.40368378916297
 20
-159.0331868092
 10
86.35304088552979
 20
-159.1265488968503
 10
86.34236108952553
 20
-159.1454969220192
 10
86.53287486985984
 20
-159.2047525643655
 10
86.55388995231986
 20
-159.2109537362389
 10
86.62589244796158
 20
-159.2385145001209
 10
86.68101397572558
 20
-159.1516980938926
 10
86.70409611547675
 20
-159.0776285409598
 10
86.71891002606333
 20
-159.0039034975754
 10
86.71891002606333
 20
-159.0039034975754
 10
86.4205647570407
 20
-159.0039034975754
 10
86.4205647570407
 20
-159.0039034975754
 97
        0
 97
        1
330
DA
 92
        1
 93
        1
 72
     4
 94
        3
 73
     0
 74
     0
 95
       20
 96
       16
 40
0.0
 40
0.0
 40
0.0
 40
0.0
 40
1.0
 40
1.0
 40
1.0
 40
2.0
 40
2.0
 40
2.0
 40
3.0
 40
3.0
 40
3.0
 40
4.0
 40
4.0
 40
4.0
 40
5.0
 40
5.0
 40
5.0
 40
5.0
 10
86.35717500011208
 20
-158.1533094222672
 10
86.35717500011208
 20
-158.1533094222672
 10
86.32548012164781
 20
-158.1533094222672
 10
86.32548012164781
 20
-158.1533094222672
 10
86.37198891069868
 20
-158.2528726817909
 10
86.40368378916297
 20
-158.3331434065973
 10
86.43744572491842
 20
-158.4599229204544
 10
86.43744572491842
 20
-158.4599229204544
 10
86.64484047313045
 20
-158.4599229204544
 10
86.64484047313045
 20
-158.4599229204544
 10
86.67653535159477
 20
-158.3669053423527
 10
86.69996200089446
 20
-158.2825005029641
 10
86.72304414064562
 20
-158.1533094222672
 10
86.72304414064562
 20
-158.1533094222672
 10
86.35717500011208
 20
-158.1533094222672
 10
86.35717500011208
 20
-158.1533094222672
 97
        0
 97
        1
330
DB
 92
        1
 93
        1
 72
     4
 94
        3
 73
     0
 74
     0
 95
      242
 96
      238
 40
0.0
 40
0.0
 40
0.0
 40
0.0
 40
1.0
 40
1.0
 40
1.0
 40
2.0
 40
2.0
 40
2.0
 40
3.0
 40
3.0
 40
3.0
 40
4.0
 40
4.0
 40
4.0
 40
5.0
 40
5.0
 40
5.0
 40
6.0
 40
6.0
 40
6.0
 40
7.0
 40
7.0
 40
7.0
 40
8.0
 40
8.0
 40
8.0
 40
9.0
 40
9.0
 40
9.0
 40
10.0
 40
10.0
 40
10.0
 40
11.0
 40
11.0
 40
11.0
 40
12.0
 40
12.0
 40
12.0
 40
13.0
 40
13.0
 40
13.0
 40
14.0
 40
14.0
 40
14.0
 40
15.0
 40
15.0
 40
15.0
 40
16.0
 40
16.0
 40
16.0
 40
17.0
 40
17.0
 40
17.0
 40
18.0
 40
18.0
 40
18.0
 40
19.0
 40
19.0
 40
19.0
 40
20.0
 40
20.0
 40
20.0
 40
21.0
 40
21.0
 40
21.0
 40
22.0
 40
22.0
 40
22.0
 40
23.0
 40
23.0
 40
23.0
 40
24.0
 40
24.0
 40
24.0
 40
25.0
 40
25.0
 40
25.0
 40
26.0
 40
26.0
 40
26.0
 40
27.0
 40
27.0
 40
27.0
 40
28.0
 40
28.0
 40
28.0
 40
29.0
 40
29.0
 40
29.0
 40
30.0
 40
30.0
 40
30.0
 40
31.0
 40
31.0
 40
31.0
 40
32.0
 40
32.0
 40
32.0
 40
33.0
 40
33.0
 40
33.0
 40
34.0
 40
34.0
 40
34.0
 40
35.0
 40
35.0
 40
35.0
 40
36.0
 40
36.0
 40
36.0
 40
37.0
 40
37.0
 40
37.0
 40
38.0
 40
38.0
 40
38.0
 40
39.0
 40
39.0
 40
39.0
 40
40.0
 40
40.0
 40
40.0
 40
41.0
 40
41.0
 40
41.0
 40
42.0
 40
42.0
 40
42.0
 40
43.0
 40
43.0
 40
43.0
 40
44.0
 40
44.0
 40
44.0
 40
45.0
 40
45.0
 40
45.0
 40
46.0
 40
46.0
 40
46.0
 40
47.0
 40
47.0
 40
47.0
 40
48.0
 40
48.0
 40
48.0
 40
49.0
 40
49.0
 40
49.0
 40
50.0
 40
50.0
 40
50.0
 40
51.0
 40
51.0
 40
51.0
 40
52.0
 40
52.0
 40
52.0
 40
53.0
 40
53.0
 40
53.0
 40
54.0
 40
54.0
 40
54.0
 40
55.0
 40
55.0
 40
55.0
 40
56.0
 40
56.0
 40
56.0
 40
57.0
 40
57.0
 40
57.0
 40
58.0
 40
58.0
 40
58.0
 40
59.0
 40
59.0
 40
59.0
 40
60.0
 40
60.0
 40
60.0
 40
61.0
 40
61.0
 40
61.0
 40
62.0
 40
62.0
 40
62.0
 40
63.0
 40
63.0
 40
63.0
 40
64.0
 40
64.0
 40
64.0
 40
65.0
 40
65.0
 40
65.0
 40
66.0
 40
66.0
 40
66.0
 40
67.0
 40
67.0
 40
67.0
 40
68.0
 40
68.0
 40
68.0
 40
69.0
 40
69.0
 40
69.0
 40
70.0
 40
70.0
 40
70.0
 40
71.0
 40
71.0
 40
71.0
 40
72.0
 40
72.0
 40
72.0
 40
73.0
 40
73.0
 40
73.0
 40
74.0
 40
74.0
 40
74.0
 40
75.0
 40
75.0
 40
75.0
 40
76.0
 40
76.0
 40
76.0
 40
77.0
 40
77.0
 40
77.0
 40
78.0
 40
78.0
 40
78.0
 40
79.0
 40
79.0
 40
79.0
 40
79.0
 10
86.98556041662167
 20
-158.6187418223245
 10
86.98556041662167
 20
-158.6187418223245
 10
86.73165687935876
 20
-158.6187418223245
 10
86.73165687935876
 20
-158.6187418223245
 10
86.73165687935876
 20
-158.6187418223245
 10
86.45467120234467
 20
-158.6187418223245
 10
86.45467120234467
 20
-158.6187418223245
 10
86.45467120234467
 20
-158.6187418223245
 10
86.58145071620186
 20
-158.661116496793
 10
86.58145071620186
 20
-158.661116496793
 10
86.59213051220614
 20
-158.6652506113753
 10
86.60487736550157
 20
-158.6714517832488
 10
86.60487736550157
 20
-158.6841986365442
 10
86.60487736550157
 20
-158.7055582285527
 10
86.57283797748874
 20
-158.7117594004262
 10
86.55182289502873
 20
-158.7158935150085
 10
86.54114309902444
 20
-158.7393201643082
 10
86.51151527785129
 20
-158.8047769785279
 10
86.49256725268243
 20
-158.8492187102877
 10
86.49256725268243
 20
-158.8492187102877
 10
86.76335175782305
 20
-158.8492187102877
 10
86.76335175782305
 20
-158.8492187102877
 10
86.85430227863365
 20
-158.8492187102877
 10
87.0510172308414
 20
-158.8450845957054
 10
87.1929551648337
 20
-158.8364718569923
 10
87.1929551648337
 20
-158.8364718569923
 10
87.1929551648337
 20
-159.0142387840311
 10
87.1929551648337
 20
-159.0142387840311
 10
87.11027287318771
 20
-159.0101046694489
 10
87.08925779072769
 20
-159.0101046694489
 10
86.90942380639766
 20
-159.0059705548665
 10
86.87772892793335
 20
-159.1603108326058
 10
86.83328719617362
 20
-159.240581557412
 10
86.78884546441391
 20
-159.3105169957626
 10
86.90942380639766
 20
-159.3697726381089
 10
87.01518823779482
 20
-159.4372965096198
 10
87.11888561190084
 20
-159.5199788012658
 10
87.11888561190084
 20
-159.5199788012658
 10
87.00037432720824
 20
-159.6870659323004
 10
87.00037432720824
 20
-159.6870659323004
 10
86.97694767790855
 20
-159.6681179071316
 10
86.96420082461312
 20
-159.6595051684184
 10
86.85223522134249
 20
-159.5747558194813
 10
86.80365937500047
 20
-159.5368597691436
 10
86.74440373265417
 20
-159.5010307760969
 10
86.66378849829934
 20
-159.4565890443372
 10
86.45225963550499
 20
-159.6426242005407
 10
86.24727645413264
 20
-159.6660508498404
 10
85.95719941427459
 20
-159.6956786710135
 10
85.95719941427459
 20
-159.6956786710135
 10
85.8538465497171
 20
-159.5158446866835
 10
85.8538465497171
 20
-159.5158446866835
 10
86.1711398439086
 20
-159.5113660625527
 10
86.34649520410782
 20
-159.4862168655104
 10
86.49876842455586
 20
-159.3759738099824
 10
86.3806016494118
 20
-159.3253309063492
 10
86.29171818589234
 20
-159.2977701424672
 10
86.25554468329722
 20
-159.2850232891718
 10
86.23659665812835
 20
-159.3125840530538
 10
86.22178274754178
 20
-159.3315320782227
 10
86.19422198365979
 20
-159.3656385235266
 10
86.19422198365979
 20
-159.3656385235266
 10
85.99750703145202
 20
-159.2829562318806
 10
85.99750703145202
 20
-159.2829562318806
 10
86.08018932309802
 20
-159.2026855070743
 10
86.14151202273545
 20
-159.1072563621329
 10
86.19835609824209
 20
-159.0059705548665
 10
86.00818682745629
 20
-159.0101046694489
 10
85.98682723544774
 20
-159.0101046694489
 10
85.90448945335026
 20
-159.0142387840311
 10
85.90448945335026
 20
-159.0142387840311
 10
85.90448945335026
 20
-158.8364718569923
 10
85.90448945335026
 20
-158.8364718569923
 10
86.04401582050289
 20
-158.8430175384142
 10
86.25347762600608
 20
-158.8471516529965
 10
86.27897133259692
 20
-158.8471516529965
 10
86.29585230047466
 20
-158.8133897172411
 10
86.35097382823865
 20
-158.6928113752573
 10
86.36992185340751
 20
-158.6187418223245
 10
86.35097382823865
 20
-158.6187418223245
 10
86.17320690119976
 20
-158.6249429941979
 10
85.97855900628315
 20
-158.6376898474933
 10
85.97855900628315
 20
-158.6376898474933
 10
85.97855900628315
 20
-158.7710150427725
 10
85.97855900628315
 20
-158.7710150427725
 10
85.92998315994112
 20
-158.7965087493634
 10
85.87072751759482
 20
-158.8282036278277
 10
85.73740232231566
 20
-158.8936604420474
 10
85.73740232231566
 20
-158.8936604420474
 10
85.73740232231566
 20
-159.039732490622
 10
85.73740232231566
 20
-159.039732490622
 10
85.73740232231566
 20
-159.039732490622
 10
85.73740232231566
 20
-159.5072319479704
 10
85.73740232231566
 20
-159.5072319479704
 10
85.73740232231566
 20
-159.6340114618276
 10
85.70122881972052
 20
-159.6932671041739
 10
85.41804197083299
 20
-159.6849988750093
 10
85.41804197083299
 20
-159.6849988750093
 10
85.31434459672697
 20
-159.4776041267973
 10
85.31434459672697
 20
-159.4776041267973
 10
85.37773435365556
 20
-159.4903509800927
 10
85.42631019999758
 20
-159.494485094675
 10
85.46661781717501
 20
-159.494485094675
 10
85.54275442739903
 20
-159.494485094675
 10
85.55343422340332
 20
-159.4714029549238
 10
85.55343422340332
 20
-159.4056016311555
 10
85.55343422340332
 20
-159.4056016311555
 10
85.55343422340332
 20
-158.9763427336934
 10
85.55343422340332
 20
-158.9763427336934
 10
85.45593802117073
 20
-159.0163058413223
 10
85.43905705329301
 20
-159.0228515227443
 10
85.39254826424215
 20
-159.0417995479131
 10
85.38841414965984
 20
-159.0628146303732
 10
85.38393552552902
 20
-159.0924424515463
 10
85.36498750036015
 20
-159.0924424515463
 10
85.35671927119555
 20
-159.0924424515463
 10
85.34603947519128
 20
-159.088308336964
 10
85.33949379376929
 20
-159.0652261972128
 10
85.33949379376929
 20
-159.0652261972128
 10
85.28678383284498
 20
-158.8726453595874
 10
85.28678383284498
 20
-158.8726453595874
 10
85.43285588141957
 20
-158.8261365705365
 10
85.49831269563931
 20
-158.8027099212368
 10
85.55343422340332
 20
-158.7816948387768
 10
85.55343422340332
 20
-158.7816948387768
 10
85.55343422340332
 20
-158.3689723996438
 10
85.55343422340332
 20
-158.3689723996438
 10
85.55343422340332
 20
-158.3689723996438
 10
85.50037975293047
 20
-158.3689723996438
 10
85.50037975293047
 20
-158.3689723996438
 10
85.50037975293047
 20
-158.3689723996438
 10
85.42217608541529
 20
-158.3689723996438
 10
85.42217608541529
 20
-158.3689723996438
 10
85.35430770435587
 20
-158.3689723996438
 10
85.34603947519128
 20
-158.3689723996438
 10
85.30986597259614
 20
-158.3755180810658
 10
85.30986597259614
 20
-158.3755180810658
 10
85.30986597259614
 20
-158.1808701861492
 10
85.30986597259614
 20
-158.1808701861492
 10
85.33742673647815
 20
-158.1870713580227
 10
85.34603947519128
 20
-158.1870713580227
 10
85.41563040399331
 20
-158.1870713580227
 10
85.41563040399331
 20
-158.1870713580227
 10
85.54895559927249
 20
-158.1870713580227
 10
85.54895559927249
 20
-158.1870713580227
 10
85.54895559927249
 20
-158.1174804292206
 10
85.54895559927249
 20
-158.0347981375746
 10
85.54688854198133
 20
-158.0306640229923
 10
85.53862031281672
 20
-157.8508300386623
 10
85.53862031281672
 20
-157.8318820134934
 10
85.53620874597706
 20
-157.7853732244425
 10
85.53620874597706
 20
-157.7853732244425
 10
85.75221623290223
 20
-157.7936414536071
 10
85.75221623290223
 20
-157.7936414536071
 10
85.7628960289065
 20
-157.7936414536071
 10
85.78391111136651
 20
-157.7957085108983
 10
85.78391111136651
 20
-157.812589478776
 10
85.78391111136651
 20
-157.8318820134934
 10
85.76909720077996
 20
-157.8422172999492
 10
85.7436034941891
 20
-157.8615098346666
 10
85.7436034941891
 20
-157.9121527382997
 10
85.73740232231566
 20
-158.1405625689718
 10
85.7394693796068
 20
-158.1870713580227
 10
85.86866046030367
 20
-158.1870713580227
 10
85.88106280405057
 20
-158.1870713580227
 10
85.97855900628315
 20
-158.1788031288581
 10
85.97855900628315
 20
-158.1788031288581
 10
85.97855900628315
 20
-158.3734510237747
 10
85.97855900628315
 20
-158.3734510237747
 10
85.94031844639687
 20
-158.371039456935
 10
85.87279457488596
 20
-158.3669053423527
 10
85.73740232231566
 20
-158.3689723996438
 10
85.73740232231566
 20
-158.3689723996438
 10
85.73740232231566
 20
-158.7076252858439
 10
85.73740232231566
 20
-158.7076252858439
 10
85.79252385007965
 20
-158.6841986365442
 10
85.85798066429941
 20
-158.6566378726622
 10
85.90655651064142
 20
-158.633555732911
 10
85.90655651064142
 20
-158.633555732911
 10
85.90655651064142
 20
-158.4557888058722
 10
85.90655651064142
 20
-158.4557888058722
 10
86.02093368075172
 20
-158.4685356591676
 10
86.13944496544432
 20
-158.4685356591676
 10
86.25554468329722
 20
-158.4685356591676
 10
86.23246254354604
 20
-158.3734510237747
 10
86.20490177966406
 20
-158.2907687321287
 10
86.14151202273545
 20
-158.1574435368495
 10
86.09707029097574
 20
-158.1595105941407
 10
86.01438799932974
 20
-158.1639892182715
 10
85.97649194899199
 20
-158.1660562755626
 10
85.97649194899199
 20
-158.1660562755626
 10
85.97649194899199
 20
-157.9862222912326
 10
85.97649194899199
 20
-157.9862222912326
 10
86.10120440555803
 20
-157.9944905203972
 10
86.27483721801462
 20
-157.998969144528
 10
86.35717500011208
 20
-157.998969144528
 10
86.35717500011208
 20
-157.998969144528
 10
86.4398572917581
 20
-157.998969144528
 10
86.4398572917581
 20
-157.998969144528
 10
86.4398572917581
 20
-157.8360161280757
 10
86.4398572917581
 20
-157.8253363320714
 10
86.43744572491842
 20
-157.770559313856
 10
86.43744572491842
 20
-157.770559313856
 10
86.66172144100817
 20
-157.7957085108983
 10
86.66172144100817
 20
-157.7957085108983
 10
86.666200065139
 20
-157.7957085108983
 10
86.68721514759903
 20
-157.7977755681894
 10
86.68721514759903
 20
-157.8146565360672
 10
86.68721514759903
 20
-157.8294704466537
 10
86.67653535159477
 20
-157.8380831853669
 10
86.64897458771276
 20
-157.8528970959534
 10
86.64277341583931
 20
-157.9183539101732
 10
86.64070635854816
 20
-157.9397135021817
 10
86.64070635854816
 20
-157.998969144528
 10
86.64070635854816
 20
-157.998969144528
 10
86.73579099394105
 20
-157.998969144528
 10
86.73579099394105
 20
-157.998969144528
 10
86.81847328558705
 20
-157.998969144528
 10
86.99176158849512
 20
-157.9944905203972
 10
87.1168185546097
 20
-157.9862222912326
 10
87.1168185546097
 20
-157.9862222912326
 10
87.1168185546097
 20
-158.1660562755626
 10
87.1168185546097
 20
-158.1660562755626
 10
87.08719073343655
 20
-158.1639892182715
 10
86.96867944874394
 20
-158.1595105941407
 10
86.92837183156653
 20
-158.1574435368495
 10
86.91355792097995
 20
-158.2084309500312
 10
86.87979598522451
 20
-158.3203965533018
 10
86.81399466145622
 20
-158.4599229204544
 10
86.8563693359248
 20
-158.4599229204544
 10
87.13369952248742
 20
-158.4409748952856
 10
87.19502222212486
 20
-158.4389078379944
 10
87.19502222212486
 20
-158.4389078379944
 10
87.19502222212486
 20
-158.6228759369068
 10
87.19502222212486
 20
-158.6228759369068
 10
87.16539440095171
 20
-158.6228759369068
 10
87.14851343307399
 20
-158.6187418223245
 10
86.98556041662167
 20
-158.6187418223245
 97
        0
 97
        1
330
DC
 75
     2
 76
     1
 98
        1
 10
0.0
 20
0.0
450
        0
451
        0
460
0.0
461
0.0
452
        0
462
0.0
453
        0
470

  0
SPLINE
  5
DE
330
D6
100
AcDbEntity
  8
レイヤー 1
100
AcDbSpline
210
0.0
220
0.0
230
1.0
 70
    11
 71
     3
 72
    17
 73
    13
 74
     0
 42
0.0000000001
 43
0.0000000001
 40
0.0
 40
0.0
 40
0.0
 40
0.0
 40
1.0
 40
1.0
 40
1.0
 40
2.0
 40
2.0
 40
2.0
 40
3.0
 40
3.0
 40
3.0
 40
4.0
 40
4.0
 40
4.0
 40
4.0
 10
88.8421223736228
 20
-159.418348484451
 30
0.0
 10
88.8421223736228
 20
-159.418348484451
 30
0.0
 10
88.13553328959805
 20
-159.418348484451
 30
0.0
 10
88.13553328959805
 20
-159.418348484451
 30
0.0
 10
88.13553328959805
 20
-159.418348484451
 30
0.0
 10
88.13553328959805
 20
-159.5327256545612
 30
0.0
 10
88.13553328959805
 20
-159.5327256545612
 30
0.0
 10
88.13553328959805
 20
-159.5327256545612
 30
0.0
 10
88.8421223736228
 20
-159.5327256545612
 30
0.0
 10
88.8421223736228
 20
-159.5327256545612
 30
0.0
 10
88.8421223736228
 20
-159.5327256545612
 30
0.0
 10
88.8421223736228
 20
-159.418348484451
 30
0.0
 10
88.8421223736228
 20
-159.418348484451
 30
0.0
  0
SPLINE
  5
DF
330
D6
100
AcDbEntity
  8
レイヤー 1
100
AcDbSpline
210
0.0
220
0.0
230
1.0
 70
    11
 71
     3
 72
    17
 73
    13
 74
     0
 42
0.0000000001
 43
0.0000000001
 40
0.0
 40
0.0
 40
0.0
 40
0.0
 40
1.0
 40
1.0
 40
1.0
 40
2.0
 40
2.0
 40
2.0
 40
3.0
 40
3.0
 40
3.0
 40
4.0
 40
4.0
 40
4.0
 40
4.0
 10
88.8421223736228
 20
-159.1751247431923
 30
0.0
 10
88.8421223736228
 20
-159.1751247431923
 30
0.0
 10
88.13553328959805
 20
-159.1751247431923
 30
0.0
 10
88.13553328959805
 20
-159.1751247431923
 30
0.0
 10
88.13553328959805
 20
-159.1751247431923
 30
0.0
 10
88.13553328959805
 20
-159.2895019133026
 30
0.0
 10
88.13553328959805
 20
-159.2895019133026
 30
0.0
 10
88.13553328959805
 20
-159.2895019133026
 30
0.0
 10
88.8421223736228
 20
-159.2895019133026
 30
0.0
 10
88.8421223736228
 20
-159.2895019133026
 30
0.0
 10
88.8421223736228
 20
-159.2895019133026
 30
0.0
 10
88.8421223736228
 20
-159.1751247431923
 30
0.0
 10
88.8421223736228
 20
-159.1751247431923
 30
0.0
  0
SPLINE
  5
E0
330
D6
100
AcDbEntity
  8
レイヤー 1
100
AcDbSpline
210
0.0
220
0.0
230
1.0
 70
    11
 71
     3
 72
    17
 73
    13
 74
     0
 42
0.0000000001
 43
0.0000000001
 40
0.0
 40
0.0
 40
0.0
 40
0.0
 40
1.0
 40
1.0
 40
1.0
 40
2.0
 40
2.0
 40
2.0
 40
3.0
 40
3.0
 40
3.0
 40
4.0
 40
4.0
 40
4.0
 40
4.0
 10
88.8421223736228
 20
-158.9422362883894
 30
0.0
 10
88.8421223736228
 20
-158.9422362883894
 30
0.0
 10
88.13553328959805
 20
-158.9422362883894
 30
0.0
 10
88.13553328959805
 20
-158.9422362883894
 30
0.0
 10
88.13553328959805
 20
-158.9422362883894
 30
0.0
 10
88.13553328959805
 20
-159.0504122866263
 30
0.0
 10
88.13553328959805
 20
-159.0504122866263
 30
0.0
 10
88.13553328959805
 20
-159.0504122866263
 30
0.0
 10
88.8421223736228
 20
-159.0504122866263
 30
0.0
 10
88.8421223736228
 20
-159.0504122866263
 30
0.0
 10
88.8421223736228
 20
-159.0504122866263
 30
0.0
 10
88.8421223736228
 20
-158.9422362883894
 30
0.0
 10
88.8421223736228
 20
-158.9422362883894
 30
0.0
  0
SPLINE
  5
E1
330
D6
100
AcDbEntity
  8
レイヤー 1
100
AcDbSpline
210
0.0
220
0.0
230
1.0
 70
     9
 71
     3
 72
   203
 73
   199
 74
     0
 42
0.0000000001
 43
0.0000000001
 40
0.0
 40
0.0
 40
0.0
 40
0.0
 40
1.0
 40
1.0
 40
1.0
 40
2.0
 40
2.0
 40
2.0
 40
3.0
 40
3.0
 40
3.0
 40
4.0
 40
4.0
 40
4.0
 40
5.0
 40
5.0
 40
5.0
 40
6.0
 40
6.0
 40
6.0
 40
7.0
 40
7.0
 40
7.0
 40
8.0
 40
8.0
 40
8.0
 40
9.0
 40
9.0
 40
9.0
 40
10.0
 40
10.0
 40
10.0
 40
11.0
 40
11.0
 40
11.0
 40
12.0
 40
12.0
 40
12.0
 40
13.0
 40
13.0
 40
13.0
 40
14.0
 40
14.0
 40
14.0
 40
15.0
 40
15.0
 40
15.0
 40
16.0
 40
16.0
 40
16.0
 40
17.0
 40
17.0
 40
17.0
 40
18.0
 40
18.0
 40
18.0
 40
19.0
 40
19.0
 40
19.0
 40
20.0
 40
20.0
 40
20.0
 40
21.0
 40
21.0
 40
21.0
 40
22.0
 40
22.0
 40
22.0
 40
23.0
 40
23.0
 40
23.0
 40
24.0
 40
24.0
 40
24.0
 40
25.0
 40
25.0
 40
25.0
 40
26.0
 40
26.0
 40
26.0
 40
27.0
 40
27.0
 40
27.0
 40
28.0
 40
28.0
 40
28.0
 40
29.0
 40
29.0
 40
29.0
 40
30.0
 40
30.0
 40
30.0
 40
31.0
 40
31.0
 40
31.0
 40
32.0
 40
32.0
 40
32.0
 40
33.0
 40
33.0
 40
33.0
 40
34.0
 40
34.0
 40
34.0
 40
35.0
 40
35.0
 40
35.0
 40
36.0
 40
36.0
 40
36.0
 40
37.0
 40
37.0
 40
37.0
 40
38.0
 40
38.0
 40
38.0
 40
39.0
 40
39.0
 40
39.0
 40
40.0
 40
40.0
 40
40.0
 40
41.0
 40
41.0
 40
41.0
 40
42.0
 40
42.0
 40
42.0
 40
43.0
 40
43.0
 40
43.0
 40
44.0
 40
44.0
 40
44.0
 40
45.0
 40
45.0
 40
45.0
 40
46.0
 40
46.0
 40
46.0
 40
47.0
 40
47.0
 40
47.0
 40
48.0
 40
48.0
 40
48.0
 40
49.0
 40
49.0
 40
49.0
 40
50.0
 40
50.0
 40
50.0
 40
51.0
 40
51.0
 40
51.0
 40
52.0
 40
52.0
 40
52.0
 40
53.0
 40
53.0
 40
53.0
 40
54.0
 40
54.0
 40
54.0
 40
55.0
 40
55.0
 40
55.0
 40
56.0
 40
56.0
 40
56.0
 40
57.0
 40
57.0
 40
57.0
 40
58.0
 40
58.0
 40
58.0
 40
59.0
 40
59.0
 40
59.0
 40
60.0
 40
60.0
 40
60.0
 40
61.0
 40
61.0
 40
61.0
 40
62.0
 40
62.0
 40
62.0
 40
63.0
 40
63.0
 40
63.0
 40
64.0
 40
64.0
 40
64.0
 40
65.0
 40
65.0
 40
65.0
 40
66.0
 40
66.0
 40
66.0
 40
66.0
 10
88.67710229987933
 20
-158.6862656938354
 30
0.0
 10
88.67710229987933
 20
-158.6862656938354
 30
0.0
 10
88.11830781217182
 20
-158.6862656938354
 30
0.0
 10
88.11830781217182
 20
-158.6862656938354
 30
0.0
 10
88.10797252571607
 20
-158.7307074255951
 30
0.0
 10
88.09935978700293
 20
-158.7624023040594
 30
0.0
 10
88.08661293370752
 20
-158.8006428639457
 30
0.0
 10
88.11210664029836
 20
-158.8006428639457
 30
0.0
 10
88.12692055088495
 20
-158.8027099212368
 30
0.0
 10
88.13312172275839
 20
-158.8027099212368
 30
0.0
 10
88.13312172275839
 20
-158.8027099212368
 30
0.0
 10
88.32156844580156
 20
-158.8027099212368
 30
0.0
 10
88.32156844580156
 20
-158.8027099212368
 30
0.0
 10
88.32156844580156
 20
-158.8027099212368
 30
0.0
 10
88.69605032504821
 20
-158.8027099212368
 30
0.0
 10
88.69605032504821
 20
-158.8027099212368
 30
0.0
 10
88.74669322868138
 20
-158.8027099212368
 30
0.0
 10
89.03022458711744
 20
-158.7899630679414
 30
0.0
 10
89.06191946558175
 20
-158.7899630679414
 30
0.0
 10
89.05985240829059
 20
-158.8175238318234
 30
0.0
 10
89.05778535099946
 20
-158.8364718569923
 30
0.0
 10
89.05778535099946
 20
-158.8660996781654
 30
0.0
 10
89.05571829370829
 20
-158.8977945566297
 30
0.0
 10
89.05571829370829
 20
-159.0331868092
 30
0.0
 10
89.05571829370829
 20
-159.060747573082
 30
0.0
 10
89.05571829370829
 20
-159.060747573082
 30
0.0
 10
89.05571829370829
 20
-159.3063828811803
 30
0.0
 10
89.05571829370829
 20
-159.3063828811803
 30
0.0
 10
89.05571829370829
 20
-159.3508246129401
 30
0.0
 10
89.05985240829059
 20
-159.5475395651478
 30
0.0
 10
89.0639865228729
 20
-159.6998127855959
 30
0.0
 10
89.0639865228729
 20
-159.6998127855959
 30
0.0
 10
88.83764374949199
 20
-159.6998127855959
 30
0.0
 10
88.83764374949199
 20
-159.6998127855959
 30
0.0
 10
88.83764374949199
 20
-159.6998127855959
 30
0.0
 10
88.83971080678312
 20
-159.6660508498404
 30
0.0
 10
88.83971080678312
 20
-159.6660508498404
 30
0.0
 10
88.83971080678312
 20
-159.6660508498404
 30
0.0
 10
88.13760034688922
 20
-159.6660508498404
 30
0.0
 10
88.13760034688922
 20
-159.6660508498404
 30
0.0
 10
88.13760034688922
 20
-159.6660508498404
 30
0.0
 10
88.13966740418036
 20
-159.6998127855959
 30
0.0
 10
88.13966740418036
 20
-159.6998127855959
 30
0.0
 10
88.13966740418036
 20
-159.6998127855959
 30
0.0
 10
87.92159285996405
 20
-159.6998127855959
 30
0.0
 10
87.92159285996405
 20
-159.6998127855959
 30
0.0
 10
87.92607148409487
 20
-159.6446912578319
 30
0.0
 10
87.92607148409487
 20
-159.6319444045364
 30
0.0
 10
87.93227265596831
 20
-159.5179117439747
 30
0.0
 10
87.93433971325947
 20
-159.4903509800927
 30
0.0
 10
87.93640677055062
 20
-159.3570257848135
 30
0.0
 10
87.93640677055062
 20
-159.3380777596446
 30
0.0
 10
87.93640677055062
 20
-159.3380777596446
 30
0.0
 10
87.93640677055062
 20
-159.1348171260149
 30
0.0
 10
87.93640677055062
 20
-159.1348171260149
 30
0.0
 10
87.796880403398
 20
-159.3845865486955
 30
0.0
 10
87.62772621507224
 20
-159.5158446866835
 30
0.0
 10
87.52196178367507
 20
-159.5813015009033
 30
0.0
 10
87.52196178367507
 20
-159.5813015009033
 30
0.0
 10
87.34832897121847
 20
-159.4417751337506
 30
0.0
 10
87.34832897121847
 20
-159.4417751337506
 30
0.0
 10
87.43721243473792
 20
-159.3907877205689
 30
0.0
 10
87.58121742602137
 20
-159.3039713143407
 30
0.0
 10
87.71867673588284
 20
-159.1096679289726
 30
0.0
 10
87.80962725669343
 20
-158.9825439055668
 30
0.0
 10
87.87508407091317
 20
-158.8388834238319
 30
0.0
 10
87.90919051621715
 20
-158.6862656938354
 30
0.0
 10
87.68043617599657
 20
-158.688677260675
 30
0.0
 10
87.50060219166652
 20
-158.6948784325485
 30
0.0
 10
87.40551755627363
 20
-158.6969454898396
 30
0.0
 10
87.40551755627363
 20
-158.6969454898396
 30
0.0
 10
87.40551755627363
 20
-158.5191785628007
 30
0.0
 10
87.40551755627363
 20
-158.5191785628007
 30
0.0
 10
87.6022325084814
 20
-158.5257242442227
 30
0.0
 10
87.88576386691746
 20
-158.529858358805
 30
0.0
 10
88.03597003007434
 20
-158.529858358805
 30
0.0
 10
88.03597003007434
 20
-158.529858358805
 30
0.0
 10
88.24956595015983
 20
-158.529858358805
 30
0.0
 10
88.24956595015983
 20
-158.529858358805
 30
0.0
 10
88.24956595015983
 20
-158.529858358805
 30
0.0
 10
88.24956595015983
 20
-158.4220268701167
 30
0.0
 10
88.24956595015983
 20
-158.4220268701167
 30
0.0
 10
88.24956595015983
 20
-158.4220268701167
 30
0.0
 10
88.10349390158524
 20
-158.4220268701167
 30
0.0
 10
88.10349390158524
 20
-158.4220268701167
 30
0.0
 10
87.93433971325947
 20
-158.4220268701167
 30
0.0
 10
87.76518552493371
 20
-158.426160984699
 30
0.0
 10
87.59809839389909
 20
-158.432706666121
 30
0.0
 10
87.59809839389909
 20
-158.432706666121
 30
0.0
 10
87.59809839389909
 20
-158.2611409109555
 30
0.0
 10
87.59809839389909
 20
-158.2611409109555
 30
0.0
 10
87.75243867163828
 20
-158.2718207069598
 30
0.0
 10
87.93847382784177
 20
-158.2718207069598
 30
0.0
 10
88.10349390158524
 20
-158.2718207069598
 30
0.0
 10
88.10349390158524
 20
-158.2718207069598
 30
0.0
 10
88.24956595015983
 20
-158.2718207069598
 30
0.0
 10
88.24956595015983
 20
-158.2718207069598
 30
0.0
 10
88.24956595015983
 20
-158.2718207069598
 30
0.0
 10
88.24956595015983
 20
-158.1533094222672
 30
0.0
 10
88.24956595015983
 20
-158.1533094222672
 30
0.0
 10
88.24956595015983
 20
-158.1533094222672
 30
0.0
 10
88.11830781217182
 20
-158.1533094222672
 30
0.0
 10
88.11830781217182
 20
-158.1533094222672
 30
0.0
 10
88.07179902312094
 20
-158.1533094222672
 30
0.0
 10
87.86888289903973
 20
-158.1619221609803
 30
0.0
 10
87.82650822457116
 20
-158.1619221609803
 30
0.0
 10
87.62359210048995
 20
-158.1660562755626
 30
0.0
 10
87.54711098071739
 20
-158.1681233328538
 30
0.0
 10
87.46890731320222
 20
-158.1701903901449
 30
0.0
 10
87.46890731320222
 20
-158.1701903901449
 30
0.0
 10
87.46890731320222
 20
-157.9862222912326
 30
0.0
 10
87.46890731320222
 20
-157.9862222912326
 30
0.0
 10
87.58328448331251
 20
-157.9944905203972
 30
0.0
 10
87.62772621507224
 20
-157.9944905203972
 30
0.0
 10
88.0104763234835
 20
-158.0031032591103
 30
0.0
 10
87.9470865665549
 20
-157.9080186237174
 30
0.0
 10
87.9195258026729
 20
-157.8804578598354
 30
0.0
 10
87.88369680962629
 20
-157.8442843572403
 30
0.0
 10
87.88369680962629
 20
-157.8442843572403
 30
0.0
 10
88.05905216982552
 20
-157.7619465751428
 30
0.0
 10
88.05905216982552
 20
-157.7619465751428
 30
0.0
 10
88.09935978700293
 20
-157.7977755681894
 30
0.0
 10
88.14380151876267
 20
-157.840150242658
 30
0.0
 10
88.21787107169553
 20
-157.9500487886375
 30
0.0
 10
88.21787107169553
 20
-157.9500487886375
 30
0.0
 10
88.10349390158524
 20
-158.0051703164015
 30
0.0
 10
88.10349390158524
 20
-158.0051703164015
 30
0.0
 10
88.10349390158524
 20
-158.0051703164015
 30
0.0
 10
88.11417369758952
 20
-158.0051703164015
 30
0.0
 10
88.11417369758952
 20
-158.0051703164015
 30
0.0
 10
88.11417369758952
 20
-158.0051703164015
 30
0.0
 10
88.63679468270191
 20
-158.0051703164015
 30
0.0
 10
88.63679468270191
 20
-158.0051703164015
 30
0.0
 10
88.63679468270191
 20
-158.0051703164015
 30
0.0
 10
88.54171004730902
 20
-157.9607285846418
 30
0.0
 10
88.54171004730902
 20
-157.9607285846418
 30
0.0
 10
88.56892630164249
 20
-157.922832534304
 30
0.0
 10
88.62611488669763
 20
-157.8422172999492
 30
0.0
 10
88.64092879728422
 20
-157.7681477470163
 30
0.0
 10
88.64092879728422
 20
-157.7681477470163
 30
0.0
 10
88.8545247173697
 20
-157.8318820134934
 30
0.0
 10
88.8545247173697
 20
-157.8318820134934
 30
0.0
 10
88.86313745608282
 20
-157.8339490707845
 30
0.0
 10
88.88415253854285
 20
-157.8442843572403
 30
0.0
 10
88.88415253854285
 20
-157.8656439492488
 30
0.0
 10
88.88415253854285
 20
-157.9035399995866
 30
0.0
 10
88.81869572432311
 20
-157.9035399995866
 30
0.0
 10
88.79974769915424
 20
-157.9035399995866
 30
0.0
 10
88.78906790314996
 20
-157.922832534304
 30
0.0
 10
88.76564125385026
 20
-157.9627956419329
 30
0.0
 10
88.73601343267711
 20
-158.0031032591103
 30
0.0
 10
89.13598901851463
 20
-157.9969020872369
 30
0.0
 10
89.16561683968778
 20
-157.9944905203972
 30
0.0
 10
89.24175344991178
 20
-157.9882893485238
 30
0.0
 10
89.24175344991178
 20
-157.9882893485238
 30
0.0
 10
89.24175344991178
 20
-158.1701903901449
 30
0.0
 10
89.24175344991178
 20
-158.1701903901449
 30
0.0
 10
89.22280542474291
 20
-158.1701903901449
 30
0.0
 10
89.19731171815206
 20
-158.1681233328538
 30
0.0
 10
88.97751462619313
 20
-158.1595105941407
 30
0.0
 10
88.92652721301143
 20
-158.1574435368495
 30
0.0
 10
88.70673012105248
 20
-158.1533094222672
 30
0.0
 10
88.66228838929277
 20
-158.1533094222672
 30
0.0
 10
88.66228838929277
 20
-158.1533094222672
 30
0.0
 10
88.4462809023676
 20
-158.1533094222672
 30
0.0
 10
88.4462809023676
 20
-158.1533094222672
 30
0.0
 10
88.4462809023676
 20
-158.1533094222672
 30
0.0
 10
88.4462809023676
 20
-158.2718207069598
 30
0.0
 10
88.4462809023676
 20
-158.2718207069598
 30
0.0
 10
88.4462809023676
 20
-158.2718207069598
 30
0.0
 10
88.61991371482419
 20
-158.2718207069598
 30
0.0
 10
88.61991371482419
 20
-158.2718207069598
 30
0.0
 10
88.78286673127652
 20
-158.2718207069598
 30
0.0
 10
88.9730360020623
 20
-158.2718207069598
 30
0.0
 10
89.12978784664117
 20
-158.2611409109555
 30
0.0
 10
89.12978784664117
 20
-158.2611409109555
 30
0.0
 10
89.12978784664117
 20
-158.432706666121
 30
0.0
 10
89.12978784664117
 20
-158.432706666121
 30
0.0
 10
88.92032604113799
 20
-158.4240939274079
 30
0.0
 10
88.72361108893022
 20
-158.4220268701167
 30
0.0
 10
88.61991371482419
 20
-158.4220268701167
 30
0.0
 10
88.61991371482419
 20
-158.4220268701167
 30
0.0
 10
88.4462809023676
 20
-158.4220268701167
 30
0.0
 10
88.4462809023676
 20
-158.4220268701167
 30
0.0
 10
88.4462809023676
 20
-158.4220268701167
 30
0.0
 10
88.4462809023676
 20
-158.529858358805
 30
0.0
 10
88.4462809023676
 20
-158.529858358805
 30
0.0
 10
88.4462809023676
 20
-158.529858358805
 30
0.0
 10
88.67710229987933
 20
-158.529858358805
 30
0.0
 10
88.67710229987933
 20
-158.529858358805
 30
0.0
 10
88.81008298560997
 20
-158.529858358805
 30
0.0
 10
89.09809296817687
 20
-158.5257242442227
 30
0.0
 10
89.30721026413154
 20
-158.5191785628007
 30
0.0
 10
89.30721026413154
 20
-158.5191785628007
 30
0.0
 10
89.30721026413154
 20
-158.6969454898396
 30
0.0
 10
89.30721026413154
 20
-158.6969454898396
 30
0.0
 10
89.1149739360546
 20
-158.6907443179662
 30
0.0
 10
88.80181475644539
 20
-158.6862656938354
 30
0.0
 10
88.67710229987933
 20
-158.6862656938354
 30
0.0
  0
HATCH
  5
E2
330
D6
100
AcDbEntity
  8
レイヤー 1
 62
   250
420
  2299925
440
 33554687
100
AcDbHatch
 10
0.0
 20
0.0
 30
0.0
210
0.0
220
0.0
230
1.0
  2
SOLID
 70
     1
 71
     1
 91
        4
 92
        1
 93
        1
 72
     4
 94
        3
 73
     0
 74
     0
 95
       17
 96
       13
 40
0.0
 40
0.0
 40
0.0
 40
0.0
 40
1.0
 40
1.0
 40
1.0
 40
2.0
 40
2.0
 40
2.0
 40
3.0
 40
3.0
 40
3.0
 40
4.0
 40
4.0
 40
4.0
 40
4.0
 10
88.8421223736228
 20
-159.418348484451
 10
88.8421223736228
 20
-159.418348484451
 10
88.13553328959805
 20
-159.418348484451
 10
88.13553328959805
 20
-159.418348484451
 10
88.13553328959805
 20
-159.418348484451
 10
88.13553328959805
 20
-159.5327256545612
 10
88.13553328959805
 20
-159.5327256545612
 10
88.13553328959805
 20
-159.5327256545612
 10
88.8421223736228
 20
-159.5327256545612
 10
88.8421223736228
 20
-159.5327256545612
 10
88.8421223736228
 20
-159.5327256545612
 10
88.8421223736228
 20
-159.418348484451
 10
88.8421223736228
 20
-159.418348484451
 97
        0
 97
        1
330
DE
 92
        1
 93
        1
 72
     4
 94
        3
 73
     0
 74
     0
 95
       17
 96
       13
 40
0.0
 40
0.0
 40
0.0
 40
0.0
 40
1.0
 40
1.0
 40
1.0
 40
2.0
 40
2.0
 40
2.0
 40
3.0
 40
3.0
 40
3.0
 40
4.0
 40
4.0
 40
4.0
 40
4.0
 10
88.8421223736228
 20
-159.1751247431923
 10
88.8421223736228
 20
-159.1751247431923
 10
88.13553328959805
 20
-159.1751247431923
 10
88.13553328959805
 20
-159.1751247431923
 10
88.13553328959805
 20
-159.1751247431923
 10
88.13553328959805
 20
-159.2895019133026
 10
88.13553328959805
 20
-159.2895019133026
 10
88.13553328959805
 20
-159.2895019133026
 10
88.8421223736228
 20
-159.2895019133026
 10
88.8421223736228
 20
-159.2895019133026
 10
88.8421223736228
 20
-159.2895019133026
 10
88.8421223736228
 20
-159.1751247431923
 10
88.8421223736228
 20
-159.1751247431923
 97
        0
 97
        1
330
DF
 92
        1
 93
        1
 72
     4
 94
        3
 73
     0
 74
     0
 95
       17
 96
       13
 40
0.0
 40
0.0
 40
0.0
 40
0.0
 40
1.0
 40
1.0
 40
1.0
 40
2.0
 40
2.0
 40
2.0
 40
3.0
 40
3.0
 40
3.0
 40
4.0
 40
4.0
 40
4.0
 40
4.0
 10
88.8421223736228
 20
-158.9422362883894
 10
88.8421223736228
 20
-158.9422362883894
 10
88.13553328959805
 20
-158.9422362883894
 10
88.13553328959805
 20
-158.9422362883894
 10
88.13553328959805
 20
-158.9422362883894
 10
88.13553328959805
 20
-159.0504122866263
 10
88.13553328959805
 20
-159.0504122866263
 10
88.13553328959805
 20
-159.0504122866263
 10
88.8421223736228
 20
-159.0504122866263
 10
88.8421223736228
 20
-159.0504122866263
 10
88.8421223736228
 20
-159.0504122866263
 10
88.8421223736228
 20
-158.9422362883894
 10
88.8421223736228
 20
-158.9422362883894
 97
        0
 97
        1
330
E0
 92
        1
 93
        1
 72
     4
 94
        3
 73
     0
 74
     0
 95
      203
 96
      199
 40
0.0
 40
0.0
 40
0.0
 40
0.0
 40
1.0
 40
1.0
 40
1.0
 40
2.0
 40
2.0
 40
2.0
 40
3.0
 40
3.0
 40
3.0
 40
4.0
 40
4.0
 40
4.0
 40
5.0
 40
5.0
 40
5.0
 40
6.0
 40
6.0
 40
6.0
 40
7.0
 40
7.0
 40
7.0
 40
8.0
 40
8.0
 40
8.0
 40
9.0
 40
9.0
 40
9.0
 40
10.0
 40
10.0
 40
10.0
 40
11.0
 40
11.0
 40
11.0
 40
12.0
 40
12.0
 40
12.0
 40
13.0
 40
13.0
 40
13.0
 40
14.0
 40
14.0
 40
14.0
 40
15.0
 40
15.0
 40
15.0
 40
16.0
 40
16.0
 40
16.0
 40
17.0
 40
17.0
 40
17.0
 40
18.0
 40
18.0
 40
18.0
 40
19.0
 40
19.0
 40
19.0
 40
20.0
 40
20.0
 40
20.0
 40
21.0
 40
21.0
 40
21.0
 40
22.0
 40
22.0
 40
22.0
 40
23.0
 40
23.0
 40
23.0
 40
24.0
 40
24.0
 40
24.0
 40
25.0
 40
25.0
 40
25.0
 40
26.0
 40
26.0
 40
26.0
 40
27.0
 40
27.0
 40
27.0
 40
28.0
 40
28.0
 40
28.0
 40
29.0
 40
29.0
 40
29.0
 40
30.0
 40
30.0
 40
30.0
 40
31.0
 40
31.0
 40
31.0
 40
32.0
 40
32.0
 40
32.0
 40
33.0
 40
33.0
 40
33.0
 40
34.0
 40
34.0
 40
34.0
 40
35.0
 40
35.0
 40
35.0
 40
36.0
 40
36.0
 40
36.0
 40
37.0
 40
37.0
 40
37.0
 40
38.0
 40
38.0
 40
38.0
 40
39.0
 40
39.0
 40
39.0
 40
40.0
 40
40.0
 40
40.0
 40
41.0
 40
41.0
 40
41.0
 40
42.0
 40
42.0
 40
42.0
 40
43.0
 40
43.0
 40
43.0
 40
44.0
 40
44.0
 40
44.0
 40
45.0
 40
45.0
 40
45.0
 40
46.0
 40
46.0
 40
46.0
 40
47.0
 40
47.0
 40
47.0
 40
48.0
 40
48.0
 40
48.0
 40
49.0
 40
49.0
 40
49.0
 40
50.0
 40
50.0
 40
50.0
 40
51.0
 40
51.0
 40
51.0
 40
52.0
 40
52.0
 40
52.0
 40
53.0
 40
53.0
 40
53.0
 40
54.0
 40
54.0
 40
54.0
 40
55.0
 40
55.0
 40
55.0
 40
56.0
 40
56.0
 40
56.0
 40
57.0
 40
57.0
 40
57.0
 40
58.0
 40
58.0
 40
58.0
 40
59.0
 40
59.0
 40
59.0
 40
60.0
 40
60.0
 40
60.0
 40
61.0
 40
61.0
 40
61.0
 40
62.0
 40
62.0
 40
62.0
 40
63.0
 40
63.0
 40
63.0
 40
64.0
 40
64.0
 40
64.0
 40
65.0
 40
65.0
 40
65.0
 40
66.0
 40
66.0
 40
66.0
 40
66.0
 10
88.67710229987933
 20
-158.6862656938354
 10
88.67710229987933
 20
-158.6862656938354
 10
88.11830781217182
 20
-158.6862656938354
 10
88.11830781217182
 20
-158.6862656938354
 10
88.10797252571607
 20
-158.7307074255951
 10
88.09935978700293
 20
-158.7624023040594
 10
88.08661293370752
 20
-158.8006428639457
 10
88.11210664029836
 20
-158.8006428639457
 10
88.12692055088495
 20
-158.8027099212368
 10
88.13312172275839
 20
-158.8027099212368
 10
88.13312172275839
 20
-158.8027099212368
 10
88.32156844580156
 20
-158.8027099212368
 10
88.32156844580156
 20
-158.8027099212368
 10
88.32156844580156
 20
-158.8027099212368
 10
88.69605032504821
 20
-158.8027099212368
 10
88.69605032504821
 20
-158.8027099212368
 10
88.74669322868138
 20
-158.8027099212368
 10
89.03022458711744
 20
-158.7899630679414
 10
89.06191946558175
 20
-158.7899630679414
 10
89.05985240829059
 20
-158.8175238318234
 10
89.05778535099946
 20
-158.8364718569923
 10
89.05778535099946
 20
-158.8660996781654
 10
89.05571829370829
 20
-158.8977945566297
 10
89.05571829370829
 20
-159.0331868092
 10
89.05571829370829
 20
-159.060747573082
 10
89.05571829370829
 20
-159.060747573082
 10
89.05571829370829
 20
-159.3063828811803
 10
89.05571829370829
 20
-159.3063828811803
 10
89.05571829370829
 20
-159.3508246129401
 10
89.05985240829059
 20
-159.5475395651478
 10
89.0639865228729
 20
-159.6998127855959
 10
89.0639865228729
 20
-159.6998127855959
 10
88.83764374949199
 20
-159.6998127855959
 10
88.83764374949199
 20
-159.6998127855959
 10
88.83764374949199
 20
-159.6998127855959
 10
88.83971080678312
 20
-159.6660508498404
 10
88.83971080678312
 20
-159.6660508498404
 10
88.83971080678312
 20
-159.6660508498404
 10
88.13760034688922
 20
-159.6660508498404
 10
88.13760034688922
 20
-159.6660508498404
 10
88.13760034688922
 20
-159.6660508498404
 10
88.13966740418036
 20
-159.6998127855959
 10
88.13966740418036
 20
-159.6998127855959
 10
88.13966740418036
 20
-159.6998127855959
 10
87.92159285996405
 20
-159.6998127855959
 10
87.92159285996405
 20
-159.6998127855959
 10
87.92607148409487
 20
-159.6446912578319
 10
87.92607148409487
 20
-159.6319444045364
 10
87.93227265596831
 20
-159.5179117439747
 10
87.93433971325947
 20
-159.4903509800927
 10
87.93640677055062
 20
-159.3570257848135
 10
87.93640677055062
 20
-159.3380777596446
 10
87.93640677055062
 20
-159.3380777596446
 10
87.93640677055062
 20
-159.1348171260149
 10
87.93640677055062
 20
-159.1348171260149
 10
87.796880403398
 20
-159.3845865486955
 10
87.62772621507224
 20
-159.5158446866835
 10
87.52196178367507
 20
-159.5813015009033
 10
87.52196178367507
 20
-159.5813015009033
 10
87.34832897121847
 20
-159.4417751337506
 10
87.34832897121847
 20
-159.4417751337506
 10
87.43721243473792
 20
-159.3907877205689
 10
87.58121742602137
 20
-159.3039713143407
 10
87.71867673588284
 20
-159.1096679289726
 10
87.80962725669343
 20
-158.9825439055668
 10
87.87508407091317
 20
-158.8388834238319
 10
87.90919051621715
 20
-158.6862656938354
 10
87.68043617599657
 20
-158.688677260675
 10
87.50060219166652
 20
-158.6948784325485
 10
87.40551755627363
 20
-158.6969454898396
 10
87.40551755627363
 20
-158.6969454898396
 10
87.40551755627363
 20
-158.5191785628007
 10
87.40551755627363
 20
-158.5191785628007
 10
87.6022325084814
 20
-158.5257242442227
 10
87.88576386691746
 20
-158.529858358805
 10
88.03597003007434
 20
-158.529858358805
 10
88.03597003007434
 20
-158.529858358805
 10
88.24956595015983
 20
-158.529858358805
 10
88.24956595015983
 20
-158.529858358805
 10
88.24956595015983
 20
-158.529858358805
 10
88.24956595015983
 20
-158.4220268701167
 10
88.24956595015983
 20
-158.4220268701167
 10
88.24956595015983
 20
-158.4220268701167
 10
88.10349390158524
 20
-158.4220268701167
 10
88.10349390158524
 20
-158.4220268701167
 10
87.93433971325947
 20
-158.4220268701167
 10
87.76518552493371
 20
-158.426160984699
 10
87.59809839389909
 20
-158.432706666121
 10
87.59809839389909
 20
-158.432706666121
 10
87.59809839389909
 20
-158.2611409109555
 10
87.59809839389909
 20
-158.2611409109555
 10
87.75243867163828
 20
-158.2718207069598
 10
87.93847382784177
 20
-158.2718207069598
 10
88.10349390158524
 20
-158.2718207069598
 10
88.10349390158524
 20
-158.2718207069598
 10
88.24956595015983
 20
-158.2718207069598
 10
88.24956595015983
 20
-158.2718207069598
 10
88.24956595015983
 20
-158.2718207069598
 10
88.24956595015983
 20
-158.1533094222672
 10
88.24956595015983
 20
-158.1533094222672
 10
88.24956595015983
 20
-158.1533094222672
 10
88.11830781217182
 20
-158.1533094222672
 10
88.11830781217182
 20
-158.1533094222672
 10
88.07179902312094
 20
-158.1533094222672
 10
87.86888289903973
 20
-158.1619221609803
 10
87.82650822457116
 20
-158.1619221609803
 10
87.62359210048995
 20
-158.1660562755626
 10
87.54711098071739
 20
-158.1681233328538
 10
87.46890731320222
 20
-158.1701903901449
 10
87.46890731320222
 20
-158.1701903901449
 10
87.46890731320222
 20
-157.9862222912326
 10
87.46890731320222
 20
-157.9862222912326
 10
87.58328448331251
 20
-157.9944905203972
 10
87.62772621507224
 20
-157.9944905203972
 10
88.0104763234835
 20
-158.0031032591103
 10
87.9470865665549
 20
-157.9080186237174
 10
87.9195258026729
 20
-157.8804578598354
 10
87.88369680962629
 20
-157.8442843572403
 10
87.88369680962629
 20
-157.8442843572403
 10
88.05905216982552
 20
-157.7619465751428
 10
88.05905216982552
 20
-157.7619465751428
 10
88.09935978700293
 20
-157.7977755681894
 10
88.14380151876267
 20
-157.840150242658
 10
88.21787107169553
 20
-157.9500487886375
 10
88.21787107169553
 20
-157.9500487886375
 10
88.10349390158524
 20
-158.0051703164015
 10
88.10349390158524
 20
-158.0051703164015
 10
88.10349390158524
 20
-158.0051703164015
 10
88.11417369758952
 20
-158.0051703164015
 10
88.11417369758952
 20
-158.0051703164015
 10
88.11417369758952
 20
-158.0051703164015
 10
88.63679468270191
 20
-158.0051703164015
 10
88.63679468270191
 20
-158.0051703164015
 10
88.63679468270191
 20
-158.0051703164015
 10
88.54171004730902
 20
-157.9607285846418
 10
88.54171004730902
 20
-157.9607285846418
 10
88.56892630164249
 20
-157.922832534304
 10
88.62611488669763
 20
-157.8422172999492
 10
88.64092879728422
 20
-157.7681477470163
 10
88.64092879728422
 20
-157.7681477470163
 10
88.8545247173697
 20
-157.8318820134934
 10
88.8545247173697
 20
-157.8318820134934
 10
88.86313745608282
 20
-157.8339490707845
 10
88.88415253854285
 20
-157.8442843572403
 10
88.88415253854285
 20
-157.8656439492488
 10
88.88415253854285
 20
-157.9035399995866
 10
88.81869572432311
 20
-157.9035399995866
 10
88.79974769915424
 20
-157.9035399995866
 10
88.78906790314996
 20
-157.922832534304
 10
88.76564125385026
 20
-157.9627956419329
 10
88.73601343267711
 20
-158.0031032591103
 10
89.13598901851463
 20
-157.9969020872369
 10
89.16561683968778
 20
-157.9944905203972
 10
89.24175344991178
 20
-157.9882893485238
 10
89.24175344991178
 20
-157.9882893485238
 10
89.24175344991178
 20
-158.1701903901449
 10
89.24175344991178
 20
-158.1701903901449
 10
89.22280542474291
 20
-158.1701903901449
 10
89.19731171815206
 20
-158.1681233328538
 10
88.97751462619313
 20
-158.1595105941407
 10
88.92652721301143
 20
-158.1574435368495
 10
88.70673012105248
 20
-158.1533094222672
 10
88.66228838929277
 20
-158.1533094222672
 10
88.66228838929277
 20
-158.1533094222672
 10
88.4462809023676
 20
-158.1533094222672
 10
88.4462809023676
 20
-158.1533094222672
 10
88.4462809023676
 20
-158.1533094222672
 10
88.4462809023676
 20
-158.2718207069598
 10
88.4462809023676
 20
-158.2718207069598
 10
88.4462809023676
 20
-158.2718207069598
 10
88.61991371482419
 20
-158.2718207069598
 10
88.61991371482419
 20
-158.2718207069598
 10
88.78286673127652
 20
-158.2718207069598
 10
88.9730360020623
 20
-158.2718207069598
 10
89.12978784664117
 20
-158.2611409109555
 10
89.12978784664117
 20
-158.2611409109555
 10
89.12978784664117
 20
-158.432706666121
 10
89.12978784664117
 20
-158.432706666121
 10
88.92032604113799
 20
-158.4240939274079
 10
88.72361108893022
 20
-158.4220268701167
 10
88.61991371482419
 20
-158.4220268701167
 10
88.61991371482419
 20
-158.4220268701167
 10
88.4462809023676
 20
-158.4220268701167
 10
88.4462809023676
 20
-158.4220268701167
 10
88.4462809023676
 20
-158.4220268701167
 10
88.4462809023676
 20
-158.529858358805
 10
88.4462809023676
 20
-158.529858358805
 10
88.4462809023676
 20
-158.529858358805
 10
88.67710229987933
 20
-158.529858358805
 10
88.67710229987933
 20
-158.529858358805
 10
88.81008298560997
 20
-158.529858358805
 10
89.09809296817687
 20
-158.5257242442227
 10
89.30721026413154
 20
-158.5191785628007
 10
89.30721026413154
 20
-158.5191785628007
 10
89.30721026413154
 20
-158.6969454898396
 10
89.30721026413154
 20
-158.6969454898396
 10
89.1149739360546
 20
-158.6907443179662
 10
88.80181475644539
 20
-158.6862656938354
 10
88.67710229987933
 20
-158.6862656938354
 97
        0
 97
        1
330
E1
 75
     2
 76
     1
 98
        1
 10
0.0
 20
0.0
450
        0
451
        0
460
0.0
461
0.0
452
        0
462
0.0
453
        0
470

  0
SPLINE
  5
E3
330
D6
100
AcDbEntity
  8
レイヤー 1
100
AcDbSpline
210
0.0
220
0.0
230
1.0
 70
     9
 71
     3
 72
    29
 73
    25
 74
     0
 42
0.0000000001
 43
0.0000000001
 40
0.0
 40
0.0
 40
0.0
 40
0.0
 40
1.0
 40
1.0
 40
1.0
 40
2.0
 40
2.0
 40
2.0
 40
3.0
 40
3.0
 40
3.0
 40
4.0
 40
4.0
 40
4.0
 40
5.0
 40
5.0
 40
5.0
 40
6.0
 40
6.0
 40
6.0
 40
7.0
 40
7.0
 40
7.0
 40
8.0
 40
8.0
 40
8.0
 40
8.0
 10
90.55226777250082
 20
-158.1343613970983
 30
0.0
 10
90.55226777250082
 20
-158.1343613970983
 30
0.0
 10
90.19880097571419
 20
-158.1343613970983
 30
0.0
 10
90.19880097571419
 20
-158.1343613970983
 30
0.0
 10
90.08683537244356
 20
-158.1343613970983
 30
0.0
 10
89.94730900529097
 20
-158.1405625689718
 30
0.0
 10
89.83947751660263
 20
-158.1533094222672
 30
0.0
 10
89.83947751660263
 20
-158.1533094222672
 30
0.0
 10
89.83947751660263
 20
-157.9183539101732
 30
0.0
 10
89.83947751660263
 20
-157.9183539101732
 30
0.0
 10
89.9576442917467
 20
-157.9331678207597
 30
0.0
 10
90.14195690020757
 20
-157.9376464448906
 30
0.0
 10
90.19880097571419
 20
-157.9376464448906
 30
0.0
 10
90.19880097571419
 20
-157.9376464448906
 30
0.0
 10
90.55226777250082
 20
-157.9376464448906
 30
0.0
 10
90.55226777250082
 20
-157.9376464448906
 30
0.0
 10
90.57121579766969
 20
-157.9376464448906
 30
0.0
 10
90.77447643129945
 20
-157.9376464448906
 30
0.0
 10
90.91606985574321
 20
-157.9183539101732
 30
0.0
 10
90.91606985574321
 20
-157.9183539101732
 30
0.0
 10
90.91606985574321
 20
-158.1533094222672
 30
0.0
 10
90.91606985574321
 20
-158.1533094222672
 30
0.0
 10
90.75966252071287
 20
-158.1343613970983
 30
0.0
 10
90.56914874037856
 20
-158.1343613970983
 30
0.0
 10
90.55226777250082
 20
-158.1343613970983
 30
0.0
  0
SPLINE
  5
E4
330
D6
100
AcDbEntity
  8
レイヤー 1
100
AcDbSpline
210
0.0
220
0.0
230
1.0
 70
     9
 71
     3
 72
    47
 73
    43
 74
     0
 42
0.0000000001
 43
0.0000000001
 40
0.0
 40
0.0
 40
0.0
 40
0.0
 40
1.0
 40
1.0
 40
1.0
 40
2.0
 40
2.0
 40
2.0
 40
3.0
 40
3.0
 40
3.0
 40
4.0
 40
4.0
 40
4.0
 40
5.0
 40
5.0
 40
5.0
 40
6.0
 40
6.0
 40
6.0
 40
7.0
 40
7.0
 40
7.0
 40
8.0
 40
8.0
 40
8.0
 40
9.0
 40
9.0
 40
9.0
 40
10.0
 40
10.0
 40
10.0
 40
11.0
 40
11.0
 40
11.0
 40
12.0
 40
12.0
 40
12.0
 40
13.0
 40
13.0
 40
13.0
 40
14.0
 40
14.0
 40
14.0
 40
14.0
 10
90.6538980893157
 20
-158.6631835540842
 30
0.0
 10
90.6538980893157
 20
-158.6631835540842
 30
0.0
 10
90.55226777250082
 20
-158.6631835540842
 30
0.0
 10
90.55226777250082
 20
-158.6631835540842
 30
0.0
 10
90.55226777250082
 20
-158.7499999603125
 30
0.0
 10
90.5312526900408
 20
-159.1392957501457
 30
0.0
 10
90.33453773783303
 20
-159.3590928421046
 30
0.0
 10
90.18192000783647
 20
-159.5282470304304
 30
0.0
 10
89.97486976917295
 20
-159.598182468781
 30
0.0
 10
89.89012042023579
 20
-159.625743232663
 30
0.0
 10
89.89012042023579
 20
-159.625743232663
 30
0.0
 10
89.69547252531919
 20
-159.4586561016284
 30
0.0
 10
89.69547252531919
 20
-159.4586561016284
 30
0.0
 10
89.79296872755176
 20
-159.445909248333
 30
0.0
 10
89.96832408775096
 20
-159.4224825990333
 30
0.0
 10
90.15677081079415
 20
-159.2343803855386
 30
0.0
 10
90.23084036372701
 20
-159.1623778898969
 30
0.0
 10
90.33453773783303
 20
-159.0228515227443
 30
0.0
 10
90.33453773783303
 20
-158.6631835540842
 30
0.0
 10
90.33453773783303
 20
-158.6631835540842
 30
0.0
 10
90.1037163403213
 20
-158.6631835540842
 30
0.0
 10
90.1037163403213
 20
-158.6631835540842
 30
0.0
 10
89.91768118411782
 20
-158.6631835540842
 30
0.0
 10
89.7313015183658
 20
-158.6673176686665
 30
0.0
 10
89.54526636216229
 20
-158.6821315792531
 30
0.0
 10
89.54526636216229
 20
-158.6821315792531
 30
0.0
 10
89.54526636216229
 20
-158.4623344872941
 30
0.0
 10
89.54526636216229
 20
-158.4623344872941
 30
0.0
 10
89.73371308520546
 20
-158.4771483978807
 30
0.0
 10
90.01931150093268
 20
-158.481282512463
 30
0.0
 10
90.1037163403213
 20
-158.481282512463
 30
0.0
 10
90.1037163403213
 20
-158.481282512463
 30
0.0
 10
90.6538980893157
 20
-158.481282512463
 30
0.0
 10
90.6538980893157
 20
-158.481282512463
 30
0.0
 10
90.67284611448457
 20
-158.481282512463
 30
0.0
 10
90.99013940867608
 20
-158.481282512463
 30
0.0
 10
91.21854923934815
 20
-158.4623344872941
 30
0.0
 10
91.21854923934815
 20
-158.4623344872941
 30
0.0
 10
91.21854923934815
 20
-158.6821315792531
 30
0.0
 10
91.21854923934815
 20
-158.6821315792531
 30
0.0
 10
91.0304470258535
 20
-158.6673176686665
 30
0.0
 10
90.84200030281033
 20
-158.6631835540842
 30
0.0
 10
90.6538980893157
 20
-158.6631835540842
 30
0.0
  0
HATCH
  5
E5
330
D6
100
AcDbEntity
  8
レイヤー 1
 62
   250
420
  2299925
440
 33554687
100
AcDbHatch
 10
0.0
 20
0.0
 30
0.0
210
0.0
220
0.0
230
1.0
  2
SOLID
 70
     1
 71
     1
 91
        2
 92
        1
 93
        1
 72
     4
 94
        3
 73
     0
 74
     0
 95
       29
 96
       25
 40
0.0
 40
0.0
 40
0.0
 40
0.0
 40
1.0
 40
1.0
 40
1.0
 40
2.0
 40
2.0
 40
2.0
 40
3.0
 40
3.0
 40
3.0
 40
4.0
 40
4.0
 40
4.0
 40
5.0
 40
5.0
 40
5.0
 40
6.0
 40
6.0
 40
6.0
 40
7.0
 40
7.0
 40
7.0
 40
8.0
 40
8.0
 40
8.0
 40
8.0
 10
90.55226777250082
 20
-158.1343613970983
 10
90.55226777250082
 20
-158.1343613970983
 10
90.19880097571419
 20
-158.1343613970983
 10
90.19880097571419
 20
-158.1343613970983
 10
90.08683537244356
 20
-158.1343613970983
 10
89.94730900529097
 20
-158.1405625689718
 10
89.83947751660263
 20
-158.1533094222672
 10
89.83947751660263
 20
-158.1533094222672
 10
89.83947751660263
 20
-157.9183539101732
 10
89.83947751660263
 20
-157.9183539101732
 10
89.9576442917467
 20
-157.9331678207597
 10
90.14195690020757
 20
-157.9376464448906
 10
90.19880097571419
 20
-157.9376464448906
 10
90.19880097571419
 20
-157.9376464448906
 10
90.55226777250082
 20
-157.9376464448906
 10
90.55226777250082
 20
-157.9376464448906
 10
90.57121579766969
 20
-157.9376464448906
 10
90.77447643129945
 20
-157.9376464448906
 10
90.91606985574321
 20
-157.9183539101732
 10
90.91606985574321
 20
-157.9183539101732
 10
90.91606985574321
 20
-158.1533094222672
 10
90.91606985574321
 20
-158.1533094222672
 10
90.75966252071287
 20
-158.1343613970983
 10
90.56914874037856
 20
-158.1343613970983
 10
90.55226777250082
 20
-158.1343613970983
 97
        0
 97
        1
330
E3
 92
        1
 93
        1
 72
     4
 94
        3
 73
     0
 74
     0
 95
       47
 96
       43
 40
0.0
 40
0.0
 40
0.0
 40
0.0
 40
1.0
 40
1.0
 40
1.0
 40
2.0
 40
2.0
 40
2.0
 40
3.0
 40
3.0
 40
3.0
 40
4.0
 40
4.0
 40
4.0
 40
5.0
 40
5.0
 40
5.0
 40
6.0
 40
6.0
 40
6.0
 40
7.0
 40
7.0
 40
7.0
 40
8.0
 40
8.0
 40
8.0
 40
9.0
 40
9.0
 40
9.0
 40
10.0
 40
10.0
 40
10.0
 40
11.0
 40
11.0
 40
11.0
 40
12.0
 40
12.0
 40
12.0
 40
13.0
 40
13.0
 40
13.0
 40
14.0
 40
14.0
 40
14.0
 40
14.0
 10
90.6538980893157
 20
-158.6631835540842
 10
90.6538980893157
 20
-158.6631835540842
 10
90.55226777250082
 20
-158.6631835540842
 10
90.55226777250082
 20
-158.6631835540842
 10
90.55226777250082
 20
-158.7499999603125
 10
90.5312526900408
 20
-159.1392957501457
 10
90.33453773783303
 20
-159.3590928421046
 10
90.18192000783647
 20
-159.5282470304304
 10
89.97486976917295
 20
-159.598182468781
 10
89.89012042023579
 20
-159.625743232663
 10
89.89012042023579
 20
-159.625743232663
 10
89.69547252531919
 20
-159.4586561016284
 10
89.69547252531919
 20
-159.4586561016284
 10
89.79296872755176
 20
-159.445909248333
 10
89.96832408775096
 20
-159.4224825990333
 10
90.15677081079415
 20
-159.2343803855386
 10
90.23084036372701
 20
-159.1623778898969
 10
90.33453773783303
 20
-159.0228515227443
 10
90.33453773783303
 20
-158.6631835540842
 10
90.33453773783303
 20
-158.6631835540842
 10
90.1037163403213
 20
-158.6631835540842
 10
90.1037163403213
 20
-158.6631835540842
 10
89.91768118411782
 20
-158.6631835540842
 10
89.7313015183658
 20
-158.6673176686665
 10
89.54526636216229
 20
-158.6821315792531
 10
89.54526636216229
 20
-158.6821315792531
 10
89.54526636216229
 20
-158.4623344872941
 10
89.54526636216229
 20
-158.4623344872941
 10
89.73371308520546
 20
-158.4771483978807
 10
90.01931150093268
 20
-158.481282512463
 10
90.1037163403213
 20
-158.481282512463
 10
90.1037163403213
 20
-158.481282512463
 10
90.6538980893157
 20
-158.481282512463
 10
90.6538980893157
 20
-158.481282512463
 10
90.67284611448457
 20
-158.481282512463
 10
90.99013940867608
 20
-158.481282512463
 10
91.21854923934815
 20
-158.4623344872941
 10
91.21854923934815
 20
-158.4623344872941
 10
91.21854923934815
 20
-158.6821315792531
 10
91.21854923934815
 20
-158.6821315792531
 10
91.0304470258535
 20
-158.6673176686665
 10
90.84200030281033
 20
-158.6631835540842
 10
90.6538980893157
 20
-158.6631835540842
 97
        0
 97
        1
330
E4
 75
     2
 76
     1
 98
        1
 10
0.0
 20
0.0
450
        0
451
        0
460
0.0
461
0.0
452
        0
462
0.0
453
        0
470

  0
SPLINE
  5
E6
330
D6
100
AcDbEntity
  8
レイヤー 1
100
AcDbSpline
210
0.0
220
0.0
230
1.0
 70
     9
 71
     3
 72
    29
 73
    25
 74
     0
 42
0.0000000001
 43
0.0000000001
 40
0.0
 40
0.0
 40
0.0
 40
0.0
 40
1.0
 40
1.0
 40
1.0
 40
2.0
 40
2.0
 40
2.0
 40
3.0
 40
3.0
 40
3.0
 40
4.0
 40
4.0
 40
4.0
 40
5.0
 40
5.0
 40
5.0
 40
6.0
 40
6.0
 40
6.0
 40
7.0
 40
7.0
 40
7.0
 40
8.0
 40
8.0
 40
8.0
 40
8.0
 10
92.49978025031255
 20
-158.8261365705365
 30
0.0
 10
92.49978025031255
 20
-158.8261365705365
 30
0.0
 10
92.01539982508643
 20
-158.8261365705365
 30
0.0
 10
92.01539982508643
 20
-158.8261365705365
 30
0.0
 10
91.98783906120445
 20
-158.8261365705365
 30
0.0
 10
91.67054576701293
 20
-158.8261365705365
 30
0.0
 10
91.45901690421858
 20
-158.8512857675788
 30
0.0
 10
91.45901690421858
 20
-158.8512857675788
 30
0.0
 10
91.45901690421858
 20
-158.6208088796156
 30
0.0
 10
91.45901690421858
 20
-158.6208088796156
 30
0.0
 10
91.61749129654008
 20
-158.6442355289153
 30
0.0
 10
91.8080050768744
 20
-158.6463025862064
 30
0.0
 10
92.01539982508643
 20
-158.6463025862064
 30
0.0
 10
92.01539982508643
 20
-158.6463025862064
 30
0.0
 10
92.49978025031255
 20
-158.6463025862064
 30
0.0
 10
92.49978025031255
 20
-158.6463025862064
 30
0.0
 10
92.68581540651606
 20
-158.6463025862064
 30
0.0
 10
92.87219507226806
 20
-158.6442355289153
 30
0.0
 10
93.0561631711804
 20
-158.6208088796156
 30
0.0
 10
93.0561631711804
 20
-158.6208088796156
 30
0.0
 10
93.0561631711804
 20
-158.8512857675788
 30
0.0
 10
93.0561631711804
 20
-158.8512857675788
 30
0.0
 10
92.87219507226806
 20
-158.8282036278277
 30
0.0
 10
92.62449270687859
 20
-158.8261365705365
 30
0.0
 10
92.49978025031255
 20
-158.8261365705365
 30
0.0
  0
HATCH
  5
E7
330
D6
100
AcDbEntity
  8
レイヤー 1
 62
   250
420
  2299925
440
 33554687
100
AcDbHatch
 10
0.0
 20
0.0
 30
0.0
210
0.0
220
0.0
230
1.0
  2
SOLID
 70
     1
 71
     1
 91
        1
 92
        1
 93
        1
 72
     4
 94
        3
 73
     0
 74
     0
 95
       29
 96
       25
 40
0.0
 40
0.0
 40
0.0
 40
0.0
 40
1.0
 40
1.0
 40
1.0
 40
2.0
 40
2.0
 40
2.0
 40
3.0
 40
3.0
 40
3.0
 40
4.0
 40
4.0
 40
4.0
 40
5.0
 40
5.0
 40
5.0
 40
6.0
 40
6.0
 40
6.0
 40
7.0
 40
7.0
 40
7.0
 40
8.0
 40
8.0
 40
8.0
 40
8.0
 10
92.49978025031255
 20
-158.8261365705365
 10
92.49978025031255
 20
-158.8261365705365
 10
92.01539982508643
 20
-158.8261365705365
 10
92.01539982508643
 20
-158.8261365705365
 10
91.98783906120445
 20
-158.8261365705365
 10
91.67054576701293
 20
-158.8261365705365
 10
91.45901690421858
 20
-158.8512857675788
 10
91.45901690421858
 20
-158.8512857675788
 10
91.45901690421858
 20
-158.6208088796156
 10
91.45901690421858
 20
-158.6208088796156
 10
91.61749129654008
 20
-158.6442355289153
 10
91.8080050768744
 20
-158.6463025862064
 10
92.01539982508643
 20
-158.6463025862064
 10
92.01539982508643
 20
-158.6463025862064
 10
92.49978025031255
 20
-158.6463025862064
 10
92.49978025031255
 20
-158.6463025862064
 10
92.68581540651606
 20
-158.6463025862064
 10
92.87219507226806
 20
-158.6442355289153
 10
93.0561631711804
 20
-158.6208088796156
 10
93.0561631711804
 20
-158.6208088796156
 10
93.0561631711804
 20
-158.8512857675788
 10
93.0561631711804
 20
-158.8512857675788
 10
92.87219507226806
 20
-158.8282036278277
 10
92.62449270687859
 20
-158.8261365705365
 10
92.49978025031255
 20
-158.8261365705365
 97
        0
 97
        1
330
E6
 75
     2
 76
     1
 98
        1
 10
0.0
 20
0.0
450
        0
451
        0
460
0.0
461
0.0
452
        0
462
0.0
453
        0
470

  0
SPLINE
  5
E8
330
D6
100
AcDbEntity
  8
レイヤー 1
100
AcDbSpline
210
0.0
220
0.0
230
1.0
 70
     9
 71
     3
 72
    17
 73
    13
 74
     0
 42
0.0000000001
 43
0.0000000001
 40
0.0
 40
0.0
 40
0.0
 40
0.0
 40
1.0
 40
1.0
 40
1.0
 40
2.0
 40
2.0
 40
2.0
 40
3.0
 40
3.0
 40
3.0
 40
4.0
 40
4.0
 40
4.0
 40
4.0
 10
94.91858179050646
 20
-157.8590982678269
 30
0.0
 10
94.86380477229101
 20
-157.8590982678269
 30
0.0
 10
94.81936304053126
 20
-157.9035399995866
 30
0.0
 10
94.81936304053126
 20
-157.9586615273506
 30
0.0
 10
94.81936304053126
 20
-158.0158501124057
 30
0.0
 10
94.86380477229101
 20
-158.0644259587478
 30
0.0
 10
94.92271590508876
 20
-158.0644259587478
 30
0.0
 10
94.98197154743506
 20
-158.0644259587478
 30
0.0
 10
95.02227916461249
 20
-158.0137830551146
 30
0.0
 10
95.02227916461249
 20
-157.9607285846418
 30
0.0
 10
95.02227916461249
 20
-157.9035399995866
 30
0.0
 10
94.97577037556162
 20
-157.8590982678269
 30
0.0
 10
94.91858179050646
 20
-157.8590982678269
 30
0.0
  0
SPLINE
  5
E9
330
D6
100
AcDbEntity
  8
レイヤー 1
100
AcDbSpline
210
0.0
220
0.0
230
1.0
 70
     9
 71
     3
 72
    17
 73
    13
 74
     0
 42
0.0000000001
 43
0.0000000001
 40
0.0
 40
0.0
 40
0.0
 40
0.0
 40
1.0
 40
1.0
 40
1.0
 40
2.0
 40
2.0
 40
2.0
 40
3.0
 40
3.0
 40
3.0
 40
4.0
 40
4.0
 40
4.0
 40
4.0
 10
94.92064884779763
 20
-158.1891384153138
 30
0.0
 10
94.79386933394042
 20
-158.1891384153138
 30
0.0
 10
94.69223901712556
 20
-158.0878526080475
 30
0.0
 10
94.69223901712556
 20
-157.9607285846418
 30
0.0
 10
94.69223901712556
 20
-157.8339490707845
 30
0.0
 10
94.79386933394042
 20
-157.7302516966785
 30
0.0
 10
94.92064884779763
 20
-157.7302516966785
 30
0.0
 10
95.04777287120333
 20
-157.7302516966785
 30
0.0
 10
95.15147024530936
 20
-157.8339490707845
 30
0.0
 10
95.15147024530936
 20
-157.9607285846418
 30
0.0
 10
95.15147024530936
 20
-158.0878526080475
 30
0.0
 10
95.04777287120333
 20
-158.1891384153138
 30
0.0
 10
94.92064884779763
 20
-158.1891384153138
 30
0.0
  0
SPLINE
  5
EA
330
D6
100
AcDbEntity
  8
レイヤー 1
100
AcDbSpline
210
0.0
220
0.0
230
1.0
 70
     9
 71
     3
 72
    44
 73
    40
 74
     0
 42
0.0000000001
 43
0.0000000001
 40
0.0
 40
0.0
 40
0.0
 40
0.0
 40
1.0
 40
1.0
 40
1.0
 40
2.0
 40
2.0
 40
2.0
 40
3.0
 40
3.0
 40
3.0
 40
4.0
 40
4.0
 40
4.0
 40
5.0
 40
5.0
 40
5.0
 40
6.0
 40
6.0
 40
6.0
 40
7.0
 40
7.0
 40
7.0
 40
8.0
 40
8.0
 40
8.0
 40
9.0
 40
9.0
 40
9.0
 40
10.0
 40
10.0
 40
10.0
 40
11.0
 40
11.0
 40
11.0
 40
12.0
 40
12.0
 40
12.0
 40
13.0
 40
13.0
 40
13.0
 40
13.0
 10
94.71118704229443
 20
-158.3882649343612
 30
0.0
 10
94.5992214390238
 20
-158.7562011321859
 30
0.0
 10
94.54857853539063
 20
-158.915020034056
 30
0.0
 10
94.35186358318288
 20
-159.164444947188
 30
0.0
 10
94.16755097472201
 20
-159.3952663446998
 30
0.0
 10
93.93087291488534
 20
-159.5813015009033
 30
0.0
 10
93.65147567103157
 20
-159.674319079005
 30
0.0
 10
93.65147567103157
 20
-159.674319079005
 30
0.0
 10
93.45889483340611
 20
-159.494485094675
 30
0.0
 10
93.45889483340611
 20
-159.494485094675
 30
0.0
 10
94.1000271032111
 20
-159.3422118742269
 30
0.0
 10
94.43006725069805
 20
-158.7858289533591
 30
0.0
 10
94.49345700762664
 20
-158.3458902598927
 30
0.0
 10
94.49345700762664
 20
-158.3458902598927
 30
0.0
 10
93.72761228125559
 20
-158.3458902598927
 30
0.0
 10
93.72761228125559
 20
-158.3458902598927
 30
0.0
 10
93.63459470315385
 20
-158.3458902598927
 30
0.0
 10
93.45062660424153
 20
-158.350024374475
 30
0.0
 10
93.29387475966264
 20
-158.3689723996438
 30
0.0
 10
93.29387475966264
 20
-158.3689723996438
 30
0.0
 10
93.29387475966264
 20
-158.1491753076849
 30
0.0
 10
93.29387475966264
 20
-158.1491753076849
 30
0.0
 10
93.38069116589094
 20
-158.1701903901449
 30
0.0
 10
93.6325276458627
 20
-158.1701903901449
 30
0.0
 10
93.7317463958379
 20
-158.1701903901449
 30
0.0
 10
93.7317463958379
 20
-158.1701903901449
 30
0.0
 10
94.1634168601397
 20
-158.1701903901449
 30
0.0
 10
94.1634168601397
 20
-158.1701903901449
 30
0.0
 10
94.20579153460828
 20
-158.1701903901449
 30
0.0
 10
94.44040253715378
 20
-158.1681233328538
 30
0.0
 10
94.47864309704007
 20
-158.1619221609803
 30
0.0
 10
94.52101777150863
 20
-158.1553764795584
 30
0.0
 10
94.52308482879978
 20
-158.1533094222672
 30
0.0
 10
94.58440752843724
 20
-158.1130018050898
 30
0.0
 10
94.58440752843724
 20
-158.1130018050898
 30
0.0
 10
94.77250974193188
 20
-158.2676865923775
 30
0.0
 10
94.77250974193188
 20
-158.2676865923775
 30
0.0
 10
94.74322643030726
 20
-158.2973144135507
 30
0.0
 10
94.72841251972068
 20
-158.3290092920149
 30
0.0
 10
94.71118704229443
 20
-158.3882649343612
 30
0.0
  0
HATCH
  5
EB
330
D6
100
AcDbEntity
  8
レイヤー 1
 62
   250
420
  2299925
440
 33554687
100
AcDbHatch
 10
0.0
 20
0.0
 30
0.0
210
0.0
220
0.0
230
1.0
  2
SOLID
 70
     1
 71
     1
 91
        3
 92
        1
 93
        1
 72
     4
 94
        3
 73
     0
 74
     0
 95
       17
 96
       13
 40
0.0
 40
0.0
 40
0.0
 40
0.0
 40
1.0
 40
1.0
 40
1.0
 40
2.0
 40
2.0
 40
2.0
 40
3.0
 40
3.0
 40
3.0
 40
4.0
 40
4.0
 40
4.0
 40
4.0
 10
94.91858179050646
 20
-157.8590982678269
 10
94.86380477229101
 20
-157.8590982678269
 10
94.81936304053126
 20
-157.9035399995866
 10
94.81936304053126
 20
-157.9586615273506
 10
94.81936304053126
 20
-158.0158501124057
 10
94.86380477229101
 20
-158.0644259587478
 10
94.92271590508876
 20
-158.0644259587478
 10
94.98197154743506
 20
-158.0644259587478
 10
95.02227916461249
 20
-158.0137830551146
 10
95.02227916461249
 20
-157.9607285846418
 10
95.02227916461249
 20
-157.9035399995866
 10
94.97577037556162
 20
-157.8590982678269
 10
94.91858179050646
 20
-157.8590982678269
 97
        0
 97
        1
330
E8
 92
        1
 93
        1
 72
     4
 94
        3
 73
     0
 74
     0
 95
       17
 96
       13
 40
0.0
 40
0.0
 40
0.0
 40
0.0
 40
1.0
 40
1.0
 40
1.0
 40
2.0
 40
2.0
 40
2.0
 40
3.0
 40
3.0
 40
3.0
 40
4.0
 40
4.0
 40
4.0
 40
4.0
 10
94.92064884779763
 20
-158.1891384153138
 10
94.79386933394042
 20
-158.1891384153138
 10
94.69223901712556
 20
-158.0878526080475
 10
94.69223901712556
 20
-157.9607285846418
 10
94.69223901712556
 20
-157.8339490707845
 10
94.79386933394042
 20
-157.7302516966785
 10
94.92064884779763
 20
-157.7302516966785
 10
95.04777287120333
 20
-157.7302516966785
 10
95.15147024530936
 20
-157.8339490707845
 10
95.15147024530936
 20
-157.9607285846418
 10
95.15147024530936
 20
-158.0878526080475
 10
95.04777287120333
 20
-158.1891384153138
 10
94.92064884779763
 20
-158.1891384153138
 97
        0
 97
        1
330
E9
 92
        1
 93
        1
 72
     4
 94
        3
 73
     0
 74
     0
 95
       44
 96
       40
 40
0.0
 40
0.0
 40
0.0
 40
0.0
 40
1.0
 40
1.0
 40
1.0
 40
2.0
 40
2.0
 40
2.0
 40
3.0
 40
3.0
 40
3.0
 40
4.0
 40
4.0
 40
4.0
 40
5.0
 40
5.0
 40
5.0
 40
6.0
 40
6.0
 40
6.0
 40
7.0
 40
7.0
 40
7.0
 40
8.0
 40
8.0
 40
8.0
 40
9.0
 40
9.0
 40
9.0
 40
10.0
 40
10.0
 40
10.0
 40
11.0
 40
11.0
 40
11.0
 40
12.0
 40
12.0
 40
12.0
 40
13.0
 40
13.0
 40
13.0
 40
13.0
 10
94.71118704229443
 20
-158.3882649343612
 10
94.5992214390238
 20
-158.7562011321859
 10
94.54857853539063
 20
-158.915020034056
 10
94.35186358318288
 20
-159.164444947188
 10
94.16755097472201
 20
-159.3952663446998
 10
93.93087291488534
 20
-159.5813015009033
 10
93.65147567103157
 20
-159.674319079005
 10
93.65147567103157
 20
-159.674319079005
 10
93.45889483340611
 20
-159.494485094675
 10
93.45889483340611
 20
-159.494485094675
 10
94.1000271032111
 20
-159.3422118742269
 10
94.43006725069805
 20
-158.7858289533591
 10
94.49345700762664
 20
-158.3458902598927
 10
94.49345700762664
 20
-158.3458902598927
 10
93.72761228125559
 20
-158.3458902598927
 10
93.72761228125559
 20
-158.3458902598927
 10
93.63459470315385
 20
-158.3458902598927
 10
93.45062660424153
 20
-158.350024374475
 10
93.29387475966264
 20
-158.3689723996438
 10
93.29387475966264
 20
-158.3689723996438
 10
93.29387475966264
 20
-158.1491753076849
 10
93.29387475966264
 20
-158.1491753076849
 10
93.38069116589094
 20
-158.1701903901449
 10
93.6325276458627
 20
-158.1701903901449
 10
93.7317463958379
 20
-158.1701903901449
 10
93.7317463958379
 20
-158.1701903901449
 10
94.1634168601397
 20
-158.1701903901449
 10
94.1634168601397
 20
-158.1701903901449
 10
94.20579153460828
 20
-158.1701903901449
 10
94.44040253715378
 20
-158.1681233328538
 10
94.47864309704007
 20
-158.1619221609803
 10
94.52101777150863
 20
-158.1553764795584
 10
94.52308482879978
 20
-158.1533094222672
 10
94.58440752843724
 20
-158.1130018050898
 10
94.58440752843724
 20
-158.1130018050898
 10
94.77250974193188
 20
-158.2676865923775
 10
94.77250974193188
 20
-158.2676865923775
 10
94.74322643030726
 20
-158.2973144135507
 10
94.72841251972068
 20
-158.3290092920149
 10
94.71118704229443
 20
-158.3882649343612
 97
        0
 97
        1
330
EA
 75
     2
 76
     1
 98
        1
 10
0.0
 20
0.0
450
        0
451
        0
460
0.0
461
0.0
452
        0
462
0.0
453
        0
470

  0
ENDBLK
  5
D9
330
D6
100
AcDbEntity
  8
0
100
AcDbBlockEnd
  0
ENDSEC
  0
SECTION
  2
ENTITIES
  0
LWPOLYLINE
  5
79
330
70
100
AcDbEntity
  8
レイヤー 1
 62
   250
420
  2299925
370
    25
100
AcDbPolyline
 90
       12
 70
     1
 43
0.0
 10
106.8388021884381
 20
-156.1545569660237
 10
102.8390431238135
 20
-156.1545569660237
 10
102.8390431238135
 20
-156.954480556727
 10
106.0388433199579
 20
-156.954480556727
 10
106.0388433199579
 20
-158.3545849654519
 10
97.63902825647697
 20
-158.3545849654519
 10
97.63902825647697
 20
-143.1541317421366
 10
119.8390510234409
 20
-143.1541317421366
 10
119.8390510234409
 20
-142.3541665435851
 10
96.83871661022797
 20
-142.3541665435851
 10
96.83871661022797
 20
-159.1545438339321
 10
106.8388021884381
 20
-159.1545438339321
  0
HATCH
  5
7A
330
70
100
AcDbEntity
  8
レイヤー 1
 62
   250
420
  2299925
440
 33554687
100
AcDbHatch
 10
0.0
 20
0.0
 30
0.0
210
0.0
220
0.0
230
1.0
  2
SOLID
 70
     1
 71
     1
 91
        1
 92
        1
 93
       12
 72
     1
 10
106.8388021884381
 20
-156.1545569660237
 11
102.8390431238135
 21
-156.1545569660237
 72
     1
 10
102.8390431238135
 20
-156.1545569660237
 11
102.8390431238135
 21
-156.954480556727
 72
     1
 10
102.8390431238135
 20
-156.954480556727
 11
106.0388433199579
 21
-156.954480556727
 72
     1
 10
106.0388433199579
 20
-156.954480556727
 11
106.0388433199579
 21
-158.3545849654519
 72
     1
 10
106.0388433199579
 20
-158.3545849654519
 11
97.63902825647697
 21
-158.3545849654519
 72
     1
 10
97.63902825647697
 20
-158.3545849654519
 11
97.63902825647697
 21
-143.1541317421366
 72
     1
 10
97.63902825647697
 20
-143.1541317421366
 11
119.8390510234409
 21
-143.1541317421366
 72
     1
 10
119.8390510234409
 20
-143.1541317421366
 11
119.8390510234409
 21
-142.3541665435851
 72
     1
 10
119.8390510234409
 20
-142.3541665435851
 11
96.83871661022797
 21
-142.3541665435851
 72
     1
 10
96.83871661022797
 20
-142.3541665435851
 11
96.83871661022797
 21
-159.1545438339321
 72
     1
 10
96.83871661022797
 20
-159.1545438339321
 11
106.8388021884381
 21
-159.1545438339321
 72
     1
 10
106.8388021884381
 20
-159.1545438339321
 11
106.8388021884381
 21
-156.1545569660237
 97
        1
330
79
 75
     2
 76
     1
 98
        1
 10
0.0
 20
0.0
450
        0
451
        0
460
0.0
461
0.0
452
        0
462
0.0
453
        0
470

  0
SPLINE
  5
7B
330
70
100
AcDbEntity
  8
レイヤー 1
 62
   250
420
  2299925
370
     9
100
AcDbSpline
210
0.0
220
0.0
230
1.0
 70
     9
 71
     3
 72
    17
 73
    13
 74
     0
 42
0.0000000001
 43
0.0000000001
 40
0.0
 40
0.0
 40
0.0
 40
0.0
 40
1.0
 40
1.0
 40
1.0
 40
2.0
 40
2.0
 40
2.0
 40
3.0
 40
3.0
 40
3.0
 40
4.0
 40
4.0
 40
4.0
 40
4.0
 10
123.9387196222025
 20
-142.3541665435851
 30
0.0
 10
123.9387196222025
 20
-142.2990689861733
 30
0.0
 10
123.8939168444358
 20
-142.2542662095386
 30
0.0
 10
123.8388100880651
 20
-142.2542662095386
 30
0.0
 10
123.7836709228052
 20
-142.2542662095386
 30
0.0
 10
123.7389034239473
 20
-142.2990689861733
 30
0.0
 10
123.7389034239473
 20
-142.3541665435851
 30
0.0
 10
123.7389034239473
 20
-142.409982316677
 30
0.0
 10
123.7836709228052
 20
-142.4540795377742
 30
0.0
 10
123.8388100880651
 20
-142.4540795377742
 30
0.0
 10
123.8939168444358
 20
-142.4540795377742
 30
0.0
 10
123.9387196222025
 20
-142.409982316677
 30
0.0
 10
123.9387196222025
 20
-142.3541665435851
 30
0.0
  0
SPLINE
  5
7C
330
70
100
AcDbEntity
  8
レイヤー 1
 62
   250
420
  2299925
370
     9
100
AcDbSpline
210
0.0
220
0.0
230
1.0
 70
     9
 71
     3
 72
    17
 73
    13
 74
     0
 42
0.0000000001
 43
0.0000000001
 40
0.0
 40
0.0
 40
0.0
 40
0.0
 40
1.0
 40
1.0
 40
1.0
 40
2.0
 40
2.0
 40
2.0
 40
3.0
 40
3.0
 40
3.0
 40
4.0
 40
4.0
 40
4.0
 40
4.0
 10
123.9387196222025
 20
-143.1541317421366
 30
0.0
 10
123.9387196222025
 20
-143.0990278546536
 30
0.0
 10
123.8939168444358
 20
-143.0542250780188
 30
0.0
 10
123.8388100880651
 20
-143.0542250780188
 30
0.0
 10
123.7836709228052
 20
-143.0542250780188
 30
0.0
 10
123.7389034239473
 20
-143.0990278546536
 30
0.0
 10
123.7389034239473
 20
-143.1541317421366
 30
0.0
 10
123.7389034239473
 20
-143.2099411851573
 30
0.0
 10
123.7836709228052
 20
-143.254743961792
 30
0.0
 10
123.8388100880651
 20
-143.254743961792
 30
0.0
 10
123.8939168444358
 20
-143.254743961792
 30
0.0
 10
123.9387196222025
 20
-143.2099411851573
 30
0.0
 10
123.9387196222025
 20
-143.1541317421366
 30
0.0
  0
CIRCLE
  5
7D
330
70
100
AcDbEntity
  8
レイヤー 1
 62
   250
420
  2299925
370
     9
100
AcDbCircle
 10
119.8390510234409
 20
-138.3544138090321
 30
0.0
 40
0.0999066641178353
  0
SPLINE
  5
7E
330
70
100
AcDbEntity
  8
レイヤー 1
 62
   250
420
  2299925
370
     9
100
AcDbSpline
210
0.0
220
0.0
230
1.0
 70
     9
 71
     3
 72
    17
 73
    13
 74
     0
 42
0.0000000001
 43
0.0000000001
 40
0.0
 40
0.0
 40
0.0
 40
0.0
 40
1.0
 40
1.0
 40
1.0
 40
2.0
 40
2.0
 40
2.0
 40
3.0
 40
3.0
 40
3.0
 40
4.0
 40
4.0
 40
4.0
 40
4.0
 10
106.9390640708975
 20
-163.15429709394
 30
0.0
 10
106.9390640708975
 20
-163.0991637332965
 30
0.0
 10
106.8942612931307
 20
-163.054396234438
 30
0.0
 10
106.8388021884381
 20
-163.054396234438
 30
0.0
 10
106.7836983009551
 20
-163.054396234438
 30
0.0
 10
106.7388955243203
 20
-163.0991637332965
 30
0.0
 10
106.7388955243203
 20
-163.15429709394
 30
0.0
 10
106.7388955243203
 20
-163.2094067860395
 30
0.0
 10
106.7836983009551
 20
-163.2542095626743
 30
0.0
 10
106.8388021884381
 20
-163.2542095626743
 30
0.0
 10
106.8942612931307
 20
-163.2542095626743
 30
0.0
 10
106.9390640708975
 20
-163.2094067860395
 30
0.0
 10
106.9390640708975
 20
-163.15429709394
 30
0.0
  0
SPLINE
  5
7F
330
70
100
AcDbEntity
  8
レイヤー 1
 62
   250
420
  2299925
370
     9
100
AcDbSpline
210
0.0
220
0.0
230
1.0
 70
     9
 71
     3
 72
    17
 73
    13
 74
     0
 42
0.0000000001
 43
0.0000000001
 40
0.0
 40
0.0
 40
0.0
 40
0.0
 40
1.0
 40
1.0
 40
1.0
 40
2.0
 40
2.0
 40
2.0
 40
3.0
 40
3.0
 40
3.0
 40
4.0
 40
4.0
 40
4.0
 40
4.0
 10
123.9387196222025
 20
-159.1545438339321
 30
0.0
 10
123.9387196222025
 20
-159.0994046686722
 30
0.0
 10
123.8939168444358
 20
-159.0546371698143
 30
0.0
 10
123.8388100880651
 20
-159.0546371698143
 30
0.0
 10
123.7836709228052
 20
-159.0546371698143
 30
0.0
 10
123.7389034239473
 20
-159.0994046686722
 30
0.0
 10
123.7389034239473
 20
-159.1545438339321
 30
0.0
 10
123.7389034239473
 20
-159.2096477214152
 30
0.0
 10
123.7836709228052
 20
-159.2544504980499
 30
0.0
 10
123.8388100880651
 20
-159.2544504980499
 30
0.0
 10
123.8939168444358
 20
-159.2544504980499
 30
0.0
 10
123.9387196222025
 20
-159.2096477214152
 30
0.0
 10
123.9387196222025
 20
-159.1545438339321
 30
0.0
  0
SPLINE
  5
80
330
70
100
AcDbEntity
  8
レイヤー 1
 62
   250
420
  2299925
370
     9
100
AcDbSpline
210
0.0
220
0.0
230
1.0
 70
     9
 71
     3
 72
    17
 73
    13
 74
     0
 42
0.0000000001
 43
0.0000000001
 40
0.0
 40
0.0
 40
0.0
 40
0.0
 40
1.0
 40
1.0
 40
1.0
 40
2.0
 40
2.0
 40
2.0
 40
3.0
 40
3.0
 40
3.0
 40
4.0
 40
4.0
 40
4.0
 40
4.0
 10
123.9387196222025
 20
-156.1545569660237
 30
0.0
 10
123.9387196222025
 20
-156.0994178007637
 30
0.0
 10
123.8939168444358
 20
-156.0546443179372
 30
0.0
 10
123.8388100880651
 20
-156.0546443179372
 30
0.0
 10
123.7836709228052
 20
-156.0546443179372
 30
0.0
 10
123.7389034239473
 20
-156.0994178007637
 30
0.0
 10
123.7389034239473
 20
-156.1545569660237
 30
0.0
 10
123.7389034239473
 20
-156.2096608535068
 30
0.0
 10
123.7836709228052
 20
-156.2544636301415
 30
0.0
 10
123.8388100880651
 20
-156.2544636301415
 30
0.0
 10
123.8939168444358
 20
-156.2544636301415
 30
0.0
 10
123.9387196222025
 20
-156.2096608535068
 30
0.0
 10
123.9387196222025
 20
-156.1545569660237
 30
0.0
  0
SPLINE
  5
81
330
70
100
AcDbEntity
  8
レイヤー 1
 62
   250
420
  2299925
370
     9
100
AcDbSpline
210
0.0
220
0.0
230
1.0
 70
     9
 71
     3
 72
    17
 73
    13
 74
     0
 42
0.0000000001
 43
0.0000000001
 40
0.0
 40
0.0
 40
0.0
 40
0.0
 40
1.0
 40
1.0
 40
1.0
 40
2.0
 40
2.0
 40
2.0
 40
3.0
 40
3.0
 40
3.0
 40
4.0
 40
4.0
 40
4.0
 40
4.0
 10
96.93897605211459
 20
-138.3544138090321
 30
0.0
 10
96.93897605211459
 20
-138.299309921549
 30
0.0
 10
96.89417327548014
 20
-138.2545071449142
 30
0.0
 10
96.83871661022797
 20
-138.2545071449142
 30
0.0
 10
96.78361272274489
 20
-138.2545071449142
 30
0.0
 10
96.73880994611012
 20
-138.299309921549
 30
0.0
 10
96.73880994611012
 20
-138.3544138090321
 30
0.0
 10
96.73880994611012
 20
-138.409552974292
 30
0.0
 10
96.78361272274489
 20
-138.4543204731499
 30
0.0
 10
96.83871661022797
 20
-138.4543204731499
 30
0.0
 10
96.89417327548014
 20
-138.4543204731499
 30
0.0
 10
96.93897605211459
 20
-138.409552974292
 30
0.0
 10
96.93897605211459
 20
-138.3544138090321
 30
0.0
  0
SPLINE
  5
82
330
70
100
AcDbEntity
  8
レイヤー 1
 62
   250
420
  2299925
370
     9
100
AcDbSpline
210
0.0
220
0.0
230
1.0
 70
     9
 71
     3
 72
    17
 73
    13
 74
     0
 42
0.0000000001
 43
0.0000000001
 40
0.0
 40
0.0
 40
0.0
 40
0.0
 40
1.0
 40
1.0
 40
1.0
 40
2.0
 40
2.0
 40
2.0
 40
3.0
 40
3.0
 40
3.0
 40
4.0
 40
4.0
 40
4.0
 40
4.0
 10
96.93897605211459
 20
-163.15429709394
 30
0.0
 10
96.93897605211459
 20
-163.0991637332965
 30
0.0
 10
96.89417327548014
 20
-163.054396234438
 30
0.0
 10
96.83871661022797
 20
-163.054396234438
 30
0.0
 10
96.78361272274489
 20
-163.054396234438
 30
0.0
 10
96.73880994611012
 20
-163.0991637332965
 30
0.0
 10
96.73880994611012
 20
-163.15429709394
 30
0.0
 10
96.73880994611012
 20
-163.2094067860395
 30
0.0
 10
96.78361272274489
 20
-163.2542095626743
 30
0.0
 10
96.83871661022797
 20
-163.2542095626743
 30
0.0
 10
96.89417327548014
 20
-163.2542095626743
 30
0.0
 10
96.93897605211459
 20
-163.2094067860395
 30
0.0
 10
96.93897605211459
 20
-163.15429709394
 30
0.0
  0
LINE
  5
83
330
70
100
AcDbEntity
  8
レイヤー 1
 62
   250
420
  2299925
370
     9
100
AcDbLine
 10
123.8388100880651
 20
-142.3541665435851
 30
0.0
 11
123.8388100880651
 21
-137.0962671744634
 31
0.0
  0
LINE
  5
84
330
70
100
AcDbEntity
  8
レイヤー 1
 62
   250
420
  2299925
370
     9
100
AcDbLine
 10
123.8388100880651
 20
-142.3541665435851
 30
0.0
 11
123.8388100880651
 21
-143.1541317421366
 31
0.0
  0
LINE
  5
85
330
70
100
AcDbEntity
  8
レイヤー 1
 62
   250
420
  2299925
370
     9
100
AcDbLine
 10
122.378768736425
 20
-142.3541665435851
 30
0.0
 11
124.8392525625417
 21
-142.3541665435851
 31
0.0
  0
LINE
  5
86
330
70
100
AcDbEntity
  8
レイヤー 1
 62
   250
420
  2299925
370
     9
100
AcDbLine
 10
122.378768736425
 20
-143.1541317421366
 30
0.0
 11
124.8392525625417
 21
-143.1541317421366
 31
0.0
  0
INSERT
  5
88
330
70
100
AcDbEntity
  8
レイヤー 1
100
AcDbBlockReference
  2
Block_0
 10
0.0
 20
0.0
 30
0.0
  0
LINE
  5
98
330
70
100
AcDbEntity
  8
レイヤー 1
 62
   250
420
  2299925
370
     9
100
AcDbLine
 10
123.8388100880651
 20
-156.1545569660237
 30
0.0
 11
123.8388100880651
 21
-159.1545438339321
 31
0.0
  0
LINE
  5
99
330
70
100
AcDbEntity
  8
レイヤー 1
 62
   250
420
  2299925
370
     9
100
AcDbLine
 10
109.378875181399
 20
-159.1545438339321
 30
0.0
 11
124.8392525625417
 21
-159.1545438339321
 31
0.0
  0
INSERT
  5
9B
330
70
100
AcDbEntity
  8
レイヤー 1
100
AcDbBlockReference
  2
Block_2
 10
0.0
 20
0.0
 30
0.0
  0
LINE
  5
A0
330
70
100
AcDbEntity
  8
レイヤー 1
 62
   250
420
  2299925
370
     9
100
AcDbLine
 10
96.83871661022797
 20
-163.15429709394
 30
0.0
 11
106.8388021884381
 21
-163.15429709394
 31
0.0
  0
LINE
  5
A1
330
70
100
AcDbEntity
  8
レイヤー 1
 62
   250
420
  2299925
370
     9
100
AcDbLine
 10
96.83871661022797
 20
-161.6942615469163
 30
0.0
 11
96.83871661022797
 21
-164.1540693159126
 31
0.0
  0
LINE
  5
A2
330
70
100
AcDbEntity
  8
レイヤー 1
 62
   250
420
  2299925
370
     9
100
AcDbLine
 10
106.8388021884381
 20
-161.6942615469163
 30
0.0
 11
106.8388021884381
 21
-164.1540693159126
 31
0.0
  0
INSERT
  5
A4
330
70
100
AcDbEntity
  8
レイヤー 1
100
AcDbBlockReference
  2
Block_3
 10
0.0
 20
0.0
 30
0.0
  0
LINE
  5
B0
330
70
100
AcDbEntity
  8
レイヤー 1
 62
   250
420
  2299925
370
     9
100
AcDbLine
 10
96.83871661022797
 20
-138.3544138090321
 30
0.0
 11
119.8390510234409
 21
-138.3544138090321
 31
0.0
  0
LINE
  5
B1
330
70
100
AcDbEntity
  8
レイヤー 1
 62
   250
420
  2299925
370
     9
100
AcDbLine
 10
96.83871661022797
 20
-139.8144551606719
 30
0.0
 11
96.83871661022797
 21
-137.3539713345555
 31
0.0
  0
LINE
  5
B2
330
70
100
AcDbEntity
  8
レイヤー 1
 62
   250
420
  2299925
370
     9
100
AcDbLine
 10
119.8390510234409
 20
-139.8144551606719
 30
0.0
 11
119.8390510234409
 21
-137.3539713345555
 31
0.0
  0
INSERT
  5
B4
330
70
100
AcDbEntity
  8
レイヤー 1
100
AcDbBlockReference
  2
Block_5
 10
0.0
 20
0.0
 30
0.0
  0
LINE
  5
BF
330
70
100
AcDbEntity
  8
レイヤー 1
 62
   250
420
  2299925
370
     9
100
AcDbLine
 10
123.8388100880651
 20
-156.1545569660237
 30
0.0
 11
123.8388100880651
 21
-143.1541317421366
 31
0.0
  0
LINE
  5
C0
330
70
100
AcDbEntity
  8
レイヤー 1
 62
   250
420
  2299925
370
     9
100
AcDbLine
 10
109.378875181399
 20
-156.1545569660237
 30
0.0
 11
124.8392525625417
 21
-156.1545569660237
 31
0.0
  0
INSERT
  5
C2
330
70
100
AcDbEntity
  8
レイヤー 1
100
AcDbBlockReference
  2
Block_7
 10
0.0
 20
0.0
 30
0.0
  0
LINE
  5
CD
330
70
100
AcDbEntity
  8
レイヤー 1
  6
AI-Linetype-0
 62
   154
420
    23468
370
    25
100
AcDbLine
 10
96.10183440680517
 20
-142.3004448194715
 30
0.0
 11
96.10183440680517
 21
-150.3006332264808
 31
0.0
  0
LINE
  5
CF
330
70
100
AcDbEntity
  8
レイヤー 1
 62
   250
420
  2299925
370
     9
100
AcDbLine
 10
95.92265857804299
 20
-150.362651558232
 30
0.0
 11
95.0565891556935
 21
-150.8628904343587
 31
0.0
  0
LINE
  5
D0
330
70
100
AcDbEntity
  8
レイヤー 1
 62
   250
420
  2299925
370
     9
100
AcDbLine
 10
95.92265857804299
 20
-150.362651558232
 30
0.0
 11
88.85126348067153
 21
-157.4340466556034
 31
0.0
  0
LINE
  5
D1
330
70
100
AcDbEntity
  8
レイヤー 1
 62
   250
420
  2299925
370
     9
100
AcDbLine
 10
95.92265857804299
 20
-150.362651558232
 30
0.0
 11
95.42245497969314
 21
-151.228756258358
 31
0.0
  0
INSERT
  5
D3
330
70
100
AcDbEntity
  8
レイヤー 1
100
AcDbBlockReference
  2
Block_9
 10
0.0
 20
0.0
 30
0.0
  0
ENDSEC
  0
SECTION
  2
OBJECTS
  0
DICTIONARY
  5
C
330
0
100
AcDbDictionary
281
     1
  3
ACAD_COLOR
350
63
  3
ACAD_DETAILVIEWSTYLE
350
6A
  3
ACAD_GROUP
350
D
  3
ACAD_LAYOUT
350
62
  3
ACAD_MATERIAL
350
10
  3
ACAD_MLEADERSTYLE
350
66
  3
ACAD_MLINESTYLE
350
5F
  3
ACAD_PLOTSETTINGS
350
61
  3
ACAD_PLOTSTYLENAME
350
E
  3
ACAD_SCALELIST
350
42
  3
ACAD_SECTIONVIEWSTYLE
350
68
  3
ACAD_TABLESTYLE
350
64
  3
ACAD_VISUALSTYLE
350
29
  3
ACDB_RECOMPOSE_DATA
350
F4
  3
AcDbVariableDictionary
350
EC
  0
DICTIONARY
  5
63
102
{ACAD_REACTORS
330
C
102
}
330
C
100
AcDbDictionary
281
     1
  0
DICTIONARY
  5
6A
102
{ACAD_REACTORS
330
C
102
}
330
C
100
AcDbDictionary
281
     1
  3
Imperial24
350
6B
  0
DICTIONARY
  5
D
102
{ACAD_REACTORS
330
C
102
}
330
C
100
AcDbDictionary
281
     1
  0
DICTIONARY
  5
62
102
{ACAD_REACTORS
330
C
102
}
330
C
100
AcDbDictionary
281
     1
  3
Layout1
350
6F
  3
Layout2
350
77
  3
Model
350
73
  0
DICTIONARY
  5
10
102
{ACAD_REACTORS
330
C
102
}
330
C
100
AcDbDictionary
281
     1
  3
ByBlock
350
19
  3
ByLayer
350
11
  3
Global
350
21
  0
DICTIONARY
  5
66
102
{ACAD_REACTORS
330
C
102
}
330
C
100
AcDbDictionary
281
     1
  3
Standard
350
67
  0
DICTIONARY
  5
5F
102
{ACAD_REACTORS
330
C
102
}
330
C
100
AcDbDictionary
281
     1
  3
Standard
350
60
  0
DICTIONARY
  5
61
102
{ACAD_REACTORS
330
C
102
}
330
C
100
AcDbDictionary
281
     1
  0
ACDBDICTIONARYWDFLT
  5
E
102
{ACAD_REACTORS
330
C
102
}
330
C
100
AcDbDictionary
281
     1
  3
Normal
350
F
100
AcDbDictionaryWithDefault
340
F
  0
DICTIONARY
  5
42
102
{ACAD_REACTORS
330
C
102
}
330
C
100
AcDbDictionary
281
     1
  3
A0
350
43
  3
A1
350
44
  3
A2
350
45
  3
A3
350
46
  3
A4
350
47
  3
A5
350
48
  3
A6
350
49
  3
A7
350
4A
  3
A8
350
4B
  3
A9
350
4C
  3
B0
350
4D
  3
B1
350
4E
  3
B2
350
4F
  3
B3
350
50
  3
B4
350
51
  3
B5
350
52
  3
B6
350
53
  0
DICTIONARY
  5
68
102
{ACAD_REACTORS
330
C
102
}
330
C
100
AcDbDictionary
281
     1
  3
Imperial24
350
69
  0
DICTIONARY
  5
64
102
{ACAD_REACTORS
330
C
102
}
330
C
100
AcDbDictionary
281
     1
  3
Standard
350
65
  0
DICTIONARY
  5
29
102
{ACAD_REACTORS
330
C
102
}
330
C
100
AcDbDictionary
281
     1
  3
2dWireframe
350
2F
  3
Basic
350
2E
  3
Brighten
350
35
  3
ColorChange
350
39
  3
Conceptual
350
32
  3
Dim
350
34
  3
EdgeColorOff
350
41
  3
Facepattern
350
38
  3
Flat
350
2A
  3
FlatWithEdges
350
2B
  3
Gouraud
350
2C
  3
GouraudWithEdges
350
2D
  3
Hidden
350
31
  3
JitterOff
350
3F
  3
Linepattern
350
37
  3
OverhangOff
350
40
  3
Realistic
350
33
  3
Shaded
350
3E
  3
Shaded with edges
350
3D
  3
Shades of Gray
350
3A
  3
Sketchy
350
3B
  3
Thicken
350
36
  3
Wireframe
350
30
  3
X-Ray
350
3C
  0
XRECORD
  5
F4
102
{ACAD_REACTORS
330
C
102
}
330
C
100
AcDbXrecord
280
     1
 90
        1
330
65
  0
DICTIONARY
  5
EC
102
{ACAD_REACTORS
330
C
102
}
330
C
100
AcDbDictionary
281
     1
  3
CANNOSCALE
350
F1
  3
CMLEADERSTYLE
350
EE
  3
CTABLESTYLE
350
ED
  3
CVIEWDETAILSTYLE
350
EF
  3
CVIEWSECTIONSTYLE
350
F0
  0
ACDBDETAILVIEWSTYLE
  5
6B
102
{ACAD_XDICTIONARY
360
129
102
}
102
{ACAD_REACTORS
330
6A
102
}
330
6A
100
AcDbModelDocViewStyle
 70
     0
  3
Imperial24
290
     0
100
AcDbDetailViewStyle
 70
     0
 71
     0
 90
        3
 71
     1
340
55
 62
   256
 40
0.24
340
0
 62
   256
 40
0.24
300

 40
0.36
280
     3
 71
     2
340
5D
 90
       25
 62
   256
 71
     3
340
55
 62
   256
 40
0.24
 90
        1
 40
0.75
 90
        1
300
%<\AcVar ViewType \f "%tc1">% %<\AcVar ViewDetailId>%\PSCALE %<\AcVar ViewScale \f "%sn">%
 71
     4
340
5D
 90
       25
 62
   256
340
5D
 90
       25
 62
   256
280
     0
  0
LAYOUT
  5
6F
102
{ACAD_REACTORS
330
62
102
}
330
62
100
AcDbPlotSettings
  1

  2

  4

  6

 40
0.0
 41
0.0
 42
0.0
 43
0.0
 44
0.0
 45
0.0
 46
0.0
 47
0.0
 48
0.0
 49
0.0
140
0.0
141
0.0
142
1.0
143
1.0
 70
   688
 72
     0
 73
     0
 74
     5
  7

 75
    16
147
1.0
 76
     0
 77
     2
 78
   300
148
0.0
149
0.0
100
AcDbLayout
  1
Layout1
 70
     1
 71
     1
 10
0.0
 20
0.0
 11
12.0
 21
9.0
 12
0.0
 22
0.0
 32
0.0
 14
0.0
 24
0.0
 34
0.0
 15
0.0
 25
0.0
 35
0.0
146
0.0
 13
0.0
 23
0.0
 33
0.0
 16
1.0
 26
0.0
 36
0.0
 17
0.0
 27
1.0
 37
0.0
 76
     0
330
6C
  0
LAYOUT
  5
77
102
{ACAD_REACTORS
330
62
102
}
330
62
100
AcDbPlotSettings
  1

  2

  4

  6

 40
0.0
 41
0.0
 42
0.0
 43
0.0
 44
0.0
 45
0.0
 46
0.0
 47
0.0
 48
0.0
 49
0.0
140
0.0
141
0.0
142
1.0
143
1.0
 70
   688
 72
     0
 73
     0
 74
     5
  7

 75
    16
147
1.0
 76
     0
 77
     2
 78
   300
148
0.0
149
0.0
100
AcDbLayout
  1
Layout2
 70
     1
 71
     2
 10
0.0
 20
0.0
 11
12.0
 21
9.0
 12
0.0
 22
0.0
 32
0.0
 14
0.0
 24
0.0
 34
0.0
 15
0.0
 25
0.0
 35
0.0
146
0.0
 13
0.0
 23
0.0
 33
0.0
 16
1.0
 26
0.0
 36
0.0
 17
0.0
 27
1.0
 37
0.0
 76
     0
330
74
  0
LAYOUT
  5
73
102
{ACAD_REACTORS
330
62
102
}
330
62
100
AcDbPlotSettings
  1

  2

  4

  6

 40
0.0
 41
0.0
 42
0.0
 43
0.0
 44
0.0
 45
0.0
 46
0.0
 47
0.0
 48
0.0
 49
0.0
140
0.0
141
0.0
142
1.0
143
1.0
 70
  1712
 72
     0
 73
     0
 74
     0
  7

 75
     0
147
1.0
 76
     0
 77
     2
 78
   300
148
0.0
149
0.0
100
AcDbLayout
  1
Model
 70
     1
 71
     0
 10
0.0
 20
0.0
 11
12.0
 21
9.0
 12
0.0
 22
0.0
 32
0.0
 14
0.0
 24
0.0
 34
0.0
 15
0.0
 25
0.0
 35
0.0
146
0.0
 13
0.0
 23
0.0
 33
0.0
 16
1.0
 26
0.0
 36
0.0
 17
0.0
 27
1.0
 37
0.0
 76
     0
330
70
  0
MATERIAL
  5
19
102
{ACAD_XDICTIONARY
360
1A
102
}
102
{ACAD_REACTORS
330
10
102
}
330
10
100
AcDbMaterial
  1
ByBlock
 72
     0
 43
0.0208333333333333
 43
0.0
 43
0.0
 43
0.0
 43
0.0
 43
0.0208333333333333
 43
0.0
 43
0.0
 43
0.0
 43
0.0
 43
1.0
 43
0.0
 43
0.0
 43
0.0
 43
0.0
 43
1.0
 77
     0
 47
0.0208333333333333
 47
0.0
 47
0.0
 47
0.0
 47
0.0
 47
0.0208333333333333
 47
0.0
 47
0.0
 47
0.0
 47
0.0
 47
1.0
 47
0.0
 47
0.0
 47
0.0
 47
0.0
 47
1.0
171
     0
 49
0.0208333333333333
 49
0.0
 49
0.0
 49
0.0
 49
0.0
 49
0.0208333333333333
 49
0.0
 49
0.0
 49
0.0
 49
0.0
 49
1.0
 49
0.0
 49
0.0
 49
0.0
 49
0.0
 49
1.0
175
     0
142
0.0208333333333333
142
0.0
142
0.0
142
0.0
142
0.0
142
0.0208333333333333
142
0.0
142
0.0
142
0.0
142
0.0
142
1.0
142
0.0
142
0.0
142
0.0
142
0.0
142
1.0
179
     0
144
0.0208333333333333
144
0.0
144
0.0
144
0.0
144
0.0
144
0.0208333333333333
144
0.0
144
0.0
144
0.0
144
0.0
144
1.0
144
0.0
144
0.0
144
0.0
144
0.0
144
1.0
147
0.0208333333333333
147
0.0
147
0.0
147
0.0
147
0.0
147
0.0208333333333333
147
0.0
147
0.0
147
0.0
147
0.0
147
1.0
147
0.0
147
0.0
147
0.0
147
0.0
147
1.0
  0
MATERIAL
  5
11
102
{ACAD_XDICTIONARY
360
12
102
}
102
{ACAD_REACTORS
330
10
102
}
330
10
100
AcDbMaterial
  1
ByLayer
 72
     0
 43
0.0208333333333333
 43
0.0
 43
0.0
 43
0.0
 43
0.0
 43
0.0208333333333333
 43
0.0
 43
0.0
 43
0.0
 43
0.0
 43
1.0
 43
0.0
 43
0.0
 43
0.0
 43
0.0
 43
1.0
 77
     0
 47
0.0208333333333333
 47
0.0
 47
0.0
 47
0.0
 47
0.0
 47
0.0208333333333333
 47
0.0
 47
0.0
 47
0.0
 47
0.0
 47
1.0
 47
0.0
 47
0.0
 47
0.0
 47
0.0
 47
1.0
171
     0
 49
0.0208333333333333
 49
0.0
 49
0.0
 49
0.0
 49
0.0
 49
0.0208333333333333
 49
0.0
 49
0.0
 49
0.0
 49
0.0
 49
1.0
 49
0.0
 49
0.0
 49
0.0
 49
0.0
 49
1.0
175
     0
142
0.0208333333333333
142
0.0
142
0.0
142
0.0
142
0.0
142
0.0208333333333333
142
0.0
142
0.0
142
0.0
142
0.0
142
1.0
142
0.0
142
0.0
142
0.0
142
0.0
142
1.0
179
     0
144
0.0208333333333333
144
0.0
144
0.0
144
0.0
144
0.0
144
0.0208333333333333
144
0.0
144
0.0
144
0.0
144
0.0
144
1.0
144
0.0
144
0.0
144
0.0
144
0.0
144
1.0
147
0.0208333333333333
147
0.0
147
0.0
147
0.0
147
0.0
147
0.0208333333333333
147
0.0
147
0.0
147
0.0
147
0.0
147
1.0
147
0.0
147
0.0
147
0.0
147
0.0
147
1.0
  0
MATERIAL
  5
21
102
{ACAD_XDICTIONARY
360
22
102
}
102
{ACAD_REACTORS
330
10
102
}
330
10
100
AcDbMaterial
  1
Global
 72
     0
 43
0.0208333333333333
 43
0.0
 43
0.0
 43
0.0
 43
0.0
 43
0.0208333333333333
 43
0.0
 43
0.0
 43
0.0
 43
0.0
 43
1.0
 43
0.0
 43
0.0
 43
0.0
 43
0.0
 43
1.0
 77
     0
 47
0.0208333333333333
 47
0.0
 47
0.0
 47
0.0
 47
0.0
 47
0.0208333333333333
 47
0.0
 47
0.0
 47
0.0
 47
0.0
 47
1.0
 47
0.0
 47
0.0
 47
0.0
 47
0.0
 47
1.0
171
     0
 49
0.0208333333333333
 49
0.0
 49
0.0
 49
0.0
 49
0.0
 49
0.0208333333333333
 49
0.0
 49
0.0
 49
0.0
 49
0.0
 49
1.0
 49
0.0
 49
0.0
 49
0.0
 49
0.0
 49
1.0
175
     0
142
0.0208333333333333
142
0.0
142
0.0
142
0.0
142
0.0
142
0.0208333333333333
142
0.0
142
0.0
142
0.0
142
0.0
142
1.0
142
0.0
142
0.0
142
0.0
142
0.0
142
1.0
179
     0
144
0.0208333333333333
144
0.0
144
0.0
144
0.0
144
0.0
144
0.0208333333333333
144
0.0
144
0.0
144
0.0
144
0.0
144
1.0
144
0.0
144
0.0
144
0.0
144
0.0
144
1.0
147
0.0208333333333333
147
0.0
147
0.0
147
0.0
147
0.0
147
0.0208333333333333
147
0.0
147
0.0
147
0.0
147
0.0
147
1.0
147
0.0
147
0.0
147
0.0
147
0.0
147
1.0
  0
MLEADERSTYLE
  5
67
102
{ACAD_XDICTIONARY
360
125
102
}
102
{ACAD_REACTORS
330
66
102
}
330
66
100
AcDbMLeaderStyle
179
     2
170
     2
171
     1
172
     0
 90
        2
 40
0.0
 41
0.0
173
     1
 91
-1056964608
340
5B
 92
       -2
290
     1
 42
0.09
291
     1
 43
0.36
  3
Standard
 44
0.18
300

342
55
174
     1
178
     6
175
     1
176
     0
 93
-1056964608
 45
0.18
292
     0
297
     0
 46
0.18
 94
-1056964608
 47
1.0
 49
1.0
140
1.0
293
     1
141
0.0
294
     1
177
     0
142
1.0
295
     0
296
     0
143
0.125
271
     0
272
     9
273
     9
  0
MLINESTYLE
  5
60
102
{ACAD_REACTORS
330
5F
102
}
330
5F
100
AcDbMlineStyle
  2
STANDARD
 70
     0
  3

 62
   256
 51
90.0
 52
90.0
 71
     2
 49
0.5
 62
   256
  6
BYLAYER
 49
-0.5
 62
   256
  6
BYLAYER
  0
ACDBPLACEHOLDER
  5
F
102
{ACAD_REACTORS
330
E
102
}
330
E
  0
SCALE
  5
43
102
{ACAD_REACTORS
330
42
102
}
330
42
100
AcDbScale
 70
     0
300
1:1
140
1.0
141
1.0
290
     1
  0
SCALE
  5
44
102
{ACAD_REACTORS
330
42
102
}
330
42
100
AcDbScale
 70
     0
300
1/128" = 1'-0"
140
0.0078125
141
12.0
290
     0
  0
SCALE
  5
45
102
{ACAD_REACTORS
330
42
102
}
330
42
100
AcDbScale
 70
     0
300
1/64" = 1'-0"
140
0.015625
141
12.0
290
     0
  0
SCALE
  5
46
102
{ACAD_REACTORS
330
42
102
}
330
42
100
AcDbScale
 70
     0
300
1/32" = 1'-0"
140
0.03125
141
12.0
290
     0
  0
SCALE
  5
47
102
{ACAD_REACTORS
330
42
102
}
330
42
100
AcDbScale
 70
     0
300
1/16" = 1'-0"
140
0.0625
141
12.0
290
     0
  0
SCALE
  5
48
102
{ACAD_REACTORS
330
42
102
}
330
42
100
AcDbScale
 70
     0
300
3/32" = 1'-0"
140
0.09375
141
12.0
290
     0
  0
SCALE
  5
49
102
{ACAD_REACTORS
330
42
102
}
330
42
100
AcDbScale
 70
     0
300
1/8" = 1'-0"
140
0.125
141
12.0
290
     0
  0
SCALE
  5
4A
102
{ACAD_REACTORS
330
42
102
}
330
42
100
AcDbScale
 70
     0
300
3/16" = 1'-0"
140
0.1875
141
12.0
290
     0
  0
SCALE
  5
4B
102
{ACAD_REACTORS
330
42
102
}
330
42
100
AcDbScale
 70
     0
300
1/4" = 1'-0"
140
0.25
141
12.0
290
     0
  0
SCALE
  5
4C
102
{ACAD_REACTORS
330
42
102
}
330
42
100
AcDbScale
 70
     0
300
3/8" = 1'-0"
140
0.375
141
12.0
290
     0
  0
SCALE
  5
4D
102
{ACAD_REACTORS
330
42
102
}
330
42
100
AcDbScale
 70
     0
300
1/2" = 1'-0"
140
0.5
141
12.0
290
     0
  0
SCALE
  5
4E
102
{ACAD_REACTORS
330
42
102
}
330
42
100
AcDbScale
 70
     0
300
3/4" = 1'-0"
140
0.75
141
12.0
290
     0
  0
SCALE
  5
4F
102
{ACAD_REACTORS
330
42
102
}
330
42
100
AcDbScale
 70
     0
300
1" = 1'-0"
140
1.0
141
12.0
290
     0
  0
SCALE
  5
50
102
{ACAD_REACTORS
330
42
102
}
330
42
100
AcDbScale
 70
     0
300
1-1/2" = 1'-0"
140
1.5
141
12.0
290
     0
  0
SCALE
  5
51
102
{ACAD_REACTORS
330
42
102
}
330
42
100
AcDbScale
 70
     0
300
3" = 1'-0"
140
3.0
141
12.0
290
     0
  0
SCALE
  5
52
102
{ACAD_REACTORS
330
42
102
}
330
42
100
AcDbScale
 70
     0
300
6" = 1'-0"
140
6.0
141
12.0
290
     0
  0
SCALE
  5
53
102
{ACAD_REACTORS
330
42
102
}
330
42
100
AcDbScale
 70
     0
300
1'-0" = 1'-0"
140
12.0
141
12.0
290
     0
  0
ACDBSECTIONVIEWSTYLE
  5
69
102
{ACAD_XDICTIONARY
360
127
102
}
102
{ACAD_REACTORS
330
68
102
}
330
68
100
AcDbModelDocViewStyle
 70
     0
  3
Imperial24
290
     0
100
AcDbSectionViewStyle
 70
     0
 71
     0
 90
       78
 71
     1
340
55
 62
   256
 40
0.24
340
0
340
0
 62
   256
 40
0.24
300
I, O, Q, S, X, Z
 40
0.48
 90
        3
 40
0.18
 90
        1
 71
     2
340
5D
 90
       25
 62
   256
340
5D
 90
       50
 62
   256
 40
0.24
 40
0.0
 40
0.24
 71
     3
340
55
 62
   256
 40
0.24
 90
        1
 40
0.75
 90
        1
300
%<\AcVar ViewType \f "%tc1">% %<\AcVar ViewSectionStartId>%-%<\AcVar ViewSectionEndId>%\PSCALE %<\AcVar ViewScale \f "%sn">%
 71
     4
 62
   256
 62
   257
300
ANSI31
 40
1.0
 90
        0
290
     0
290
     0
 90
        6
 40
0.0
 40
1.570796326794896
 40
0.2617993877991494
 40
1.308996938995747
 40
-0.2617993877991494
 40
1.832595714594046
  0
TABLESTYLE
  5
65
102
{ACAD_XDICTIONARY
360
F2
102
}
102
{ACAD_REACTORS
330
64
102
}
330
64
100
AcDbTableStyle
280
     0
  3
Standard
 70
     0
 71
     0
 40
0.06
 41
0.06
280
     0
281
     0
  7
Standard
140
0.18
170
     2
 62
     0
 63
     7
283
     0
 90
      512
 91
        0
  1

274
    -2
284
     1
 64
     0
275
    -2
285
     1
 65
     0
276
    -2
286
     1
 66
     0
277
    -2
287
     1
 67
     0
278
    -2
288
     1
 68
     0
279
    -2
289
     1
 69
     0
  7
Standard
140
0.25
170
     5
 62
     0
 63
     7
283
     0
 90
      512
 91
        0
  1

274
    -2
284
     1
 64
     0
275
    -2
285
     1
 65
     0
276
    -2
286
     1
 66
     0
277
    -2
287
     1
 67
     0
278
    -2
288
     1
 68
     0
279
    -2
289
     1
 69
     0
  7
Standard
140
0.18
170
     5
 62
     0
 63
     7
283
     0
 90
      512
 91
        0
  1

274
    -2
284
     1
 64
     0
275
    -2
285
     1
 65
     0
276
    -2
286
     1
 66
     0
277
    -2
287
     1
 67
     0
278
    -2
288
     1
 68
     0
279
    -2
289
     1
 69
     0
  0
VISUALSTYLE
  5
2F
102
{ACAD_XDICTIONARY
360
FF
102
}
102
{ACAD_REACTORS
330
29
102
}
330
29
100
AcDbVisualStyle
  2
2dWireframe
 70
     4
177
     2
291
     0
 71
     0
176
     1
 72
     2
176
     1
 73
     0
176
     1
 90
        0
176
     1
 40
0.6
176
     1
 41
30.0
176
     1
 63
     7
421
 16777215
176
     1
 74
     1
176
     1
 91
        4
176
     1
 64
     7
176
     1
 65
   257
176
     1
 75
     1
176
     1
175
     1
176
     1
 42
1.0
176
     1
 92
        0
176
     1
 66
   257
176
     1
 43
1.0
176
     1
 76
     1
176
     1
 77
     6
176
     1
 78
     2
176
     1
 67
     7
176
     1
 79
     5
176
     1
170
     0
176
     1
171
     0
176
     1
290
     0
176
     1
 93
        1
176
     1
 44
0.0
176
     1
173
     0
176
     1
1001
ACAD
1000
AcDbSavedByObjectVersion
1070
     0
  0
VISUALSTYLE
  5
2E
102
{ACAD_XDICTIONARY
360
FD
102
}
102
{ACAD_REACTORS
330
29
102
}
330
29
100
AcDbVisualStyle
  2
Basic
 70
     7
177
     2
291
     1
 71
     1
176
     1
 72
     0
176
     1
 73
     1
176
     1
 90
        0
176
     1
 40
0.6
176
     1
 41
30.0
176
     1
 63
     7
421
 16777215
176
     1
 74
     0
176
     1
 91
        4
176
     1
 64
     7
176
     1
 65
   257
176
     1
 75
     1
176
     1
175
     1
176
     1
 42
1.0
176
     1
 92
        8
176
     1
 66
     7
176
     1
 43
1.0
176
     1
 76
     1
176
     1
 77
     6
176
     1
 78
     2
176
     1
 67
     7
176
     1
 79
     5
176
     1
170
     0
176
     1
171
     0
176
     1
290
     0
176
     1
 93
        1
176
     1
 44
0.0
176
     1
173
     0
176
     1
1001
ACAD
1000
AcDbSavedByObjectVersion
1070
     0
  0
VISUALSTYLE
  5
35
102
{ACAD_XDICTIONARY
360
10B
102
}
102
{ACAD_REACTORS
330
29
102
}
330
29
100
AcDbVisualStyle
  2
Brighten
 70
    12
177
     2
291
     1
 71
     2
176
     1
 72
     2
176
     1
 73
     0
176
     1
 90
        0
176
     1
 40
0.6
176
     1
 41
30.0
176
     1
 63
     7
421
 16777215
176
     1
 74
     1
176
     1
 91
        4
176
     1
 64
     7
176
     1
 65
   257
176
     1
 75
     1
176
     1
175
     1
176
     1
 42
1.0
176
     1
 92
        8
176
     1
 66
     7
176
     1
 43
1.0
176
     1
 76
     1
176
     1
 77
     6
176
     1
 78
     2
176
     1
 67
     7
176
     1
 79
     5
176
     1
170
     0
176
     1
171
     0
176
     1
290
     0
176
     1
 93
        1
176
     1
 44
50.0
176
     1
173
     0
176
     1
1001
ACAD
1000
AcDbSavedByObjectVersion
1070
     0
  0
VISUALSTYLE
  5
39
102
{ACAD_XDICTIONARY
360
113
102
}
102
{ACAD_REACTORS
330
29
102
}
330
29
100
AcDbVisualStyle
  2
ColorChange
 70
    16
177
     2
291
     1
 71
     2
176
     1
 72
     2
176
     1
 73
     3
176
     1
 90
        0
176
     1
 40
0.6
176
     1
 41
30.0
176
     1
 63
     8
421
  8421504
176
     1
 74
     1
176
     1
 91
        4
176
     1
 64
     7
176
     1
 65
   257
176
     1
 75
     1
176
     1
175
     1
176
     1
 42
1.0
176
     1
 92
        8
176
     1
 66
     8
424
  8421504
176
     1
 43
1.0
176
     1
 76
     1
176
     1
 77
     6
176
     1
 78
     2
176
     1
 67
     7
176
     1
 79
     5
176
     1
170
     0
176
     1
171
     0
176
     1
290
     0
176
     1
 93
        1
176
     1
 44
0.0
176
     1
173
     0
176
     1
1001
ACAD
1000
AcDbSavedByObjectVersion
1070
     0
  0
VISUALSTYLE
  5
32
102
{ACAD_XDICTIONARY
360
105
102
}
102
{ACAD_REACTORS
330
29
102
}
330
29
100
AcDbVisualStyle
  2
Conceptual
 70
     9
177
     2
291
     0
 71
     3
176
     1
 72
     2
176
     1
 73
     0
176
     1
 90
        0
176
     1
 40
0.6
176
     1
 41
30.0
176
     1
 63
     7
421
 16777215
176
     1
 74
     2
176
     1
 91
        2
176
     1
 64
     7
176
     1
 65
   257
176
     1
 75
     1
176
     1
175
     1
176
     1
 42
179.0
176
     1
 92
        8
176
     1
 66
     7
176
     1
 43
1.0
176
     1
 76
     1
176
     1
 77
     6
176
     1
 78
     2
176
     1
 67
     7
176
     1
 79
     3
176
     1
170
     0
176
     1
171
     0
176
     1
290
     0
176
     1
 93
        1
176
     1
 44
0.0
176
     1
173
     0
176
     1
1001
ACAD
1000
AcDbSavedByObjectVersion
1070
     0
  0
VISUALSTYLE
  5
34
102
{ACAD_XDICTIONARY
360
109
102
}
102
{ACAD_REACTORS
330
29
102
}
330
29
100
AcDbVisualStyle
  2
Dim
 70
    11
177
     2
291
     1
 71
     2
176
     1
 72
     2
176
     1
 73
     0
176
     1
 90
        0
176
     1
 40
0.6
176
     1
 41
30.0
176
     1
 63
     7
421
 16777215
176
     1
 74
     1
176
     1
 91
        4
176
     1
 64
     7
176
     1
 65
   257
176
     1
 75
     1
176
     1
175
     1
176
     1
 42
1.0
176
     1
 92
        8
176
     1
 66
     7
176
     1
 43
1.0
176
     1
 76
     1
176
     1
 77
     6
176
     1
 78
     2
176
     1
 67
     7
176
     1
 79
     5
176
     1
170
     0
176
     1
171
     0
176
     1
290
     0
176
     1
 93
        1
176
     1
 44
-50.0
176
     1
173
     0
176
     1
1001
ACAD
1000
AcDbSavedByObjectVersion
1070
     0
  0
VISUALSTYLE
  5
41
102
{ACAD_XDICTIONARY
360
123
102
}
102
{ACAD_REACTORS
330
29
102
}
330
29
100
AcDbVisualStyle
  2
EdgeColorOff
 70
    22
177
     2
291
     1
 71
     2
176
     0
 72
     2
176
     0
 73
     0
176
     0
 90
        0
176
     0
 40
0.6
176
     0
 41
30.0
176
     0
 63
     7
421
 16777215
176
     0
 74
     1
176
     0
 91
        4
176
     0
 64
     7
176
     0
 65
   257
176
     0
 75
     1
176
     0
175
     1
176
     0
 42
1.0
176
     0
 92
        8
176
     2
 66
     7
176
     0
 43
1.0
176
     0
 76
     1
176
     0
 77
     6
176
     0
 78
     2
176
     0
 67
     7
176
     0
 79
     5
176
     0
170
     0
176
     0
171
     0
176
     0
290
     0
176
     0
 93
        1
176
     0
 44
0.0
176
     0
173
     0
176
     0
1001
ACAD
1000
AcDbSavedByObjectVersion
1070
     0
  0
VISUALSTYLE
  5
38
102
{ACAD_XDICTIONARY
360
111
102
}
102
{ACAD_REACTORS
330
29
102
}
330
29
100
AcDbVisualStyle
  2
Facepattern
 70
    15
177
     2
291
     1
 71
     2
176
     1
 72
     2
176
     1
 73
     0
176
     1
 90
        0
176
     1
 40
0.6
176
     1
 41
30.0
176
     1
 63
     7
421
 16777215
176
     1
 74
     1
176
     1
 91
        4
176
     1
 64
     7
176
     1
 65
   257
176
     1
 75
     1
176
     1
175
     1
176
     1
 42
1.0
176
     1
 92
        8
176
     1
 66
     7
176
     1
 43
1.0
176
     1
 76
     1
176
     1
 77
     6
176
     1
 78
     2
176
     1
 67
     7
176
     1
 79
     5
176
     1
170
     0
176
     1
171
     0
176
     1
290
     0
176
     1
 93
        1
176
     1
 44
0.0
176
     1
173
     0
176
     1
1001
ACAD
1000
AcDbSavedByObjectVersion
1070
     0
  0
VISUALSTYLE
  5
2A
102
{ACAD_XDICTIONARY
360
F5
102
}
102
{ACAD_REACTORS
330
29
102
}
330
29
100
AcDbVisualStyle
  2
Flat
 70
     0
177
     2
291
     1
 71
     2
176
     1
 72
     1
176
     1
 73
     1
176
     1
 90
        2
176
     1
 40
0.6
176
     1
 41
30.0
176
     1
 63
     7
421
 16777215
176
     1
 74
     0
176
     1
 91
        0
176
     1
 64
     7
176
     1
 65
   257
176
     1
 75
     1
176
     1
175
     1
176
     1
 42
1.0
176
     1
 92
        8
176
     1
 66
     7
176
     1
 43
1.0
176
     1
 76
     1
176
     1
 77
     6
176
     1
 78
     2
176
     1
 67
     7
176
     1
 79
     5
176
     1
170
     0
176
     1
171
     0
176
     1
290
     0
176
     1
 93
       13
176
     1
 44
0.0
176
     1
173
     0
176
     1
1001
ACAD
1000
AcDbSavedByObjectVersion
1070
     0
  0
VISUALSTYLE
  5
2B
102
{ACAD_XDICTIONARY
360
F7
102
}
102
{ACAD_REACTORS
330
29
102
}
330
29
100
AcDbVisualStyle
  2
FlatWithEdges
 70
     1
177
     2
291
     1
 71
     2
176
     1
 72
     1
176
     1
 73
     1
176
     1
 90
        2
176
     1
 40
0.6
176
     1
 41
30.0
176
     1
 63
     7
421
 16777215
176
     1
 74
     1
176
     1
 91
        0
176
     1
 64
     7
176
     1
 65
   257
176
     1
 75
     1
176
     1
175
     1
176
     1
 42
1.0
176
     1
 92
        0
176
     1
 66
   257
176
     1
 43
1.0
176
     1
 76
     1
176
     1
 77
     6
176
     1
 78
     2
176
     1
 67
     7
176
     1
 79
     5
176
     1
170
     0
176
     1
171
     0
176
     1
290
     0
176
     1
 93
       13
176
     1
 44
0.0
176
     1
173
     0
176
     1
1001
ACAD
1000
AcDbSavedByObjectVersion
1070
     0
  0
VISUALSTYLE
  5
2C
102
{ACAD_XDICTIONARY
360
F9
102
}
102
{ACAD_REACTORS
330
29
102
}
330
29
100
AcDbVisualStyle
  2
Gouraud
 70
     2
177
     2
291
     1
 71
     2
176
     1
 72
     2
176
     1
 73
     1
176
     1
 90
        2
176
     1
 40
0.6
176
     1
 41
30.0
176
     1
 63
     7
421
 16777215
176
     1
 74
     0
176
     1
 91
        0
176
     1
 64
     7
176
     1
 65
   257
176
     1
 75
     1
176
     1
175
     1
176
     1
 42
1.0
176
     1
 92
        0
176
     1
 66
     7
176
     1
 43
1.0
176
     1
 76
     1
176
     1
 77
     6
176
     1
 78
     2
176
     1
 67
     7
176
     1
 79
     5
176
     1
170
     0
176
     1
171
     0
176
     1
290
     0
176
     1
 93
       13
176
     1
 44
0.0
176
     1
173
     0
176
     1
1001
ACAD
1000
AcDbSavedByObjectVersion
1070
     0
  0
VISUALSTYLE
  5
2D
102
{ACAD_XDICTIONARY
360
FB
102
}
102
{ACAD_REACTORS
330
29
102
}
330
29
100
AcDbVisualStyle
  2
GouraudWithEdges
 70
     3
177
     2
291
     1
 71
     2
176
     1
 72
     2
176
     1
 73
     1
176
     1
 90
        2
176
     1
 40
0.6
176
     1
 41
30.0
176
     1
 63
     7
421
 16777215
176
     1
 74
     1
176
     1
 91
        0
176
     1
 64
     7
176
     1
 65
   257
176
     1
 75
     1
176
     1
175
     1
176
     1
 42
1.0
176
     1
 92
        0
176
     1
 66
   257
176
     1
 43
1.0
176
     1
 76
     1
176
     1
 77
     6
176
     1
 78
     2
176
     1
 67
     7
176
     1
 79
     5
176
     1
170
     0
176
     1
171
     0
176
     1
290
     0
176
     1
 93
       13
176
     1
 44
0.0
176
     1
173
     0
176
     1
1001
ACAD
1000
AcDbSavedByObjectVersion
1070
     0
  0
VISUALSTYLE
  5
31
102
{ACAD_XDICTIONARY
360
103
102
}
102
{ACAD_REACTORS
330
29
102
}
330
29
100
AcDbVisualStyle
  2
Hidden
 70
     6
177
     2
291
     0
 71
     1
176
     1
 72
     2
176
     1
 73
     2
176
     1
 90
        0
176
     1
 40
0.6
176
     1
 41
30.0
176
     1
 63
     7
421
 16777215
176
     1
 74
     2
176
     1
 91
        2
176
     1
 64
     7
176
     1
 65
   257
176
     1
 75
     2
176
     1
175
     1
176
     1
 42
40.0
176
     1
 92
        0
176
     1
 66
   257
176
     1
 43
1.0
176
     1
 76
     1
176
     1
 77
     6
176
     1
 78
     2
176
     1
 67
     7
176
     1
 79
     3
176
     1
170
     0
176
     1
171
     0
176
     1
290
     0
176
     1
 93
        1
176
     1
 44
0.0
176
     1
173
     0
176
     1
1001
ACAD
1000
AcDbSavedByObjectVersion
1070
     0
  0
VISUALSTYLE
  5
3F
102
{ACAD_XDICTIONARY
360
11F
102
}
102
{ACAD_REACTORS
330
29
102
}
330
29
100
AcDbVisualStyle
  2
JitterOff
 70
    20
177
     2
291
     1
 71
     2
176
     0
 72
     2
176
     0
 73
     0
176
     0
 90
        0
176
     0
 40
0.6
176
     0
 41
30.0
176
     0
 63
     7
421
 16777215
176
     0
 74
     1
176
     0
 91
        4
176
     0
 64
     7
176
     0
 65
   257
176
     0
 75
     1
176
     0
175
     1
176
     0
 42
1.0
176
     0
 92
       10
176
     2
 66
     7
176
     0
 43
1.0
176
     0
 76
     1
176
     0
 77
     6
176
     0
 78
     2
176
     0
 67
     7
176
     0
 79
     5
176
     0
170
     0
176
     0
171
     0
176
     0
290
     0
176
     0
 93
        1
176
     0
 44
0.0
176
     0
173
     0
176
     0
1001
ACAD
1000
AcDbSavedByObjectVersion
1070
     0
  0
VISUALSTYLE
  5
37
102
{ACAD_XDICTIONARY
360
10F
102
}
102
{ACAD_REACTORS
330
29
102
}
330
29
100
AcDbVisualStyle
  2
Linepattern
 70
    14
177
     2
291
     1
 71
     2
176
     1
 72
     2
176
     1
 73
     0
176
     1
 90
        0
176
     1
 40
0.6
176
     1
 41
30.0
176
     1
 63
     7
421
 16777215
176
     1
 74
     1
176
     1
 91
        4
176
     1
 64
     7
176
     1
 65
   257
176
     1
 75
     7
176
     1
175
     7
176
     1
 42
1.0
176
     1
 92
        8
176
     1
 66
     7
176
     1
 43
1.0
176
     1
 76
     1
176
     1
 77
     6
176
     1
 78
     2
176
     1
 67
     7
176
     1
 79
     5
176
     1
170
     0
176
     1
171
     0
176
     1
290
     0
176
     1
 93
        1
176
     1
 44
0.0
176
     1
173
     0
176
     1
1001
ACAD
1000
AcDbSavedByObjectVersion
1070
     0
  0
VISUALSTYLE
  5
40
102
{ACAD_XDICTIONARY
360
121
102
}
102
{ACAD_REACTORS
330
29
102
}
330
29
100
AcDbVisualStyle
  2
OverhangOff
 70
    21
177
     2
291
     1
 71
     2
176
     0
 72
     2
176
     0
 73
     0
176
     0
 90
        0
176
     0
 40
0.6
176
     0
 41
30.0
176
     0
 63
     7
421
 16777215
176
     0
 74
     1
176
     0
 91
        4
176
     0
 64
     7
176
     0
 65
   257
176
     0
 75
     1
176
     0
175
     1
176
     0
 42
1.0
176
     0
 92
        9
176
     2
 66
     7
176
     0
 43
1.0
176
     0
 76
     1
176
     0
 77
     6
176
     0
 78
     2
176
     0
 67
     7
176
     0
 79
     5
176
     0
170
     0
176
     0
171
     0
176
     0
290
     0
176
     0
 93
        1
176
     0
 44
0.0
176
     0
173
     0
176
     0
1001
ACAD
1000
AcDbSavedByObjectVersion
1070
     0
  0
VISUALSTYLE
  5
33
102
{ACAD_XDICTIONARY
360
107
102
}
102
{ACAD_REACTORS
330
29
102
}
330
29
100
AcDbVisualStyle
  2
Realistic
 70
     8
177
     2
291
     0
 71
     2
176
     1
 72
     3
176
     1
 73
     0
176
     1
 90
        2
176
     1
 40
0.6
176
     1
 41
30.0
176
     1
 63
     7
421
 16777215
176
     1
 74
     0
176
     1
 91
        0
176
     1
 64
     7
176
     1
 65
   257
176
     1
 75
     1
176
     1
175
     1
176
     1
 42
1.0
176
     1
 92
        8
176
     1
 66
   257
176
     1
 43
1.0
176
     1
 76
     1
176
     1
 77
     6
176
     1
 78
     2
176
     1
 67
     7
176
     1
 79
     3
176
     1
170
     0
176
     1
171
     0
176
     1
290
     0
176
     1
 93
       13
176
     1
 44
0.0
176
     1
173
     0
176
     1
1001
ACAD
1000
AcDbSavedByObjectVersion
1070
     0
  0
VISUALSTYLE
  5
3E
102
{ACAD_XDICTIONARY
360
11D
102
}
102
{ACAD_REACTORS
330
29
102
}
330
29
100
AcDbVisualStyle
  2
Shaded
 70
    27
177
     2
291
     0
 71
     2
176
     1
 72
     2
176
     1
 73
     1
176
     1
 90
        2
176
     1
 40
0.6
176
     1
 41
30.0
176
     1
 63
     7
421
 16777215
176
     1
 74
     0
176
     1
 91
        4
176
     1
 64
     7
176
     1
 65
   257
176
     1
 75
     1
176
     1
175
     1
176
     1
 42
1.0
176
     1
 92
        8
176
     1
 66
   257
176
     1
 43
1.0
176
     1
 76
     1
176
     1
 77
     6
176
     1
 78
     2
176
     1
 67
     8
425
  7895160
176
     1
 79
     3
176
     1
170
     0
176
     1
171
     0
176
     1
290
     0
176
     1
 93
        5
176
     1
 44
0.0
176
     1
173
     0
176
     1
1001
ACAD
1000
AcDbSavedByObjectVersion
1070
     0
  0
VISUALSTYLE
  5
3D
102
{ACAD_XDICTIONARY
360
11B
102
}
102
{ACAD_REACTORS
330
29
102
}
330
29
100
AcDbVisualStyle
  2
Shaded with edges
 70
    26
177
     2
291
     0
 71
     2
176
     1
 72
     2
176
     1
 73
     1
176
     1
 90
        2
176
     1
 40
0.6
176
     1
 41
30.0
176
     1
 63
     7
421
 16777215
176
     1
 74
     1
176
     1
 91
        2
176
     1
 64
     7
176
     1
 65
   257
176
     1
 75
     2
176
     1
175
     1
176
     1
 42
1.0
176
     1
 92
        8
176
     1
 66
   257
176
     1
 43
1.0
176
     1
 76
     1
176
     1
 77
     6
176
     1
 78
     2
176
     1
 67
     7
176
     1
 79
     3
176
     1
170
     0
176
     1
171
     0
176
     1
290
     0
176
     1
 93
        5
176
     1
 44
0.0
176
     1
173
     0
176
     1
1001
ACAD
1000
AcDbSavedByObjectVersion
1070
     0
  0
VISUALSTYLE
  5
3A
102
{ACAD_XDICTIONARY
360
115
102
}
102
{ACAD_REACTORS
330
29
102
}
330
29
100
AcDbVisualStyle
  2
Shades of Gray
 70
    23
177
     2
291
     0
 71
     2
176
     1
 72
     2
176
     1
 73
     3
176
     1
 90
        0
176
     1
 40
0.6
176
     1
 41
30.0
176
     1
 63
     7
421
 16777215
176
     1
 74
     2
176
     1
 91
        2
176
     1
 64
     7
176
     1
 65
     7
176
     1
 75
     1
176
     1
175
     1
176
     1
 42
40.0
176
     1
 92
        8
176
     1
 66
     7
176
     1
 43
1.0
176
     1
 76
     1
176
     1
 77
     6
176
     1
 78
     2
176
     1
 67
     7
176
     1
 79
     3
176
     1
170
     0
176
     1
171
     0
176
     1
290
     0
176
     1
 93
        1
176
     1
 44
0.0
176
     1
173
     0
176
     1
1001
ACAD
1000
AcDbSavedByObjectVersion
1070
     0
  0
VISUALSTYLE
  5
3B
102
{ACAD_XDICTIONARY
360
117
102
}
102
{ACAD_REACTORS
330
29
102
}
330
29
100
AcDbVisualStyle
  2
Sketchy
 70
    24
177
     2
291
     0
 71
     1
176
     1
 72
     2
176
     1
 73
     2
176
     1
 90
        0
176
     1
 40
0.6
176
     1
 41
30.0
176
     1
 63
     7
421
 16777215
176
     1
 74
     2
176
     1
 91
        2
176
     1
 64
     7
176
     1
 65
     7
176
     1
 75
     1
176
     1
175
     1
176
     1
 42
40.0
176
     1
 92
       11
176
     1
 66
     7
176
     1
 43
1.0
176
     1
 76
     1
176
     1
 77
     6
176
     1
 78
     2
176
     1
 67
     7
176
     1
 79
     6
176
     1
170
     0
176
     1
171
     0
176
     1
290
     0
176
     1
 93
        1
176
     1
 44
0.0
176
     1
173
     0
176
     1
1001
ACAD
1000
AcDbSavedByObjectVersion
1070
     0
  0
VISUALSTYLE
  5
36
102
{ACAD_XDICTIONARY
360
10D
102
}
102
{ACAD_REACTORS
330
29
102
}
330
29
100
AcDbVisualStyle
  2
Thicken
 70
    13
177
     2
291
     1
 71
     2
176
     1
 72
     2
176
     1
 73
     0
176
     1
 90
        0
176
     1
 40
0.6
176
     1
 41
30.0
176
     1
 63
     7
421
 16777215
176
     1
 74
     1
176
     1
 91
        4
176
     1
 64
     7
176
     1
 65
   257
176
     1
 75
     1
176
     1
175
     1
176
     1
 42
1.0
176
     1
 92
       12
176
     1
 66
     7
176
     1
 43
1.0
176
     1
 76
     1
176
     1
 77
     6
176
     1
 78
     2
176
     1
 67
     7
176
     1
 79
     5
176
     1
170
     0
176
     1
171
     0
176
     1
290
     0
176
     1
 93
        1
176
     1
 44
0.0
176
     1
173
     0
176
     1
1001
ACAD
1000
AcDbSavedByObjectVersion
1070
     0
  0
VISUALSTYLE
  5
30
102
{ACAD_XDICTIONARY
360
101
102
}
102
{ACAD_REACTORS
330
29
102
}
330
29
100
AcDbVisualStyle
  2
Wireframe
 70
     5
177
     2
291
     0
 71
     0
176
     1
 72
     2
176
     1
 73
     0
176
     1
 90
        0
176
     1
 40
0.6
176
     1
 41
30.0
176
     1
 63
     7
421
 16777215
176
     1
 74
     1
176
     1
 91
        4
176
     1
 64
     7
176
     1
 65
   257
176
     1
 75
     1
176
     1
175
     1
176
     1
 42
1.0
176
     1
 92
        0
176
     1
 66
   257
176
     1
 43
1.0
176
     1
 76
     1
176
     1
 77
     6
176
     1
 78
     2
176
     1
 67
     7
176
     1
 79
     3
176
     1
170
     0
176
     1
171
     0
176
     1
290
     0
176
     1
 93
        1
176
     1
 44
0.0
176
     1
173
     0
176
     1
1001
ACAD
1000
AcDbSavedByObjectVersion
1070
     0
  0
VISUALSTYLE
  5
3C
102
{ACAD_XDICTIONARY
360
119
102
}
102
{ACAD_REACTORS
330
29
102
}
330
29
100
AcDbVisualStyle
  2
X-Ray
 70
    25
177
     2
291
     0
 71
     2
176
     1
 72
     2
176
     1
 73
     1
176
     1
 90
        1
176
     1
 40
0.5
176
     1
 41
30.0
176
     1
 63
     7
421
 16777215
176
     1
 74
     1
176
     1
 91
        0
176
     1
 64
     7
176
     1
 65
   257
176
     1
 75
     1
176
     1
175
     1
176
     1
 42
1.0
176
     1
 92
        8
176
     1
 66
     7
176
     1
 43
1.0
176
     1
 76
     1
176
     1
 77
     6
176
     1
 78
     2
176
     1
 67
     7
176
     1
 79
     3
176
     1
170
     0
176
     1
171
     0
176
     1
290
     0
176
     1
 93
       13
176
     1
 44
0.0
176
     1
173
     0
176
     1
1001
ACAD
1000
AcDbSavedByObjectVersion
1070
     0
  0
DICTIONARYVAR
  5
F1
102
{ACAD_REACTORS
330
EC
102
}
330
EC
100
DictionaryVariables
280
     0
  1
1:1
  0
DICTIONARYVAR
  5
EE
102
{ACAD_REACTORS
330
EC
102
}
330
EC
100
DictionaryVariables
280
     0
  1
STANDARD
  0
DICTIONARYVAR
  5
ED
102
{ACAD_REACTORS
330
EC
102
}
330
EC
100
DictionaryVariables
280
     0
  1
STANDARD
  0
DICTIONARYVAR
  5
EF
102
{ACAD_REACTORS
330
EC
102
}
330
EC
100
DictionaryVariables
280
     0
  1
Imperial24
  0
DICTIONARYVAR
  5
F0
102
{ACAD_REACTORS
330
EC
102
}
330
EC
100
DictionaryVariables
280
     0
  1
Imperial24
  0
DICTIONARY
  5
129
330
6B
100
AcDbDictionary
280
     1
281
     1
  3
ACAD_XREC_ROUNDTRIP
360
12A
  0
DICTIONARY
  5
1A
330
19
100
AcDbDictionary
280
     1
281
     1
  3
BUMPTILE
360
1C
  3
DIFFUSETILE
360
1B
  3
OPACITYTILE
360
1F
  3
REFLECTIONTILE
360
1E
  3
REFRACTIONTILE
360
20
  3
SPECULARTILE
360
1D
  0
DICTIONARY
  5
12
330
11
100
AcDbDictionary
280
     1
281
     1
  3
BUMPTILE
360
14
  3
DIFFUSETILE
360
13
  3
OPACITYTILE
360
17
  3
REFLECTIONTILE
360
16
  3
REFRACTIONTILE
360
18
  3
SPECULARTILE
360
15
  0
DICTIONARY
  5
22
330
21
100
AcDbDictionary
280
     1
281
     1
  3
BUMPTILE
360
24
  3
DIFFUSETILE
360
23
  3
OPACITYTILE
360
27
  3
REFLECTIONTILE
360
26
  3
REFRACTIONTILE
360
28
  3
SPECULARTILE
360
25
  0
DICTIONARY
  5
125
330
67
100
AcDbDictionary
280
     1
281
     1
  3
ACAD_XREC_ROUNDTRIP
360
126
  0
DICTIONARY
  5
127
330
69
100
AcDbDictionary
280
     1
281
     1
  3
ACAD_XREC_ROUNDTRIP
360
128
  0
DICTIONARY
  5
F2
330
65
100
AcDbDictionary
280
     1
281
     1
  3
ACAD_ROUNDTRIP_2008_TABLESTYLE_CELLSTYLEMAP
360
F3
  0
DICTIONARY
  5
FF
330
2F
100
AcDbDictionary
280
     1
281
     1
  3
ACAD_XREC_ROUNDTRIP
360
100
  0
DICTIONARY
  5
FD
330
2E
100
AcDbDictionary
280
     1
281
     1
  3
ACAD_XREC_ROUNDTRIP
360
FE
  0
DICTIONARY
  5
10B
330
35
100
AcDbDictionary
280
     1
281
     1
  3
ACAD_XREC_ROUNDTRIP
360
10C
  0
DICTIONARY
  5
113
330
39
100
AcDbDictionary
280
     1
281
     1
  3
ACAD_XREC_ROUNDTRIP
360
114
  0
DICTIONARY
  5
105
330
32
100
AcDbDictionary
280
     1
281
     1
  3
ACAD_XREC_ROUNDTRIP
360
106
  0
DICTIONARY
  5
109
330
34
100
AcDbDictionary
280
     1
281
     1
  3
ACAD_XREC_ROUNDTRIP
360
10A
  0
DICTIONARY
  5
123
330
41
100
AcDbDictionary
280
     1
281
     1
  3
ACAD_XREC_ROUNDTRIP
360
124
  0
DICTIONARY
  5
111
330
38
100
AcDbDictionary
280
     1
281
     1
  3
ACAD_XREC_ROUNDTRIP
360
112
  0
DICTIONARY
  5
F5
330
2A
100
AcDbDictionary
280
     1
281
     1
  3
ACAD_XREC_ROUNDTRIP
360
F6
  0
DICTIONARY
  5
F7
330
2B
100
AcDbDictionary
280
     1
281
     1
  3
ACAD_XREC_ROUNDTRIP
360
F8
  0
DICTIONARY
  5
F9
330
2C
100
AcDbDictionary
280
     1
281
     1
  3
ACAD_XREC_ROUNDTRIP
360
FA
  0
DICTIONARY
  5
FB
330
2D
100
AcDbDictionary
280
     1
281
     1
  3
ACAD_XREC_ROUNDTRIP
360
FC
  0
DICTIONARY
  5
103
330
31
100
AcDbDictionary
280
     1
281
     1
  3
ACAD_XREC_ROUNDTRIP
360
104
  0
DICTIONARY
  5
11F
330
3F
100
AcDbDictionary
280
     1
281
     1
  3
ACAD_XREC_ROUNDTRIP
360
120
  0
DICTIONARY
  5
10F
330
37
100
AcDbDictionary
280
     1
281
     1
  3
ACAD_XREC_ROUNDTRIP
360
110
  0
DICTIONARY
  5
121
330
40
100
AcDbDictionary
280
     1
281
     1
  3
ACAD_XREC_ROUNDTRIP
360
122
  0
DICTIONARY
  5
107
330
33
100
AcDbDictionary
280
     1
281
     1
  3
ACAD_XREC_ROUNDTRIP
360
108
  0
DICTIONARY
  5
11D
330
3E
100
AcDbDictionary
280
     1
281
     1
  3
ACAD_XREC_ROUNDTRIP
360
11E
  0
DICTIONARY
  5
11B
330
3D
100
AcDbDictionary
280
     1
281
     1
  3
ACAD_XREC_ROUNDTRIP
360
11C
  0
DICTIONARY
  5
115
330
3A
100
AcDbDictionary
280
     1
281
     1
  3
ACAD_XREC_ROUNDTRIP
360
116
  0
DICTIONARY
  5
117
330
3B
100
AcDbDictionary
280
     1
281
     1
  3
ACAD_XREC_ROUNDTRIP
360
118
  0
DICTIONARY
  5
10D
330
36
100
AcDbDictionary
280
     1
281
     1
  3
ACAD_XREC_ROUNDTRIP
360
10E
  0
DICTIONARY
  5
101
330
30
100
AcDbDictionary
280
     1
281
     1
  3
ACAD_XREC_ROUNDTRIP
360
102
  0
DICTIONARY
  5
119
330
3C
100
AcDbDictionary
280
     1
281
     1
  3
ACAD_XREC_ROUNDTRIP
360
11A
  0
XRECORD
  5
12A
102
{ACAD_REACTORS
330
129
102
}
330
129
100
AcDbXrecord
280
     1
102
DISPLAYNAME
  1
Imperial24
102
FLAGS
 90
        0
  0
XRECORD
  5
1C
102
{ACAD_REACTORS
330
1A
102
}
330
1A
100
AcDbXrecord
280
     1
270
     1
271
     1
  0
XRECORD
  5
1B
102
{ACAD_REACTORS
330
1A
102
}
330
1A
100
AcDbXrecord
280
     1
270
     1
271
     1
  0
XRECORD
  5
1F
102
{ACAD_REACTORS
330
1A
102
}
330
1A
100
AcDbXrecord
280
     1
270
     1
271
     1
  0
XRECORD
  5
1E
102
{ACAD_REACTORS
330
1A
102
}
330
1A
100
AcDbXrecord
280
     1
270
     1
271
     1
  0
XRECORD
  5
20
102
{ACAD_REACTORS
330
1A
102
}
330
1A
100
AcDbXrecord
280
     1
270
     1
271
     1
  0
XRECORD
  5
1D
102
{ACAD_REACTORS
330
1A
102
}
330
1A
100
AcDbXrecord
280
     1
270
     1
271
     1
  0
XRECORD
  5
14
102
{ACAD_REACTORS
330
12
102
}
330
12
100
AcDbXrecord
280
     1
270
     1
271
     1
  0
XRECORD
  5
13
102
{ACAD_REACTORS
330
12
102
}
330
12
100
AcDbXrecord
280
     1
270
     1
271
     1
  0
XRECORD
  5
17
102
{ACAD_REACTORS
330
12
102
}
330
12
100
AcDbXrecord
280
     1
270
     1
271
     1
  0
XRECORD
  5
16
102
{ACAD_REACTORS
330
12
102
}
330
12
100
AcDbXrecord
280
     1
270
     1
271
     1
  0
XRECORD
  5
18
102
{ACAD_REACTORS
330
12
102
}
330
12
100
AcDbXrecord
280
     1
270
     1
271
     1
  0
XRECORD
  5
15
102
{ACAD_REACTORS
330
12
102
}
330
12
100
AcDbXrecord
280
     1
270
     1
271
     1
  0
XRECORD
  5
24
102
{ACAD_REACTORS
330
22
102
}
330
22
100
AcDbXrecord
280
     1
270
     1
271
     1
  0
XRECORD
  5
23
102
{ACAD_REACTORS
330
22
102
}
330
22
100
AcDbXrecord
280
     1
270
     1
271
     1
  0
XRECORD
  5
27
102
{ACAD_REACTORS
330
22
102
}
330
22
100
AcDbXrecord
280
     1
270
     1
271
     1
  0
XRECORD
  5
26
102
{ACAD_REACTORS
330
22
102
}
330
22
100
AcDbXrecord
280
     1
270
     1
271
     1
  0
XRECORD
  5
28
102
{ACAD_REACTORS
330
22
102
}
330
22
100
AcDbXrecord
280
     1
270
     1
271
     1
  0
XRECORD
  5
25
102
{ACAD_REACTORS
330
22
102
}
330
22
100
AcDbXrecord
280
     1
270
     1
271
     1
  0
XRECORD
  5
126
102
{ACAD_REACTORS
330
125
102
}
330
125
100
AcDbXrecord
280
     1
102
ACAD_ROUNDTRIP_2012_MLEADER_STYLE
298
     1
  0
XRECORD
  5
128
102
{ACAD_REACTORS
330
127
102
}
330
127
100
AcDbXrecord
280
     1
102
DISPLAYNAME
  1
Imperial24
102
FLAGS
 90
        0
  0
CELLSTYLEMAP
  5
F3
102
{ACAD_REACTORS
330
F2
102
}
330
F2
100
AcDbCellStyleMap
 90
        3
300
CELLSTYLE
  1
TABLEFORMAT_BEGIN
 90
        5
170
     1
 91
        0
 92
    32768
 62
   257
 93
        1
300
CONTENTFORMAT
  1
CONTENTFORMAT_BEGIN
 90
        0
 91
        0
 92
      512
 93
        0
300

 40
0.0
140
1.0
 94
        5
 62
     0
340
55
144
0.25
309
CONTENTFORMAT_END
171
     0
 94
        0
309
TABLEFORMAT_END
  1
CELLSTYLE_BEGIN
 90
        1
 91
        1
300
_TITLE
309
CELLSTYLE_END
300
CELLSTYLE
  1
TABLEFORMAT_BEGIN
 90
        5
170
     1
 91
        0
 92
        0
 62
   257
 93
        1
300
CONTENTFORMAT
  1
CONTENTFORMAT_BEGIN
 90
        0
 91
        0
 92
      512
 93
        0
300

 40
0.0
140
1.0
 94
        5
 62
     0
340
55
144
0.18
309
CONTENTFORMAT_END
171
     0
 94
        0
309
TABLEFORMAT_END
  1
CELLSTYLE_BEGIN
 90
        2
 91
        1
300
_HEADER
309
CELLSTYLE_END
300
CELLSTYLE
  1
TABLEFORMAT_BEGIN
 90
        5
170
     1
 91
        0
 92
        0
 62
   257
 93
        1
300
CONTENTFORMAT
  1
CONTENTFORMAT_BEGIN
 90
        0
 91
        0
 92
      512
 93
        0
300

 40
0.0
140
1.0
 94
        2
 62
     0
340
55
144
0.18
309
CONTENTFORMAT_END
171
     0
 94
        0
309
TABLEFORMAT_END
  1
CELLSTYLE_BEGIN
 90
        3
 91
        2
300
_DATA
309
CELLSTYLE_END
  0
XRECORD
  5
100
102
{ACAD_REACTORS
330
FF
102
}
330
FF
100
AcDbXrecord
280
     1
102
RTVSPost2010Prop28
280
     1
102
RTVSPost2010PropOp28
 70
     1
102
RTVSPost2010Prop29
280
     1
102
RTVSPost2010PropOp29
 70
     1
102
RTVSPost2010Prop30
280
     0
102
RTVSPost2010PropOp30
 70
     1
102
RTVSPost2010Prop31
280
     0
102
RTVSPost2010PropOp31
 70
     1
102
RTVSPost2010Prop32
280
     0
102
RTVSPost2010PropOp32
 70
     1
102
RTVSPost2010Prop33
280
     0
102
RTVSPost2010PropOp33
 70
     1
102
RTVSPost2010Prop34
280
     0
102
RTVSPost2010PropOp34
 70
     1
102
RTVSPost2010Prop35
280
     0
102
RTVSPost2010PropOp35
 70
     1
102
RTVSPost2010Prop36
280
     0
102
RTVSPost2010PropOp36
 70
     1
102
RTVSPost2010Prop37
 90
       50
102
RTVSPost2010PropOp37
 70
     1
102
RTVSPost2010Prop38
140
0.0
102
RTVSPost2010PropOp38
 70
     1
102
RTVSPost2010Prop39
140
1.0
102
RTVSPost2010PropOp39
 70
     1
102
RTVSPost2010Prop40
 90
        0
102
RTVSPost2010PropOp40
 70
     1
102
RTVSPost2010Prop41ColorIndex
 90
       18
102
RTVSPost2010Prop41ColorRGB
 90
        0
102
RTVSPost2010PropOp41
 70
     1
102
RTVSPost2010Prop42
 90
       50
102
RTVSPost2010PropOp42
 70
     1
102
RTVSPost2010Prop43
 90
        3
102
RTVSPost2010PropOp43
 70
     1
102
RTVSPost2010Prop44ColorIndex
 90
        5
102
RTVSPost2010Prop44ColorRGB
 90
      255
102
RTVSPost2010PropOp44
 70
     1
102
RTVSPost2010Prop45
280
     0
102
RTVSPost2010PropOp45
 70
     1
102
RTVSPost2010Prop46
 90
       50
102
RTVSPost2010PropOp46
 70
     1
102
RTVSPost2010Prop47
 90
       50
102
RTVSPost2010PropOp47
 70
     1
102
RTVSPost2010Prop48
 90
       50
102
RTVSPost2010PropOp48
 70
     1
102
RTVSPost2010Prop49
280
     0
102
RTVSPost2010PropOp49
 70
     1
102
RTVSPost2010Prop50
 90
       50
102
RTVSPost2010PropOp50
 70
     1
102
RTVSPost2010Prop51ColorIndex
 90
      256
102
RTVSPost2010Prop51ColorRGB
 90
-16777216
102
RTVSPost2010PropOp51
 70
     0
102
RTVSPost2010Prop52
140
1.0
102
RTVSPost2010PropOp52
 70
     0
102
RTVSPost2010Prop53
 90
        2
102
RTVSPost2010PropOp53
 70
     1
102
RTVSPost2010Prop54
  1
strokes_ogs.tif
102
RTVSPost2010PropOp54
 70
     1
102
RTVSPost2010Prop55
280
     0
102
RTVSPost2010PropOp55
 70
     1
102
RTVSPost2010Prop56
140
1.0
102
RTVSPost2010PropOp56
 70
     1
102
RTVSPost2010Prop57
140
1.0
102
RTVSPost2010PropOp57
 70
     1
  0
XRECORD
  5
FE
102
{ACAD_REACTORS
330
FD
102
}
330
FD
100
AcDbXrecord
280
     1
102
RTVSPost2010Prop28
280
     0
102
RTVSPost2010PropOp28
 70
     1
102
RTVSPost2010Prop29
280
     1
102
RTVSPost2010PropOp29
 70
     1
102
RTVSPost2010Prop30
280
     1
102
RTVSPost2010PropOp30
 70
     1
102
RTVSPost2010Prop31
280
     0
102
RTVSPost2010PropOp31
 70
     1
102
RTVSPost2010Prop32
280
     0
102
RTVSPost2010PropOp32
 70
     1
102
RTVSPost2010Prop33
280
     0
102
RTVSPost2010PropOp33
 70
     1
102
RTVSPost2010Prop34
280
     0
102
RTVSPost2010PropOp34
 70
     1
102
RTVSPost2010Prop35
280
     0
102
RTVSPost2010PropOp35
 70
     1
102
RTVSPost2010Prop36
280
     0
102
RTVSPost2010PropOp36
 70
     1
102
RTVSPost2010Prop37
 90
       50
102
RTVSPost2010PropOp37
 70
     1
102
RTVSPost2010Prop38
140
0.0
102
RTVSPost2010PropOp38
 70
     1
102
RTVSPost2010Prop39
140
1.0
102
RTVSPost2010PropOp39
 70
     1
102
RTVSPost2010Prop40
 90
        0
102
RTVSPost2010PropOp40
 70
     1
102
RTVSPost2010Prop41ColorIndex
 90
       18
102
RTVSPost2010Prop41ColorRGB
 90
        0
102
RTVSPost2010PropOp41
 70
     1
102
RTVSPost2010Prop42
 90
       50
102
RTVSPost2010PropOp42
 70
     1
102
RTVSPost2010Prop43
 90
        3
102
RTVSPost2010PropOp43
 70
     1
102
RTVSPost2010Prop44ColorIndex
 90
        5
102
RTVSPost2010Prop44ColorRGB
 90
      255
102
RTVSPost2010PropOp44
 70
     1
102
RTVSPost2010Prop45
280
     0
102
RTVSPost2010PropOp45
 70
     1
102
RTVSPost2010Prop46
 90
       50
102
RTVSPost2010PropOp46
 70
     1
102
RTVSPost2010Prop47
 90
       50
102
RTVSPost2010PropOp47
 70
     1
102
RTVSPost2010Prop48
 90
       50
102
RTVSPost2010PropOp48
 70
     1
102
RTVSPost2010Prop49
280
     0
102
RTVSPost2010PropOp49
 70
     1
102
RTVSPost2010Prop50
 90
       50
102
RTVSPost2010PropOp50
 70
     1
102
RTVSPost2010Prop51ColorIndex
 90
      256
102
RTVSPost2010Prop51ColorRGB
 90
-16777216
102
RTVSPost2010PropOp51
 70
     0
102
RTVSPost2010Prop52
140
1.0
102
RTVSPost2010PropOp52
 70
     0
102
RTVSPost2010Prop53
 90
        2
102
RTVSPost2010PropOp53
 70
     1
102
RTVSPost2010Prop54
  1
strokes_ogs.tif
102
RTVSPost2010PropOp54
 70
     1
102
RTVSPost2010Prop55
280
     0
102
RTVSPost2010PropOp55
 70
     1
102
RTVSPost2010Prop56
140
1.0
102
RTVSPost2010PropOp56
 70
     1
102
RTVSPost2010Prop57
140
1.0
102
RTVSPost2010PropOp57
 70
     1
  0
XRECORD
  5
10C
102
{ACAD_REACTORS
330
10B
102
}
330
10B
100
AcDbXrecord
280
     1
102
RTVSPost2010Prop28
280
     0
102
RTVSPost2010PropOp28
 70
     1
102
RTVSPost2010Prop29
280
     1
102
RTVSPost2010PropOp29
 70
     1
102
RTVSPost2010Prop30
280
     1
102
RTVSPost2010PropOp30
 70
     1
102
RTVSPost2010Prop31
280
     0
102
RTVSPost2010PropOp31
 70
     1
102
RTVSPost2010Prop32
280
     0
102
RTVSPost2010PropOp32
 70
     1
102
RTVSPost2010Prop33
280
     0
102
RTVSPost2010PropOp33
 70
     1
102
RTVSPost2010Prop34
280
     0
102
RTVSPost2010PropOp34
 70
     1
102
RTVSPost2010Prop35
280
     0
102
RTVSPost2010PropOp35
 70
     1
102
RTVSPost2010Prop36
280
     0
102
RTVSPost2010PropOp36
 70
     1
102
RTVSPost2010Prop37
 90
       50
102
RTVSPost2010PropOp37
 70
     1
102
RTVSPost2010Prop38
140
0.0
102
RTVSPost2010PropOp38
 70
     1
102
RTVSPost2010Prop39
140
1.0
102
RTVSPost2010PropOp39
 70
     1
102
RTVSPost2010Prop40
 90
        0
102
RTVSPost2010PropOp40
 70
     1
102
RTVSPost2010Prop41ColorIndex
 90
       18
102
RTVSPost2010Prop41ColorRGB
 90
        0
102
RTVSPost2010PropOp41
 70
     1
102
RTVSPost2010Prop42
 90
       50
102
RTVSPost2010PropOp42
 70
     1
102
RTVSPost2010Prop43
 90
        3
102
RTVSPost2010PropOp43
 70
     1
102
RTVSPost2010Prop44ColorIndex
 90
        5
102
RTVSPost2010Prop44ColorRGB
 90
      255
102
RTVSPost2010PropOp44
 70
     1
102
RTVSPost2010Prop45
280
     0
102
RTVSPost2010PropOp45
 70
     1
102
RTVSPost2010Prop46
 90
       50
102
RTVSPost2010PropOp46
 70
     1
102
RTVSPost2010Prop47
 90
       50
102
RTVSPost2010PropOp47
 70
     1
102
RTVSPost2010Prop48
 90
       50
102
RTVSPost2010PropOp48
 70
     1
102
RTVSPost2010Prop49
280
     0
102
RTVSPost2010PropOp49
 70
     1
102
RTVSPost2010Prop50
 90
       50
102
RTVSPost2010PropOp50
 70
     1
102
RTVSPost2010Prop51ColorIndex
 90
      256
102
RTVSPost2010Prop51ColorRGB
 90
-16777216
102
RTVSPost2010PropOp51
 70
     0
102
RTVSPost2010Prop52
140
1.0
102
RTVSPost2010PropOp52
 70
     0
102
RTVSPost2010Prop53
 90
        2
102
RTVSPost2010PropOp53
 70
     1
102
RTVSPost2010Prop54
  1
strokes_ogs.tif
102
RTVSPost2010PropOp54
 70
     1
102
RTVSPost2010Prop55
280
     0
102
RTVSPost2010PropOp55
 70
     1
102
RTVSPost2010Prop56
140
1.0
102
RTVSPost2010PropOp56
 70
     1
102
RTVSPost2010Prop57
140
1.0
102
RTVSPost2010PropOp57
 70
     1
  0
XRECORD
  5
114
102
{ACAD_REACTORS
330
113
102
}
330
113
100
AcDbXrecord
280
     1
102
RTVSPost2010Prop28
280
     0
102
RTVSPost2010PropOp28
 70
     1
102
RTVSPost2010Prop29
280
     1
102
RTVSPost2010PropOp29
 70
     1
102
RTVSPost2010Prop30
280
     1
102
RTVSPost2010PropOp30
 70
     1
102
RTVSPost2010Prop31
280
     0
102
RTVSPost2010PropOp31
 70
     1
102
RTVSPost2010Prop32
280
     0
102
RTVSPost2010PropOp32
 70
     1
102
RTVSPost2010Prop33
280
     0
102
RTVSPost2010PropOp33
 70
     1
102
RTVSPost2010Prop34
280
     0
102
RTVSPost2010PropOp34
 70
     1
102
RTVSPost2010Prop35
280
     0
102
RTVSPost2010PropOp35
 70
     1
102
RTVSPost2010Prop36
280
     0
102
RTVSPost2010PropOp36
 70
     1
102
RTVSPost2010Prop37
 90
       50
102
RTVSPost2010PropOp37
 70
     1
102
RTVSPost2010Prop38
140
0.0
102
RTVSPost2010PropOp38
 70
     1
102
RTVSPost2010Prop39
140
1.0
102
RTVSPost2010PropOp39
 70
     1
102
RTVSPost2010Prop40
 90
        0
102
RTVSPost2010PropOp40
 70
     1
102
RTVSPost2010Prop41ColorIndex
 90
       18
102
RTVSPost2010Prop41ColorRGB
 90
        0
102
RTVSPost2010PropOp41
 70
     1
102
RTVSPost2010Prop42
 90
       50
102
RTVSPost2010PropOp42
 70
     1
102
RTVSPost2010Prop43
 90
        3
102
RTVSPost2010PropOp43
 70
     1
102
RTVSPost2010Prop44ColorIndex
 90
        5
102
RTVSPost2010Prop44ColorRGB
 90
      255
102
RTVSPost2010PropOp44
 70
     1
102
RTVSPost2010Prop45
280
     0
102
RTVSPost2010PropOp45
 70
     1
102
RTVSPost2010Prop46
 90
       50
102
RTVSPost2010PropOp46
 70
     1
102
RTVSPost2010Prop47
 90
       50
102
RTVSPost2010PropOp47
 70
     1
102
RTVSPost2010Prop48
 90
       50
102
RTVSPost2010PropOp48
 70
     1
102
RTVSPost2010Prop49
280
     0
102
RTVSPost2010PropOp49
 70
     1
102
RTVSPost2010Prop50
 90
       50
102
RTVSPost2010PropOp50
 70
     1
102
RTVSPost2010Prop51ColorIndex
 90
      256
102
RTVSPost2010Prop51ColorRGB
 90
-16777216
102
RTVSPost2010PropOp51
 70
     0
102
RTVSPost2010Prop52
140
1.0
102
RTVSPost2010PropOp52
 70
     0
102
RTVSPost2010Prop53
 90
        2
102
RTVSPost2010PropOp53
 70
     1
102
RTVSPost2010Prop54
  1
strokes_ogs.tif
102
RTVSPost2010PropOp54
 70
     1
102
RTVSPost2010Prop55
280
     0
102
RTVSPost2010PropOp55
 70
     1
102
RTVSPost2010Prop56
140
1.0
102
RTVSPost2010PropOp56
 70
     1
102
RTVSPost2010Prop57
140
1.0
102
RTVSPost2010PropOp57
 70
     1
  0
XRECORD
  5
106
102
{ACAD_REACTORS
330
105
102
}
330
105
100
AcDbXrecord
280
     1
102
RTVSPost2010Prop28
280
     0
102
RTVSPost2010PropOp28
 70
     1
102
RTVSPost2010Prop29
280
     1
102
RTVSPost2010PropOp29
 70
     1
102
RTVSPost2010Prop30
280
     1
102
RTVSPost2010PropOp30
 70
     1
102
RTVSPost2010Prop31
280
     0
102
RTVSPost2010PropOp31
 70
     1
102
RTVSPost2010Prop32
280
     0
102
RTVSPost2010PropOp32
 70
     1
102
RTVSPost2010Prop33
280
     0
102
RTVSPost2010PropOp33
 70
     1
102
RTVSPost2010Prop34
280
     0
102
RTVSPost2010PropOp34
 70
     1
102
RTVSPost2010Prop35
280
     0
102
RTVSPost2010PropOp35
 70
     1
102
RTVSPost2010Prop36
280
     0
102
RTVSPost2010PropOp36
 70
     1
102
RTVSPost2010Prop37
 90
       50
102
RTVSPost2010PropOp37
 70
     1
102
RTVSPost2010Prop38
140
0.0
102
RTVSPost2010PropOp38
 70
     1
102
RTVSPost2010Prop39
140
1.0
102
RTVSPost2010PropOp39
 70
     1
102
RTVSPost2010Prop40
 90
        0
102
RTVSPost2010PropOp40
 70
     1
102
RTVSPost2010Prop41ColorIndex
 90
       18
102
RTVSPost2010Prop41ColorRGB
 90
        0
102
RTVSPost2010PropOp41
 70
     1
102
RTVSPost2010Prop42
 90
       50
102
RTVSPost2010PropOp42
 70
     1
102
RTVSPost2010Prop43
 90
        3
102
RTVSPost2010PropOp43
 70
     1
102
RTVSPost2010Prop44ColorIndex
 90
        5
102
RTVSPost2010Prop44ColorRGB
 90
      255
102
RTVSPost2010PropOp44
 70
     1
102
RTVSPost2010Prop45
280
     0
102
RTVSPost2010PropOp45
 70
     1
102
RTVSPost2010Prop46
 90
       50
102
RTVSPost2010PropOp46
 70
     1
102
RTVSPost2010Prop47
 90
       50
102
RTVSPost2010PropOp47
 70
     1
102
RTVSPost2010Prop48
 90
       50
102
RTVSPost2010PropOp48
 70
     1
102
RTVSPost2010Prop49
280
     0
102
RTVSPost2010PropOp49
 70
     1
102
RTVSPost2010Prop50
 90
       50
102
RTVSPost2010PropOp50
 70
     1
102
RTVSPost2010Prop51ColorIndex
 90
      256
102
RTVSPost2010Prop51ColorRGB
 90
-16777216
102
RTVSPost2010PropOp51
 70
     0
102
RTVSPost2010Prop52
140
1.0
102
RTVSPost2010PropOp52
 70
     0
102
RTVSPost2010Prop53
 90
        2
102
RTVSPost2010PropOp53
 70
     1
102
RTVSPost2010Prop54
  1
strokes_ogs.tif
102
RTVSPost2010PropOp54
 70
     1
102
RTVSPost2010Prop55
280
     0
102
RTVSPost2010PropOp55
 70
     1
102
RTVSPost2010Prop56
140
1.0
102
RTVSPost2010PropOp56
 70
     1
102
RTVSPost2010Prop57
140
1.0
102
RTVSPost2010PropOp57
 70
     1
  0
XRECORD
  5
10A
102
{ACAD_REACTORS
330
109
102
}
330
109
100
AcDbXrecord
280
     1
102
RTVSPost2010Prop28
280
     0
102
RTVSPost2010PropOp28
 70
     1
102
RTVSPost2010Prop29
280
     1
102
RTVSPost2010PropOp29
 70
     1
102
RTVSPost2010Prop30
280
     1
102
RTVSPost2010PropOp30
 70
     1
102
RTVSPost2010Prop31
280
     0
102
RTVSPost2010PropOp31
 70
     1
102
RTVSPost2010Prop32
280
     0
102
RTVSPost2010PropOp32
 70
     1
102
RTVSPost2010Prop33
280
     0
102
RTVSPost2010PropOp33
 70
     1
102
RTVSPost2010Prop34
280
     0
102
RTVSPost2010PropOp34
 70
     1
102
RTVSPost2010Prop35
280
     0
102
RTVSPost2010PropOp35
 70
     1
102
RTVSPost2010Prop36
280
     0
102
RTVSPost2010PropOp36
 70
     1
102
RTVSPost2010Prop37
 90
       50
102
RTVSPost2010PropOp37
 70
     1
102
RTVSPost2010Prop38
140
0.0
102
RTVSPost2010PropOp38
 70
     1
102
RTVSPost2010Prop39
140
1.0
102
RTVSPost2010PropOp39
 70
     1
102
RTVSPost2010Prop40
 90
        0
102
RTVSPost2010PropOp40
 70
     1
102
RTVSPost2010Prop41ColorIndex
 90
       18
102
RTVSPost2010Prop41ColorRGB
 90
        0
102
RTVSPost2010PropOp41
 70
     1
102
RTVSPost2010Prop42
 90
       50
102
RTVSPost2010PropOp42
 70
     1
102
RTVSPost2010Prop43
 90
        3
102
RTVSPost2010PropOp43
 70
     1
102
RTVSPost2010Prop44ColorIndex
 90
        5
102
RTVSPost2010Prop44ColorRGB
 90
      255
102
RTVSPost2010PropOp44
 70
     1
102
RTVSPost2010Prop45
280
     0
102
RTVSPost2010PropOp45
 70
     1
102
RTVSPost2010Prop46
 90
       50
102
RTVSPost2010PropOp46
 70
     1
102
RTVSPost2010Prop47
 90
       50
102
RTVSPost2010PropOp47
 70
     1
102
RTVSPost2010Prop48
 90
       50
102
RTVSPost2010PropOp48
 70
     1
102
RTVSPost2010Prop49
280
     0
102
RTVSPost2010PropOp49
 70
     1
102
RTVSPost2010Prop50
 90
       50
102
RTVSPost2010PropOp50
 70
     1
102
RTVSPost2010Prop51ColorIndex
 90
      256
102
RTVSPost2010Prop51ColorRGB
 90
-16777216
102
RTVSPost2010PropOp51
 70
     0
102
RTVSPost2010Prop52
140
1.0
102
RTVSPost2010PropOp52
 70
     0
102
RTVSPost2010Prop53
 90
        2
102
RTVSPost2010PropOp53
 70
     1
102
RTVSPost2010Prop54
  1
strokes_ogs.tif
102
RTVSPost2010PropOp54
 70
     1
102
RTVSPost2010Prop55
280
     0
102
RTVSPost2010PropOp55
 70
     1
102
RTVSPost2010Prop56
140
1.0
102
RTVSPost2010PropOp56
 70
     1
102
RTVSPost2010Prop57
140
1.0
102
RTVSPost2010PropOp57
 70
     1
  0
XRECORD
  5
124
102
{ACAD_REACTORS
330
123
102
}
330
123
100
AcDbXrecord
280
     1
102
RTVSPost2010Prop28
280
     0
102
RTVSPost2010PropOp28
 70
     0
102
RTVSPost2010Prop29
280
     1
102
RTVSPost2010PropOp29
 70
     0
102
RTVSPost2010Prop30
280
     1
102
RTVSPost2010PropOp30
 70
     0
102
RTVSPost2010Prop31
280
     0
102
RTVSPost2010PropOp31
 70
     0
102
RTVSPost2010Prop32
280
     0
102
RTVSPost2010PropOp32
 70
     0
102
RTVSPost2010Prop33
280
     0
102
RTVSPost2010PropOp33
 70
     0
102
RTVSPost2010Prop34
280
     0
102
RTVSPost2010PropOp34
 70
     0
102
RTVSPost2010Prop35
280
     0
102
RTVSPost2010PropOp35
 70
     0
102
RTVSPost2010Prop36
280
     0
102
RTVSPost2010PropOp36
 70
     0
102
RTVSPost2010Prop37
 90
       50
102
RTVSPost2010PropOp37
 70
     0
102
RTVSPost2010Prop38
140
0.0
102
RTVSPost2010PropOp38
 70
     0
102
RTVSPost2010Prop39
140
1.0
102
RTVSPost2010PropOp39
 70
     0
102
RTVSPost2010Prop40
 90
        0
102
RTVSPost2010PropOp40
 70
     0
102
RTVSPost2010Prop41ColorIndex
 90
       18
102
RTVSPost2010Prop41ColorRGB
 90
        0
102
RTVSPost2010PropOp41
 70
     0
102
RTVSPost2010Prop42
 90
       50
102
RTVSPost2010PropOp42
 70
     0
102
RTVSPost2010Prop43
 90
        3
102
RTVSPost2010PropOp43
 70
     0
102
RTVSPost2010Prop44ColorIndex
 90
        5
102
RTVSPost2010Prop44ColorRGB
 90
      255
102
RTVSPost2010PropOp44
 70
     0
102
RTVSPost2010Prop45
280
     0
102
RTVSPost2010PropOp45
 70
     0
102
RTVSPost2010Prop46
 90
       50
102
RTVSPost2010PropOp46
 70
     0
102
RTVSPost2010Prop47
 90
       50
102
RTVSPost2010PropOp47
 70
     0
102
RTVSPost2010Prop48
 90
       50
102
RTVSPost2010PropOp48
 70
     0
102
RTVSPost2010Prop49
280
     0
102
RTVSPost2010PropOp49
 70
     0
102
RTVSPost2010Prop50
 90
       50
102
RTVSPost2010PropOp50
 70
     0
102
RTVSPost2010Prop51ColorIndex
 90
      256
102
RTVSPost2010Prop51ColorRGB
 90
-16777216
102
RTVSPost2010PropOp51
 70
     0
102
RTVSPost2010Prop52
140
1.0
102
RTVSPost2010PropOp52
 70
     0
102
RTVSPost2010Prop53
 90
        2
102
RTVSPost2010PropOp53
 70
     0
102
RTVSPost2010Prop54
  1
strokes_ogs.tif
102
RTVSPost2010PropOp54
 70
     0
102
RTVSPost2010Prop55
280
     0
102
RTVSPost2010PropOp55
 70
     0
102
RTVSPost2010Prop56
140
1.0
102
RTVSPost2010PropOp56
 70
     0
102
RTVSPost2010Prop57
140
1.0
102
RTVSPost2010PropOp57
 70
     0
  0
XRECORD
  5
112
102
{ACAD_REACTORS
330
111
102
}
330
111
100
AcDbXrecord
280
     1
102
RTVSPost2010Prop28
280
     0
102
RTVSPost2010PropOp28
 70
     1
102
RTVSPost2010Prop29
280
     1
102
RTVSPost2010PropOp29
 70
     1
102
RTVSPost2010Prop30
280
     1
102
RTVSPost2010PropOp30
 70
     1
102
RTVSPost2010Prop31
280
     0
102
RTVSPost2010PropOp31
 70
     1
102
RTVSPost2010Prop32
280
     0
102
RTVSPost2010PropOp32
 70
     1
102
RTVSPost2010Prop33
280
     0
102
RTVSPost2010PropOp33
 70
     1
102
RTVSPost2010Prop34
280
     0
102
RTVSPost2010PropOp34
 70
     1
102
RTVSPost2010Prop35
280
     0
102
RTVSPost2010PropOp35
 70
     1
102
RTVSPost2010Prop36
280
     0
102
RTVSPost2010PropOp36
 70
     1
102
RTVSPost2010Prop37
 90
       50
102
RTVSPost2010PropOp37
 70
     1
102
RTVSPost2010Prop38
140
0.0
102
RTVSPost2010PropOp38
 70
     1
102
RTVSPost2010Prop39
140
1.0
102
RTVSPost2010PropOp39
 70
     1
102
RTVSPost2010Prop40
 90
        0
102
RTVSPost2010PropOp40
 70
     1
102
RTVSPost2010Prop41ColorIndex
 90
       18
102
RTVSPost2010Prop41ColorRGB
 90
        0
102
RTVSPost2010PropOp41
 70
     1
102
RTVSPost2010Prop42
 90
       50
102
RTVSPost2010PropOp42
 70
     1
102
RTVSPost2010Prop43
 90
        3
102
RTVSPost2010PropOp43
 70
     1
102
RTVSPost2010Prop44ColorIndex
 90
        5
102
RTVSPost2010Prop44ColorRGB
 90
      255
102
RTVSPost2010PropOp44
 70
     1
102
RTVSPost2010Prop45
280
     0
102
RTVSPost2010PropOp45
 70
     1
102
RTVSPost2010Prop46
 90
       50
102
RTVSPost2010PropOp46
 70
     1
102
RTVSPost2010Prop47
 90
       50
102
RTVSPost2010PropOp47
 70
     1
102
RTVSPost2010Prop48
 90
       50
102
RTVSPost2010PropOp48
 70
     1
102
RTVSPost2010Prop49
280
     0
102
RTVSPost2010PropOp49
 70
     1
102
RTVSPost2010Prop50
 90
       50
102
RTVSPost2010PropOp50
 70
     1
102
RTVSPost2010Prop51ColorIndex
 90
      256
102
RTVSPost2010Prop51ColorRGB
 90
-16777216
102
RTVSPost2010PropOp51
 70
     0
102
RTVSPost2010Prop52
140
1.0
102
RTVSPost2010PropOp52
 70
     0
102
RTVSPost2010Prop53
 90
        2
102
RTVSPost2010PropOp53
 70
     1
102
RTVSPost2010Prop54
  1
strokes_ogs.tif
102
RTVSPost2010PropOp54
 70
     1
102
RTVSPost2010Prop55
280
     0
102
RTVSPost2010PropOp55
 70
     1
102
RTVSPost2010Prop56
140
1.0
102
RTVSPost2010PropOp56
 70
     1
102
RTVSPost2010Prop57
140
1.0
102
RTVSPost2010PropOp57
 70
     1
  0
XRECORD
  5
F6
102
{ACAD_REACTORS
330
F5
102
}
330
F5
100
AcDbXrecord
280
     1
102
RTVSPost2010Prop28
280
     0
102
RTVSPost2010PropOp28
 70
     1
102
RTVSPost2010Prop29
280
     1
102
RTVSPost2010PropOp29
 70
     1
102
RTVSPost2010Prop30
280
     1
102
RTVSPost2010PropOp30
 70
     1
102
RTVSPost2010Prop31
280
     0
102
RTVSPost2010PropOp31
 70
     1
102
RTVSPost2010Prop32
280
     0
102
RTVSPost2010PropOp32
 70
     1
102
RTVSPost2010Prop33
280
     0
102
RTVSPost2010PropOp33
 70
     1
102
RTVSPost2010Prop34
280
     0
102
RTVSPost2010PropOp34
 70
     1
102
RTVSPost2010Prop35
280
     0
102
RTVSPost2010PropOp35
 70
     1
102
RTVSPost2010Prop36
280
     0
102
RTVSPost2010PropOp36
 70
     1
102
RTVSPost2010Prop37
 90
       50
102
RTVSPost2010PropOp37
 70
     1
102
RTVSPost2010Prop38
140
0.0
102
RTVSPost2010PropOp38
 70
     1
102
RTVSPost2010Prop39
140
1.0
102
RTVSPost2010PropOp39
 70
     1
102
RTVSPost2010Prop40
 90
        0
102
RTVSPost2010PropOp40
 70
     1
102
RTVSPost2010Prop41ColorIndex
 90
       18
102
RTVSPost2010Prop41ColorRGB
 90
        0
102
RTVSPost2010PropOp41
 70
     1
102
RTVSPost2010Prop42
 90
       50
102
RTVSPost2010PropOp42
 70
     1
102
RTVSPost2010Prop43
 90
        3
102
RTVSPost2010PropOp43
 70
     1
102
RTVSPost2010Prop44ColorIndex
 90
        5
102
RTVSPost2010Prop44ColorRGB
 90
      255
102
RTVSPost2010PropOp44
 70
     1
102
RTVSPost2010Prop45
280
     0
102
RTVSPost2010PropOp45
 70
     1
102
RTVSPost2010Prop46
 90
       50
102
RTVSPost2010PropOp46
 70
     1
102
RTVSPost2010Prop47
 90
       50
102
RTVSPost2010PropOp47
 70
     1
102
RTVSPost2010Prop48
 90
       50
102
RTVSPost2010PropOp48
 70
     1
102
RTVSPost2010Prop49
280
     0
102
RTVSPost2010PropOp49
 70
     1
102
RTVSPost2010Prop50
 90
       50
102
RTVSPost2010PropOp50
 70
     1
102
RTVSPost2010Prop51ColorIndex
 90
      256
102
RTVSPost2010Prop51ColorRGB
 90
-16777216
102
RTVSPost2010PropOp51
 70
     0
102
RTVSPost2010Prop52
140
1.0
102
RTVSPost2010PropOp52
 70
     0
102
RTVSPost2010Prop53
 90
        2
102
RTVSPost2010PropOp53
 70
     1
102
RTVSPost2010Prop54
  1
strokes_ogs.tif
102
RTVSPost2010PropOp54
 70
     1
102
RTVSPost2010Prop55
280
     0
102
RTVSPost2010PropOp55
 70
     1
102
RTVSPost2010Prop56
140
1.0
102
RTVSPost2010PropOp56
 70
     1
102
RTVSPost2010Prop57
140
1.0
102
RTVSPost2010PropOp57
 70
     1
  0
XRECORD
  5
F8
102
{ACAD_REACTORS
330
F7
102
}
330
F7
100
AcDbXrecord
280
     1
102
RTVSPost2010Prop28
280
     0
102
RTVSPost2010PropOp28
 70
     1
102
RTVSPost2010Prop29
280
     1
102
RTVSPost2010PropOp29
 70
     1
102
RTVSPost2010Prop30
280
     1
102
RTVSPost2010PropOp30
 70
     1
102
RTVSPost2010Prop31
280
     0
102
RTVSPost2010PropOp31
 70
     1
102
RTVSPost2010Prop32
280
     0
102
RTVSPost2010PropOp32
 70
     1
102
RTVSPost2010Prop33
280
     0
102
RTVSPost2010PropOp33
 70
     1
102
RTVSPost2010Prop34
280
     0
102
RTVSPost2010PropOp34
 70
     1
102
RTVSPost2010Prop35
280
     0
102
RTVSPost2010PropOp35
 70
     1
102
RTVSPost2010Prop36
280
     0
102
RTVSPost2010PropOp36
 70
     1
102
RTVSPost2010Prop37
 90
       50
102
RTVSPost2010PropOp37
 70
     1
102
RTVSPost2010Prop38
140
0.0
102
RTVSPost2010PropOp38
 70
     1
102
RTVSPost2010Prop39
140
1.0
102
RTVSPost2010PropOp39
 70
     1
102
RTVSPost2010Prop40
 90
        0
102
RTVSPost2010PropOp40
 70
     1
102
RTVSPost2010Prop41ColorIndex
 90
       18
102
RTVSPost2010Prop41ColorRGB
 90
        0
102
RTVSPost2010PropOp41
 70
     1
102
RTVSPost2010Prop42
 90
       50
102
RTVSPost2010PropOp42
 70
     1
102
RTVSPost2010Prop43
 90
        3
102
RTVSPost2010PropOp43
 70
     1
102
RTVSPost2010Prop44ColorIndex
 90
        5
102
RTVSPost2010Prop44ColorRGB
 90
      255
102
RTVSPost2010PropOp44
 70
     1
102
RTVSPost2010Prop45
280
     0
102
RTVSPost2010PropOp45
 70
     1
102
RTVSPost2010Prop46
 90
       50
102
RTVSPost2010PropOp46
 70
     1
102
RTVSPost2010Prop47
 90
       50
102
RTVSPost2010PropOp47
 70
     1
102
RTVSPost2010Prop48
 90
       50
102
RTVSPost2010PropOp48
 70
     1
102
RTVSPost2010Prop49
280
     0
102
RTVSPost2010PropOp49
 70
     1
102
RTVSPost2010Prop50
 90
       50
102
RTVSPost2010PropOp50
 70
     1
102
RTVSPost2010Prop51ColorIndex
 90
      256
102
RTVSPost2010Prop51ColorRGB
 90
-16777216
102
RTVSPost2010PropOp51
 70
     0
102
RTVSPost2010Prop52
140
1.0
102
RTVSPost2010PropOp52
 70
     0
102
RTVSPost2010Prop53
 90
        2
102
RTVSPost2010PropOp53
 70
     1
102
RTVSPost2010Prop54
  1
strokes_ogs.tif
102
RTVSPost2010PropOp54
 70
     1
102
RTVSPost2010Prop55
280
     0
102
RTVSPost2010PropOp55
 70
     1
102
RTVSPost2010Prop56
140
1.0
102
RTVSPost2010PropOp56
 70
     1
102
RTVSPost2010Prop57
140
1.0
102
RTVSPost2010PropOp57
 70
     1
  0
XRECORD
  5
FA
102
{ACAD_REACTORS
330
F9
102
}
330
F9
100
AcDbXrecord
280
     1
102
RTVSPost2010Prop28
280
     0
102
RTVSPost2010PropOp28
 70
     1
102
RTVSPost2010Prop29
280
     1
102
RTVSPost2010PropOp29
 70
     1
102
RTVSPost2010Prop30
280
     1
102
RTVSPost2010PropOp30
 70
     1
102
RTVSPost2010Prop31
280
     0
102
RTVSPost2010PropOp31
 70
     1
102
RTVSPost2010Prop32
280
     0
102
RTVSPost2010PropOp32
 70
     1
102
RTVSPost2010Prop33
280
     0
102
RTVSPost2010PropOp33
 70
     1
102
RTVSPost2010Prop34
280
     0
102
RTVSPost2010PropOp34
 70
     1
102
RTVSPost2010Prop35
280
     0
102
RTVSPost2010PropOp35
 70
     1
102
RTVSPost2010Prop36
280
     0
102
RTVSPost2010PropOp36
 70
     1
102
RTVSPost2010Prop37
 90
       50
102
RTVSPost2010PropOp37
 70
     1
102
RTVSPost2010Prop38
140
0.0
102
RTVSPost2010PropOp38
 70
     1
102
RTVSPost2010Prop39
140
1.0
102
RTVSPost2010PropOp39
 70
     1
102
RTVSPost2010Prop40
 90
        0
102
RTVSPost2010PropOp40
 70
     1
102
RTVSPost2010Prop41ColorIndex
 90
       18
102
RTVSPost2010Prop41ColorRGB
 90
        0
102
RTVSPost2010PropOp41
 70
     1
102
RTVSPost2010Prop42
 90
       50
102
RTVSPost2010PropOp42
 70
     1
102
RTVSPost2010Prop43
 90
        3
102
RTVSPost2010PropOp43
 70
     1
102
RTVSPost2010Prop44ColorIndex
 90
        5
102
RTVSPost2010Prop44ColorRGB
 90
      255
102
RTVSPost2010PropOp44
 70
     1
102
RTVSPost2010Prop45
280
     0
102
RTVSPost2010PropOp45
 70
     1
102
RTVSPost2010Prop46
 90
       50
102
RTVSPost2010PropOp46
 70
     1
102
RTVSPost2010Prop47
 90
       50
102
RTVSPost2010PropOp47
 70
     1
102
RTVSPost2010Prop48
 90
       50
102
RTVSPost2010PropOp48
 70
     1
102
RTVSPost2010Prop49
280
     0
102
RTVSPost2010PropOp49
 70
     1
102
RTVSPost2010Prop50
 90
       50
102
RTVSPost2010PropOp50
 70
     1
102
RTVSPost2010Prop51ColorIndex
 90
      256
102
RTVSPost2010Prop51ColorRGB
 90
-16777216
102
RTVSPost2010PropOp51
 70
     0
102
RTVSPost2010Prop52
140
1.0
102
RTVSPost2010PropOp52
 70
     0
102
RTVSPost2010Prop53
 90
        2
102
RTVSPost2010PropOp53
 70
     1
102
RTVSPost2010Prop54
  1
strokes_ogs.tif
102
RTVSPost2010PropOp54
 70
     1
102
RTVSPost2010Prop55
280
     0
102
RTVSPost2010PropOp55
 70
     1
102
RTVSPost2010Prop56
140
1.0
102
RTVSPost2010PropOp56
 70
     1
102
RTVSPost2010Prop57
140
1.0
102
RTVSPost2010PropOp57
 70
     1
  0
XRECORD
  5
FC
102
{ACAD_REACTORS
330
FB
102
}
330
FB
100
AcDbXrecord
280
     1
102
RTVSPost2010Prop28
280
     0
102
RTVSPost2010PropOp28
 70
     1
102
RTVSPost2010Prop29
280
     1
102
RTVSPost2010PropOp29
 70
     1
102
RTVSPost2010Prop30
280
     1
102
RTVSPost2010PropOp30
 70
     1
102
RTVSPost2010Prop31
280
     0
102
RTVSPost2010PropOp31
 70
     1
102
RTVSPost2010Prop32
280
     0
102
RTVSPost2010PropOp32
 70
     1
102
RTVSPost2010Prop33
280
     0
102
RTVSPost2010PropOp33
 70
     1
102
RTVSPost2010Prop34
280
     0
102
RTVSPost2010PropOp34
 70
     1
102
RTVSPost2010Prop35
280
     0
102
RTVSPost2010PropOp35
 70
     1
102
RTVSPost2010Prop36
280
     0
102
RTVSPost2010PropOp36
 70
     1
102
RTVSPost2010Prop37
 90
       50
102
RTVSPost2010PropOp37
 70
     1
102
RTVSPost2010Prop38
140
0.0
102
RTVSPost2010PropOp38
 70
     1
102
RTVSPost2010Prop39
140
1.0
102
RTVSPost2010PropOp39
 70
     1
102
RTVSPost2010Prop40
 90
        0
102
RTVSPost2010PropOp40
 70
     1
102
RTVSPost2010Prop41ColorIndex
 90
       18
102
RTVSPost2010Prop41ColorRGB
 90
        0
102
RTVSPost2010PropOp41
 70
     1
102
RTVSPost2010Prop42
 90
       50
102
RTVSPost2010PropOp42
 70
     1
102
RTVSPost2010Prop43
 90
        3
102
RTVSPost2010PropOp43
 70
     1
102
RTVSPost2010Prop44ColorIndex
 90
        5
102
RTVSPost2010Prop44ColorRGB
 90
      255
102
RTVSPost2010PropOp44
 70
     1
102
RTVSPost2010Prop45
280
     0
102
RTVSPost2010PropOp45
 70
     1
102
RTVSPost2010Prop46
 90
       50
102
RTVSPost2010PropOp46
 70
     1
102
RTVSPost2010Prop47
 90
       50
102
RTVSPost2010PropOp47
 70
     1
102
RTVSPost2010Prop48
 90
       50
102
RTVSPost2010PropOp48
 70
     1
102
RTVSPost2010Prop49
280
     0
102
RTVSPost2010PropOp49
 70
     1
102
RTVSPost2010Prop50
 90
       50
102
RTVSPost2010PropOp50
 70
     1
102
RTVSPost2010Prop51ColorIndex
 90
      256
102
RTVSPost2010Prop51ColorRGB
 90
-16777216
102
RTVSPost2010PropOp51
 70
     0
102
RTVSPost2010Prop52
140
1.0
102
RTVSPost2010PropOp52
 70
     0
102
RTVSPost2010Prop53
 90
        2
102
RTVSPost2010PropOp53
 70
     1
102
RTVSPost2010Prop54
  1
strokes_ogs.tif
102
RTVSPost2010PropOp54
 70
     1
102
RTVSPost2010Prop55
280
     0
102
RTVSPost2010PropOp55
 70
     1
102
RTVSPost2010Prop56
140
1.0
102
RTVSPost2010PropOp56
 70
     1
102
RTVSPost2010Prop57
140
1.0
102
RTVSPost2010PropOp57
 70
     1
  0
XRECORD
  5
104
102
{ACAD_REACTORS
330
103
102
}
330
103
100
AcDbXrecord
280
     1
102
RTVSPost2010Prop28
280
     0
102
RTVSPost2010PropOp28
 70
     1
102
RTVSPost2010Prop29
280
     1
102
RTVSPost2010PropOp29
 70
     1
102
RTVSPost2010Prop30
280
     1
102
RTVSPost2010PropOp30
 70
     1
102
RTVSPost2010Prop31
280
     0
102
RTVSPost2010PropOp31
 70
     1
102
RTVSPost2010Prop32
280
     0
102
RTVSPost2010PropOp32
 70
     1
102
RTVSPost2010Prop33
280
     0
102
RTVSPost2010PropOp33
 70
     1
102
RTVSPost2010Prop34
280
     0
102
RTVSPost2010PropOp34
 70
     1
102
RTVSPost2010Prop35
280
     0
102
RTVSPost2010PropOp35
 70
     1
102
RTVSPost2010Prop36
280
     0
102
RTVSPost2010PropOp36
 70
     1
102
RTVSPost2010Prop37
 90
       50
102
RTVSPost2010PropOp37
 70
     1
102
RTVSPost2010Prop38
140
0.0
102
RTVSPost2010PropOp38
 70
     1
102
RTVSPost2010Prop39
140
1.0
102
RTVSPost2010PropOp39
 70
     1
102
RTVSPost2010Prop40
 90
        0
102
RTVSPost2010PropOp40
 70
     1
102
RTVSPost2010Prop41ColorIndex
 90
       18
102
RTVSPost2010Prop41ColorRGB
 90
        0
102
RTVSPost2010PropOp41
 70
     1
102
RTVSPost2010Prop42
 90
       50
102
RTVSPost2010PropOp42
 70
     1
102
RTVSPost2010Prop43
 90
        3
102
RTVSPost2010PropOp43
 70
     1
102
RTVSPost2010Prop44ColorIndex
 90
        5
102
RTVSPost2010Prop44ColorRGB
 90
      255
102
RTVSPost2010PropOp44
 70
     1
102
RTVSPost2010Prop45
280
     0
102
RTVSPost2010PropOp45
 70
     1
102
RTVSPost2010Prop46
 90
       50
102
RTVSPost2010PropOp46
 70
     1
102
RTVSPost2010Prop47
 90
       50
102
RTVSPost2010PropOp47
 70
     1
102
RTVSPost2010Prop48
 90
       50
102
RTVSPost2010PropOp48
 70
     1
102
RTVSPost2010Prop49
280
     0
102
RTVSPost2010PropOp49
 70
     1
102
RTVSPost2010Prop50
 90
       50
102
RTVSPost2010PropOp50
 70
     1
102
RTVSPost2010Prop51ColorIndex
 90
      256
102
RTVSPost2010Prop51ColorRGB
 90
-16777216
102
RTVSPost2010PropOp51
 70
     0
102
RTVSPost2010Prop52
140
1.0
102
RTVSPost2010PropOp52
 70
     0
102
RTVSPost2010Prop53
 90
        2
102
RTVSPost2010PropOp53
 70
     1
102
RTVSPost2010Prop54
  1
strokes_ogs.tif
102
RTVSPost2010PropOp54
 70
     1
102
RTVSPost2010Prop55
280
     0
102
RTVSPost2010PropOp55
 70
     1
102
RTVSPost2010Prop56
140
1.0
102
RTVSPost2010PropOp56
 70
     1
102
RTVSPost2010Prop57
140
1.0
102
RTVSPost2010PropOp57
 70
     1
  0
XRECORD
  5
120
102
{ACAD_REACTORS
330
11F
102
}
330
11F
100
AcDbXrecord
280
     1
102
RTVSPost2010Prop28
280
     0
102
RTVSPost2010PropOp28
 70
     0
102
RTVSPost2010Prop29
280
     1
102
RTVSPost2010PropOp29
 70
     0
102
RTVSPost2010Prop30
280
     1
102
RTVSPost2010PropOp30
 70
     0
102
RTVSPost2010Prop31
280
     0
102
RTVSPost2010PropOp31
 70
     0
102
RTVSPost2010Prop32
280
     0
102
RTVSPost2010PropOp32
 70
     0
102
RTVSPost2010Prop33
280
     0
102
RTVSPost2010PropOp33
 70
     0
102
RTVSPost2010Prop34
280
     0
102
RTVSPost2010PropOp34
 70
     0
102
RTVSPost2010Prop35
280
     0
102
RTVSPost2010PropOp35
 70
     0
102
RTVSPost2010Prop36
280
     0
102
RTVSPost2010PropOp36
 70
     0
102
RTVSPost2010Prop37
 90
       50
102
RTVSPost2010PropOp37
 70
     0
102
RTVSPost2010Prop38
140
0.0
102
RTVSPost2010PropOp38
 70
     0
102
RTVSPost2010Prop39
140
1.0
102
RTVSPost2010PropOp39
 70
     0
102
RTVSPost2010Prop40
 90
        0
102
RTVSPost2010PropOp40
 70
     0
102
RTVSPost2010Prop41ColorIndex
 90
       18
102
RTVSPost2010Prop41ColorRGB
 90
        0
102
RTVSPost2010PropOp41
 70
     0
102
RTVSPost2010Prop42
 90
       50
102
RTVSPost2010PropOp42
 70
     0
102
RTVSPost2010Prop43
 90
        3
102
RTVSPost2010PropOp43
 70
     0
102
RTVSPost2010Prop44ColorIndex
 90
        5
102
RTVSPost2010Prop44ColorRGB
 90
      255
102
RTVSPost2010PropOp44
 70
     0
102
RTVSPost2010Prop45
280
     0
102
RTVSPost2010PropOp45
 70
     0
102
RTVSPost2010Prop46
 90
       50
102
RTVSPost2010PropOp46
 70
     0
102
RTVSPost2010Prop47
 90
       50
102
RTVSPost2010PropOp47
 70
     0
102
RTVSPost2010Prop48
 90
       50
102
RTVSPost2010PropOp48
 70
     0
102
RTVSPost2010Prop49
280
     0
102
RTVSPost2010PropOp49
 70
     0
102
RTVSPost2010Prop50
 90
       50
102
RTVSPost2010PropOp50
 70
     0
102
RTVSPost2010Prop51ColorIndex
 90
      256
102
RTVSPost2010Prop51ColorRGB
 90
-16777216
102
RTVSPost2010PropOp51
 70
     0
102
RTVSPost2010Prop52
140
1.0
102
RTVSPost2010PropOp52
 70
     0
102
RTVSPost2010Prop53
 90
        2
102
RTVSPost2010PropOp53
 70
     0
102
RTVSPost2010Prop54
  1
strokes_ogs.tif
102
RTVSPost2010PropOp54
 70
     0
102
RTVSPost2010Prop55
280
     0
102
RTVSPost2010PropOp55
 70
     0
102
RTVSPost2010Prop56
140
1.0
102
RTVSPost2010PropOp56
 70
     0
102
RTVSPost2010Prop57
140
1.0
102
RTVSPost2010PropOp57
 70
     0
  0
XRECORD
  5
110
102
{ACAD_REACTORS
330
10F
102
}
330
10F
100
AcDbXrecord
280
     1
102
RTVSPost2010Prop28
280
     0
102
RTVSPost2010PropOp28
 70
     1
102
RTVSPost2010Prop29
280
     1
102
RTVSPost2010PropOp29
 70
     1
102
RTVSPost2010Prop30
280
     1
102
RTVSPost2010PropOp30
 70
     1
102
RTVSPost2010Prop31
280
     0
102
RTVSPost2010PropOp31
 70
     1
102
RTVSPost2010Prop32
280
     0
102
RTVSPost2010PropOp32
 70
     1
102
RTVSPost2010Prop33
280
     0
102
RTVSPost2010PropOp33
 70
     1
102
RTVSPost2010Prop34
280
     0
102
RTVSPost2010PropOp34
 70
     1
102
RTVSPost2010Prop35
280
     0
102
RTVSPost2010PropOp35
 70
     1
102
RTVSPost2010Prop36
280
     0
102
RTVSPost2010PropOp36
 70
     1
102
RTVSPost2010Prop37
 90
       50
102
RTVSPost2010PropOp37
 70
     1
102
RTVSPost2010Prop38
140
0.0
102
RTVSPost2010PropOp38
 70
     1
102
RTVSPost2010Prop39
140
1.0
102
RTVSPost2010PropOp39
 70
     1
102
RTVSPost2010Prop40
 90
        0
102
RTVSPost2010PropOp40
 70
     1
102
RTVSPost2010Prop41ColorIndex
 90
       18
102
RTVSPost2010Prop41ColorRGB
 90
        0
102
RTVSPost2010PropOp41
 70
     1
102
RTVSPost2010Prop42
 90
       50
102
RTVSPost2010PropOp42
 70
     1
102
RTVSPost2010Prop43
 90
        3
102
RTVSPost2010PropOp43
 70
     1
102
RTVSPost2010Prop44ColorIndex
 90
        5
102
RTVSPost2010Prop44ColorRGB
 90
      255
102
RTVSPost2010PropOp44
 70
     1
102
RTVSPost2010Prop45
280
     0
102
RTVSPost2010PropOp45
 70
     1
102
RTVSPost2010Prop46
 90
       50
102
RTVSPost2010PropOp46
 70
     1
102
RTVSPost2010Prop47
 90
       50
102
RTVSPost2010PropOp47
 70
     1
102
RTVSPost2010Prop48
 90
       50
102
RTVSPost2010PropOp48
 70
     1
102
RTVSPost2010Prop49
280
     0
102
RTVSPost2010PropOp49
 70
     1
102
RTVSPost2010Prop50
 90
       50
102
RTVSPost2010PropOp50
 70
     1
102
RTVSPost2010Prop51ColorIndex
 90
      256
102
RTVSPost2010Prop51ColorRGB
 90
-16777216
102
RTVSPost2010PropOp51
 70
     0
102
RTVSPost2010Prop52
140
1.0
102
RTVSPost2010PropOp52
 70
     0
102
RTVSPost2010Prop53
 90
        2
102
RTVSPost2010PropOp53
 70
     1
102
RTVSPost2010Prop54
  1
strokes_ogs.tif
102
RTVSPost2010PropOp54
 70
     1
102
RTVSPost2010Prop55
280
     0
102
RTVSPost2010PropOp55
 70
     1
102
RTVSPost2010Prop56
140
1.0
102
RTVSPost2010PropOp56
 70
     1
102
RTVSPost2010Prop57
140
1.0
102
RTVSPost2010PropOp57
 70
     1
  0
XRECORD
  5
122
102
{ACAD_REACTORS
330
121
102
}
330
121
100
AcDbXrecord
280
     1
102
RTVSPost2010Prop28
280
     0
102
RTVSPost2010PropOp28
 70
     0
102
RTVSPost2010Prop29
280
     1
102
RTVSPost2010PropOp29
 70
     0
102
RTVSPost2010Prop30
280
     1
102
RTVSPost2010PropOp30
 70
     0
102
RTVSPost2010Prop31
280
     0
102
RTVSPost2010PropOp31
 70
     0
102
RTVSPost2010Prop32
280
     0
102
RTVSPost2010PropOp32
 70
     0
102
RTVSPost2010Prop33
280
     0
102
RTVSPost2010PropOp33
 70
     0
102
RTVSPost2010Prop34
280
     0
102
RTVSPost2010PropOp34
 70
     0
102
RTVSPost2010Prop35
280
     0
102
RTVSPost2010PropOp35
 70
     0
102
RTVSPost2010Prop36
280
     0
102
RTVSPost2010PropOp36
 70
     0
102
RTVSPost2010Prop37
 90
       50
102
RTVSPost2010PropOp37
 70
     0
102
RTVSPost2010Prop38
140
0.0
102
RTVSPost2010PropOp38
 70
     0
102
RTVSPost2010Prop39
140
1.0
102
RTVSPost2010PropOp39
 70
     0
102
RTVSPost2010Prop40
 90
        0
102
RTVSPost2010PropOp40
 70
     0
102
RTVSPost2010Prop41ColorIndex
 90
       18
102
RTVSPost2010Prop41ColorRGB
 90
        0
102
RTVSPost2010PropOp41
 70
     0
102
RTVSPost2010Prop42
 90
       50
102
RTVSPost2010PropOp42
 70
     0
102
RTVSPost2010Prop43
 90
        3
102
RTVSPost2010PropOp43
 70
     0
102
RTVSPost2010Prop44ColorIndex
 90
        5
102
RTVSPost2010Prop44ColorRGB
 90
      255
102
RTVSPost2010PropOp44
 70
     0
102
RTVSPost2010Prop45
280
     0
102
RTVSPost2010PropOp45
 70
     0
102
RTVSPost2010Prop46
 90
       50
102
RTVSPost2010PropOp46
 70
     0
102
RTVSPost2010Prop47
 90
       50
102
RTVSPost2010PropOp47
 70
     0
102
RTVSPost2010Prop48
 90
       50
102
RTVSPost2010PropOp48
 70
     0
102
RTVSPost2010Prop49
280
     0
102
RTVSPost2010PropOp49
 70
     0
102
RTVSPost2010Prop50
 90
       50
102
RTVSPost2010PropOp50
 70
     0
102
RTVSPost2010Prop51ColorIndex
 90
      256
102
RTVSPost2010Prop51ColorRGB
 90
-16777216
102
RTVSPost2010PropOp51
 70
     0
102
RTVSPost2010Prop52
140
1.0
102
RTVSPost2010PropOp52
 70
     0
102
RTVSPost2010Prop53
 90
        2
102
RTVSPost2010PropOp53
 70
     0
102
RTVSPost2010Prop54
  1
strokes_ogs.tif
102
RTVSPost2010PropOp54
 70
     0
102
RTVSPost2010Prop55
280
     0
102
RTVSPost2010PropOp55
 70
     0
102
RTVSPost2010Prop56
140
1.0
102
RTVSPost2010PropOp56
 70
     0
102
RTVSPost2010Prop57
140
1.0
102
RTVSPost2010PropOp57
 70
     0
  0
XRECORD
  5
108
102
{ACAD_REACTORS
330
107
102
}
330
107
100
AcDbXrecord
280
     1
102
RTVSPost2010Prop28
280
     0
102
RTVSPost2010PropOp28
 70
     1
102
RTVSPost2010Prop29
280
     1
102
RTVSPost2010PropOp29
 70
     1
102
RTVSPost2010Prop30
280
     1
102
RTVSPost2010PropOp30
 70
     1
102
RTVSPost2010Prop31
280
     0
102
RTVSPost2010PropOp31
 70
     1
102
RTVSPost2010Prop32
280
     0
102
RTVSPost2010PropOp32
 70
     1
102
RTVSPost2010Prop33
280
     0
102
RTVSPost2010PropOp33
 70
     1
102
RTVSPost2010Prop34
280
     0
102
RTVSPost2010PropOp34
 70
     1
102
RTVSPost2010Prop35
280
     0
102
RTVSPost2010PropOp35
 70
     1
102
RTVSPost2010Prop36
280
     0
102
RTVSPost2010PropOp36
 70
     1
102
RTVSPost2010Prop37
 90
       50
102
RTVSPost2010PropOp37
 70
     1
102
RTVSPost2010Prop38
140
0.0
102
RTVSPost2010PropOp38
 70
     1
102
RTVSPost2010Prop39
140
1.0
102
RTVSPost2010PropOp39
 70
     1
102
RTVSPost2010Prop40
 90
        0
102
RTVSPost2010PropOp40
 70
     1
102
RTVSPost2010Prop41ColorIndex
 90
       18
102
RTVSPost2010Prop41ColorRGB
 90
        0
102
RTVSPost2010PropOp41
 70
     1
102
RTVSPost2010Prop42
 90
       50
102
RTVSPost2010PropOp42
 70
     1
102
RTVSPost2010Prop43
 90
        3
102
RTVSPost2010PropOp43
 70
     1
102
RTVSPost2010Prop44ColorIndex
 90
        5
102
RTVSPost2010Prop44ColorRGB
 90
      255
102
RTVSPost2010PropOp44
 70
     1
102
RTVSPost2010Prop45
280
     0
102
RTVSPost2010PropOp45
 70
     1
102
RTVSPost2010Prop46
 90
       50
102
RTVSPost2010PropOp46
 70
     1
102
RTVSPost2010Prop47
 90
       50
102
RTVSPost2010PropOp47
 70
     1
102
RTVSPost2010Prop48
 90
       50
102
RTVSPost2010PropOp48
 70
     1
102
RTVSPost2010Prop49
280
     0
102
RTVSPost2010PropOp49
 70
     1
102
RTVSPost2010Prop50
 90
       50
102
RTVSPost2010PropOp50
 70
     1
102
RTVSPost2010Prop51ColorIndex
 90
      256
102
RTVSPost2010Prop51ColorRGB
 90
-16777216
102
RTVSPost2010PropOp51
 70
     0
102
RTVSPost2010Prop52
140
1.0
102
RTVSPost2010PropOp52
 70
     0
102
RTVSPost2010Prop53
 90
        2
102
RTVSPost2010PropOp53
 70
     1
102
RTVSPost2010Prop54
  1
strokes_ogs.tif
102
RTVSPost2010PropOp54
 70
     1
102
RTVSPost2010Prop55
280
     0
102
RTVSPost2010PropOp55
 70
     1
102
RTVSPost2010Prop56
140
1.0
102
RTVSPost2010PropOp56
 70
     1
102
RTVSPost2010Prop57
140
1.0
102
RTVSPost2010PropOp57
 70
     1
  0
XRECORD
  5
11E
102
{ACAD_REACTORS
330
11D
102
}
330
11D
100
AcDbXrecord
280
     1
102
RTVSPost2010Prop28
280
     0
102
RTVSPost2010PropOp28
 70
     1
102
RTVSPost2010Prop29
280
     1
102
RTVSPost2010PropOp29
 70
     1
102
RTVSPost2010Prop30
280
     1
102
RTVSPost2010PropOp30
 70
     1
102
RTVSPost2010Prop31
280
     0
102
RTVSPost2010PropOp31
 70
     1
102
RTVSPost2010Prop32
280
     0
102
RTVSPost2010PropOp32
 70
     1
102
RTVSPost2010Prop33
280
     0
102
RTVSPost2010PropOp33
 70
     1
102
RTVSPost2010Prop34
280
     0
102
RTVSPost2010PropOp34
 70
     1
102
RTVSPost2010Prop35
280
     0
102
RTVSPost2010PropOp35
 70
     1
102
RTVSPost2010Prop36
280
     0
102
RTVSPost2010PropOp36
 70
     1
102
RTVSPost2010Prop37
 90
       50
102
RTVSPost2010PropOp37
 70
     1
102
RTVSPost2010Prop38
140
0.0
102
RTVSPost2010PropOp38
 70
     1
102
RTVSPost2010Prop39
140
1.0
102
RTVSPost2010PropOp39
 70
     1
102
RTVSPost2010Prop40
 90
        0
102
RTVSPost2010PropOp40
 70
     1
102
RTVSPost2010Prop41ColorIndex
 90
       18
102
RTVSPost2010Prop41ColorRGB
 90
        0
102
RTVSPost2010PropOp41
 70
     1
102
RTVSPost2010Prop42
 90
       50
102
RTVSPost2010PropOp42
 70
     1
102
RTVSPost2010Prop43
 90
        3
102
RTVSPost2010PropOp43
 70
     1
102
RTVSPost2010Prop44ColorIndex
 90
        5
102
RTVSPost2010Prop44ColorRGB
 90
      255
102
RTVSPost2010PropOp44
 70
     1
102
RTVSPost2010Prop45
280
     0
102
RTVSPost2010PropOp45
 70
     1
102
RTVSPost2010Prop46
 90
       50
102
RTVSPost2010PropOp46
 70
     1
102
RTVSPost2010Prop47
 90
       50
102
RTVSPost2010PropOp47
 70
     1
102
RTVSPost2010Prop48
 90
       50
102
RTVSPost2010PropOp48
 70
     1
102
RTVSPost2010Prop49
280
     0
102
RTVSPost2010PropOp49
 70
     1
102
RTVSPost2010Prop50
 90
       50
102
RTVSPost2010PropOp50
 70
     1
102
RTVSPost2010Prop51ColorIndex
 90
      256
102
RTVSPost2010Prop51ColorRGB
 90
-16777216
102
RTVSPost2010PropOp51
 70
     0
102
RTVSPost2010Prop52
140
1.0
102
RTVSPost2010PropOp52
 70
     0
102
RTVSPost2010Prop53
 90
        2
102
RTVSPost2010PropOp53
 70
     1
102
RTVSPost2010Prop54
  1
strokes_ogs.tif
102
RTVSPost2010PropOp54
 70
     1
102
RTVSPost2010Prop55
280
     0
102
RTVSPost2010PropOp55
 70
     1
102
RTVSPost2010Prop56
140
1.0
102
RTVSPost2010PropOp56
 70
     1
102
RTVSPost2010Prop57
140
1.0
102
RTVSPost2010PropOp57
 70
     1
  0
XRECORD
  5
11C
102
{ACAD_REACTORS
330
11B
102
}
330
11B
100
AcDbXrecord
280
     1
102
RTVSPost2010Prop28
280
     0
102
RTVSPost2010PropOp28
 70
     1
102
RTVSPost2010Prop29
280
     1
102
RTVSPost2010PropOp29
 70
     1
102
RTVSPost2010Prop30
280
     1
102
RTVSPost2010PropOp30
 70
     1
102
RTVSPost2010Prop31
280
     0
102
RTVSPost2010PropOp31
 70
     1
102
RTVSPost2010Prop32
280
     0
102
RTVSPost2010PropOp32
 70
     1
102
RTVSPost2010Prop33
280
     0
102
RTVSPost2010PropOp33
 70
     1
102
RTVSPost2010Prop34
280
     0
102
RTVSPost2010PropOp34
 70
     1
102
RTVSPost2010Prop35
280
     0
102
RTVSPost2010PropOp35
 70
     1
102
RTVSPost2010Prop36
280
     0
102
RTVSPost2010PropOp36
 70
     1
102
RTVSPost2010Prop37
 90
       50
102
RTVSPost2010PropOp37
 70
     1
102
RTVSPost2010Prop38
140
0.0
102
RTVSPost2010PropOp38
 70
     1
102
RTVSPost2010Prop39
140
1.0
102
RTVSPost2010PropOp39
 70
     1
102
RTVSPost2010Prop40
 90
        0
102
RTVSPost2010PropOp40
 70
     1
102
RTVSPost2010Prop41ColorIndex
 90
       18
102
RTVSPost2010Prop41ColorRGB
 90
        0
102
RTVSPost2010PropOp41
 70
     1
102
RTVSPost2010Prop42
 90
       50
102
RTVSPost2010PropOp42
 70
     1
102
RTVSPost2010Prop43
 90
        3
102
RTVSPost2010PropOp43
 70
     1
102
RTVSPost2010Prop44ColorIndex
 90
        5
102
RTVSPost2010Prop44ColorRGB
 90
      255
102
RTVSPost2010PropOp44
 70
     1
102
RTVSPost2010Prop45
280
     0
102
RTVSPost2010PropOp45
 70
     1
102
RTVSPost2010Prop46
 90
       50
102
RTVSPost2010PropOp46
 70
     1
102
RTVSPost2010Prop47
 90
       50
102
RTVSPost2010PropOp47
 70
     1
102
RTVSPost2010Prop48
 90
       50
102
RTVSPost2010PropOp48
 70
     1
102
RTVSPost2010Prop49
280
     0
102
RTVSPost2010PropOp49
 70
     1
102
RTVSPost2010Prop50
 90
       50
102
RTVSPost2010PropOp50
 70
     1
102
RTVSPost2010Prop51ColorIndex
 90
      256
102
RTVSPost2010Prop51ColorRGB
 90
-16777216
102
RTVSPost2010PropOp51
 70
     0
102
RTVSPost2010Prop52
140
1.0
102
RTVSPost2010PropOp52
 70
     0
102
RTVSPost2010Prop53
 90
        2
102
RTVSPost2010PropOp53
 70
     1
102
RTVSPost2010Prop54
  1
strokes_ogs.tif
102
RTVSPost2010PropOp54
 70
     1
102
RTVSPost2010Prop55
280
     0
102
RTVSPost2010PropOp55
 70
     1
102
RTVSPost2010Prop56
140
1.0
102
RTVSPost2010PropOp56
 70
     1
102
RTVSPost2010Prop57
140
1.0
102
RTVSPost2010PropOp57
 70
     1
  0
XRECORD
  5
116
102
{ACAD_REACTORS
330
115
102
}
330
115
100
AcDbXrecord
280
     1
102
RTVSPost2010Prop28
280
     0
102
RTVSPost2010PropOp28
 70
     1
102
RTVSPost2010Prop29
280
     1
102
RTVSPost2010PropOp29
 70
     1
102
RTVSPost2010Prop30
280
     1
102
RTVSPost2010PropOp30
 70
     1
102
RTVSPost2010Prop31
280
     0
102
RTVSPost2010PropOp31
 70
     1
102
RTVSPost2010Prop32
280
     0
102
RTVSPost2010PropOp32
 70
     1
102
RTVSPost2010Prop33
280
     0
102
RTVSPost2010PropOp33
 70
     1
102
RTVSPost2010Prop34
280
     0
102
RTVSPost2010PropOp34
 70
     1
102
RTVSPost2010Prop35
280
     0
102
RTVSPost2010PropOp35
 70
     1
102
RTVSPost2010Prop36
280
     0
102
RTVSPost2010PropOp36
 70
     1
102
RTVSPost2010Prop37
 90
       50
102
RTVSPost2010PropOp37
 70
     1
102
RTVSPost2010Prop38
140
0.0
102
RTVSPost2010PropOp38
 70
     1
102
RTVSPost2010Prop39
140
1.0
102
RTVSPost2010PropOp39
 70
     1
102
RTVSPost2010Prop40
 90
        0
102
RTVSPost2010PropOp40
 70
     1
102
RTVSPost2010Prop41ColorIndex
 90
       18
102
RTVSPost2010Prop41ColorRGB
 90
        0
102
RTVSPost2010PropOp41
 70
     1
102
RTVSPost2010Prop42
 90
       50
102
RTVSPost2010PropOp42
 70
     1
102
RTVSPost2010Prop43
 90
        3
102
RTVSPost2010PropOp43
 70
     1
102
RTVSPost2010Prop44ColorIndex
 90
        5
102
RTVSPost2010Prop44ColorRGB
 90
      255
102
RTVSPost2010PropOp44
 70
     1
102
RTVSPost2010Prop45
280
     0
102
RTVSPost2010PropOp45
 70
     1
102
RTVSPost2010Prop46
 90
       50
102
RTVSPost2010PropOp46
 70
     1
102
RTVSPost2010Prop47
 90
       50
102
RTVSPost2010PropOp47
 70
     1
102
RTVSPost2010Prop48
 90
       50
102
RTVSPost2010PropOp48
 70
     1
102
RTVSPost2010Prop49
280
     0
102
RTVSPost2010PropOp49
 70
     1
102
RTVSPost2010Prop50
 90
       50
102
RTVSPost2010PropOp50
 70
     1
102
RTVSPost2010Prop51ColorIndex
 90
      256
102
RTVSPost2010Prop51ColorRGB
 90
-16777216
102
RTVSPost2010PropOp51
 70
     0
102
RTVSPost2010Prop52
140
1.0
102
RTVSPost2010PropOp52
 70
     0
102
RTVSPost2010Prop53
 90
        2
102
RTVSPost2010PropOp53
 70
     1
102
RTVSPost2010Prop54
  1
strokes_ogs.tif
102
RTVSPost2010PropOp54
 70
     1
102
RTVSPost2010Prop55
280
     0
102
RTVSPost2010PropOp55
 70
     1
102
RTVSPost2010Prop56
140
1.0
102
RTVSPost2010PropOp56
 70
     1
102
RTVSPost2010Prop57
140
1.0
102
RTVSPost2010PropOp57
 70
     1
  0
XRECORD
  5
118
102
{ACAD_REACTORS
330
117
102
}
330
117
100
AcDbXrecord
280
     1
102
RTVSPost2010Prop28
280
     0
102
RTVSPost2010PropOp28
 70
     1
102
RTVSPost2010Prop29
280
     1
102
RTVSPost2010PropOp29
 70
     1
102
RTVSPost2010Prop30
280
     1
102
RTVSPost2010PropOp30
 70
     1
102
RTVSPost2010Prop31
280
     0
102
RTVSPost2010PropOp31
 70
     1
102
RTVSPost2010Prop32
280
     0
102
RTVSPost2010PropOp32
 70
     1
102
RTVSPost2010Prop33
280
     0
102
RTVSPost2010PropOp33
 70
     1
102
RTVSPost2010Prop34
280
     0
102
RTVSPost2010PropOp34
 70
     1
102
RTVSPost2010Prop35
280
     0
102
RTVSPost2010PropOp35
 70
     1
102
RTVSPost2010Prop36
280
     0
102
RTVSPost2010PropOp36
 70
     1
102
RTVSPost2010Prop37
 90
       50
102
RTVSPost2010PropOp37
 70
     1
102
RTVSPost2010Prop38
140
0.0
102
RTVSPost2010PropOp38
 70
     1
102
RTVSPost2010Prop39
140
1.0
102
RTVSPost2010PropOp39
 70
     1
102
RTVSPost2010Prop40
 90
        0
102
RTVSPost2010PropOp40
 70
     1
102
RTVSPost2010Prop41ColorIndex
 90
       18
102
RTVSPost2010Prop41ColorRGB
 90
        0
102
RTVSPost2010PropOp41
 70
     1
102
RTVSPost2010Prop42
 90
       50
102
RTVSPost2010PropOp42
 70
     1
102
RTVSPost2010Prop43
 90
        3
102
RTVSPost2010PropOp43
 70
     1
102
RTVSPost2010Prop44ColorIndex
 90
        5
102
RTVSPost2010Prop44ColorRGB
 90
      255
102
RTVSPost2010PropOp44
 70
     1
102
RTVSPost2010Prop45
280
     0
102
RTVSPost2010PropOp45
 70
     1
102
RTVSPost2010Prop46
 90
       50
102
RTVSPost2010PropOp46
 70
     1
102
RTVSPost2010Prop47
 90
       50
102
RTVSPost2010PropOp47
 70
     1
102
RTVSPost2010Prop48
 90
       50
102
RTVSPost2010PropOp48
 70
     1
102
RTVSPost2010Prop49
280
     0
102
RTVSPost2010PropOp49
 70
     1
102
RTVSPost2010Prop50
 90
       50
102
RTVSPost2010PropOp50
 70
     1
102
RTVSPost2010Prop51ColorIndex
 90
      256
102
RTVSPost2010Prop51ColorRGB
 90
-16777216
102
RTVSPost2010PropOp51
 70
     0
102
RTVSPost2010Prop52
140
1.0
102
RTVSPost2010PropOp52
 70
     0
102
RTVSPost2010Prop53
 90
        2
102
RTVSPost2010PropOp53
 70
     1
102
RTVSPost2010Prop54
  1
strokes_ogs.tif
102
RTVSPost2010PropOp54
 70
     1
102
RTVSPost2010Prop55
280
     0
102
RTVSPost2010PropOp55
 70
     1
102
RTVSPost2010Prop56
140
1.0
102
RTVSPost2010PropOp56
 70
     1
102
RTVSPost2010Prop57
140
1.0
102
RTVSPost2010PropOp57
 70
     1
  0
XRECORD
  5
10E
102
{ACAD_REACTORS
330
10D
102
}
330
10D
100
AcDbXrecord
280
     1
102
RTVSPost2010Prop28
280
     0
102
RTVSPost2010PropOp28
 70
     1
102
RTVSPost2010Prop29
280
     1
102
RTVSPost2010PropOp29
 70
     1
102
RTVSPost2010Prop30
280
     1
102
RTVSPost2010PropOp30
 70
     1
102
RTVSPost2010Prop31
280
     0
102
RTVSPost2010PropOp31
 70
     1
102
RTVSPost2010Prop32
280
     0
102
RTVSPost2010PropOp32
 70
     1
102
RTVSPost2010Prop33
280
     0
102
RTVSPost2010PropOp33
 70
     1
102
RTVSPost2010Prop34
280
     0
102
RTVSPost2010PropOp34
 70
     1
102
RTVSPost2010Prop35
280
     0
102
RTVSPost2010PropOp35
 70
     1
102
RTVSPost2010Prop36
280
     0
102
RTVSPost2010PropOp36
 70
     1
102
RTVSPost2010Prop37
 90
       50
102
RTVSPost2010PropOp37
 70
     1
102
RTVSPost2010Prop38
140
0.0
102
RTVSPost2010PropOp38
 70
     1
102
RTVSPost2010Prop39
140
1.0
102
RTVSPost2010PropOp39
 70
     1
102
RTVSPost2010Prop40
 90
        0
102
RTVSPost2010PropOp40
 70
     1
102
RTVSPost2010Prop41ColorIndex
 90
       18
102
RTVSPost2010Prop41ColorRGB
 90
        0
102
RTVSPost2010PropOp41
 70
     1
102
RTVSPost2010Prop42
 90
       50
102
RTVSPost2010PropOp42
 70
     1
102
RTVSPost2010Prop43
 90
        3
102
RTVSPost2010PropOp43
 70
     1
102
RTVSPost2010Prop44ColorIndex
 90
        5
102
RTVSPost2010Prop44ColorRGB
 90
      255
102
RTVSPost2010PropOp44
 70
     1
102
RTVSPost2010Prop45
280
     0
102
RTVSPost2010PropOp45
 70
     1
102
RTVSPost2010Prop46
 90
       50
102
RTVSPost2010PropOp46
 70
     1
102
RTVSPost2010Prop47
 90
       50
102
RTVSPost2010PropOp47
 70
     1
102
RTVSPost2010Prop48
 90
       50
102
RTVSPost2010PropOp48
 70
     1
102
RTVSPost2010Prop49
280
     0
102
RTVSPost2010PropOp49
 70
     1
102
RTVSPost2010Prop50
 90
       50
102
RTVSPost2010PropOp50
 70
     1
102
RTVSPost2010Prop51ColorIndex
 90
      256
102
RTVSPost2010Prop51ColorRGB
 90
-16777216
102
RTVSPost2010PropOp51
 70
     0
102
RTVSPost2010Prop52
140
1.0
102
RTVSPost2010PropOp52
 70
     0
102
RTVSPost2010Prop53
 90
        2
102
RTVSPost2010PropOp53
 70
     1
102
RTVSPost2010Prop54
  1
strokes_ogs.tif
102
RTVSPost2010PropOp54
 70
     1
102
RTVSPost2010Prop55
280
     0
102
RTVSPost2010PropOp55
 70
     1
102
RTVSPost2010Prop56
140
1.0
102
RTVSPost2010PropOp56
 70
     1
102
RTVSPost2010Prop57
140
1.0
102
RTVSPost2010PropOp57
 70
     1
  0
XRECORD
  5
102
102
{ACAD_REACTORS
330
101
102
}
330
101
100
AcDbXrecord
280
     1
102
RTVSPost2010Prop28
280
     0
102
RTVSPost2010PropOp28
 70
     1
102
RTVSPost2010Prop29
280
     1
102
RTVSPost2010PropOp29
 70
     1
102
RTVSPost2010Prop30
280
     1
102
RTVSPost2010PropOp30
 70
     1
102
RTVSPost2010Prop31
280
     0
102
RTVSPost2010PropOp31
 70
     1
102
RTVSPost2010Prop32
280
     0
102
RTVSPost2010PropOp32
 70
     1
102
RTVSPost2010Prop33
280
     0
102
RTVSPost2010PropOp33
 70
     1
102
RTVSPost2010Prop34
280
     0
102
RTVSPost2010PropOp34
 70
     1
102
RTVSPost2010Prop35
280
     0
102
RTVSPost2010PropOp35
 70
     1
102
RTVSPost2010Prop36
280
     0
102
RTVSPost2010PropOp36
 70
     1
102
RTVSPost2010Prop37
 90
       50
102
RTVSPost2010PropOp37
 70
     1
102
RTVSPost2010Prop38
140
0.0
102
RTVSPost2010PropOp38
 70
     1
102
RTVSPost2010Prop39
140
1.0
102
RTVSPost2010PropOp39
 70
     1
102
RTVSPost2010Prop40
 90
        0
102
RTVSPost2010PropOp40
 70
     1
102
RTVSPost2010Prop41ColorIndex
 90
       18
102
RTVSPost2010Prop41ColorRGB
 90
        0
102
RTVSPost2010PropOp41
 70
     1
102
RTVSPost2010Prop42
 90
       50
102
RTVSPost2010PropOp42
 70
     1
102
RTVSPost2010Prop43
 90
        3
102
RTVSPost2010PropOp43
 70
     1
102
RTVSPost2010Prop44ColorIndex
 90
        5
102
RTVSPost2010Prop44ColorRGB
 90
      255
102
RTVSPost2010PropOp44
 70
     1
102
RTVSPost2010Prop45
280
     0
102
RTVSPost2010PropOp45
 70
     1
102
RTVSPost2010Prop46
 90
       50
102
RTVSPost2010PropOp46
 70
     1
102
RTVSPost2010Prop47
 90
       50
102
RTVSPost2010PropOp47
 70
     1
102
RTVSPost2010Prop48
 90
       50
102
RTVSPost2010PropOp48
 70
     1
102
RTVSPost2010Prop49
280
     0
102
RTVSPost2010PropOp49
 70
     1
102
RTVSPost2010Prop50
 90
       50
102
RTVSPost2010PropOp50
 70
     1
102
RTVSPost2010Prop51ColorIndex
 90
      256
102
RTVSPost2010Prop51ColorRGB
 90
-16777216
102
RTVSPost2010PropOp51
 70
     0
102
RTVSPost2010Prop52
140
1.0
102
RTVSPost2010PropOp52
 70
     0
102
RTVSPost2010Prop53
 90
        2
102
RTVSPost2010PropOp53
 70
     1
102
RTVSPost2010Prop54
  1
strokes_ogs.tif
102
RTVSPost2010PropOp54
 70
     1
102
RTVSPost2010Prop55
280
     0
102
RTVSPost2010PropOp55
 70
     1
102
RTVSPost2010Prop56
140
1.0
102
RTVSPost2010PropOp56
 70
     1
102
RTVSPost2010Prop57
140
1.0
102
RTVSPost2010PropOp57
 70
     1
  0
XRECORD
  5
11A
102
{ACAD_REACTORS
330
119
102
}
330
119
100
AcDbXrecord
280
     1
102
RTVSPost2010Prop28
280
     0
102
RTVSPost2010PropOp28
 70
     1
102
RTVSPost2010Prop29
280
     1
102
RTVSPost2010PropOp29
 70
     1
102
RTVSPost2010Prop30
280
     1
102
RTVSPost2010PropOp30
 70
     1
102
RTVSPost2010Prop31
280
     0
102
RTVSPost2010PropOp31
 70
     1
102
RTVSPost2010Prop32
280
     0
102
RTVSPost2010PropOp32
 70
     1
102
RTVSPost2010Prop33
280
     0
102
RTVSPost2010PropOp33
 70
     1
102
RTVSPost2010Prop34
280
     0
102
RTVSPost2010PropOp34
 70
     1
102
RTVSPost2010Prop35
280
     0
102
RTVSPost2010PropOp35
 70
     1
102
RTVSPost2010Prop36
280
     0
102
RTVSPost2010PropOp36
 70
     1
102
RTVSPost2010Prop37
 90
       50
102
RTVSPost2010PropOp37
 70
     1
102
RTVSPost2010Prop38
140
0.0
102
RTVSPost2010PropOp38
 70
     1
102
RTVSPost2010Prop39
140
1.0
102
RTVSPost2010PropOp39
 70
     1
102
RTVSPost2010Prop40
 90
        0
102
RTVSPost2010PropOp40
 70
     1
102
RTVSPost2010Prop41ColorIndex
 90
       18
102
RTVSPost2010Prop41ColorRGB
 90
        0
102
RTVSPost2010PropOp41
 70
     1
102
RTVSPost2010Prop42
 90
       50
102
RTVSPost2010PropOp42
 70
     1
102
RTVSPost2010Prop43
 90
        3
102
RTVSPost2010PropOp43
 70
     1
102
RTVSPost2010Prop44ColorIndex
 90
        5
102
RTVSPost2010Prop44ColorRGB
 90
      255
102
RTVSPost2010PropOp44
 70
     1
102
RTVSPost2010Prop45
280
     0
102
RTVSPost2010PropOp45
 70
     1
102
RTVSPost2010Prop46
 90
       50
102
RTVSPost2010PropOp46
 70
     1
102
RTVSPost2010Prop47
 90
       50
102
RTVSPost2010PropOp47
 70
     1
102
RTVSPost2010Prop48
 90
       50
102
RTVSPost2010PropOp48
 70
     1
102
RTVSPost2010Prop49
280
     0
102
RTVSPost2010PropOp49
 70
     1
102
RTVSPost2010Prop50
 90
       50
102
RTVSPost2010PropOp50
 70
     1
102
RTVSPost2010Prop51ColorIndex
 90
      256
102
RTVSPost2010Prop51ColorRGB
 90
-16777216
102
RTVSPost2010PropOp51
 70
     0
102
RTVSPost2010Prop52
140
1.0
102
RTVSPost2010PropOp52
 70
     0
102
RTVSPost2010Prop53
 90
        2
102
RTVSPost2010PropOp53
 70
     1
102
RTVSPost2010Prop54
  1
strokes_ogs.tif
102
RTVSPost2010PropOp54
 70
     1
102
RTVSPost2010Prop55
280
     0
102
RTVSPost2010PropOp55
 70
     1
102
RTVSPost2010Prop56
140
1.0
102
RTVSPost2010PropOp56
 70
     1
102
RTVSPost2010Prop57
140
1.0
102
RTVSPost2010PropOp57
 70
     1
  0
ENDSEC
  0
EOF
