  0
SECTION
  2
HEADER
  9
$ACADVER
  1
AC1024
  9
$ACADMAINTVER
 70
     6
  9
$DWGCODEPAGE
  3
UNDEFINED
  9
$INSBASE
 10
0.0
 20
0.0
 30
0.0
  9
$EXTMIN
 10
1.000000000000000E+20
 20
1.000000000000000E+20
 30
1.000000000000000E+20
  9
$EXTMAX
 10
-1.000000000000000E+20
 20
-1.000000000000000E+20
 30
-1.000000000000000E+20
  9
$LIMMIN
 10
0.0
 20
0.0
  9
$LIMMAX
 10
12.0
 20
9.0
  9
$ORTHOMODE
 70
     0
  9
$REGENMODE
 70
     1
  9
$FILLMODE
 70
     1
  9
$QTEXTMODE
 70
     0
  9
$MIRRTEXT
 70
     1
  9
$LTSCALE
 40
1.0
  9
$ATTMODE
 70
     1
  9
$TEXTSIZE
 40
0.2
  9
$TRACEWID
 40
0.05
  9
$TEXTSTYLE
  7
Standard
  9
$CLAYER
  8
0
  9
$CELTYPE
  6
ByLayer
  9
$CECOLOR
 62
   256
  9
$CELTSCALE
 40
1.0
  9
$DISPSILH
 70
     0
  9
$DIMSCALE
 40
1.0
  9
$DIMASZ
 40
0.18
  9
$DIMEXO
 40
0.0625
  9
$DIMDLI
 40
0.38
  9
$DIMRND
 40
0.0
  9
$DIMDLE
 40
0.0
  9
$DIMEXE
 40
0.18
  9
$DIMTP
 40
0.0
  9
$DIMTM
 40
0.0
  9
$DIMTXT
 40
0.18
  9
$DIMCEN
 40
0.09
  9
$DIMTSZ
 40
0.0
  9
$DIMTOL
 70
     0
  9
$DIMLIM
 70
     0
  9
$DIMTIH
 70
     1
  9
$DIMTOH
 70
     1
  9
$DIMSE1
 70
     0
  9
$DIMSE2
 70
     0
  9
$DIMTAD
 70
     0
  9
$DIMZIN
 70
     0
  9
$DIMBLK
  1

  9
$DIMASO
 70
     1
  9
$DIMSHO
 70
     1
  9
$DIMPOST
  1

  9
$DIMAPOST
  1

  9
$DIMALT
 70
     0
  9
$DIMALTD
 70
     2
  9
$DIMALTF
 40
25.4
  9
$DIMLFAC
 40
1.0
  9
$DIMTOFL
 70
     0
  9
$DIMTVP
 40
0.0
  9
$DIMTIX
 70
     0
  9
$DIMSOXD
 70
     0
  9
$DIMSAH
 70
     0
  9
$DIMBLK1
  1

  9
$DIMBLK2
  1

  9
$DIMSTYLE
  2
Standard
  9
$DIMCLRD
 70
     0
  9
$DIMCLRE
 70
     0
  9
$DIMCLRT
 70
     0
  9
$DIMTFAC
 40
1.0
  9
$DIMGAP
 40
0.09
  9
$DIMJUST
 70
     0
  9
$DIMSD1
 70
     0
  9
$DIMSD2
 70
     0
  9
$DIMTOLJ
 70
     1
  9
$DIMTZIN
 70
     0
  9
$DIMALTZ
 70
     0
  9
$DIMALTTZ
 70
     0
  9
$DIMUPT
 70
     0
  9
$DIMDEC
 70
     4
  9
$DIMTDEC
 70
     4
  9
$DIMALTU
 70
     2
  9
$DIMALTTD
 70
     2
  9
$DIMTXSTY
  7
Standard
  9
$DIMAUNIT
 70
     0
  9
$DIMADEC
 70
     0
  9
$DIMALTRND
 40
0.0
  9
$DIMAZIN
 70
     0
  9
$DIMDSEP
 70
    46
  9
$DIMATFIT
 70
     3
  9
$DIMFRAC
 70
     0
  9
$DIMLDRBLK
  1

  9
$DIMLUNIT
 70
     2
  9
$DIMLWD
 70
    -2
  9
$DIMLWE
 70
    -2
  9
$DIMTMOVE
 70
     0
  9
$DIMFXL
 40
1.0
  9
$DIMFXLON
 70
     0
  9
$DIMJOGANG
 40
0.7853981633974483
  9
$DIMTFILL
 70
     0
  9
$DIMTFILLCLR
 70
     0
  9
$DIMARCSYM
 70
     0
  9
$DIMLTYPE
  6

  9
$DIMLTEX1
  6

  9
$DIMLTEX2
  6

  9
$DIMTXTDIRECTION
 70
     0
  9
$LUNITS
 70
     2
  9
$LUPREC
 70
     4
  9
$SKETCHINC
 40
0.1
  9
$FILLETRAD
 40
0.5
  9
$AUNITS
 70
     0
  9
$AUPREC
 70
     0
  9
$MENU
  1
.
  9
$ELEVATION
 40
0.0
  9
$PELEVATION
 40
0.0
  9
$THICKNESS
 40
0.0
  9
$LIMCHECK
 70
     0
  9
$CHAMFERA
 40
0.5
  9
$CHAMFERB
 40
0.5
  9
$CHAMFERC
 40
1.0
  9
$CHAMFERD
 40
0.0
  9
$SKPOLY
 70
     0
  9
$TDCREATE
 40
2458263.576898148
  9
$TDUCREATE
 40
2458263.201898148
  9
$TDUPDATE
 40
2458263.576898148
  9
$TDUUPDATE
 40
2458263.201898148
  9
$TDINDWG
 40
0.0000000116
  9
$TDUSRTIMER
 40
0.0000000116
  9
$USRTIMER
 70
     1
  9
$ANGBASE
 50
0.0
  9
$ANGDIR
 70
     0
  9
$PDMODE
 70
     0
  9
$PDSIZE
 40
0.0
  9
$PLINEWID
 40
0.0
  9
$SPLFRAME
 70
     0
  9
$SPLINETYPE
 70
     6
  9
$SPLINESEGS
 70
     8
  9
$HANDSEED
  5
B2
  9
$SURFTAB1
 70
     6
  9
$SURFTAB2
 70
     6
  9
$SURFTYPE
 70
     6
  9
$SURFU
 70
     6
  9
$SURFV
 70
     6
  9
$UCSBASE
  2

  9
$UCSNAME
  2

  9
$UCSORG
 10
0.0
 20
0.0
 30
0.0
  9
$UCSXDIR
 10
1.0
 20
0.0
 30
0.0
  9
$UCSYDIR
 10
0.0
 20
1.0
 30
0.0
  9
$UCSORTHOREF
  2

  9
$UCSORTHOVIEW
 70
     0
  9
$UCSORGTOP
 10
0.0
 20
0.0
 30
0.0
  9
$UCSORGBOTTOM
 10
0.0
 20
0.0
 30
0.0
  9
$UCSORGLEFT
 10
0.0
 20
0.0
 30
0.0
  9
$UCSORGRIGHT
 10
0.0
 20
0.0
 30
0.0
  9
$UCSORGFRONT
 10
0.0
 20
0.0
 30
0.0
  9
$UCSORGBACK
 10
0.0
 20
0.0
 30
0.0
  9
$PUCSBASE
  2

  9
$PUCSNAME
  2

  9
$PUCSORG
 10
0.0
 20
0.0
 30
0.0
  9
$PUCSXDIR
 10
1.0
 20
0.0
 30
0.0
  9
$PUCSYDIR
 10
0.0
 20
1.0
 30
0.0
  9
$PUCSORTHOREF
  2

  9
$PUCSORTHOVIEW
 70
     0
  9
$PUCSORGTOP
 10
0.0
 20
0.0
 30
0.0
  9
$PUCSORGBOTTOM
 10
0.0
 20
0.0
 30
0.0
  9
$PUCSORGLEFT
 10
0.0
 20
0.0
 30
0.0
  9
$PUCSORGRIGHT
 10
0.0
 20
0.0
 30
0.0
  9
$PUCSORGFRONT
 10
0.0
 20
0.0
 30
0.0
  9
$PUCSORGBACK
 10
0.0
 20
0.0
 30
0.0
  9
$USERI1
 70
     0
  9
$USERI2
 70
     0
  9
$USERI3
 70
     0
  9
$USERI4
 70
     0
  9
$USERI5
 70
     0
  9
$USERR1
 40
0.0
  9
$USERR2
 40
0.0
  9
$USERR3
 40
0.0
  9
$USERR4
 40
0.0
  9
$USERR5
 40
0.0
  9
$WORLDVIEW
 70
     1
  9
$SHADEDGE
 70
     3
  9
$SHADEDIF
 70
    70
  9
$TILEMODE
 70
     1
  9
$MAXACTVP
 70
    64
  9
$PINSBASE
 10
0.0
 20
0.0
 30
0.0
  9
$PLIMCHECK
 70
     0
  9
$PEXTMIN
 10
1.000000000000000E+20
 20
1.000000000000000E+20
 30
1.000000000000000E+20
  9
$PEXTMAX
 10
-1.000000000000000E+20
 20
-1.000000000000000E+20
 30
-1.000000000000000E+20
  9
$PLIMMIN
 10
0.0
 20
0.0
  9
$PLIMMAX
 10
12.0
 20
9.0
  9
$UNITMODE
 70
     0
  9
$VISRETAIN
 70
     1
  9
$PLINEGEN
 70
     0
  9
$PSLTSCALE
 70
     1
  9
$TREEDEPTH
 70
  3020
  9
$CMLSTYLE
  2
Standard
  9
$CMLJUST
 70
     0
  9
$CMLSCALE
 40
1.0
  9
$PROXYGRAPHICS
 70
     1
  9
$MEASUREMENT
 70
     0
  9
$CELWEIGHT
370
    -1
  9
$ENDCAPS
280
     0
  9
$JOINSTYLE
280
     0
  9
$LWDISPLAY
290
     1
  9
$INSUNITS
 70
     1
  9
$HYPERLINKBASE
  1

  9
$STYLESHEET
  1

  9
$XEDIT
290
     1
  9
$CEPSNTYPE
380
     0
  9
$PSTYLEMODE
290
     1
  9
$FINGERPRINTGUID
  2
{0BC0713B-B497-7470-0556-3016C7694EED}
  9
$VERSIONGUID
  2
{FAEB1C32-E019-11D5-929B-00C0DF256EC4}
  9
$EXTNAMES
290
     1
  9
$PSVPSCALE
 40
0.0
  9
$OLESTARTUP
290
     0
  9
$SORTENTS
280
   127
  9
$INDEXCTL
280
     0
  9
$HIDETEXT
280
     1
  9
$XCLIPFRAME
280
     2
  9
$HALOGAP
280
     0
  9
$OBSCOLOR
 70
   257
  9
$OBSLTYPE
280
     0
  9
$INTERSECTIONDISPLAY
280
     0
  9
$INTERSECTIONCOLOR
 70
   257
  9
$DIMASSOC
280
     2
  9
$PROJECTNAME
  1

  9
$CAMERADISPLAY
290
     0
  9
$LENSLENGTH
 40
50.0
  9
$CAMERAHEIGHT
 40
0.0
  9
$STEPSPERSEC
 40
2.0
  9
$STEPSIZE
 40
6.0
  9
$3DDWFPREC
 40
2.0
  9
$PSOLWIDTH
 40
0.25
  9
$PSOLHEIGHT
 40
4.0
  9
$LOFTANG1
 40
1.570796326794897
  9
$LOFTANG2
 40
1.570796326794897
  9
$LOFTMAG1
 40
0.0
  9
$LOFTMAG2
 40
0.0
  9
$LOFTPARAM
 70
     7
  9
$LOFTNORMALS
280
     1
  9
$LATITUDE
 40
37.795
  9
$LONGITUDE
 40
-122.394
  9
$NORTHDIRECTION
 40
0.0
  9
$TIMEZONE
 70
 -8000
  9
$LIGHTGLYPHDISPLAY
280
     1
  9
$TILEMODELIGHTSYNCH
280
     1
  9
$CMATERIAL
347
3C
  9
$SOLIDHIST
280
     1
  9
$SHOWHIST
280
     1
  9
$DWFFRAME
280
     2
  9
$DGNFRAME
280
     2
  9
$REALWORLDSCALE
290
     1
  9
$INTERFERECOLOR
 62
   256
  9
$CSHADOW
280
     0
  9
$SHADOWPLANELOCATION
 40
0.0
  0
ENDSEC
  0
SECTION
  2
CLASSES
  0
CLASS
  1
ACDBDICTIONARYWDFLT
  2
AcDbDictionaryWithDefault
  3
ObjectDBX Classes
 90
        0
 91
        4
280
     0
281
     0
  0
CLASS
  1
VISUALSTYLE
  2
AcDbVisualStyle
  3
ObjectDBX Classes
 90
     4095
 91
        4
280
     0
281
     0
  0
CLASS
  1
MATERIAL
  2
AcDbMaterial
  3
ObjectDBX Classes
 90
     1153
 91
        4
280
     0
281
     0
  0
CLASS
  1
SUN
  2
AcDbSun
  3
SCENEOE
 90
     1024
 91
        4
280
     0
281
     0
  0
ENDSEC
  0
SECTION
  2
TABLES
  0
TABLE
  2
VPORT
  5
8
330
0
100
AcDbSymbolTable
 70
     1
  0
VPORT
  5
29
330
8
100
AcDbSymbolTableRecord
100
AcDbViewportTableRecord
  2
*Active
 70
     0
 10
0.0
 20
0.0
 11
1.0
 21
1.0
 12
0.0
 22
0.0
 13
0.0
 23
0.0
 14
0.5
 24
0.5
 15
0.5
 25
0.5
 16
0.0
 26
0.0
 36
1.0
 17
105.0007777515277
 27
-148.5000416295416
 37
0.0
 40
297.0000832590831
 41
0.7070757462376333
 42
50.0
 43
0.0
 44
0.0
 50
0.0
 51
0.0
 71
     0
 72
   100
 73
     1
 74
     3
 75
     0
 76
     0
 77
     0
 78
     0
281
     0
 65
     1
110
0.0
120
0.0
130
0.0
111
1.0
121
0.0
131
0.0
112
0.0
122
1.0
132
0.0
 79
     0
146
0.0
 60
     3
 61
     5
292
     1
282
     1
141
0.0
142
0.0
 63
   250
361
3F
  0
ENDTAB
  0
TABLE
  2
LTYPE
  5
5
330
0
100
AcDbSymbolTable
 70
     1
  0
LTYPE
  5
14
330
5
100
AcDbSymbolTableRecord
100
AcDbLinetypeTableRecord
  2
ByBlock
 70
     0
  3

 72
    65
 73
     0
 40
0.0
  0
LTYPE
  5
15
330
5
100
AcDbSymbolTableRecord
100
AcDbLinetypeTableRecord
  2
ByLayer
 70
     0
  3

 72
    65
 73
     0
 40
0.0
  0
LTYPE
  5
16
330
5
100
AcDbSymbolTableRecord
100
AcDbLinetypeTableRecord
  2
Continuous
 70
     0
  3
Solid line
 72
    65
 73
     0
 40
0.0
  0
ENDTAB
  0
TABLE
  2
LAYER
  5
2
330
0
100
AcDbSymbolTable
 70
     2
  0
LAYER
  5
10
330
2
100
AcDbSymbolTableRecord
100
AcDbLayerTableRecord
  2
0
 70
     0
 62
     7
  6
Continuous
370
    -3
390
F
347
3E
  0
LAYER
  5
40
330
2
100
AcDbSymbolTableRecord
100
AcDbLayerTableRecord
  2
_U+30EC_U+30A4_U+30E4_U+30FC 1
 70
     0
 62
     7
  6
Continuous
370
    -3
390
F
347
3E
  0
ENDTAB
  0
TABLE
  2
STYLE
  5
3
330
0
100
AcDbSymbolTable
 70
     1
  0
STYLE
  5
11
330
3
100
AcDbSymbolTableRecord
100
AcDbTextStyleTableRecord
  2
Standard
 70
     0
 40
0.0
 41
1.0
 50
0.0
 71
     0
 42
0.2
  3
txt
  4

  0
ENDTAB
  0
TABLE
  2
VIEW
  5
6
330
0
100
AcDbSymbolTable
 70
     0
  0
ENDTAB
  0
TABLE
  2
UCS
  5
7
330
0
100
AcDbSymbolTable
 70
     0
  0
ENDTAB
  0
TABLE
  2
APPID
  5
9
330
0
100
AcDbSymbolTable
 70
     1
  0
APPID
  5
12
330
9
100
AcDbSymbolTableRecord
100
AcDbRegAppTableRecord
  2
ACAD
 70
     0
  0
ENDTAB
  0
TABLE
  2
DIMSTYLE
  5
A
330
0
100
AcDbSymbolTable
 70
     1
100
AcDbDimStyleTable
  0
DIMSTYLE
105
27
330
A
100
AcDbSymbolTableRecord
100
AcDbDimStyleTableRecord
  2
Standard
 70
     0
178
     0
340
11
  0
ENDTAB
  0
TABLE
  2
BLOCK_RECORD
  5
1
330
0
100
AcDbSymbolTable
 70
     5
  0
BLOCK_RECORD
  5
1F
330
1
100
AcDbSymbolTableRecord
100
AcDbBlockTableRecord
  2
*Model_Space
340
22
 70
     0
280
     1
281
     0
  0
BLOCK_RECORD
  5
1B
330
1
100
AcDbSymbolTableRecord
100
AcDbBlockTableRecord
  2
*Paper_Space
340
1E
 70
     0
280
     1
281
     0
  0
BLOCK_RECORD
  5
23
330
1
100
AcDbSymbolTableRecord
100
AcDbBlockTableRecord
  2
*Paper_Space0
340
26
 70
     0
280
     1
281
     0
  0
BLOCK_RECORD
  5
54
330
1
100
AcDbSymbolTableRecord
100
AcDbBlockTableRecord
  2
block 2
340
0
102
{BLKREFS
331
55
102
}
 70
     0
280
     1
281
     0
  0
BLOCK_RECORD
  5
66
330
1
100
AcDbSymbolTableRecord
100
AcDbBlockTableRecord
  2
block 3
340
0
102
{BLKREFS
331
67
102
}
 70
     0
280
     1
281
     0
  0
BLOCK_RECORD
  5
7B
330
1
100
AcDbSymbolTableRecord
100
AcDbBlockTableRecord
  2
block 4
340
0
102
{BLKREFS
331
7C
102
}
 70
     0
280
     1
281
     0
  0
BLOCK_RECORD
  5
9D
330
1
100
AcDbSymbolTableRecord
100
AcDbBlockTableRecord
  2
block 5
340
0
102
{BLKREFS
331
9E
102
}
 70
     0
280
     1
281
     0
  0
ENDTAB
  0
ENDSEC
  0
SECTION
  2
BLOCKS
  0
BLOCK
  5
20
330
1F
100
AcDbEntity
  8
0
100
AcDbBlockBegin
  2
*Model_Space
 70
     0
 10
0.0
 20
0.0
 30
0.0
  3
*Model_Space
  1

  0
ENDBLK
  5
21
330
1F
100
AcDbEntity
  8
0
100
AcDbBlockEnd
  0
BLOCK
  5
1C
330
1B
100
AcDbEntity
 67
     1
  8
0
100
AcDbBlockBegin
  2
*Paper_Space
 70
     0
 10
0.0
 20
0.0
 30
0.0
  3
*Paper_Space
  1

  0
ENDBLK
  5
1D
330
1B
100
AcDbEntity
 67
     1
  8
0
100
AcDbBlockEnd
  0
BLOCK
  5
24
330
23
100
AcDbEntity
  8
0
100
AcDbBlockBegin
  2
*Paper_Space0
 70
     0
 10
0.0
 20
0.0
 30
0.0
  3
*Paper_Space0
  1

  0
ENDBLK
  5
25
330
23
100
AcDbEntity
  8
0
100
AcDbBlockEnd
  0
BLOCK
  5
56
330
54
100
AcDbEntity
  8
0
100
AcDbBlockBegin
  2
block 2
 70
     0
 10
0.0
 20
0.0
 30
0.0
  3
block 2
  1

  0
SPLINE
  5
58
330
54
100
AcDbEntity
  8
_U+30EC_U+30A4_U+30E4_U+30FC 1
370
     0
100
AcDbSpline
210
0.0
220
0.0
230
1.0
 70
    11
 71
     3
 72
    62
 73
    58
 74
     0
 42
0.0000000001
 43
0.0000000001
 12
1.0
 22
0.0
 32
0.0
 13
1.0
 23
0.0
 33
0.0
 40
0.0
 40
0.0
 40
0.0
 40
0.0
 40
1.0
 40
1.0
 40
1.0
 40
2.0
 40
2.0
 40
2.0
 40
3.0
 40
3.0
 40
3.0
 40
4.0
 40
4.0
 40
4.0
 40
5.0
 40
5.0
 40
5.0
 40
6.0
 40
6.0
 40
6.0
 40
7.0
 40
7.0
 40
7.0
 40
8.0
 40
8.0
 40
8.0
 40
9.0
 40
9.0
 40
9.0
 40
10.0
 40
10.0
 40
10.0
 40
11.0
 40
11.0
 40
11.0
 40
12.0
 40
12.0
 40
12.0
 40
13.0
 40
13.0
 40
13.0
 40
14.0
 40
14.0
 40
14.0
 40
15.0
 40
15.0
 40
15.0
 40
16.0
 40
16.0
 40
16.0
 40
17.0
 40
17.0
 40
17.0
 40
18.0
 40
18.0
 40
18.0
 40
19.0
 40
19.0
 40
19.0
 40
19.0
 10
114.865684650103
 20
-160.769514933766
 30
0.0
 10
114.865684650103
 20
-160.8708007410323
 30
0.0
 10
114.8443250580945
 20
-161.1036891958352
 30
0.0
 10
114.658289901891
 20
-161.2373589006629
 30
0.0
 10
114.5459797890719
 20
-161.3165960968236
 30
0.0
 10
114.4467610390966
 20
-161.3207302114059
 30
0.0
 10
114.3620116901595
 20
-161.3255533450853
 30
0.0
 10
114.3620116901595
 20
-161.3255533450853
 30
0.0
 10
114.3620116901595
 20
-161.0902533234427
 30
0.0
 10
114.3620116901595
 20
-161.0902533234427
 30
0.0
 10
114.4360812430924
 20
-161.087841756603
 30
0.0
 10
114.6710367551864
 20
-161.0768174510503
 30
0.0
 10
114.6710367551864
 20
-160.7736490483483
 30
0.0
 10
114.6710367551864
 20
-160.6268879806766
 30
0.0
 10
114.6011013168358
 20
-160.4642794737728
 30
0.0
 10
114.3726914861638
 20
-160.4642794737728
 30
0.0
 10
114.2562472587623
 20
-160.4642794737728
 30
0.0
 10
114.2076714124203
 20
-160.5049316004988
 30
0.0
 10
114.175976533956
 20
-160.5386935362542
 30
0.0
 10
114.1019069810231
 20
-160.617930732415
 30
0.0
 10
114.0891601277277
 20
-160.741954169884
 30
0.0
 10
114.0891601277277
 20
-160.8008653026817
 30
0.0
 10
114.0891601277277
 20
-160.8211913660447
 30
0.0
 10
114.0912271850189
 20
-160.8597764354795
 30
0.0
 10
114.0953612996012
 20
-160.8890597471041
 30
0.0
 10
114.0953612996012
 20
-160.8890597471041
 30
0.0
 10
113.9007134046846
 20
-160.8890597471041
 30
0.0
 10
113.9007134046846
 20
-160.8890597471041
 30
0.0
 10
113.9072590861065
 20
-160.8484076203782
 30
0.0
 10
113.9093261433977
 20
-160.8032768695214
 30
0.0
 10
113.9093261433977
 20
-160.7963866785509
 30
0.0
 10
113.9093261433977
 20
-160.7261067306518
 30
0.0
 10
113.8883110609377
 20
-160.5138888487604
 30
0.0
 10
113.6512884915525
 20
-160.5138888487604
 30
0.0
 10
113.4735215645136
 20
-160.5138888487604
 30
0.0
 10
113.4184000367496
 20
-160.6537597254616
 30
0.0
 10
113.4184000367496
 20
-160.7715819910571
 30
0.0
 10
113.4184000367496
 20
-161.0540798208476
 30
0.0
 10
113.6512884915525
 20
-161.0630370691092
 30
0.0
 10
113.7232909871942
 20
-161.0678602027886
 30
0.0
 10
113.7232909871942
 20
-161.0678602027886
 30
0.0
 10
113.7232909871942
 20
-161.2849012183594
 30
0.0
 10
113.7232909871942
 20
-161.2849012183594
 30
0.0
 10
113.5982340210796
 20
-161.2759439700977
 30
0.0
 10
113.2216850845418
 20
-161.2463161489245
 30
0.0
 10
113.2216850845418
 20
-160.7578016091161
 30
0.0
 10
113.2216850845418
 20
-160.5183674728912
 30
0.0
 10
113.3488091079475
 20
-160.2606743305946
 30
0.0
 10
113.6447428101305
 20
-160.2606743305946
 30
0.0
 10
113.8311224758825
 20
-160.2606743305946
 30
0.0
 10
113.91346025798
 20
-160.3623046474094
 30
0.0
 10
113.9747829576174
 20
-160.4684135883551
 30
0.0
 10
114.0023437214994
 20
-160.4029567741354
 30
0.0
 10
114.0829589558543
 20
-160.2086533887673
 30
0.0
 10
114.3599446328683
 20
-160.2086533887673
 30
0.0
 10
114.6985975190684
 20
-160.2086533887673
 30
0.0
 10
114.865684650103
 20
-160.4732367220345
 30
0.0
 10
114.865684650103
 20
-160.769514933766
 30
0.0
  0
HATCH
  5
59
330
54
100
AcDbEntity
  8
_U+30EC_U+30A4_U+30E4_U+30FC 1
 62
   179
420
  2234388
100
AcDbHatch
 10
0.0
 20
0.0
 30
0.0
210
0.0
220
0.0
230
1.0
  2
SOLID
 70
     1
 71
     0
 91
        1
 92
        1
 93
        1
 72
     4
 94
        3
 73
     0
 74
     1
 95
       62
 96
       58
 40
0.0
 40
0.0
 40
0.0
 40
0.0
 40
1.0
 40
1.0
 40
1.0
 40
2.0
 40
2.0
 40
2.0
 40
3.0
 40
3.0
 40
3.0
 40
4.0
 40
4.0
 40
4.0
 40
5.0
 40
5.0
 40
5.0
 40
6.0
 40
6.0
 40
6.0
 40
7.0
 40
7.0
 40
7.0
 40
8.0
 40
8.0
 40
8.0
 40
9.0
 40
9.0
 40
9.0
 40
10.0
 40
10.0
 40
10.0
 40
11.0
 40
11.0
 40
11.0
 40
12.0
 40
12.0
 40
12.0
 40
13.0
 40
13.0
 40
13.0
 40
14.0
 40
14.0
 40
14.0
 40
15.0
 40
15.0
 40
15.0
 40
16.0
 40
16.0
 40
16.0
 40
17.0
 40
17.0
 40
17.0
 40
18.0
 40
18.0
 40
18.0
 40
19.0
 40
19.0
 40
19.0
 40
19.0
 10
114.865684650103
 20
-160.769514933766
 10
114.865684650103
 20
-160.8708007410323
 10
114.8443250580945
 20
-161.1036891958352
 10
114.658289901891
 20
-161.2373589006629
 10
114.5459797890719
 20
-161.3165960968236
 10
114.4467610390966
 20
-161.3207302114059
 10
114.3620116901595
 20
-161.3255533450853
 10
114.3620116901595
 20
-161.3255533450853
 10
114.3620116901595
 20
-161.0902533234427
 10
114.3620116901595
 20
-161.0902533234427
 10
114.4360812430924
 20
-161.087841756603
 10
114.6710367551864
 20
-161.0768174510503
 10
114.6710367551864
 20
-160.7736490483483
 10
114.6710367551864
 20
-160.6268879806766
 10
114.6011013168358
 20
-160.4642794737728
 10
114.3726914861638
 20
-160.4642794737728
 10
114.2562472587623
 20
-160.4642794737728
 10
114.2076714124203
 20
-160.5049316004988
 10
114.175976533956
 20
-160.5386935362542
 10
114.1019069810231
 20
-160.617930732415
 10
114.0891601277277
 20
-160.741954169884
 10
114.0891601277277
 20
-160.8008653026817
 10
114.0891601277277
 20
-160.8211913660447
 10
114.0912271850189
 20
-160.8597764354795
 10
114.0953612996012
 20
-160.8890597471041
 10
114.0953612996012
 20
-160.8890597471041
 10
113.9007134046846
 20
-160.8890597471041
 10
113.9007134046846
 20
-160.8890597471041
 10
113.9072590861065
 20
-160.8484076203782
 10
113.9093261433977
 20
-160.8032768695214
 10
113.9093261433977
 20
-160.7963866785509
 10
113.9093261433977
 20
-160.7261067306518
 10
113.8883110609377
 20
-160.5138888487604
 10
113.6512884915525
 20
-160.5138888487604
 10
113.4735215645136
 20
-160.5138888487604
 10
113.4184000367496
 20
-160.6537597254616
 10
113.4184000367496
 20
-160.7715819910571
 10
113.4184000367496
 20
-161.0540798208476
 10
113.6512884915525
 20
-161.0630370691092
 10
113.7232909871942
 20
-161.0678602027886
 10
113.7232909871942
 20
-161.0678602027886
 10
113.7232909871942
 20
-161.2849012183594
 10
113.7232909871942
 20
-161.2849012183594
 10
113.5982340210796
 20
-161.2759439700977
 10
113.2216850845418
 20
-161.2463161489245
 10
113.2216850845418
 20
-160.7578016091161
 10
113.2216850845418
 20
-160.5183674728912
 10
113.3488091079475
 20
-160.2606743305946
 10
113.6447428101305
 20
-160.2606743305946
 10
113.8311224758825
 20
-160.2606743305946
 10
113.91346025798
 20
-160.3623046474094
 10
113.9747829576174
 20
-160.4684135883551
 10
114.0023437214994
 20
-160.4029567741354
 10
114.0829589558543
 20
-160.2086533887673
 10
114.3599446328683
 20
-160.2086533887673
 10
114.6985975190684
 20
-160.2086533887673
 10
114.865684650103
 20
-160.4732367220345
 10
114.865684650103
 20
-160.769514933766
 97
        0
 97
        0
 75
     2
 76
     1
 98
        0
  0
ENDBLK
  5
57
330
54
100
AcDbEntity
  8
0
100
AcDbBlockEnd
  0
BLOCK
  5
68
330
66
100
AcDbEntity
  8
0
100
AcDbBlockBegin
  2
block 3
 70
     0
 10
0.0
 20
0.0
 30
0.0
  3
block 3
  1

  0
SPLINE
  5
6A
330
66
100
AcDbEntity
  8
_U+30EC_U+30A4_U+30E4_U+30FC 1
370
     0
100
AcDbSpline
210
0.0
220
0.0
230
1.0
 70
    11
 71
     3
 72
    44
 73
    40
 74
     0
 42
0.0000000001
 43
0.0000000001
 12
1.0
 22
0.0
 32
0.0
 13
1.0
 23
0.0
 33
0.0
 40
0.0
 40
0.0
 40
0.0
 40
0.0
 40
1.0
 40
1.0
 40
1.0
 40
2.0
 40
2.0
 40
2.0
 40
3.0
 40
3.0
 40
3.0
 40
4.0
 40
4.0
 40
4.0
 40
5.0
 40
5.0
 40
5.0
 40
6.0
 40
6.0
 40
6.0
 40
7.0
 40
7.0
 40
7.0
 40
8.0
 40
8.0
 40
8.0
 40
9.0
 40
9.0
 40
9.0
 40
10.0
 40
10.0
 40
10.0
 40
11.0
 40
11.0
 40
11.0
 40
12.0
 40
12.0
 40
12.0
 40
13.0
 40
13.0
 40
13.0
 40
13.0
 10
94.73306339862576
 20
-150.2519829268467
 30
0.0
 10
94.89171004572152
 20
-150.4848713816496
 30
0.0
 10
94.9657795986544
 20
-150.5844346411733
 30
0.0
 10
95.10961233516358
 20
-150.6361110734521
 30
0.0
 10
95.10961233516358
 20
-150.6361110734521
 30
0.0
 10
95.10961233516358
 20
-149.8044650233128
 30
0.0
 10
95.10961233516358
 20
-149.8044650233128
 30
0.0
 10
95.10961233516358
 20
-149.8044650233128
 30
0.0
 10
95.3147677713102
 20
-149.8044650233128
 30
0.0
 10
95.3147677713102
 20
-149.8044650233128
 30
0.0
 10
95.3147677713102
 20
-149.8044650233128
 30
0.0
 10
95.3147677713102
 20
-150.903105973559
 30
0.0
 10
95.3147677713102
 20
-150.903105973559
 30
0.0
 10
94.95716685994127
 20
-150.868999528255
 30
0.0
 10
94.8789631924261
 20
-150.7990640899044
 30
0.0
 10
94.58061792340347
 20
-150.3873751794171
 30
0.0
 10
94.38183591390454
 20
-150.1138345978882
 30
0.0
 10
94.31413978761938
 20
-150.0438991595376
 30
0.0
 10
94.17668047775791
 20
-150.0438991595376
 30
0.0
 10
94.05816919306532
 20
-150.0438991595376
 30
0.0
 10
93.92708330985157
 20
-150.1207247888587
 30
0.0
 10
93.92708330985157
 20
-150.3308756134589
 30
0.0
 10
93.92708330985157
 20
-150.6092393286671
 30
0.0
 10
94.15756019781477
 20
-150.6181965769288
 30
0.0
 10
94.27400442521622
 20
-150.6226752010596
 30
0.0
 10
94.27400442521622
 20
-150.6226752010596
 30
0.0
 10
94.27400442521622
 20
-150.862453846833
 30
0.0
 10
94.27400442521622
 20
-150.862453846833
 30
0.0
 10
94.14705265658476
 20
-150.8531520890228
 30
0.0
 10
94.03491479853989
 20
-150.84212778347
 30
0.0
 10
93.91640351384729
 20
-150.7560003963388
 30
0.0
 10
93.75568980946039
 20
-150.6385226402918
 30
0.0
 10
93.72175561893067
 20
-150.4397406307928
 30
0.0
 10
93.72175561893067
 20
-150.3150281742268
 30
0.0
 10
93.72175561893067
 20
-150.0190944720438
 30
0.0
 10
93.90589597261729
 20
-149.7975748323423
 30
0.0
 10
94.17874753504907
 20
-149.7975748323423
 30
0.0
 10
94.40715736572113
 20
-149.7975748323423
 30
0.0
 10
94.50672062524485
 20
-149.9219427793598
 30
0.0
 10
94.73306339862576
 20
-150.2519829268467
 30
0.0
  0
HATCH
  5
6B
330
66
100
AcDbEntity
  8
_U+30EC_U+30A4_U+30E4_U+30FC 1
 62
   179
420
  2234388
100
AcDbHatch
 10
0.0
 20
0.0
 30
0.0
210
0.0
220
0.0
230
1.0
  2
SOLID
 70
     1
 71
     0
 91
        1
 92
        1
 93
        1
 72
     4
 94
        3
 73
     0
 74
     1
 95
       44
 96
       40
 40
0.0
 40
0.0
 40
0.0
 40
0.0
 40
1.0
 40
1.0
 40
1.0
 40
2.0
 40
2.0
 40
2.0
 40
3.0
 40
3.0
 40
3.0
 40
4.0
 40
4.0
 40
4.0
 40
5.0
 40
5.0
 40
5.0
 40
6.0
 40
6.0
 40
6.0
 40
7.0
 40
7.0
 40
7.0
 40
8.0
 40
8.0
 40
8.0
 40
9.0
 40
9.0
 40
9.0
 40
10.0
 40
10.0
 40
10.0
 40
11.0
 40
11.0
 40
11.0
 40
12.0
 40
12.0
 40
12.0
 40
13.0
 40
13.0
 40
13.0
 40
13.0
 10
94.73306339862576
 20
-150.2519829268467
 10
94.89171004572152
 20
-150.4848713816496
 10
94.9657795986544
 20
-150.5844346411733
 10
95.10961233516358
 20
-150.6361110734521
 10
95.10961233516358
 20
-150.6361110734521
 10
95.10961233516358
 20
-149.8044650233128
 10
95.10961233516358
 20
-149.8044650233128
 10
95.10961233516358
 20
-149.8044650233128
 10
95.3147677713102
 20
-149.8044650233128
 10
95.3147677713102
 20
-149.8044650233128
 10
95.3147677713102
 20
-149.8044650233128
 10
95.3147677713102
 20
-150.903105973559
 10
95.3147677713102
 20
-150.903105973559
 10
94.95716685994127
 20
-150.868999528255
 10
94.8789631924261
 20
-150.7990640899044
 10
94.58061792340347
 20
-150.3873751794171
 10
94.38183591390454
 20
-150.1138345978882
 10
94.31413978761938
 20
-150.0438991595376
 10
94.17668047775791
 20
-150.0438991595376
 10
94.05816919306532
 20
-150.0438991595376
 10
93.92708330985157
 20
-150.1207247888587
 10
93.92708330985157
 20
-150.3308756134589
 10
93.92708330985157
 20
-150.6092393286671
 10
94.15756019781477
 20
-150.6181965769288
 10
94.27400442521622
 20
-150.6226752010596
 10
94.27400442521622
 20
-150.6226752010596
 10
94.27400442521622
 20
-150.862453846833
 10
94.27400442521622
 20
-150.862453846833
 10
94.14705265658476
 20
-150.8531520890228
 10
94.03491479853989
 20
-150.84212778347
 10
93.91640351384729
 20
-150.7560003963388
 10
93.75568980946039
 20
-150.6385226402918
 10
93.72175561893067
 20
-150.4397406307928
 10
93.72175561893067
 20
-150.3150281742268
 10
93.72175561893067
 20
-150.0190944720438
 10
93.90589597261729
 20
-149.7975748323423
 10
94.17874753504907
 20
-149.7975748323423
 10
94.40715736572113
 20
-149.7975748323423
 10
94.50672062524485
 20
-149.9219427793598
 10
94.73306339862576
 20
-150.2519829268467
 97
        0
 97
        0
 75
     2
 76
     1
 98
        0
  0
SPLINE
  5
6C
330
66
100
AcDbEntity
  8
_U+30EC_U+30A4_U+30E4_U+30FC 1
370
     0
100
AcDbSpline
210
0.0
220
0.0
230
1.0
 70
    11
 71
     3
 72
    53
 73
    49
 74
     0
 42
0.0000000001
 43
0.0000000001
 12
1.0
 22
0.0
 32
0.0
 13
1.0
 23
0.0
 33
0.0
 40
0.0
 40
0.0
 40
0.0
 40
0.0
 40
1.0
 40
1.0
 40
1.0
 40
2.0
 40
2.0
 40
2.0
 40
3.0
 40
3.0
 40
3.0
 40
4.0
 40
4.0
 40
4.0
 40
5.0
 40
5.0
 40
5.0
 40
6.0
 40
6.0
 40
6.0
 40
7.0
 40
7.0
 40
7.0
 40
8.0
 40
8.0
 40
8.0
 40
9.0
 40
9.0
 40
9.0
 40
10.0
 40
10.0
 40
10.0
 40
11.0
 40
11.0
 40
11.0
 40
12.0
 40
12.0
 40
12.0
 40
13.0
 40
13.0
 40
13.0
 40
14.0
 40
14.0
 40
14.0
 40
15.0
 40
15.0
 40
15.0
 40
16.0
 40
16.0
 40
16.0
 40
16.0
 10
95.36558292971763
 20
-149.1140678880687
 30
0.0
 10
95.36558292971763
 20
-149.1974391988118
 30
0.0
 10
95.34852970706565
 20
-149.3063042161457
 30
0.0
 10
95.28513995013705
 20
-149.4144802143825
 30
0.0
 10
95.17506914938332
 20
-149.5998263514889
 30
0.0
 10
95.04398326616956
 20
-149.6225639816916
 30
0.0
 10
94.93615177748124
 20
-149.6432345546031
 30
0.0
 10
94.93615177748124
 20
-149.6432345546031
 30
0.0
 10
94.93615177748124
 20
-149.4055229661209
 30
0.0
 10
94.93615177748124
 20
-149.4055229661209
 30
0.0
 10
95.13493378698016
 20
-149.3469563428716
 30
0.0
 10
95.1645616081533
 20
-149.2112195807528
 30
0.0
 10
95.1645616081533
 20
-149.111656321229
 30
0.0
 10
95.1645616081533
 20
-148.9624836867177
 30
0.0
 10
95.06517060340386
 20
-148.7997029250397
 30
0.0
 10
94.83245440337522
 20
-148.7997029250397
 30
0.0
 10
94.57648380882117
 20
-148.7997029250397
 30
0.0
 10
94.50672062524485
 20
-148.9921115078909
 30
0.0
 10
94.50672062524485
 20
-149.1209580790392
 30
0.0
 10
94.50672062524485
 20
-149.1547200147947
 30
0.0
 10
94.50672062524485
 20
-149.3063042161457
 30
0.0
 10
94.63573945116745
 20
-149.40104434199
 30
0.0
 10
94.63573945116745
 20
-149.40104434199
 30
0.0
 10
94.61661917122431
 20
-149.5888020459361
 30
0.0
 10
94.61661917122431
 20
-149.5888020459361
 30
0.0
 10
94.61661917122431
 20
-149.5888020459361
 30
0.0
 10
93.77050372004696
 20
-149.4599554747878
 30
0.0
 10
93.77050372004696
 20
-149.4599554747878
 30
0.0
 10
93.77050372004696
 20
-149.4599554747878
 30
0.0
 10
93.77050372004696
 20
-148.6279649151
 30
0.0
 10
93.77050372004696
 20
-148.6279649151
 30
0.0
 10
93.77050372004696
 20
-148.6279649151
 30
0.0
 10
93.96515161496357
 20
-148.6279649151
 30
0.0
 10
93.96515161496357
 20
-148.6279649151
 30
0.0
 10
93.96515161496357
 20
-148.6279649151
 30
0.0
 10
93.96515161496357
 20
-149.2856336432341
 30
0.0
 10
93.96515161496357
 20
-149.2856336432341
 30
0.0
 10
93.96515161496357
 20
-149.2856336432341
 30
0.0
 10
94.38820934055225
 20
-149.3559135911333
 30
0.0
 10
94.38820934055225
 20
-149.3559135911333
 30
0.0
 10
94.35427515002254
 20
-149.2904567769135
 30
0.0
 10
94.31413978761938
 20
-149.2022623324911
 30
0.0
 10
94.31413978761938
 20
-149.0754828186339
 30
0.0
 10
94.31413978761938
 20
-148.8041815491705
 30
0.0
 10
94.50034719859714
 20
-148.5509670310046
 30
0.0
 10
94.81333412343209
 20
-148.5509670310046
 30
0.0
 10
95.13079967239786
 20
-148.5509670310046
 30
0.0
 10
95.36558292971763
 20
-148.7905734220037
 30
0.0
 10
95.36558292971763
 20
-149.1140678880687
 30
0.0
  0
HATCH
  5
6D
330
66
100
AcDbEntity
  8
_U+30EC_U+30A4_U+30E4_U+30FC 1
 62
   179
420
  2234388
100
AcDbHatch
 10
0.0
 20
0.0
 30
0.0
210
0.0
220
0.0
230
1.0
  2
SOLID
 70
     1
 71
     0
 91
        1
 92
        1
 93
        1
 72
     4
 94
        3
 73
     0
 74
     1
 95
       53
 96
       49
 40
0.0
 40
0.0
 40
0.0
 40
0.0
 40
1.0
 40
1.0
 40
1.0
 40
2.0
 40
2.0
 40
2.0
 40
3.0
 40
3.0
 40
3.0
 40
4.0
 40
4.0
 40
4.0
 40
5.0
 40
5.0
 40
5.0
 40
6.0
 40
6.0
 40
6.0
 40
7.0
 40
7.0
 40
7.0
 40
8.0
 40
8.0
 40
8.0
 40
9.0
 40
9.0
 40
9.0
 40
10.0
 40
10.0
 40
10.0
 40
11.0
 40
11.0
 40
11.0
 40
12.0
 40
12.0
 40
12.0
 40
13.0
 40
13.0
 40
13.0
 40
14.0
 40
14.0
 40
14.0
 40
15.0
 40
15.0
 40
15.0
 40
16.0
 40
16.0
 40
16.0
 40
16.0
 10
95.36558292971763
 20
-149.1140678880687
 10
95.36558292971763
 20
-149.1974391988118
 10
95.34852970706565
 20
-149.3063042161457
 10
95.28513995013705
 20
-149.4144802143825
 10
95.17506914938332
 20
-149.5998263514889
 10
95.04398326616956
 20
-149.6225639816916
 10
94.93615177748124
 20
-149.6432345546031
 10
94.93615177748124
 20
-149.6432345546031
 10
94.93615177748124
 20
-149.4055229661209
 10
94.93615177748124
 20
-149.4055229661209
 10
95.13493378698016
 20
-149.3469563428716
 10
95.1645616081533
 20
-149.2112195807528
 10
95.1645616081533
 20
-149.111656321229
 10
95.1645616081533
 20
-148.9624836867177
 10
95.06517060340386
 20
-148.7997029250397
 10
94.83245440337522
 20
-148.7997029250397
 10
94.57648380882117
 20
-148.7997029250397
 10
94.50672062524485
 20
-148.9921115078909
 10
94.50672062524485
 20
-149.1209580790392
 10
94.50672062524485
 20
-149.1547200147947
 10
94.50672062524485
 20
-149.3063042161457
 10
94.63573945116745
 20
-149.40104434199
 10
94.63573945116745
 20
-149.40104434199
 10
94.61661917122431
 20
-149.5888020459361
 10
94.61661917122431
 20
-149.5888020459361
 10
94.61661917122431
 20
-149.5888020459361
 10
93.77050372004696
 20
-149.4599554747878
 10
93.77050372004696
 20
-149.4599554747878
 10
93.77050372004696
 20
-149.4599554747878
 10
93.77050372004696
 20
-148.6279649151
 10
93.77050372004696
 20
-148.6279649151
 10
93.77050372004696
 20
-148.6279649151
 10
93.96515161496357
 20
-148.6279649151
 10
93.96515161496357
 20
-148.6279649151
 10
93.96515161496357
 20
-148.6279649151
 10
93.96515161496357
 20
-149.2856336432341
 10
93.96515161496357
 20
-149.2856336432341
 10
93.96515161496357
 20
-149.2856336432341
 10
94.38820934055225
 20
-149.3559135911333
 10
94.38820934055225
 20
-149.3559135911333
 10
94.35427515002254
 20
-149.2904567769135
 10
94.31413978761938
 20
-149.2022623324911
 10
94.31413978761938
 20
-149.0754828186339
 10
94.31413978761938
 20
-148.8041815491705
 10
94.50034719859714
 20
-148.5509670310046
 10
94.81333412343209
 20
-148.5509670310046
 10
95.13079967239786
 20
-148.5509670310046
 10
95.36558292971763
 20
-148.7905734220037
 10
95.36558292971763
 20
-149.1140678880687
 97
        0
 97
        0
 75
     2
 76
     1
 98
        0
  0
ENDBLK
  5
69
330
66
100
AcDbEntity
  8
0
100
AcDbBlockEnd
  0
BLOCK
  5
7D
330
7B
100
AcDbEntity
  8
0
100
AcDbBlockBegin
  2
block 4
 70
     0
 10
0.0
 20
0.0
 30
0.0
  3
block 4
  1

  0
SPLINE
  5
7F
330
7B
100
AcDbEntity
  8
_U+30EC_U+30A4_U+30E4_U+30FC 1
370
     0
100
AcDbSpline
210
0.0
220
0.0
230
1.0
 70
    11
 71
     3
 72
    26
 73
    22
 74
     0
 42
0.0000000001
 43
0.0000000001
 12
1.0
 22
0.0
 32
0.0
 13
1.0
 23
0.0
 33
0.0
 40
0.0
 40
0.0
 40
0.0
 40
0.0
 40
1.0
 40
1.0
 40
1.0
 40
2.0
 40
2.0
 40
2.0
 40
3.0
 40
3.0
 40
3.0
 40
4.0
 40
4.0
 40
4.0
 40
5.0
 40
5.0
 40
5.0
 40
6.0
 40
6.0
 40
6.0
 40
7.0
 40
7.0
 40
7.0
 40
7.0
 10
104.7632866491564
 20
-165.2539957269157
 30
0.0
 10
104.7632866491564
 20
-165.2539957269157
 30
0.0
 10
104.7632866491564
 20
-164.1498426238931
 30
0.0
 10
104.7632866491564
 20
-164.1498426238931
 30
0.0
 10
104.7632866491564
 20
-164.1498426238931
 30
0.0
 10
104.4105088714668
 20
-164.1498426238931
 30
0.0
 10
104.4105088714668
 20
-164.1498426238931
 30
0.0
 10
104.4105088714668
 20
-164.1498426238931
 30
0.0
 10
104.4105088714668
 20
-164.0017035180274
 30
0.0
 10
104.4105088714668
 20
-164.0017035180274
 30
0.0
 10
104.7655259612218
 20
-163.9868896074408
 30
0.0
 10
104.8153075909837
 20
-163.8239365909885
 30
0.0
 10
104.847002469448
 20
-163.7099039304267
 30
0.0
 10
104.847002469448
 20
-163.7099039304267
 30
0.0
 10
105.0028930401555
 20
-163.7099039304267
 30
0.0
 10
105.0028930401555
 20
-163.7099039304267
 30
0.0
 10
105.0028930401555
 20
-163.7099039304267
 30
0.0
 10
105.0028930401555
 20
-165.2539957269157
 30
0.0
 10
105.0028930401555
 20
-165.2539957269157
 30
0.0
 10
105.0028930401555
 20
-165.2539957269157
 30
0.0
 10
104.7632866491564
 20
-165.2539957269157
 30
0.0
 10
104.7632866491564
 20
-165.2539957269157
 30
0.0
  0
HATCH
  5
80
330
7B
100
AcDbEntity
  8
_U+30EC_U+30A4_U+30E4_U+30FC 1
 62
   179
420
  2234388
100
AcDbHatch
 10
0.0
 20
0.0
 30
0.0
210
0.0
220
0.0
230
1.0
  2
SOLID
 70
     1
 71
     0
 91
        1
 92
        1
 93
        1
 72
     4
 94
        3
 73
     0
 74
     1
 95
       26
 96
       22
 40
0.0
 40
0.0
 40
0.0
 40
0.0
 40
1.0
 40
1.0
 40
1.0
 40
2.0
 40
2.0
 40
2.0
 40
3.0
 40
3.0
 40
3.0
 40
4.0
 40
4.0
 40
4.0
 40
5.0
 40
5.0
 40
5.0
 40
6.0
 40
6.0
 40
6.0
 40
7.0
 40
7.0
 40
7.0
 40
7.0
 10
104.7632866491564
 20
-165.2539957269157
 10
104.7632866491564
 20
-165.2539957269157
 10
104.7632866491564
 20
-164.1498426238931
 10
104.7632866491564
 20
-164.1498426238931
 10
104.7632866491564
 20
-164.1498426238931
 10
104.4105088714668
 20
-164.1498426238931
 10
104.4105088714668
 20
-164.1498426238931
 10
104.4105088714668
 20
-164.1498426238931
 10
104.4105088714668
 20
-164.0017035180274
 10
104.4105088714668
 20
-164.0017035180274
 10
104.7655259612218
 20
-163.9868896074408
 10
104.8153075909837
 20
-163.8239365909885
 10
104.847002469448
 20
-163.7099039304267
 10
104.847002469448
 20
-163.7099039304267
 10
105.0028930401555
 20
-163.7099039304267
 10
105.0028930401555
 20
-163.7099039304267
 10
105.0028930401555
 20
-163.7099039304267
 10
105.0028930401555
 20
-165.2539957269157
 10
105.0028930401555
 20
-165.2539957269157
 10
105.0028930401555
 20
-165.2539957269157
 10
104.7632866491564
 20
-165.2539957269157
 10
104.7632866491564
 20
-165.2539957269157
 97
        0
 97
        0
 75
     2
 76
     1
 98
        0
  0
SPLINE
  5
81
330
7B
100
AcDbEntity
  8
_U+30EC_U+30A4_U+30E4_U+30FC 1
370
     0
100
AcDbSpline
210
0.0
220
0.0
230
1.0
 70
    11
 71
     3
 72
    26
 73
    22
 74
     0
 42
0.0000000001
 43
0.0000000001
 12
1.0
 22
0.0
 32
0.0
 13
1.0
 23
0.0
 33
0.0
 40
0.0
 40
0.0
 40
0.0
 40
0.0
 40
1.0
 40
1.0
 40
1.0
 40
2.0
 40
2.0
 40
2.0
 40
3.0
 40
3.0
 40
3.0
 40
4.0
 40
4.0
 40
4.0
 40
5.0
 40
5.0
 40
5.0
 40
6.0
 40
6.0
 40
6.0
 40
7.0
 40
7.0
 40
7.0
 40
7.0
 10
106.0210910108211
 20
-165.2539957269157
 30
0.0
 10
106.0210910108211
 20
-165.2539957269157
 30
0.0
 10
106.0210910108211
 20
-164.1498426238931
 30
0.0
 10
106.0210910108211
 20
-164.1498426238931
 30
0.0
 10
106.0210910108211
 20
-164.1498426238931
 30
0.0
 10
105.6683132331315
 20
-164.1498426238931
 30
0.0
 10
105.6683132331315
 20
-164.1498426238931
 30
0.0
 10
105.6683132331315
 20
-164.1498426238931
 30
0.0
 10
105.6683132331315
 20
-164.0017035180274
 30
0.0
 10
105.6683132331315
 20
-164.0017035180274
 30
0.0
 10
106.0235025776608
 20
-163.9868896074408
 30
0.0
 10
106.0731119526484
 20
-163.8239365909885
 30
0.0
 10
106.1048068311127
 20
-163.7099039304267
 30
0.0
 10
106.1048068311127
 20
-163.7099039304267
 30
0.0
 10
106.260525147046
 20
-163.7099039304267
 30
0.0
 10
106.260525147046
 20
-163.7099039304267
 30
0.0
 10
106.260525147046
 20
-163.7099039304267
 30
0.0
 10
106.260525147046
 20
-165.2539957269157
 30
0.0
 10
106.260525147046
 20
-165.2539957269157
 30
0.0
 10
106.260525147046
 20
-165.2539957269157
 30
0.0
 10
106.0210910108211
 20
-165.2539957269157
 30
0.0
 10
106.0210910108211
 20
-165.2539957269157
 30
0.0
  0
HATCH
  5
82
330
7B
100
AcDbEntity
  8
_U+30EC_U+30A4_U+30E4_U+30FC 1
 62
   179
420
  2234388
100
AcDbHatch
 10
0.0
 20
0.0
 30
0.0
210
0.0
220
0.0
230
1.0
  2
SOLID
 70
     1
 71
     0
 91
        1
 92
        1
 93
        1
 72
     4
 94
        3
 73
     0
 74
     1
 95
       26
 96
       22
 40
0.0
 40
0.0
 40
0.0
 40
0.0
 40
1.0
 40
1.0
 40
1.0
 40
2.0
 40
2.0
 40
2.0
 40
3.0
 40
3.0
 40
3.0
 40
4.0
 40
4.0
 40
4.0
 40
5.0
 40
5.0
 40
5.0
 40
6.0
 40
6.0
 40
6.0
 40
7.0
 40
7.0
 40
7.0
 40
7.0
 10
106.0210910108211
 20
-165.2539957269157
 10
106.0210910108211
 20
-165.2539957269157
 10
106.0210910108211
 20
-164.1498426238931
 10
106.0210910108211
 20
-164.1498426238931
 10
106.0210910108211
 20
-164.1498426238931
 10
105.6683132331315
 20
-164.1498426238931
 10
105.6683132331315
 20
-164.1498426238931
 10
105.6683132331315
 20
-164.1498426238931
 10
105.6683132331315
 20
-164.0017035180274
 10
105.6683132331315
 20
-164.0017035180274
 10
106.0235025776608
 20
-163.9868896074408
 10
106.0731119526484
 20
-163.8239365909885
 10
106.1048068311127
 20
-163.7099039304267
 10
106.1048068311127
 20
-163.7099039304267
 10
106.260525147046
 20
-163.7099039304267
 10
106.260525147046
 20
-163.7099039304267
 10
106.260525147046
 20
-163.7099039304267
 10
106.260525147046
 20
-165.2539957269157
 10
106.260525147046
 20
-165.2539957269157
 10
106.260525147046
 20
-165.2539957269157
 10
106.0210910108211
 20
-165.2539957269157
 10
106.0210910108211
 20
-165.2539957269157
 97
        0
 97
        0
 75
     2
 76
     1
 98
        0
  0
POLYLINE
  5
83
330
7B
100
AcDbEntity
  8
_U+30EC_U+30A4_U+30E4_U+30FC 1
370
     0
100
AcDb2dPolyline
 66
     1
 10
0.0
 20
0.0
 30
0.0
  0
VERTEX
  5
84
330
83
100
AcDbEntity
  8
_U+30EC_U+30A4_U+30E4_U+30FC 1
370
     0
100
AcDbVertex
100
AcDb2dVertex
 10
106.8606607805765
 20
-165.2539957269157
 30
0.0
  0
VERTEX
  5
85
330
83
100
AcDbEntity
  8
_U+30EC_U+30A4_U+30E4_U+30FC 1
370
     0
100
AcDbVertex
100
AcDb2dVertex
 10
106.8606607805765
 20
-165.0025037564924
 30
0.0
  0
VERTEX
  5
86
330
83
100
AcDbEntity
  8
_U+30EC_U+30A4_U+30E4_U+30FC 1
370
     0
100
AcDbVertex
100
AcDb2dVertex
 10
107.1297227379745
 20
-165.0025037564924
 30
0.0
  0
VERTEX
  5
87
330
83
100
AcDbEntity
  8
_U+30EC_U+30A4_U+30E4_U+30FC 1
370
     0
100
AcDbVertex
100
AcDb2dVertex
 10
107.1297227379745
 20
-165.2539957269157
 30
0.0
  0
VERTEX
  5
88
330
83
100
AcDbEntity
  8
_U+30EC_U+30A4_U+30E4_U+30FC 1
370
     0
100
AcDbVertex
100
AcDb2dVertex
 10
106.8606607805765
 20
-165.2539957269157
 30
0.0
  0
SEQEND
  5
89
330
83
100
AcDbEntity
  8
_U+30EC_U+30A4_U+30E4_U+30FC 1
370
     0
  0
HATCH
  5
8A
330
7B
100
AcDbEntity
  8
_U+30EC_U+30A4_U+30E4_U+30FC 1
 62
   179
420
  2234388
100
AcDbHatch
 10
0.0
 20
0.0
 30
0.0
210
0.0
220
0.0
230
1.0
  2
SOLID
 70
     1
 71
     0
 91
        1
 92
        1
 93
        4
 72
     1
 10
106.8606607805765
 20
-165.2539957269157
 11
106.8606607805765
 21
-165.0025037564924
 72
     1
 10
106.8606607805765
 20
-165.0025037564924
 11
107.1297227379745
 21
-165.0025037564924
 72
     1
 10
107.1297227379745
 20
-165.0025037564924
 11
107.1297227379745
 21
-165.2539957269157
 72
     1
 10
107.1297227379745
 20
-165.2539957269157
 11
106.8606607805765
 21
-165.2539957269157
 97
        0
 75
     2
 76
     1
 98
        0
  0
SPLINE
  5
8B
330
7B
100
AcDbEntity
  8
_U+30EC_U+30A4_U+30E4_U+30FC 1
370
     0
100
AcDbSpline
210
0.0
220
0.0
230
1.0
 70
    11
 71
     3
 72
    53
 73
    49
 74
     0
 42
0.0000000001
 43
0.0000000001
 12
1.0
 22
0.0
 32
0.0
 13
1.0
 23
0.0
 33
0.0
 40
0.0
 40
0.0
 40
0.0
 40
0.0
 40
1.0
 40
1.0
 40
1.0
 40
2.0
 40
2.0
 40
2.0
 40
3.0
 40
3.0
 40
3.0
 40
4.0
 40
4.0
 40
4.0
 40
5.0
 40
5.0
 40
5.0
 40
6.0
 40
6.0
 40
6.0
 40
7.0
 40
7.0
 40
7.0
 40
8.0
 40
8.0
 40
8.0
 40
9.0
 40
9.0
 40
9.0
 40
10.0
 40
10.0
 40
10.0
 40
11.0
 40
11.0
 40
11.0
 40
12.0
 40
12.0
 40
12.0
 40
13.0
 40
13.0
 40
13.0
 40
14.0
 40
14.0
 40
14.0
 40
15.0
 40
15.0
 40
15.0
 40
16.0
 40
16.0
 40
16.0
 40
16.0
 10
107.8962564834426
 20
-165.3049831400974
 30
0.0
 10
107.8128851726996
 20
-165.3049831400974
 30
0.0
 10
107.7040201553657
 20
-165.2877576626711
 30
0.0
 10
107.5958441571288
 20
-165.2243679057425
 30
0.0
 10
107.4104980200224
 20
-165.1144693597631
 30
0.0
 10
107.3877603898197
 20
-164.983211221775
 30
0.0
 10
107.3670898169082
 20
-164.8753797330867
 30
0.0
 10
107.3670898169082
 20
-164.8753797330867
 30
0.0
 10
107.6048014053905
 20
-164.8753797330867
 30
0.0
 10
107.6048014053905
 20
-164.8753797330867
 30
0.0
 10
107.6633680286397
 20
-165.0741617425856
 30
0.0
 10
107.7991047907586
 20
-165.1037895637588
 30
0.0
 10
107.8986680502823
 20
-165.1037895637588
 30
0.0
 10
108.0478406847936
 20
-165.1037895637588
 30
0.0
 10
108.2104491916974
 20
-165.0045708137836
 30
0.0
 10
108.2104491916974
 20
-164.7716823589807
 30
0.0
 10
108.2104491916974
 20
-164.5157117644266
 30
0.0
 10
108.0182128636204
 20
-164.4461208356246
 30
0.0
 10
107.8893662924721
 20
-164.4461208356246
 30
0.0
 10
107.8556043567167
 20
-164.4461208356246
 30
0.0
 10
107.7040201553657
 20
-164.4461208356246
 30
0.0
 10
107.6092800295213
 20
-164.5749674067729
 30
0.0
 10
107.6092800295213
 20
-164.5749674067729
 30
0.0
 10
107.4215223255752
 20
-164.556019381604
 30
0.0
 10
107.4215223255752
 20
-164.556019381604
 30
0.0
 10
107.4215223255752
 20
-164.556019381604
 30
0.0
 10
107.5503688967235
 20
-163.7099039304267
 30
0.0
 10
107.5503688967235
 20
-163.7099039304267
 30
0.0
 10
107.5503688967235
 20
-163.7099039304267
 30
0.0
 10
108.3823594564114
 20
-163.7099039304267
 30
0.0
 10
108.3823594564114
 20
-163.7099039304267
 30
0.0
 10
108.3823594564114
 20
-163.7099039304267
 30
0.0
 10
108.3823594564114
 20
-163.9045518253433
 30
0.0
 10
108.3823594564114
 20
-163.9045518253433
 30
0.0
 10
108.3823594564114
 20
-163.9045518253433
 30
0.0
 10
107.7246907282772
 20
-163.9045518253433
 30
0.0
 10
107.7246907282772
 20
-163.9045518253433
 30
0.0
 10
107.7246907282772
 20
-163.9045518253433
 30
0.0
 10
107.6544107803781
 20
-164.327609550932
 30
0.0
 10
107.6544107803781
 20
-164.327609550932
 30
0.0
 10
107.7198675945978
 20
-164.293503105628
 30
0.0
 10
107.8080620390202
 20
-164.2535399979991
 30
0.0
 10
107.9348415528774
 20
-164.2535399979991
 30
0.0
 10
108.2063150771151
 20
-164.2535399979991
 30
0.0
 10
108.4591850857324
 20
-164.4395751542026
 30
0.0
 10
108.4591850857324
 20
-164.7527343338118
 30
0.0
 10
108.4591850857324
 20
-165.0700276280033
 30
0.0
 10
108.2197509495076
 20
-165.3049831400974
 30
0.0
 10
107.8962564834426
 20
-165.3049831400974
 30
0.0
  0
HATCH
  5
8C
330
7B
100
AcDbEntity
  8
_U+30EC_U+30A4_U+30E4_U+30FC 1
 62
   179
420
  2234388
100
AcDbHatch
 10
0.0
 20
0.0
 30
0.0
210
0.0
220
0.0
230
1.0
  2
SOLID
 70
     1
 71
     0
 91
        1
 92
        1
 93
        1
 72
     4
 94
        3
 73
     0
 74
     1
 95
       53
 96
       49
 40
0.0
 40
0.0
 40
0.0
 40
0.0
 40
1.0
 40
1.0
 40
1.0
 40
2.0
 40
2.0
 40
2.0
 40
3.0
 40
3.0
 40
3.0
 40
4.0
 40
4.0
 40
4.0
 40
5.0
 40
5.0
 40
5.0
 40
6.0
 40
6.0
 40
6.0
 40
7.0
 40
7.0
 40
7.0
 40
8.0
 40
8.0
 40
8.0
 40
9.0
 40
9.0
 40
9.0
 40
10.0
 40
10.0
 40
10.0
 40
11.0
 40
11.0
 40
11.0
 40
12.0
 40
12.0
 40
12.0
 40
13.0
 40
13.0
 40
13.0
 40
14.0
 40
14.0
 40
14.0
 40
15.0
 40
15.0
 40
15.0
 40
16.0
 40
16.0
 40
16.0
 40
16.0
 10
107.8962564834426
 20
-165.3049831400974
 10
107.8128851726996
 20
-165.3049831400974
 10
107.7040201553657
 20
-165.2877576626711
 10
107.5958441571288
 20
-165.2243679057425
 10
107.4104980200224
 20
-165.1144693597631
 10
107.3877603898197
 20
-164.983211221775
 10
107.3670898169082
 20
-164.8753797330867
 10
107.3670898169082
 20
-164.8753797330867
 10
107.6048014053905
 20
-164.8753797330867
 10
107.6048014053905
 20
-164.8753797330867
 10
107.6633680286397
 20
-165.0741617425856
 10
107.7991047907586
 20
-165.1037895637588
 10
107.8986680502823
 20
-165.1037895637588
 10
108.0478406847936
 20
-165.1037895637588
 10
108.2104491916974
 20
-165.0045708137836
 10
108.2104491916974
 20
-164.7716823589807
 10
108.2104491916974
 20
-164.5157117644266
 10
108.0182128636204
 20
-164.4461208356246
 10
107.8893662924721
 20
-164.4461208356246
 10
107.8556043567167
 20
-164.4461208356246
 10
107.7040201553657
 20
-164.4461208356246
 10
107.6092800295213
 20
-164.5749674067729
 10
107.6092800295213
 20
-164.5749674067729
 10
107.4215223255752
 20
-164.556019381604
 10
107.4215223255752
 20
-164.556019381604
 10
107.4215223255752
 20
-164.556019381604
 10
107.5503688967235
 20
-163.7099039304267
 10
107.5503688967235
 20
-163.7099039304267
 10
107.5503688967235
 20
-163.7099039304267
 10
108.3823594564114
 20
-163.7099039304267
 10
108.3823594564114
 20
-163.7099039304267
 10
108.3823594564114
 20
-163.7099039304267
 10
108.3823594564114
 20
-163.9045518253433
 10
108.3823594564114
 20
-163.9045518253433
 10
108.3823594564114
 20
-163.9045518253433
 10
107.7246907282772
 20
-163.9045518253433
 10
107.7246907282772
 20
-163.9045518253433
 10
107.7246907282772
 20
-163.9045518253433
 10
107.6544107803781
 20
-164.327609550932
 10
107.6544107803781
 20
-164.327609550932
 10
107.7198675945978
 20
-164.293503105628
 10
107.8080620390202
 20
-164.2535399979991
 10
107.9348415528774
 20
-164.2535399979991
 10
108.2063150771151
 20
-164.2535399979991
 10
108.4591850857324
 20
-164.4395751542026
 10
108.4591850857324
 20
-164.7527343338118
 10
108.4591850857324
 20
-165.0700276280033
 10
108.2197509495076
 20
-165.3049831400974
 10
107.8962564834426
 20
-165.3049831400974
 97
        0
 97
        0
 75
     2
 76
     1
 98
        0
  0
ENDBLK
  5
7E
330
7B
100
AcDbEntity
  8
0
100
AcDbBlockEnd
  0
BLOCK
  5
9F
330
9D
100
AcDbEntity
  8
0
100
AcDbBlockBegin
  2
block 5
 70
     0
 10
0.0
 20
0.0
 30
0.0
  3
block 5
  1

  0
SPLINE
  5
A1
330
9D
100
AcDbEntity
  8
_U+30EC_U+30A4_U+30E4_U+30FC 1
370
     0
100
AcDbSpline
210
0.0
220
0.0
230
1.0
 70
    11
 71
     3
 72
    26
 73
    22
 74
     0
 42
0.0000000001
 43
0.0000000001
 12
1.0
 22
0.0
 32
0.0
 13
1.0
 23
0.0
 33
0.0
 40
0.0
 40
0.0
 40
0.0
 40
0.0
 40
1.0
 40
1.0
 40
1.0
 40
2.0
 40
2.0
 40
2.0
 40
3.0
 40
3.0
 40
3.0
 40
4.0
 40
4.0
 40
4.0
 40
5.0
 40
5.0
 40
5.0
 40
6.0
 40
6.0
 40
6.0
 40
7.0
 40
7.0
 40
7.0
 40
7.0
 10
104.6072238236746
 20
-132.1536905594095
 30
0.0
 10
104.6072238236746
 20
-132.1536905594095
 30
0.0
 10
104.6072238236746
 20
-131.0493652016127
 30
0.0
 10
104.6072238236746
 20
-131.0493652016127
 30
0.0
 10
104.6072238236746
 20
-131.0493652016127
 30
0.0
 10
104.254446045985
 20
-131.0493652016127
 30
0.0
 10
104.254446045985
 20
-131.0493652016127
 30
0.0
 10
104.254446045985
 20
-131.0493652016127
 30
0.0
 10
104.254446045985
 20
-130.9013983505212
 30
0.0
 10
104.254446045985
 20
-130.9013983505212
 30
0.0
 10
104.60946313574
 20
-130.8865844399346
 30
0.0
 10
104.6592447655019
 20
-130.7236314234823
 30
0.0
 10
104.6909396439662
 20
-130.6094265081463
 30
0.0
 10
104.6909396439662
 20
-130.6094265081463
 30
0.0
 10
104.8468302146737
 20
-130.6094265081463
 30
0.0
 10
104.8468302146737
 20
-130.6094265081463
 30
0.0
 10
104.8468302146737
 20
-130.6094265081463
 30
0.0
 10
104.8468302146737
 20
-132.1536905594095
 30
0.0
 10
104.8468302146737
 20
-132.1536905594095
 30
0.0
 10
104.8468302146737
 20
-132.1536905594095
 30
0.0
 10
104.6072238236746
 20
-132.1536905594095
 30
0.0
 10
104.6072238236746
 20
-132.1536905594095
 30
0.0
  0
HATCH
  5
A2
330
9D
100
AcDbEntity
  8
_U+30EC_U+30A4_U+30E4_U+30FC 1
 62
   179
420
  2234388
100
AcDbHatch
 10
0.0
 20
0.0
 30
0.0
210
0.0
220
0.0
230
1.0
  2
SOLID
 70
     1
 71
     0
 91
        1
 92
        1
 93
        1
 72
     4
 94
        3
 73
     0
 74
     1
 95
       26
 96
       22
 40
0.0
 40
0.0
 40
0.0
 40
0.0
 40
1.0
 40
1.0
 40
1.0
 40
2.0
 40
2.0
 40
2.0
 40
3.0
 40
3.0
 40
3.0
 40
4.0
 40
4.0
 40
4.0
 40
5.0
 40
5.0
 40
5.0
 40
6.0
 40
6.0
 40
6.0
 40
7.0
 40
7.0
 40
7.0
 40
7.0
 10
104.6072238236746
 20
-132.1536905594095
 10
104.6072238236746
 20
-132.1536905594095
 10
104.6072238236746
 20
-131.0493652016127
 10
104.6072238236746
 20
-131.0493652016127
 10
104.6072238236746
 20
-131.0493652016127
 10
104.254446045985
 20
-131.0493652016127
 10
104.254446045985
 20
-131.0493652016127
 10
104.254446045985
 20
-131.0493652016127
 10
104.254446045985
 20
-130.9013983505212
 10
104.254446045985
 20
-130.9013983505212
 10
104.60946313574
 20
-130.8865844399346
 10
104.6592447655019
 20
-130.7236314234823
 10
104.6909396439662
 20
-130.6094265081463
 10
104.6909396439662
 20
-130.6094265081463
 10
104.8468302146737
 20
-130.6094265081463
 10
104.8468302146737
 20
-130.6094265081463
 10
104.8468302146737
 20
-130.6094265081463
 10
104.8468302146737
 20
-132.1536905594095
 10
104.8468302146737
 20
-132.1536905594095
 10
104.8468302146737
 20
-132.1536905594095
 10
104.6072238236746
 20
-132.1536905594095
 10
104.6072238236746
 20
-132.1536905594095
 97
        0
 97
        0
 75
     2
 76
     1
 98
        0
  0
ENDBLK
  5
A0
330
9D
100
AcDbEntity
  8
0
100
AcDbBlockEnd
  0
ENDSEC
  0
SECTION
  2
ENTITIES
  0
SPLINE
  5
41
330
1F
100
AcDbEntity
  8
_U+30EC_U+30A4_U+30E4_U+30FC 1
 62
   179
420
  2234388
370
     9
100
AcDbSpline
210
0.0
220
0.0
230
1.0
 70
    11
 71
     3
 72
    17
 73
    13
 74
     0
 42
0.0000000001
 43
0.0000000001
 12
1.0
 22
0.0
 32
0.0
 13
1.0
 23
0.0
 33
0.0
 40
0.0
 40
0.0
 40
0.0
 40
0.0
 40
1.0
 40
1.0
 40
1.0
 40
2.0
 40
2.0
 40
2.0
 40
3.0
 40
3.0
 40
3.0
 40
4.0
 40
4.0
 40
4.0
 40
4.0
 10
96.71706159081097
 20
-162.2170794611276
 30
0.0
 10
96.71706159081097
 20
-162.2724809028998
 30
0.0
 10
96.67225650913679
 20
-162.3172886760548
 30
0.0
 10
96.6168712162497
 20
-162.3172886760548
 30
0.0
 10
96.56183850735368
 20
-162.3172886760548
 30
0.0
 10
96.51703611716034
 20
-162.2724809028998
 30
0.0
 10
96.51703611716034
 20
-162.2170794611276
 30
0.0
 10
96.51703611716034
 20
-162.1620655925975
 30
0.0
 10
96.56183850735368
 20
-162.1172578194425
 30
0.0
 10
96.6168712162497
 20
-162.1172578194425
 30
0.0
 10
96.67225650913679
 20
-162.1172578194425
 30
0.0
 10
96.71706159081097
 20
-162.1620655925975
 30
0.0
 10
96.71706159081097
 20
-162.2170794611276
 30
0.0
  0
SPLINE
  5
42
330
1F
100
AcDbEntity
  8
_U+30EC_U+30A4_U+30E4_U+30FC 1
 62
   179
420
  2234388
370
     9
100
AcDbSpline
210
0.0
220
0.0
230
1.0
 70
    11
 71
     3
 72
    17
 73
    13
 74
     0
 42
0.0000000001
 43
0.0000000001
 12
1.0
 22
0.0
 32
0.0
 13
1.0
 23
0.0
 33
0.0
 40
0.0
 40
0.0
 40
0.0
 40
0.0
 40
1.0
 40
1.0
 40
1.0
 40
2.0
 40
2.0
 40
2.0
 40
3.0
 40
3.0
 40
3.0
 40
4.0
 40
4.0
 40
4.0
 40
4.0
 10
96.71706159081097
 20
-137.2943759151122
 30
0.0
 10
96.71706159081097
 20
-137.349411315489
 30
0.0
 10
96.67225650913679
 20
-137.3942190886441
 30
0.0
 10
96.6168712162497
 20
-137.3942190886441
 30
0.0
 10
96.56183850735368
 20
-137.3942190886441
 30
0.0
 10
96.51703611716034
 20
-137.349411315489
 30
0.0
 10
96.51703611716034
 20
-137.2943759151122
 30
0.0
 10
96.51703611716034
 20
-137.2393620465821
 30
0.0
 10
96.56183850735368
 20
-137.1945542734271
 30
0.0
 10
96.6168712162497
 20
-137.1945542734271
 30
0.0
 10
96.67225650913679
 20
-137.1945542734271
 30
0.0
 10
96.71706159081097
 20
-137.2393620465821
 30
0.0
 10
96.71706159081097
 20
-137.2943759151122
 30
0.0
  0
SPLINE
  5
43
330
1F
100
AcDbEntity
  8
_U+30EC_U+30A4_U+30E4_U+30FC 1
 62
   179
420
  2234388
370
     9
100
AcDbSpline
210
0.0
220
0.0
230
1.0
 70
    11
 71
     3
 72
    17
 73
    13
 74
     0
 42
0.0000000001
 43
0.0000000001
 12
1.0
 22
0.0
 32
0.0
 13
1.0
 23
0.0
 33
0.0
 40
0.0
 40
0.0
 40
0.0
 40
0.0
 40
1.0
 40
1.0
 40
1.0
 40
2.0
 40
2.0
 40
2.0
 40
3.0
 40
3.0
 40
3.0
 40
4.0
 40
4.0
 40
4.0
 40
4.0
 10
100.717172724658
 20
-133.2169331535447
 30
0.0
 10
100.717172724658
 20
-133.2726791048654
 30
0.0
 10
100.6723676429838
 20
-133.3174868780208
 30
0.0
 10
100.6169823500967
 20
-133.3174868780208
 30
0.0
 10
100.561949641201
 20
-133.3174868780208
 30
0.0
 10
100.5171472510073
 20
-133.2726791048654
 30
0.0
 10
100.5171472510073
 20
-133.2169331535447
 30
0.0
 10
100.5171472510073
 20
-133.1619192850146
 30
0.0
 10
100.561949641201
 20
-133.1171115118596
 30
0.0
 10
100.6169823500967
 20
-133.1171115118596
 30
0.0
 10
100.6723676429838
 20
-133.1171115118596
 30
0.0
 10
100.717172724658
 20
-133.1619192850146
 30
0.0
 10
100.717172724658
 20
-133.2169331535447
 30
0.0
  0
SPLINE
  5
44
330
1F
100
AcDbEntity
  8
_U+30EC_U+30A4_U+30E4_U+30FC 1
 62
   179
420
  2234388
370
     9
100
AcDbSpline
210
0.0
220
0.0
230
1.0
 70
    11
 71
     3
 72
    17
 73
    13
 74
     0
 42
0.0000000001
 43
0.0000000001
 12
1.0
 22
0.0
 32
0.0
 13
1.0
 23
0.0
 33
0.0
 40
0.0
 40
0.0
 40
0.0
 40
0.0
 40
1.0
 40
1.0
 40
1.0
 40
2.0
 40
2.0
 40
2.0
 40
3.0
 40
3.0
 40
3.0
 40
4.0
 40
4.0
 40
4.0
 40
4.0
 10
101.7169098281881
 20
-133.2169331535447
 30
0.0
 10
101.7169098281881
 20
-133.2726791048654
 30
0.0
 10
101.6721047465139
 20
-133.3174868780208
 30
0.0
 10
101.6170720376179
 20
-133.3174868780208
 30
0.0
 10
101.5620393287219
 20
-133.3174868780208
 30
0.0
 10
101.5172369385286
 20
-133.2726791048654
 30
0.0
 10
101.5172369385286
 20
-133.2169331535447
 30
0.0
 10
101.5172369385286
 20
-133.1619192850146
 30
0.0
 10
101.5620393287219
 20
-133.1171115118596
 30
0.0
 10
101.6170720376179
 20
-133.1171115118596
 30
0.0
 10
101.6721047465139
 20
-133.1171115118596
 30
0.0
 10
101.7169098281881
 20
-133.1619192850146
 30
0.0
 10
101.7169098281881
 20
-133.2169331535447
 30
0.0
  0
SPLINE
  5
45
330
1F
100
AcDbEntity
  8
_U+30EC_U+30A4_U+30E4_U+30FC 1
 62
   179
420
  2234388
370
     9
100
AcDbSpline
210
0.0
220
0.0
230
1.0
 70
    11
 71
     3
 72
    17
 73
    13
 74
     0
 42
0.0000000001
 43
0.0000000001
 12
1.0
 22
0.0
 32
0.0
 13
1.0
 23
0.0
 33
0.0
 40
0.0
 40
0.0
 40
0.0
 40
0.0
 40
1.0
 40
1.0
 40
1.0
 40
2.0
 40
2.0
 40
2.0
 40
3.0
 40
3.0
 40
3.0
 40
4.0
 40
4.0
 40
4.0
 40
4.0
 10
112.2165300300649
 20
-166.3179273401479
 30
0.0
 10
112.2165300300649
 20
-166.3729627405248
 30
0.0
 10
112.1717222569099
 20
-166.4177705136798
 30
0.0
 10
112.1166922394947
 20
-166.4177705136798
 30
0.0
 10
112.0616568391178
 20
-166.4177705136798
 30
0.0
 10
112.0168544489245
 20
-166.3729627405248
 30
0.0
 10
112.0168544489245
 20
-166.3179273401479
 30
0.0
 10
112.0168544489245
 20
-166.2629134716179
 30
0.0
 10
112.0616568391178
 20
-166.2181056984628
 30
0.0
 10
112.1166922394947
 20
-166.2181056984628
 30
0.0
 10
112.1717222569099
 20
-166.2181056984628
 30
0.0
 10
112.2165300300649
 20
-166.2629134716179
 30
0.0
 10
112.2165300300649
 20
-166.3179273401479
 30
0.0
  0
SPLINE
  5
46
330
1F
100
AcDbEntity
  8
_U+30EC_U+30A4_U+30E4_U+30FC 1
 62
   179
420
  2234388
370
     9
100
AcDbSpline
210
0.0
220
0.0
230
1.0
 70
    11
 71
     3
 72
    17
 73
    13
 74
     0
 42
0.0000000001
 43
0.0000000001
 12
1.0
 22
0.0
 32
0.0
 13
1.0
 23
0.0
 33
0.0
 40
0.0
 40
0.0
 40
0.0
 40
0.0
 40
1.0
 40
1.0
 40
1.0
 40
2.0
 40
2.0
 40
2.0
 40
3.0
 40
3.0
 40
3.0
 40
4.0
 40
4.0
 40
4.0
 40
4.0
 10
116.2162912714017
 20
-159.217090312572
 30
0.0
 10
116.2162912714017
 20
-159.2724917543442
 30
0.0
 10
116.1714834982466
 20
-159.3169334861039
 30
0.0
 10
116.1164534808315
 20
-159.3169334861039
 30
0.0
 10
116.0614180804546
 20
-159.3169334861039
 30
0.0
 10
116.0166156902613
 20
-159.2724917543442
 30
0.0
 10
116.0166156902613
 20
-159.217090312572
 30
0.0
 10
116.0166156902613
 20
-159.162076444042
 30
0.0
 10
116.0614180804546
 20
-159.1172686708869
 30
0.0
 10
116.1164534808315
 20
-159.1172686708869
 30
0.0
 10
116.1714834982466
 20
-159.1172686708869
 30
0.0
 10
116.2162912714017
 20
-159.162076444042
 30
0.0
 10
116.2162912714017
 20
-159.217090312572
 30
0.0
  0
SPLINE
  5
47
330
1F
100
AcDbEntity
  8
_U+30EC_U+30A4_U+30E4_U+30FC 1
 62
   179
420
  2234388
370
     9
100
AcDbSpline
210
0.0
220
0.0
230
1.0
 70
    11
 71
     3
 72
    17
 73
    13
 74
     0
 42
0.0000000001
 43
0.0000000001
 12
1.0
 22
0.0
 32
0.0
 13
1.0
 23
0.0
 33
0.0
 40
0.0
 40
0.0
 40
0.0
 40
0.0
 40
1.0
 40
1.0
 40
1.0
 40
2.0
 40
2.0
 40
2.0
 40
3.0
 40
3.0
 40
3.0
 40
4.0
 40
4.0
 40
4.0
 40
4.0
 10
116.2162912714017
 20
-162.2170794611276
 30
0.0
 10
116.2162912714017
 20
-162.2724809028998
 30
0.0
 10
116.1714834982466
 20
-162.3172886760548
 30
0.0
 10
116.1164534808315
 20
-162.3172886760548
 30
0.0
 10
116.0614180804546
 20
-162.3172886760548
 30
0.0
 10
116.0166156902613
 20
-162.2724809028998
 30
0.0
 10
116.0166156902613
 20
-162.2170794611276
 30
0.0
 10
116.0166156902613
 20
-162.1620655925975
 30
0.0
 10
116.0614180804546
 20
-162.1172578194425
 30
0.0
 10
116.1164534808315
 20
-162.1172578194425
 30
0.0
 10
116.1714834982466
 20
-162.1172578194425
 30
0.0
 10
116.2162912714017
 20
-162.1620655925975
 30
0.0
 10
116.2162912714017
 20
-162.2170794611276
 30
0.0
  0
POLYLINE
  5
48
330
1F
100
AcDbEntity
  8
_U+30EC_U+30A4_U+30E4_U+30FC 1
 62
   179
420
  2234388
370
     9
100
AcDb2dPolyline
 66
     1
 10
0.0
 20
0.0
 30
0.0
  0
VERTEX
  5
49
330
48
100
AcDbEntity
  8
_U+30EC_U+30A4_U+30E4_U+30FC 1
 62
   179
420
  2234388
370
     9
100
AcDbVertex
100
AcDb2dVertex
 10
116.1163835023294
 20
-162.2170794611276
 30
0.0
  0
VERTEX
  5
4A
330
48
100
AcDbEntity
  8
_U+30EC_U+30A4_U+30E4_U+30FC 1
 62
   179
420
  2234388
370
     9
100
AcDbVertex
100
AcDb2dVertex
 10
116.1163835023294
 20
-159.2170687807252
 30
0.0
  0
SEQEND
  5
4B
330
48
100
AcDbEntity
  8
_U+30EC_U+30A4_U+30E4_U+30FC 1
 62
   179
420
  2234388
370
     9
  0
POLYLINE
  5
4C
330
1F
100
AcDbEntity
  8
_U+30EC_U+30A4_U+30E4_U+30FC 1
 62
   179
420
  2234388
370
     9
100
AcDb2dPolyline
 66
     1
 10
0.0
 20
0.0
 30
0.0
  0
VERTEX
  5
4D
330
4C
100
AcDbEntity
  8
_U+30EC_U+30A4_U+30E4_U+30FC 1
 62
   179
420
  2234388
370
     9
100
AcDbVertex
100
AcDb2dVertex
 10
114.6563735675273
 20
-162.2170794611276
 30
0.0
  0
VERTEX
  5
4E
330
4C
100
AcDbEntity
  8
_U+30EC_U+30A4_U+30E4_U+30FC 1
 62
   179
420
  2234388
370
     9
100
AcDbVertex
100
AcDb2dVertex
 10
117.116290169153
 20
-162.2170794611276
 30
0.0
  0
SEQEND
  5
4F
330
4C
100
AcDbEntity
  8
_U+30EC_U+30A4_U+30E4_U+30FC 1
 62
   179
420
  2234388
370
     9
  0
POLYLINE
  5
50
330
1F
100
AcDbEntity
  8
_U+30EC_U+30A4_U+30E4_U+30FC 1
 62
   179
420
  2234388
370
     9
100
AcDb2dPolyline
 66
     1
 10
0.0
 20
0.0
 30
0.0
  0
VERTEX
  5
51
330
50
100
AcDbEntity
  8
_U+30EC_U+30A4_U+30E4_U+30FC 1
 62
   179
420
  2234388
370
     9
100
AcDbVertex
100
AcDb2dVertex
 10
114.6563735675273
 20
-159.217090312572
 30
0.0
  0
VERTEX
  5
52
330
50
100
AcDbEntity
  8
_U+30EC_U+30A4_U+30E4_U+30FC 1
 62
   179
420
  2234388
370
     9
100
AcDbVertex
100
AcDb2dVertex
 10
117.116290169153
 20
-159.217090312572
 30
0.0
  0
SEQEND
  5
53
330
50
100
AcDbEntity
  8
_U+30EC_U+30A4_U+30E4_U+30FC 1
 62
   179
420
  2234388
370
     9
  0
INSERT
  5
55
330
1F
100
AcDbEntity
  8
_U+30EC_U+30A4_U+30E4_U+30FC 1
100
AcDbBlockReference
  2
block 2
 10
0.0
 20
0.0
 30
0.0
  0
POLYLINE
  5
5A
330
1F
100
AcDbEntity
  8
_U+30EC_U+30A4_U+30E4_U+30FC 1
 62
   179
420
  2234388
370
     9
100
AcDb2dPolyline
 66
     1
 10
0.0
 20
0.0
 30
0.0
  0
VERTEX
  5
5B
330
5A
100
AcDbEntity
  8
_U+30EC_U+30A4_U+30E4_U+30FC 1
 62
   179
420
  2234388
370
     9
100
AcDbVertex
100
AcDb2dVertex
 10
96.61680123774767
 20
-162.2170794611276
 30
0.0
  0
VERTEX
  5
5C
330
5A
100
AcDbEntity
  8
_U+30EC_U+30A4_U+30E4_U+30FC 1
 62
   179
420
  2234388
370
     9
100
AcDbVertex
100
AcDb2dVertex
 10
96.61680123774767
 20
-137.294397446959
 30
0.0
  0
SEQEND
  5
5D
330
5A
100
AcDbEntity
  8
_U+30EC_U+30A4_U+30E4_U+30FC 1
 62
   179
420
  2234388
370
     9
  0
POLYLINE
  5
5E
330
1F
100
AcDbEntity
  8
_U+30EC_U+30A4_U+30E4_U+30FC 1
 62
   179
420
  2234388
370
     9
100
AcDb2dPolyline
 66
     1
 10
0.0
 20
0.0
 30
0.0
  0
VERTEX
  5
5F
330
5E
100
AcDbEntity
  8
_U+30EC_U+30A4_U+30E4_U+30FC 1
 62
   179
420
  2234388
370
     9
100
AcDbVertex
100
AcDb2dVertex
 10
98.07684347031993
 20
-162.2170794611276
 30
0.0
  0
VERTEX
  5
60
330
5E
100
AcDbEntity
  8
_U+30EC_U+30A4_U+30E4_U+30FC 1
 62
   179
420
  2234388
370
     9
100
AcDbVertex
100
AcDb2dVertex
 10
95.61692148573255
 20
-162.2170794611276
 30
0.0
  0
SEQEND
  5
61
330
5E
100
AcDbEntity
  8
_U+30EC_U+30A4_U+30E4_U+30FC 1
 62
   179
420
  2234388
370
     9
  0
POLYLINE
  5
62
330
1F
100
AcDbEntity
  8
_U+30EC_U+30A4_U+30E4_U+30FC 1
 62
   179
420
  2234388
370
     9
100
AcDb2dPolyline
 66
     1
 10
0.0
 20
0.0
 30
0.0
  0
VERTEX
  5
63
330
62
100
AcDbEntity
  8
_U+30EC_U+30A4_U+30E4_U+30FC 1
 62
   179
420
  2234388
370
     9
100
AcDbVertex
100
AcDb2dVertex
 10
98.07684347031993
 20
-137.2943759151122
 30
0.0
  0
VERTEX
  5
64
330
62
100
AcDbEntity
  8
_U+30EC_U+30A4_U+30E4_U+30FC 1
 62
   179
420
  2234388
370
     9
100
AcDbVertex
100
AcDb2dVertex
 10
95.61692148573255
 20
-137.2943759151122
 30
0.0
  0
SEQEND
  5
65
330
62
100
AcDbEntity
  8
_U+30EC_U+30A4_U+30E4_U+30FC 1
 62
   179
420
  2234388
370
     9
  0
INSERT
  5
67
330
1F
100
AcDbEntity
  8
_U+30EC_U+30A4_U+30E4_U+30FC 1
100
AcDbBlockReference
  2
block 3
 10
0.0
 20
0.0
 30
0.0
  0
POLYLINE
  5
6E
330
1F
100
AcDbEntity
  8
_U+30EC_U+30A4_U+30E4_U+30FC 1
 62
   179
420
  2234388
370
     9
100
AcDb2dPolyline
 66
     1
 10
0.0
 20
0.0
 30
0.0
  0
VERTEX
  5
6F
330
6E
100
AcDbEntity
  8
_U+30EC_U+30A4_U+30E4_U+30FC 1
 62
   179
420
  2234388
370
     9
100
AcDbVertex
100
AcDb2dVertex
 10
100.6162098950937
 20
-166.3179273401479
 30
0.0
  0
VERTEX
  5
70
330
6E
100
AcDbEntity
  8
_U+30EC_U+30A4_U+30E4_U+30FC 1
 62
   179
420
  2234388
370
     9
100
AcDbVertex
100
AcDb2dVertex
 10
112.1167622179968
 20
-166.3179273401479
 30
0.0
  0
SEQEND
  5
71
330
6E
100
AcDbEntity
  8
_U+30EC_U+30A4_U+30E4_U+30FC 1
 62
   179
420
  2234388
370
     9
  0
POLYLINE
  5
72
330
1F
100
AcDbEntity
  8
_U+30EC_U+30A4_U+30E4_U+30FC 1
 62
   179
420
  2234388
370
     9
100
AcDb2dPolyline
 66
     1
 10
0.0
 20
0.0
 30
0.0
  0
VERTEX
  5
73
330
72
100
AcDbEntity
  8
_U+30EC_U+30A4_U+30E4_U+30FC 1
 62
   179
420
  2234388
370
     9
100
AcDbVertex
100
AcDb2dVertex
 10
112.1166222609927
 20
-167.7779372749501
 30
0.0
  0
VERTEX
  5
74
330
72
100
AcDbEntity
  8
_U+30EC_U+30A4_U+30E4_U+30FC 1
 62
   179
420
  2234388
370
     9
100
AcDbVertex
100
AcDb2dVertex
 10
112.1166222609927
 20
-165.3173208883039
 30
0.0
  0
SEQEND
  5
75
330
72
100
AcDbEntity
  8
_U+30EC_U+30A4_U+30E4_U+30FC 1
 62
   179
420
  2234388
370
     9
  0
SPLINE
  5
76
330
1F
100
AcDbEntity
  8
_U+30EC_U+30A4_U+30E4_U+30FC 1
 62
   179
420
  2234388
370
     9
100
AcDbSpline
210
0.0
220
0.0
230
1.0
 70
    11
 71
     3
 72
    17
 73
    13
 74
     0
 42
0.0000000001
 43
0.0000000001
 12
1.0
 22
0.0
 32
0.0
 13
1.0
 23
0.0
 33
0.0
 40
0.0
 40
0.0
 40
0.0
 40
0.0
 40
1.0
 40
1.0
 40
1.0
 40
2.0
 40
2.0
 40
2.0
 40
3.0
 40
3.0
 40
3.0
 40
4.0
 40
4.0
 40
4.0
 40
4.0
 10
100.7161149726847
 20
-166.3179273401479
 30
0.0
 10
100.7161149726847
 20
-166.3729627405248
 30
0.0
 10
100.6713098910106
 20
-166.4177705136798
 30
0.0
 10
100.6162771821145
 20
-166.4177705136798
 30
0.0
 10
100.5612444732185
 20
-166.4177705136798
 30
0.0
 10
100.5164420830252
 20
-166.3729627405248
 30
0.0
 10
100.5164420830252
 20
-166.3179273401479
 30
0.0
 10
100.5164420830252
 20
-166.2629134716179
 30
0.0
 10
100.5612444732185
 20
-166.2181056984628
 30
0.0
 10
100.6162771821145
 20
-166.2181056984628
 30
0.0
 10
100.6713098910106
 20
-166.2181056984628
 30
0.0
 10
100.7161149726847
 20
-166.2629134716179
 30
0.0
 10
100.7161149726847
 20
-166.3179273401479
 30
0.0
  0
POLYLINE
  5
77
330
1F
100
AcDbEntity
  8
_U+30EC_U+30A4_U+30E4_U+30FC 1
 62
   179
420
  2234388
370
     9
100
AcDb2dPolyline
 66
     1
 10
0.0
 20
0.0
 30
0.0
  0
VERTEX
  5
78
330
77
100
AcDbEntity
  8
_U+30EC_U+30A4_U+30E4_U+30FC 1
 62
   179
420
  2234388
370
     9
100
AcDbVertex
100
AcDb2dVertex
 10
100.6162098950937
 20
-167.7779372749501
 30
0.0
  0
VERTEX
  5
79
330
77
100
AcDbEntity
  8
_U+30EC_U+30A4_U+30E4_U+30FC 1
 62
   179
420
  2234388
370
     9
100
AcDbVertex
100
AcDb2dVertex
 10
100.6162098950937
 20
-165.3173208883039
 30
0.0
  0
SEQEND
  5
7A
330
77
100
AcDbEntity
  8
_U+30EC_U+30A4_U+30E4_U+30FC 1
 62
   179
420
  2234388
370
     9
  0
INSERT
  5
7C
330
1F
100
AcDbEntity
  8
_U+30EC_U+30A4_U+30E4_U+30FC 1
100
AcDbBlockReference
  2
block 4
 10
0.0
 20
0.0
 30
0.0
  0
POLYLINE
  5
8D
330
1F
100
AcDbEntity
  8
_U+30EC_U+30A4_U+30E4_U+30FC 1
 62
   179
420
  2234388
370
     9
100
AcDb2dPolyline
 66
     1
 10
0.0
 20
0.0
 30
0.0
  0
VERTEX
  5
8E
330
8D
100
AcDbEntity
  8
_U+30EC_U+30A4_U+30E4_U+30FC 1
 62
   179
420
  2234388
370
     9
100
AcDbVertex
100
AcDb2dVertex
 10
101.6170047505967
 20
-133.2169331535447
 30
0.0
  0
VERTEX
  5
8F
330
8D
100
AcDbEntity
  8
_U+30EC_U+30A4_U+30E4_U+30FC 1
 62
   179
420
  2234388
370
     9
100
AcDbVertex
100
AcDb2dVertex
 10
105.3874921959093
 20
-133.2169331535447
 30
0.0
  0
SEQEND
  5
90
330
8D
100
AcDbEntity
  8
_U+30EC_U+30A4_U+30E4_U+30FC 1
 62
   179
420
  2234388
370
     9
  0
POLYLINE
  5
91
330
1F
100
AcDbEntity
  8
_U+30EC_U+30A4_U+30E4_U+30FC 1
 62
   179
420
  2234388
370
     9
100
AcDb2dPolyline
 66
     1
 10
0.0
 20
0.0
 30
0.0
  0
VERTEX
  5
92
330
91
100
AcDbEntity
  8
_U+30EC_U+30A4_U+30E4_U+30FC 1
 62
   179
420
  2234388
370
     9
100
AcDbVertex
100
AcDb2dVertex
 10
101.6170047505967
 20
-133.2169331535447
 30
0.0
  0
VERTEX
  5
93
330
91
100
AcDbEntity
  8
_U+30EC_U+30A4_U+30E4_U+30FC 1
 62
   179
420
  2234388
370
     9
100
AcDbVertex
100
AcDb2dVertex
 10
99.61675270557134
 20
-133.2169331535447
 30
0.0
  0
SEQEND
  5
94
330
91
100
AcDbEntity
  8
_U+30EC_U+30A4_U+30E4_U+30FC 1
 62
   179
420
  2234388
370
     9
  0
POLYLINE
  5
95
330
1F
100
AcDbEntity
  8
_U+30EC_U+30A4_U+30E4_U+30FC 1
 62
   179
420
  2234388
370
     9
100
AcDb2dPolyline
 66
     1
 10
0.0
 20
0.0
 30
0.0
  0
VERTEX
  5
96
330
95
100
AcDbEntity
  8
_U+30EC_U+30A4_U+30E4_U+30FC 1
 62
   179
420
  2234388
370
     9
100
AcDbVertex
100
AcDb2dVertex
 10
101.6170047505967
 20
-134.6769861520404
 30
0.0
  0
VERTEX
  5
97
330
95
100
AcDbEntity
  8
_U+30EC_U+30A4_U+30E4_U+30FC 1
 62
   179
420
  2234388
370
     9
100
AcDbVertex
100
AcDb2dVertex
 10
101.6170047505967
 20
-132.2170803163381
 30
0.0
  0
SEQEND
  5
98
330
95
100
AcDbEntity
  8
_U+30EC_U+30A4_U+30E4_U+30FC 1
 62
   179
420
  2234388
370
     9
  0
POLYLINE
  5
99
330
1F
100
AcDbEntity
  8
_U+30EC_U+30A4_U+30E4_U+30FC 1
 62
   179
420
  2234388
370
     9
100
AcDb2dPolyline
 66
     1
 10
0.0
 20
0.0
 30
0.0
  0
VERTEX
  5
9A
330
99
100
AcDbEntity
  8
_U+30EC_U+30A4_U+30E4_U+30FC 1
 62
   179
420
  2234388
370
     9
100
AcDbVertex
100
AcDb2dVertex
 10
100.6169150630755
 20
-134.6769861520404
 30
0.0
  0
VERTEX
  5
9B
330
99
100
AcDbEntity
  8
_U+30EC_U+30A4_U+30E4_U+30FC 1
 62
   179
420
  2234388
370
     9
100
AcDbVertex
100
AcDb2dVertex
 10
100.6169150630755
 20
-132.2170803163381
 30
0.0
  0
SEQEND
  5
9C
330
99
100
AcDbEntity
  8
_U+30EC_U+30A4_U+30E4_U+30FC 1
 62
   179
420
  2234388
370
     9
  0
INSERT
  5
9E
330
1F
100
AcDbEntity
  8
_U+30EC_U+30A4_U+30E4_U+30FC 1
100
AcDbBlockReference
  2
block 5
 10
0.0
 20
0.0
 30
0.0
  0
POLYLINE
  5
A3
330
1F
100
AcDbEntity
  8
_U+30EC_U+30A4_U+30E4_U+30FC 1
 62
   179
420
  2234388
370
    25
100
AcDb2dPolyline
 66
     1
 10
0.0
 20
0.0
 30
0.0
  0
VERTEX
  5
A4
330
A3
100
AcDbEntity
  8
_U+30EC_U+30A4_U+30E4_U+30FC 1
 62
   179
420
  2234388
370
    25
100
AcDbVertex
100
AcDb2dVertex
 10
100.6172676470666
 20
-137.2171842443958
 30
0.0
  0
VERTEX
  5
A5
330
A3
100
AcDbEntity
  8
_U+30EC_U+30A4_U+30E4_U+30FC 1
 62
   179
420
  2234388
370
    25
100
AcDbVertex
100
AcDb2dVertex
 10
101.6173923238388
 20
-137.2171842443958
 30
0.0
  0
VERTEX
  5
A6
330
A3
100
AcDbEntity
  8
_U+30EC_U+30A4_U+30E4_U+30FC 1
 62
   179
420
  2234388
370
    25
100
AcDbVertex
100
AcDb2dVertex
 10
101.6173923238388
 20
-161.2170113054531
 30
0.0
  0
VERTEX
  5
A7
330
A3
100
AcDbEntity
  8
_U+30EC_U+30A4_U+30E4_U+30FC 1
 62
   179
420
  2234388
370
    25
100
AcDbVertex
100
AcDb2dVertex
 10
111.1169901252156
 20
-161.2170113054531
 30
0.0
  0
VERTEX
  5
A8
330
A3
100
AcDbEntity
  8
_U+30EC_U+30A4_U+30E4_U+30FC 1
 62
   179
420
  2234388
370
    25
100
AcDbVertex
100
AcDb2dVertex
 10
111.1169901252156
 20
-160.2169000860851
 30
0.0
  0
VERTEX
  5
A9
330
A3
100
AcDbEntity
  8
_U+30EC_U+30A4_U+30E4_U+30FC 1
 62
   179
420
  2234388
370
    25
100
AcDbVertex
100
AcDb2dVertex
 10
108.1173185714
 20
-160.2169000860851
 30
0.0
  0
VERTEX
  5
AA
330
A3
100
AcDbEntity
  8
_U+30EC_U+30A4_U+30E4_U+30FC 1
 62
   179
420
  2234388
370
    25
100
AcDbVertex
100
AcDb2dVertex
 10
108.1173185714
 20
-159.2167673348703
 30
0.0
  0
VERTEX
  5
AB
330
A3
100
AcDbEntity
  8
_U+30EC_U+30A4_U+30E4_U+30FC 1
 62
   179
420
  2234388
370
    25
100
AcDbVertex
100
AcDb2dVertex
 10
112.1167622179968
 20
-159.2167673348703
 30
0.0
  0
VERTEX
  5
AC
330
A3
100
AcDbEntity
  8
_U+30EC_U+30A4_U+30E4_U+30FC 1
 62
   179
420
  2234388
370
    25
100
AcDbVertex
100
AcDb2dVertex
 10
112.1167622179968
 20
-162.2167995471194
 30
0.0
  0
VERTEX
  5
AD
330
A3
100
AcDbEntity
  8
_U+30EC_U+30A4_U+30E4_U+30FC 1
 62
   179
420
  2234388
370
    25
100
AcDbVertex
100
AcDb2dVertex
 10
100.6172676470666
 20
-162.2167995471194
 30
0.0
  0
VERTEX
  5
AE
330
A3
100
AcDbEntity
  8
_U+30EC_U+30A4_U+30E4_U+30FC 1
 62
   179
420
  2234388
370
    25
100
AcDbVertex
100
AcDb2dVertex
 10
100.6172676470666
 20
-137.2171842443958
 30
0.0
  0
SEQEND
  5
AF
330
A3
100
AcDbEntity
  8
_U+30EC_U+30A4_U+30E4_U+30FC 1
 62
   179
420
  2234388
370
    25
  0
ENDSEC
  0
SECTION
  2
OBJECTS
  0
DICTIONARY
  5
C
330
0
100
AcDbDictionary
281
     1
  3
ACAD_GROUP
350
D
  3
ACAD_LAYOUT
350
1A
  3
ACAD_MATERIAL
350
3B
  3
ACAD_MLEADERSTYLE
350
B1
  3
ACAD_MLINESTYLE
350
17
  3
ACAD_PLOTSETTINGS
350
19
  3
ACAD_PLOTSTYLENAME
350
E
  3
ACAD_TABLESTYLE
350
B0
  3
ACAD_VISUALSTYLE
350
2A
  0
SUN
  5
3F
330
29
100
AcDbSun
 90
        1
290
     0
 63
     7
421
 16777215
 40
1.0
291
     1
 91
  2455826
 92
 54000000
292
     0
 70
     2
 71
   256
280
     1
  0
DICTIONARY
  5
D
102
{ACAD_REACTORS
330
C
102
}
330
C
100
AcDbDictionary
281
     1
  0
DICTIONARY
  5
1A
102
{ACAD_REACTORS
330
C
102
}
330
C
100
AcDbDictionary
281
     1
  3
Layout1
350
1E
  3
Layout2
350
26
  3
Model
350
22
  0
DICTIONARY
  5
3B
102
{ACAD_REACTORS
330
C
102
}
330
C
100
AcDbDictionary
281
     1
  3
ByBlock
350
3D
  3
ByLayer
350
3C
  3
Global
350
3E
  0
DICTIONARY
  5
B1
102
{ACAD_REACTORS
330
C
102
}
330
C
100
AcDbDictionary
281
     1
  0
DICTIONARY
  5
17
102
{ACAD_REACTORS
330
C
102
}
330
C
100
AcDbDictionary
281
     1
  3
Standard
350
18
  0
DICTIONARY
  5
19
102
{ACAD_REACTORS
330
C
102
}
330
C
100
AcDbDictionary
281
     1
  0
ACDBDICTIONARYWDFLT
  5
E
102
{ACAD_REACTORS
330
C
102
}
330
C
100
AcDbDictionary
281
     1
  3
Normal
350
F
100
AcDbDictionaryWithDefault
340
F
  0
DICTIONARY
  5
B0
102
{ACAD_REACTORS
330
C
102
}
330
C
100
AcDbDictionary
281
     1
  0
DICTIONARY
  5
2A
102
{ACAD_REACTORS
330
C
102
}
330
C
100
AcDbDictionary
281
     1
  3
2dWireframe
350
2F
  3
3D Hidden
350
31
  3
3dWireframe
350
30
  3
Basic
350
32
  3
Brighten
350
36
  3
ColorChange
350
3A
  3
Conceptual
350
34
  3
Dim
350
35
  3
Facepattern
350
39
  3
Flat
350
2B
  3
FlatWithEdges
350
2C
  3
Gouraud
350
2D
  3
GouraudWithEdges
350
2E
  3
Linepattern
350
38
  3
Realistic
350
33
  3
Thicken
350
37
  0
LAYOUT
  5
1E
102
{ACAD_REACTORS
330
1A
102
}
330
1A
100
AcDbPlotSettings
  1

  2
none_device
  4

  6

 40
0.0
 41
0.0
 42
0.0
 43
0.0
 44
0.0
 45
0.0
 46
0.0
 47
0.0
 48
0.0
 49
0.0
140
0.0
141
0.0
142
1.0
143
1.0
 70
   688
 72
     0
 73
     0
 74
     5
  7

 75
    16
 76
     0
 77
     2
 78
   300
147
1.0
148
0.0
149
0.0
100
AcDbLayout
  1
Layout1
 70
     1
 71
     1
 10
0.0
 20
0.0
 11
12.0
 21
9.0
 12
0.0
 22
0.0
 32
0.0
 14
1.000000000000000E+20
 24
1.000000000000000E+20
 34
1.000000000000000E+20
 15
-1.000000000000000E+20
 25
-1.000000000000000E+20
 35
-1.000000000000000E+20
146
0.0
 13
0.0
 23
0.0
 33
0.0
 16
1.0
 26
0.0
 36
0.0
 17
0.0
 27
1.0
 37
0.0
 76
     0
330
1B
  0
LAYOUT
  5
26
102
{ACAD_REACTORS
330
1A
102
}
330
1A
100
AcDbPlotSettings
  1

  2
none_device
  4

  6

 40
0.0
 41
0.0
 42
0.0
 43
0.0
 44
0.0
 45
0.0
 46
0.0
 47
0.0
 48
0.0
 49
0.0
140
0.0
141
0.0
142
1.0
143
1.0
 70
   688
 72
     0
 73
     0
 74
     5
  7

 75
    16
 76
     0
 77
     2
 78
   300
147
1.0
148
0.0
149
0.0
100
AcDbLayout
  1
Layout2
 70
     1
 71
     2
 10
0.0
 20
0.0
 11
0.0
 21
0.0
 12
0.0
 22
0.0
 32
0.0
 14
0.0
 24
0.0
 34
0.0
 15
0.0
 25
0.0
 35
0.0
146
0.0
 13
0.0
 23
0.0
 33
0.0
 16
1.0
 26
0.0
 36
0.0
 17
0.0
 27
1.0
 37
0.0
 76
     0
330
23
  0
LAYOUT
  5
22
102
{ACAD_REACTORS
330
1A
102
}
330
1A
100
AcDbPlotSettings
  1

  2
none_device
  4

  6

 40
0.0
 41
0.0
 42
0.0
 43
0.0
 44
0.0
 45
0.0
 46
0.0
 47
0.0
 48
0.0
 49
0.0
140
0.0
141
0.0
142
1.0
143
1.0
 70
  1712
 72
     0
 73
     0
 74
     0
  7

 75
     0
 76
     0
 77
     2
 78
   300
147
1.0
148
0.0
149
0.0
100
AcDbLayout
  1
Model
 70
     1
 71
     0
 10
0.0
 20
0.0
 11
12.0
 21
9.0
 12
0.0
 22
0.0
 32
0.0
 14
1.000000000000000E+20
 24
1.000000000000000E+20
 34
1.000000000000000E+20
 15
-1.000000000000000E+20
 25
-1.000000000000000E+20
 35
-1.000000000000000E+20
146
0.0
 13
0.0
 23
0.0
 33
0.0
 16
1.0
 26
0.0
 36
0.0
 17
0.0
 27
1.0
 37
0.0
 76
     0
330
1F
331
29
  0
MATERIAL
  5
3D
102
{ACAD_REACTORS
330
3B
102
}
330
3B
100
AcDbMaterial
  1
ByBlock
 72
     1
 94
      127
  0
MATERIAL
  5
3C
102
{ACAD_REACTORS
330
3B
102
}
330
3B
100
AcDbMaterial
  1
ByLayer
 72
     1
 94
      127
  0
MATERIAL
  5
3E
102
{ACAD_REACTORS
330
3B
102
}
330
3B
100
AcDbMaterial
  1
Global
 72
     1
 94
      127
  0
MLINESTYLE
  5
18
102
{ACAD_REACTORS
330
17
102
}
330
17
100
AcDbMlineStyle
  2
Standard
 70
     0
  3

 62
   256
 51
90.0
 52
90.0
 71
     2
 49
0.5
 62
   256
  6
BYLAYER
 49
-0.5
 62
   256
  6
BYLAYER
  0
ACDBPLACEHOLDER
  5
F
102
{ACAD_REACTORS
330
E
102
}
330
E
  0
VISUALSTYLE
  5
2F
102
{ACAD_REACTORS
330
2A
102
}
330
2A
100
AcDbVisualStyle
  2
2dWireframe
 70
     4
177
     2
291
     0
 71
     0
176
     1
 72
     2
176
     1
 73
     0
176
     1
 90
        0
176
     1
 40
-0.6
176
     1
 41
-30.0
176
     1
 62
     5
 63
     7
421
 16777215
176
     1
 74
     1
176
     1
 91
        4
176
     1
 64
     7
176
     1
 65
   257
176
     1
 75
     1
176
     1
175
     1
176
     1
 42
1.0
176
     1
 92
        0
176
     1
 66
   257
176
     1
 43
1.0
176
     1
 76
     1
176
     1
 77
     6
176
     1
 78
     2
176
     1
 67
     7
176
     1
 79
     5
176
     1
170
     0
176
     1
171
     0
176
     1
290
     0
176
     1
 93
        1
176
     1
 44
0.0
176
     1
173
     0
176
     1
  0
VISUALSTYLE
  5
31
102
{ACAD_REACTORS
330
2A
102
}
330
2A
100
AcDbVisualStyle
  2
3D Hidden
 70
     6
177
     2
291
     0
 71
     1
176
     1
 72
     2
176
     1
 73
     2
176
     1
 90
        0
176
     1
 40
-0.6
176
     1
 41
-30.0
176
     1
 62
     5
 63
     7
421
 16777215
176
     1
 74
     2
176
     1
 91
        2
176
     1
 64
     7
176
     1
 65
   257
176
     1
 75
     2
176
     1
175
     1
176
     1
 42
40.0
176
     1
 92
        0
176
     1
 66
   257
176
     1
 43
1.0
176
     1
 76
     1
176
     1
 77
     6
176
     1
 78
     2
176
     1
 67
     7
176
     1
 79
     3
176
     1
170
     0
176
     1
171
     0
176
     1
290
     0
176
     1
 93
        1
176
     1
 44
0.0
176
     1
173
     0
176
     1
  0
VISUALSTYLE
  5
30
102
{ACAD_REACTORS
330
2A
102
}
330
2A
100
AcDbVisualStyle
  2
3dWireframe
 70
     5
177
     2
291
     0
 71
     0
176
     1
 72
     2
176
     1
 73
     0
176
     1
 90
        0
176
     1
 40
-0.6
176
     1
 41
-30.0
176
     1
 62
     5
 63
     7
421
 16777215
176
     1
 74
     1
176
     1
 91
        4
176
     1
 64
     7
176
     1
 65
   257
176
     1
 75
     1
176
     1
175
     1
176
     1
 42
1.0
176
     1
 92
        0
176
     1
 66
   257
176
     1
 43
1.0
176
     1
 76
     1
176
     1
 77
     6
176
     1
 78
     2
176
     1
 67
     7
176
     1
 79
     5
176
     1
170
     0
176
     1
171
     0
176
     1
290
     0
176
     1
 93
        1
176
     1
 44
0.0
176
     1
173
     0
176
     1
  0
VISUALSTYLE
  5
32
102
{ACAD_REACTORS
330
2A
102
}
330
2A
100
AcDbVisualStyle
  2
Basic
 70
     7
177
     2
291
     1
 71
     1
176
     1
 72
     0
176
     1
 73
     1
176
     1
 90
        0
176
     1
 40
-0.6
176
     1
 41
-30.0
176
     1
 62
     5
 63
     7
421
 16777215
176
     1
 74
     0
176
     1
 91
        4
176
     1
 64
     7
176
     1
 65
   257
176
     1
 75
     1
176
     1
175
     1
176
     1
 42
1.0
176
     1
 92
        8
176
     1
 66
     7
176
     1
 43
1.0
176
     1
 76
     1
176
     1
 77
     6
176
     1
 78
     2
176
     1
 67
     7
176
     1
 79
     5
176
     1
170
     0
176
     1
171
     0
176
     1
290
     0
176
     1
 93
        1
176
     1
 44
0.0
176
     1
173
     0
176
     1
  0
VISUALSTYLE
  5
36
102
{ACAD_REACTORS
330
2A
102
}
330
2A
100
AcDbVisualStyle
  2
Brighten
 70
    12
177
     2
291
     1
 71
     2
176
     1
 72
     2
176
     1
 73
     0
176
     1
 90
        0
176
     1
 40
-0.6
176
     1
 41
-30.0
176
     1
 62
     5
 63
     7
421
 16777215
176
     1
 74
     1
176
     1
 91
        4
176
     1
 64
     7
176
     1
 65
   257
176
     1
 75
     1
176
     1
175
     1
176
     1
 42
1.0
176
     1
 92
        8
176
     1
 66
     7
176
     1
 43
1.0
176
     1
 76
     1
176
     1
 77
     6
176
     1
 78
     2
176
     1
 67
     7
176
     1
 79
     5
176
     1
170
     0
176
     1
171
     0
176
     1
290
     0
176
     1
 93
        1
176
     1
 44
50.0
176
     1
173
     0
176
     1
  0
VISUALSTYLE
  5
3A
102
{ACAD_REACTORS
330
2A
102
}
330
2A
100
AcDbVisualStyle
  2
ColorChange
 70
    16
177
     2
291
     1
 71
     2
176
     1
 72
     2
176
     1
 73
     3
176
     1
 90
        0
176
     1
 40
-0.6
176
     1
 41
-30.0
176
     1
 62
     5
 63
     8
421
  8421504
176
     1
 74
     1
176
     1
 91
        4
176
     1
 64
     7
176
     1
 65
   257
176
     1
 75
     1
176
     1
175
     1
176
     1
 42
1.0
176
     1
 92
        8
176
     1
 66
     8
424
  8421504
176
     1
 43
1.0
176
     1
 76
     1
176
     1
 77
     6
176
     1
 78
     2
176
     1
 67
     7
176
     1
 79
     5
176
     1
170
     0
176
     1
171
     0
176
     1
290
     0
176
     1
 93
        1
176
     1
 44
0.0
176
     1
173
     0
176
     1
  0
VISUALSTYLE
  5
34
102
{ACAD_REACTORS
330
2A
102
}
330
2A
100
AcDbVisualStyle
  2
Conceptual
 70
     9
177
     2
291
     0
 71
     3
176
     1
 72
     2
176
     1
 73
     0
176
     1
 90
        0
176
     1
 40
-0.6
176
     1
 41
-30.0
176
     1
 62
     5
 63
     7
421
 16777215
176
     1
 74
     2
176
     1
 91
        2
176
     1
 64
     7
176
     1
 65
   257
176
     1
 75
     1
176
     1
175
     1
176
     1
 42
40.0
176
     1
 92
        8
176
     1
 66
     7
176
     1
 43
1.0
176
     1
 76
     1
176
     1
 77
     6
176
     1
 78
     2
176
     1
 67
     7
176
     1
 79
     3
176
     1
170
     0
176
     1
171
     0
176
     1
290
     0
176
     1
 93
        1
176
     1
 44
0.0
176
     1
173
     0
176
     1
  0
VISUALSTYLE
  5
35
102
{ACAD_REACTORS
330
2A
102
}
330
2A
100
AcDbVisualStyle
  2
Dim
 70
    11
177
     2
291
     1
 71
     2
176
     1
 72
     2
176
     1
 73
     0
176
     1
 90
        0
176
     1
 40
-0.6
176
     1
 41
-30.0
176
     1
 62
     5
 63
     7
421
 16777215
176
     1
 74
     1
176
     1
 91
        4
176
     1
 64
     7
176
     1
 65
   257
176
     1
 75
     1
176
     1
175
     1
176
     1
 42
1.0
176
     1
 92
        8
176
     1
 66
     7
176
     1
 43
1.0
176
     1
 76
     1
176
     1
 77
     6
176
     1
 78
     2
176
     1
 67
     7
176
     1
 79
     5
176
     1
170
     0
176
     1
171
     0
176
     1
290
     0
176
     1
 93
        1
176
     1
 44
-50.0
176
     1
173
     0
176
     1
  0
VISUALSTYLE
  5
39
102
{ACAD_REACTORS
330
2A
102
}
330
2A
100
AcDbVisualStyle
  2
Facepattern
 70
    15
177
     2
291
     1
 71
     2
176
     1
 72
     2
176
     1
 73
     0
176
     1
 90
        0
176
     1
 40
-0.6
176
     1
 41
-30.0
176
     1
 62
     5
 63
     7
421
 16777215
176
     1
 74
     1
176
     1
 91
        4
176
     1
 64
     7
176
     1
 65
   257
176
     1
 75
     1
176
     1
175
     1
176
     1
 42
1.0
176
     1
 92
        8
176
     1
 66
     7
176
     1
 43
1.0
176
     1
 76
     1
176
     1
 77
     6
176
     1
 78
     2
176
     1
 67
     7
176
     1
 79
     5
176
     1
170
     0
176
     1
171
     0
176
     1
290
     0
176
     1
 93
        1
176
     1
 44
0.0
176
     1
173
     0
176
     1
  0
VISUALSTYLE
  5
2B
102
{ACAD_REACTORS
330
2A
102
}
330
2A
100
AcDbVisualStyle
  2
Flat
 70
     0
177
     2
291
     1
 71
     2
176
     1
 72
     1
176
     1
 73
     1
176
     1
 90
        2
176
     1
 40
-0.6
176
     1
 41
30.0
176
     1
 62
     5
 63
     7
421
 16777215
176
     1
 74
     0
176
     1
 91
        4
176
     1
 64
     7
176
     1
 65
   257
176
     1
 75
     1
176
     1
175
     1
176
     1
 42
1.0
176
     1
 92
        8
176
     1
 66
     7
176
     1
 43
1.0
176
     1
 76
     1
176
     1
 77
     6
176
     1
 78
     2
176
     1
 67
     7
176
     1
 79
     5
176
     1
170
     0
176
     1
171
     0
176
     1
290
     0
176
     1
 93
       13
176
     1
 44
0.0
176
     1
173
     0
176
     1
  0
VISUALSTYLE
  5
2C
102
{ACAD_REACTORS
330
2A
102
}
330
2A
100
AcDbVisualStyle
  2
FlatWithEdges
 70
     1
177
     2
291
     1
 71
     2
176
     1
 72
     1
176
     1
 73
     1
176
     1
 90
        2
176
     1
 40
-0.6
176
     1
 41
30.0
176
     1
 62
     5
 63
     7
421
 16777215
176
     1
 74
     1
176
     1
 91
        4
176
     1
 64
     7
176
     1
 65
   257
176
     1
 75
     1
176
     1
175
     1
176
     1
 42
1.0
176
     1
 92
        0
176
     1
 66
   257
176
     1
 43
1.0
176
     1
 76
     1
176
     1
 77
     6
176
     1
 78
     2
176
     1
 67
     7
176
     1
 79
     5
176
     1
170
     0
176
     1
171
     0
176
     1
290
     0
176
     1
 93
       13
176
     1
 44
0.0
176
     1
173
     0
176
     1
  0
VISUALSTYLE
  5
2D
102
{ACAD_REACTORS
330
2A
102
}
330
2A
100
AcDbVisualStyle
  2
Gouraud
 70
     2
177
     2
291
     1
 71
     2
176
     1
 72
     2
176
     1
 73
     1
176
     1
 90
        2
176
     1
 40
-0.6
176
     1
 41
30.0
176
     1
 62
     5
 63
     7
421
 16777215
176
     1
 74
     0
176
     1
 91
        4
176
     1
 64
     7
176
     1
 65
   257
176
     1
 75
     1
176
     1
175
     1
176
     1
 42
1.0
176
     1
 92
        0
176
     1
 66
     7
176
     1
 43
1.0
176
     1
 76
     1
176
     1
 77
     6
176
     1
 78
     2
176
     1
 67
     7
176
     1
 79
     5
176
     1
170
     0
176
     1
171
     0
176
     1
290
     0
176
     1
 93
       13
176
     1
 44
0.0
176
     1
173
     0
176
     1
  0
VISUALSTYLE
  5
2E
102
{ACAD_REACTORS
330
2A
102
}
330
2A
100
AcDbVisualStyle
  2
GouraudWithEdges
 70
     3
177
     2
291
     1
 71
     2
176
     1
 72
     2
176
     1
 73
     1
176
     1
 90
        2
176
     1
 40
-0.6
176
     1
 41
30.0
176
     1
 62
     5
 63
     7
421
 16777215
176
     1
 74
     1
176
     1
 91
        4
176
     1
 64
     7
176
     1
 65
   257
176
     1
 75
     1
176
     1
175
     1
176
     1
 42
1.0
176
     1
 92
        0
176
     1
 66
   257
176
     1
 43
1.0
176
     1
 76
     1
176
     1
 77
     6
176
     1
 78
     2
176
     1
 67
     7
176
     1
 79
     5
176
     1
170
     0
176
     1
171
     0
176
     1
290
     0
176
     1
 93
       13
176
     1
 44
0.0
176
     1
173
     0
176
     1
  0
VISUALSTYLE
  5
38
102
{ACAD_REACTORS
330
2A
102
}
330
2A
100
AcDbVisualStyle
  2
Linepattern
 70
    14
177
     2
291
     1
 71
     2
176
     1
 72
     2
176
     1
 73
     0
176
     1
 90
        0
176
     1
 40
-0.6
176
     1
 41
-30.0
176
     1
 62
     5
 63
     7
421
 16777215
176
     1
 74
     1
176
     1
 91
        4
176
     1
 64
     7
176
     1
 65
   257
176
     1
 75
     7
176
     1
175
     7
176
     1
 42
1.0
176
     1
 92
        8
176
     1
 66
     7
176
     1
 43
1.0
176
     1
 76
     1
176
     1
 77
     6
176
     1
 78
     2
176
     1
 67
     7
176
     1
 79
     5
176
     1
170
     0
176
     1
171
     0
176
     1
290
     0
176
     1
 93
        1
176
     1
 44
0.0
176
     1
173
     0
176
     1
  0
VISUALSTYLE
  5
33
102
{ACAD_REACTORS
330
2A
102
}
330
2A
100
AcDbVisualStyle
  2
Realistic
 70
     8
177
     2
291
     0
 71
     2
176
     1
 72
     2
176
     1
 73
     0
176
     1
 90
        0
176
     1
 40
-0.6
176
     1
 41
-30.0
176
     1
 62
     5
 63
     7
421
 16777215
176
     1
 74
     1
176
     1
 91
        0
176
     1
 64
     7
176
     1
 65
   257
176
     1
 75
     1
176
     1
175
     1
176
     1
 42
1.0
176
     1
 92
        8
176
     1
 66
     8
424
  7895160
176
     1
 43
1.0
176
     1
 76
     1
176
     1
 77
     6
176
     1
 78
     2
176
     1
 67
     7
176
     1
 79
     5
176
     1
170
     0
176
     1
171
     0
176
     1
290
     0
176
     1
 93
       13
176
     1
 44
0.0
176
     1
173
     0
176
     1
  0
VISUALSTYLE
  5
37
102
{ACAD_REACTORS
330
2A
102
}
330
2A
100
AcDbVisualStyle
  2
Thicken
 70
    13
177
     2
291
     1
 71
     2
176
     1
 72
     2
176
     1
 73
     0
176
     1
 90
        0
176
     1
 40
-0.6
176
     1
 41
-30.0
176
     1
 62
     5
 63
     7
421
 16777215
176
     1
 74
     1
176
     1
 91
        4
176
     1
 64
     7
176
     1
 65
   257
176
     1
 75
     1
176
     1
175
     1
176
     1
 42
1.0
176
     1
 92
       12
176
     1
 66
     7
176
     1
 43
1.0
176
     1
 76
     1
176
     1
 77
     6
176
     1
 78
     2
176
     1
 67
     7
176
     1
 79
     5
176
     1
170
     0
176
     1
171
     0
176
     1
290
     0
176
     1
 93
        1
176
     1
 44
0.0
176
     1
173
     0
176
     1
  0
ENDSEC
  0
EOF
