  0
SECTION
  2
HEADER
  9
$ACADVER
  1
AC1024
  9
$ACADMAINTVER
 70
     6
  9
$DWGCODEPAGE
  3
UNDEFINED
  9
$INSBASE
 10
0.0
 20
0.0
 30
0.0
  9
$EXTMIN
 10
1.000000000000000E+20
 20
1.000000000000000E+20
 30
1.000000000000000E+20
  9
$EXTMAX
 10
-1.000000000000000E+20
 20
-1.000000000000000E+20
 30
-1.000000000000000E+20
  9
$LIMMIN
 10
0.0
 20
0.0
  9
$LIMMAX
 10
12.0
 20
9.0
  9
$ORTHOMODE
 70
     0
  9
$REGENMODE
 70
     1
  9
$FILLMODE
 70
     1
  9
$QTEXTMODE
 70
     0
  9
$MIRRTEXT
 70
     1
  9
$LTSCALE
 40
1.0
  9
$ATTMODE
 70
     1
  9
$TEXTSIZE
 40
0.2
  9
$TRACEWID
 40
0.05
  9
$TEXTSTYLE
  7
Standard
  9
$CLAYER
  8
0
  9
$CELTYPE
  6
ByLayer
  9
$CECOLOR
 62
   256
  9
$CELTSCALE
 40
1.0
  9
$DISPSILH
 70
     0
  9
$DIMSCALE
 40
1.0
  9
$DIMASZ
 40
0.18
  9
$DIMEXO
 40
0.0625
  9
$DIMDLI
 40
0.38
  9
$DIMRND
 40
0.0
  9
$DIMDLE
 40
0.0
  9
$DIMEXE
 40
0.18
  9
$DIMTP
 40
0.0
  9
$DIMTM
 40
0.0
  9
$DIMTXT
 40
0.18
  9
$DIMCEN
 40
0.09
  9
$DIMTSZ
 40
0.0
  9
$DIMTOL
 70
     0
  9
$DIMLIM
 70
     0
  9
$DIMTIH
 70
     1
  9
$DIMTOH
 70
     1
  9
$DIMSE1
 70
     0
  9
$DIMSE2
 70
     0
  9
$DIMTAD
 70
     0
  9
$DIMZIN
 70
     0
  9
$DIMBLK
  1

  9
$DIMASO
 70
     1
  9
$DIMSHO
 70
     1
  9
$DIMPOST
  1

  9
$DIMAPOST
  1

  9
$DIMALT
 70
     0
  9
$DIMALTD
 70
     2
  9
$DIMALTF
 40
25.4
  9
$DIMLFAC
 40
1.0
  9
$DIMTOFL
 70
     0
  9
$DIMTVP
 40
0.0
  9
$DIMTIX
 70
     0
  9
$DIMSOXD
 70
     0
  9
$DIMSAH
 70
     0
  9
$DIMBLK1
  1

  9
$DIMBLK2
  1

  9
$DIMSTYLE
  2
Standard
  9
$DIMCLRD
 70
     0
  9
$DIMCLRE
 70
     0
  9
$DIMCLRT
 70
     0
  9
$DIMTFAC
 40
1.0
  9
$DIMGAP
 40
0.09
  9
$DIMJUST
 70
     0
  9
$DIMSD1
 70
     0
  9
$DIMSD2
 70
     0
  9
$DIMTOLJ
 70
     1
  9
$DIMTZIN
 70
     0
  9
$DIMALTZ
 70
     0
  9
$DIMALTTZ
 70
     0
  9
$DIMUPT
 70
     0
  9
$DIMDEC
 70
     4
  9
$DIMTDEC
 70
     4
  9
$DIMALTU
 70
     2
  9
$DIMALTTD
 70
     2
  9
$DIMTXSTY
  7
Standard
  9
$DIMAUNIT
 70
     0
  9
$DIMADEC
 70
     0
  9
$DIMALTRND
 40
0.0
  9
$DIMAZIN
 70
     0
  9
$DIMDSEP
 70
    46
  9
$DIMATFIT
 70
     3
  9
$DIMFRAC
 70
     0
  9
$DIMLDRBLK
  1

  9
$DIMLUNIT
 70
     2
  9
$DIMLWD
 70
    -2
  9
$DIMLWE
 70
    -2
  9
$DIMTMOVE
 70
     0
  9
$DIMFXL
 40
1.0
  9
$DIMFXLON
 70
     0
  9
$DIMJOGANG
 40
0.7853981633974483
  9
$DIMTFILL
 70
     0
  9
$DIMTFILLCLR
 70
     0
  9
$DIMARCSYM
 70
     0
  9
$DIMLTYPE
  6

  9
$DIMLTEX1
  6

  9
$DIMLTEX2
  6

  9
$DIMTXTDIRECTION
 70
     0
  9
$LUNITS
 70
     2
  9
$LUPREC
 70
     4
  9
$SKETCHINC
 40
0.1
  9
$FILLETRAD
 40
0.5
  9
$AUNITS
 70
     0
  9
$AUPREC
 70
     0
  9
$MENU
  1
.
  9
$ELEVATION
 40
0.0
  9
$PELEVATION
 40
0.0
  9
$THICKNESS
 40
0.0
  9
$LIMCHECK
 70
     0
  9
$CHAMFERA
 40
0.5
  9
$CHAMFERB
 40
0.5
  9
$CHAMFERC
 40
1.0
  9
$CHAMFERD
 40
0.0
  9
$SKPOLY
 70
     0
  9
$TDCREATE
 40
2457917.610891204
  9
$TDUCREATE
 40
2457917.235891204
  9
$TDUPDATE
 40
2457917.610891204
  9
$TDUUPDATE
 40
2457917.235891204
  9
$TDINDWG
 40
0.0000000116
  9
$TDUSRTIMER
 40
0.0000000116
  9
$USRTIMER
 70
     1
  9
$ANGBASE
 50
0.0
  9
$ANGDIR
 70
     0
  9
$PDMODE
 70
     0
  9
$PDSIZE
 40
0.0
  9
$PLINEWID
 40
0.0
  9
$SPLFRAME
 70
     0
  9
$SPLINETYPE
 70
     6
  9
$SPLINESEGS
 70
     8
  9
$HANDSEED
  5
F2
  9
$SURFTAB1
 70
     6
  9
$SURFTAB2
 70
     6
  9
$SURFTYPE
 70
     6
  9
$SURFU
 70
     6
  9
$SURFV
 70
     6
  9
$UCSBASE
  2

  9
$UCSNAME
  2

  9
$UCSORG
 10
0.0
 20
0.0
 30
0.0
  9
$UCSXDIR
 10
1.0
 20
0.0
 30
0.0
  9
$UCSYDIR
 10
0.0
 20
1.0
 30
0.0
  9
$UCSORTHOREF
  2

  9
$UCSORTHOVIEW
 70
     0
  9
$UCSORGTOP
 10
0.0
 20
0.0
 30
0.0
  9
$UCSORGBOTTOM
 10
0.0
 20
0.0
 30
0.0
  9
$UCSORGLEFT
 10
0.0
 20
0.0
 30
0.0
  9
$UCSORGRIGHT
 10
0.0
 20
0.0
 30
0.0
  9
$UCSORGFRONT
 10
0.0
 20
0.0
 30
0.0
  9
$UCSORGBACK
 10
0.0
 20
0.0
 30
0.0
  9
$PUCSBASE
  2

  9
$PUCSNAME
  2

  9
$PUCSORG
 10
0.0
 20
0.0
 30
0.0
  9
$PUCSXDIR
 10
1.0
 20
0.0
 30
0.0
  9
$PUCSYDIR
 10
0.0
 20
1.0
 30
0.0
  9
$PUCSORTHOREF
  2

  9
$PUCSORTHOVIEW
 70
     0
  9
$PUCSORGTOP
 10
0.0
 20
0.0
 30
0.0
  9
$PUCSORGBOTTOM
 10
0.0
 20
0.0
 30
0.0
  9
$PUCSORGLEFT
 10
0.0
 20
0.0
 30
0.0
  9
$PUCSORGRIGHT
 10
0.0
 20
0.0
 30
0.0
  9
$PUCSORGFRONT
 10
0.0
 20
0.0
 30
0.0
  9
$PUCSORGBACK
 10
0.0
 20
0.0
 30
0.0
  9
$USERI1
 70
     0
  9
$USERI2
 70
     0
  9
$USERI3
 70
     0
  9
$USERI4
 70
     0
  9
$USERI5
 70
     0
  9
$USERR1
 40
0.0
  9
$USERR2
 40
0.0
  9
$USERR3
 40
0.0
  9
$USERR4
 40
0.0
  9
$USERR5
 40
0.0
  9
$WORLDVIEW
 70
     1
  9
$SHADEDGE
 70
     3
  9
$SHADEDIF
 70
    70
  9
$TILEMODE
 70
     1
  9
$MAXACTVP
 70
    64
  9
$PINSBASE
 10
0.0
 20
0.0
 30
0.0
  9
$PLIMCHECK
 70
     0
  9
$PEXTMIN
 10
1.000000000000000E+20
 20
1.000000000000000E+20
 30
1.000000000000000E+20
  9
$PEXTMAX
 10
-1.000000000000000E+20
 20
-1.000000000000000E+20
 30
-1.000000000000000E+20
  9
$PLIMMIN
 10
0.0
 20
0.0
  9
$PLIMMAX
 10
12.0
 20
9.0
  9
$UNITMODE
 70
     0
  9
$VISRETAIN
 70
     1
  9
$PLINEGEN
 70
     0
  9
$PSLTSCALE
 70
     1
  9
$TREEDEPTH
 70
  3020
  9
$CMLSTYLE
  2
Standard
  9
$CMLJUST
 70
     0
  9
$CMLSCALE
 40
1.0
  9
$PROXYGRAPHICS
 70
     1
  9
$MEASUREMENT
 70
     0
  9
$CELWEIGHT
370
    -1
  9
$ENDCAPS
280
     0
  9
$JOINSTYLE
280
     0
  9
$LWDISPLAY
290
     1
  9
$INSUNITS
 70
     1
  9
$HYPERLINKBASE
  1

  9
$STYLESHEET
  1

  9
$XEDIT
290
     1
  9
$CEPSNTYPE
380
     0
  9
$PSTYLEMODE
290
     1
  9
$FINGERPRINTGUID
  2
{4689F480-D2EC-B4DF-7DAB-BDED166ABAE0}
  9
$VERSIONGUID
  2
{FAEB1C32-E019-11D5-929B-00C0DF256EC4}
  9
$EXTNAMES
290
     1
  9
$PSVPSCALE
 40
0.0
  9
$OLESTARTUP
290
     0
  9
$SORTENTS
280
   127
  9
$INDEXCTL
280
     0
  9
$HIDETEXT
280
     1
  9
$XCLIPFRAME
280
     2
  9
$HALOGAP
280
     0
  9
$OBSCOLOR
 70
   257
  9
$OBSLTYPE
280
     0
  9
$INTERSECTIONDISPLAY
280
     0
  9
$INTERSECTIONCOLOR
 70
   257
  9
$DIMASSOC
280
     2
  9
$PROJECTNAME
  1

  9
$CAMERADISPLAY
290
     0
  9
$LENSLENGTH
 40
50.0
  9
$CAMERAHEIGHT
 40
0.0
  9
$STEPSPERSEC
 40
2.0
  9
$STEPSIZE
 40
6.0
  9
$3DDWFPREC
 40
2.0
  9
$PSOLWIDTH
 40
0.25
  9
$PSOLHEIGHT
 40
4.0
  9
$LOFTANG1
 40
1.570796326794897
  9
$LOFTANG2
 40
1.570796326794897
  9
$LOFTMAG1
 40
0.0
  9
$LOFTMAG2
 40
0.0
  9
$LOFTPARAM
 70
     7
  9
$LOFTNORMALS
280
     1
  9
$LATITUDE
 40
37.795
  9
$LONGITUDE
 40
-122.394
  9
$NORTHDIRECTION
 40
0.0
  9
$TIMEZONE
 70
 -8000
  9
$LIGHTGLYPHDISPLAY
280
     1
  9
$TILEMODELIGHTSYNCH
280
     1
  9
$CMATERIAL
347
3C
  9
$SOLIDHIST
280
     1
  9
$SHOWHIST
280
     1
  9
$DWFFRAME
280
     2
  9
$DGNFRAME
280
     2
  9
$REALWORLDSCALE
290
     1
  9
$INTERFERECOLOR
 62
   256
  9
$CSHADOW
280
     0
  9
$SHADOWPLANELOCATION
 40
0.0
  0
ENDSEC
  0
SECTION
  2
CLASSES
  0
CLASS
  1
ACDBDICTIONARYWDFLT
  2
AcDbDictionaryWithDefault
  3
ObjectDBX Classes
 90
        0
 91
        4
280
     0
281
     0
  0
CLASS
  1
VISUALSTYLE
  2
AcDbVisualStyle
  3
ObjectDBX Classes
 90
     4095
 91
        4
280
     0
281
     0
  0
CLASS
  1
MATERIAL
  2
AcDbMaterial
  3
ObjectDBX Classes
 90
     1153
 91
        4
280
     0
281
     0
  0
CLASS
  1
SUN
  2
AcDbSun
  3
SCENEOE
 90
     1024
 91
        4
280
     0
281
     0
  0
ENDSEC
  0
SECTION
  2
TABLES
  0
TABLE
  2
VPORT
  5
8
330
0
100
AcDbSymbolTable
 70
     1
  0
VPORT
  5
29
330
8
100
AcDbSymbolTableRecord
100
AcDbViewportTableRecord
  2
*Active
 70
     0
 10
0.0
 20
0.0
 11
1.0
 21
1.0
 12
0.0
 22
0.0
 13
0.0
 23
0.0
 14
0.5
 24
0.5
 15
0.5
 25
0.5
 16
0.0
 26
0.0
 36
1.0
 17
63.499999984125
 27
-89.00059456108309
 37
0.0
 40
178.0011891221662
 41
0.7134783795241226
 42
50.0
 43
0.0
 44
0.0
 50
0.0
 51
0.0
 71
     0
 72
   100
 73
     1
 74
     3
 75
     0
 76
     0
 77
     0
 78
     0
281
     0
 65
     1
110
0.0
120
0.0
130
0.0
111
1.0
121
0.0
131
0.0
112
0.0
122
1.0
132
0.0
 79
     0
146
0.0
 60
     3
 61
     5
292
     1
282
     1
141
0.0
142
0.0
 63
   250
361
3F
  0
ENDTAB
  0
TABLE
  2
LTYPE
  5
5
330
0
100
AcDbSymbolTable
 70
     1
  0
LTYPE
  5
14
330
5
100
AcDbSymbolTableRecord
100
AcDbLinetypeTableRecord
  2
ByBlock
 70
     0
  3

 72
    65
 73
     0
 40
0.0
  0
LTYPE
  5
15
330
5
100
AcDbSymbolTableRecord
100
AcDbLinetypeTableRecord
  2
ByLayer
 70
     0
  3

 72
    65
 73
     0
 40
0.0
  0
LTYPE
  5
16
330
5
100
AcDbSymbolTableRecord
100
AcDbLinetypeTableRecord
  2
Continuous
 70
     0
  3
Solid line
 72
    65
 73
     0
 40
0.0
  0
ENDTAB
  0
TABLE
  2
LAYER
  5
2
330
0
100
AcDbSymbolTable
 70
     2
  0
LAYER
  5
10
330
2
100
AcDbSymbolTableRecord
100
AcDbLayerTableRecord
  2
0
 70
     0
 62
     7
  6
Continuous
370
    -3
390
F
347
3E
  0
LAYER
  5
40
330
2
100
AcDbSymbolTableRecord
100
AcDbLayerTableRecord
  2
_U+30EC_U+30A4_U+30E4_U+30FC 1
 70
     0
 62
     7
  6
Continuous
370
    -3
390
F
347
3E
  0
ENDTAB
  0
TABLE
  2
STYLE
  5
3
330
0
100
AcDbSymbolTable
 70
     1
  0
STYLE
  5
11
330
3
100
AcDbSymbolTableRecord
100
AcDbTextStyleTableRecord
  2
Standard
 70
     0
 40
0.0
 41
1.0
 50
0.0
 71
     0
 42
0.2
  3
txt
  4

  0
ENDTAB
  0
TABLE
  2
VIEW
  5
6
330
0
100
AcDbSymbolTable
 70
     0
  0
ENDTAB
  0
TABLE
  2
UCS
  5
7
330
0
100
AcDbSymbolTable
 70
     0
  0
ENDTAB
  0
TABLE
  2
APPID
  5
9
330
0
100
AcDbSymbolTable
 70
     1
  0
APPID
  5
12
330
9
100
AcDbSymbolTableRecord
100
AcDbRegAppTableRecord
  2
ACAD
 70
     0
  0
ENDTAB
  0
TABLE
  2
DIMSTYLE
  5
A
330
0
100
AcDbSymbolTable
 70
     1
100
AcDbDimStyleTable
  0
DIMSTYLE
105
27
330
A
100
AcDbSymbolTableRecord
100
AcDbDimStyleTableRecord
  2
Standard
 70
     0
178
     0
340
11
  0
ENDTAB
  0
TABLE
  2
BLOCK_RECORD
  5
1
330
0
100
AcDbSymbolTable
 70
     6
  0
BLOCK_RECORD
  5
1F
330
1
100
AcDbSymbolTableRecord
100
AcDbBlockTableRecord
  2
*Model_Space
340
22
 70
     0
280
     1
281
     0
  0
BLOCK_RECORD
  5
1B
330
1
100
AcDbSymbolTableRecord
100
AcDbBlockTableRecord
  2
*Paper_Space
340
1E
 70
     0
280
     1
281
     0
  0
BLOCK_RECORD
  5
23
330
1
100
AcDbSymbolTableRecord
100
AcDbBlockTableRecord
  2
*Paper_Space0
340
26
 70
     0
280
     1
281
     0
  0
BLOCK_RECORD
  5
76
330
1
100
AcDbSymbolTableRecord
100
AcDbBlockTableRecord
  2
block 2
340
0
102
{BLKREFS
331
77
102
}
 70
     0
280
     1
281
     0
  0
BLOCK_RECORD
  5
98
330
1
100
AcDbSymbolTableRecord
100
AcDbBlockTableRecord
  2
block 3
340
0
102
{BLKREFS
331
99
102
}
 70
     0
280
     1
281
     0
  0
BLOCK_RECORD
  5
AA
330
1
100
AcDbSymbolTableRecord
100
AcDbBlockTableRecord
  2
block 4
340
0
102
{BLKREFS
331
AB
102
}
 70
     0
280
     1
281
     0
  0
BLOCK_RECORD
  5
CB
330
1
100
AcDbSymbolTableRecord
100
AcDbBlockTableRecord
  2
block 5
340
0
102
{BLKREFS
331
CC
102
}
 70
     0
280
     1
281
     0
  0
BLOCK_RECORD
  5
E7
330
1
100
AcDbSymbolTableRecord
100
AcDbBlockTableRecord
  2
block 6
340
0
102
{BLKREFS
331
E8
102
}
 70
     0
280
     1
281
     0
  0
ENDTAB
  0
ENDSEC
  0
SECTION
  2
BLOCKS
  0
BLOCK
  5
20
330
1F
100
AcDbEntity
  8
0
100
AcDbBlockBegin
  2
*Model_Space
 70
     0
 10
0.0
 20
0.0
 30
0.0
  3
*Model_Space
  1

  0
ENDBLK
  5
21
330
1F
100
AcDbEntity
  8
0
100
AcDbBlockEnd
  0
BLOCK
  5
1C
330
1B
100
AcDbEntity
 67
     1
  8
0
100
AcDbBlockBegin
  2
*Paper_Space
 70
     0
 10
0.0
 20
0.0
 30
0.0
  3
*Paper_Space
  1

  0
ENDBLK
  5
1D
330
1B
100
AcDbEntity
 67
     1
  8
0
100
AcDbBlockEnd
  0
BLOCK
  5
24
330
23
100
AcDbEntity
  8
0
100
AcDbBlockBegin
  2
*Paper_Space0
 70
     0
 10
0.0
 20
0.0
 30
0.0
  3
*Paper_Space0
  1

  0
ENDBLK
  5
25
330
23
100
AcDbEntity
  8
0
100
AcDbBlockEnd
  0
BLOCK
  5
78
330
76
100
AcDbEntity
  8
0
100
AcDbBlockBegin
  2
block 2
 70
     0
 10
0.0
 20
0.0
 30
0.0
  3
block 2
  1

  0
SPLINE
  5
7A
330
76
100
AcDbEntity
  8
_U+30EC_U+30A4_U+30E4_U+30FC 1
370
     0
100
AcDbSpline
210
0.0
220
0.0
230
1.0
 70
    11
 71
     3
 72
    29
 73
    25
 74
     0
 42
0.0000000001
 43
0.0000000001
 12
1.0
 22
0.0
 32
0.0
 13
1.0
 23
0.0
 33
0.0
 40
0.0
 40
0.0
 40
0.0
 40
0.0
 40
1.0
 40
1.0
 40
1.0
 40
2.0
 40
2.0
 40
2.0
 40
3.0
 40
3.0
 40
3.0
 40
4.0
 40
4.0
 40
4.0
 40
5.0
 40
5.0
 40
5.0
 40
6.0
 40
6.0
 40
6.0
 40
7.0
 40
7.0
 40
7.0
 40
8.0
 40
8.0
 40
8.0
 40
8.0
 10
49.84071314943218
 20
-90.34108341925501
 30
0.0
 10
49.84071314943218
 20
-90.62599281588517
 30
0.0
 10
49.70325383957071
 20
-90.89712183057433
 30
0.0
 10
49.35426566691491
 20
-90.89712183057433
 30
0.0
 10
49.09829507236085
 20
-90.89712183057433
 30
0.0
 10
49.00303818219368
 20
-90.74553762922334
 30
0.0
 10
48.94171548255624
 20
-90.63253849730715
 30
0.0
 10
48.88245984020994
 20
-90.76586369258632
 30
0.0
 10
48.76825492487391
 20
-90.84751245558674
 30
0.0
 10
48.60754122048701
 20
-90.84751245558674
 30
0.0
 10
48.33245034598981
 20
-90.84751245558674
 30
0.0
 10
48.19705809341949
 20
-90.63495006414682
 30
0.0
 10
48.19705809341949
 20
-90.34108341925501
 30
0.0
 10
48.19705809341949
 20
-90.03791501655303
 30
0.0
 10
48.34089082992867
 20
-89.83465438292329
 30
0.0
 10
48.60754122048701
 20
-89.83465438292329
 30
0.0
 10
48.76825492487391
 20
-89.83465438292329
 30
0.0
 10
48.88245984020994
 20
-89.91802569366634
 30
0.0
 10
48.94171548255624
 20
-90.05169539849402
 30
0.0
 10
48.99253064096367
 20
-89.95661076310112
 30
0.0
 10
49.08778753113084
 20
-89.78711206522684
 30
0.0
 10
49.35013155233261
 20
-89.78711206522684
 30
0.0
 10
49.72461343157926
 20
-89.78711206522684
 30
0.0
 10
49.84071314943218
 20
-90.08545733424947
 30
0.0
 10
49.84071314943218
 20
-90.34108341925501
 30
0.0
  0
SPLINE
  5
7B
330
76
100
AcDbEntity
  8
_U+30EC_U+30A4_U+30E4_U+30FC 1
370
     0
100
AcDbSpline
210
0.0
220
0.0
230
1.0
 70
    11
 71
     3
 72
    17
 73
    13
 74
     0
 42
0.0000000001
 43
0.0000000001
 12
1.0
 22
0.0
 32
0.0
 13
1.0
 23
0.0
 33
0.0
 40
0.0
 40
0.0
 40
0.0
 40
0.0
 40
1.0
 40
1.0
 40
1.0
 40
2.0
 40
2.0
 40
2.0
 40
3.0
 40
3.0
 40
3.0
 40
4.0
 40
4.0
 40
4.0
 40
4.0
 10
48.38963893104496
 20
-90.34108341925501
 30
0.0
 10
48.38963893104496
 20
-90.51712779855127
 30
0.0
 10
48.48472356643785
 20
-90.60773380981335
 30
0.0
 10
48.62011581900817
 20
-90.60773380981335
 30
0.0
 10
48.74293347305733
 20
-90.60773380981335
 30
0.0
 10
48.86144475774992
 20
-90.53090818049228
 30
0.0
 10
48.86144475774992
 20
-90.34108341925501
 30
0.0
 10
48.86144475774992
 20
-90.15091414846923
 30
0.0
 10
48.74293347305733
 20
-90.07408851914815
 30
0.0
 10
48.62011581900817
 20
-90.07408851914815
 30
0.0
 10
48.48472356643785
 20
-90.07408851914815
 30
0.0
 10
48.38963893104496
 20
-90.16676158770137
 30
0.0
 10
48.38963893104496
 20
-90.34108341925501
 30
0.0
  0
SPLINE
  5
7C
330
76
100
AcDbEntity
  8
_U+30EC_U+30A4_U+30E4_U+30FC 1
370
     0
100
AcDbSpline
210
0.0
220
0.0
230
1.0
 70
    11
 71
     3
 72
    17
 73
    13
 74
     0
 42
0.0000000001
 43
0.0000000001
 12
1.0
 22
0.0
 32
0.0
 13
1.0
 23
0.0
 33
0.0
 40
0.0
 40
0.0
 40
0.0
 40
0.0
 40
1.0
 40
1.0
 40
1.0
 40
2.0
 40
2.0
 40
2.0
 40
3.0
 40
3.0
 40
3.0
 40
4.0
 40
4.0
 40
4.0
 40
4.0
 10
49.04971922601882
 20
-90.34108341925501
 30
0.0
 10
49.04971922601882
 20
-90.49473467789716
 30
0.0
 10
49.13636337747285
 20
-90.65734318480095
 30
0.0
 10
49.33945175632834
 20
-90.65734318480095
 30
0.0
 10
49.54460719247496
 20
-90.65734318480095
 30
0.0
 10
49.64623750928983
 20
-90.52195093223062
 30
0.0
 10
49.64623750928983
 20
-90.34108341925501
 30
0.0
 10
49.64623750928983
 20
-90.14195690020757
 30
0.0
 10
49.52359211001494
 20
-90.02447914416055
 30
0.0
 10
49.34582518297604
 20
-90.02447914416055
 30
0.0
 10
49.12361652417743
 20
-90.02447914416055
 30
0.0
 10
49.04971922601882
 20
-90.19845646616567
 30
0.0
 10
49.04971922601882
 20
-90.34108341925501
 30
0.0
  0
HATCH
  5
7D
330
76
100
AcDbEntity
  8
_U+30EC_U+30A4_U+30E4_U+30FC 1
 62
   179
420
  2234388
100
AcDbHatch
 10
0.0
 20
0.0
 30
0.0
210
0.0
220
0.0
230
1.0
  2
SOLID
 70
     1
 71
     0
 91
        3
 92
        1
 93
        1
 72
     4
 94
        3
 73
     0
 74
     1
 95
       29
 96
       25
 40
0.0
 40
0.0
 40
0.0
 40
0.0
 40
1.0
 40
1.0
 40
1.0
 40
2.0
 40
2.0
 40
2.0
 40
3.0
 40
3.0
 40
3.0
 40
4.0
 40
4.0
 40
4.0
 40
5.0
 40
5.0
 40
5.0
 40
6.0
 40
6.0
 40
6.0
 40
7.0
 40
7.0
 40
7.0
 40
8.0
 40
8.0
 40
8.0
 40
8.0
 10
49.84071314943218
 20
-90.34108341925501
 10
49.84071314943218
 20
-90.62599281588517
 10
49.70325383957071
 20
-90.89712183057433
 10
49.35426566691491
 20
-90.89712183057433
 10
49.09829507236085
 20
-90.89712183057433
 10
49.00303818219368
 20
-90.74553762922334
 10
48.94171548255624
 20
-90.63253849730715
 10
48.88245984020994
 20
-90.76586369258632
 10
48.76825492487391
 20
-90.84751245558674
 10
48.60754122048701
 20
-90.84751245558674
 10
48.33245034598981
 20
-90.84751245558674
 10
48.19705809341949
 20
-90.63495006414682
 10
48.19705809341949
 20
-90.34108341925501
 10
48.19705809341949
 20
-90.03791501655303
 10
48.34089082992867
 20
-89.83465438292329
 10
48.60754122048701
 20
-89.83465438292329
 10
48.76825492487391
 20
-89.83465438292329
 10
48.88245984020994
 20
-89.91802569366634
 10
48.94171548255624
 20
-90.05169539849402
 10
48.99253064096367
 20
-89.95661076310112
 10
49.08778753113084
 20
-89.78711206522684
 10
49.35013155233261
 20
-89.78711206522684
 10
49.72461343157926
 20
-89.78711206522684
 10
49.84071314943218
 20
-90.08545733424947
 10
49.84071314943218
 20
-90.34108341925501
 97
        0
 97
        0
 92
        1
 93
        1
 72
     4
 94
        3
 73
     0
 74
     1
 95
       17
 96
       13
 40
0.0
 40
0.0
 40
0.0
 40
0.0
 40
1.0
 40
1.0
 40
1.0
 40
2.0
 40
2.0
 40
2.0
 40
3.0
 40
3.0
 40
3.0
 40
4.0
 40
4.0
 40
4.0
 40
4.0
 10
48.38963893104496
 20
-90.34108341925501
 10
48.38963893104496
 20
-90.51712779855127
 10
48.48472356643785
 20
-90.60773380981335
 10
48.62011581900817
 20
-90.60773380981335
 10
48.74293347305733
 20
-90.60773380981335
 10
48.86144475774992
 20
-90.53090818049228
 10
48.86144475774992
 20
-90.34108341925501
 10
48.86144475774992
 20
-90.15091414846923
 10
48.74293347305733
 20
-90.07408851914815
 10
48.62011581900817
 20
-90.07408851914815
 10
48.48472356643785
 20
-90.07408851914815
 10
48.38963893104496
 20
-90.16676158770137
 10
48.38963893104496
 20
-90.34108341925501
 97
        0
 97
        0
 92
        1
 93
        1
 72
     4
 94
        3
 73
     0
 74
     1
 95
       17
 96
       13
 40
0.0
 40
0.0
 40
0.0
 40
0.0
 40
1.0
 40
1.0
 40
1.0
 40
2.0
 40
2.0
 40
2.0
 40
3.0
 40
3.0
 40
3.0
 40
4.0
 40
4.0
 40
4.0
 40
4.0
 10
49.04971922601882
 20
-90.34108341925501
 10
49.04971922601882
 20
-90.49473467789716
 10
49.13636337747285
 20
-90.65734318480095
 10
49.33945175632834
 20
-90.65734318480095
 10
49.54460719247496
 20
-90.65734318480095
 10
49.64623750928983
 20
-90.52195093223062
 10
49.64623750928983
 20
-90.34108341925501
 10
49.64623750928983
 20
-90.14195690020757
 10
49.52359211001494
 20
-90.02447914416055
 10
49.34582518297604
 20
-90.02447914416055
 10
49.12361652417743
 20
-90.02447914416055
 10
49.04971922601882
 20
-90.19845646616567
 10
49.04971922601882
 20
-90.34108341925501
 97
        0
 97
        0
 75
     2
 76
     1
 98
        0
  0
POLYLINE
  5
7E
330
76
100
AcDbEntity
  8
_U+30EC_U+30A4_U+30E4_U+30FC 1
370
     0
100
AcDb2dPolyline
 66
     1
 10
0.0
 20
0.0
 30
0.0
  0
VERTEX
  5
7F
330
7E
100
AcDbEntity
  8
_U+30EC_U+30A4_U+30E4_U+30FC 1
370
     0
100
AcDbVertex
100
AcDb2dVertex
 10
49.79007024579901
 20
-89.5535345913269
 30
0.0
  0
VERTEX
  5
80
330
7E
100
AcDbEntity
  8
_U+30EC_U+30A4_U+30E4_U+30FC 1
370
     0
100
AcDbVertex
100
AcDb2dVertex
 10
49.53840602060151
 20
-89.5535345913269
 30
0.0
  0
VERTEX
  5
81
330
7E
100
AcDbEntity
  8
_U+30EC_U+30A4_U+30E4_U+30FC 1
370
     0
100
AcDbVertex
100
AcDb2dVertex
 10
49.53840602060151
 20
-89.28447263392889
 30
0.0
  0
VERTEX
  5
82
330
7E
100
AcDbEntity
  8
_U+30EC_U+30A4_U+30E4_U+30FC 1
370
     0
100
AcDbVertex
100
AcDb2dVertex
 10
49.79007024579901
 20
-89.28447263392889
 30
0.0
  0
VERTEX
  5
83
330
7E
100
AcDbEntity
  8
_U+30EC_U+30A4_U+30E4_U+30FC 1
370
     0
100
AcDbVertex
100
AcDb2dVertex
 10
49.79007024579901
 20
-89.5535345913269
 30
0.0
  0
SEQEND
  5
84
330
7E
100
AcDbEntity
  8
_U+30EC_U+30A4_U+30E4_U+30FC 1
370
     0
  0
HATCH
  5
85
330
76
100
AcDbEntity
  8
_U+30EC_U+30A4_U+30E4_U+30FC 1
 62
   179
420
  2234388
100
AcDbHatch
 10
0.0
 20
0.0
 30
0.0
210
0.0
220
0.0
230
1.0
  2
SOLID
 70
     1
 71
     0
 91
        1
 92
        1
 93
        4
 72
     1
 10
49.79007024579901
 20
-89.5535345913269
 11
49.53840602060151
 21
-89.5535345913269
 72
     1
 10
49.53840602060151
 20
-89.5535345913269
 11
49.53840602060151
 21
-89.28447263392889
 72
     1
 10
49.53840602060151
 20
-89.28447263392889
 11
49.79007024579901
 21
-89.28447263392889
 72
     1
 10
49.79007024579901
 20
-89.28447263392889
 11
49.79007024579901
 21
-89.5535345913269
 97
        0
 75
     2
 76
     1
 98
        0
  0
SPLINE
  5
86
330
76
100
AcDbEntity
  8
_U+30EC_U+30A4_U+30E4_U+30FC 1
370
     0
100
AcDbSpline
210
0.0
220
0.0
230
1.0
 70
    11
 71
     3
 72
    44
 73
    40
 74
     0
 42
0.0000000001
 43
0.0000000001
 12
1.0
 22
0.0
 32
0.0
 13
1.0
 23
0.0
 33
0.0
 40
0.0
 40
0.0
 40
0.0
 40
0.0
 40
1.0
 40
1.0
 40
1.0
 40
2.0
 40
2.0
 40
2.0
 40
3.0
 40
3.0
 40
3.0
 40
4.0
 40
4.0
 40
4.0
 40
5.0
 40
5.0
 40
5.0
 40
6.0
 40
6.0
 40
6.0
 40
7.0
 40
7.0
 40
7.0
 40
8.0
 40
8.0
 40
8.0
 40
9.0
 40
9.0
 40
9.0
 40
10.0
 40
10.0
 40
10.0
 40
11.0
 40
11.0
 40
11.0
 40
12.0
 40
12.0
 40
12.0
 40
13.0
 40
13.0
 40
13.0
 40
13.0
 10
49.20836587311458
 20
-88.39770505602557
 30
0.0
 10
49.36701252021033
 20
-88.63059351082846
 30
0.0
 10
49.44108207314321
 20
-88.73015677035218
 30
0.0
 10
49.58491480965238
 20
-88.78217771217946
 30
0.0
 10
49.58491480965238
 20
-88.78217771217946
 30
0.0
 10
49.58491480965238
 20
-87.9498426429431
 30
0.0
 10
49.58491480965238
 20
-87.9498426429431
 30
0.0
 10
49.58491480965238
 20
-87.9498426429431
 30
0.0
 10
49.79007024579901
 20
-87.9498426429431
 30
0.0
 10
49.79007024579901
 20
-87.9498426429431
 30
0.0
 10
49.79007024579901
 20
-87.9498426429431
 30
0.0
 10
49.79007024579901
 20
-89.0488281027378
 30
0.0
 10
49.79007024579901
 20
-89.0488281027378
 30
0.0
 10
49.43246933443008
 20
-89.01472165743382
 30
0.0
 10
49.35426566691491
 20
-88.94478621908326
 30
0.0
 10
49.05592039789227
 20
-88.53344181814442
 30
0.0
 10
48.85713838839336
 20
-88.25990123661559
 30
0.0
 10
48.7894422621082
 20
-88.18962128871648
 30
0.0
 10
48.65198295224673
 20
-88.18962128871648
 30
0.0
 10
48.53347166755413
 20
-88.18962128871648
 30
0.0
 10
48.40238578434037
 20
-88.26644691803756
 30
0.0
 10
48.40238578434037
 20
-88.47694225218632
 30
0.0
 10
48.40238578434037
 20
-88.75496145784598
 30
0.0
 10
48.6328626723036
 20
-88.76391870610763
 30
0.0
 10
48.74930689970504
 20
-88.76839733023846
 30
0.0
 10
48.74930689970504
 20
-88.76839733023846
 30
0.0
 10
48.74930689970504
 20
-89.00817597601186
 30
0.0
 10
48.74930689970504
 20
-89.00817597601186
 30
0.0
 10
48.62235513107358
 20
-88.9992187277502
 30
0.0
 10
48.5102172730287
 20
-88.98784991264887
 30
0.0
 10
48.39170598833611
 20
-88.90172252551763
 30
0.0
 10
48.2309922839492
 20
-88.7842447694706
 30
0.0
 10
48.19705809341949
 20
-88.58546275997169
 30
0.0
 10
48.19705809341949
 20
-88.46109481295417
 30
0.0
 10
48.19705809341949
 20
-88.16481660122268
 30
0.0
 10
48.38119844710609
 20
-87.94329696152113
 30
0.0
 10
48.65405000953788
 20
-87.94329696152113
 30
0.0
 10
48.88245984020994
 20
-87.94329696152113
 30
0.0
 10
48.98202309973367
 20
-88.06766490853865
 30
0.0
 10
49.20836587311458
 20
-88.39770505602557
 30
0.0
  0
HATCH
  5
87
330
76
100
AcDbEntity
  8
_U+30EC_U+30A4_U+30E4_U+30FC 1
 62
   179
420
  2234388
100
AcDbHatch
 10
0.0
 20
0.0
 30
0.0
210
0.0
220
0.0
230
1.0
  2
SOLID
 70
     1
 71
     0
 91
        1
 92
        1
 93
        1
 72
     4
 94
        3
 73
     0
 74
     1
 95
       44
 96
       40
 40
0.0
 40
0.0
 40
0.0
 40
0.0
 40
1.0
 40
1.0
 40
1.0
 40
2.0
 40
2.0
 40
2.0
 40
3.0
 40
3.0
 40
3.0
 40
4.0
 40
4.0
 40
4.0
 40
5.0
 40
5.0
 40
5.0
 40
6.0
 40
6.0
 40
6.0
 40
7.0
 40
7.0
 40
7.0
 40
8.0
 40
8.0
 40
8.0
 40
9.0
 40
9.0
 40
9.0
 40
10.0
 40
10.0
 40
10.0
 40
11.0
 40
11.0
 40
11.0
 40
12.0
 40
12.0
 40
12.0
 40
13.0
 40
13.0
 40
13.0
 40
13.0
 10
49.20836587311458
 20
-88.39770505602557
 10
49.36701252021033
 20
-88.63059351082846
 10
49.44108207314321
 20
-88.73015677035218
 10
49.58491480965238
 20
-88.78217771217946
 10
49.58491480965238
 20
-88.78217771217946
 10
49.58491480965238
 20
-87.9498426429431
 10
49.58491480965238
 20
-87.9498426429431
 10
49.58491480965238
 20
-87.9498426429431
 10
49.79007024579901
 20
-87.9498426429431
 10
49.79007024579901
 20
-87.9498426429431
 10
49.79007024579901
 20
-87.9498426429431
 10
49.79007024579901
 20
-89.0488281027378
 10
49.79007024579901
 20
-89.0488281027378
 10
49.43246933443008
 20
-89.01472165743382
 10
49.35426566691491
 20
-88.94478621908326
 10
49.05592039789227
 20
-88.53344181814442
 10
48.85713838839336
 20
-88.25990123661559
 10
48.7894422621082
 20
-88.18962128871648
 10
48.65198295224673
 20
-88.18962128871648
 10
48.53347166755413
 20
-88.18962128871648
 10
48.40238578434037
 20
-88.26644691803756
 10
48.40238578434037
 20
-88.47694225218632
 10
48.40238578434037
 20
-88.75496145784598
 10
48.6328626723036
 20
-88.76391870610763
 10
48.74930689970504
 20
-88.76839733023846
 10
48.74930689970504
 20
-88.76839733023846
 10
48.74930689970504
 20
-89.00817597601186
 10
48.74930689970504
 20
-89.00817597601186
 10
48.62235513107358
 20
-88.9992187277502
 10
48.5102172730287
 20
-88.98784991264887
 10
48.39170598833611
 20
-88.90172252551763
 10
48.2309922839492
 20
-88.7842447694706
 10
48.19705809341949
 20
-88.58546275997169
 10
48.19705809341949
 20
-88.46109481295417
 10
48.19705809341949
 20
-88.16481660122268
 10
48.38119844710609
 20
-87.94329696152113
 10
48.65405000953788
 20
-87.94329696152113
 10
48.88245984020994
 20
-87.94329696152113
 10
48.98202309973367
 20
-88.06766490853865
 10
49.20836587311458
 20
-88.39770505602557
 97
        0
 97
        0
 75
     2
 76
     1
 98
        0
  0
ENDBLK
  5
79
330
76
100
AcDbEntity
  8
0
100
AcDbBlockEnd
  0
BLOCK
  5
9A
330
98
100
AcDbEntity
  8
0
100
AcDbBlockBegin
  2
block 3
 70
     0
 10
0.0
 20
0.0
 30
0.0
  3
block 3
  1

  0
SPLINE
  5
9C
330
98
100
AcDbEntity
  8
_U+30EC_U+30A4_U+30E4_U+30FC 1
370
     0
100
AcDbSpline
210
0.0
220
0.0
230
1.0
 70
    11
 71
     3
 72
    26
 73
    22
 74
     0
 42
0.0000000001
 43
0.0000000001
 12
1.0
 22
0.0
 32
0.0
 13
1.0
 23
0.0
 33
0.0
 40
0.0
 40
0.0
 40
0.0
 40
0.0
 40
1.0
 40
1.0
 40
1.0
 40
2.0
 40
2.0
 40
2.0
 40
3.0
 40
3.0
 40
3.0
 40
4.0
 40
4.0
 40
4.0
 40
5.0
 40
5.0
 40
5.0
 40
6.0
 40
6.0
 40
6.0
 40
7.0
 40
7.0
 40
7.0
 40
7.0
 10
77.78956703784428
 20
-82.47575817165537
 30
0.0
 10
77.78956703784428
 20
-82.47575817165537
 30
0.0
 10
76.68541393482171
 20
-82.47575817165537
 30
0.0
 10
76.68541393482171
 20
-82.47575817165537
 30
0.0
 10
76.68541393482171
 20
-82.47575817165537
 30
0.0
 10
76.68541393482171
 20
-82.82853594934495
 30
0.0
 10
76.68541393482171
 20
-82.82853594934495
 30
0.0
 10
76.68541393482171
 20
-82.82853594934495
 30
0.0
 10
76.53727482895596
 20
-82.82853594934495
 30
0.0
 10
76.53727482895596
 20
-82.82853594934495
 30
0.0
 10
76.52246091836939
 20
-82.47351885958996
 30
0.0
 10
76.35950790191707
 20
-82.42373722982809
 30
0.0
 10
76.24513073180678
 20
-82.39221460613805
 30
0.0
 10
76.24513073180678
 20
-82.39221460613805
 30
0.0
 10
76.24513073180678
 20
-82.23615178065624
 30
0.0
 10
76.24513073180678
 20
-82.23615178065624
 30
0.0
 10
76.24513073180678
 20
-82.23615178065624
 30
0.0
 10
77.78956703784428
 20
-82.23615178065624
 30
0.0
 10
77.78956703784428
 20
-82.23615178065624
 30
0.0
 10
77.78956703784428
 20
-82.23615178065624
 30
0.0
 10
77.78956703784428
 20
-82.47575817165537
 30
0.0
 10
77.78956703784428
 20
-82.47575817165537
 30
0.0
  0
HATCH
  5
9D
330
98
100
AcDbEntity
  8
_U+30EC_U+30A4_U+30E4_U+30FC 1
 62
   179
420
  2234388
100
AcDbHatch
 10
0.0
 20
0.0
 30
0.0
210
0.0
220
0.0
230
1.0
  2
SOLID
 70
     1
 71
     0
 91
        1
 92
        1
 93
        1
 72
     4
 94
        3
 73
     0
 74
     1
 95
       26
 96
       22
 40
0.0
 40
0.0
 40
0.0
 40
0.0
 40
1.0
 40
1.0
 40
1.0
 40
2.0
 40
2.0
 40
2.0
 40
3.0
 40
3.0
 40
3.0
 40
4.0
 40
4.0
 40
4.0
 40
5.0
 40
5.0
 40
5.0
 40
6.0
 40
6.0
 40
6.0
 40
7.0
 40
7.0
 40
7.0
 40
7.0
 10
77.78956703784428
 20
-82.47575817165537
 10
77.78956703784428
 20
-82.47575817165537
 10
76.68541393482171
 20
-82.47575817165537
 10
76.68541393482171
 20
-82.47575817165537
 10
76.68541393482171
 20
-82.47575817165537
 10
76.68541393482171
 20
-82.82853594934495
 10
76.68541393482171
 20
-82.82853594934495
 10
76.68541393482171
 20
-82.82853594934495
 10
76.53727482895596
 20
-82.82853594934495
 10
76.53727482895596
 20
-82.82853594934495
 10
76.52246091836939
 20
-82.47351885958996
 10
76.35950790191707
 20
-82.42373722982809
 10
76.24513073180678
 20
-82.39221460613805
 10
76.24513073180678
 20
-82.39221460613805
 10
76.24513073180678
 20
-82.23615178065624
 10
76.24513073180678
 20
-82.23615178065624
 10
76.24513073180678
 20
-82.23615178065624
 10
77.78956703784428
 20
-82.23615178065624
 10
77.78956703784428
 20
-82.23615178065624
 10
77.78956703784428
 20
-82.23615178065624
 10
77.78956703784428
 20
-82.47575817165537
 10
77.78956703784428
 20
-82.47575817165537
 97
        0
 97
        0
 75
     2
 76
     1
 98
        0
  0
ENDBLK
  5
9B
330
98
100
AcDbEntity
  8
0
100
AcDbBlockEnd
  0
BLOCK
  5
AC
330
AA
100
AcDbEntity
  8
0
100
AcDbBlockBegin
  2
block 4
 70
     0
 10
0.0
 20
0.0
 30
0.0
  3
block 4
  1

  0
SPLINE
  5
AE
330
AA
100
AcDbEntity
  8
_U+30EC_U+30A4_U+30E4_U+30FC 1
370
     0
100
AcDbSpline
210
0.0
220
0.0
230
1.0
 70
    11
 71
     3
 72
    32
 73
    28
 74
     0
 42
0.0000000001
 43
0.0000000001
 12
1.0
 22
0.0
 32
0.0
 13
1.0
 23
0.0
 33
0.0
 40
0.0
 40
0.0
 40
0.0
 40
0.0
 40
1.0
 40
1.0
 40
1.0
 40
2.0
 40
2.0
 40
2.0
 40
3.0
 40
3.0
 40
3.0
 40
4.0
 40
4.0
 40
4.0
 40
5.0
 40
5.0
 40
5.0
 40
6.0
 40
6.0
 40
6.0
 40
7.0
 40
7.0
 40
7.0
 40
8.0
 40
8.0
 40
8.0
 40
9.0
 40
9.0
 40
9.0
 40
9.0
 10
77.8408989605745
 20
-90.33660479512419
 30
0.0
 10
77.8408989605745
 20
-90.88816458231268
 30
0.0
 10
77.28692760654633
 20
-90.89712183057433
 30
0.0
 10
77.0729871769123
 20
-90.89712183057433
 30
0.0
 10
76.8425102889491
 20
-90.89712183057433
 30
0.0
 10
76.19517684727066
 20
-90.87679576721136
 30
0.0
 10
76.19517684727066
 20
-90.29560815884972
 30
0.0
 10
76.19517684727066
 20
-90.11026202174327
 30
0.0
 10
76.26511228562123
 20
-89.84809025531575
 30
0.0
 10
76.59721949039931
 20
-89.80743812858981
 30
0.0
 10
76.59721949039931
 20
-89.80743812858981
 30
0.0
 10
76.59721949039931
 20
-90.03584795926187
 30
0.0
 10
76.59721949039931
 20
-90.03584795926187
 30
0.0
 10
76.54003090534417
 20
-90.04721677436319
 30
0.0
 10
76.39189179947842
 20
-90.08097871011864
 30
0.0
 10
76.39189179947842
 20
-90.29801972568939
 30
0.0
 10
76.39189179947842
 20
-90.61014537665302
 30
0.0
 10
76.7198648896742
 20
-90.65286456067012
 30
0.0
 10
76.92484807104657
 20
-90.66664494261111
 30
0.0
 10
76.8466444035314
 20
-90.5670816830874
 30
0.0
 10
76.7873887611851
 20
-90.49473467789716
 30
0.0
 10
76.7873887611851
 20
-90.30008678298054
 30
0.0
 10
76.7873887611851
 20
-90.10819496445212
 30
0.0
 10
76.89556475942194
 20
-89.78470049838717
 30
0.0
 10
77.3017415171329
 20
-89.78470049838717
 30
0.0
 10
77.62110186861557
 20
-89.78470049838717
 30
0.0
 10
77.8408989605745
 20
-89.99726288982708
 30
0.0
 10
77.8408989605745
 20
-90.33660479512419
 30
0.0
  0
SPLINE
  5
AF
330
AA
100
AcDbEntity
  8
_U+30EC_U+30A4_U+30E4_U+30FC 1
370
     0
100
AcDbSpline
210
0.0
220
0.0
230
1.0
 70
    11
 71
     3
 72
    17
 73
    13
 74
     0
 42
0.0000000001
 43
0.0000000001
 12
1.0
 22
0.0
 32
0.0
 13
1.0
 23
0.0
 33
0.0
 40
0.0
 40
0.0
 40
0.0
 40
0.0
 40
1.0
 40
1.0
 40
1.0
 40
2.0
 40
2.0
 40
2.0
 40
3.0
 40
3.0
 40
3.0
 40
4.0
 40
4.0
 40
4.0
 40
4.0
 10
76.98203665610171
 20
-90.31834578905236
 30
0.0
 10
76.98203665610171
 20
-90.5987765615517
 30
0.0
 10
77.19356551889605
 20
-90.63942868827765
 30
0.0
 10
77.3100097462975
 20
-90.63942868827765
 30
0.0
 10
77.48570961604524
 20
-90.63942868827765
 30
0.0
 10
77.64866263249756
 20
-90.53779837146277
 30
0.0
 10
77.64866263249756
 20
-90.34108341925501
 30
0.0
 10
77.64866263249756
 20
-90.21223684810667
 30
0.0
 10
77.58940699015126
 20
-90.02447914416055
 30
0.0
 10
77.30380857442405
 20
-90.02447914416055
 30
0.0
 10
77.07953285833429
 20
-90.02447914416055
 30
0.0
 10
76.98203665610171
 20
-90.17365177867187
 30
0.0
 10
76.98203665610171
 20
-90.31834578905236
 30
0.0
  0
HATCH
  5
B0
330
AA
100
AcDbEntity
  8
_U+30EC_U+30A4_U+30E4_U+30FC 1
 62
   179
420
  2234388
100
AcDbHatch
 10
0.0
 20
0.0
 30
0.0
210
0.0
220
0.0
230
1.0
  2
SOLID
 70
     1
 71
     0
 91
        2
 92
        1
 93
        1
 72
     4
 94
        3
 73
     0
 74
     1
 95
       32
 96
       28
 40
0.0
 40
0.0
 40
0.0
 40
0.0
 40
1.0
 40
1.0
 40
1.0
 40
2.0
 40
2.0
 40
2.0
 40
3.0
 40
3.0
 40
3.0
 40
4.0
 40
4.0
 40
4.0
 40
5.0
 40
5.0
 40
5.0
 40
6.0
 40
6.0
 40
6.0
 40
7.0
 40
7.0
 40
7.0
 40
8.0
 40
8.0
 40
8.0
 40
9.0
 40
9.0
 40
9.0
 40
9.0
 10
77.8408989605745
 20
-90.33660479512419
 10
77.8408989605745
 20
-90.88816458231268
 10
77.28692760654633
 20
-90.89712183057433
 10
77.0729871769123
 20
-90.89712183057433
 10
76.8425102889491
 20
-90.89712183057433
 10
76.19517684727066
 20
-90.87679576721136
 10
76.19517684727066
 20
-90.29560815884972
 10
76.19517684727066
 20
-90.11026202174327
 10
76.26511228562123
 20
-89.84809025531575
 10
76.59721949039931
 20
-89.80743812858981
 10
76.59721949039931
 20
-89.80743812858981
 10
76.59721949039931
 20
-90.03584795926187
 10
76.59721949039931
 20
-90.03584795926187
 10
76.54003090534417
 20
-90.04721677436319
 10
76.39189179947842
 20
-90.08097871011864
 10
76.39189179947842
 20
-90.29801972568939
 10
76.39189179947842
 20
-90.61014537665302
 10
76.7198648896742
 20
-90.65286456067012
 10
76.92484807104657
 20
-90.66664494261111
 10
76.8466444035314
 20
-90.5670816830874
 10
76.7873887611851
 20
-90.49473467789716
 10
76.7873887611851
 20
-90.30008678298054
 10
76.7873887611851
 20
-90.10819496445212
 10
76.89556475942194
 20
-89.78470049838717
 10
77.3017415171329
 20
-89.78470049838717
 10
77.62110186861557
 20
-89.78470049838717
 10
77.8408989605745
 20
-89.99726288982708
 10
77.8408989605745
 20
-90.33660479512419
 97
        0
 97
        0
 92
        1
 93
        1
 72
     4
 94
        3
 73
     0
 74
     1
 95
       17
 96
       13
 40
0.0
 40
0.0
 40
0.0
 40
0.0
 40
1.0
 40
1.0
 40
1.0
 40
2.0
 40
2.0
 40
2.0
 40
3.0
 40
3.0
 40
3.0
 40
4.0
 40
4.0
 40
4.0
 40
4.0
 10
76.98203665610171
 20
-90.31834578905236
 10
76.98203665610171
 20
-90.5987765615517
 10
77.19356551889605
 20
-90.63942868827765
 10
77.3100097462975
 20
-90.63942868827765
 10
77.48570961604524
 20
-90.63942868827765
 10
77.64866263249756
 20
-90.53779837146277
 10
77.64866263249756
 20
-90.34108341925501
 10
77.64866263249756
 20
-90.21223684810667
 10
77.58940699015126
 20
-90.02447914416055
 10
77.30380857442405
 20
-90.02447914416055
 10
77.07953285833429
 20
-90.02447914416055
 10
76.98203665610171
 20
-90.17365177867187
 10
76.98203665610171
 20
-90.31834578905236
 97
        0
 97
        0
 75
     2
 76
     1
 98
        0
  0
POLYLINE
  5
B1
330
AA
100
AcDbEntity
  8
_U+30EC_U+30A4_U+30E4_U+30FC 1
370
     0
100
AcDb2dPolyline
 66
     1
 10
0.0
 20
0.0
 30
0.0
  0
VERTEX
  5
B2
330
B1
100
AcDbEntity
  8
_U+30EC_U+30A4_U+30E4_U+30FC 1
370
     0
100
AcDbVertex
100
AcDb2dVertex
 10
77.79025605694133
 20
-89.5535345913269
 30
0.0
  0
VERTEX
  5
B3
330
B1
100
AcDbEntity
  8
_U+30EC_U+30A4_U+30E4_U+30FC 1
370
     0
100
AcDbVertex
100
AcDb2dVertex
 10
77.53841957696956
 20
-89.5535345913269
 30
0.0
  0
VERTEX
  5
B4
330
B1
100
AcDbEntity
  8
_U+30EC_U+30A4_U+30E4_U+30FC 1
370
     0
100
AcDbVertex
100
AcDb2dVertex
 10
77.53841957696956
 20
-89.28447263392889
 30
0.0
  0
VERTEX
  5
B5
330
B1
100
AcDbEntity
  8
_U+30EC_U+30A4_U+30E4_U+30FC 1
370
     0
100
AcDbVertex
100
AcDb2dVertex
 10
77.79025605694133
 20
-89.28447263392889
 30
0.0
  0
VERTEX
  5
B6
330
B1
100
AcDbEntity
  8
_U+30EC_U+30A4_U+30E4_U+30FC 1
370
     0
100
AcDbVertex
100
AcDb2dVertex
 10
77.79025605694133
 20
-89.5535345913269
 30
0.0
  0
SEQEND
  5
B7
330
B1
100
AcDbEntity
  8
_U+30EC_U+30A4_U+30E4_U+30FC 1
370
     0
  0
HATCH
  5
B8
330
AA
100
AcDbEntity
  8
_U+30EC_U+30A4_U+30E4_U+30FC 1
 62
   179
420
  2234388
100
AcDbHatch
 10
0.0
 20
0.0
 30
0.0
210
0.0
220
0.0
230
1.0
  2
SOLID
 70
     1
 71
     0
 91
        1
 92
        1
 93
        4
 72
     1
 10
77.79025605694133
 20
-89.5535345913269
 11
77.53841957696956
 21
-89.5535345913269
 72
     1
 10
77.53841957696956
 20
-89.5535345913269
 11
77.53841957696956
 21
-89.28447263392889
 72
     1
 10
77.53841957696956
 20
-89.28447263392889
 11
77.79025605694133
 21
-89.28447263392889
 72
     1
 10
77.79025605694133
 20
-89.28447263392889
 11
77.79025605694133
 21
-89.5535345913269
 97
        0
 75
     2
 76
     1
 98
        0
  0
SPLINE
  5
B9
330
AA
100
AcDbEntity
  8
_U+30EC_U+30A4_U+30E4_U+30FC 1
370
     0
100
AcDbSpline
210
0.0
220
0.0
230
1.0
 70
    11
 71
     3
 72
    44
 73
    40
 74
     0
 42
0.0000000001
 43
0.0000000001
 12
1.0
 22
0.0
 32
0.0
 13
1.0
 23
0.0
 33
0.0
 40
0.0
 40
0.0
 40
0.0
 40
0.0
 40
1.0
 40
1.0
 40
1.0
 40
2.0
 40
2.0
 40
2.0
 40
3.0
 40
3.0
 40
3.0
 40
4.0
 40
4.0
 40
4.0
 40
5.0
 40
5.0
 40
5.0
 40
6.0
 40
6.0
 40
6.0
 40
7.0
 40
7.0
 40
7.0
 40
8.0
 40
8.0
 40
8.0
 40
9.0
 40
9.0
 40
9.0
 40
10.0
 40
10.0
 40
10.0
 40
11.0
 40
11.0
 40
11.0
 40
12.0
 40
12.0
 40
12.0
 40
13.0
 40
13.0
 40
13.0
 40
13.0
 10
77.20837942948263
 20
-88.39770505602557
 30
0.0
 10
77.36719833135265
 20
-88.63059351082846
 30
0.0
 10
77.44126788428552
 20
-88.73015677035218
 30
0.0
 10
77.58492836602043
 20
-88.78217771217946
 30
0.0
 10
77.58492836602043
 20
-88.78217771217946
 30
0.0
 10
77.58492836602043
 20
-87.9498426429431
 30
0.0
 10
77.58492836602043
 20
-87.9498426429431
 30
0.0
 10
77.58492836602043
 20
-87.9498426429431
 30
0.0
 10
77.79025605694133
 20
-87.9498426429431
 30
0.0
 10
77.79025605694133
 20
-87.9498426429431
 30
0.0
 10
77.79025605694133
 20
-87.9498426429431
 30
0.0
 10
77.79025605694133
 20
-89.0488281027378
 30
0.0
 10
77.79025605694133
 20
-89.0488281027378
 30
0.0
 10
77.4326551455724
 20
-89.01472165743382
 30
0.0
 10
77.35445147805723
 20
-88.94478621908326
 30
0.0
 10
77.05610620903458
 20
-88.53344181814442
 30
0.0
 10
76.85732419953567
 20
-88.25990123661559
 30
0.0
 10
76.78945581847626
 20
-88.18962128871648
 30
0.0
 10
76.65199650861479
 20
-88.18962128871648
 30
0.0
 10
76.53348522392218
 20
-88.18962128871648
 30
0.0
 10
76.4025715954827
 20
-88.26644691803756
 30
0.0
 10
76.4025715954827
 20
-88.47694225218632
 30
0.0
 10
76.4025715954827
 20
-88.75496145784598
 30
0.0
 10
76.6330484834459
 20
-88.76391870610763
 30
0.0
 10
76.74949271084735
 20
-88.76839733023846
 30
0.0
 10
76.74949271084735
 20
-88.76839733023846
 30
0.0
 10
76.74949271084735
 20
-89.00817597601186
 30
0.0
 10
76.74949271084735
 20
-89.00817597601186
 30
0.0
 10
76.62236868744164
 20
-88.9992187277502
 30
0.0
 10
76.51040308417102
 20
-88.98784991264887
 30
0.0
 10
76.39189179947842
 20
-88.90172252551763
 30
0.0
 10
76.23100584031725
 20
-88.7842447694706
 30
0.0
 10
76.1972439045618
 20
-88.58546275997169
 30
0.0
 10
76.1972439045618
 20
-88.46109481295417
 30
0.0
 10
76.1972439045618
 20
-88.16481660122268
 30
0.0
 10
76.38121200347415
 20
-87.94329696152113
 30
0.0
 10
76.65406356590593
 20
-87.94329696152113
 30
0.0
 10
76.88281790612652
 20
-87.94329696152113
 30
0.0
 10
76.98203665610171
 20
-88.06766490853865
 30
0.0
 10
77.20837942948263
 20
-88.39770505602557
 30
0.0
  0
HATCH
  5
BA
330
AA
100
AcDbEntity
  8
_U+30EC_U+30A4_U+30E4_U+30FC 1
 62
   179
420
  2234388
100
AcDbHatch
 10
0.0
 20
0.0
 30
0.0
210
0.0
220
0.0
230
1.0
  2
SOLID
 70
     1
 71
     0
 91
        1
 92
        1
 93
        1
 72
     4
 94
        3
 73
     0
 74
     1
 95
       44
 96
       40
 40
0.0
 40
0.0
 40
0.0
 40
0.0
 40
1.0
 40
1.0
 40
1.0
 40
2.0
 40
2.0
 40
2.0
 40
3.0
 40
3.0
 40
3.0
 40
4.0
 40
4.0
 40
4.0
 40
5.0
 40
5.0
 40
5.0
 40
6.0
 40
6.0
 40
6.0
 40
7.0
 40
7.0
 40
7.0
 40
8.0
 40
8.0
 40
8.0
 40
9.0
 40
9.0
 40
9.0
 40
10.0
 40
10.0
 40
10.0
 40
11.0
 40
11.0
 40
11.0
 40
12.0
 40
12.0
 40
12.0
 40
13.0
 40
13.0
 40
13.0
 40
13.0
 10
77.20837942948263
 20
-88.39770505602557
 10
77.36719833135265
 20
-88.63059351082846
 10
77.44126788428552
 20
-88.73015677035218
 10
77.58492836602043
 20
-88.78217771217946
 10
77.58492836602043
 20
-88.78217771217946
 10
77.58492836602043
 20
-87.9498426429431
 10
77.58492836602043
 20
-87.9498426429431
 10
77.58492836602043
 20
-87.9498426429431
 10
77.79025605694133
 20
-87.9498426429431
 10
77.79025605694133
 20
-87.9498426429431
 10
77.79025605694133
 20
-87.9498426429431
 10
77.79025605694133
 20
-89.0488281027378
 10
77.79025605694133
 20
-89.0488281027378
 10
77.4326551455724
 20
-89.01472165743382
 10
77.35445147805723
 20
-88.94478621908326
 10
77.05610620903458
 20
-88.53344181814442
 10
76.85732419953567
 20
-88.25990123661559
 10
76.78945581847626
 20
-88.18962128871648
 10
76.65199650861479
 20
-88.18962128871648
 10
76.53348522392218
 20
-88.18962128871648
 10
76.4025715954827
 20
-88.26644691803756
 10
76.4025715954827
 20
-88.47694225218632
 10
76.4025715954827
 20
-88.75496145784598
 10
76.6330484834459
 20
-88.76391870610763
 10
76.74949271084735
 20
-88.76839733023846
 10
76.74949271084735
 20
-88.76839733023846
 10
76.74949271084735
 20
-89.00817597601186
 10
76.74949271084735
 20
-89.00817597601186
 10
76.62236868744164
 20
-88.9992187277502
 10
76.51040308417102
 20
-88.98784991264887
 10
76.39189179947842
 20
-88.90172252551763
 10
76.23100584031725
 20
-88.7842447694706
 10
76.1972439045618
 20
-88.58546275997169
 10
76.1972439045618
 20
-88.46109481295417
 10
76.1972439045618
 20
-88.16481660122268
 10
76.38121200347415
 20
-87.94329696152113
 10
76.65406356590593
 20
-87.94329696152113
 10
76.88281790612652
 20
-87.94329696152113
 10
76.98203665610171
 20
-88.06766490853865
 10
77.20837942948263
 20
-88.39770505602557
 97
        0
 97
        0
 75
     2
 76
     1
 98
        0
  0
ENDBLK
  5
AD
330
AA
100
AcDbEntity
  8
0
100
AcDbBlockEnd
  0
BLOCK
  5
CD
330
CB
100
AcDbEntity
  8
0
100
AcDbBlockBegin
  2
block 5
 70
     0
 10
0.0
 20
0.0
 30
0.0
  3
block 5
  1

  0
SPLINE
  5
CF
330
CB
100
AcDbEntity
  8
_U+30EC_U+30A4_U+30E4_U+30FC 1
370
     0
100
AcDbSpline
210
0.0
220
0.0
230
1.0
 70
    11
 71
     3
 72
    44
 73
    40
 74
     0
 42
0.0000000001
 43
0.0000000001
 12
1.0
 22
0.0
 32
0.0
 13
1.0
 23
0.0
 33
0.0
 40
0.0
 40
0.0
 40
0.0
 40
0.0
 40
1.0
 40
1.0
 40
1.0
 40
2.0
 40
2.0
 40
2.0
 40
3.0
 40
3.0
 40
3.0
 40
4.0
 40
4.0
 40
4.0
 40
5.0
 40
5.0
 40
5.0
 40
6.0
 40
6.0
 40
6.0
 40
7.0
 40
7.0
 40
7.0
 40
8.0
 40
8.0
 40
8.0
 40
9.0
 40
9.0
 40
9.0
 40
10.0
 40
10.0
 40
10.0
 40
11.0
 40
11.0
 40
11.0
 40
12.0
 40
12.0
 40
12.0
 40
13.0
 40
13.0
 40
13.0
 40
13.0
 10
58.11497123113098
 20
-96.4881672935863
 30
0.0
 10
57.88208277632809
 20
-96.64698619545631
 30
0.0
 10
57.78269177157863
 20
-96.72105574838919
 30
0.0
 10
57.73067082975136
 20
-96.8647162301241
 30
0.0
 10
57.73067082975136
 20
-96.8647162301241
 30
0.0
 10
58.5626613894392
 20
-96.8647162301241
 30
0.0
 10
58.5626613894392
 20
-96.8647162301241
 30
0.0
 10
58.5626613894392
 20
-96.8647162301241
 30
0.0
 10
58.5626613894392
 20
-97.070043921045
 30
0.0
 10
58.5626613894392
 20
-97.070043921045
 30
0.0
 10
58.5626613894392
 20
-97.070043921045
 30
0.0
 10
57.46384818441877
 20
-97.070043921045
 30
0.0
 10
57.46384818441877
 20
-97.070043921045
 30
0.0
 10
57.49778237494847
 20
-96.71244300967606
 30
0.0
 10
57.56789006807331
 20
-96.6342393421609
 30
0.0
 10
57.9794067237864
 20
-96.33589407313825
 30
0.0
 10
58.25294730531524
 20
-96.13711206363934
 30
0.0
 10
58.32305499844007
 20
-96.06924368257991
 30
0.0
 10
58.32305499844007
 20
-95.93178437271845
 30
0.0
 10
58.32305499844007
 20
-95.81327308802585
 30
0.0
 10
58.246229369119
 20
-95.68235945958637
 30
0.0
 10
58.0359062897445
 20
-95.68235945958637
 30
0.0
 10
57.75771482931057
 20
-95.68235945958637
 30
0.0
 10
57.74875758104893
 20
-95.91283634754957
 30
0.0
 10
57.7442789569181
 20
-96.02928057495102
 30
0.0
 10
57.7442789569181
 20
-96.02928057495102
 30
0.0
 10
57.50450031114471
 20
-96.02928057495102
 30
0.0
 10
57.50450031114471
 20
-96.02928057495102
 30
0.0
 10
57.51362981418063
 20
-95.9021565515453
 30
0.0
 10
57.52499862928195
 20
-95.79019094827468
 30
0.0
 10
57.61078150686467
 20
-95.67167966358208
 30
0.0
 10
57.72843151768595
 20
-95.51079370442092
 30
0.0
 10
57.92738578195913
 20
-95.47703176866547
 30
0.0
 10
58.05175372897665
 20
-95.47703176866547
 30
0.0
 10
58.34785968593387
 20
-95.47703176866547
 30
0.0
 10
58.56937932563544
 20
-95.66099986757781
 30
0.0
 10
58.56937932563544
 20
-95.9338514300096
 30
0.0
 10
58.56937932563544
 20
-96.16260577023019
 30
0.0
 10
58.44501137861791
 20
-96.26182452020538
 30
0.0
 10
58.11497123113098
 20
-96.4881672935863
 30
0.0
  0
HATCH
  5
D0
330
CB
100
AcDbEntity
  8
_U+30EC_U+30A4_U+30E4_U+30FC 1
 62
   179
420
  2234388
100
AcDbHatch
 10
0.0
 20
0.0
 30
0.0
210
0.0
220
0.0
230
1.0
  2
SOLID
 70
     1
 71
     0
 91
        1
 92
        1
 93
        1
 72
     4
 94
        3
 73
     0
 74
     1
 95
       44
 96
       40
 40
0.0
 40
0.0
 40
0.0
 40
0.0
 40
1.0
 40
1.0
 40
1.0
 40
2.0
 40
2.0
 40
2.0
 40
3.0
 40
3.0
 40
3.0
 40
4.0
 40
4.0
 40
4.0
 40
5.0
 40
5.0
 40
5.0
 40
6.0
 40
6.0
 40
6.0
 40
7.0
 40
7.0
 40
7.0
 40
8.0
 40
8.0
 40
8.0
 40
9.0
 40
9.0
 40
9.0
 40
10.0
 40
10.0
 40
10.0
 40
11.0
 40
11.0
 40
11.0
 40
12.0
 40
12.0
 40
12.0
 40
13.0
 40
13.0
 40
13.0
 40
13.0
 10
58.11497123113098
 20
-96.4881672935863
 10
57.88208277632809
 20
-96.64698619545631
 10
57.78269177157863
 20
-96.72105574838919
 10
57.73067082975136
 20
-96.8647162301241
 10
57.73067082975136
 20
-96.8647162301241
 10
58.5626613894392
 20
-96.8647162301241
 10
58.5626613894392
 20
-96.8647162301241
 10
58.5626613894392
 20
-96.8647162301241
 10
58.5626613894392
 20
-97.070043921045
 10
58.5626613894392
 20
-97.070043921045
 10
58.5626613894392
 20
-97.070043921045
 10
57.46384818441877
 20
-97.070043921045
 10
57.46384818441877
 20
-97.070043921045
 10
57.49778237494847
 20
-96.71244300967606
 10
57.56789006807331
 20
-96.6342393421609
 10
57.9794067237864
 20
-96.33589407313825
 10
58.25294730531524
 20
-96.13711206363934
 10
58.32305499844007
 20
-96.06924368257991
 10
58.32305499844007
 20
-95.93178437271845
 10
58.32305499844007
 20
-95.81327308802585
 10
58.246229369119
 20
-95.68235945958637
 10
58.0359062897445
 20
-95.68235945958637
 10
57.75771482931057
 20
-95.68235945958637
 10
57.74875758104893
 20
-95.91283634754957
 10
57.7442789569181
 20
-96.02928057495102
 10
57.7442789569181
 20
-96.02928057495102
 10
57.50450031114471
 20
-96.02928057495102
 10
57.50450031114471
 20
-96.02928057495102
 10
57.51362981418063
 20
-95.9021565515453
 10
57.52499862928195
 20
-95.79019094827468
 10
57.61078150686467
 20
-95.67167966358208
 10
57.72843151768595
 20
-95.51079370442092
 10
57.92738578195913
 20
-95.47703176866547
 10
58.05175372897665
 20
-95.47703176866547
 10
58.34785968593387
 20
-95.47703176866547
 10
58.56937932563544
 20
-95.66099986757781
 10
58.56937932563544
 20
-95.9338514300096
 10
58.56937932563544
 20
-96.16260577023019
 10
58.44501137861791
 20
-96.26182452020538
 10
58.11497123113098
 20
-96.4881672935863
 97
        0
 97
        0
 75
     2
 76
     1
 98
        0
  0
POLYLINE
  5
D1
330
CB
100
AcDbEntity
  8
_U+30EC_U+30A4_U+30E4_U+30FC 1
370
     0
100
AcDb2dPolyline
 66
     1
 10
0.0
 20
0.0
 30
0.0
  0
VERTEX
  5
D2
330
D1
100
AcDbEntity
  8
_U+30EC_U+30A4_U+30E4_U+30FC 1
370
     0
100
AcDbVertex
100
AcDb2dVertex
 10
58.80312905430964
 20
-97.070043921045
 30
0.0
  0
VERTEX
  5
D3
330
D1
100
AcDbEntity
  8
_U+30EC_U+30A4_U+30E4_U+30FC 1
370
     0
100
AcDbVertex
100
AcDb2dVertex
 10
58.80312905430964
 20
-96.81820744107323
 30
0.0
  0
VERTEX
  5
D4
330
D1
100
AcDbEntity
  8
_U+30EC_U+30A4_U+30E4_U+30FC 1
370
     0
100
AcDbVertex
100
AcDb2dVertex
 10
59.07219101170765
 20
-96.81820744107323
 30
0.0
  0
VERTEX
  5
D5
330
D1
100
AcDbEntity
  8
_U+30EC_U+30A4_U+30E4_U+30FC 1
370
     0
100
AcDbVertex
100
AcDb2dVertex
 10
59.07219101170765
 20
-97.070043921045
 30
0.0
  0
VERTEX
  5
D6
330
D1
100
AcDbEntity
  8
_U+30EC_U+30A4_U+30E4_U+30FC 1
370
     0
100
AcDbVertex
100
AcDb2dVertex
 10
58.80312905430964
 20
-97.070043921045
 30
0.0
  0
SEQEND
  5
D7
330
D1
100
AcDbEntity
  8
_U+30EC_U+30A4_U+30E4_U+30FC 1
370
     0
  0
HATCH
  5
D8
330
CB
100
AcDbEntity
  8
_U+30EC_U+30A4_U+30E4_U+30FC 1
 62
   179
420
  2234388
100
AcDbHatch
 10
0.0
 20
0.0
 30
0.0
210
0.0
220
0.0
230
1.0
  2
SOLID
 70
     1
 71
     0
 91
        1
 92
        1
 93
        4
 72
     1
 10
58.80312905430964
 20
-97.070043921045
 11
58.80312905430964
 21
-96.81820744107323
 72
     1
 10
58.80312905430964
 20
-96.81820744107323
 11
59.07219101170765
 21
-96.81820744107323
 72
     1
 10
59.07219101170765
 20
-96.81820744107323
 11
59.07219101170765
 21
-97.070043921045
 72
     1
 10
59.07219101170765
 20
-97.070043921045
 11
58.80312905430964
 21
-97.070043921045
 97
        0
 75
     2
 76
     1
 98
        0
  0
SPLINE
  5
D9
330
CB
100
AcDbEntity
  8
_U+30EC_U+30A4_U+30E4_U+30FC 1
370
     0
100
AcDbSpline
210
0.0
220
0.0
230
1.0
 70
    11
 71
     3
 72
    53
 73
    49
 74
     0
 42
0.0000000001
 43
0.0000000001
 12
1.0
 22
0.0
 32
0.0
 13
1.0
 23
0.0
 33
0.0
 40
0.0
 40
0.0
 40
0.0
 40
0.0
 40
1.0
 40
1.0
 40
1.0
 40
2.0
 40
2.0
 40
2.0
 40
3.0
 40
3.0
 40
3.0
 40
4.0
 40
4.0
 40
4.0
 40
5.0
 40
5.0
 40
5.0
 40
6.0
 40
6.0
 40
6.0
 40
7.0
 40
7.0
 40
7.0
 40
8.0
 40
8.0
 40
8.0
 40
9.0
 40
9.0
 40
9.0
 40
10.0
 40
10.0
 40
10.0
 40
11.0
 40
11.0
 40
11.0
 40
12.0
 40
12.0
 40
12.0
 40
13.0
 40
13.0
 40
13.0
 40
14.0
 40
14.0
 40
14.0
 40
15.0
 40
15.0
 40
15.0
 40
16.0
 40
16.0
 40
16.0
 40
16.0
 10
59.83889701195
 20
-97.12068682467816
 30
0.0
 10
59.75535344643269
 20
-97.12068682467816
 30
0.0
 10
59.64683293864732
 20
-97.10380585680045
 30
0.0
 10
59.53831243086195
 20
-97.04041609987185
 30
0.0
 10
59.35279403898125
 20
-96.93051755389237
 30
0.0
 10
59.33022866355286
 20
-96.79925941590436
 30
0.0
 10
59.30990260018989
 20
-96.69142792721604
 30
0.0
 10
59.30990260018989
 20
-96.69142792721604
 30
0.0
 10
59.5472696791236
 20
-96.69142792721604
 30
0.0
 10
59.5472696791236
 20
-96.69142792721604
 30
0.0
 10
59.60600855714711
 20
-96.89020993671495
 30
0.0
 10
59.74174531926595
 20
-96.9198377578881
 30
0.0
 10
59.84113632401542
 20
-96.9198377578881
 30
0.0
 10
59.990481213301
 20
-96.9198377578881
 30
0.0
 10
60.15326197497905
 20
-96.82027449836438
 30
0.0
 10
60.15326197497905
 20
-96.58773055311002
 30
0.0
 10
60.15326197497905
 20
-96.33175995855595
 30
0.0
 10
59.96102564690211
 20
-96.26182452020538
 30
0.0
 10
59.83217907575376
 20
-96.26182452020538
 30
0.0
 10
59.79824488522405
 20
-96.26182452020538
 30
0.0
 10
59.64683293864732
 20
-96.26182452020538
 30
0.0
 10
59.55174830325443
 20
-96.39101560090225
 30
0.0
 10
59.55174830325443
 20
-96.39101560090225
 30
0.0
 10
59.36416285408257
 20
-96.37206757573338
 30
0.0
 10
59.36416285408257
 20
-96.37206757573338
 30
0.0
 10
59.36416285408257
 20
-96.37206757573338
 30
0.0
 10
59.49300942523092
 20
-95.52560761500749
 30
0.0
 10
59.49300942523092
 20
-95.52560761500749
 30
0.0
 10
59.49300942523092
 20
-95.52560761500749
 30
0.0
 10
60.32499998491875
 20
-95.52560761500749
 30
0.0
 10
60.32499998491875
 20
-95.52560761500749
 30
0.0
 10
60.32499998491875
 20
-95.52560761500749
 30
0.0
 10
60.32499998491875
 20
-95.7202555099241
 30
0.0
 10
60.32499998491875
 20
-95.7202555099241
 30
0.0
 10
60.32499998491875
 20
-95.7202555099241
 30
0.0
 10
59.66715900201029
 20
-95.7202555099241
 30
0.0
 10
59.66715900201029
 20
-95.7202555099241
 30
0.0
 10
59.66715900201029
 20
-95.7202555099241
 30
0.0
 10
59.59705130888546
 20
-96.14331323551279
 30
0.0
 10
59.59705130888546
 20
-96.14331323551279
 30
0.0
 10
59.66250812310521
 20
-96.10955129975734
 30
0.0
 10
59.7507025675276
 20
-96.06924368257991
 30
0.0
 10
59.87730982661054
 20
-96.06924368257991
 30
0.0
 10
60.14861109607396
 20
-96.06924368257991
 30
0.0
 10
60.40182561423983
 20
-96.25562334833194
 30
0.0
 10
60.40182561423983
 20
-96.56878252794114
 30
0.0
 10
60.40182561423983
 20
-96.88607582213265
 30
0.0
 10
60.1622192232407
 20
-97.12068682467816
 30
0.0
 10
59.83889701195
 20
-97.12068682467816
 30
0.0
  0
HATCH
  5
DA
330
CB
100
AcDbEntity
  8
_U+30EC_U+30A4_U+30E4_U+30FC 1
 62
   179
420
  2234388
100
AcDbHatch
 10
0.0
 20
0.0
 30
0.0
210
0.0
220
0.0
230
1.0
  2
SOLID
 70
     1
 71
     0
 91
        1
 92
        1
 93
        1
 72
     4
 94
        3
 73
     0
 74
     1
 95
       53
 96
       49
 40
0.0
 40
0.0
 40
0.0
 40
0.0
 40
1.0
 40
1.0
 40
1.0
 40
2.0
 40
2.0
 40
2.0
 40
3.0
 40
3.0
 40
3.0
 40
4.0
 40
4.0
 40
4.0
 40
5.0
 40
5.0
 40
5.0
 40
6.0
 40
6.0
 40
6.0
 40
7.0
 40
7.0
 40
7.0
 40
8.0
 40
8.0
 40
8.0
 40
9.0
 40
9.0
 40
9.0
 40
10.0
 40
10.0
 40
10.0
 40
11.0
 40
11.0
 40
11.0
 40
12.0
 40
12.0
 40
12.0
 40
13.0
 40
13.0
 40
13.0
 40
14.0
 40
14.0
 40
14.0
 40
15.0
 40
15.0
 40
15.0
 40
16.0
 40
16.0
 40
16.0
 40
16.0
 10
59.83889701195
 20
-97.12068682467816
 10
59.75535344643269
 20
-97.12068682467816
 10
59.64683293864732
 20
-97.10380585680045
 10
59.53831243086195
 20
-97.04041609987185
 10
59.35279403898125
 20
-96.93051755389237
 10
59.33022866355286
 20
-96.79925941590436
 10
59.30990260018989
 20
-96.69142792721604
 10
59.30990260018989
 20
-96.69142792721604
 10
59.5472696791236
 20
-96.69142792721604
 10
59.5472696791236
 20
-96.69142792721604
 10
59.60600855714711
 20
-96.89020993671495
 10
59.74174531926595
 20
-96.9198377578881
 10
59.84113632401542
 20
-96.9198377578881
 10
59.990481213301
 20
-96.9198377578881
 10
60.15326197497905
 20
-96.82027449836438
 10
60.15326197497905
 20
-96.58773055311002
 10
60.15326197497905
 20
-96.33175995855595
 10
59.96102564690211
 20
-96.26182452020538
 10
59.83217907575376
 20
-96.26182452020538
 10
59.79824488522405
 20
-96.26182452020538
 10
59.64683293864732
 20
-96.26182452020538
 10
59.55174830325443
 20
-96.39101560090225
 10
59.55174830325443
 20
-96.39101560090225
 10
59.36416285408257
 20
-96.37206757573338
 10
59.36416285408257
 20
-96.37206757573338
 10
59.36416285408257
 20
-96.37206757573338
 10
59.49300942523092
 20
-95.52560761500749
 10
59.49300942523092
 20
-95.52560761500749
 10
59.49300942523092
 20
-95.52560761500749
 10
60.32499998491875
 20
-95.52560761500749
 10
60.32499998491875
 20
-95.52560761500749
 10
60.32499998491875
 20
-95.52560761500749
 10
60.32499998491875
 20
-95.7202555099241
 10
60.32499998491875
 20
-95.7202555099241
 10
60.32499998491875
 20
-95.7202555099241
 10
59.66715900201029
 20
-95.7202555099241
 10
59.66715900201029
 20
-95.7202555099241
 10
59.66715900201029
 20
-95.7202555099241
 10
59.59705130888546
 20
-96.14331323551279
 10
59.59705130888546
 20
-96.14331323551279
 10
59.66250812310521
 20
-96.10955129975734
 10
59.7507025675276
 20
-96.06924368257991
 10
59.87730982661054
 20
-96.06924368257991
 10
60.14861109607396
 20
-96.06924368257991
 10
60.40182561423983
 20
-96.25562334833194
 10
60.40182561423983
 20
-96.56878252794114
 10
60.40182561423983
 20
-96.88607582213265
 10
60.1622192232407
 20
-97.12068682467816
 10
59.83889701195
 20
-97.12068682467816
 97
        0
 97
        0
 75
     2
 76
     1
 98
        0
  0
ENDBLK
  5
CE
330
CB
100
AcDbEntity
  8
0
100
AcDbBlockEnd
  0
BLOCK
  5
E9
330
E7
100
AcDbEntity
  8
0
100
AcDbBlockBegin
  2
block 6
 70
     0
 10
0.0
 20
0.0
 30
0.0
  3
block 6
  1

  0
SPLINE
  5
EB
330
E7
100
AcDbEntity
  8
_U+30EC_U+30A4_U+30E4_U+30FC 1
370
     0
100
AcDbSpline
210
0.0
220
0.0
230
1.0
 70
    11
 71
     3
 72
    44
 73
    40
 74
     0
 42
0.0000000001
 43
0.0000000001
 12
1.0
 22
0.0
 32
0.0
 13
1.0
 23
0.0
 33
0.0
 40
0.0
 40
0.0
 40
0.0
 40
0.0
 40
1.0
 40
1.0
 40
1.0
 40
2.0
 40
2.0
 40
2.0
 40
3.0
 40
3.0
 40
3.0
 40
4.0
 40
4.0
 40
4.0
 40
5.0
 40
5.0
 40
5.0
 40
6.0
 40
6.0
 40
6.0
 40
7.0
 40
7.0
 40
7.0
 40
8.0
 40
8.0
 40
8.0
 40
9.0
 40
9.0
 40
9.0
 40
10.0
 40
10.0
 40
10.0
 40
11.0
 40
11.0
 40
11.0
 40
12.0
 40
12.0
 40
12.0
 40
13.0
 40
13.0
 40
13.0
 40
13.0
 10
63.85691187639689
 20
-80.28829479329599
 30
0.0
 10
63.62385116681973
 20
-80.44711369516601
 30
0.0
 10
63.52428790729601
 20
-80.52118324809888
 30
0.0
 10
63.47226696546874
 20
-80.66484372983379
 30
0.0
 10
63.47226696546874
 20
-80.66484372983379
 30
0.0
 10
64.30477428947937
 20
-80.66484372983379
 30
0.0
 10
64.30477428947937
 20
-80.66484372983379
 30
0.0
 10
64.30477428947937
 20
-80.66484372983379
 30
0.0
 10
64.30477428947937
 20
-80.87017142075469
 30
0.0
 10
64.30477428947937
 20
-80.87017142075469
 30
0.0
 10
64.30477428947937
 20
-80.87017142075469
 30
0.0
 10
63.2056165749104
 20
-80.87017142075469
 30
0.0
 10
63.2056165749104
 20
-80.87017142075469
 30
0.0
 10
63.23972302021438
 20
-80.51257050938575
 30
0.0
 10
63.30965845856495
 20
-80.43436684187058
 30
0.0
 10
63.72100285950378
 20
-80.13602157284794
 30
0.0
 10
63.99471569580688
 20
-79.93723956334902
 30
0.0
 10
64.06499564370597
 20
-79.86937118228961
 30
0.0
 10
64.06499564370597
 20
-79.73191187242814
 30
0.0
 10
64.06499564370597
 20
-79.61340058773554
 30
0.0
 10
63.98817001438491
 20
-79.48248695929605
 30
0.0
 10
63.77750242546188
 20
-79.48248695929605
 30
0.0
 10
63.49948321980222
 20
-79.48248695929605
 30
0.0
 10
63.49052597154056
 20
-79.71296384725926
 30
0.0
 10
63.48604734740974
 20
-79.8294080746607
 30
0.0
 10
63.48604734740974
 20
-79.8294080746607
 30
0.0
 10
63.24626870163635
 20
-79.8294080746607
 30
0.0
 10
63.24626870163635
 20
-79.8294080746607
 30
0.0
 10
63.255225949898
 20
-79.70228405125499
 30
0.0
 10
63.26659476499933
 20
-79.59031844798437
 30
0.0
 10
63.35272215213057
 20
-79.47180716329177
 30
0.0
 10
63.47019990817759
 20
-79.31092120413061
 30
0.0
 10
63.6689819176765
 20
-79.27715926837516
 30
0.0
 10
63.79334986469403
 20
-79.27715926837516
 30
0.0
 10
64.08980033119977
 20
-79.27715926837516
 30
0.0
 10
64.31131997090134
 20
-79.4611273672875
 30
0.0
 10
64.31131997090134
 20
-79.73397892971929
 30
0.0
 10
64.31131997090134
 20
-79.96273326993987
 30
0.0
 10
64.18695202388382
 20
-80.06195201991507
 30
0.0
 10
63.85691187639689
 20
-80.28829479329599
 30
0.0
  0
HATCH
  5
EC
330
E7
100
AcDbEntity
  8
_U+30EC_U+30A4_U+30E4_U+30FC 1
 62
   179
420
  2234388
100
AcDbHatch
 10
0.0
 20
0.0
 30
0.0
210
0.0
220
0.0
230
1.0
  2
SOLID
 70
     1
 71
     0
 91
        1
 92
        1
 93
        1
 72
     4
 94
        3
 73
     0
 74
     1
 95
       44
 96
       40
 40
0.0
 40
0.0
 40
0.0
 40
0.0
 40
1.0
 40
1.0
 40
1.0
 40
2.0
 40
2.0
 40
2.0
 40
3.0
 40
3.0
 40
3.0
 40
4.0
 40
4.0
 40
4.0
 40
5.0
 40
5.0
 40
5.0
 40
6.0
 40
6.0
 40
6.0
 40
7.0
 40
7.0
 40
7.0
 40
8.0
 40
8.0
 40
8.0
 40
9.0
 40
9.0
 40
9.0
 40
10.0
 40
10.0
 40
10.0
 40
11.0
 40
11.0
 40
11.0
 40
12.0
 40
12.0
 40
12.0
 40
13.0
 40
13.0
 40
13.0
 40
13.0
 10
63.85691187639689
 20
-80.28829479329599
 10
63.62385116681973
 20
-80.44711369516601
 10
63.52428790729601
 20
-80.52118324809888
 10
63.47226696546874
 20
-80.66484372983379
 10
63.47226696546874
 20
-80.66484372983379
 10
64.30477428947937
 20
-80.66484372983379
 10
64.30477428947937
 20
-80.66484372983379
 10
64.30477428947937
 20
-80.66484372983379
 10
64.30477428947937
 20
-80.87017142075469
 10
64.30477428947937
 20
-80.87017142075469
 10
64.30477428947937
 20
-80.87017142075469
 10
63.2056165749104
 20
-80.87017142075469
 10
63.2056165749104
 20
-80.87017142075469
 10
63.23972302021438
 20
-80.51257050938575
 10
63.30965845856495
 20
-80.43436684187058
 10
63.72100285950378
 20
-80.13602157284794
 10
63.99471569580688
 20
-79.93723956334902
 10
64.06499564370597
 20
-79.86937118228961
 10
64.06499564370597
 20
-79.73191187242814
 10
64.06499564370597
 20
-79.61340058773554
 10
63.98817001438491
 20
-79.48248695929605
 10
63.77750242546188
 20
-79.48248695929605
 10
63.49948321980222
 20
-79.48248695929605
 10
63.49052597154056
 20
-79.71296384725926
 10
63.48604734740974
 20
-79.8294080746607
 10
63.48604734740974
 20
-79.8294080746607
 10
63.24626870163635
 20
-79.8294080746607
 10
63.24626870163635
 20
-79.8294080746607
 10
63.255225949898
 20
-79.70228405125499
 10
63.26659476499933
 20
-79.59031844798437
 10
63.35272215213057
 20
-79.47180716329177
 10
63.47019990817759
 20
-79.31092120413061
 10
63.6689819176765
 20
-79.27715926837516
 10
63.79334986469403
 20
-79.27715926837516
 10
64.08980033119977
 20
-79.27715926837516
 10
64.31131997090134
 20
-79.4611273672875
 10
64.31131997090134
 20
-79.73397892971929
 10
64.31131997090134
 20
-79.96273326993987
 10
64.18695202388382
 20
-80.06195201991507
 10
63.85691187639689
 20
-80.28829479329599
 97
        0
 97
        0
 75
     2
 76
     1
 98
        0
  0
SPLINE
  5
ED
330
E7
100
AcDbEntity
  8
_U+30EC_U+30A4_U+30E4_U+30FC 1
370
     0
100
AcDbSpline
210
0.0
220
0.0
230
1.0
 70
    11
 71
     3
 72
    29
 73
    25
 74
     0
 42
0.0000000001
 43
0.0000000001
 12
1.0
 22
0.0
 32
0.0
 13
1.0
 23
0.0
 33
0.0
 40
0.0
 40
0.0
 40
0.0
 40
0.0
 40
1.0
 40
1.0
 40
1.0
 40
2.0
 40
2.0
 40
2.0
 40
3.0
 40
3.0
 40
3.0
 40
4.0
 40
4.0
 40
4.0
 40
5.0
 40
5.0
 40
5.0
 40
6.0
 40
6.0
 40
6.0
 40
7.0
 40
7.0
 40
7.0
 40
8.0
 40
8.0
 40
8.0
 40
8.0
 10
65.44027776141772
 20
-80.69240449371578
 30
0.0
 10
65.32486706266184
 20
-80.90186629921898
 30
0.0
 10
65.1395209255554
 20
-80.92081432438786
 30
0.0
 10
65.01515297853788
 20
-80.92081432438786
 30
0.0
 10
64.84358722337244
 20
-80.92081432438786
 30
0.0
 10
64.69200302202145
 20
-80.87430553533699
 30
0.0
 10
64.59037270520658
 20
-80.69240449371578
 30
0.0
 10
64.47944063058154
 20
-80.49775659879917
 30
0.0
 10
64.45911456721856
 20
-80.26107853896251
 30
0.0
 10
64.45911456721856
 20
-80.09812552251019
 30
0.0
 10
64.45911456721856
 20
-79.95412053122675
 30
0.0
 10
64.47702906374185
 20
-79.70228405125499
 30
0.0
 10
64.59037270520658
 20
-79.50350204175608
 30
0.0
 10
64.70543889441392
 20
-79.30058591767485
 30
0.0
 10
64.87734915912789
 20
-79.27715926837516
 30
0.0
 10
65.01515297853788
 20
-79.27715926837516
 30
0.0
 10
65.1849961859607
 20
-79.27715926837516
 30
0.0
 10
65.33864744460284
 20
-79.32160100013488
 30
0.0
 10
65.44027776141772
 20
-79.50350204175608
 30
0.0
 10
65.54673121191193
 20
-79.69608287938154
 30
0.0
 10
65.57153589940573
 20
-79.9244927100536
 30
0.0
 10
65.57153589940573
 20
-80.09812552251019
 30
0.0
 10
65.57153589940573
 20
-80.26934676812711
 30
0.0
 10
65.54879826920308
 20
-80.49982365609033
 30
0.0
 10
65.44027776141772
 20
-80.69240449371578
 30
0.0
  0
SPLINE
  5
EE
330
E7
100
AcDbEntity
  8
_U+30EC_U+30A4_U+30E4_U+30FC 1
370
     0
100
AcDbSpline
210
0.0
220
0.0
230
1.0
 70
    11
 71
     3
 72
    17
 73
    13
 74
     0
 42
0.0000000001
 43
0.0000000001
 12
1.0
 22
0.0
 32
0.0
 13
1.0
 23
0.0
 33
0.0
 40
0.0
 40
0.0
 40
0.0
 40
0.0
 40
1.0
 40
1.0
 40
1.0
 40
2.0
 40
2.0
 40
2.0
 40
3.0
 40
3.0
 40
3.0
 40
4.0
 40
4.0
 40
4.0
 40
4.0
 10
65.01515297853788
 20
-79.46974010600063
 30
0.0
 10
64.74850258797954
 20
-79.46974010600063
 30
0.0
 10
64.69889321299195
 20
-79.75327146443668
 30
0.0
 10
64.69889321299195
 20
-80.09812552251019
 30
0.0
 10
64.69889321299195
 20
-80.41748587399286
 30
0.0
 10
64.73713377287822
 20
-80.72616642947123
 30
0.0
 10
65.01515297853788
 20
-80.72616642947123
 30
0.0
 10
65.27973631180507
 20
-80.72616642947123
 30
0.0
 10
65.33175725363235
 20
-80.44504663787485
 30
0.0
 10
65.33175725363235
 20
-80.09812552251019
 30
0.0
 10
65.33175725363235
 20
-79.778420661479
 30
0.0
 10
65.29110512690639
 20
-79.46974010600063
 30
0.0
 10
65.01515297853788
 20
-79.46974010600063
 30
0.0
  0
HATCH
  5
EF
330
E7
100
AcDbEntity
  8
_U+30EC_U+30A4_U+30E4_U+30FC 1
 62
   179
420
  2234388
100
AcDbHatch
 10
0.0
 20
0.0
 30
0.0
210
0.0
220
0.0
230
1.0
  2
SOLID
 70
     1
 71
     0
 91
        2
 92
        1
 93
        1
 72
     4
 94
        3
 73
     0
 74
     1
 95
       29
 96
       25
 40
0.0
 40
0.0
 40
0.0
 40
0.0
 40
1.0
 40
1.0
 40
1.0
 40
2.0
 40
2.0
 40
2.0
 40
3.0
 40
3.0
 40
3.0
 40
4.0
 40
4.0
 40
4.0
 40
5.0
 40
5.0
 40
5.0
 40
6.0
 40
6.0
 40
6.0
 40
7.0
 40
7.0
 40
7.0
 40
8.0
 40
8.0
 40
8.0
 40
8.0
 10
65.44027776141772
 20
-80.69240449371578
 10
65.32486706266184
 20
-80.90186629921898
 10
65.1395209255554
 20
-80.92081432438786
 10
65.01515297853788
 20
-80.92081432438786
 10
64.84358722337244
 20
-80.92081432438786
 10
64.69200302202145
 20
-80.87430553533699
 10
64.59037270520658
 20
-80.69240449371578
 10
64.47944063058154
 20
-80.49775659879917
 10
64.45911456721856
 20
-80.26107853896251
 10
64.45911456721856
 20
-80.09812552251019
 10
64.45911456721856
 20
-79.95412053122675
 10
64.47702906374185
 20
-79.70228405125499
 10
64.59037270520658
 20
-79.50350204175608
 10
64.70543889441392
 20
-79.30058591767485
 10
64.87734915912789
 20
-79.27715926837516
 10
65.01515297853788
 20
-79.27715926837516
 10
65.1849961859607
 20
-79.27715926837516
 10
65.33864744460284
 20
-79.32160100013488
 10
65.44027776141772
 20
-79.50350204175608
 10
65.54673121191193
 20
-79.69608287938154
 10
65.57153589940573
 20
-79.9244927100536
 10
65.57153589940573
 20
-80.09812552251019
 10
65.57153589940573
 20
-80.26934676812711
 10
65.54879826920308
 20
-80.49982365609033
 10
65.44027776141772
 20
-80.69240449371578
 97
        0
 97
        0
 92
        1
 93
        1
 72
     4
 94
        3
 73
     0
 74
     1
 95
       17
 96
       13
 40
0.0
 40
0.0
 40
0.0
 40
0.0
 40
1.0
 40
1.0
 40
1.0
 40
2.0
 40
2.0
 40
2.0
 40
3.0
 40
3.0
 40
3.0
 40
4.0
 40
4.0
 40
4.0
 40
4.0
 10
65.01515297853788
 20
-79.46974010600063
 10
64.74850258797954
 20
-79.46974010600063
 10
64.69889321299195
 20
-79.75327146443668
 10
64.69889321299195
 20
-80.09812552251019
 10
64.69889321299195
 20
-80.41748587399286
 10
64.73713377287822
 20
-80.72616642947123
 10
65.01515297853788
 20
-80.72616642947123
 10
65.27973631180507
 20
-80.72616642947123
 10
65.33175725363235
 20
-80.44504663787485
 10
65.33175725363235
 20
-80.09812552251019
 10
65.33175725363235
 20
-79.778420661479
 10
65.29110512690639
 20
-79.46974010600063
 10
65.01515297853788
 20
-79.46974010600063
 97
        0
 97
        0
 75
     2
 76
     1
 98
        0
  0
ENDBLK
  5
EA
330
E7
100
AcDbEntity
  8
0
100
AcDbBlockEnd
  0
ENDSEC
  0
SECTION
  2
ENTITIES
  0
POLYLINE
  5
41
330
1F
100
AcDbEntity
  8
_U+30EC_U+30A4_U+30E4_U+30FC 1
 62
   179
420
  2234388
370
    25
100
AcDb2dPolyline
 66
     1
 10
0.0
 20
0.0
 30
0.0
  0
VERTEX
  5
42
330
41
100
AcDbEntity
  8
_U+30EC_U+30A4_U+30E4_U+30FC 1
 62
   179
420
  2234388
370
    25
100
AcDbVertex
100
AcDb2dVertex
 10
54.38566722361715
 20
-85.46662553418895
 30
0.0
  0
VERTEX
  5
43
330
41
100
AcDbEntity
  8
_U+30EC_U+30A4_U+30E4_U+30FC 1
 62
   179
420
  2234388
370
    25
100
AcDbVertex
100
AcDb2dVertex
 10
74.38580310226006
 20
-85.46662553418895
 30
0.0
  0
SEQEND
  5
44
330
41
100
AcDbEntity
  8
_U+30EC_U+30A4_U+30E4_U+30FC 1
 62
   179
420
  2234388
370
    25
  0
POLYLINE
  5
45
330
1F
100
AcDbEntity
  8
_U+30EC_U+30A4_U+30E4_U+30FC 1
 62
   179
420
  2234388
370
    25
100
AcDb2dPolyline
 66
     1
 10
0.0
 20
0.0
 30
0.0
  0
VERTEX
  5
46
330
45
100
AcDbEntity
  8
_U+30EC_U+30A4_U+30E4_U+30FC 1
 62
   179
420
  2234388
370
    25
100
AcDbVertex
100
AcDb2dVertex
 10
54.38566722361715
 20
-85.46662553418895
 30
0.0
  0
VERTEX
  5
47
330
45
100
AcDbEntity
  8
_U+30EC_U+30A4_U+30E4_U+30FC 1
 62
   179
420
  2234388
370
    25
100
AcDbVertex
100
AcDb2dVertex
 10
54.38566722361715
 20
-93.6662746988059
 30
0.0
  0
SEQEND
  5
48
330
45
100
AcDbEntity
  8
_U+30EC_U+30A4_U+30E4_U+30FC 1
 62
   179
420
  2234388
370
    25
  0
POLYLINE
  5
49
330
1F
100
AcDbEntity
  8
_U+30EC_U+30A4_U+30E4_U+30FC 1
 62
   179
420
  2234388
370
    25
100
AcDb2dPolyline
 66
     1
 10
0.0
 20
0.0
 30
0.0
  0
VERTEX
  5
4A
330
49
100
AcDbEntity
  8
_U+30EC_U+30A4_U+30E4_U+30FC 1
 62
   179
420
  2234388
370
    25
100
AcDbVertex
100
AcDb2dVertex
 10
74.38580310226006
 20
-85.46662553418895
 30
0.0
  0
VERTEX
  5
4B
330
49
100
AcDbEntity
  8
_U+30EC_U+30A4_U+30E4_U+30FC 1
 62
   179
420
  2234388
370
    25
100
AcDbVertex
100
AcDb2dVertex
 10
74.38580310226006
 20
-86.46639775616117
 30
0.0
  0
SEQEND
  5
4C
330
49
100
AcDbEntity
  8
_U+30EC_U+30A4_U+30E4_U+30FC 1
 62
   179
420
  2234388
370
    25
  0
POLYLINE
  5
4D
330
1F
100
AcDbEntity
  8
_U+30EC_U+30A4_U+30E4_U+30FC 1
 62
   179
420
  2234388
370
    25
100
AcDb2dPolyline
 66
     1
 10
0.0
 20
0.0
 30
0.0
  0
VERTEX
  5
4E
330
4D
100
AcDbEntity
  8
_U+30EC_U+30A4_U+30E4_U+30FC 1
 62
   179
420
  2234388
370
    25
100
AcDbVertex
100
AcDb2dVertex
 10
55.38575831948683
 20
-86.46639775616117
 30
0.0
  0
VERTEX
  5
4F
330
4D
100
AcDbEntity
  8
_U+30EC_U+30A4_U+30E4_U+30FC 1
 62
   179
420
  2234388
370
    25
100
AcDbVertex
100
AcDb2dVertex
 10
74.38580310226006
 20
-86.46639775616117
 30
0.0
  0
SEQEND
  5
50
330
4D
100
AcDbEntity
  8
_U+30EC_U+30A4_U+30E4_U+30FC 1
 62
   179
420
  2234388
370
    25
  0
POLYLINE
  5
51
330
1F
100
AcDbEntity
  8
_U+30EC_U+30A4_U+30E4_U+30FC 1
 62
   179
420
  2234388
370
    25
100
AcDb2dPolyline
 66
     1
 10
0.0
 20
0.0
 30
0.0
  0
VERTEX
  5
52
330
51
100
AcDbEntity
  8
_U+30EC_U+30A4_U+30E4_U+30FC 1
 62
   179
420
  2234388
370
    25
100
AcDbVertex
100
AcDb2dVertex
 10
56.88576943022308
 20
-92.66653775461089
 30
0.0
  0
VERTEX
  5
53
330
51
100
AcDbEntity
  8
_U+30EC_U+30A4_U+30E4_U+30FC 1
 62
   179
420
  2234388
370
    25
100
AcDbVertex
100
AcDb2dVertex
 10
56.88576943022308
 20
-93.6662746988059
 30
0.0
  0
SEQEND
  5
54
330
51
100
AcDbEntity
  8
_U+30EC_U+30A4_U+30E4_U+30FC 1
 62
   179
420
  2234388
370
    25
  0
POLYLINE
  5
55
330
1F
100
AcDbEntity
  8
_U+30EC_U+30A4_U+30E4_U+30FC 1
 62
   179
420
  2234388
370
    25
100
AcDb2dPolyline
 66
     1
 10
0.0
 20
0.0
 30
0.0
  0
VERTEX
  5
56
330
55
100
AcDbEntity
  8
_U+30EC_U+30A4_U+30E4_U+30FC 1
 62
   179
420
  2234388
370
    25
100
AcDbVertex
100
AcDb2dVertex
 10
55.38575831948683
 20
-92.66653775461089
 30
0.0
  0
VERTEX
  5
57
330
55
100
AcDbEntity
  8
_U+30EC_U+30A4_U+30E4_U+30FC 1
 62
   179
420
  2234388
370
    25
100
AcDbVertex
100
AcDb2dVertex
 10
56.88576943022308
 20
-92.66653775461089
 30
0.0
  0
SEQEND
  5
58
330
55
100
AcDbEntity
  8
_U+30EC_U+30A4_U+30E4_U+30FC 1
 62
   179
420
  2234388
370
    25
  0
POLYLINE
  5
59
330
1F
100
AcDbEntity
  8
_U+30EC_U+30A4_U+30E4_U+30FC 1
 62
   179
420
  2234388
370
    25
100
AcDb2dPolyline
 66
     1
 10
0.0
 20
0.0
 30
0.0
  0
VERTEX
  5
5A
330
59
100
AcDbEntity
  8
_U+30EC_U+30A4_U+30E4_U+30FC 1
 62
   179
420
  2234388
370
    25
100
AcDbVertex
100
AcDb2dVertex
 10
55.38575831948683
 20
-86.46639775616117
 30
0.0
  0
VERTEX
  5
5B
330
59
100
AcDbEntity
  8
_U+30EC_U+30A4_U+30E4_U+30FC 1
 62
   179
420
  2234388
370
    25
100
AcDbVertex
100
AcDb2dVertex
 10
55.38575831948683
 20
-92.66653775461089
 30
0.0
  0
SEQEND
  5
5C
330
59
100
AcDbEntity
  8
_U+30EC_U+30A4_U+30E4_U+30FC 1
 62
   179
420
  2234388
370
    25
  0
POLYLINE
  5
5D
330
1F
100
AcDbEntity
  8
_U+30EC_U+30A4_U+30E4_U+30FC 1
 62
   179
420
  2234388
370
    25
100
AcDb2dPolyline
 66
     1
 10
0.0
 20
0.0
 30
0.0
  0
VERTEX
  5
5E
330
5D
100
AcDbEntity
  8
_U+30EC_U+30A4_U+30E4_U+30FC 1
 62
   179
420
  2234388
370
    25
100
AcDbVertex
100
AcDb2dVertex
 10
54.38566722361715
 20
-93.6662746988059
 30
0.0
  0
VERTEX
  5
5F
330
5D
100
AcDbEntity
  8
_U+30EC_U+30A4_U+30E4_U+30FC 1
 62
   179
420
  2234388
370
    25
100
AcDbVertex
100
AcDb2dVertex
 10
56.88576943022308
 20
-93.6662746988059
 30
0.0
  0
SEQEND
  5
60
330
5D
100
AcDbEntity
  8
_U+30EC_U+30A4_U+30E4_U+30FC 1
 62
   179
420
  2234388
370
    25
  0
SPLINE
  5
61
330
1F
100
AcDbEntity
  8
_U+30EC_U+30A4_U+30E4_U+30FC 1
 62
   179
420
  2234388
370
     9
100
AcDbSpline
210
0.0
220
0.0
230
1.0
 70
    11
 71
     3
 72
    17
 73
    13
 74
     0
 42
0.0000000001
 43
0.0000000001
 12
1.0
 22
0.0
 32
0.0
 13
1.0
 23
0.0
 33
0.0
 40
0.0
 40
0.0
 40
0.0
 40
0.0
 40
1.0
 40
1.0
 40
1.0
 40
2.0
 40
2.0
 40
2.0
 40
3.0
 40
3.0
 40
3.0
 40
4.0
 40
4.0
 40
4.0
 40
4.0
 10
54.48557388773498
 20
-81.46616081296686
 30
0.0
 10
54.48557388773498
 20
-81.41105692409162
 30
0.0
 10
54.44077111110022
 20
-81.36625414632522
 30
0.0
 10
54.38566722361715
 20
-81.36625414632522
 30
0.0
 10
54.3305280583572
 20
-81.36625414632522
 30
0.0
 10
54.28576055949931
 20
-81.41105692409162
 30
0.0
 10
54.28576055949931
 20
-81.46616081296686
 30
0.0
 10
54.28576055949931
 20
-81.52165275739738
 30
0.0
 10
54.3305280583572
 20
-81.56642025738626
 30
0.0
 10
54.38566722361715
 20
-81.56642025738626
 30
0.0
 10
54.44077111110022
 20
-81.56642025738626
 30
0.0
 10
54.48557388773498
 20
-81.52165275739738
 30
0.0
 10
54.48557388773498
 20
-81.46616081296686
 30
0.0
  0
SPLINE
  5
62
330
1F
100
AcDbEntity
  8
_U+30EC_U+30A4_U+30E4_U+30FC 1
 62
   179
420
  2234388
370
     9
100
AcDbSpline
210
0.0
220
0.0
230
1.0
 70
    11
 71
     3
 72
    17
 73
    13
 74
     0
 42
0.0000000001
 43
0.0000000001
 12
1.0
 22
0.0
 32
0.0
 13
1.0
 23
0.0
 33
0.0
 40
0.0
 40
0.0
 40
0.0
 40
0.0
 40
1.0
 40
1.0
 40
1.0
 40
2.0
 40
2.0
 40
2.0
 40
3.0
 40
3.0
 40
3.0
 40
4.0
 40
4.0
 40
4.0
 40
4.0
 10
74.4857097663779
 20
-81.46616081296686
 30
0.0
 10
74.4857097663779
 20
-81.41105692409162
 30
0.0
 10
74.44094226752001
 20
-81.36625414632522
 30
0.0
 10
74.38580310226006
 20
-81.36625414632522
 30
0.0
 10
74.33069921477698
 20
-81.36625414632522
 30
0.0
 10
74.28589643814223
 20
-81.41105692409162
 30
0.0
 10
74.28589643814223
 20
-81.46616081296686
 30
0.0
 10
74.28589643814223
 20
-81.52165275739738
 30
0.0
 10
74.33069921477698
 20
-81.56642025738626
 30
0.0
 10
74.38580310226006
 20
-81.56642025738626
 30
0.0
 10
74.44094226752001
 20
-81.56642025738626
 30
0.0
 10
74.4857097663779
 20
-81.52165275739738
 30
0.0
 10
74.4857097663779
 20
-81.46616081296686
 30
0.0
  0
SPLINE
  5
63
330
1F
100
AcDbEntity
  8
_U+30EC_U+30A4_U+30E4_U+30FC 1
 62
   179
420
  2234388
370
     9
100
AcDbSpline
210
0.0
220
0.0
230
1.0
 70
    11
 71
     3
 72
    17
 73
    13
 74
     0
 42
0.0000000001
 43
0.0000000001
 12
1.0
 22
0.0
 32
0.0
 13
1.0
 23
0.0
 33
0.0
 40
0.0
 40
0.0
 40
0.0
 40
0.0
 40
1.0
 40
1.0
 40
1.0
 40
2.0
 40
2.0
 40
2.0
 40
3.0
 40
3.0
 40
3.0
 40
4.0
 40
4.0
 40
4.0
 40
4.0
 10
78.48582160877099
 20
-85.46662553418895
 30
0.0
 10
78.48582160877099
 20
-85.41116886753595
 30
0.0
 10
78.44101883213622
 20
-85.36636608976956
 30
0.0
 10
78.38591494465315
 20
-85.36636608976956
 30
0.0
 10
78.3304582794013
 20
-85.36636608976956
 30
0.0
 10
78.28565550276653
 20
-85.41116886753595
 30
0.0
 10
78.28565550276653
 20
-85.46662553418895
 30
0.0
 10
78.28565550276653
 20
-85.52172942306386
 30
0.0
 10
78.3304582794013
 20
-85.56653220083058
 30
0.0
 10
78.38591494465315
 20
-85.56653220083058
 30
0.0
 10
78.44101883213622
 20
-85.56653220083058
 30
0.0
 10
78.48582160877099
 20
-85.52172942306386
 30
0.0
 10
78.48582160877099
 20
-85.46662553418895
 30
0.0
  0
SPLINE
  5
64
330
1F
100
AcDbEntity
  8
_U+30EC_U+30A4_U+30E4_U+30FC 1
 62
   179
420
  2234388
370
     9
100
AcDbSpline
210
0.0
220
0.0
230
1.0
 70
    11
 71
     3
 72
    17
 73
    13
 74
     0
 42
0.0000000001
 43
0.0000000001
 12
1.0
 22
0.0
 32
0.0
 13
1.0
 23
0.0
 33
0.0
 40
0.0
 40
0.0
 40
0.0
 40
0.0
 40
1.0
 40
1.0
 40
1.0
 40
2.0
 40
2.0
 40
2.0
 40
3.0
 40
3.0
 40
3.0
 40
4.0
 40
4.0
 40
4.0
 40
4.0
 10
78.48582160877099
 20
-86.46639775616117
 30
0.0
 10
78.48582160877099
 20
-86.4112585895084
 30
0.0
 10
78.44101883213622
 20
-86.36649108951953
 30
0.0
 10
78.38591494465315
 20
-86.36649108951953
 30
0.0
 10
78.3304582794013
 20
-86.36649108951953
 30
0.0
 10
78.28565550276653
 20
-86.4112585895084
 30
0.0
 10
78.28565550276653
 20
-86.46639775616117
 30
0.0
 10
78.28565550276653
 20
-86.52150164503641
 30
0.0
 10
78.3304582794013
 20
-86.5663044228028
 30
0.0
 10
78.38591494465315
 20
-86.5663044228028
 30
0.0
 10
78.44101883213622
 20
-86.5663044228028
 30
0.0
 10
78.48582160877099
 20
-86.52150164503641
 30
0.0
 10
78.48582160877099
 20
-86.46639775616117
 30
0.0
  0
SPLINE
  5
65
330
1F
100
AcDbEntity
  8
_U+30EC_U+30A4_U+30E4_U+30FC 1
 62
   179
420
  2234388
370
     9
100
AcDbSpline
210
0.0
220
0.0
230
1.0
 70
    11
 71
     3
 72
    17
 73
    13
 74
     0
 42
0.0000000001
 43
0.0000000001
 12
1.0
 22
0.0
 32
0.0
 13
1.0
 23
0.0
 33
0.0
 40
0.0
 40
0.0
 40
0.0
 40
0.0
 40
1.0
 40
1.0
 40
1.0
 40
2.0
 40
2.0
 40
2.0
 40
3.0
 40
3.0
 40
3.0
 40
4.0
 40
4.0
 40
4.0
 40
4.0
 10
78.48582160877099
 20
-92.66653775461089
 30
0.0
 10
78.48582160877099
 20
-92.6110458101807
 30
0.0
 10
78.44101883213622
 20
-92.56627831019149
 30
0.0
 10
78.38591494465315
 20
-92.56627831019149
 30
0.0
 10
78.3304582794013
 20
-92.56627831019149
 30
0.0
 10
78.28565550276653
 20
-92.6110458101807
 30
0.0
 10
78.28565550276653
 20
-92.66653775461089
 30
0.0
 10
78.28565550276653
 20
-92.72164164348645
 30
0.0
 10
78.3304582794013
 20
-92.76644442125253
 30
0.0
 10
78.38591494465315
 20
-92.76644442125253
 30
0.0
 10
78.44101883213622
 20
-92.76644442125253
 30
0.0
 10
78.48582160877099
 20
-92.72164164348645
 30
0.0
 10
78.48582160877099
 20
-92.66653775461089
 30
0.0
  0
SPLINE
  5
66
330
1F
100
AcDbEntity
  8
_U+30EC_U+30A4_U+30E4_U+30FC 1
 62
   179
420
  2234388
370
     9
100
AcDbSpline
210
0.0
220
0.0
230
1.0
 70
    11
 71
     3
 72
    17
 73
    13
 74
     0
 42
0.0000000001
 43
0.0000000001
 12
1.0
 22
0.0
 32
0.0
 13
1.0
 23
0.0
 33
0.0
 40
0.0
 40
0.0
 40
0.0
 40
0.0
 40
1.0
 40
1.0
 40
1.0
 40
2.0
 40
2.0
 40
2.0
 40
3.0
 40
3.0
 40
3.0
 40
4.0
 40
4.0
 40
4.0
 40
4.0
 10
50.48581482311067
 20
-93.6662746988059
 30
0.0
 10
50.48581482311067
 20
-93.61117080993036
 30
0.0
 10
50.4410120464759
 20
-93.56636803216428
 30
0.0
 10
50.38590815899283
 20
-93.56636803216428
 30
0.0
 10
50.33076899373289
 20
-93.56636803216428
 30
0.0
 10
50.28600276520616
 20
-93.61117080993036
 30
0.0
 10
50.28600276520616
 20
-93.6662746988059
 30
0.0
 10
50.28600276520616
 20
-93.72176664323611
 30
0.0
 10
50.33076899373289
 20
-93.76653414322531
 30
0.0
 10
50.38590815899283
 20
-93.76653414322531
 30
0.0
 10
50.4410120464759
 20
-93.76653414322531
 30
0.0
 10
50.48581482311067
 20
-93.72176664323611
 30
0.0
 10
50.48581482311067
 20
-93.6662746988059
 30
0.0
  0
SPLINE
  5
67
330
1F
100
AcDbEntity
  8
_U+30EC_U+30A4_U+30E4_U+30FC 1
 62
   179
420
  2234388
370
     9
100
AcDbSpline
210
0.0
220
0.0
230
1.0
 70
    11
 71
     3
 72
    17
 73
    13
 74
     0
 42
0.0000000001
 43
0.0000000001
 12
1.0
 22
0.0
 32
0.0
 13
1.0
 23
0.0
 33
0.0
 40
0.0
 40
0.0
 40
0.0
 40
0.0
 40
1.0
 40
1.0
 40
1.0
 40
2.0
 40
2.0
 40
2.0
 40
3.0
 40
3.0
 40
3.0
 40
4.0
 40
4.0
 40
4.0
 40
4.0
 10
50.48581482311067
 20
-85.46662553418895
 30
0.0
 10
50.48581482311067
 20
-85.41116886753595
 30
0.0
 10
50.4410120464759
 20
-85.36636608976956
 30
0.0
 10
50.38590815899283
 20
-85.36636608976956
 30
0.0
 10
50.33076899373289
 20
-85.36636608976956
 30
0.0
 10
50.28600276520616
 20
-85.41116886753595
 30
0.0
 10
50.28600276520616
 20
-85.46662553418895
 30
0.0
 10
50.28600276520616
 20
-85.52172942306386
 30
0.0
 10
50.33076899373289
 20
-85.56653220083058
 30
0.0
 10
50.38590815899283
 20
-85.56653220083058
 30
0.0
 10
50.4410120464759
 20
-85.56653220083058
 30
0.0
 10
50.48581482311067
 20
-85.52172942306386
 30
0.0
 10
50.48581482311067
 20
-85.46662553418895
 30
0.0
  0
SPLINE
  5
68
330
1F
100
AcDbEntity
  8
_U+30EC_U+30A4_U+30E4_U+30FC 1
 62
   179
420
  2234388
370
     9
100
AcDbSpline
210
0.0
220
0.0
230
1.0
 70
    11
 71
     3
 72
    17
 73
    13
 74
     0
 42
0.0000000001
 43
0.0000000001
 12
1.0
 22
0.0
 32
0.0
 13
1.0
 23
0.0
 33
0.0
 40
0.0
 40
0.0
 40
0.0
 40
0.0
 40
1.0
 40
1.0
 40
1.0
 40
2.0
 40
2.0
 40
2.0
 40
3.0
 40
3.0
 40
3.0
 40
4.0
 40
4.0
 40
4.0
 40
4.0
 10
56.98602743505421
 20
-97.66638664224992
 30
0.0
 10
56.98602743505421
 20
-97.611282753375
 30
0.0
 10
56.94122465841944
 20
-97.56647997560827
 30
0.0
 10
56.88576943022308
 20
-97.56647997560827
 30
0.0
 10
56.83031132791574
 20
-97.56647997560827
 30
0.0
 10
56.78586132904976
 20
-97.611282753375
 30
0.0
 10
56.78586132904976
 20
-97.66638664224992
 30
0.0
 10
56.78586132904976
 20
-97.721525808903
 30
0.0
 10
56.83031132791574
 20
-97.76629330889155
 30
0.0
 10
56.88576943022308
 20
-97.76629330889155
 30
0.0
 10
56.94122465841944
 20
-97.76629330889155
 30
0.0
 10
56.98602743505421
 20
-97.721525808903
 30
0.0
 10
56.98602743505421
 20
-97.66638664224992
 30
0.0
  0
SPLINE
  5
69
330
1F
100
AcDbEntity
  8
_U+30EC_U+30A4_U+30E4_U+30FC 1
 62
   179
420
  2234388
370
     9
100
AcDbSpline
210
0.0
220
0.0
230
1.0
 70
    11
 71
     3
 72
    17
 73
    13
 74
     0
 42
0.0000000001
 43
0.0000000001
 12
1.0
 22
0.0
 32
0.0
 13
1.0
 23
0.0
 33
0.0
 40
0.0
 40
0.0
 40
0.0
 40
0.0
 40
1.0
 40
1.0
 40
1.0
 40
2.0
 40
2.0
 40
2.0
 40
3.0
 40
3.0
 40
3.0
 40
4.0
 40
4.0
 40
4.0
 40
4.0
 10
54.48557388773498
 20
-97.66638664224992
 30
0.0
 10
54.48557388773498
 20
-97.611282753375
 30
0.0
 10
54.44077111110022
 20
-97.56647997560827
 30
0.0
 10
54.38566722361715
 20
-97.56647997560827
 30
0.0
 10
54.3305280583572
 20
-97.56647997560827
 30
0.0
 10
54.28576055949931
 20
-97.611282753375
 30
0.0
 10
54.28576055949931
 20
-97.66638664224992
 30
0.0
 10
54.28576055949931
 20
-97.721525808903
 30
0.0
 10
54.3305280583572
 20
-97.76629330889155
 30
0.0
 10
54.38566722361715
 20
-97.76629330889155
 30
0.0
 10
54.44077111110022
 20
-97.76629330889155
 30
0.0
 10
54.48557388773498
 20
-97.721525808903
 30
0.0
 10
54.48557388773498
 20
-97.66638664224992
 30
0.0
  0
POLYLINE
  5
6A
330
1F
100
AcDbEntity
  8
_U+30EC_U+30A4_U+30E4_U+30FC 1
 62
   179
420
  2234388
370
     9
100
AcDb2dPolyline
 66
     1
 10
0.0
 20
0.0
 30
0.0
  0
VERTEX
  5
6B
330
6A
100
AcDbEntity
  8
_U+30EC_U+30A4_U+30E4_U+30FC 1
 62
   179
420
  2234388
370
     9
100
AcDbVertex
100
AcDb2dVertex
 10
50.38590815899283
 20
-85.46662553418895
 30
0.0
  0
VERTEX
  5
6C
330
6A
100
AcDbEntity
  8
_U+30EC_U+30A4_U+30E4_U+30FC 1
 62
   179
420
  2234388
370
     9
100
AcDbVertex
100
AcDb2dVertex
 10
50.38590815899283
 20
-93.6662746988059
 30
0.0
  0
SEQEND
  5
6D
330
6A
100
AcDbEntity
  8
_U+30EC_U+30A4_U+30E4_U+30FC 1
 62
   179
420
  2234388
370
     9
  0
POLYLINE
  5
6E
330
1F
100
AcDbEntity
  8
_U+30EC_U+30A4_U+30E4_U+30FC 1
 62
   179
420
  2234388
370
     9
100
AcDb2dPolyline
 66
     1
 10
0.0
 20
0.0
 30
0.0
  0
VERTEX
  5
6F
330
6E
100
AcDbEntity
  8
_U+30EC_U+30A4_U+30E4_U+30FC 1
 62
   179
420
  2234388
370
     9
100
AcDbVertex
100
AcDb2dVertex
 10
51.84591423285609
 20
-85.46662553418895
 30
0.0
  0
VERTEX
  5
70
330
6E
100
AcDbEntity
  8
_U+30EC_U+30A4_U+30E4_U+30FC 1
 62
   179
420
  2234388
370
     9
100
AcDbVertex
100
AcDb2dVertex
 10
49.38578318450815
 20
-85.46662553418895
 30
0.0
  0
SEQEND
  5
71
330
6E
100
AcDbEntity
  8
_U+30EC_U+30A4_U+30E4_U+30FC 1
 62
   179
420
  2234388
370
     9
  0
POLYLINE
  5
72
330
1F
100
AcDbEntity
  8
_U+30EC_U+30A4_U+30E4_U+30FC 1
 62
   179
420
  2234388
370
     9
100
AcDb2dPolyline
 66
     1
 10
0.0
 20
0.0
 30
0.0
  0
VERTEX
  5
73
330
72
100
AcDbEntity
  8
_U+30EC_U+30A4_U+30E4_U+30FC 1
 62
   179
420
  2234388
370
     9
100
AcDbVertex
100
AcDb2dVertex
 10
51.84591423285609
 20
-93.6662746988059
 30
0.0
  0
VERTEX
  5
74
330
72
100
AcDbEntity
  8
_U+30EC_U+30A4_U+30E4_U+30FC 1
 62
   179
420
  2234388
370
     9
100
AcDbVertex
100
AcDb2dVertex
 10
49.38578318450815
 20
-93.6662746988059
 30
0.0
  0
SEQEND
  5
75
330
72
100
AcDbEntity
  8
_U+30EC_U+30A4_U+30E4_U+30FC 1
 62
   179
420
  2234388
370
     9
  0
INSERT
  5
77
330
1F
100
AcDbEntity
  8
_U+30EC_U+30A4_U+30E4_U+30FC 1
100
AcDbBlockReference
  2
block 2
 10
0.0
 20
0.0
 30
0.0
  0
POLYLINE
  5
88
330
1F
100
AcDbEntity
  8
_U+30EC_U+30A4_U+30E4_U+30FC 1
 62
   179
420
  2234388
370
     9
100
AcDb2dPolyline
 66
     1
 10
0.0
 20
0.0
 30
0.0
  0
VERTEX
  5
89
330
88
100
AcDbEntity
  8
_U+30EC_U+30A4_U+30E4_U+30FC 1
 62
   179
420
  2234388
370
     9
100
AcDbVertex
100
AcDb2dVertex
 10
78.38591494465315
 20
-85.46662553418895
 30
0.0
  0
VERTEX
  5
8A
330
88
100
AcDbEntity
  8
_U+30EC_U+30A4_U+30E4_U+30FC 1
 62
   179
420
  2234388
370
     9
100
AcDbVertex
100
AcDb2dVertex
 10
78.38591494465315
 20
-81.69631303513152
 30
0.0
  0
SEQEND
  5
8B
330
88
100
AcDbEntity
  8
_U+30EC_U+30A4_U+30E4_U+30FC 1
 62
   179
420
  2234388
370
     9
  0
POLYLINE
  5
8C
330
1F
100
AcDbEntity
  8
_U+30EC_U+30A4_U+30E4_U+30FC 1
 62
   179
420
  2234388
370
     9
100
AcDb2dPolyline
 66
     1
 10
0.0
 20
0.0
 30
0.0
  0
VERTEX
  5
8D
330
8C
100
AcDbEntity
  8
_U+30EC_U+30A4_U+30E4_U+30FC 1
 62
   179
420
  2234388
370
     9
100
AcDbVertex
100
AcDb2dVertex
 10
78.38591494465315
 20
-85.46662553418895
 30
0.0
  0
VERTEX
  5
8E
330
8C
100
AcDbEntity
  8
_U+30EC_U+30A4_U+30E4_U+30FC 1
 62
   179
420
  2234388
370
     9
100
AcDbVertex
100
AcDb2dVertex
 10
78.38591494465315
 20
-86.46639775616117
 30
0.0
  0
SEQEND
  5
8F
330
8C
100
AcDbEntity
  8
_U+30EC_U+30A4_U+30E4_U+30FC 1
 62
   179
420
  2234388
370
     9
  0
POLYLINE
  5
90
330
1F
100
AcDbEntity
  8
_U+30EC_U+30A4_U+30E4_U+30FC 1
 62
   179
420
  2234388
370
     9
100
AcDb2dPolyline
 66
     1
 10
0.0
 20
0.0
 30
0.0
  0
VERTEX
  5
91
330
90
100
AcDbEntity
  8
_U+30EC_U+30A4_U+30E4_U+30FC 1
 62
   179
420
  2234388
370
     9
100
AcDbVertex
100
AcDb2dVertex
 10
76.92587359301302
 20
-85.46662553418895
 30
0.0
  0
VERTEX
  5
92
330
90
100
AcDbEntity
  8
_U+30EC_U+30A4_U+30E4_U+30FC 1
 62
   179
420
  2234388
370
     9
100
AcDbVertex
100
AcDb2dVertex
 10
79.38568714136906
 20
-85.46662553418895
 30
0.0
  0
SEQEND
  5
93
330
90
100
AcDbEntity
  8
_U+30EC_U+30A4_U+30E4_U+30FC 1
 62
   179
420
  2234388
370
     9
  0
POLYLINE
  5
94
330
1F
100
AcDbEntity
  8
_U+30EC_U+30A4_U+30E4_U+30FC 1
 62
   179
420
  2234388
370
     9
100
AcDb2dPolyline
 66
     1
 10
0.0
 20
0.0
 30
0.0
  0
VERTEX
  5
95
330
94
100
AcDbEntity
  8
_U+30EC_U+30A4_U+30E4_U+30FC 1
 62
   179
420
  2234388
370
     9
100
AcDbVertex
100
AcDb2dVertex
 10
76.92587359301302
 20
-86.46639775616117
 30
0.0
  0
VERTEX
  5
96
330
94
100
AcDbEntity
  8
_U+30EC_U+30A4_U+30E4_U+30FC 1
 62
   179
420
  2234388
370
     9
100
AcDbVertex
100
AcDb2dVertex
 10
79.38568714136906
 20
-86.46639775616117
 30
0.0
  0
SEQEND
  5
97
330
94
100
AcDbEntity
  8
_U+30EC_U+30A4_U+30E4_U+30FC 1
 62
   179
420
  2234388
370
     9
  0
INSERT
  5
99
330
1F
100
AcDbEntity
  8
_U+30EC_U+30A4_U+30E4_U+30FC 1
100
AcDbBlockReference
  2
block 3
 10
0.0
 20
0.0
 30
0.0
  0
POLYLINE
  5
9E
330
1F
100
AcDbEntity
  8
_U+30EC_U+30A4_U+30E4_U+30FC 1
 62
   179
420
  2234388
370
     9
100
AcDb2dPolyline
 66
     1
 10
0.0
 20
0.0
 30
0.0
  0
VERTEX
  5
9F
330
9E
100
AcDbEntity
  8
_U+30EC_U+30A4_U+30E4_U+30FC 1
 62
   179
420
  2234388
370
     9
100
AcDbVertex
100
AcDb2dVertex
 10
78.38591494465315
 20
-86.46639775616117
 30
0.0
  0
VERTEX
  5
A0
330
9E
100
AcDbEntity
  8
_U+30EC_U+30A4_U+30E4_U+30FC 1
 62
   179
420
  2234388
370
     9
100
AcDbVertex
100
AcDb2dVertex
 10
78.38591494465315
 20
-92.66653775461089
 30
0.0
  0
SEQEND
  5
A1
330
9E
100
AcDbEntity
  8
_U+30EC_U+30A4_U+30E4_U+30FC 1
 62
   179
420
  2234388
370
     9
  0
POLYLINE
  5
A2
330
1F
100
AcDbEntity
  8
_U+30EC_U+30A4_U+30E4_U+30FC 1
 62
   179
420
  2234388
370
     9
100
AcDb2dPolyline
 66
     1
 10
0.0
 20
0.0
 30
0.0
  0
VERTEX
  5
A3
330
A2
100
AcDbEntity
  8
_U+30EC_U+30A4_U+30E4_U+30FC 1
 62
   179
420
  2234388
370
     9
100
AcDbVertex
100
AcDb2dVertex
 10
76.92587359301302
 20
-86.46639775616117
 30
0.0
  0
VERTEX
  5
A4
330
A2
100
AcDbEntity
  8
_U+30EC_U+30A4_U+30E4_U+30FC 1
 62
   179
420
  2234388
370
     9
100
AcDbVertex
100
AcDb2dVertex
 10
79.38568714136906
 20
-86.46639775616117
 30
0.0
  0
SEQEND
  5
A5
330
A2
100
AcDbEntity
  8
_U+30EC_U+30A4_U+30E4_U+30FC 1
 62
   179
420
  2234388
370
     9
  0
POLYLINE
  5
A6
330
1F
100
AcDbEntity
  8
_U+30EC_U+30A4_U+30E4_U+30FC 1
 62
   179
420
  2234388
370
     9
100
AcDb2dPolyline
 66
     1
 10
0.0
 20
0.0
 30
0.0
  0
VERTEX
  5
A7
330
A6
100
AcDbEntity
  8
_U+30EC_U+30A4_U+30E4_U+30FC 1
 62
   179
420
  2234388
370
     9
100
AcDbVertex
100
AcDb2dVertex
 10
59.42583848392056
 20
-92.66653775461089
 30
0.0
  0
VERTEX
  5
A8
330
A6
100
AcDbEntity
  8
_U+30EC_U+30A4_U+30E4_U+30FC 1
 62
   179
420
  2234388
370
     9
100
AcDbVertex
100
AcDb2dVertex
 10
79.38568714136906
 20
-92.66653775461089
 30
0.0
  0
SEQEND
  5
A9
330
A6
100
AcDbEntity
  8
_U+30EC_U+30A4_U+30E4_U+30FC 1
 62
   179
420
  2234388
370
     9
  0
INSERT
  5
AB
330
1F
100
AcDbEntity
  8
_U+30EC_U+30A4_U+30E4_U+30FC 1
100
AcDbBlockReference
  2
block 4
 10
0.0
 20
0.0
 30
0.0
  0
POLYLINE
  5
BB
330
1F
100
AcDbEntity
  8
_U+30EC_U+30A4_U+30E4_U+30FC 1
 62
   179
420
  2234388
370
     9
100
AcDb2dPolyline
 66
     1
 10
0.0
 20
0.0
 30
0.0
  0
VERTEX
  5
BC
330
BB
100
AcDbEntity
  8
_U+30EC_U+30A4_U+30E4_U+30FC 1
 62
   179
420
  2234388
370
     9
100
AcDbVertex
100
AcDb2dVertex
 10
54.38566722361715
 20
-97.66638664224992
 30
0.0
  0
VERTEX
  5
BD
330
BB
100
AcDbEntity
  8
_U+30EC_U+30A4_U+30E4_U+30FC 1
 62
   179
420
  2234388
370
     9
100
AcDbVertex
100
AcDb2dVertex
 10
56.88576943022308
 20
-97.66638664224992
 30
0.0
  0
SEQEND
  5
BE
330
BB
100
AcDbEntity
  8
_U+30EC_U+30A4_U+30E4_U+30FC 1
 62
   179
420
  2234388
370
     9
  0
POLYLINE
  5
BF
330
1F
100
AcDbEntity
  8
_U+30EC_U+30A4_U+30E4_U+30FC 1
 62
   179
420
  2234388
370
     9
100
AcDb2dPolyline
 66
     1
 10
0.0
 20
0.0
 30
0.0
  0
VERTEX
  5
C0
330
BF
100
AcDbEntity
  8
_U+30EC_U+30A4_U+30E4_U+30FC 1
 62
   179
420
  2234388
370
     9
100
AcDbVertex
100
AcDb2dVertex
 10
57.03150048944965
 20
-97.66638664224992
 30
0.0
  0
VERTEX
  5
C1
330
BF
100
AcDbEntity
  8
_U+30EC_U+30A4_U+30E4_U+30FC 1
 62
   179
420
  2234388
370
     9
100
AcDbVertex
100
AcDb2dVertex
 10
60.44025095804074
 20
-97.66638664224992
 30
0.0
  0
SEQEND
  5
C2
330
BF
100
AcDbEntity
  8
_U+30EC_U+30A4_U+30E4_U+30FC 1
 62
   179
420
  2234388
370
     9
  0
POLYLINE
  5
C3
330
1F
100
AcDbEntity
  8
_U+30EC_U+30A4_U+30E4_U+30FC 1
 62
   179
420
  2234388
370
     9
100
AcDb2dPolyline
 66
     1
 10
0.0
 20
0.0
 30
0.0
  0
VERTEX
  5
C4
330
C3
100
AcDbEntity
  8
_U+30EC_U+30A4_U+30E4_U+30FC 1
 62
   179
420
  2234388
370
     9
100
AcDbVertex
100
AcDb2dVertex
 10
54.38566722361715
 20
-96.20634525372621
 30
0.0
  0
VERTEX
  5
C5
330
C3
100
AcDbEntity
  8
_U+30EC_U+30A4_U+30E4_U+30FC 1
 62
   179
420
  2234388
370
     9
100
AcDbVertex
100
AcDb2dVertex
 10
54.38566722361715
 20
-98.66651164200022
 30
0.0
  0
SEQEND
  5
C6
330
C3
100
AcDbEntity
  8
_U+30EC_U+30A4_U+30E4_U+30FC 1
 62
   179
420
  2234388
370
     9
  0
POLYLINE
  5
C7
330
1F
100
AcDbEntity
  8
_U+30EC_U+30A4_U+30E4_U+30FC 1
 62
   179
420
  2234388
370
     9
100
AcDb2dPolyline
 66
     1
 10
0.0
 20
0.0
 30
0.0
  0
VERTEX
  5
C8
330
C7
100
AcDbEntity
  8
_U+30EC_U+30A4_U+30E4_U+30FC 1
 62
   179
420
  2234388
370
     9
100
AcDbVertex
100
AcDb2dVertex
 10
56.88576943022308
 20
-96.20634525372621
 30
0.0
  0
VERTEX
  5
C9
330
C7
100
AcDbEntity
  8
_U+30EC_U+30A4_U+30E4_U+30FC 1
 62
   179
420
  2234388
370
     9
100
AcDbVertex
100
AcDb2dVertex
 10
56.88576943022308
 20
-98.66651164200022
 30
0.0
  0
SEQEND
  5
CA
330
C7
100
AcDbEntity
  8
_U+30EC_U+30A4_U+30E4_U+30FC 1
 62
   179
420
  2234388
370
     9
  0
INSERT
  5
CC
330
1F
100
AcDbEntity
  8
_U+30EC_U+30A4_U+30E4_U+30FC 1
100
AcDbBlockReference
  2
block 5
 10
0.0
 20
0.0
 30
0.0
  0
POLYLINE
  5
DB
330
1F
100
AcDbEntity
  8
_U+30EC_U+30A4_U+30E4_U+30FC 1
 62
   179
420
  2234388
370
     9
100
AcDb2dPolyline
 66
     1
 10
0.0
 20
0.0
 30
0.0
  0
VERTEX
  5
DC
330
DB
100
AcDbEntity
  8
_U+30EC_U+30A4_U+30E4_U+30FC 1
 62
   179
420
  2234388
370
     9
100
AcDbVertex
100
AcDb2dVertex
 10
54.38566722361715
 20
-81.46616081296686
 30
0.0
  0
VERTEX
  5
DD
330
DB
100
AcDbEntity
  8
_U+30EC_U+30A4_U+30E4_U+30FC 1
 62
   179
420
  2234388
370
     9
100
AcDbVertex
100
AcDb2dVertex
 10
74.38580310226006
 20
-81.46616081296686
 30
0.0
  0
SEQEND
  5
DE
330
DB
100
AcDbEntity
  8
_U+30EC_U+30A4_U+30E4_U+30FC 1
 62
   179
420
  2234388
370
     9
  0
POLYLINE
  5
DF
330
1F
100
AcDbEntity
  8
_U+30EC_U+30A4_U+30E4_U+30FC 1
 62
   179
420
  2234388
370
     9
100
AcDb2dPolyline
 66
     1
 10
0.0
 20
0.0
 30
0.0
  0
VERTEX
  5
E0
330
DF
100
AcDbEntity
  8
_U+30EC_U+30A4_U+30E4_U+30FC 1
 62
   179
420
  2234388
370
     9
100
AcDbVertex
100
AcDb2dVertex
 10
54.38566722361715
 20
-82.92620220149057
 30
0.0
  0
VERTEX
  5
E1
330
DF
100
AcDbEntity
  8
_U+30EC_U+30A4_U+30E4_U+30FC 1
 62
   179
420
  2234388
370
     9
100
AcDbVertex
100
AcDb2dVertex
 10
54.38566722361715
 20
-80.46642386877217
 30
0.0
  0
SEQEND
  5
E2
330
DF
100
AcDbEntity
  8
_U+30EC_U+30A4_U+30E4_U+30FC 1
 62
   179
420
  2234388
370
     9
  0
POLYLINE
  5
E3
330
1F
100
AcDbEntity
  8
_U+30EC_U+30A4_U+30E4_U+30FC 1
 62
   179
420
  2234388
370
     9
100
AcDb2dPolyline
 66
     1
 10
0.0
 20
0.0
 30
0.0
  0
VERTEX
  5
E4
330
E3
100
AcDbEntity
  8
_U+30EC_U+30A4_U+30E4_U+30FC 1
 62
   179
420
  2234388
370
     9
100
AcDbVertex
100
AcDb2dVertex
 10
74.38580310226006
 20
-82.92620220149057
 30
0.0
  0
VERTEX
  5
E5
330
E3
100
AcDbEntity
  8
_U+30EC_U+30A4_U+30E4_U+30FC 1
 62
   179
420
  2234388
370
     9
100
AcDbVertex
100
AcDb2dVertex
 10
74.38580310226006
 20
-80.46642386877217
 30
0.0
  0
SEQEND
  5
E6
330
E3
100
AcDbEntity
  8
_U+30EC_U+30A4_U+30E4_U+30FC 1
 62
   179
420
  2234388
370
     9
  0
INSERT
  5
E8
330
1F
100
AcDbEntity
  8
_U+30EC_U+30A4_U+30E4_U+30FC 1
100
AcDbBlockReference
  2
block 6
 10
0.0
 20
0.0
 30
0.0
  0
ENDSEC
  0
SECTION
  2
OBJECTS
  0
DICTIONARY
  5
C
330
0
100
AcDbDictionary
281
     1
  3
ACAD_GROUP
350
D
  3
ACAD_LAYOUT
350
1A
  3
ACAD_MATERIAL
350
3B
  3
ACAD_MLEADERSTYLE
350
F1
  3
ACAD_MLINESTYLE
350
17
  3
ACAD_PLOTSETTINGS
350
19
  3
ACAD_PLOTSTYLENAME
350
E
  3
ACAD_TABLESTYLE
350
F0
  3
ACAD_VISUALSTYLE
350
2A
  0
SUN
  5
3F
330
29
100
AcDbSun
 90
        1
290
     0
 63
     7
421
 16777215
 40
1.0
291
     1
 91
  2455826
 92
 54000000
292
     0
 70
     2
 71
   256
280
     1
  0
DICTIONARY
  5
D
102
{ACAD_REACTORS
330
C
102
}
330
C
100
AcDbDictionary
281
     1
  0
DICTIONARY
  5
1A
102
{ACAD_REACTORS
330
C
102
}
330
C
100
AcDbDictionary
281
     1
  3
Layout1
350
1E
  3
Layout2
350
26
  3
Model
350
22
  0
DICTIONARY
  5
3B
102
{ACAD_REACTORS
330
C
102
}
330
C
100
AcDbDictionary
281
     1
  3
ByBlock
350
3D
  3
ByLayer
350
3C
  3
Global
350
3E
  0
DICTIONARY
  5
F1
102
{ACAD_REACTORS
330
C
102
}
330
C
100
AcDbDictionary
281
     1
  0
DICTIONARY
  5
17
102
{ACAD_REACTORS
330
C
102
}
330
C
100
AcDbDictionary
281
     1
  3
Standard
350
18
  0
DICTIONARY
  5
19
102
{ACAD_REACTORS
330
C
102
}
330
C
100
AcDbDictionary
281
     1
  0
ACDBDICTIONARYWDFLT
  5
E
102
{ACAD_REACTORS
330
C
102
}
330
C
100
AcDbDictionary
281
     1
  3
Normal
350
F
100
AcDbDictionaryWithDefault
340
F
  0
DICTIONARY
  5
F0
102
{ACAD_REACTORS
330
C
102
}
330
C
100
AcDbDictionary
281
     1
  0
DICTIONARY
  5
2A
102
{ACAD_REACTORS
330
C
102
}
330
C
100
AcDbDictionary
281
     1
  3
2dWireframe
350
2F
  3
3D Hidden
350
31
  3
3dWireframe
350
30
  3
Basic
350
32
  3
Brighten
350
36
  3
ColorChange
350
3A
  3
Conceptual
350
34
  3
Dim
350
35
  3
Facepattern
350
39
  3
Flat
350
2B
  3
FlatWithEdges
350
2C
  3
Gouraud
350
2D
  3
GouraudWithEdges
350
2E
  3
Linepattern
350
38
  3
Realistic
350
33
  3
Thicken
350
37
  0
LAYOUT
  5
1E
102
{ACAD_REACTORS
330
1A
102
}
330
1A
100
AcDbPlotSettings
  1

  2
none_device
  4

  6

 40
0.0
 41
0.0
 42
0.0
 43
0.0
 44
0.0
 45
0.0
 46
0.0
 47
0.0
 48
0.0
 49
0.0
140
0.0
141
0.0
142
1.0
143
1.0
 70
   688
 72
     0
 73
     0
 74
     5
  7

 75
    16
 76
     0
 77
     2
 78
   300
147
1.0
148
0.0
149
0.0
100
AcDbLayout
  1
Layout1
 70
     1
 71
     1
 10
0.0
 20
0.0
 11
12.0
 21
9.0
 12
0.0
 22
0.0
 32
0.0
 14
1.000000000000000E+20
 24
1.000000000000000E+20
 34
1.000000000000000E+20
 15
-1.000000000000000E+20
 25
-1.000000000000000E+20
 35
-1.000000000000000E+20
146
0.0
 13
0.0
 23
0.0
 33
0.0
 16
1.0
 26
0.0
 36
0.0
 17
0.0
 27
1.0
 37
0.0
 76
     0
330
1B
  0
LAYOUT
  5
26
102
{ACAD_REACTORS
330
1A
102
}
330
1A
100
AcDbPlotSettings
  1

  2
none_device
  4

  6

 40
0.0
 41
0.0
 42
0.0
 43
0.0
 44
0.0
 45
0.0
 46
0.0
 47
0.0
 48
0.0
 49
0.0
140
0.0
141
0.0
142
1.0
143
1.0
 70
   688
 72
     0
 73
     0
 74
     5
  7

 75
    16
 76
     0
 77
     2
 78
   300
147
1.0
148
0.0
149
0.0
100
AcDbLayout
  1
Layout2
 70
     1
 71
     2
 10
0.0
 20
0.0
 11
0.0
 21
0.0
 12
0.0
 22
0.0
 32
0.0
 14
0.0
 24
0.0
 34
0.0
 15
0.0
 25
0.0
 35
0.0
146
0.0
 13
0.0
 23
0.0
 33
0.0
 16
1.0
 26
0.0
 36
0.0
 17
0.0
 27
1.0
 37
0.0
 76
     0
330
23
  0
LAYOUT
  5
22
102
{ACAD_REACTORS
330
1A
102
}
330
1A
100
AcDbPlotSettings
  1

  2
none_device
  4

  6

 40
0.0
 41
0.0
 42
0.0
 43
0.0
 44
0.0
 45
0.0
 46
0.0
 47
0.0
 48
0.0
 49
0.0
140
0.0
141
0.0
142
1.0
143
1.0
 70
  1712
 72
     0
 73
     0
 74
     0
  7

 75
     0
 76
     0
 77
     2
 78
   300
147
1.0
148
0.0
149
0.0
100
AcDbLayout
  1
Model
 70
     1
 71
     0
 10
0.0
 20
0.0
 11
12.0
 21
9.0
 12
0.0
 22
0.0
 32
0.0
 14
1.000000000000000E+20
 24
1.000000000000000E+20
 34
1.000000000000000E+20
 15
-1.000000000000000E+20
 25
-1.000000000000000E+20
 35
-1.000000000000000E+20
146
0.0
 13
0.0
 23
0.0
 33
0.0
 16
1.0
 26
0.0
 36
0.0
 17
0.0
 27
1.0
 37
0.0
 76
     0
330
1F
331
29
  0
MATERIAL
  5
3D
102
{ACAD_REACTORS
330
3B
102
}
330
3B
100
AcDbMaterial
  1
ByBlock
 72
     1
 94
      127
  0
MATERIAL
  5
3C
102
{ACAD_REACTORS
330
3B
102
}
330
3B
100
AcDbMaterial
  1
ByLayer
 72
     1
 94
      127
  0
MATERIAL
  5
3E
102
{ACAD_REACTORS
330
3B
102
}
330
3B
100
AcDbMaterial
  1
Global
 72
     1
 94
      127
  0
MLINESTYLE
  5
18
102
{ACAD_REACTORS
330
17
102
}
330
17
100
AcDbMlineStyle
  2
Standard
 70
     0
  3

 62
   256
 51
90.0
 52
90.0
 71
     2
 49
0.5
 62
   256
  6
BYLAYER
 49
-0.5
 62
   256
  6
BYLAYER
  0
ACDBPLACEHOLDER
  5
F
102
{ACAD_REACTORS
330
E
102
}
330
E
  0
VISUALSTYLE
  5
2F
102
{ACAD_REACTORS
330
2A
102
}
330
2A
100
AcDbVisualStyle
  2
2dWireframe
 70
     4
177
     2
291
     0
 71
     0
176
     1
 72
     2
176
     1
 73
     0
176
     1
 90
        0
176
     1
 40
-0.6
176
     1
 41
-30.0
176
     1
 62
     5
 63
     7
421
 16777215
176
     1
 74
     1
176
     1
 91
        4
176
     1
 64
     7
176
     1
 65
   257
176
     1
 75
     1
176
     1
175
     1
176
     1
 42
1.0
176
     1
 92
        0
176
     1
 66
   257
176
     1
 43
1.0
176
     1
 76
     1
176
     1
 77
     6
176
     1
 78
     2
176
     1
 67
     7
176
     1
 79
     5
176
     1
170
     0
176
     1
171
     0
176
     1
290
     0
176
     1
 93
        1
176
     1
 44
0.0
176
     1
173
     0
176
     1
  0
VISUALSTYLE
  5
31
102
{ACAD_REACTORS
330
2A
102
}
330
2A
100
AcDbVisualStyle
  2
3D Hidden
 70
     6
177
     2
291
     0
 71
     1
176
     1
 72
     2
176
     1
 73
     2
176
     1
 90
        0
176
     1
 40
-0.6
176
     1
 41
-30.0
176
     1
 62
     5
 63
     7
421
 16777215
176
     1
 74
     2
176
     1
 91
        2
176
     1
 64
     7
176
     1
 65
   257
176
     1
 75
     2
176
     1
175
     1
176
     1
 42
40.0
176
     1
 92
        0
176
     1
 66
   257
176
     1
 43
1.0
176
     1
 76
     1
176
     1
 77
     6
176
     1
 78
     2
176
     1
 67
     7
176
     1
 79
     3
176
     1
170
     0
176
     1
171
     0
176
     1
290
     0
176
     1
 93
        1
176
     1
 44
0.0
176
     1
173
     0
176
     1
  0
VISUALSTYLE
  5
30
102
{ACAD_REACTORS
330
2A
102
}
330
2A
100
AcDbVisualStyle
  2
3dWireframe
 70
     5
177
     2
291
     0
 71
     0
176
     1
 72
     2
176
     1
 73
     0
176
     1
 90
        0
176
     1
 40
-0.6
176
     1
 41
-30.0
176
     1
 62
     5
 63
     7
421
 16777215
176
     1
 74
     1
176
     1
 91
        4
176
     1
 64
     7
176
     1
 65
   257
176
     1
 75
     1
176
     1
175
     1
176
     1
 42
1.0
176
     1
 92
        0
176
     1
 66
   257
176
     1
 43
1.0
176
     1
 76
     1
176
     1
 77
     6
176
     1
 78
     2
176
     1
 67
     7
176
     1
 79
     5
176
     1
170
     0
176
     1
171
     0
176
     1
290
     0
176
     1
 93
        1
176
     1
 44
0.0
176
     1
173
     0
176
     1
  0
VISUALSTYLE
  5
32
102
{ACAD_REACTORS
330
2A
102
}
330
2A
100
AcDbVisualStyle
  2
Basic
 70
     7
177
     2
291
     1
 71
     1
176
     1
 72
     0
176
     1
 73
     1
176
     1
 90
        0
176
     1
 40
-0.6
176
     1
 41
-30.0
176
     1
 62
     5
 63
     7
421
 16777215
176
     1
 74
     0
176
     1
 91
        4
176
     1
 64
     7
176
     1
 65
   257
176
     1
 75
     1
176
     1
175
     1
176
     1
 42
1.0
176
     1
 92
        8
176
     1
 66
     7
176
     1
 43
1.0
176
     1
 76
     1
176
     1
 77
     6
176
     1
 78
     2
176
     1
 67
     7
176
     1
 79
     5
176
     1
170
     0
176
     1
171
     0
176
     1
290
     0
176
     1
 93
        1
176
     1
 44
0.0
176
     1
173
     0
176
     1
  0
VISUALSTYLE
  5
36
102
{ACAD_REACTORS
330
2A
102
}
330
2A
100
AcDbVisualStyle
  2
Brighten
 70
    12
177
     2
291
     1
 71
     2
176
     1
 72
     2
176
     1
 73
     0
176
     1
 90
        0
176
     1
 40
-0.6
176
     1
 41
-30.0
176
     1
 62
     5
 63
     7
421
 16777215
176
     1
 74
     1
176
     1
 91
        4
176
     1
 64
     7
176
     1
 65
   257
176
     1
 75
     1
176
     1
175
     1
176
     1
 42
1.0
176
     1
 92
        8
176
     1
 66
     7
176
     1
 43
1.0
176
     1
 76
     1
176
     1
 77
     6
176
     1
 78
     2
176
     1
 67
     7
176
     1
 79
     5
176
     1
170
     0
176
     1
171
     0
176
     1
290
     0
176
     1
 93
        1
176
     1
 44
50.0
176
     1
173
     0
176
     1
  0
VISUALSTYLE
  5
3A
102
{ACAD_REACTORS
330
2A
102
}
330
2A
100
AcDbVisualStyle
  2
ColorChange
 70
    16
177
     2
291
     1
 71
     2
176
     1
 72
     2
176
     1
 73
     3
176
     1
 90
        0
176
     1
 40
-0.6
176
     1
 41
-30.0
176
     1
 62
     5
 63
     8
421
  8421504
176
     1
 74
     1
176
     1
 91
        4
176
     1
 64
     7
176
     1
 65
   257
176
     1
 75
     1
176
     1
175
     1
176
     1
 42
1.0
176
     1
 92
        8
176
     1
 66
     8
424
  8421504
176
     1
 43
1.0
176
     1
 76
     1
176
     1
 77
     6
176
     1
 78
     2
176
     1
 67
     7
176
     1
 79
     5
176
     1
170
     0
176
     1
171
     0
176
     1
290
     0
176
     1
 93
        1
176
     1
 44
0.0
176
     1
173
     0
176
     1
  0
VISUALSTYLE
  5
34
102
{ACAD_REACTORS
330
2A
102
}
330
2A
100
AcDbVisualStyle
  2
Conceptual
 70
     9
177
     2
291
     0
 71
     3
176
     1
 72
     2
176
     1
 73
     0
176
     1
 90
        0
176
     1
 40
-0.6
176
     1
 41
-30.0
176
     1
 62
     5
 63
     7
421
 16777215
176
     1
 74
     2
176
     1
 91
        2
176
     1
 64
     7
176
     1
 65
   257
176
     1
 75
     1
176
     1
175
     1
176
     1
 42
40.0
176
     1
 92
        8
176
     1
 66
     7
176
     1
 43
1.0
176
     1
 76
     1
176
     1
 77
     6
176
     1
 78
     2
176
     1
 67
     7
176
     1
 79
     3
176
     1
170
     0
176
     1
171
     0
176
     1
290
     0
176
     1
 93
        1
176
     1
 44
0.0
176
     1
173
     0
176
     1
  0
VISUALSTYLE
  5
35
102
{ACAD_REACTORS
330
2A
102
}
330
2A
100
AcDbVisualStyle
  2
Dim
 70
    11
177
     2
291
     1
 71
     2
176
     1
 72
     2
176
     1
 73
     0
176
     1
 90
        0
176
     1
 40
-0.6
176
     1
 41
-30.0
176
     1
 62
     5
 63
     7
421
 16777215
176
     1
 74
     1
176
     1
 91
        4
176
     1
 64
     7
176
     1
 65
   257
176
     1
 75
     1
176
     1
175
     1
176
     1
 42
1.0
176
     1
 92
        8
176
     1
 66
     7
176
     1
 43
1.0
176
     1
 76
     1
176
     1
 77
     6
176
     1
 78
     2
176
     1
 67
     7
176
     1
 79
     5
176
     1
170
     0
176
     1
171
     0
176
     1
290
     0
176
     1
 93
        1
176
     1
 44
-50.0
176
     1
173
     0
176
     1
  0
VISUALSTYLE
  5
39
102
{ACAD_REACTORS
330
2A
102
}
330
2A
100
AcDbVisualStyle
  2
Facepattern
 70
    15
177
     2
291
     1
 71
     2
176
     1
 72
     2
176
     1
 73
     0
176
     1
 90
        0
176
     1
 40
-0.6
176
     1
 41
-30.0
176
     1
 62
     5
 63
     7
421
 16777215
176
     1
 74
     1
176
     1
 91
        4
176
     1
 64
     7
176
     1
 65
   257
176
     1
 75
     1
176
     1
175
     1
176
     1
 42
1.0
176
     1
 92
        8
176
     1
 66
     7
176
     1
 43
1.0
176
     1
 76
     1
176
     1
 77
     6
176
     1
 78
     2
176
     1
 67
     7
176
     1
 79
     5
176
     1
170
     0
176
     1
171
     0
176
     1
290
     0
176
     1
 93
        1
176
     1
 44
0.0
176
     1
173
     0
176
     1
  0
VISUALSTYLE
  5
2B
102
{ACAD_REACTORS
330
2A
102
}
330
2A
100
AcDbVisualStyle
  2
Flat
 70
     0
177
     2
291
     1
 71
     2
176
     1
 72
     1
176
     1
 73
     1
176
     1
 90
        2
176
     1
 40
-0.6
176
     1
 41
30.0
176
     1
 62
     5
 63
     7
421
 16777215
176
     1
 74
     0
176
     1
 91
        4
176
     1
 64
     7
176
     1
 65
   257
176
     1
 75
     1
176
     1
175
     1
176
     1
 42
1.0
176
     1
 92
        8
176
     1
 66
     7
176
     1
 43
1.0
176
     1
 76
     1
176
     1
 77
     6
176
     1
 78
     2
176
     1
 67
     7
176
     1
 79
     5
176
     1
170
     0
176
     1
171
     0
176
     1
290
     0
176
     1
 93
       13
176
     1
 44
0.0
176
     1
173
     0
176
     1
  0
VISUALSTYLE
  5
2C
102
{ACAD_REACTORS
330
2A
102
}
330
2A
100
AcDbVisualStyle
  2
FlatWithEdges
 70
     1
177
     2
291
     1
 71
     2
176
     1
 72
     1
176
     1
 73
     1
176
     1
 90
        2
176
     1
 40
-0.6
176
     1
 41
30.0
176
     1
 62
     5
 63
     7
421
 16777215
176
     1
 74
     1
176
     1
 91
        4
176
     1
 64
     7
176
     1
 65
   257
176
     1
 75
     1
176
     1
175
     1
176
     1
 42
1.0
176
     1
 92
        0
176
     1
 66
   257
176
     1
 43
1.0
176
     1
 76
     1
176
     1
 77
     6
176
     1
 78
     2
176
     1
 67
     7
176
     1
 79
     5
176
     1
170
     0
176
     1
171
     0
176
     1
290
     0
176
     1
 93
       13
176
     1
 44
0.0
176
     1
173
     0
176
     1
  0
VISUALSTYLE
  5
2D
102
{ACAD_REACTORS
330
2A
102
}
330
2A
100
AcDbVisualStyle
  2
Gouraud
 70
     2
177
     2
291
     1
 71
     2
176
     1
 72
     2
176
     1
 73
     1
176
     1
 90
        2
176
     1
 40
-0.6
176
     1
 41
30.0
176
     1
 62
     5
 63
     7
421
 16777215
176
     1
 74
     0
176
     1
 91
        4
176
     1
 64
     7
176
     1
 65
   257
176
     1
 75
     1
176
     1
175
     1
176
     1
 42
1.0
176
     1
 92
        0
176
     1
 66
     7
176
     1
 43
1.0
176
     1
 76
     1
176
     1
 77
     6
176
     1
 78
     2
176
     1
 67
     7
176
     1
 79
     5
176
     1
170
     0
176
     1
171
     0
176
     1
290
     0
176
     1
 93
       13
176
     1
 44
0.0
176
     1
173
     0
176
     1
  0
VISUALSTYLE
  5
2E
102
{ACAD_REACTORS
330
2A
102
}
330
2A
100
AcDbVisualStyle
  2
GouraudWithEdges
 70
     3
177
     2
291
     1
 71
     2
176
     1
 72
     2
176
     1
 73
     1
176
     1
 90
        2
176
     1
 40
-0.6
176
     1
 41
30.0
176
     1
 62
     5
 63
     7
421
 16777215
176
     1
 74
     1
176
     1
 91
        4
176
     1
 64
     7
176
     1
 65
   257
176
     1
 75
     1
176
     1
175
     1
176
     1
 42
1.0
176
     1
 92
        0
176
     1
 66
   257
176
     1
 43
1.0
176
     1
 76
     1
176
     1
 77
     6
176
     1
 78
     2
176
     1
 67
     7
176
     1
 79
     5
176
     1
170
     0
176
     1
171
     0
176
     1
290
     0
176
     1
 93
       13
176
     1
 44
0.0
176
     1
173
     0
176
     1
  0
VISUALSTYLE
  5
38
102
{ACAD_REACTORS
330
2A
102
}
330
2A
100
AcDbVisualStyle
  2
Linepattern
 70
    14
177
     2
291
     1
 71
     2
176
     1
 72
     2
176
     1
 73
     0
176
     1
 90
        0
176
     1
 40
-0.6
176
     1
 41
-30.0
176
     1
 62
     5
 63
     7
421
 16777215
176
     1
 74
     1
176
     1
 91
        4
176
     1
 64
     7
176
     1
 65
   257
176
     1
 75
     7
176
     1
175
     7
176
     1
 42
1.0
176
     1
 92
        8
176
     1
 66
     7
176
     1
 43
1.0
176
     1
 76
     1
176
     1
 77
     6
176
     1
 78
     2
176
     1
 67
     7
176
     1
 79
     5
176
     1
170
     0
176
     1
171
     0
176
     1
290
     0
176
     1
 93
        1
176
     1
 44
0.0
176
     1
173
     0
176
     1
  0
VISUALSTYLE
  5
33
102
{ACAD_REACTORS
330
2A
102
}
330
2A
100
AcDbVisualStyle
  2
Realistic
 70
     8
177
     2
291
     0
 71
     2
176
     1
 72
     2
176
     1
 73
     0
176
     1
 90
        0
176
     1
 40
-0.6
176
     1
 41
-30.0
176
     1
 62
     5
 63
     7
421
 16777215
176
     1
 74
     1
176
     1
 91
        0
176
     1
 64
     7
176
     1
 65
   257
176
     1
 75
     1
176
     1
175
     1
176
     1
 42
1.0
176
     1
 92
        8
176
     1
 66
     8
424
  7895160
176
     1
 43
1.0
176
     1
 76
     1
176
     1
 77
     6
176
     1
 78
     2
176
     1
 67
     7
176
     1
 79
     5
176
     1
170
     0
176
     1
171
     0
176
     1
290
     0
176
     1
 93
       13
176
     1
 44
0.0
176
     1
173
     0
176
     1
  0
VISUALSTYLE
  5
37
102
{ACAD_REACTORS
330
2A
102
}
330
2A
100
AcDbVisualStyle
  2
Thicken
 70
    13
177
     2
291
     1
 71
     2
176
     1
 72
     2
176
     1
 73
     0
176
     1
 90
        0
176
     1
 40
-0.6
176
     1
 41
-30.0
176
     1
 62
     5
 63
     7
421
 16777215
176
     1
 74
     1
176
     1
 91
        4
176
     1
 64
     7
176
     1
 65
   257
176
     1
 75
     1
176
     1
175
     1
176
     1
 42
1.0
176
     1
 92
       12
176
     1
 66
     7
176
     1
 43
1.0
176
     1
 76
     1
176
     1
 77
     6
176
     1
 78
     2
176
     1
 67
     7
176
     1
 79
     5
176
     1
170
     0
176
     1
171
     0
176
     1
290
     0
176
     1
 93
        1
176
     1
 44
0.0
176
     1
173
     0
176
     1
  0
ENDSEC
  0
EOF
