  0
SECTION
  2
HEADER
  9
$ACADVER
  1
AC1024
  9
$ACADMAINTVER
 70
     6
  9
$DWGCODEPAGE
  3
UNDEFINED
  9
$INSBASE
 10
0.0
 20
0.0
 30
0.0
  9
$EXTMIN
 10
1.000000000000000E+20
 20
1.000000000000000E+20
 30
1.000000000000000E+20
  9
$EXTMAX
 10
-1.000000000000000E+20
 20
-1.000000000000000E+20
 30
-1.000000000000000E+20
  9
$LIMMIN
 10
0.0
 20
0.0
  9
$LIMMAX
 10
12.0
 20
9.0
  9
$ORTHOMODE
 70
     0
  9
$REGENMODE
 70
     1
  9
$FILLMODE
 70
     1
  9
$QTEXTMODE
 70
     0
  9
$MIRRTEXT
 70
     1
  9
$LTSCALE
 40
1.0
  9
$ATTMODE
 70
     1
  9
$TEXTSIZE
 40
0.2
  9
$TRACEWID
 40
0.05
  9
$TEXTSTYLE
  7
Standard
  9
$CLAYER
  8
0
  9
$CELTYPE
  6
ByLayer
  9
$CECOLOR
 62
   256
  9
$CELTSCALE
 40
1.0
  9
$DISPSILH
 70
     0
  9
$DIMSCALE
 40
1.0
  9
$DIMASZ
 40
0.18
  9
$DIMEXO
 40
0.0625
  9
$DIMDLI
 40
0.38
  9
$DIMRND
 40
0.0
  9
$DIMDLE
 40
0.0
  9
$DIMEXE
 40
0.18
  9
$DIMTP
 40
0.0
  9
$DIMTM
 40
0.0
  9
$DIMTXT
 40
0.18
  9
$DIMCEN
 40
0.09
  9
$DIMTSZ
 40
0.0
  9
$DIMTOL
 70
     0
  9
$DIMLIM
 70
     0
  9
$DIMTIH
 70
     1
  9
$DIMTOH
 70
     1
  9
$DIMSE1
 70
     0
  9
$DIMSE2
 70
     0
  9
$DIMTAD
 70
     0
  9
$DIMZIN
 70
     0
  9
$DIMBLK
  1

  9
$DIMASO
 70
     1
  9
$DIMSHO
 70
     1
  9
$DIMPOST
  1

  9
$DIMAPOST
  1

  9
$DIMALT
 70
     0
  9
$DIMALTD
 70
     2
  9
$DIMALTF
 40
25.4
  9
$DIMLFAC
 40
1.0
  9
$DIMTOFL
 70
     0
  9
$DIMTVP
 40
0.0
  9
$DIMTIX
 70
     0
  9
$DIMSOXD
 70
     0
  9
$DIMSAH
 70
     0
  9
$DIMBLK1
  1

  9
$DIMBLK2
  1

  9
$DIMSTYLE
  2
Standard
  9
$DIMCLRD
 70
     0
  9
$DIMCLRE
 70
     0
  9
$DIMCLRT
 70
     0
  9
$DIMTFAC
 40
1.0
  9
$DIMGAP
 40
0.09
  9
$DIMJUST
 70
     0
  9
$DIMSD1
 70
     0
  9
$DIMSD2
 70
     0
  9
$DIMTOLJ
 70
     1
  9
$DIMTZIN
 70
     0
  9
$DIMALTZ
 70
     0
  9
$DIMALTTZ
 70
     0
  9
$DIMUPT
 70
     0
  9
$DIMDEC
 70
     4
  9
$DIMTDEC
 70
     4
  9
$DIMALTU
 70
     2
  9
$DIMALTTD
 70
     2
  9
$DIMTXSTY
  7
Standard
  9
$DIMAUNIT
 70
     0
  9
$DIMADEC
 70
     0
  9
$DIMALTRND
 40
0.0
  9
$DIMAZIN
 70
     0
  9
$DIMDSEP
 70
    46
  9
$DIMATFIT
 70
     3
  9
$DIMFRAC
 70
     0
  9
$DIMLDRBLK
  1

  9
$DIMLUNIT
 70
     2
  9
$DIMLWD
 70
    -2
  9
$DIMLWE
 70
    -2
  9
$DIMTMOVE
 70
     0
  9
$DIMFXL
 40
1.0
  9
$DIMFXLON
 70
     0
  9
$DIMJOGANG
 40
0.7853981633974483
  9
$DIMTFILL
 70
     0
  9
$DIMTFILLCLR
 70
     0
  9
$DIMARCSYM
 70
     0
  9
$DIMLTYPE
  6

  9
$DIMLTEX1
  6

  9
$DIMLTEX2
  6

  9
$DIMTXTDIRECTION
 70
     0
  9
$LUNITS
 70
     2
  9
$LUPREC
 70
     4
  9
$SKETCHINC
 40
0.1
  9
$FILLETRAD
 40
0.5
  9
$AUNITS
 70
     0
  9
$AUPREC
 70
     0
  9
$MENU
  1
.
  9
$ELEVATION
 40
0.0
  9
$PELEVATION
 40
0.0
  9
$THICKNESS
 40
0.0
  9
$LIMCHECK
 70
     0
  9
$CHAMFERA
 40
0.5
  9
$CHAMFERB
 40
0.5
  9
$CHAMFERC
 40
1.0
  9
$CHAMFERD
 40
0.0
  9
$SKPOLY
 70
     0
  9
$TDCREATE
 40
2457917.610208333
  9
$TDUCREATE
 40
2457917.235208333
  9
$TDUPDATE
 40
2457917.610208333
  9
$TDUUPDATE
 40
2457917.235208333
  9
$TDINDWG
 40
0.0000000116
  9
$TDUSRTIMER
 40
0.0000000116
  9
$USRTIMER
 70
     1
  9
$ANGBASE
 50
0.0
  9
$ANGDIR
 70
     0
  9
$PDMODE
 70
     0
  9
$PDSIZE
 40
0.0
  9
$PLINEWID
 40
0.0
  9
$SPLFRAME
 70
     0
  9
$SPLINETYPE
 70
     6
  9
$SPLINESEGS
 70
     8
  9
$HANDSEED
  5
16B
  9
$SURFTAB1
 70
     6
  9
$SURFTAB2
 70
     6
  9
$SURFTYPE
 70
     6
  9
$SURFU
 70
     6
  9
$SURFV
 70
     6
  9
$UCSBASE
  2

  9
$UCSNAME
  2

  9
$UCSORG
 10
0.0
 20
0.0
 30
0.0
  9
$UCSXDIR
 10
1.0
 20
0.0
 30
0.0
  9
$UCSYDIR
 10
0.0
 20
1.0
 30
0.0
  9
$UCSORTHOREF
  2

  9
$UCSORTHOVIEW
 70
     0
  9
$UCSORGTOP
 10
0.0
 20
0.0
 30
0.0
  9
$UCSORGBOTTOM
 10
0.0
 20
0.0
 30
0.0
  9
$UCSORGLEFT
 10
0.0
 20
0.0
 30
0.0
  9
$UCSORGRIGHT
 10
0.0
 20
0.0
 30
0.0
  9
$UCSORGFRONT
 10
0.0
 20
0.0
 30
0.0
  9
$UCSORGBACK
 10
0.0
 20
0.0
 30
0.0
  9
$PUCSBASE
  2

  9
$PUCSNAME
  2

  9
$PUCSORG
 10
0.0
 20
0.0
 30
0.0
  9
$PUCSXDIR
 10
1.0
 20
0.0
 30
0.0
  9
$PUCSYDIR
 10
0.0
 20
1.0
 30
0.0
  9
$PUCSORTHOREF
  2

  9
$PUCSORTHOVIEW
 70
     0
  9
$PUCSORGTOP
 10
0.0
 20
0.0
 30
0.0
  9
$PUCSORGBOTTOM
 10
0.0
 20
0.0
 30
0.0
  9
$PUCSORGLEFT
 10
0.0
 20
0.0
 30
0.0
  9
$PUCSORGRIGHT
 10
0.0
 20
0.0
 30
0.0
  9
$PUCSORGFRONT
 10
0.0
 20
0.0
 30
0.0
  9
$PUCSORGBACK
 10
0.0
 20
0.0
 30
0.0
  9
$USERI1
 70
     0
  9
$USERI2
 70
     0
  9
$USERI3
 70
     0
  9
$USERI4
 70
     0
  9
$USERI5
 70
     0
  9
$USERR1
 40
0.0
  9
$USERR2
 40
0.0
  9
$USERR3
 40
0.0
  9
$USERR4
 40
0.0
  9
$USERR5
 40
0.0
  9
$WORLDVIEW
 70
     1
  9
$SHADEDGE
 70
     3
  9
$SHADEDIF
 70
    70
  9
$TILEMODE
 70
     1
  9
$MAXACTVP
 70
    64
  9
$PINSBASE
 10
0.0
 20
0.0
 30
0.0
  9
$PLIMCHECK
 70
     0
  9
$PEXTMIN
 10
1.000000000000000E+20
 20
1.000000000000000E+20
 30
1.000000000000000E+20
  9
$PEXTMAX
 10
-1.000000000000000E+20
 20
-1.000000000000000E+20
 30
-1.000000000000000E+20
  9
$PLIMMIN
 10
0.0
 20
0.0
  9
$PLIMMAX
 10
12.0
 20
9.0
  9
$UNITMODE
 70
     0
  9
$VISRETAIN
 70
     1
  9
$PLINEGEN
 70
     0
  9
$PSLTSCALE
 70
     1
  9
$TREEDEPTH
 70
  3020
  9
$CMLSTYLE
  2
Standard
  9
$CMLJUST
 70
     0
  9
$CMLSCALE
 40
1.0
  9
$PROXYGRAPHICS
 70
     1
  9
$MEASUREMENT
 70
     0
  9
$CELWEIGHT
370
    -1
  9
$ENDCAPS
280
     0
  9
$JOINSTYLE
280
     0
  9
$LWDISPLAY
290
     1
  9
$INSUNITS
 70
     1
  9
$HYPERLINKBASE
  1

  9
$STYLESHEET
  1

  9
$XEDIT
290
     1
  9
$CEPSNTYPE
380
     0
  9
$PSTYLEMODE
290
     1
  9
$FINGERPRINTGUID
  2
{07D04B6D-903B-F9F1-ED5A-659726298340}
  9
$VERSIONGUID
  2
{FAEB1C32-E019-11D5-929B-00C0DF256EC4}
  9
$EXTNAMES
290
     1
  9
$PSVPSCALE
 40
0.0
  9
$OLESTARTUP
290
     0
  9
$SORTENTS
280
   127
  9
$INDEXCTL
280
     0
  9
$HIDETEXT
280
     1
  9
$XCLIPFRAME
280
     2
  9
$HALOGAP
280
     0
  9
$OBSCOLOR
 70
   257
  9
$OBSLTYPE
280
     0
  9
$INTERSECTIONDISPLAY
280
     0
  9
$INTERSECTIONCOLOR
 70
   257
  9
$DIMASSOC
280
     2
  9
$PROJECTNAME
  1

  9
$CAMERADISPLAY
290
     0
  9
$LENSLENGTH
 40
50.0
  9
$CAMERAHEIGHT
 40
0.0
  9
$STEPSPERSEC
 40
2.0
  9
$STEPSIZE
 40
6.0
  9
$3DDWFPREC
 40
2.0
  9
$PSOLWIDTH
 40
0.25
  9
$PSOLHEIGHT
 40
4.0
  9
$LOFTANG1
 40
1.570796326794897
  9
$LOFTANG2
 40
1.570796326794897
  9
$LOFTMAG1
 40
0.0
  9
$LOFTMAG2
 40
0.0
  9
$LOFTPARAM
 70
     7
  9
$LOFTNORMALS
280
     1
  9
$LATITUDE
 40
37.795
  9
$LONGITUDE
 40
-122.394
  9
$NORTHDIRECTION
 40
0.0
  9
$TIMEZONE
 70
 -8000
  9
$LIGHTGLYPHDISPLAY
280
     1
  9
$TILEMODELIGHTSYNCH
280
     1
  9
$CMATERIAL
347
3C
  9
$SOLIDHIST
280
     1
  9
$SHOWHIST
280
     1
  9
$DWFFRAME
280
     2
  9
$DGNFRAME
280
     2
  9
$REALWORLDSCALE
290
     1
  9
$INTERFERECOLOR
 62
   256
  9
$CSHADOW
280
     0
  9
$SHADOWPLANELOCATION
 40
0.0
  0
ENDSEC
  0
SECTION
  2
CLASSES
  0
CLASS
  1
ACDBDICTIONARYWDFLT
  2
AcDbDictionaryWithDefault
  3
ObjectDBX Classes
 90
        0
 91
        4
280
     0
281
     0
  0
CLASS
  1
VISUALSTYLE
  2
AcDbVisualStyle
  3
ObjectDBX Classes
 90
     4095
 91
        4
280
     0
281
     0
  0
CLASS
  1
MATERIAL
  2
AcDbMaterial
  3
ObjectDBX Classes
 90
     1153
 91
        4
280
     0
281
     0
  0
CLASS
  1
SUN
  2
AcDbSun
  3
SCENEOE
 90
     1024
 91
        4
280
     0
281
     0
  0
ENDSEC
  0
SECTION
  2
TABLES
  0
TABLE
  2
VPORT
  5
8
330
0
100
AcDbSymbolTable
 70
     1
  0
VPORT
  5
29
330
8
100
AcDbSymbolTableRecord
100
AcDbViewportTableRecord
  2
*Active
 70
     0
 10
0.0
 20
0.0
 11
1.0
 21
1.0
 12
0.0
 22
0.0
 13
0.0
 23
0.0
 14
0.5
 24
0.5
 15
0.5
 25
0.5
 16
0.0
 26
0.0
 36
1.0
 17
105.0008280156501
 27
-148.4999710739862
 37
0.0
 40
296.9999421479724
 41
0.7070764206636528
 42
50.0
 43
0.0
 44
0.0
 50
0.0
 51
0.0
 71
     0
 72
   100
 73
     1
 74
     3
 75
     0
 76
     0
 77
     0
 78
     0
281
     0
 65
     1
110
0.0
120
0.0
130
0.0
111
1.0
121
0.0
131
0.0
112
0.0
122
1.0
132
0.0
 79
     0
146
0.0
 60
     3
 61
     5
292
     1
282
     1
141
0.0
142
0.0
 63
   250
361
3F
  0
ENDTAB
  0
TABLE
  2
LTYPE
  5
5
330
0
100
AcDbSymbolTable
 70
     2
  0
LTYPE
  5
14
330
5
100
AcDbSymbolTableRecord
100
AcDbLinetypeTableRecord
  2
ByBlock
 70
     0
  3

 72
    65
 73
     0
 40
0.0
  0
LTYPE
  5
15
330
5
100
AcDbSymbolTableRecord
100
AcDbLinetypeTableRecord
  2
ByLayer
 70
     0
  3

 72
    65
 73
     0
 40
0.0
  0
LTYPE
  5
16
330
5
100
AcDbSymbolTableRecord
100
AcDbLinetypeTableRecord
  2
Continuous
 70
     0
  3
Solid line
 72
    65
 73
     0
 40
0.0
  0
LTYPE
  5
167
330
5
100
AcDbSymbolTableRecord
100
AcDbLinetypeTableRecord
  2
AI-Linetype-1
 70
     0
  3
Adobe Illustrator Linetype No. 1
 72
    65
 73
     2
 40
1.411111110758333
 49
0.7055555553791667
 74
     0
 49
-0.7055555553791667
 74
     0
  0
ENDTAB
  0
TABLE
  2
LAYER
  5
2
330
0
100
AcDbSymbolTable
 70
     2
  0
LAYER
  5
10
330
2
100
AcDbSymbolTableRecord
100
AcDbLayerTableRecord
  2
0
 70
     0
 62
     7
  6
Continuous
370
    -3
390
F
347
3E
  0
LAYER
  5
40
330
2
100
AcDbSymbolTableRecord
100
AcDbLayerTableRecord
  2
_U+30EC_U+30A4_U+30E4_U+30FC 1
 70
     0
 62
     7
  6
Continuous
370
    -3
390
F
347
3E
  0
ENDTAB
  0
TABLE
  2
STYLE
  5
3
330
0
100
AcDbSymbolTable
 70
     1
  0
STYLE
  5
11
330
3
100
AcDbSymbolTableRecord
100
AcDbTextStyleTableRecord
  2
Standard
 70
     0
 40
0.0
 41
1.0
 50
0.0
 71
     0
 42
0.2
  3
txt
  4

  0
ENDTAB
  0
TABLE
  2
VIEW
  5
6
330
0
100
AcDbSymbolTable
 70
     0
  0
ENDTAB
  0
TABLE
  2
UCS
  5
7
330
0
100
AcDbSymbolTable
 70
     0
  0
ENDTAB
  0
TABLE
  2
APPID
  5
9
330
0
100
AcDbSymbolTable
 70
     1
  0
APPID
  5
12
330
9
100
AcDbSymbolTableRecord
100
AcDbRegAppTableRecord
  2
ACAD
 70
     0
  0
ENDTAB
  0
TABLE
  2
DIMSTYLE
  5
A
330
0
100
AcDbSymbolTable
 70
     1
100
AcDbDimStyleTable
  0
DIMSTYLE
105
27
330
A
100
AcDbSymbolTableRecord
100
AcDbDimStyleTableRecord
  2
Standard
 70
     0
178
     0
340
11
  0
ENDTAB
  0
TABLE
  2
BLOCK_RECORD
  5
1
330
0
100
AcDbSymbolTable
 70
     8
  0
BLOCK_RECORD
  5
1F
330
1
100
AcDbSymbolTableRecord
100
AcDbBlockTableRecord
  2
*Model_Space
340
22
 70
     0
280
     1
281
     0
  0
BLOCK_RECORD
  5
1B
330
1
100
AcDbSymbolTableRecord
100
AcDbBlockTableRecord
  2
*Paper_Space
340
1E
 70
     0
280
     1
281
     0
  0
BLOCK_RECORD
  5
23
330
1
100
AcDbSymbolTableRecord
100
AcDbBlockTableRecord
  2
*Paper_Space0
340
26
 70
     0
280
     1
281
     0
  0
BLOCK_RECORD
  5
93
330
1
100
AcDbSymbolTableRecord
100
AcDbBlockTableRecord
  2
block 2
340
0
102
{BLKREFS
331
94
102
}
 70
     0
280
     1
281
     0
  0
BLOCK_RECORD
  5
A9
330
1
100
AcDbSymbolTableRecord
100
AcDbBlockTableRecord
  2
block 3
340
0
102
{BLKREFS
331
AA
102
}
 70
     0
280
     1
281
     0
  0
BLOCK_RECORD
  5
C6
330
1
100
AcDbSymbolTableRecord
100
AcDbBlockTableRecord
  2
block 4
340
0
102
{BLKREFS
331
C7
102
}
 70
     0
280
     1
281
     0
  0
BLOCK_RECORD
  5
D7
330
1
100
AcDbSymbolTableRecord
100
AcDbBlockTableRecord
  2
block 5
340
0
102
{BLKREFS
331
D8
102
}
 70
     0
280
     1
281
     0
  0
BLOCK_RECORD
  5
F4
330
1
100
AcDbSymbolTableRecord
100
AcDbBlockTableRecord
  2
block 6
340
0
102
{BLKREFS
331
F5
102
}
 70
     0
280
     1
281
     0
  0
BLOCK_RECORD
  5
117
330
1
100
AcDbSymbolTableRecord
100
AcDbBlockTableRecord
  2
block 7
340
0
102
{BLKREFS
331
118
102
}
 70
     0
280
     1
281
     0
  0
BLOCK_RECORD
  5
124
330
1
100
AcDbSymbolTableRecord
100
AcDbBlockTableRecord
  2
block 8
340
0
102
{BLKREFS
331
125
102
}
 70
     0
280
     1
281
     0
  0
ENDTAB
  0
ENDSEC
  0
SECTION
  2
BLOCKS
  0
BLOCK
  5
20
330
1F
100
AcDbEntity
  8
0
100
AcDbBlockBegin
  2
*Model_Space
 70
     0
 10
0.0
 20
0.0
 30
0.0
  3
*Model_Space
  1

  0
ENDBLK
  5
21
330
1F
100
AcDbEntity
  8
0
100
AcDbBlockEnd
  0
BLOCK
  5
1C
330
1B
100
AcDbEntity
 67
     1
  8
0
100
AcDbBlockBegin
  2
*Paper_Space
 70
     0
 10
0.0
 20
0.0
 30
0.0
  3
*Paper_Space
  1

  0
ENDBLK
  5
1D
330
1B
100
AcDbEntity
 67
     1
  8
0
100
AcDbBlockEnd
  0
BLOCK
  5
24
330
23
100
AcDbEntity
  8
0
100
AcDbBlockBegin
  2
*Paper_Space0
 70
     0
 10
0.0
 20
0.0
 30
0.0
  3
*Paper_Space0
  1

  0
ENDBLK
  5
25
330
23
100
AcDbEntity
  8
0
100
AcDbBlockEnd
  0
BLOCK
  5
95
330
93
100
AcDbEntity
  8
0
100
AcDbBlockBegin
  2
block 2
 70
     0
 10
0.0
 20
0.0
 30
0.0
  3
block 2
  1

  0
SPLINE
  5
97
330
93
100
AcDbEntity
  8
_U+30EC_U+30A4_U+30E4_U+30FC 1
370
     0
100
AcDbSpline
210
0.0
220
0.0
230
1.0
 70
    11
 71
     3
 72
    26
 73
    22
 74
     0
 42
0.0000000001
 43
0.0000000001
 12
1.0
 22
0.0
 32
0.0
 13
1.0
 23
0.0
 33
0.0
 40
0.0
 40
0.0
 40
0.0
 40
0.0
 40
1.0
 40
1.0
 40
1.0
 40
2.0
 40
2.0
 40
2.0
 40
3.0
 40
3.0
 40
3.0
 40
4.0
 40
4.0
 40
4.0
 40
5.0
 40
5.0
 40
5.0
 40
6.0
 40
6.0
 40
6.0
 40
7.0
 40
7.0
 40
7.0
 40
7.0
 10
122.3008897263692
 20
-140.9226643527902
 30
0.0
 10
122.3008897263692
 20
-140.9226643527902
 30
0.0
 10
121.1967366233467
 20
-140.9226643527902
 30
0.0
 10
121.1967366233467
 20
-140.9226643527902
 30
0.0
 10
121.1967366233467
 20
-140.9226643527902
 30
0.0
 10
121.1967366233467
 20
-141.2527045002771
 30
0.0
 10
121.1967366233467
 20
-141.2527045002771
 30
0.0
 10
121.1967366233467
 20
-141.2527045002771
 30
0.0
 10
121.0485975174809
 20
-141.2527045002771
 30
0.0
 10
121.0485975174809
 20
-141.2527045002771
 30
0.0
 10
121.0337836068943
 20
-140.920597295499
 30
0.0
 10
120.870830590442
 20
-140.8740885064481
 30
0.0
 10
120.7564534203317
 20
-140.844460685275
 30
0.0
 10
120.7564534203317
 20
-140.844460685275
 30
0.0
 10
120.7564534203317
 20
-140.6983886367004
 30
0.0
 10
120.7564534203317
 20
-140.6983886367004
 30
0.0
 10
120.7564534203317
 20
-140.6983886367004
 30
0.0
 10
122.3008897263692
 20
-140.6983886367004
 30
0.0
 10
122.3008897263692
 20
-140.6983886367004
 30
0.0
 10
122.3008897263692
 20
-140.6983886367004
 30
0.0
 10
122.3008897263692
 20
-140.9226643527902
 30
0.0
 10
122.3008897263692
 20
-140.9226643527902
 30
0.0
  0
HATCH
  5
98
330
93
100
AcDbEntity
  8
_U+30EC_U+30A4_U+30E4_U+30FC 1
 62
     7
420
 16777215
100
AcDbHatch
 10
0.0
 20
0.0
 30
0.0
210
0.0
220
0.0
230
1.0
  2
SOLID
 70
     1
 71
     0
 91
        1
 92
        1
 93
        1
 72
     4
 94
        3
 73
     0
 74
     1
 95
       26
 96
       22
 40
0.0
 40
0.0
 40
0.0
 40
0.0
 40
1.0
 40
1.0
 40
1.0
 40
2.0
 40
2.0
 40
2.0
 40
3.0
 40
3.0
 40
3.0
 40
4.0
 40
4.0
 40
4.0
 40
5.0
 40
5.0
 40
5.0
 40
6.0
 40
6.0
 40
6.0
 40
7.0
 40
7.0
 40
7.0
 40
7.0
 10
122.3008897263692
 20
-140.9226643527902
 10
122.3008897263692
 20
-140.9226643527902
 10
121.1967366233467
 20
-140.9226643527902
 10
121.1967366233467
 20
-140.9226643527902
 10
121.1967366233467
 20
-140.9226643527902
 10
121.1967366233467
 20
-141.2527045002771
 10
121.1967366233467
 20
-141.2527045002771
 10
121.1967366233467
 20
-141.2527045002771
 10
121.0485975174809
 20
-141.2527045002771
 10
121.0485975174809
 20
-141.2527045002771
 10
121.0337836068943
 20
-140.920597295499
 10
120.870830590442
 20
-140.8740885064481
 10
120.7564534203317
 20
-140.844460685275
 10
120.7564534203317
 20
-140.844460685275
 10
120.7564534203317
 20
-140.6983886367004
 10
120.7564534203317
 20
-140.6983886367004
 10
120.7564534203317
 20
-140.6983886367004
 10
122.3008897263692
 20
-140.6983886367004
 10
122.3008897263692
 20
-140.6983886367004
 10
122.3008897263692
 20
-140.6983886367004
 10
122.3008897263692
 20
-140.9226643527902
 10
122.3008897263692
 20
-140.9226643527902
 97
        0
 97
        0
 75
     2
 76
     1
 98
        0
  0
ENDBLK
  5
96
330
93
100
AcDbEntity
  8
0
100
AcDbBlockEnd
  0
BLOCK
  5
AB
330
A9
100
AcDbEntity
  8
0
100
AcDbBlockBegin
  2
block 3
 70
     0
 10
0.0
 20
0.0
 30
0.0
  3
block 3
  1

  0
SPLINE
  5
AD
330
A9
100
AcDbEntity
  8
_U+30EC_U+30A4_U+30E4_U+30FC 1
370
     0
100
AcDbSpline
210
0.0
220
0.0
230
1.0
 70
    11
 71
     3
 72
    29
 73
    25
 74
     0
 42
0.0000000001
 43
0.0000000001
 12
1.0
 22
0.0
 32
0.0
 13
1.0
 23
0.0
 33
0.0
 40
0.0
 40
0.0
 40
0.0
 40
0.0
 40
1.0
 40
1.0
 40
1.0
 40
2.0
 40
2.0
 40
2.0
 40
3.0
 40
3.0
 40
3.0
 40
4.0
 40
4.0
 40
4.0
 40
5.0
 40
5.0
 40
5.0
 40
6.0
 40
6.0
 40
6.0
 40
7.0
 40
7.0
 40
7.0
 40
8.0
 40
8.0
 40
8.0
 40
8.0
 10
108.1225992568235
 20
-148.7929849888434
 30
0.0
 10
108.3320610623267
 20
-148.9011609870803
 30
0.0
 10
108.3510090874956
 20
-149.0744492899883
 30
0.0
 10
108.3510090874956
 20
-149.1908935173898
 30
0.0
 10
108.3510090874956
 20
-149.3517794765509
 30
0.0
 10
108.3045002984447
 20
-149.4933729009947
 30
0.0
 10
108.1225992568235
 20
-149.5884575363876
 30
0.0
 10
107.9279513619069
 20
-149.6921549104936
 30
0.0
 10
107.6912733020702
 20
-149.711447445211
 30
0.0
 10
107.5283202856179
 20
-149.711447445211
 30
0.0
 10
107.3843152943345
 20
-149.711447445211
 30
0.0
 10
107.1324788143627
 20
-149.6942219677848
 30
0.0
 10
106.9336968048638
 20
-149.5884575363876
 30
0.0
 10
106.7307806807826
 20
-149.4806260476993
 30
0.0
 10
106.7073540314829
 20
-149.3197400885381
 30
0.0
 10
106.7073540314829
 20
-149.1908935173898
 30
0.0
 10
106.7073540314829
 20
-149.0320746155198
 30
0.0
 10
106.7517957632426
 20
-148.8884141337848
 30
0.0
 10
106.9336968048638
 20
-148.7929849888434
 30
0.0
 10
107.1262776424893
 20
-148.6937662388682
 30
0.0
 10
107.3546874731613
 20
-148.6703395895685
 30
0.0
 10
107.5283202856179
 20
-148.6703395895685
 30
0.0
 10
107.6995415312348
 20
-148.6703395895685
 30
0.0
 10
107.930018419198
 20
-148.6916991815771
 30
0.0
 10
108.1225992568235
 20
-148.7929849888434
 30
0.0
  0
SPLINE
  5
AE
330
A9
100
AcDbEntity
  8
_U+30EC_U+30A4_U+30E4_U+30FC 1
370
     0
100
AcDbSpline
210
0.0
220
0.0
230
1.0
 70
    11
 71
     3
 72
    17
 73
    13
 74
     0
 42
0.0000000001
 43
0.0000000001
 12
1.0
 22
0.0
 32
0.0
 13
1.0
 23
0.0
 33
0.0
 40
0.0
 40
0.0
 40
0.0
 40
0.0
 40
1.0
 40
1.0
 40
1.0
 40
2.0
 40
2.0
 40
2.0
 40
3.0
 40
3.0
 40
3.0
 40
4.0
 40
4.0
 40
4.0
 40
4.0
 10
106.8999348691083
 20
-149.1908935173898
 30
0.0
 10
106.8999348691083
 20
-149.4406629400704
 30
0.0
 10
107.1834662275444
 20
-149.4871717291213
 30
0.0
 10
107.5283202856179
 20
-149.4871717291213
 30
0.0
 10
107.8476806371006
 20
-149.4871717291213
 30
0.0
 10
108.156361192579
 20
-149.4509982265261
 30
0.0
 10
108.156361192579
 20
-149.1908935173898
 30
0.0
 10
108.156361192579
 20
-148.9431911520003
 30
0.0
 10
107.8752414009826
 20
-148.8946153056583
 30
0.0
 10
107.5283202856179
 20
-148.8946153056583
 30
0.0
 10
107.2086154245867
 20
-148.8946153056583
 30
0.0
 10
106.8999348691083
 20
-148.9328558655446
 30
0.0
 10
106.8999348691083
 20
-149.1908935173898
 30
0.0
  0
HATCH
  5
AF
330
A9
100
AcDbEntity
  8
_U+30EC_U+30A4_U+30E4_U+30FC 1
 62
     7
420
 16777215
100
AcDbHatch
 10
0.0
 20
0.0
 30
0.0
210
0.0
220
0.0
230
1.0
  2
SOLID
 70
     1
 71
     0
 91
        2
 92
        1
 93
        1
 72
     4
 94
        3
 73
     0
 74
     1
 95
       29
 96
       25
 40
0.0
 40
0.0
 40
0.0
 40
0.0
 40
1.0
 40
1.0
 40
1.0
 40
2.0
 40
2.0
 40
2.0
 40
3.0
 40
3.0
 40
3.0
 40
4.0
 40
4.0
 40
4.0
 40
5.0
 40
5.0
 40
5.0
 40
6.0
 40
6.0
 40
6.0
 40
7.0
 40
7.0
 40
7.0
 40
8.0
 40
8.0
 40
8.0
 40
8.0
 10
108.1225992568235
 20
-148.7929849888434
 10
108.3320610623267
 20
-148.9011609870803
 10
108.3510090874956
 20
-149.0744492899883
 10
108.3510090874956
 20
-149.1908935173898
 10
108.3510090874956
 20
-149.3517794765509
 10
108.3045002984447
 20
-149.4933729009947
 10
108.1225992568235
 20
-149.5884575363876
 10
107.9279513619069
 20
-149.6921549104936
 10
107.6912733020702
 20
-149.711447445211
 10
107.5283202856179
 20
-149.711447445211
 10
107.3843152943345
 20
-149.711447445211
 10
107.1324788143627
 20
-149.6942219677848
 10
106.9336968048638
 20
-149.5884575363876
 10
106.7307806807826
 20
-149.4806260476993
 10
106.7073540314829
 20
-149.3197400885381
 10
106.7073540314829
 20
-149.1908935173898
 10
106.7073540314829
 20
-149.0320746155198
 10
106.7517957632426
 20
-148.8884141337848
 10
106.9336968048638
 20
-148.7929849888434
 10
107.1262776424893
 20
-148.6937662388682
 10
107.3546874731613
 20
-148.6703395895685
 10
107.5283202856179
 20
-148.6703395895685
 10
107.6995415312348
 20
-148.6703395895685
 10
107.930018419198
 20
-148.6916991815771
 10
108.1225992568235
 20
-148.7929849888434
 97
        0
 97
        0
 92
        1
 93
        1
 72
     4
 94
        3
 73
     0
 74
     1
 95
       17
 96
       13
 40
0.0
 40
0.0
 40
0.0
 40
0.0
 40
1.0
 40
1.0
 40
1.0
 40
2.0
 40
2.0
 40
2.0
 40
3.0
 40
3.0
 40
3.0
 40
4.0
 40
4.0
 40
4.0
 40
4.0
 10
106.8999348691083
 20
-149.1908935173898
 10
106.8999348691083
 20
-149.4406629400704
 10
107.1834662275444
 20
-149.4871717291213
 10
107.5283202856179
 20
-149.4871717291213
 10
107.8476806371006
 20
-149.4871717291213
 10
108.156361192579
 20
-149.4509982265261
 10
108.156361192579
 20
-149.1908935173898
 10
108.156361192579
 20
-148.9431911520003
 10
107.8752414009826
 20
-148.8946153056583
 10
107.5283202856179
 20
-148.8946153056583
 10
107.2086154245867
 20
-148.8946153056583
 10
106.8999348691083
 20
-148.9328558655446
 10
106.8999348691083
 20
-149.1908935173898
 97
        0
 97
        0
 75
     2
 76
     1
 98
        0
  0
POLYLINE
  5
B0
330
A9
100
AcDbEntity
  8
_U+30EC_U+30A4_U+30E4_U+30FC 1
370
     0
100
AcDb2dPolyline
 66
     1
 10
0.0
 20
0.0
 30
0.0
  0
VERTEX
  5
B1
330
B0
100
AcDbEntity
  8
_U+30EC_U+30A4_U+30E4_U+30FC 1
370
     0
100
AcDbVertex
100
AcDb2dVertex
 10
108.3003661838624
 20
-148.4539875930948
 30
0.0
  0
VERTEX
  5
B2
330
B0
100
AcDbEntity
  8
_U+30EC_U+30A4_U+30E4_U+30FC 1
370
     0
100
AcDbVertex
100
AcDb2dVertex
 10
108.0485297038907
 20
-148.4539875930948
 30
0.0
  0
VERTEX
  5
B3
330
B0
100
AcDbEntity
  8
_U+30EC_U+30A4_U+30E4_U+30FC 1
370
     0
100
AcDbVertex
100
AcDb2dVertex
 10
108.0485297038907
 20
-148.2021511131231
 30
0.0
  0
VERTEX
  5
B4
330
B0
100
AcDbEntity
  8
_U+30EC_U+30A4_U+30E4_U+30FC 1
370
     0
100
AcDbVertex
100
AcDb2dVertex
 10
108.3003661838624
 20
-148.2021511131231
 30
0.0
  0
VERTEX
  5
B5
330
B0
100
AcDbEntity
  8
_U+30EC_U+30A4_U+30E4_U+30FC 1
370
     0
100
AcDbVertex
100
AcDb2dVertex
 10
108.3003661838624
 20
-148.4539875930948
 30
0.0
  0
SEQEND
  5
B6
330
B0
100
AcDbEntity
  8
_U+30EC_U+30A4_U+30E4_U+30FC 1
370
     0
  0
HATCH
  5
B7
330
A9
100
AcDbEntity
  8
_U+30EC_U+30A4_U+30E4_U+30FC 1
 62
     7
420
 16777215
100
AcDbHatch
 10
0.0
 20
0.0
 30
0.0
210
0.0
220
0.0
230
1.0
  2
SOLID
 70
     1
 71
     0
 91
        1
 92
        1
 93
        4
 72
     1
 10
108.3003661838624
 20
-148.4539875930948
 11
108.0485297038907
 21
-148.4539875930948
 72
     1
 10
108.0485297038907
 20
-148.4539875930948
 11
108.0485297038907
 21
-148.2021511131231
 72
     1
 10
108.0485297038907
 20
-148.2021511131231
 11
108.3003661838624
 21
-148.2021511131231
 72
     1
 10
108.3003661838624
 20
-148.2021511131231
 11
108.3003661838624
 21
-148.4539875930948
 97
        0
 75
     2
 76
     1
 98
        0
  0
SPLINE
  5
B8
330
A9
100
AcDbEntity
  8
_U+30EC_U+30A4_U+30E4_U+30FC 1
370
     0
100
AcDbSpline
210
0.0
220
0.0
230
1.0
 70
    11
 71
     3
 72
    62
 73
    58
 74
     0
 42
0.0000000001
 43
0.0000000001
 12
1.0
 22
0.0
 32
0.0
 13
1.0
 23
0.0
 33
0.0
 40
0.0
 40
0.0
 40
0.0
 40
0.0
 40
1.0
 40
1.0
 40
1.0
 40
2.0
 40
2.0
 40
2.0
 40
3.0
 40
3.0
 40
3.0
 40
4.0
 40
4.0
 40
4.0
 40
5.0
 40
5.0
 40
5.0
 40
6.0
 40
6.0
 40
6.0
 40
7.0
 40
7.0
 40
7.0
 40
8.0
 40
8.0
 40
8.0
 40
9.0
 40
9.0
 40
9.0
 40
10.0
 40
10.0
 40
10.0
 40
11.0
 40
11.0
 40
11.0
 40
12.0
 40
12.0
 40
12.0
 40
13.0
 40
13.0
 40
13.0
 40
14.0
 40
14.0
 40
14.0
 40
15.0
 40
15.0
 40
15.0
 40
16.0
 40
16.0
 40
16.0
 40
17.0
 40
17.0
 40
17.0
 40
18.0
 40
18.0
 40
18.0
 40
19.0
 40
19.0
 40
19.0
 40
19.0
 10
108.3510090874956
 20
-147.4742024370898
 30
0.0
 10
108.3510090874956
 20
-147.5696315820312
 30
0.0
 10
108.3299940050356
 20
-147.787361616699
 30
0.0
 10
108.1439588488321
 20
-147.9124185828136
 30
0.0
 10
108.0316487360129
 20
-147.9861436261979
 30
0.0
 10
107.9324299860377
 20
-147.9906222503287
 30
0.0
 10
107.8476806371006
 20
-147.994756364911
 30
0.0
 10
107.8476806371006
 20
-147.994756364911
 30
0.0
 10
107.8476806371006
 20
-147.7746147634036
 30
0.0
 10
107.8476806371006
 20
-147.7746147634036
 30
0.0
 10
107.9217501900334
 20
-147.7725477061124
 30
0.0
 10
108.156361192579
 20
-147.7622124196567
 30
0.0
 10
108.156361192579
 20
-147.4786810612206
 30
0.0
 10
108.156361192579
 20
-147.3412217513591
 30
0.0
 10
108.0867702637769
 20
-147.1886040213626
 30
0.0
 10
107.8583604331049
 20
-147.1886040213626
 30
0.0
 10
107.7419162057034
 20
-147.1886040213626
 30
0.0
 10
107.6933403593614
 20
-147.2268445812489
 30
0.0
 10
107.6616454808971
 20
-147.2585394597131
 30
0.0
 10
107.5875759279642
 20
-147.332609012646
 30
0.0
 10
107.5748290746688
 20
-147.4490532400475
 30
0.0
 10
107.5748290746688
 20
-147.503830258263
 30
0.0
 10
107.5748290746688
 20
-147.5231227929803
 30
0.0
 10
107.5768961319599
 20
-147.5589517860269
 30
0.0
 10
107.5810302465422
 20
-147.5865125499089
 30
0.0
 10
107.5810302465422
 20
-147.5865125499089
 30
0.0
 10
107.3863823516256
 20
-147.5865125499089
 30
0.0
 10
107.3863823516256
 20
-147.5865125499089
 30
0.0
 10
107.3929280330476
 20
-147.5482719900227
 30
0.0
 10
107.3949950903388
 20
-147.5062418251026
 30
0.0
 10
107.3949950903388
 20
-147.4996961436806
 30
0.0
 10
107.3949950903388
 20
-147.4342393294609
 30
0.0
 10
107.3736354983302
 20
-147.235457319962
 30
0.0
 10
107.1369574384935
 20
-147.235457319962
 30
0.0
 10
106.9591905114547
 20
-147.235457319962
 30
0.0
 10
106.9040689836906
 20
-147.3663709484015
 30
0.0
 10
106.9040689836906
 20
-147.4766140039295
 30
0.0
 10
106.9040689836906
 20
-147.7408528276481
 30
0.0
 10
107.1369574384935
 20
-147.7494655663612
 30
0.0
 10
107.2086154245867
 20
-147.7535996809436
 30
0.0
 10
107.2086154245867
 20
-147.7535996809436
 30
0.0
 10
107.2086154245867
 20
-147.9568603145733
 30
0.0
 10
107.2086154245867
 20
-147.9568603145733
 30
0.0
 10
107.0839029680207
 20
-147.9482475758602
 30
0.0
 10
106.7073540314829
 20
-147.9206868119782
 30
0.0
 10
106.7073540314829
 20
-147.463867150634
 30
0.0
 10
106.7073540314829
 20
-147.2395914345443
 30
0.0
 10
106.8344780548886
 20
-146.9984347505768
 30
0.0
 10
107.1304117570716
 20
-146.9984347505768
 30
0.0
 10
107.3167914228236
 20
-146.9984347505768
 30
0.0
 10
107.3991292049211
 20
-147.0935193859697
 30
0.0
 10
107.4604519045585
 20
-147.1930826454934
 30
0.0
 10
107.4880126684405
 20
-147.1317599458559
 30
0.0
 10
107.5682833932468
 20
-146.9498589042348
 30
0.0
 10
107.8456135798094
 20
-146.9498589042348
 30
0.0
 10
108.183921956461
 20
-146.9498589042348
 30
0.0
 10
108.3510090874956
 20
-147.1972167600757
 30
0.0
 10
108.3510090874956
 20
-147.4742024370898
 30
0.0
  0
HATCH
  5
B9
330
A9
100
AcDbEntity
  8
_U+30EC_U+30A4_U+30E4_U+30FC 1
 62
     7
420
 16777215
100
AcDbHatch
 10
0.0
 20
0.0
 30
0.0
210
0.0
220
0.0
230
1.0
  2
SOLID
 70
     1
 71
     0
 91
        1
 92
        1
 93
        1
 72
     4
 94
        3
 73
     0
 74
     1
 95
       62
 96
       58
 40
0.0
 40
0.0
 40
0.0
 40
0.0
 40
1.0
 40
1.0
 40
1.0
 40
2.0
 40
2.0
 40
2.0
 40
3.0
 40
3.0
 40
3.0
 40
4.0
 40
4.0
 40
4.0
 40
5.0
 40
5.0
 40
5.0
 40
6.0
 40
6.0
 40
6.0
 40
7.0
 40
7.0
 40
7.0
 40
8.0
 40
8.0
 40
8.0
 40
9.0
 40
9.0
 40
9.0
 40
10.0
 40
10.0
 40
10.0
 40
11.0
 40
11.0
 40
11.0
 40
12.0
 40
12.0
 40
12.0
 40
13.0
 40
13.0
 40
13.0
 40
14.0
 40
14.0
 40
14.0
 40
15.0
 40
15.0
 40
15.0
 40
16.0
 40
16.0
 40
16.0
 40
17.0
 40
17.0
 40
17.0
 40
18.0
 40
18.0
 40
18.0
 40
19.0
 40
19.0
 40
19.0
 40
19.0
 10
108.3510090874956
 20
-147.4742024370898
 10
108.3510090874956
 20
-147.5696315820312
 10
108.3299940050356
 20
-147.787361616699
 10
108.1439588488321
 20
-147.9124185828136
 10
108.0316487360129
 20
-147.9861436261979
 10
107.9324299860377
 20
-147.9906222503287
 10
107.8476806371006
 20
-147.994756364911
 10
107.8476806371006
 20
-147.994756364911
 10
107.8476806371006
 20
-147.7746147634036
 10
107.8476806371006
 20
-147.7746147634036
 10
107.9217501900334
 20
-147.7725477061124
 10
108.156361192579
 20
-147.7622124196567
 10
108.156361192579
 20
-147.4786810612206
 10
108.156361192579
 20
-147.3412217513591
 10
108.0867702637769
 20
-147.1886040213626
 10
107.8583604331049
 20
-147.1886040213626
 10
107.7419162057034
 20
-147.1886040213626
 10
107.6933403593614
 20
-147.2268445812489
 10
107.6616454808971
 20
-147.2585394597131
 10
107.5875759279642
 20
-147.332609012646
 10
107.5748290746688
 20
-147.4490532400475
 10
107.5748290746688
 20
-147.503830258263
 10
107.5748290746688
 20
-147.5231227929803
 10
107.5768961319599
 20
-147.5589517860269
 10
107.5810302465422
 20
-147.5865125499089
 10
107.5810302465422
 20
-147.5865125499089
 10
107.3863823516256
 20
-147.5865125499089
 10
107.3863823516256
 20
-147.5865125499089
 10
107.3929280330476
 20
-147.5482719900227
 10
107.3949950903388
 20
-147.5062418251026
 10
107.3949950903388
 20
-147.4996961436806
 10
107.3949950903388
 20
-147.4342393294609
 10
107.3736354983302
 20
-147.235457319962
 10
107.1369574384935
 20
-147.235457319962
 10
106.9591905114547
 20
-147.235457319962
 10
106.9040689836906
 20
-147.3663709484015
 10
106.9040689836906
 20
-147.4766140039295
 10
106.9040689836906
 20
-147.7408528276481
 10
107.1369574384935
 20
-147.7494655663612
 10
107.2086154245867
 20
-147.7535996809436
 10
107.2086154245867
 20
-147.7535996809436
 10
107.2086154245867
 20
-147.9568603145733
 10
107.2086154245867
 20
-147.9568603145733
 10
107.0839029680207
 20
-147.9482475758602
 10
106.7073540314829
 20
-147.9206868119782
 10
106.7073540314829
 20
-147.463867150634
 10
106.7073540314829
 20
-147.2395914345443
 10
106.8344780548886
 20
-146.9984347505768
 10
107.1304117570716
 20
-146.9984347505768
 10
107.3167914228236
 20
-146.9984347505768
 10
107.3991292049211
 20
-147.0935193859697
 10
107.4604519045585
 20
-147.1930826454934
 10
107.4880126684405
 20
-147.1317599458559
 10
107.5682833932468
 20
-146.9498589042348
 10
107.8456135798094
 20
-146.9498589042348
 10
108.183921956461
 20
-146.9498589042348
 10
108.3510090874956
 20
-147.1972167600757
 10
108.3510090874956
 20
-147.4742024370898
 97
        0
 97
        0
 75
     2
 76
     1
 98
        0
  0
ENDBLK
  5
AC
330
A9
100
AcDbEntity
  8
0
100
AcDbBlockEnd
  0
BLOCK
  5
C8
330
C6
100
AcDbEntity
  8
0
100
AcDbBlockBegin
  2
block 4
 70
     0
 10
0.0
 20
0.0
 30
0.0
  3
block 4
  1

  0
SPLINE
  5
CA
330
C6
100
AcDbEntity
  8
_U+30EC_U+30A4_U+30E4_U+30FC 1
370
     0
100
AcDbSpline
210
0.0
220
0.0
230
1.0
 70
    11
 71
     3
 72
    26
 73
    22
 74
     0
 42
0.0000000001
 43
0.0000000001
 12
1.0
 22
0.0
 32
0.0
 13
1.0
 23
0.0
 33
0.0
 40
0.0
 40
0.0
 40
0.0
 40
0.0
 40
1.0
 40
1.0
 40
1.0
 40
2.0
 40
2.0
 40
2.0
 40
3.0
 40
3.0
 40
3.0
 40
4.0
 40
4.0
 40
4.0
 40
5.0
 40
5.0
 40
5.0
 40
6.0
 40
6.0
 40
6.0
 40
7.0
 40
7.0
 40
7.0
 40
7.0
 10
99.8893378113992
 20
-155.0740830775509
 30
0.0
 10
99.8893378113992
 20
-155.0740830775509
 30
0.0
 10
99.8893378113992
 20
-153.9699299745284
 30
0.0
 10
99.8893378113992
 20
-153.9699299745284
 30
0.0
 10
99.8893378113992
 20
-153.9699299745284
 30
0.0
 10
99.55929766391226
 20
-153.9699299745284
 30
0.0
 10
99.55929766391226
 20
-153.9699299745284
 30
0.0
 10
99.55929766391226
 20
-153.9699299745284
 30
0.0
 10
99.55929766391226
 20
-153.8217908686626
 30
0.0
 10
99.55929766391226
 20
-153.8217908686626
 30
0.0
 10
99.89140486869034
 20
-153.806976958076
 30
0.0
 10
99.93791365774122
 20
-153.6440239416237
 30
0.0
 10
99.96754147891437
 20
-153.5296467715134
 30
0.0
 10
99.96754147891437
 20
-153.5296467715134
 30
0.0
 10
100.113613527489
 20
-153.5296467715134
 30
0.0
 10
100.113613527489
 20
-153.5296467715134
 30
0.0
 10
100.113613527489
 20
-153.5296467715134
 30
0.0
 10
100.113613527489
 20
-155.0740830775509
 30
0.0
 10
100.113613527489
 20
-155.0740830775509
 30
0.0
 10
100.113613527489
 20
-155.0740830775509
 30
0.0
 10
99.8893378113992
 20
-155.0740830775509
 30
0.0
 10
99.8893378113992
 20
-155.0740830775509
 30
0.0
  0
HATCH
  5
CB
330
C6
100
AcDbEntity
  8
_U+30EC_U+30A4_U+30E4_U+30FC 1
 62
     7
420
 16777215
100
AcDbHatch
 10
0.0
 20
0.0
 30
0.0
210
0.0
220
0.0
230
1.0
  2
SOLID
 70
     1
 71
     0
 91
        1
 92
        1
 93
        1
 72
     4
 94
        3
 73
     0
 74
     1
 95
       26
 96
       22
 40
0.0
 40
0.0
 40
0.0
 40
0.0
 40
1.0
 40
1.0
 40
1.0
 40
2.0
 40
2.0
 40
2.0
 40
3.0
 40
3.0
 40
3.0
 40
4.0
 40
4.0
 40
4.0
 40
5.0
 40
5.0
 40
5.0
 40
6.0
 40
6.0
 40
6.0
 40
7.0
 40
7.0
 40
7.0
 40
7.0
 10
99.8893378113992
 20
-155.0740830775509
 10
99.8893378113992
 20
-155.0740830775509
 10
99.8893378113992
 20
-153.9699299745284
 10
99.8893378113992
 20
-153.9699299745284
 10
99.8893378113992
 20
-153.9699299745284
 10
99.55929766391226
 20
-153.9699299745284
 10
99.55929766391226
 20
-153.9699299745284
 10
99.55929766391226
 20
-153.9699299745284
 10
99.55929766391226
 20
-153.8217908686626
 10
99.55929766391226
 20
-153.8217908686626
 10
99.89140486869034
 20
-153.806976958076
 10
99.93791365774122
 20
-153.6440239416237
 10
99.96754147891437
 20
-153.5296467715134
 10
99.96754147891437
 20
-153.5296467715134
 10
100.113613527489
 20
-153.5296467715134
 10
100.113613527489
 20
-153.5296467715134
 10
100.113613527489
 20
-153.5296467715134
 10
100.113613527489
 20
-155.0740830775509
 10
100.113613527489
 20
-155.0740830775509
 10
100.113613527489
 20
-155.0740830775509
 10
99.8893378113992
 20
-155.0740830775509
 10
99.8893378113992
 20
-155.0740830775509
 97
        0
 97
        0
 75
     2
 76
     1
 98
        0
  0
SPLINE
  5
CC
330
C6
100
AcDbEntity
  8
_U+30EC_U+30A4_U+30E4_U+30FC 1
370
     0
100
AcDbSpline
210
0.0
220
0.0
230
1.0
 70
    11
 71
     3
 72
    29
 73
    25
 74
     0
 42
0.0000000001
 43
0.0000000001
 12
1.0
 22
0.0
 32
0.0
 13
1.0
 23
0.0
 33
0.0
 40
0.0
 40
0.0
 40
0.0
 40
0.0
 40
1.0
 40
1.0
 40
1.0
 40
2.0
 40
2.0
 40
2.0
 40
3.0
 40
3.0
 40
3.0
 40
4.0
 40
4.0
 40
4.0
 40
5.0
 40
5.0
 40
5.0
 40
6.0
 40
6.0
 40
6.0
 40
7.0
 40
7.0
 40
7.0
 40
8.0
 40
8.0
 40
8.0
 40
8.0
 10
101.5126668040489
 20
-154.896316150512
 30
0.0
 10
101.4044908058121
 20
-155.1057779560152
 30
0.0
 10
101.231202502904
 20
-155.1247259811841
 30
0.0
 10
101.1147582755026
 20
-155.1247259811841
 30
0.0
 10
100.9538723163414
 20
-155.1247259811841
 30
0.0
 10
100.8122788918976
 20
-155.0782171921332
 30
0.0
 10
100.7171942565047
 20
-154.896316150512
 30
0.0
 10
100.6134968823987
 20
-154.7016682555954
 30
0.0
 10
100.5942043476813
 20
-154.4649901957588
 30
0.0
 10
100.5942043476813
 20
-154.3020371793064
 30
0.0
 10
100.5942043476813
 20
-154.158032188023
 30
0.0
 10
100.6114298251076
 20
-153.9061957080512
 30
0.0
 10
100.7171942565047
 20
-153.7074136985523
 30
0.0
 10
100.8250257451931
 20
-153.5044975744711
 30
0.0
 10
100.9859117043542
 20
-153.4810709251714
 30
0.0
 10
101.1147582755026
 20
-153.4810709251714
 30
0.0
 10
101.2735771773726
 20
-153.4810709251714
 30
0.0
 10
101.4172376591075
 20
-153.5255126569311
 30
0.0
 10
101.5126668040489
 20
-153.7074136985523
 30
0.0
 10
101.6118855540241
 20
-153.8999945361778
 30
0.0
 10
101.6353122033238
 20
-154.1284043668498
 30
0.0
 10
101.6353122033238
 20
-154.3020371793064
 30
0.0
 10
101.6353122033238
 20
-154.4732584249234
 30
0.0
 10
101.6139526113153
 20
-154.7037353128866
 30
0.0
 10
101.5126668040489
 20
-154.896316150512
 30
0.0
  0
SPLINE
  5
CD
330
C6
100
AcDbEntity
  8
_U+30EC_U+30A4_U+30E4_U+30FC 1
370
     0
100
AcDbSpline
210
0.0
220
0.0
230
1.0
 70
    11
 71
     3
 72
    17
 73
    13
 74
     0
 42
0.0000000001
 43
0.0000000001
 12
1.0
 22
0.0
 32
0.0
 13
1.0
 23
0.0
 33
0.0
 40
0.0
 40
0.0
 40
0.0
 40
0.0
 40
1.0
 40
1.0
 40
1.0
 40
2.0
 40
2.0
 40
2.0
 40
3.0
 40
3.0
 40
3.0
 40
4.0
 40
4.0
 40
4.0
 40
4.0
 10
101.1147582755026
 20
-153.6736517627969
 30
0.0
 10
100.864988852822
 20
-153.6736517627969
 30
0.0
 10
100.8184800637711
 20
-153.9571831212329
 30
0.0
 10
100.8184800637711
 20
-154.3020371793064
 30
0.0
 10
100.8184800637711
 20
-154.6213975307891
 30
0.0
 10
100.8546535663662
 20
-154.9300780862675
 30
0.0
 10
101.1147582755026
 20
-154.9300780862675
 30
0.0
 10
101.362460640892
 20
-154.9300780862675
 30
0.0
 10
101.4110364872341
 20
-154.6489582946711
 30
0.0
 10
101.4110364872341
 20
-154.3020371793064
 30
0.0
 10
101.4110364872341
 20
-153.9823323182753
 30
0.0
 10
101.3727959273478
 20
-153.6736517627969
 30
0.0
 10
101.1147582755026
 20
-153.6736517627969
 30
0.0
  0
HATCH
  5
CE
330
C6
100
AcDbEntity
  8
_U+30EC_U+30A4_U+30E4_U+30FC 1
 62
     7
420
 16777215
100
AcDbHatch
 10
0.0
 20
0.0
 30
0.0
210
0.0
220
0.0
230
1.0
  2
SOLID
 70
     1
 71
     0
 91
        2
 92
        1
 93
        1
 72
     4
 94
        3
 73
     0
 74
     1
 95
       29
 96
       25
 40
0.0
 40
0.0
 40
0.0
 40
0.0
 40
1.0
 40
1.0
 40
1.0
 40
2.0
 40
2.0
 40
2.0
 40
3.0
 40
3.0
 40
3.0
 40
4.0
 40
4.0
 40
4.0
 40
5.0
 40
5.0
 40
5.0
 40
6.0
 40
6.0
 40
6.0
 40
7.0
 40
7.0
 40
7.0
 40
8.0
 40
8.0
 40
8.0
 40
8.0
 10
101.5126668040489
 20
-154.896316150512
 10
101.4044908058121
 20
-155.1057779560152
 10
101.231202502904
 20
-155.1247259811841
 10
101.1147582755026
 20
-155.1247259811841
 10
100.9538723163414
 20
-155.1247259811841
 10
100.8122788918976
 20
-155.0782171921332
 10
100.7171942565047
 20
-154.896316150512
 10
100.6134968823987
 20
-154.7016682555954
 10
100.5942043476813
 20
-154.4649901957588
 10
100.5942043476813
 20
-154.3020371793064
 10
100.5942043476813
 20
-154.158032188023
 10
100.6114298251076
 20
-153.9061957080512
 10
100.7171942565047
 20
-153.7074136985523
 10
100.8250257451931
 20
-153.5044975744711
 10
100.9859117043542
 20
-153.4810709251714
 10
101.1147582755026
 20
-153.4810709251714
 10
101.2735771773726
 20
-153.4810709251714
 10
101.4172376591075
 20
-153.5255126569311
 10
101.5126668040489
 20
-153.7074136985523
 10
101.6118855540241
 20
-153.8999945361778
 10
101.6353122033238
 20
-154.1284043668498
 10
101.6353122033238
 20
-154.3020371793064
 10
101.6353122033238
 20
-154.4732584249234
 10
101.6139526113153
 20
-154.7037353128866
 10
101.5126668040489
 20
-154.896316150512
 97
        0
 97
        0
 92
        1
 93
        1
 72
     4
 94
        3
 73
     0
 74
     1
 95
       17
 96
       13
 40
0.0
 40
0.0
 40
0.0
 40
0.0
 40
1.0
 40
1.0
 40
1.0
 40
2.0
 40
2.0
 40
2.0
 40
3.0
 40
3.0
 40
3.0
 40
4.0
 40
4.0
 40
4.0
 40
4.0
 10
101.1147582755026
 20
-153.6736517627969
 10
100.864988852822
 20
-153.6736517627969
 10
100.8184800637711
 20
-153.9571831212329
 10
100.8184800637711
 20
-154.3020371793064
 10
100.8184800637711
 20
-154.6213975307891
 10
100.8546535663662
 20
-154.9300780862675
 10
101.1147582755026
 20
-154.9300780862675
 10
101.362460640892
 20
-154.9300780862675
 10
101.4110364872341
 20
-154.6489582946711
 10
101.4110364872341
 20
-154.3020371793064
 10
101.4110364872341
 20
-153.9823323182753
 10
101.3727959273478
 20
-153.6736517627969
 10
101.1147582755026
 20
-153.6736517627969
 97
        0
 97
        0
 75
     2
 76
     1
 98
        0
  0
ENDBLK
  5
C9
330
C6
100
AcDbEntity
  8
0
100
AcDbBlockEnd
  0
BLOCK
  5
D9
330
D7
100
AcDbEntity
  8
0
100
AcDbBlockBegin
  2
block 5
 70
     0
 10
0.0
 20
0.0
 30
0.0
  3
block 5
  1

  0
SPLINE
  5
DB
330
D7
100
AcDbEntity
  8
_U+30EC_U+30A4_U+30E4_U+30FC 1
370
     0
100
AcDbSpline
210
0.0
220
0.0
230
1.0
 70
    11
 71
     3
 72
    32
 73
    28
 74
     0
 42
0.0000000001
 43
0.0000000001
 12
1.0
 22
0.0
 32
0.0
 13
1.0
 23
0.0
 33
0.0
 40
0.0
 40
0.0
 40
0.0
 40
0.0
 40
1.0
 40
1.0
 40
1.0
 40
2.0
 40
2.0
 40
2.0
 40
3.0
 40
3.0
 40
3.0
 40
4.0
 40
4.0
 40
4.0
 40
5.0
 40
5.0
 40
5.0
 40
6.0
 40
6.0
 40
6.0
 40
7.0
 40
7.0
 40
7.0
 40
8.0
 40
8.0
 40
8.0
 40
9.0
 40
9.0
 40
9.0
 40
9.0
 10
122.3515326300024
 20
-148.9369899801269
 30
0.0
 10
122.3515326300024
 20
-149.4530652838173
 30
0.0
 10
121.7975612759742
 20
-149.4613335129819
 30
0.0
 10
121.5836208463402
 20
-149.4613335129819
 30
0.0
 10
121.353143958377
 20
-149.4613335129819
 30
0.0
 10
120.7058105166985
 20
-149.442385487813
 30
0.0
 10
120.7058105166985
 20
-148.8987494202406
 30
0.0
 10
120.7058105166985
 20
-148.7254611173325
 30
0.0
 10
120.7757459550491
 20
-148.4798258092342
 30
0.0
 10
121.1078531598272
 20
-148.4419297588965
 30
0.0
 10
121.1078531598272
 20
-148.4419297588965
 30
0.0
 10
121.1078531598272
 20
-148.6555256789819
 30
0.0
 10
121.1078531598272
 20
-148.6555256789819
 30
0.0
 10
121.0506645747721
 20
-148.6662054749862
 30
0.0
 10
120.9025254689063
 20
-148.6979003534505
 30
0.0
 10
120.9025254689063
 20
-148.9008164775317
 30
0.0
 10
120.9025254689063
 20
-149.1929605746809
 30
0.0
 10
121.2304985591021
 20
-149.2329236823098
 30
0.0
 10
121.4354817404745
 20
-149.2456705356053
 30
0.0
 10
121.3572780729593
 20
-149.1526529575035
 30
0.0
 10
121.298022430613
 20
-149.0847845764441
 30
0.0
 10
121.298022430613
 20
-148.9028835348229
 30
0.0
 10
121.298022430613
 20
-148.7230495504928
 30
0.0
 10
121.4061984288498
 20
-148.4205701668879
 30
0.0
 10
121.8123751865608
 20
-148.4205701668879
 30
0.0
 10
122.1317355380435
 20
-148.4205701668879
 30
0.0
 10
122.3515326300024
 20
-148.6196966859354
 30
0.0
 10
122.3515326300024
 20
-148.9369899801269
 30
0.0
  0
SPLINE
  5
DC
330
D7
100
AcDbEntity
  8
_U+30EC_U+30A4_U+30E4_U+30FC 1
370
     0
100
AcDbSpline
210
0.0
220
0.0
230
1.0
 70
    11
 71
     3
 72
    17
 73
    13
 74
     0
 42
0.0000000001
 43
0.0000000001
 12
1.0
 22
0.0
 32
0.0
 13
1.0
 23
0.0
 33
0.0
 40
0.0
 40
0.0
 40
0.0
 40
0.0
 40
1.0
 40
1.0
 40
1.0
 40
2.0
 40
2.0
 40
2.0
 40
3.0
 40
3.0
 40
3.0
 40
4.0
 40
4.0
 40
4.0
 40
4.0
 10
121.4926703255296
 20
-148.9197645027006
 30
0.0
 10
121.4926703255296
 20
-149.1822807786767
 30
0.0
 10
121.704199188324
 20
-149.2201768290144
 30
0.0
 10
121.8206434157254
 20
-149.2201768290144
 30
0.0
 10
121.9963432854731
 20
-149.2201768290144
 30
0.0
 10
122.1592963019255
 20
-149.1250921936215
 30
0.0
 10
122.1592963019255
 20
-148.9411240947092
 30
0.0
 10
122.1592963019255
 20
-148.8205457527254
 30
0.0
 10
122.1000406595792
 20
-148.6448458829777
 30
0.0
 10
121.814442243852
 20
-148.6448458829777
 30
0.0
 10
121.5901665277622
 20
-148.6448458829777
 30
0.0
 10
121.4926703255296
 20
-148.7847167596788
 30
0.0
 10
121.4926703255296
 20
-148.9197645027006
 30
0.0
  0
HATCH
  5
DD
330
D7
100
AcDbEntity
  8
_U+30EC_U+30A4_U+30E4_U+30FC 1
 62
     7
420
 16777215
100
AcDbHatch
 10
0.0
 20
0.0
 30
0.0
210
0.0
220
0.0
230
1.0
  2
SOLID
 70
     1
 71
     0
 91
        2
 92
        1
 93
        1
 72
     4
 94
        3
 73
     0
 74
     1
 95
       32
 96
       28
 40
0.0
 40
0.0
 40
0.0
 40
0.0
 40
1.0
 40
1.0
 40
1.0
 40
2.0
 40
2.0
 40
2.0
 40
3.0
 40
3.0
 40
3.0
 40
4.0
 40
4.0
 40
4.0
 40
5.0
 40
5.0
 40
5.0
 40
6.0
 40
6.0
 40
6.0
 40
7.0
 40
7.0
 40
7.0
 40
8.0
 40
8.0
 40
8.0
 40
9.0
 40
9.0
 40
9.0
 40
9.0
 10
122.3515326300024
 20
-148.9369899801269
 10
122.3515326300024
 20
-149.4530652838173
 10
121.7975612759742
 20
-149.4613335129819
 10
121.5836208463402
 20
-149.4613335129819
 10
121.353143958377
 20
-149.4613335129819
 10
120.7058105166985
 20
-149.442385487813
 10
120.7058105166985
 20
-148.8987494202406
 10
120.7058105166985
 20
-148.7254611173325
 10
120.7757459550491
 20
-148.4798258092342
 10
121.1078531598272
 20
-148.4419297588965
 10
121.1078531598272
 20
-148.4419297588965
 10
121.1078531598272
 20
-148.6555256789819
 10
121.1078531598272
 20
-148.6555256789819
 10
121.0506645747721
 20
-148.6662054749862
 10
120.9025254689063
 20
-148.6979003534505
 10
120.9025254689063
 20
-148.9008164775317
 10
120.9025254689063
 20
-149.1929605746809
 10
121.2304985591021
 20
-149.2329236823098
 10
121.4354817404745
 20
-149.2456705356053
 10
121.3572780729593
 20
-149.1526529575035
 10
121.298022430613
 20
-149.0847845764441
 10
121.298022430613
 20
-148.9028835348229
 10
121.298022430613
 20
-148.7230495504928
 10
121.4061984288498
 20
-148.4205701668879
 10
121.8123751865608
 20
-148.4205701668879
 10
122.1317355380435
 20
-148.4205701668879
 10
122.3515326300024
 20
-148.6196966859354
 10
122.3515326300024
 20
-148.9369899801269
 97
        0
 97
        0
 92
        1
 93
        1
 72
     4
 94
        3
 73
     0
 74
     1
 95
       17
 96
       13
 40
0.0
 40
0.0
 40
0.0
 40
0.0
 40
1.0
 40
1.0
 40
1.0
 40
2.0
 40
2.0
 40
2.0
 40
3.0
 40
3.0
 40
3.0
 40
4.0
 40
4.0
 40
4.0
 40
4.0
 10
121.4926703255296
 20
-148.9197645027006
 10
121.4926703255296
 20
-149.1822807786767
 10
121.704199188324
 20
-149.2201768290144
 10
121.8206434157254
 20
-149.2201768290144
 10
121.9963432854731
 20
-149.2201768290144
 10
122.1592963019255
 20
-149.1250921936215
 10
122.1592963019255
 20
-148.9411240947092
 10
122.1592963019255
 20
-148.8205457527254
 10
122.1000406595792
 20
-148.6448458829777
 10
121.814442243852
 20
-148.6448458829777
 10
121.5901665277622
 20
-148.6448458829777
 10
121.4926703255296
 20
-148.7847167596788
 10
121.4926703255296
 20
-148.9197645027006
 97
        0
 97
        0
 75
     2
 76
     1
 98
        0
  0
POLYLINE
  5
DE
330
D7
100
AcDbEntity
  8
_U+30EC_U+30A4_U+30E4_U+30FC 1
370
     0
100
AcDb2dPolyline
 66
     1
 10
0.0
 20
0.0
 30
0.0
  0
VERTEX
  5
DF
330
DE
100
AcDbEntity
  8
_U+30EC_U+30A4_U+30E4_U+30FC 1
370
     0
100
AcDbVertex
100
AcDb2dVertex
 10
122.3008897263692
 20
-148.2042181704142
 30
0.0
  0
VERTEX
  5
E0
330
DE
100
AcDbEntity
  8
_U+30EC_U+30A4_U+30E4_U+30FC 1
370
     0
100
AcDbVertex
100
AcDb2dVertex
 10
122.0490532463975
 20
-148.2042181704142
 30
0.0
  0
VERTEX
  5
E1
330
DE
100
AcDbEntity
  8
_U+30EC_U+30A4_U+30E4_U+30FC 1
370
     0
100
AcDbVertex
100
AcDb2dVertex
 10
122.0490532463975
 20
-147.9523816904425
 30
0.0
  0
VERTEX
  5
E2
330
DE
100
AcDbEntity
  8
_U+30EC_U+30A4_U+30E4_U+30FC 1
370
     0
100
AcDbVertex
100
AcDb2dVertex
 10
122.3008897263692
 20
-147.9523816904425
 30
0.0
  0
VERTEX
  5
E3
330
DE
100
AcDbEntity
  8
_U+30EC_U+30A4_U+30E4_U+30FC 1
370
     0
100
AcDbVertex
100
AcDb2dVertex
 10
122.3008897263692
 20
-148.2042181704142
 30
0.0
  0
SEQEND
  5
E4
330
DE
100
AcDbEntity
  8
_U+30EC_U+30A4_U+30E4_U+30FC 1
370
     0
  0
HATCH
  5
E5
330
D7
100
AcDbEntity
  8
_U+30EC_U+30A4_U+30E4_U+30FC 1
 62
     7
420
 16777215
100
AcDbHatch
 10
0.0
 20
0.0
 30
0.0
210
0.0
220
0.0
230
1.0
  2
SOLID
 70
     1
 71
     0
 91
        1
 92
        1
 93
        4
 72
     1
 10
122.3008897263692
 20
-148.2042181704142
 11
122.0490532463975
 21
-148.2042181704142
 72
     1
 10
122.0490532463975
 20
-148.2042181704142
 11
122.0490532463975
 21
-147.9523816904425
 72
     1
 10
122.0490532463975
 20
-147.9523816904425
 11
122.3008897263692
 21
-147.9523816904425
 72
     1
 10
122.3008897263692
 20
-147.9523816904425
 11
122.3008897263692
 21
-148.2042181704142
 97
        0
 75
     2
 76
     1
 98
        0
  0
SPLINE
  5
E6
330
D7
100
AcDbEntity
  8
_U+30EC_U+30A4_U+30E4_U+30FC 1
370
     0
100
AcDbSpline
210
0.0
220
0.0
230
1.0
 70
    11
 71
     3
 72
    53
 73
    49
 74
     0
 42
0.0000000001
 43
0.0000000001
 12
1.0
 22
0.0
 32
0.0
 13
1.0
 23
0.0
 33
0.0
 40
0.0
 40
0.0
 40
0.0
 40
0.0
 40
1.0
 40
1.0
 40
1.0
 40
2.0
 40
2.0
 40
2.0
 40
3.0
 40
3.0
 40
3.0
 40
4.0
 40
4.0
 40
4.0
 40
5.0
 40
5.0
 40
5.0
 40
6.0
 40
6.0
 40
6.0
 40
7.0
 40
7.0
 40
7.0
 40
8.0
 40
8.0
 40
8.0
 40
9.0
 40
9.0
 40
9.0
 40
10.0
 40
10.0
 40
10.0
 40
11.0
 40
11.0
 40
11.0
 40
12.0
 40
12.0
 40
12.0
 40
13.0
 40
13.0
 40
13.0
 40
14.0
 40
14.0
 40
14.0
 40
15.0
 40
15.0
 40
15.0
 40
16.0
 40
16.0
 40
16.0
 40
16.0
 10
122.3515326300024
 20
-147.2351128104135
 30
0.0
 10
122.3515326300024
 20
-147.3133164779286
 30
0.0
 10
122.3346516621247
 20
-147.4149467947435
 30
0.0
 10
122.2712619051961
 20
-147.5165771115584
 30
0.0
 10
122.1613633592166
 20
-147.6898654144664
 30
0.0
 10
122.0301052212286
 20
-147.711225006475
 30
0.0
 10
121.9222737325403
 20
-147.7301730316439
 30
0.0
 10
121.9222737325403
 20
-147.7301730316439
 30
0.0
 10
121.9222737325403
 20
-147.5079643728452
 30
0.0
 10
121.9222737325403
 20
-147.5079643728452
 30
0.0
 10
122.1210557420392
 20
-147.4531873546298
 30
0.0
 10
122.1506835632123
 20
-147.326063331224
 30
0.0
 10
122.1506835632123
 20
-147.2330457531223
 30
0.0
 10
122.1506835632123
 20
-147.0935193859697
 30
0.0
 10
122.0511203036886
 20
-146.9412461655216
 30
0.0
 10
121.8185763584343
 20
-146.9412461655216
 30
0.0
 10
121.5626057638802
 20
-146.9412461655216
 30
0.0
 10
121.4926703255296
 20
-147.1210801498517
 30
0.0
 10
121.4926703255296
 20
-147.2416584918354
 30
0.0
 10
121.4926703255296
 20
-147.2733533702997
 30
0.0
 10
121.4926703255296
 20
-147.4149467947435
 30
0.0
 10
121.6218614062265
 20
-147.503830258263
 30
0.0
 10
121.6218614062265
 20
-147.503830258263
 30
0.0
 10
121.6029133810576
 20
-147.6795301280107
 30
0.0
 10
121.6029133810576
 20
-147.6795301280107
 30
0.0
 10
121.6029133810576
 20
-147.6795301280107
 30
0.0
 10
120.7564534203317
 20
-147.5589517860269
 30
0.0
 10
120.7564534203317
 20
-147.5589517860269
 30
0.0
 10
120.7564534203317
 20
-147.5589517860269
 30
0.0
 10
120.7564534203317
 20
-146.7803602063605
 30
0.0
 10
120.7564534203317
 20
-146.7803602063605
 30
0.0
 10
120.7564534203317
 20
-146.7803602063605
 30
0.0
 10
120.9511013152483
 20
-146.7803602063605
 30
0.0
 10
120.9511013152483
 20
-146.7803602063605
 30
0.0
 10
120.9511013152483
 20
-146.7803602063605
 30
0.0
 10
120.9511013152483
 20
-147.3959987695746
 30
0.0
 10
120.9511013152483
 20
-147.3959987695746
 30
0.0
 10
120.9511013152483
 20
-147.3959987695746
 30
0.0
 10
121.374159040837
 20
-147.4614555837944
 30
0.0
 10
121.374159040837
 20
-147.4614555837944
 30
0.0
 10
121.3403971050816
 20
-147.4001328841569
 30
0.0
 10
121.3000894879041
 20
-147.3177951020594
 30
0.0
 10
121.3000894879041
 20
-147.1992838173668
 30
0.0
 10
121.3000894879041
 20
-146.9453802801039
 30
0.0
 10
121.4864691536562
 20
-146.7083577107188
 30
0.0
 10
121.7996283332654
 20
-146.7083577107188
 30
0.0
 10
122.1169216274569
 20
-146.7083577107188
 30
0.0
 10
122.3515326300024
 20
-146.9326334268085
 30
0.0
 10
122.3515326300024
 20
-147.2351128104135
 30
0.0
  0
HATCH
  5
E7
330
D7
100
AcDbEntity
  8
_U+30EC_U+30A4_U+30E4_U+30FC 1
 62
     7
420
 16777215
100
AcDbHatch
 10
0.0
 20
0.0
 30
0.0
210
0.0
220
0.0
230
1.0
  2
SOLID
 70
     1
 71
     0
 91
        1
 92
        1
 93
        1
 72
     4
 94
        3
 73
     0
 74
     1
 95
       53
 96
       49
 40
0.0
 40
0.0
 40
0.0
 40
0.0
 40
1.0
 40
1.0
 40
1.0
 40
2.0
 40
2.0
 40
2.0
 40
3.0
 40
3.0
 40
3.0
 40
4.0
 40
4.0
 40
4.0
 40
5.0
 40
5.0
 40
5.0
 40
6.0
 40
6.0
 40
6.0
 40
7.0
 40
7.0
 40
7.0
 40
8.0
 40
8.0
 40
8.0
 40
9.0
 40
9.0
 40
9.0
 40
10.0
 40
10.0
 40
10.0
 40
11.0
 40
11.0
 40
11.0
 40
12.0
 40
12.0
 40
12.0
 40
13.0
 40
13.0
 40
13.0
 40
14.0
 40
14.0
 40
14.0
 40
15.0
 40
15.0
 40
15.0
 40
16.0
 40
16.0
 40
16.0
 40
16.0
 10
122.3515326300024
 20
-147.2351128104135
 10
122.3515326300024
 20
-147.3133164779286
 10
122.3346516621247
 20
-147.4149467947435
 10
122.2712619051961
 20
-147.5165771115584
 10
122.1613633592166
 20
-147.6898654144664
 10
122.0301052212286
 20
-147.711225006475
 10
121.9222737325403
 20
-147.7301730316439
 10
121.9222737325403
 20
-147.7301730316439
 10
121.9222737325403
 20
-147.5079643728452
 10
121.9222737325403
 20
-147.5079643728452
 10
122.1210557420392
 20
-147.4531873546298
 10
122.1506835632123
 20
-147.326063331224
 10
122.1506835632123
 20
-147.2330457531223
 10
122.1506835632123
 20
-147.0935193859697
 10
122.0511203036886
 20
-146.9412461655216
 10
121.8185763584343
 20
-146.9412461655216
 10
121.5626057638802
 20
-146.9412461655216
 10
121.4926703255296
 20
-147.1210801498517
 10
121.4926703255296
 20
-147.2416584918354
 10
121.4926703255296
 20
-147.2733533702997
 10
121.4926703255296
 20
-147.4149467947435
 10
121.6218614062265
 20
-147.503830258263
 10
121.6218614062265
 20
-147.503830258263
 10
121.6029133810576
 20
-147.6795301280107
 10
121.6029133810576
 20
-147.6795301280107
 10
121.6029133810576
 20
-147.6795301280107
 10
120.7564534203317
 20
-147.5589517860269
 10
120.7564534203317
 20
-147.5589517860269
 10
120.7564534203317
 20
-147.5589517860269
 10
120.7564534203317
 20
-146.7803602063605
 10
120.7564534203317
 20
-146.7803602063605
 10
120.7564534203317
 20
-146.7803602063605
 10
120.9511013152483
 20
-146.7803602063605
 10
120.9511013152483
 20
-146.7803602063605
 10
120.9511013152483
 20
-146.7803602063605
 10
120.9511013152483
 20
-147.3959987695746
 10
120.9511013152483
 20
-147.3959987695746
 10
120.9511013152483
 20
-147.3959987695746
 10
121.374159040837
 20
-147.4614555837944
 10
121.374159040837
 20
-147.4614555837944
 10
121.3403971050816
 20
-147.4001328841569
 10
121.3000894879041
 20
-147.3177951020594
 10
121.3000894879041
 20
-147.1992838173668
 10
121.3000894879041
 20
-146.9453802801039
 10
121.4864691536562
 20
-146.7083577107188
 10
121.7996283332654
 20
-146.7083577107188
 10
122.1169216274569
 20
-146.7083577107188
 10
122.3515326300024
 20
-146.9326334268085
 10
122.3515326300024
 20
-147.2351128104135
 97
        0
 97
        0
 75
     2
 76
     1
 98
        0
  0
ENDBLK
  5
DA
330
D7
100
AcDbEntity
  8
0
100
AcDbBlockEnd
  0
BLOCK
  5
F6
330
F4
100
AcDbEntity
  8
0
100
AcDbBlockBegin
  2
block 6
 70
     0
 10
0.0
 20
0.0
 30
0.0
  3
block 6
  1

  0
SPLINE
  5
F8
330
F4
100
AcDbEntity
  8
_U+30EC_U+30A4_U+30E4_U+30FC 1
370
     0
100
AcDbSpline
210
0.0
220
0.0
230
1.0
 70
    11
 71
     3
 72
    62
 73
    58
 74
     0
 42
0.0000000001
 43
0.0000000001
 12
1.0
 22
0.0
 32
0.0
 13
1.0
 23
0.0
 33
0.0
 40
0.0
 40
0.0
 40
0.0
 40
0.0
 40
1.0
 40
1.0
 40
1.0
 40
2.0
 40
2.0
 40
2.0
 40
3.0
 40
3.0
 40
3.0
 40
4.0
 40
4.0
 40
4.0
 40
5.0
 40
5.0
 40
5.0
 40
6.0
 40
6.0
 40
6.0
 40
7.0
 40
7.0
 40
7.0
 40
8.0
 40
8.0
 40
8.0
 40
9.0
 40
9.0
 40
9.0
 40
10.0
 40
10.0
 40
10.0
 40
11.0
 40
11.0
 40
11.0
 40
12.0
 40
12.0
 40
12.0
 40
13.0
 40
13.0
 40
13.0
 40
14.0
 40
14.0
 40
14.0
 40
15.0
 40
15.0
 40
15.0
 40
16.0
 40
16.0
 40
16.0
 40
17.0
 40
17.0
 40
17.0
 40
18.0
 40
18.0
 40
18.0
 40
19.0
 40
19.0
 40
19.0
 40
19.0
 10
101.9298678673127
 20
-138.6247856641285
 30
0.0
 10
101.8344387223713
 20
-138.6247856641285
 30
0.0
 10
101.6167086877035
 20
-138.6037705816685
 30
0.0
 10
101.4916517215889
 20
-138.417735425465
 30
0.0
 10
101.417582168656
 20
-138.3054253126459
 30
0.0
 10
101.4134480540737
 20
-138.2062065626707
 30
0.0
 10
101.4093139394914
 20
-138.1214572137335
 30
0.0
 10
101.4093139394914
 20
-138.1214572137335
 30
0.0
 10
101.6294555409989
 20
-138.1214572137335
 30
0.0
 10
101.6294555409989
 20
-138.1214572137335
 30
0.0
 10
101.63152259829
 20
-138.1955267666664
 30
0.0
 10
101.6418578847458
 20
-138.4301377692119
 30
0.0
 10
101.9253892431819
 20
-138.4301377692119
 30
0.0
 10
102.0628485530433
 20
-138.4301377692119
 30
0.0
 10
102.2154662830399
 20
-138.3605468404099
 30
0.0
 10
102.2154662830399
 20
-138.1321370097378
 30
0.0
 10
102.2154662830399
 20
-138.0156927823364
 30
0.0
 10
102.1772257231536
 20
-137.9671169359943
 30
0.0
 10
102.1455308446893
 20
-137.93542205753
 30
0.0
 10
102.0714612917564
 20
-137.8613525045972
 30
0.0
 10
101.955017064355
 20
-137.8486056513017
 30
0.0
 10
101.9002400461395
 20
-137.8486056513017
 30
0.0
 10
101.8809475114221
 20
-137.8486056513017
 30
0.0
 10
101.8451185183755
 20
-137.8506727085929
 30
0.0
 10
101.8175577544935
 20
-137.8548068231752
 30
0.0
 10
101.8175577544935
 20
-137.8548068231752
 30
0.0
 10
101.8175577544935
 20
-137.6601589282586
 30
0.0
 10
101.8175577544935
 20
-137.6601589282586
 30
0.0
 10
101.8557983143798
 20
-137.6667046096806
 30
0.0
 10
101.8978284792998
 20
-137.6687716669717
 30
0.0
 10
101.9043741607218
 20
-137.6687716669717
 30
0.0
 10
101.9698309749416
 20
-137.6687716669717
 30
0.0
 10
102.1686129844405
 20
-137.6474120749631
 30
0.0
 10
102.1686129844405
 20
-137.4107340151265
 30
0.0
 10
102.1686129844405
 20
-137.2329670880876
 30
0.0
 10
102.037699356001
 20
-137.1778455603236
 30
0.0
 10
101.927456300473
 20
-137.1778455603236
 30
0.0
 10
101.6632174767543
 20
-137.1778455603236
 30
0.0
 10
101.6546047380412
 20
-137.4107340151265
 30
0.0
 10
101.6504706234589
 20
-137.4823920012197
 30
0.0
 10
101.6504706234589
 20
-137.4823920012197
 30
0.0
 10
101.4472099898292
 20
-137.4823920012197
 30
0.0
 10
101.4472099898292
 20
-137.4823920012197
 30
0.0
 10
101.4558227285423
 20
-137.3576795446536
 30
0.0
 10
101.4833834924243
 20
-136.9811306081158
 30
0.0
 10
101.9402031537684
 20
-136.9811306081158
 30
0.0
 10
102.1644788698582
 20
-136.9811306081158
 30
0.0
 10
102.4056355538257
 20
-137.1082546315216
 30
0.0
 10
102.4056355538257
 20
-137.4041883337045
 30
0.0
 10
102.4056355538257
 20
-137.5905679994565
 30
0.0
 10
102.3105509184328
 20
-137.672905781554
 30
0.0
 10
102.2109876589091
 20
-137.7342284811915
 30
0.0
 10
102.2723103585465
 20
-137.7617892450735
 30
0.0
 10
102.4542114001677
 20
-137.8420599698798
 30
0.0
 10
102.4542114001677
 20
-138.1193901564424
 30
0.0
 10
102.4542114001677
 20
-138.4576985330939
 30
0.0
 10
102.2068535443268
 20
-138.6247856641285
 30
0.0
 10
101.9298678673127
 20
-138.6247856641285
 30
0.0
  0
HATCH
  5
F9
330
F4
100
AcDbEntity
  8
_U+30EC_U+30A4_U+30E4_U+30FC 1
 62
     7
420
 16777215
100
AcDbHatch
 10
0.0
 20
0.0
 30
0.0
210
0.0
220
0.0
230
1.0
  2
SOLID
 70
     1
 71
     0
 91
        1
 92
        1
 93
        1
 72
     4
 94
        3
 73
     0
 74
     1
 95
       62
 96
       58
 40
0.0
 40
0.0
 40
0.0
 40
0.0
 40
1.0
 40
1.0
 40
1.0
 40
2.0
 40
2.0
 40
2.0
 40
3.0
 40
3.0
 40
3.0
 40
4.0
 40
4.0
 40
4.0
 40
5.0
 40
5.0
 40
5.0
 40
6.0
 40
6.0
 40
6.0
 40
7.0
 40
7.0
 40
7.0
 40
8.0
 40
8.0
 40
8.0
 40
9.0
 40
9.0
 40
9.0
 40
10.0
 40
10.0
 40
10.0
 40
11.0
 40
11.0
 40
11.0
 40
12.0
 40
12.0
 40
12.0
 40
13.0
 40
13.0
 40
13.0
 40
14.0
 40
14.0
 40
14.0
 40
15.0
 40
15.0
 40
15.0
 40
16.0
 40
16.0
 40
16.0
 40
17.0
 40
17.0
 40
17.0
 40
18.0
 40
18.0
 40
18.0
 40
19.0
 40
19.0
 40
19.0
 40
19.0
 10
101.9298678673127
 20
-138.6247856641285
 10
101.8344387223713
 20
-138.6247856641285
 10
101.6167086877035
 20
-138.6037705816685
 10
101.4916517215889
 20
-138.417735425465
 10
101.417582168656
 20
-138.3054253126459
 10
101.4134480540737
 20
-138.2062065626707
 10
101.4093139394914
 20
-138.1214572137335
 10
101.4093139394914
 20
-138.1214572137335
 10
101.6294555409989
 20
-138.1214572137335
 10
101.6294555409989
 20
-138.1214572137335
 10
101.63152259829
 20
-138.1955267666664
 10
101.6418578847458
 20
-138.4301377692119
 10
101.9253892431819
 20
-138.4301377692119
 10
102.0628485530433
 20
-138.4301377692119
 10
102.2154662830399
 20
-138.3605468404099
 10
102.2154662830399
 20
-138.1321370097378
 10
102.2154662830399
 20
-138.0156927823364
 10
102.1772257231536
 20
-137.9671169359943
 10
102.1455308446893
 20
-137.93542205753
 10
102.0714612917564
 20
-137.8613525045972
 10
101.955017064355
 20
-137.8486056513017
 10
101.9002400461395
 20
-137.8486056513017
 10
101.8809475114221
 20
-137.8486056513017
 10
101.8451185183755
 20
-137.8506727085929
 10
101.8175577544935
 20
-137.8548068231752
 10
101.8175577544935
 20
-137.8548068231752
 10
101.8175577544935
 20
-137.6601589282586
 10
101.8175577544935
 20
-137.6601589282586
 10
101.8557983143798
 20
-137.6667046096806
 10
101.8978284792998
 20
-137.6687716669717
 10
101.9043741607218
 20
-137.6687716669717
 10
101.9698309749416
 20
-137.6687716669717
 10
102.1686129844405
 20
-137.6474120749631
 10
102.1686129844405
 20
-137.4107340151265
 10
102.1686129844405
 20
-137.2329670880876
 10
102.037699356001
 20
-137.1778455603236
 10
101.927456300473
 20
-137.1778455603236
 10
101.6632174767543
 20
-137.1778455603236
 10
101.6546047380412
 20
-137.4107340151265
 10
101.6504706234589
 20
-137.4823920012197
 10
101.6504706234589
 20
-137.4823920012197
 10
101.4472099898292
 20
-137.4823920012197
 10
101.4472099898292
 20
-137.4823920012197
 10
101.4558227285423
 20
-137.3576795446536
 10
101.4833834924243
 20
-136.9811306081158
 10
101.9402031537684
 20
-136.9811306081158
 10
102.1644788698582
 20
-136.9811306081158
 10
102.4056355538257
 20
-137.1082546315216
 10
102.4056355538257
 20
-137.4041883337045
 10
102.4056355538257
 20
-137.5905679994565
 10
102.3105509184328
 20
-137.672905781554
 10
102.2109876589091
 20
-137.7342284811915
 10
102.2723103585465
 20
-137.7617892450735
 10
102.4542114001677
 20
-137.8420599698798
 10
102.4542114001677
 20
-138.1193901564424
 10
102.4542114001677
 20
-138.4576985330939
 10
102.2068535443268
 20
-138.6247856641285
 10
101.9298678673127
 20
-138.6247856641285
 97
        0
 97
        0
 75
     2
 76
     1
 98
        0
  0
POLYLINE
  5
FA
330
F4
100
AcDbEntity
  8
_U+30EC_U+30A4_U+30E4_U+30FC 1
370
     0
100
AcDb2dPolyline
 66
     1
 10
0.0
 20
0.0
 30
0.0
  0
VERTEX
  5
FB
330
FA
100
AcDbEntity
  8
_U+30EC_U+30A4_U+30E4_U+30FC 1
370
     0
100
AcDbVertex
100
AcDb2dVertex
 10
103.4470879190167
 20
-138.2272216451307
 30
0.0
  0
VERTEX
  5
FC
330
FA
100
AcDbEntity
  8
_U+30EC_U+30A4_U+30E4_U+30FC 1
370
     0
100
AcDbVertex
100
AcDb2dVertex
 10
103.4470879190167
 20
-138.5741427604954
 30
0.0
  0
VERTEX
  5
FD
330
FA
100
AcDbEntity
  8
_U+30EC_U+30A4_U+30E4_U+30FC 1
370
     0
100
AcDbVertex
100
AcDb2dVertex
 10
103.2293578843489
 20
-138.5741427604954
 30
0.0
  0
VERTEX
  5
FE
330
FA
100
AcDbEntity
  8
_U+30EC_U+30A4_U+30E4_U+30FC 1
370
     0
100
AcDbVertex
100
AcDb2dVertex
 10
103.2293578843489
 20
-138.2272216451307
 30
0.0
  0
VERTEX
  5
FF
330
FA
100
AcDbEntity
  8
_U+30EC_U+30A4_U+30E4_U+30FC 1
370
     0
100
AcDbVertex
100
AcDb2dVertex
 10
102.5734117039573
 20
-138.2272216451307
 30
0.0
  0
VERTEX
  5
100
330
FA
100
AcDbEntity
  8
_U+30EC_U+30A4_U+30E4_U+30FC 1
370
     0
100
AcDbVertex
100
AcDb2dVertex
 10
102.5734117039573
 20
-138.0029459290409
 30
0.0
  0
VERTEX
  5
101
330
FA
100
AcDbEntity
  8
_U+30EC_U+30A4_U+30E4_U+30FC 1
370
     0
100
AcDbVertex
100
AcDb2dVertex
 10
103.2524400241001
 20
-137.0297064544579
 30
0.0
  0
VERTEX
  5
102
330
FA
100
AcDbEntity
  8
_U+30EC_U+30A4_U+30E4_U+30FC 1
370
     0
100
AcDbVertex
100
AcDb2dVertex
 10
103.4470879190167
 20
-137.0297064544579
 30
0.0
  0
VERTEX
  5
103
330
FA
100
AcDbEntity
  8
_U+30EC_U+30A4_U+30E4_U+30FC 1
370
     0
100
AcDbVertex
100
AcDb2dVertex
 10
103.4470879190167
 20
-138.0284396356318
 30
0.0
  0
VERTEX
  5
104
330
FA
100
AcDbEntity
  8
_U+30EC_U+30A4_U+30E4_U+30FC 1
370
     0
100
AcDbVertex
100
AcDb2dVertex
 10
103.6544826672287
 20
-138.0284396356318
 30
0.0
  0
VERTEX
  5
105
330
FA
100
AcDbEntity
  8
_U+30EC_U+30A4_U+30E4_U+30FC 1
370
     0
100
AcDbVertex
100
AcDb2dVertex
 10
103.6544826672287
 20
-138.2272216451307
 30
0.0
  0
VERTEX
  5
106
330
FA
100
AcDbEntity
  8
_U+30EC_U+30A4_U+30E4_U+30FC 1
370
     0
100
AcDbVertex
100
AcDb2dVertex
 10
103.4470879190167
 20
-138.2272216451307
 30
0.0
  0
SEQEND
  5
107
330
FA
100
AcDbEntity
  8
_U+30EC_U+30A4_U+30E4_U+30FC 1
370
     0
  0
POLYLINE
  5
108
330
F4
100
AcDbEntity
  8
_U+30EC_U+30A4_U+30E4_U+30FC 1
370
     0
100
AcDb2dPolyline
 66
     1
 10
0.0
 20
0.0
 30
0.0
  0
VERTEX
  5
109
330
108
100
AcDbEntity
  8
_U+30EC_U+30A4_U+30E4_U+30FC 1
370
     0
100
AcDbVertex
100
AcDb2dVertex
 10
103.2293578843489
 20
-137.3724934552402
 30
0.0
  0
VERTEX
  5
10A
330
108
100
AcDbEntity
  8
_U+30EC_U+30A4_U+30E4_U+30FC 1
370
     0
100
AcDbVertex
100
AcDb2dVertex
 10
102.7721937134563
 20
-138.0284396356318
 30
0.0
  0
VERTEX
  5
10B
330
108
100
AcDbEntity
  8
_U+30EC_U+30A4_U+30E4_U+30FC 1
370
     0
100
AcDbVertex
100
AcDb2dVertex
 10
103.2293578843489
 20
-138.0284396356318
 30
0.0
  0
VERTEX
  5
10C
330
108
100
AcDbEntity
  8
_U+30EC_U+30A4_U+30E4_U+30FC 1
370
     0
100
AcDbVertex
100
AcDb2dVertex
 10
103.2293578843489
 20
-137.3724934552402
 30
0.0
  0
SEQEND
  5
10D
330
108
100
AcDbEntity
  8
_U+30EC_U+30A4_U+30E4_U+30FC 1
370
     0
  0
HATCH
  5
10E
330
F4
100
AcDbEntity
  8
_U+30EC_U+30A4_U+30E4_U+30FC 1
 62
     7
420
 16777215
100
AcDbHatch
 10
0.0
 20
0.0
 30
0.0
210
0.0
220
0.0
230
1.0
  2
SOLID
 70
     1
 71
     0
 91
        2
 92
        1
 93
       11
 72
     1
 10
103.4470879190167
 20
-138.2272216451307
 11
103.4470879190167
 21
-138.5741427604954
 72
     1
 10
103.4470879190167
 20
-138.5741427604954
 11
103.2293578843489
 21
-138.5741427604954
 72
     1
 10
103.2293578843489
 20
-138.5741427604954
 11
103.2293578843489
 21
-138.2272216451307
 72
     1
 10
103.2293578843489
 20
-138.2272216451307
 11
102.5734117039573
 21
-138.2272216451307
 72
     1
 10
102.5734117039573
 20
-138.2272216451307
 11
102.5734117039573
 21
-138.0029459290409
 72
     1
 10
102.5734117039573
 20
-138.0029459290409
 11
103.2524400241001
 21
-137.0297064544579
 72
     1
 10
103.2524400241001
 20
-137.0297064544579
 11
103.4470879190167
 21
-137.0297064544579
 72
     1
 10
103.4470879190167
 20
-137.0297064544579
 11
103.4470879190167
 21
-138.0284396356318
 72
     1
 10
103.4470879190167
 20
-138.0284396356318
 11
103.6544826672287
 21
-138.0284396356318
 72
     1
 10
103.6544826672287
 20
-138.0284396356318
 11
103.6544826672287
 21
-138.2272216451307
 72
     1
 10
103.6544826672287
 20
-138.2272216451307
 11
103.4470879190167
 21
-138.2272216451307
 97
        0
 92
        1
 93
        3
 72
     1
 10
103.2293578843489
 20
-137.3724934552402
 11
102.7721937134563
 21
-138.0284396356318
 72
     1
 10
102.7721937134563
 20
-138.0284396356318
 11
103.2293578843489
 21
-138.0284396356318
 72
     1
 10
103.2293578843489
 20
-138.0284396356318
 11
103.2293578843489
 21
-137.3724934552402
 97
        0
 75
     2
 76
     1
 98
        0
  0
ENDBLK
  5
F7
330
F4
100
AcDbEntity
  8
0
100
AcDbBlockEnd
  0
BLOCK
  5
119
330
117
100
AcDbEntity
  8
0
100
AcDbBlockBegin
  2
block 7
 70
     0
 10
0.0
 20
0.0
 30
0.0
  3
block 7
  1

  0
SPLINE
  5
11B
330
117
100
AcDbEntity
  8
_U+30EC_U+30A4_U+30E4_U+30FC 1
370
     0
100
AcDbSpline
210
0.0
220
0.0
230
1.0
 70
    11
 71
     3
 72
    26
 73
    22
 74
     0
 42
0.0000000001
 43
0.0000000001
 12
1.0
 22
0.0
 32
0.0
 13
1.0
 23
0.0
 33
0.0
 40
0.0
 40
0.0
 40
0.0
 40
0.0
 40
1.0
 40
1.0
 40
1.0
 40
2.0
 40
2.0
 40
2.0
 40
3.0
 40
3.0
 40
3.0
 40
4.0
 40
4.0
 40
4.0
 40
5.0
 40
5.0
 40
5.0
 40
6.0
 40
6.0
 40
6.0
 40
7.0
 40
7.0
 40
7.0
 40
7.0
 10
89.88943140113875
 20
-155.0740830775509
 30
0.0
 10
89.88943140113875
 20
-155.0740830775509
 30
0.0
 10
89.88943140113875
 20
-153.9699299745284
 30
0.0
 10
89.88943140113875
 20
-153.9699299745284
 30
0.0
 10
89.88943140113875
 20
-153.9699299745284
 30
0.0
 10
89.55939125365182
 20
-153.9699299745284
 30
0.0
 10
89.55939125365182
 20
-153.9699299745284
 30
0.0
 10
89.55939125365182
 20
-153.9699299745284
 30
0.0
 10
89.55939125365182
 20
-153.8217908686626
 30
0.0
 10
89.55939125365182
 20
-153.8217908686626
 30
0.0
 10
89.89149845842991
 20
-153.806976958076
 30
0.0
 10
89.93800724748078
 20
-153.6440239416237
 30
0.0
 10
89.96763506865393
 20
-153.5296467715134
 30
0.0
 10
89.96763506865393
 20
-153.5296467715134
 30
0.0
 10
90.11370711722853
 20
-153.5296467715134
 30
0.0
 10
90.11370711722853
 20
-153.5296467715134
 30
0.0
 10
90.11370711722853
 20
-153.5296467715134
 30
0.0
 10
90.11370711722853
 20
-155.0740830775509
 30
0.0
 10
90.11370711722853
 20
-155.0740830775509
 30
0.0
 10
90.11370711722853
 20
-155.0740830775509
 30
0.0
 10
89.88943140113875
 20
-155.0740830775509
 30
0.0
 10
89.88943140113875
 20
-155.0740830775509
 30
0.0
  0
HATCH
  5
11C
330
117
100
AcDbEntity
  8
_U+30EC_U+30A4_U+30E4_U+30FC 1
 62
     7
420
 16777215
100
AcDbHatch
 10
0.0
 20
0.0
 30
0.0
210
0.0
220
0.0
230
1.0
  2
SOLID
 70
     1
 71
     0
 91
        1
 92
        1
 93
        1
 72
     4
 94
        3
 73
     0
 74
     1
 95
       26
 96
       22
 40
0.0
 40
0.0
 40
0.0
 40
0.0
 40
1.0
 40
1.0
 40
1.0
 40
2.0
 40
2.0
 40
2.0
 40
3.0
 40
3.0
 40
3.0
 40
4.0
 40
4.0
 40
4.0
 40
5.0
 40
5.0
 40
5.0
 40
6.0
 40
6.0
 40
6.0
 40
7.0
 40
7.0
 40
7.0
 40
7.0
 10
89.88943140113875
 20
-155.0740830775509
 10
89.88943140113875
 20
-155.0740830775509
 10
89.88943140113875
 20
-153.9699299745284
 10
89.88943140113875
 20
-153.9699299745284
 10
89.88943140113875
 20
-153.9699299745284
 10
89.55939125365182
 20
-153.9699299745284
 10
89.55939125365182
 20
-153.9699299745284
 10
89.55939125365182
 20
-153.9699299745284
 10
89.55939125365182
 20
-153.8217908686626
 10
89.55939125365182
 20
-153.8217908686626
 10
89.89149845842991
 20
-153.806976958076
 10
89.93800724748078
 20
-153.6440239416237
 10
89.96763506865393
 20
-153.5296467715134
 10
89.96763506865393
 20
-153.5296467715134
 10
90.11370711722853
 20
-153.5296467715134
 10
90.11370711722853
 20
-153.5296467715134
 10
90.11370711722853
 20
-153.5296467715134
 10
90.11370711722853
 20
-155.0740830775509
 10
90.11370711722853
 20
-155.0740830775509
 10
90.11370711722853
 20
-155.0740830775509
 10
89.88943140113875
 20
-155.0740830775509
 10
89.88943140113875
 20
-155.0740830775509
 97
        0
 97
        0
 75
     2
 76
     1
 98
        0
  0
SPLINE
  5
11D
330
117
100
AcDbEntity
  8
_U+30EC_U+30A4_U+30E4_U+30FC 1
370
     0
100
AcDbSpline
210
0.0
220
0.0
230
1.0
 70
    11
 71
     3
 72
    29
 73
    25
 74
     0
 42
0.0000000001
 43
0.0000000001
 12
1.0
 22
0.0
 32
0.0
 13
1.0
 23
0.0
 33
0.0
 40
0.0
 40
0.0
 40
0.0
 40
0.0
 40
1.0
 40
1.0
 40
1.0
 40
2.0
 40
2.0
 40
2.0
 40
3.0
 40
3.0
 40
3.0
 40
4.0
 40
4.0
 40
4.0
 40
5.0
 40
5.0
 40
5.0
 40
6.0
 40
6.0
 40
6.0
 40
7.0
 40
7.0
 40
7.0
 40
8.0
 40
8.0
 40
8.0
 40
8.0
 10
91.51258813901421
 20
-154.896316150512
 30
0.0
 10
91.4047566503259
 20
-155.1057779560152
 30
0.0
 10
91.23129609264357
 20
-155.1247259811841
 30
0.0
 10
91.11485186524213
 20
-155.1247259811841
 30
0.0
 10
90.95413816085522
 20
-155.1247259811841
 30
0.0
 10
90.81237248163718
 20
-155.0782171921332
 30
0.0
 10
90.71711559147003
 20
-154.896316150512
 30
0.0
 10
90.61359047213827
 20
-154.7016682555954
 30
0.0
 10
90.59447019219513
 20
-154.4649901957588
 30
0.0
 10
90.59447019219513
 20
-154.3020371793064
 30
0.0
 10
90.59447019219513
 20
-154.158032188023
 30
0.0
 10
90.61135116007286
 20
-153.9061957080512
 30
0.0
 10
90.71711559147003
 20
-153.7074136985523
 30
0.0
 10
90.82511933493261
 20
-153.5044975744711
 30
0.0
 10
90.98583303931952
 20
-153.4810709251714
 30
0.0
 10
91.11485186524213
 20
-153.4810709251714
 30
0.0
 10
91.27349851233788
 20
-153.4810709251714
 30
0.0
 10
91.41733124884706
 20
-153.5255126569311
 30
0.0
 10
91.51258813901421
 20
-153.7074136985523
 30
0.0
 10
91.61197914376368
 20
-153.8999945361778
 30
0.0
 10
91.63523353828911
 20
-154.1284043668498
 30
0.0
 10
91.63523353828911
 20
-154.3020371793064
 30
0.0
 10
91.63523353828911
 20
-154.4732584249234
 30
0.0
 10
91.61421845582909
 20
-154.7037353128866
 30
0.0
 10
91.51258813901421
 20
-154.896316150512
 30
0.0
  0
SPLINE
  5
11E
330
117
100
AcDbEntity
  8
_U+30EC_U+30A4_U+30E4_U+30FC 1
370
     0
100
AcDbSpline
210
0.0
220
0.0
230
1.0
 70
    11
 71
     3
 72
    17
 73
    13
 74
     0
 42
0.0000000001
 43
0.0000000001
 12
1.0
 22
0.0
 32
0.0
 13
1.0
 23
0.0
 33
0.0
 40
0.0
 40
0.0
 40
0.0
 40
0.0
 40
1.0
 40
1.0
 40
1.0
 40
2.0
 40
2.0
 40
2.0
 40
3.0
 40
3.0
 40
3.0
 40
4.0
 40
4.0
 40
4.0
 40
4.0
 10
91.11485186524213
 20
-153.6736517627969
 30
0.0
 10
90.86525469733577
 20
-153.6736517627969
 30
0.0
 10
90.8187459082849
 20
-153.9571831212329
 30
0.0
 10
90.8187459082849
 20
-154.3020371793064
 30
0.0
 10
90.8187459082849
 20
-154.6213975307891
 30
0.0
 10
90.85474715610576
 20
-154.9300780862675
 30
0.0
 10
91.11485186524213
 20
-154.9300780862675
 30
0.0
 10
91.36238197585733
 20
-154.9300780862675
 30
0.0
 10
91.4111300769736
 20
-154.6489582946711
 30
0.0
 10
91.4111300769736
 20
-154.3020371793064
 30
0.0
 10
91.4111300769736
 20
-153.9823323182753
 30
0.0
 10
91.3730617718616
 20
-153.6736517627969
 30
0.0
 10
91.11485186524213
 20
-153.6736517627969
 30
0.0
  0
HATCH
  5
11F
330
117
100
AcDbEntity
  8
_U+30EC_U+30A4_U+30E4_U+30FC 1
 62
     7
420
 16777215
100
AcDbHatch
 10
0.0
 20
0.0
 30
0.0
210
0.0
220
0.0
230
1.0
  2
SOLID
 70
     1
 71
     0
 91
        2
 92
        1
 93
        1
 72
     4
 94
        3
 73
     0
 74
     1
 95
       29
 96
       25
 40
0.0
 40
0.0
 40
0.0
 40
0.0
 40
1.0
 40
1.0
 40
1.0
 40
2.0
 40
2.0
 40
2.0
 40
3.0
 40
3.0
 40
3.0
 40
4.0
 40
4.0
 40
4.0
 40
5.0
 40
5.0
 40
5.0
 40
6.0
 40
6.0
 40
6.0
 40
7.0
 40
7.0
 40
7.0
 40
8.0
 40
8.0
 40
8.0
 40
8.0
 10
91.51258813901421
 20
-154.896316150512
 10
91.4047566503259
 20
-155.1057779560152
 10
91.23129609264357
 20
-155.1247259811841
 10
91.11485186524213
 20
-155.1247259811841
 10
90.95413816085522
 20
-155.1247259811841
 10
90.81237248163718
 20
-155.0782171921332
 10
90.71711559147003
 20
-154.896316150512
 10
90.61359047213827
 20
-154.7016682555954
 10
90.59447019219513
 20
-154.4649901957588
 10
90.59447019219513
 20
-154.3020371793064
 10
90.59447019219513
 20
-154.158032188023
 10
90.61135116007286
 20
-153.9061957080512
 10
90.71711559147003
 20
-153.7074136985523
 10
90.82511933493261
 20
-153.5044975744711
 10
90.98583303931952
 20
-153.4810709251714
 10
91.11485186524213
 20
-153.4810709251714
 10
91.27349851233788
 20
-153.4810709251714
 10
91.41733124884706
 20
-153.5255126569311
 10
91.51258813901421
 20
-153.7074136985523
 10
91.61197914376368
 20
-153.8999945361778
 10
91.63523353828911
 20
-154.1284043668498
 10
91.63523353828911
 20
-154.3020371793064
 10
91.63523353828911
 20
-154.4732584249234
 10
91.61421845582909
 20
-154.7037353128866
 10
91.51258813901421
 20
-154.896316150512
 97
        0
 97
        0
 92
        1
 93
        1
 72
     4
 94
        3
 73
     0
 74
     1
 95
       17
 96
       13
 40
0.0
 40
0.0
 40
0.0
 40
0.0
 40
1.0
 40
1.0
 40
1.0
 40
2.0
 40
2.0
 40
2.0
 40
3.0
 40
3.0
 40
3.0
 40
4.0
 40
4.0
 40
4.0
 40
4.0
 10
91.11485186524213
 20
-153.6736517627969
 10
90.86525469733577
 20
-153.6736517627969
 10
90.8187459082849
 20
-153.9571831212329
 10
90.8187459082849
 20
-154.3020371793064
 10
90.8187459082849
 20
-154.6213975307891
 10
90.85474715610576
 20
-154.9300780862675
 10
91.11485186524213
 20
-154.9300780862675
 10
91.36238197585733
 20
-154.9300780862675
 10
91.4111300769736
 20
-154.6489582946711
 10
91.4111300769736
 20
-154.3020371793064
 10
91.4111300769736
 20
-153.9823323182753
 10
91.3730617718616
 20
-153.6736517627969
 10
91.11485186524213
 20
-153.6736517627969
 97
        0
 97
        0
 75
     2
 76
     1
 98
        0
  0
ENDBLK
  5
11A
330
117
100
AcDbEntity
  8
0
100
AcDbBlockEnd
  0
BLOCK
  5
126
330
124
100
AcDbEntity
  8
0
100
AcDbBlockBegin
  2
block 8
 70
     0
 10
0.0
 20
0.0
 30
0.0
  3
block 8
  1

  0
SPLINE
  5
128
330
124
100
AcDbEntity
  8
_U+30EC_U+30A4_U+30E4_U+30FC 1
370
     0
100
AcDbSpline
210
0.0
220
0.0
230
1.0
 70
    11
 71
     3
 72
    17
 73
    13
 74
     0
 42
0.0000000001
 43
0.0000000001
 12
1.0
 22
0.0
 32
0.0
 13
1.0
 23
0.0
 33
0.0
 40
0.0
 40
0.0
 40
0.0
 40
0.0
 40
1.0
 40
1.0
 40
1.0
 40
2.0
 40
2.0
 40
2.0
 40
3.0
 40
3.0
 40
3.0
 40
4.0
 40
4.0
 40
4.0
 40
4.0
 10
108.8477918564686
 20
-156.3008815798484
 30
0.0
 10
108.7420274250714
 20
-156.1951171484512
 30
0.0
 10
108.6614121907166
 20
-156.1572210981135
 30
0.0
 10
108.5683946126149
 20
-156.1255262196492
 30
0.0
 10
108.5683946126149
 20
-156.1255262196492
 30
0.0
 10
108.6786376681428
 20
-155.9601616363572
 30
0.0
 10
108.6786376681428
 20
-155.9601616363572
 30
0.0
 10
108.7757893608269
 20
-156.0028808203743
 30
0.0
 10
108.8963677028106
 20
-156.0807399783409
 30
0.0
 10
108.9494221732835
 20
-156.1358615061049
 30
0.0
 10
108.9494221732835
 20
-156.1358615061049
 30
0.0
 10
108.8477918564686
 20
-156.3008815798484
 30
0.0
 10
108.8477918564686
 20
-156.3008815798484
 30
0.0
  0
SPLINE
  5
129
330
124
100
AcDbEntity
  8
_U+30EC_U+30A4_U+30E4_U+30FC 1
370
     0
100
AcDbSpline
210
0.0
220
0.0
230
1.0
 70
    11
 71
     3
 72
   182
 73
   178
 74
     0
 42
0.0000000001
 43
0.0000000001
 12
1.0
 22
0.0
 32
0.0
 13
1.0
 23
0.0
 33
0.0
 40
0.0
 40
0.0
 40
0.0
 40
0.0
 40
1.0
 40
1.0
 40
1.0
 40
2.0
 40
2.0
 40
2.0
 40
3.0
 40
3.0
 40
3.0
 40
4.0
 40
4.0
 40
4.0
 40
5.0
 40
5.0
 40
5.0
 40
6.0
 40
6.0
 40
6.0
 40
7.0
 40
7.0
 40
7.0
 40
8.0
 40
8.0
 40
8.0
 40
9.0
 40
9.0
 40
9.0
 40
10.0
 40
10.0
 40
10.0
 40
11.0
 40
11.0
 40
11.0
 40
12.0
 40
12.0
 40
12.0
 40
13.0
 40
13.0
 40
13.0
 40
14.0
 40
14.0
 40
14.0
 40
15.0
 40
15.0
 40
15.0
 40
16.0
 40
16.0
 40
16.0
 40
17.0
 40
17.0
 40
17.0
 40
18.0
 40
18.0
 40
18.0
 40
19.0
 40
19.0
 40
19.0
 40
20.0
 40
20.0
 40
20.0
 40
21.0
 40
21.0
 40
21.0
 40
22.0
 40
22.0
 40
22.0
 40
23.0
 40
23.0
 40
23.0
 40
24.0
 40
24.0
 40
24.0
 40
25.0
 40
25.0
 40
25.0
 40
26.0
 40
26.0
 40
26.0
 40
27.0
 40
27.0
 40
27.0
 40
28.0
 40
28.0
 40
28.0
 40
29.0
 40
29.0
 40
29.0
 40
30.0
 40
30.0
 40
30.0
 40
31.0
 40
31.0
 40
31.0
 40
32.0
 40
32.0
 40
32.0
 40
33.0
 40
33.0
 40
33.0
 40
34.0
 40
34.0
 40
34.0
 40
35.0
 40
35.0
 40
35.0
 40
36.0
 40
36.0
 40
36.0
 40
37.0
 40
37.0
 40
37.0
 40
38.0
 40
38.0
 40
38.0
 40
39.0
 40
39.0
 40
39.0
 40
40.0
 40
40.0
 40
40.0
 40
41.0
 40
41.0
 40
41.0
 40
42.0
 40
42.0
 40
42.0
 40
43.0
 40
43.0
 40
43.0
 40
44.0
 40
44.0
 40
44.0
 40
45.0
 40
45.0
 40
45.0
 40
46.0
 40
46.0
 40
46.0
 40
47.0
 40
47.0
 40
47.0
 40
48.0
 40
48.0
 40
48.0
 40
49.0
 40
49.0
 40
49.0
 40
50.0
 40
50.0
 40
50.0
 40
51.0
 40
51.0
 40
51.0
 40
52.0
 40
52.0
 40
52.0
 40
53.0
 40
53.0
 40
53.0
 40
54.0
 40
54.0
 40
54.0
 40
55.0
 40
55.0
 40
55.0
 40
56.0
 40
56.0
 40
56.0
 40
57.0
 40
57.0
 40
57.0
 40
58.0
 40
58.0
 40
58.0
 40
59.0
 40
59.0
 40
59.0
 40
59.0
 10
109.8926893171449
 20
-157.4794487453524
 30
0.0
 10
109.8926893171449
 20
-157.4794487453524
 30
0.0
 10
109.2560356714707
 20
-157.4794487453524
 30
0.0
 10
109.2560356714707
 20
-157.4794487453524
 30
0.0
 10
109.0424397513852
 20
-157.4794487453524
 30
0.0
 10
108.8264322644601
 20
-157.4835828599347
 30
0.0
 10
108.6128363443746
 20
-157.4959852036816
 30
0.0
 10
108.6128363443746
 20
-157.4959852036816
 30
0.0
 10
108.6128363443746
 20
-157.2889349650181
 30
0.0
 10
108.6128363443746
 20
-157.2889349650181
 30
0.0
 10
108.8350450031732
 20
-157.3016818183135
 30
0.0
 10
109.1585394692381
 20
-157.3058159328958
 30
0.0
 10
109.2560356714707
 20
-157.3058159328958
 30
0.0
 10
109.2560356714707
 20
-157.3058159328958
 30
0.0
 10
109.4761772729782
 20
-157.3058159328958
 30
0.0
 10
109.4761772729782
 20
-157.3058159328958
 30
0.0
 10
109.4761772729782
 20
-157.3058159328958
 30
0.0
 10
109.4761772729782
 20
-157.1638779989035
 30
0.0
 10
109.4761772729782
 20
-157.1638779989035
 30
0.0
 10
109.4761772729782
 20
-157.1638779989035
 30
0.0
 10
109.315291313817
 20
-157.1638779989035
 30
0.0
 10
109.315291313817
 20
-157.1638779989035
 30
0.0
 10
109.1502712400736
 20
-157.1638779989035
 30
0.0
 10
108.9852511663301
 20
-157.1683566230343
 30
0.0
 10
108.8202310925866
 20
-157.1831705336209
 30
0.0
 10
108.8202310925866
 20
-157.1831705336209
 30
0.0
 10
108.8202310925866
 20
-156.9737087281177
 30
0.0
 10
108.8202310925866
 20
-156.9737087281177
 30
0.0
 10
108.9914523382035
 20
-156.9885226387043
 30
0.0
 10
109.239154703593
 20
-156.9926567532866
 30
0.0
 10
109.315291313817
 20
-156.9926567532866
 30
0.0
 10
109.315291313817
 20
-156.9926567532866
 30
0.0
 10
109.4761772729782
 20
-156.9926567532866
 30
0.0
 10
109.4761772729782
 20
-156.9926567532866
 30
0.0
 10
109.4716986488474
 20
-156.9206542576449
 30
0.0
 10
109.4716986488474
 20
-156.9144530857714
 30
0.0
 10
109.4654974769739
 20
-156.8613986152986
 30
0.0
 10
109.4654974769739
 20
-156.8613986152986
 30
0.0
 10
109.6050238441265
 20
-156.8765570354336
 30
0.0
 10
109.6050238441265
 20
-156.8765570354336
 30
0.0
 10
109.6050238441265
 20
-156.8765570354336
 30
0.0
 10
109.5058050941513
 20
-156.7049912802682
 30
0.0
 10
109.5058050941513
 20
-156.7049912802682
 30
0.0
 10
109.5523138832022
 20
-156.7111924521417
 30
0.0
 10
109.6263834361351
 20
-156.7198051908548
 30
0.0
 10
109.6432644040128
 20
-156.7198051908548
 30
0.0
 10
109.693907307646
 20
-156.7198051908548
 30
0.0
 10
109.7107882755237
 20
-156.6987901083947
 30
0.0
 10
109.7107882755237
 20
-156.6416015233396
 30
0.0
 10
109.7107882755237
 20
-156.6416015233396
 30
0.0
 10
109.7107882755237
 20
-156.5037977039296
 30
0.0
 10
109.7107882755237
 20
-156.5037977039296
 30
0.0
 10
109.7107882755237
 20
-156.5037977039296
 30
0.0
 10
109.6050238441265
 20
-156.5037977039296
 30
0.0
 10
109.6050238441265
 20
-156.5037977039296
 30
0.0
 10
109.4716986488474
 20
-156.5037977039296
 30
0.0
 10
109.315291313817
 20
-156.5037977039296
 30
0.0
 10
109.1926459145421
 20
-156.5168890667736
 30
0.0
 10
109.1926459145421
 20
-156.5168890667736
 30
0.0
 10
109.1926459145421
 20
-156.3263752864393
 30
0.0
 10
109.1926459145421
 20
-156.3263752864393
 30
0.0
 10
109.3597330455767
 20
-156.343256254317
 30
0.0
 10
109.59020993354
 20
-156.3453233116081
 30
0.0
 10
109.6050238441265
 20
-156.3453233116081
 30
0.0
 10
109.6050238441265
 20
-156.3453233116081
 30
0.0
 10
109.7107882755237
 20
-156.3453233116081
 30
0.0
 10
109.7107882755237
 20
-156.3453233116081
 30
0.0
 10
109.7107882755237
 20
-156.3453233116081
 30
0.0
 10
109.7107882755237
 20
-156.2144096831686
 30
0.0
 10
109.7107882755237
 20
-156.2144096831686
 30
0.0
 10
109.7107882755237
 20
-156.2144096831686
 30
0.0
 10
109.6728922251859
 20
-156.2144096831686
 30
0.0
 10
109.6728922251859
 20
-156.2144096831686
 30
0.0
 10
109.6284504934262
 20
-156.2144096831686
 30
0.0
 10
109.5033935273117
 20
-156.2185437977509
 30
0.0
 10
109.4145100637922
 20
-156.2268120269155
 30
0.0
 10
109.4145100637922
 20
-156.2268120269155
 30
0.0
 10
109.4145100637922
 20
-156.1465413021092
 30
0.0
 10
109.4145100637922
 20
-156.1465413021092
 30
0.0
 10
109.3618001028679
 20
-156.1847818619955
 30
0.0
 10
109.336306396277
 20
-156.1992512630335
 30
0.0
 10
109.2939317218085
 20
-156.2226779123332
 30
0.0
 10
109.2939317218085
 20
-156.2226779123332
 30
0.0
 10
109.1058295083138
 20
-156.0938313411849
 30
0.0
 10
109.1058295083138
 20
-156.0938313411849
 30
0.0
 10
109.184033175829
 20
-156.0597248958809
 30
0.0
 10
109.3407850204079
 20
-155.9963351389523
 30
0.0
 10
109.4971923554382
 20
-155.8526746572174
 30
0.0
 10
109.5795301375357
 20
-155.7741264801537
 30
0.0
 10
109.6580783145994
 20
-155.6893771312166
 30
0.0
 10
109.7107882755237
 20
-155.5880913239502
 30
0.0
 10
109.7107882755237
 20
-155.5880913239502
 30
0.0
 10
109.922317138318
 20
-155.6494140235877
 30
0.0
 10
109.922317138318
 20
-155.6494140235877
 30
0.0
 10
109.9416096730354
 20
-155.6556151954611
 30
0.0
 10
109.9519449594912
 20
-155.6642279341742
 30
0.0
 10
109.9519449594912
 20
-155.6769747874696
 30
0.0
 10
109.9519449594912
 20
-155.6938557553474
 30
0.0
 10
109.9391981061958
 20
-155.7000569272208
 30
0.0
 10
109.9140489091534
 20
-155.7128037805163
 30
0.0
 10
109.9943196339598
 20
-155.8099554732003
 30
0.0
 10
110.1572726504121
 20
-155.9074516754329
 30
0.0
 10
110.1910345861675
 20
-155.9263997006017
 30
0.0
 10
110.3412407493244
 20
-156.0152831641212
 30
0.0
 10
110.4556179194347
 20
-156.0428439280032
 30
0.0
 10
110.5338215869499
 20
-156.061791953172
 30
0.0
 10
110.5338215869499
 20
-156.061791953172
 30
0.0
 10
110.4153103022573
 20
-156.2309461414978
 30
0.0
 10
110.4153103022573
 20
-156.2309461414978
 30
0.0
 10
110.3305609533201
 20
-156.2013183203247
 30
0.0
 10
110.279918049687
 20
-156.1827148047043
 30
0.0
 10
110.1614067649944
 20
-156.1169134809361
 30
0.0
 10
110.1614067649944
 20
-156.1169134809361
 30
0.0
 10
110.1614067649944
 20
-156.2268120269155
 30
0.0
 10
110.1614067649944
 20
-156.2268120269155
 30
0.0
 10
110.0790689828969
 20
-156.2185437977509
 30
0.0
 10
109.9519449594912
 20
-156.2144096831686
 30
0.0
 10
109.8992349985669
 20
-156.2144096831686
 30
0.0
 10
109.8992349985669
 20
-156.2144096831686
 30
0.0
 10
109.8992349985669
 20
-156.3453233116081
 30
0.0
 10
109.8992349985669
 20
-156.3453233116081
 30
0.0
 10
109.8992349985669
 20
-156.3453233116081
 30
0.0
 10
110.0198133405506
 20
-156.3453233116081
 30
0.0
 10
110.0198133405506
 20
-156.3453233116081
 30
0.0
 10
110.0218803978418
 20
-156.3453233116081
 30
0.0
 10
110.2544243430961
 20
-156.343256254317
 30
0.0
 10
110.432191270135
 20
-156.3263752864393
 30
0.0
 10
110.432191270135
 20
-156.3263752864393
 30
0.0
 10
110.432191270135
 20
-156.5168890667736
 30
0.0
 10
110.432191270135
 20
-156.5168890667736
 30
0.0
 10
110.3033446989867
 20
-156.5037977039296
 30
0.0
 10
110.1465928544078
 20
-156.5037977039296
 30
0.0
 10
110.0198133405506
 20
-156.5037977039296
 30
0.0
 10
110.0198133405506
 20
-156.5037977039296
 30
0.0
 10
109.8992349985669
 20
-156.5037977039296
 30
0.0
 10
109.8992349985669
 20
-156.5037977039296
 30
0.0
 10
109.8992349985669
 20
-156.5037977039296
 30
0.0
 10
109.8992349985669
 20
-156.730484986859
 30
0.0
 10
109.8992349985669
 20
-156.730484986859
 30
0.0
 10
109.8992349985669
 20
-156.8489962715516
 30
0.0
 10
109.873741291976
 20
-156.8848252645982
 30
0.0
 10
109.7128553328148
 20
-156.8996391751848
 30
0.0
 10
109.7173339569457
 20
-156.9185872003537
 30
0.0
 10
109.7107882755237
 20
-156.929266996358
 30
0.0
 10
109.6728922251859
 20
-156.9523491361091
 30
0.0
 10
109.6708251678948
 20
-156.9716416708265
 30
0.0
 10
109.6708251678948
 20
-156.9778428427
 30
0.0
 10
109.6684136010551
 20
-156.9926567532866
 30
0.0
 10
109.6684136010551
 20
-156.9926567532866
 30
0.0
 10
109.8058729109166
 20
-156.9926567532866
 30
0.0
 10
109.8058729109166
 20
-156.9926567532866
 30
0.0
 10
109.9708929846601
 20
-156.9926567532866
 30
0.0
 10
110.1383246252432
 20
-156.9885226387043
 30
0.0
 10
110.3054117562778
 20
-156.9737087281177
 30
0.0
 10
110.3054117562778
 20
-156.9737087281177
 30
0.0
 10
110.3054117562778
 20
-157.1811034763297
 30
0.0
 10
110.3054117562778
 20
-157.1811034763297
 30
0.0
 10
110.0894042693527
 20
-157.1638779989035
 30
0.0
 10
109.825165445634
 20
-157.1638779989035
 30
0.0
 10
109.8058729109166
 20
-157.1638779989035
 30
0.0
 10
109.8058729109166
 20
-157.1638779989035
 30
0.0
 10
109.666346543764
 20
-157.1638779989035
 30
0.0
 10
109.666346543764
 20
-157.1638779989035
 30
0.0
 10
109.666346543764
 20
-157.1638779989035
 30
0.0
 10
109.666346543764
 20
-157.3058159328958
 30
0.0
 10
109.666346543764
 20
-157.3058159328958
 30
0.0
 10
109.666346543764
 20
-157.3058159328958
 30
0.0
 10
109.8926893171449
 20
-157.3058159328958
 30
0.0
 10
109.8926893171449
 20
-157.3058159328958
 30
0.0
 10
110.10869680407
 20
-157.3058159328958
 30
0.0
 10
110.3264268387378
 20
-157.3016818183135
 30
0.0
 10
110.5420898161145
 20
-157.2889349650181
 30
0.0
 10
110.5420898161145
 20
-157.2889349650181
 30
0.0
 10
110.5420898161145
 20
-157.4959852036816
 30
0.0
 10
110.5420898161145
 20
-157.4959852036816
 30
0.0
 10
110.2609700245181
 20
-157.4794487453524
 30
0.0
 10
109.9161159664446
 20
-157.4794487453524
 30
0.0
 10
109.8926893171449
 20
-157.4794487453524
 30
0.0
  0
SPLINE
  5
12A
330
124
100
AcDbEntity
  8
_U+30EC_U+30A4_U+30E4_U+30FC 1
370
     0
100
AcDbSpline
210
0.0
220
0.0
230
1.0
 70
    11
 71
     3
 72
    23
 73
    19
 74
     0
 42
0.0000000001
 43
0.0000000001
 12
1.0
 22
0.0
 32
0.0
 13
1.0
 23
0.0
 33
0.0
 40
0.0
 40
0.0
 40
0.0
 40
0.0
 40
1.0
 40
1.0
 40
1.0
 40
2.0
 40
2.0
 40
2.0
 40
3.0
 40
3.0
 40
3.0
 40
4.0
 40
4.0
 40
4.0
 40
5.0
 40
5.0
 40
5.0
 40
6.0
 40
6.0
 40
6.0
 40
6.0
 10
108.7737223035357
 20
-156.8510633288428
 30
0.0
 10
108.7737223035357
 20
-156.8720784113028
 30
0.0
 10
108.7757893608269
 20
-156.9103189711891
 30
0.0
 10
108.750295654236
 20
-156.9103189711891
 30
0.0
 10
108.7399603677803
 20
-156.9103189711891
 30
0.0
 10
108.7313476290672
 20
-156.9037732897671
 30
0.0
 10
108.7206678330629
 20
-156.8868923218894
 30
0.0
 10
108.7206678330629
 20
-156.8868923218894
 30
0.0
 10
108.6169704589569
 20
-156.7049912802682
 30
0.0
 10
108.6169704589569
 20
-156.7049912802682
 30
0.0
 10
108.832977945882
 20
-156.5761447091199
 30
0.0
 10
109.0296928980898
 20
-156.2988145225573
 30
0.0
 10
109.0762016871407
 20
-156.2268120269155
 30
0.0
 10
109.0762016871407
 20
-156.2268120269155
 30
0.0
 10
109.1482041827824
 20
-156.4066460112456
 30
0.0
 10
109.1482041827824
 20
-156.4066460112456
 30
0.0
 10
109.0148789875032
 20
-156.6033609634533
 30
0.0
 10
108.8391791177555
 20
-156.7876735719142
 30
0.0
 10
108.7737223035357
 20
-156.8510633288428
 30
0.0
  0
SPLINE
  5
12B
330
124
100
AcDbEntity
  8
_U+30EC_U+30A4_U+30E4_U+30FC 1
370
     0
100
AcDbSpline
210
0.0
220
0.0
230
1.0
 70
    11
 71
     3
 72
    17
 73
    13
 74
     0
 42
0.0000000001
 43
0.0000000001
 12
1.0
 22
0.0
 32
0.0
 13
1.0
 23
0.0
 33
0.0
 40
0.0
 40
0.0
 40
0.0
 40
0.0
 40
1.0
 40
1.0
 40
1.0
 40
2.0
 40
2.0
 40
2.0
 40
3.0
 40
3.0
 40
3.0
 40
4.0
 40
4.0
 40
4.0
 40
4.0
 10
109.0276258407986
 20
-155.9560275217749
 30
0.0
 10
108.9663031411612
 20
-155.8798909115509
 30
0.0
 10
108.8371120604643
 20
-155.8037543013268
 30
0.0
 10
108.7334146863583
 20
-155.7741264801537
 30
0.0
 10
108.7334146863583
 20
-155.7741264801537
 30
0.0
 10
108.8288438312997
 20
-155.6091064064102
 30
0.0
 10
108.8288438312997
 20
-155.6091064064102
 30
0.0
 10
108.9301296385661
 20
-155.6452799090054
 30
0.0
 10
109.0358940699632
 20
-155.7024684940605
 30
0.0
 10
109.1247775334827
 20
-155.7823947093183
 30
0.0
 10
109.1247775334827
 20
-155.7823947093183
 30
0.0
 10
109.0276258407986
 20
-155.9560275217749
 30
0.0
 10
109.0276258407986
 20
-155.9560275217749
 30
0.0
  0
SPLINE
  5
12C
330
124
100
AcDbEntity
  8
_U+30EC_U+30A4_U+30E4_U+30FC 1
370
     0
100
AcDbSpline
210
0.0
220
0.0
230
1.0
 70
    11
 71
     3
 72
    23
 73
    19
 74
     0
 42
0.0000000001
 43
0.0000000001
 12
1.0
 22
0.0
 32
0.0
 13
1.0
 23
0.0
 33
0.0
 40
0.0
 40
0.0
 40
0.0
 40
0.0
 40
1.0
 40
1.0
 40
1.0
 40
2.0
 40
2.0
 40
2.0
 40
3.0
 40
3.0
 40
3.0
 40
4.0
 40
4.0
 40
4.0
 40
5.0
 40
5.0
 40
5.0
 40
6.0
 40
6.0
 40
6.0
 40
6.0
 10
109.4803113875605
 20
-156.6605495485085
 30
0.0
 10
109.4589517955519
 20
-156.6836316882597
 30
0.0
 10
109.3618001028679
 20
-156.7959418010788
 30
0.0
 10
109.2222737357153
 20
-156.8765570354336
 30
0.0
 10
109.2222737357153
 20
-156.8765570354336
 30
0.0
 10
109.0551866046807
 20
-156.7559786934499
 30
0.0
 10
109.0551866046807
 20
-156.7559786934499
 30
0.0
 10
109.2053927678376
 20
-156.6794975736774
 30
0.0
 10
109.3046115178127
 20
-156.5844129382845
 30
0.0
 10
109.3531873641548
 20
-156.5313584678116
 30
0.0
 10
109.3531873641548
 20
-156.5313584678116
 30
0.0
 10
109.5268201766114
 20
-156.6140407594576
 30
0.0
 10
109.5268201766114
 20
-156.6140407594576
 30
0.0
 10
109.535088405776
 20
-156.6181748740399
 30
0.0
 10
109.5437011444891
 20
-156.6243760459134
 30
0.0
 10
109.5437011444891
 20
-156.6354003514662
 30
0.0
 10
109.5437011444891
 20
-156.6605495485085
 30
0.0
 10
109.5078721514425
 20
-156.6605495485085
 30
0.0
 10
109.4803113875605
 20
-156.6605495485085
 30
0.0
  0
SPLINE
  5
12D
330
124
100
AcDbEntity
  8
_U+30EC_U+30A4_U+30E4_U+30FC 1
370
     0
100
AcDbSpline
210
0.0
220
0.0
230
1.0
 70
    11
 71
     3
 72
    20
 73
    16
 74
     0
 42
0.0000000001
 43
0.0000000001
 12
1.0
 22
0.0
 32
0.0
 13
1.0
 23
0.0
 33
0.0
 40
0.0
 40
0.0
 40
0.0
 40
0.0
 40
1.0
 40
1.0
 40
1.0
 40
2.0
 40
2.0
 40
2.0
 40
3.0
 40
3.0
 40
3.0
 40
4.0
 40
4.0
 40
4.0
 40
5.0
 40
5.0
 40
5.0
 40
5.0
 10
109.7786566565831
 20
-155.8185682119134
 30
0.0
 10
109.7404160966968
 20
-155.8671440582554
 30
0.0
 10
109.6790933970594
 20
-155.9456922353191
 30
0.0
 10
109.5395670299068
 20
-156.0555907812986
 30
0.0
 10
109.6198377547131
 20
-156.0597248958809
 30
0.0
 10
109.6494655758863
 20
-156.0597248958809
 30
0.0
 10
109.6728922251859
 20
-156.0597248958809
 30
0.0
 10
109.6728922251859
 20
-156.0597248958809
 30
0.0
 10
109.901302055858
 20
-156.0597248958809
 30
0.0
 10
109.901302055858
 20
-156.0597248958809
 30
0.0
 10
109.9329969343223
 20
-156.0597248958809
 30
0.0
 10
109.9815727806643
 20
-156.0576578385898
 30
0.0
 10
110.0556423335972
 20
-156.0555907812986
 30
0.0
 10
109.9436767303266
 20
-155.9815212283658
 30
0.0
 10
109.894756374436
 20
-155.9350124393149
 30
0.0
 10
109.7786566565831
 20
-155.8185682119134
 30
0.0
  0
SPLINE
  5
12E
330
124
100
AcDbEntity
  8
_U+30EC_U+30A4_U+30E4_U+30FC 1
370
     0
100
AcDbSpline
210
0.0
220
0.0
230
1.0
 70
    11
 71
     3
 72
    17
 73
    13
 74
     0
 42
0.0000000001
 43
0.0000000001
 12
1.0
 22
0.0
 32
0.0
 13
1.0
 23
0.0
 33
0.0
 40
0.0
 40
0.0
 40
0.0
 40
0.0
 40
1.0
 40
1.0
 40
1.0
 40
2.0
 40
2.0
 40
2.0
 40
3.0
 40
3.0
 40
3.0
 40
4.0
 40
4.0
 40
4.0
 40
4.0
 10
110.3391736920333
 20
-156.874145468594
 30
0.0
 10
110.2037814394629
 20
-156.7621798653234
 30
0.0
 10
110.0980170080658
 20
-156.6987901083947
 30
0.0
 10
109.9795057233732
 20
-156.6354003514662
 30
0.0
 10
109.9795057233732
 20
-156.6354003514662
 30
0.0
 10
110.1062852372304
 20
-156.523090238647
 30
0.0
 10
110.1062852372304
 20
-156.523090238647
 30
0.0
 10
110.2375433752184
 20
-156.5695990276979
 30
0.0
 10
110.3474419211979
 20
-156.626787612753
 30
0.0
 10
110.4724988873124
 20
-156.7284179295679
 30
0.0
 10
110.4724988873124
 20
-156.7284179295679
 30
0.0
 10
110.3391736920333
 20
-156.874145468594
 30
0.0
 10
110.3391736920333
 20
-156.874145468594
 30
0.0
  0
HATCH
  5
12F
330
124
100
AcDbEntity
  8
_U+30EC_U+30A4_U+30E4_U+30FC 1
 62
     7
420
 16777215
100
AcDbHatch
 10
0.0
 20
0.0
 30
0.0
210
0.0
220
0.0
230
1.0
  2
SOLID
 70
     1
 71
     0
 91
        7
 92
        1
 93
        1
 72
     4
 94
        3
 73
     0
 74
     1
 95
       17
 96
       13
 40
0.0
 40
0.0
 40
0.0
 40
0.0
 40
1.0
 40
1.0
 40
1.0
 40
2.0
 40
2.0
 40
2.0
 40
3.0
 40
3.0
 40
3.0
 40
4.0
 40
4.0
 40
4.0
 40
4.0
 10
108.8477918564686
 20
-156.3008815798484
 10
108.7420274250714
 20
-156.1951171484512
 10
108.6614121907166
 20
-156.1572210981135
 10
108.5683946126149
 20
-156.1255262196492
 10
108.5683946126149
 20
-156.1255262196492
 10
108.6786376681428
 20
-155.9601616363572
 10
108.6786376681428
 20
-155.9601616363572
 10
108.7757893608269
 20
-156.0028808203743
 10
108.8963677028106
 20
-156.0807399783409
 10
108.9494221732835
 20
-156.1358615061049
 10
108.9494221732835
 20
-156.1358615061049
 10
108.8477918564686
 20
-156.3008815798484
 10
108.8477918564686
 20
-156.3008815798484
 97
        0
 97
        0
 92
        1
 93
        1
 72
     4
 94
        3
 73
     0
 74
     1
 95
      182
 96
      178
 40
0.0
 40
0.0
 40
0.0
 40
0.0
 40
1.0
 40
1.0
 40
1.0
 40
2.0
 40
2.0
 40
2.0
 40
3.0
 40
3.0
 40
3.0
 40
4.0
 40
4.0
 40
4.0
 40
5.0
 40
5.0
 40
5.0
 40
6.0
 40
6.0
 40
6.0
 40
7.0
 40
7.0
 40
7.0
 40
8.0
 40
8.0
 40
8.0
 40
9.0
 40
9.0
 40
9.0
 40
10.0
 40
10.0
 40
10.0
 40
11.0
 40
11.0
 40
11.0
 40
12.0
 40
12.0
 40
12.0
 40
13.0
 40
13.0
 40
13.0
 40
14.0
 40
14.0
 40
14.0
 40
15.0
 40
15.0
 40
15.0
 40
16.0
 40
16.0
 40
16.0
 40
17.0
 40
17.0
 40
17.0
 40
18.0
 40
18.0
 40
18.0
 40
19.0
 40
19.0
 40
19.0
 40
20.0
 40
20.0
 40
20.0
 40
21.0
 40
21.0
 40
21.0
 40
22.0
 40
22.0
 40
22.0
 40
23.0
 40
23.0
 40
23.0
 40
24.0
 40
24.0
 40
24.0
 40
25.0
 40
25.0
 40
25.0
 40
26.0
 40
26.0
 40
26.0
 40
27.0
 40
27.0
 40
27.0
 40
28.0
 40
28.0
 40
28.0
 40
29.0
 40
29.0
 40
29.0
 40
30.0
 40
30.0
 40
30.0
 40
31.0
 40
31.0
 40
31.0
 40
32.0
 40
32.0
 40
32.0
 40
33.0
 40
33.0
 40
33.0
 40
34.0
 40
34.0
 40
34.0
 40
35.0
 40
35.0
 40
35.0
 40
36.0
 40
36.0
 40
36.0
 40
37.0
 40
37.0
 40
37.0
 40
38.0
 40
38.0
 40
38.0
 40
39.0
 40
39.0
 40
39.0
 40
40.0
 40
40.0
 40
40.0
 40
41.0
 40
41.0
 40
41.0
 40
42.0
 40
42.0
 40
42.0
 40
43.0
 40
43.0
 40
43.0
 40
44.0
 40
44.0
 40
44.0
 40
45.0
 40
45.0
 40
45.0
 40
46.0
 40
46.0
 40
46.0
 40
47.0
 40
47.0
 40
47.0
 40
48.0
 40
48.0
 40
48.0
 40
49.0
 40
49.0
 40
49.0
 40
50.0
 40
50.0
 40
50.0
 40
51.0
 40
51.0
 40
51.0
 40
52.0
 40
52.0
 40
52.0
 40
53.0
 40
53.0
 40
53.0
 40
54.0
 40
54.0
 40
54.0
 40
55.0
 40
55.0
 40
55.0
 40
56.0
 40
56.0
 40
56.0
 40
57.0
 40
57.0
 40
57.0
 40
58.0
 40
58.0
 40
58.0
 40
59.0
 40
59.0
 40
59.0
 40
59.0
 10
109.8926893171449
 20
-157.4794487453524
 10
109.8926893171449
 20
-157.4794487453524
 10
109.2560356714707
 20
-157.4794487453524
 10
109.2560356714707
 20
-157.4794487453524
 10
109.0424397513852
 20
-157.4794487453524
 10
108.8264322644601
 20
-157.4835828599347
 10
108.6128363443746
 20
-157.4959852036816
 10
108.6128363443746
 20
-157.4959852036816
 10
108.6128363443746
 20
-157.2889349650181
 10
108.6128363443746
 20
-157.2889349650181
 10
108.8350450031732
 20
-157.3016818183135
 10
109.1585394692381
 20
-157.3058159328958
 10
109.2560356714707
 20
-157.3058159328958
 10
109.2560356714707
 20
-157.3058159328958
 10
109.4761772729782
 20
-157.3058159328958
 10
109.4761772729782
 20
-157.3058159328958
 10
109.4761772729782
 20
-157.3058159328958
 10
109.4761772729782
 20
-157.1638779989035
 10
109.4761772729782
 20
-157.1638779989035
 10
109.4761772729782
 20
-157.1638779989035
 10
109.315291313817
 20
-157.1638779989035
 10
109.315291313817
 20
-157.1638779989035
 10
109.1502712400736
 20
-157.1638779989035
 10
108.9852511663301
 20
-157.1683566230343
 10
108.8202310925866
 20
-157.1831705336209
 10
108.8202310925866
 20
-157.1831705336209
 10
108.8202310925866
 20
-156.9737087281177
 10
108.8202310925866
 20
-156.9737087281177
 10
108.9914523382035
 20
-156.9885226387043
 10
109.239154703593
 20
-156.9926567532866
 10
109.315291313817
 20
-156.9926567532866
 10
109.315291313817
 20
-156.9926567532866
 10
109.4761772729782
 20
-156.9926567532866
 10
109.4761772729782
 20
-156.9926567532866
 10
109.4716986488474
 20
-156.9206542576449
 10
109.4716986488474
 20
-156.9144530857714
 10
109.4654974769739
 20
-156.8613986152986
 10
109.4654974769739
 20
-156.8613986152986
 10
109.6050238441265
 20
-156.8765570354336
 10
109.6050238441265
 20
-156.8765570354336
 10
109.6050238441265
 20
-156.8765570354336
 10
109.5058050941513
 20
-156.7049912802682
 10
109.5058050941513
 20
-156.7049912802682
 10
109.5523138832022
 20
-156.7111924521417
 10
109.6263834361351
 20
-156.7198051908548
 10
109.6432644040128
 20
-156.7198051908548
 10
109.693907307646
 20
-156.7198051908548
 10
109.7107882755237
 20
-156.6987901083947
 10
109.7107882755237
 20
-156.6416015233396
 10
109.7107882755237
 20
-156.6416015233396
 10
109.7107882755237
 20
-156.5037977039296
 10
109.7107882755237
 20
-156.5037977039296
 10
109.7107882755237
 20
-156.5037977039296
 10
109.6050238441265
 20
-156.5037977039296
 10
109.6050238441265
 20
-156.5037977039296
 10
109.4716986488474
 20
-156.5037977039296
 10
109.315291313817
 20
-156.5037977039296
 10
109.1926459145421
 20
-156.5168890667736
 10
109.1926459145421
 20
-156.5168890667736
 10
109.1926459145421
 20
-156.3263752864393
 10
109.1926459145421
 20
-156.3263752864393
 10
109.3597330455767
 20
-156.343256254317
 10
109.59020993354
 20
-156.3453233116081
 10
109.6050238441265
 20
-156.3453233116081
 10
109.6050238441265
 20
-156.3453233116081
 10
109.7107882755237
 20
-156.3453233116081
 10
109.7107882755237
 20
-156.3453233116081
 10
109.7107882755237
 20
-156.3453233116081
 10
109.7107882755237
 20
-156.2144096831686
 10
109.7107882755237
 20
-156.2144096831686
 10
109.7107882755237
 20
-156.2144096831686
 10
109.6728922251859
 20
-156.2144096831686
 10
109.6728922251859
 20
-156.2144096831686
 10
109.6284504934262
 20
-156.2144096831686
 10
109.5033935273117
 20
-156.2185437977509
 10
109.4145100637922
 20
-156.2268120269155
 10
109.4145100637922
 20
-156.2268120269155
 10
109.4145100637922
 20
-156.1465413021092
 10
109.4145100637922
 20
-156.1465413021092
 10
109.3618001028679
 20
-156.1847818619955
 10
109.336306396277
 20
-156.1992512630335
 10
109.2939317218085
 20
-156.2226779123332
 10
109.2939317218085
 20
-156.2226779123332
 10
109.1058295083138
 20
-156.0938313411849
 10
109.1058295083138
 20
-156.0938313411849
 10
109.184033175829
 20
-156.0597248958809
 10
109.3407850204079
 20
-155.9963351389523
 10
109.4971923554382
 20
-155.8526746572174
 10
109.5795301375357
 20
-155.7741264801537
 10
109.6580783145994
 20
-155.6893771312166
 10
109.7107882755237
 20
-155.5880913239502
 10
109.7107882755237
 20
-155.5880913239502
 10
109.922317138318
 20
-155.6494140235877
 10
109.922317138318
 20
-155.6494140235877
 10
109.9416096730354
 20
-155.6556151954611
 10
109.9519449594912
 20
-155.6642279341742
 10
109.9519449594912
 20
-155.6769747874696
 10
109.9519449594912
 20
-155.6938557553474
 10
109.9391981061958
 20
-155.7000569272208
 10
109.9140489091534
 20
-155.7128037805163
 10
109.9943196339598
 20
-155.8099554732003
 10
110.1572726504121
 20
-155.9074516754329
 10
110.1910345861675
 20
-155.9263997006017
 10
110.3412407493244
 20
-156.0152831641212
 10
110.4556179194347
 20
-156.0428439280032
 10
110.5338215869499
 20
-156.061791953172
 10
110.5338215869499
 20
-156.061791953172
 10
110.4153103022573
 20
-156.2309461414978
 10
110.4153103022573
 20
-156.2309461414978
 10
110.3305609533201
 20
-156.2013183203247
 10
110.279918049687
 20
-156.1827148047043
 10
110.1614067649944
 20
-156.1169134809361
 10
110.1614067649944
 20
-156.1169134809361
 10
110.1614067649944
 20
-156.2268120269155
 10
110.1614067649944
 20
-156.2268120269155
 10
110.0790689828969
 20
-156.2185437977509
 10
109.9519449594912
 20
-156.2144096831686
 10
109.8992349985669
 20
-156.2144096831686
 10
109.8992349985669
 20
-156.2144096831686
 10
109.8992349985669
 20
-156.3453233116081
 10
109.8992349985669
 20
-156.3453233116081
 10
109.8992349985669
 20
-156.3453233116081
 10
110.0198133405506
 20
-156.3453233116081
 10
110.0198133405506
 20
-156.3453233116081
 10
110.0218803978418
 20
-156.3453233116081
 10
110.2544243430961
 20
-156.343256254317
 10
110.432191270135
 20
-156.3263752864393
 10
110.432191270135
 20
-156.3263752864393
 10
110.432191270135
 20
-156.5168890667736
 10
110.432191270135
 20
-156.5168890667736
 10
110.3033446989867
 20
-156.5037977039296
 10
110.1465928544078
 20
-156.5037977039296
 10
110.0198133405506
 20
-156.5037977039296
 10
110.0198133405506
 20
-156.5037977039296
 10
109.8992349985669
 20
-156.5037977039296
 10
109.8992349985669
 20
-156.5037977039296
 10
109.8992349985669
 20
-156.5037977039296
 10
109.8992349985669
 20
-156.730484986859
 10
109.8992349985669
 20
-156.730484986859
 10
109.8992349985669
 20
-156.8489962715516
 10
109.873741291976
 20
-156.8848252645982
 10
109.7128553328148
 20
-156.8996391751848
 10
109.7173339569457
 20
-156.9185872003537
 10
109.7107882755237
 20
-156.929266996358
 10
109.6728922251859
 20
-156.9523491361091
 10
109.6708251678948
 20
-156.9716416708265
 10
109.6708251678948
 20
-156.9778428427
 10
109.6684136010551
 20
-156.9926567532866
 10
109.6684136010551
 20
-156.9926567532866
 10
109.8058729109166
 20
-156.9926567532866
 10
109.8058729109166
 20
-156.9926567532866
 10
109.9708929846601
 20
-156.9926567532866
 10
110.1383246252432
 20
-156.9885226387043
 10
110.3054117562778
 20
-156.9737087281177
 10
110.3054117562778
 20
-156.9737087281177
 10
110.3054117562778
 20
-157.1811034763297
 10
110.3054117562778
 20
-157.1811034763297
 10
110.0894042693527
 20
-157.1638779989035
 10
109.825165445634
 20
-157.1638779989035
 10
109.8058729109166
 20
-157.1638779989035
 10
109.8058729109166
 20
-157.1638779989035
 10
109.666346543764
 20
-157.1638779989035
 10
109.666346543764
 20
-157.1638779989035
 10
109.666346543764
 20
-157.1638779989035
 10
109.666346543764
 20
-157.3058159328958
 10
109.666346543764
 20
-157.3058159328958
 10
109.666346543764
 20
-157.3058159328958
 10
109.8926893171449
 20
-157.3058159328958
 10
109.8926893171449
 20
-157.3058159328958
 10
110.10869680407
 20
-157.3058159328958
 10
110.3264268387378
 20
-157.3016818183135
 10
110.5420898161145
 20
-157.2889349650181
 10
110.5420898161145
 20
-157.2889349650181
 10
110.5420898161145
 20
-157.4959852036816
 10
110.5420898161145
 20
-157.4959852036816
 10
110.2609700245181
 20
-157.4794487453524
 10
109.9161159664446
 20
-157.4794487453524
 10
109.8926893171449
 20
-157.4794487453524
 97
        0
 97
        0
 92
        1
 93
        1
 72
     4
 94
        3
 73
     0
 74
     1
 95
       23
 96
       19
 40
0.0
 40
0.0
 40
0.0
 40
0.0
 40
1.0
 40
1.0
 40
1.0
 40
2.0
 40
2.0
 40
2.0
 40
3.0
 40
3.0
 40
3.0
 40
4.0
 40
4.0
 40
4.0
 40
5.0
 40
5.0
 40
5.0
 40
6.0
 40
6.0
 40
6.0
 40
6.0
 10
108.7737223035357
 20
-156.8510633288428
 10
108.7737223035357
 20
-156.8720784113028
 10
108.7757893608269
 20
-156.9103189711891
 10
108.750295654236
 20
-156.9103189711891
 10
108.7399603677803
 20
-156.9103189711891
 10
108.7313476290672
 20
-156.9037732897671
 10
108.7206678330629
 20
-156.8868923218894
 10
108.7206678330629
 20
-156.8868923218894
 10
108.6169704589569
 20
-156.7049912802682
 10
108.6169704589569
 20
-156.7049912802682
 10
108.832977945882
 20
-156.5761447091199
 10
109.0296928980898
 20
-156.2988145225573
 10
109.0762016871407
 20
-156.2268120269155
 10
109.0762016871407
 20
-156.2268120269155
 10
109.1482041827824
 20
-156.4066460112456
 10
109.1482041827824
 20
-156.4066460112456
 10
109.0148789875032
 20
-156.6033609634533
 10
108.8391791177555
 20
-156.7876735719142
 10
108.7737223035357
 20
-156.8510633288428
 97
        0
 97
        0
 92
        1
 93
        1
 72
     4
 94
        3
 73
     0
 74
     1
 95
       17
 96
       13
 40
0.0
 40
0.0
 40
0.0
 40
0.0
 40
1.0
 40
1.0
 40
1.0
 40
2.0
 40
2.0
 40
2.0
 40
3.0
 40
3.0
 40
3.0
 40
4.0
 40
4.0
 40
4.0
 40
4.0
 10
109.0276258407986
 20
-155.9560275217749
 10
108.9663031411612
 20
-155.8798909115509
 10
108.8371120604643
 20
-155.8037543013268
 10
108.7334146863583
 20
-155.7741264801537
 10
108.7334146863583
 20
-155.7741264801537
 10
108.8288438312997
 20
-155.6091064064102
 10
108.8288438312997
 20
-155.6091064064102
 10
108.9301296385661
 20
-155.6452799090054
 10
109.0358940699632
 20
-155.7024684940605
 10
109.1247775334827
 20
-155.7823947093183
 10
109.1247775334827
 20
-155.7823947093183
 10
109.0276258407986
 20
-155.9560275217749
 10
109.0276258407986
 20
-155.9560275217749
 97
        0
 97
        0
 92
        1
 93
        1
 72
     4
 94
        3
 73
     0
 74
     1
 95
       23
 96
       19
 40
0.0
 40
0.0
 40
0.0
 40
0.0
 40
1.0
 40
1.0
 40
1.0
 40
2.0
 40
2.0
 40
2.0
 40
3.0
 40
3.0
 40
3.0
 40
4.0
 40
4.0
 40
4.0
 40
5.0
 40
5.0
 40
5.0
 40
6.0
 40
6.0
 40
6.0
 40
6.0
 10
109.4803113875605
 20
-156.6605495485085
 10
109.4589517955519
 20
-156.6836316882597
 10
109.3618001028679
 20
-156.7959418010788
 10
109.2222737357153
 20
-156.8765570354336
 10
109.2222737357153
 20
-156.8765570354336
 10
109.0551866046807
 20
-156.7559786934499
 10
109.0551866046807
 20
-156.7559786934499
 10
109.2053927678376
 20
-156.6794975736774
 10
109.3046115178127
 20
-156.5844129382845
 10
109.3531873641548
 20
-156.5313584678116
 10
109.3531873641548
 20
-156.5313584678116
 10
109.5268201766114
 20
-156.6140407594576
 10
109.5268201766114
 20
-156.6140407594576
 10
109.535088405776
 20
-156.6181748740399
 10
109.5437011444891
 20
-156.6243760459134
 10
109.5437011444891
 20
-156.6354003514662
 10
109.5437011444891
 20
-156.6605495485085
 10
109.5078721514425
 20
-156.6605495485085
 10
109.4803113875605
 20
-156.6605495485085
 97
        0
 97
        0
 92
        1
 93
        1
 72
     4
 94
        3
 73
     0
 74
     1
 95
       20
 96
       16
 40
0.0
 40
0.0
 40
0.0
 40
0.0
 40
1.0
 40
1.0
 40
1.0
 40
2.0
 40
2.0
 40
2.0
 40
3.0
 40
3.0
 40
3.0
 40
4.0
 40
4.0
 40
4.0
 40
5.0
 40
5.0
 40
5.0
 40
5.0
 10
109.7786566565831
 20
-155.8185682119134
 10
109.7404160966968
 20
-155.8671440582554
 10
109.6790933970594
 20
-155.9456922353191
 10
109.5395670299068
 20
-156.0555907812986
 10
109.6198377547131
 20
-156.0597248958809
 10
109.6494655758863
 20
-156.0597248958809
 10
109.6728922251859
 20
-156.0597248958809
 10
109.6728922251859
 20
-156.0597248958809
 10
109.901302055858
 20
-156.0597248958809
 10
109.901302055858
 20
-156.0597248958809
 10
109.9329969343223
 20
-156.0597248958809
 10
109.9815727806643
 20
-156.0576578385898
 10
110.0556423335972
 20
-156.0555907812986
 10
109.9436767303266
 20
-155.9815212283658
 10
109.894756374436
 20
-155.9350124393149
 10
109.7786566565831
 20
-155.8185682119134
 97
        0
 97
        0
 92
        1
 93
        1
 72
     4
 94
        3
 73
     0
 74
     1
 95
       17
 96
       13
 40
0.0
 40
0.0
 40
0.0
 40
0.0
 40
1.0
 40
1.0
 40
1.0
 40
2.0
 40
2.0
 40
2.0
 40
3.0
 40
3.0
 40
3.0
 40
4.0
 40
4.0
 40
4.0
 40
4.0
 10
110.3391736920333
 20
-156.874145468594
 10
110.2037814394629
 20
-156.7621798653234
 10
110.0980170080658
 20
-156.6987901083947
 10
109.9795057233732
 20
-156.6354003514662
 10
109.9795057233732
 20
-156.6354003514662
 10
110.1062852372304
 20
-156.523090238647
 10
110.1062852372304
 20
-156.523090238647
 10
110.2375433752184
 20
-156.5695990276979
 10
110.3474419211979
 20
-156.626787612753
 10
110.4724988873124
 20
-156.7284179295679
 10
110.4724988873124
 20
-156.7284179295679
 10
110.3391736920333
 20
-156.874145468594
 10
110.3391736920333
 20
-156.874145468594
 97
        0
 97
        0
 75
     2
 76
     1
 98
        0
  0
SPLINE
  5
130
330
124
100
AcDbEntity
  8
_U+30EC_U+30A4_U+30E4_U+30FC 1
370
     0
100
AcDbSpline
210
0.0
220
0.0
230
1.0
 70
    11
 71
     3
 72
   113
 73
   109
 74
     0
 42
0.0000000001
 43
0.0000000001
 12
1.0
 22
0.0
 32
0.0
 13
1.0
 23
0.0
 33
0.0
 40
0.0
 40
0.0
 40
0.0
 40
0.0
 40
1.0
 40
1.0
 40
1.0
 40
2.0
 40
2.0
 40
2.0
 40
3.0
 40
3.0
 40
3.0
 40
4.0
 40
4.0
 40
4.0
 40
5.0
 40
5.0
 40
5.0
 40
6.0
 40
6.0
 40
6.0
 40
7.0
 40
7.0
 40
7.0
 40
8.0
 40
8.0
 40
8.0
 40
9.0
 40
9.0
 40
9.0
 40
10.0
 40
10.0
 40
10.0
 40
11.0
 40
11.0
 40
11.0
 40
12.0
 40
12.0
 40
12.0
 40
13.0
 40
13.0
 40
13.0
 40
14.0
 40
14.0
 40
14.0
 40
15.0
 40
15.0
 40
15.0
 40
16.0
 40
16.0
 40
16.0
 40
17.0
 40
17.0
 40
17.0
 40
18.0
 40
18.0
 40
18.0
 40
19.0
 40
19.0
 40
19.0
 40
20.0
 40
20.0
 40
20.0
 40
21.0
 40
21.0
 40
21.0
 40
22.0
 40
22.0
 40
22.0
 40
23.0
 40
23.0
 40
23.0
 40
24.0
 40
24.0
 40
24.0
 40
25.0
 40
25.0
 40
25.0
 40
26.0
 40
26.0
 40
26.0
 40
27.0
 40
27.0
 40
27.0
 40
28.0
 40
28.0
 40
28.0
 40
29.0
 40
29.0
 40
29.0
 40
30.0
 40
30.0
 40
30.0
 40
31.0
 40
31.0
 40
31.0
 40
32.0
 40
32.0
 40
32.0
 40
33.0
 40
33.0
 40
33.0
 40
34.0
 40
34.0
 40
34.0
 40
35.0
 40
35.0
 40
35.0
 40
36.0
 40
36.0
 40
36.0
 40
36.0
 10
112.2188177887856
 20
-156.8510633288428
 30
0.0
 10
112.2188177887856
 20
-156.8510633288428
 30
0.0
 10
112.3183810483093
 20
-156.950282078818
 30
0.0
 10
112.3183810483093
 20
-156.950282078818
 30
0.0
 10
112.3290608443136
 20
-156.9609618748223
 30
0.0
 10
112.3393961307693
 20
-156.9737087281177
 30
0.0
 10
112.3393961307693
 20
-156.9885226387043
 30
0.0
 10
112.3393961307693
 20
-156.9905896959954
 30
0.0
 10
112.3393961307693
 20
-157.0202175171686
 30
0.0
 10
112.3015000804316
 20
-157.0202175171686
 30
0.0
 10
112.2928873417185
 20
-157.0202175171686
 30
0.0
 10
112.252579724541
 20
-157.0157388930377
 30
0.0
 10
112.2463785526676
 20
-157.0157388930377
 30
0.0
 10
112.2060709354902
 20
-157.0477782810506
 30
0.0
 10
112.1595621464393
 20
-157.081540216806
 30
0.0
 10
112.0603433964641
 20
-157.1387288018612
 30
0.0
 10
112.2060709354902
 20
-157.2465602905495
 30
0.0
 10
112.3648898373602
 20
-157.3037488756046
 30
0.0
 10
112.637741399792
 20
-157.3416449259424
 30
0.0
 10
112.637741399792
 20
-157.3416449259424
 30
0.0
 10
112.4875352366351
 20
-157.5173447956901
 30
0.0
 10
112.4875352366351
 20
-157.5173447956901
 30
0.0
 10
112.2253634702076
 20
-157.4453423000484
 30
0.0
 10
112.0686116256287
 20
-157.3568033460775
 30
0.0
 10
111.9924750154047
 20
-157.3037488756046
 30
0.0
 10
111.8422688522478
 20
-157.2021185587897
 30
0.0
 10
111.6986083705129
 20
-157.0391655423374
 30
0.0
 10
111.6224717602888
 20
-156.874145468594
 30
0.0
 10
111.5546033792294
 20
-156.9399467923622
 30
0.0
 10
111.4805338262965
 20
-156.9926567532866
 30
0.0
 10
111.4023301587814
 20
-157.0412325996286
 30
0.0
 10
111.4023301587814
 20
-157.0412325996286
 30
0.0
 10
111.4023301587814
 20
-157.2930690796003
 30
0.0
 10
111.4023301587814
 20
-157.2930690796003
 30
0.0
 10
111.5652831752337
 20
-157.267919882558
 30
0.0
 10
111.7513183314372
 20
-157.2231336412498
 30
0.0
 10
111.8147080883658
 20
-157.2086642402117
 30
0.0
 10
111.8147080883658
 20
-157.2086642402117
 30
0.0
 10
111.7850802671926
 20
-157.377473918989
 30
0.0
 10
111.7850802671926
 20
-157.377473918989
 30
0.0
 10
111.7830132099015
 20
-157.377473918989
 30
0.0
 10
111.7640651847326
 20
-157.3840196004109
 30
0.0
 10
111.7619981274414
 20
-157.3840196004109
 30
0.0
 10
111.5632161179425
 20
-157.4222601602972
 30
0.0
 10
111.245922823751
 20
-157.487716974517
 30
0.0
 10
111.0488633619947
 20
-157.5235459675636
 30
0.0
 10
111.038528075539
 20
-157.5407714449898
 30
0.0
 10
111.0151014262393
 20
-157.5724663234541
 30
0.0
 10
110.9920192864881
 20
-157.5724663234541
 30
0.0
 10
110.9644585226061
 20
-157.5724663234541
 30
0.0
 10
110.9603244080238
 20
-157.5531737887367
 30
0.0
 10
110.9579128411841
 20
-157.5342257635678
 30
0.0
 10
110.9579128411841
 20
-157.5342257635678
 30
0.0
 10
110.9327636441418
 20
-157.3609374606598
 30
0.0
 10
110.9327636441418
 20
-157.3609374606598
 30
0.0
 10
111.0068331970747
 20
-157.3523247219466
 30
0.0
 10
111.114664685763
 20
-157.3395778686512
 30
0.0
 10
111.2224961744513
 20
-157.3185627861912
 30
0.0
 10
111.2224961744513
 20
-157.3185627861912
 30
0.0
 10
111.2224961744513
 20
-157.1407958591523
 30
0.0
 10
111.2224961744513
 20
-157.1407958591523
 30
0.0
 10
111.0784911831679
 20
-157.212798354794
 30
0.0
 10
110.983406547775
 20
-157.2424261759672
 30
0.0
 10
110.8183864740315
 20
-157.2720539971403
 30
0.0
 10
110.8183864740315
 20
-157.2720539971403
 30
0.0
 10
110.6978081320478
 20
-157.102555299266
 30
0.0
 10
110.6978081320478
 20
-157.102555299266
 30
0.0
 10
111.0151014262393
 20
-157.074994535384
 30
0.0
 10
111.2076822638648
 20
-156.9819769572823
 30
0.0
 10
111.3854491909036
 20
-156.8489962715516
 30
0.0
 10
111.239377142329
 20
-156.8489962715516
 30
0.0
 10
110.9389648160153
 20
-156.853130386134
 30
0.0
 10
110.7422498638075
 20
-156.8593315580074
 30
0.0
 10
110.7422498638075
 20
-156.8593315580074
 30
0.0
 10
110.7422498638075
 20
-156.6815646309685
 30
0.0
 10
110.7422498638075
 20
-156.6815646309685
 30
0.0
 10
110.8965901415467
 20
-156.6881103123905
 30
0.0
 10
111.1928683532782
 20
-156.6946559938125
 30
0.0
 10
111.3768364521905
 20
-156.6946559938125
 30
0.0
 10
111.3768364521905
 20
-156.6946559938125
 30
0.0
 10
111.5883653149849
 20
-156.6946559938125
 30
0.0
 10
111.5883653149849
 20
-156.6946559938125
 30
0.0
 10
111.5883653149849
 20
-156.599226848871
 30
0.0
 10
111.5862982576937
 20
-156.5485839452379
 30
0.0
 10
111.5800970858203
 20
-156.5017306466385
 30
0.0
 10
111.5800970858203
 20
-156.5017306466385
 30
0.0
 10
111.7957600631969
 20
-156.5189561240647
 30
0.0
 10
111.7957600631969
 20
-156.5189561240647
 30
0.0
 10
111.8443359095389
 20
-156.523090238647
 30
0.0
 10
111.8529486482521
 20
-156.5379041492336
 30
0.0
 10
111.8529486482521
 20
-156.5527180598202
 30
0.0
 10
111.8529486482521
 20
-156.578211766411
 30
0.0
 10
111.8360676803743
 20
-156.5864799955756
 30
0.0
 10
111.7850802671926
 20
-156.6119737021665
 30
0.0
 10
111.7830132099015
 20
-156.6374674087573
 30
0.0
 10
111.7830132099015
 20
-156.6436685806308
 30
0.0
 10
111.7809461526103
 20
-156.6946559938125
 30
0.0
 10
111.7809461526103
 20
-156.6946559938125
 30
0.0
 10
112.0114230405735
 20
-156.6946559938125
 30
0.0
 10
112.0114230405735
 20
-156.6946559938125
 30
0.0
 10
112.176443114317
 20
-156.6946559938125
 30
0.0
 10
112.4685872114662
 20
-156.6881103123905
 30
0.0
 10
112.6484211957962
 20
-156.6815646309685
 30
0.0
 10
112.6484211957962
 20
-156.6815646309685
 30
0.0
 10
112.6484211957962
 20
-156.8593315580074
 30
0.0
 10
112.6484211957962
 20
-156.8593315580074
 30
0.0
 10
112.5192301150994
 20
-156.8551974434251
 30
0.0
 10
112.4961479753482
 20
-156.8551974434251
 30
0.0
 10
112.2188177887856
 20
-156.8510633288428
 30
0.0
  0
SPLINE
  5
131
330
124
100
AcDbEntity
  8
_U+30EC_U+30A4_U+30E4_U+30FC 1
370
     0
100
AcDbSpline
210
0.0
220
0.0
230
1.0
 70
    11
 71
     3
 72
    23
 73
    19
 74
     0
 42
0.0000000001
 43
0.0000000001
 12
1.0
 22
0.0
 32
0.0
 13
1.0
 23
0.0
 33
0.0
 40
0.0
 40
0.0
 40
0.0
 40
0.0
 40
1.0
 40
1.0
 40
1.0
 40
2.0
 40
2.0
 40
2.0
 40
3.0
 40
3.0
 40
3.0
 40
4.0
 40
4.0
 40
4.0
 40
5.0
 40
5.0
 40
5.0
 40
6.0
 40
6.0
 40
6.0
 40
6.0
 10
110.934830701433
 20
-156.4996635893473
 30
0.0
 10
110.9179497335552
 20
-156.5399712065247
 30
0.0
 10
110.9114040521333
 20
-156.5568521744025
 30
0.0
 10
110.8903889696732
 20
-156.5568521744025
 30
0.0
 10
110.8755750590867
 20
-156.5568521744025
 30
0.0
 10
110.8648952630824
 20
-156.5399712065247
 30
0.0
 10
110.8586940912089
 20
-156.5272243532293
 30
0.0
 10
110.8586940912089
 20
-156.5272243532293
 30
0.0
 10
110.7591308316852
 20
-156.3622042794858
 30
0.0
 10
110.7591308316852
 20
-156.3622042794858
 30
0.0
 10
110.8607611485001
 20
-156.3305094010215
 30
0.0
 10
111.010967311657
 20
-156.2757323828061
 30
0.0
 10
111.2097493211559
 20
-156.1124348568052
 30
0.0
 10
111.2097493211559
 20
-156.1124348568052
 30
0.0
 10
111.2669379062111
 20
-156.2860676692618
 30
0.0
 10
111.2669379062111
 20
-156.2860676692618
 30
0.0
 10
111.1739203281093
 20
-156.3687499609078
 30
0.0
 10
111.0850368645899
 20
-156.425938545963
 30
0.0
 10
110.934830701433
 20
-156.4996635893473
 30
0.0
  0
SPLINE
  5
132
330
124
100
AcDbEntity
  8
_U+30EC_U+30A4_U+30E4_U+30FC 1
370
     0
100
AcDbSpline
210
0.0
220
0.0
230
1.0
 70
    11
 71
     3
 72
    17
 73
    13
 74
     0
 42
0.0000000001
 43
0.0000000001
 12
1.0
 22
0.0
 32
0.0
 13
1.0
 23
0.0
 33
0.0
 40
0.0
 40
0.0
 40
0.0
 40
0.0
 40
1.0
 40
1.0
 40
1.0
 40
2.0
 40
2.0
 40
2.0
 40
3.0
 40
3.0
 40
3.0
 40
4.0
 40
4.0
 40
4.0
 40
4.0
 10
111.087103921881
 20
-156.0345756988386
 30
0.0
 10
111.0574761007079
 20
-155.9942680816612
 30
0.0
 10
110.9896077196484
 20
-155.8967718794286
 30
0.0
 10
110.8077066780272
 20
-155.7868733334491
 30
0.0
 10
110.8077066780272
 20
-155.7868733334491
 30
0.0
 10
110.934830701433
 20
-155.65354813817
 30
0.0
 10
110.934830701433
 20
-155.65354813817
 30
0.0
 10
111.1208658576365
 20
-155.7551784549848
 30
0.0
 10
111.1780544426916
 20
-155.8440619185043
 30
0.0
 10
111.2056152065736
 20
-155.8864365929728
 30
0.0
 10
111.2056152065736
 20
-155.8864365929728
 30
0.0
 10
111.087103921881
 20
-156.0345756988386
 30
0.0
 10
111.087103921881
 20
-156.0345756988386
 30
0.0
  0
SPLINE
  5
133
330
124
100
AcDbEntity
  8
_U+30EC_U+30A4_U+30E4_U+30FC 1
370
     0
100
AcDbSpline
210
0.0
220
0.0
230
1.0
 70
    11
 71
     3
 72
    38
 73
    34
 74
     0
 42
0.0000000001
 43
0.0000000001
 12
1.0
 22
0.0
 32
0.0
 13
1.0
 23
0.0
 33
0.0
 40
0.0
 40
0.0
 40
0.0
 40
0.0
 40
1.0
 40
1.0
 40
1.0
 40
2.0
 40
2.0
 40
2.0
 40
3.0
 40
3.0
 40
3.0
 40
4.0
 40
4.0
 40
4.0
 40
5.0
 40
5.0
 40
5.0
 40
6.0
 40
6.0
 40
6.0
 40
7.0
 40
7.0
 40
7.0
 40
8.0
 40
8.0
 40
8.0
 40
9.0
 40
9.0
 40
9.0
 40
10.0
 40
10.0
 40
10.0
 40
11.0
 40
11.0
 40
11.0
 40
11.0
 10
111.4550401197057
 20
-155.729684748394
 30
0.0
 10
111.4529730624145
 20
-155.7761935374448
 30
0.0
 10
111.4509060051234
 20
-155.8926377648463
 30
0.0
 10
111.4509060051234
 20
-155.937079496606
 30
0.0
 10
111.4509060051234
 20
-155.937079496606
 30
0.0
 10
111.4509060051234
 20
-156.2840006119707
 30
0.0
 10
111.4509060051234
 20
-156.2840006119707
 30
0.0
 10
111.4509060051234
 20
-156.370817018199
 30
0.0
 10
111.4529730624145
 20
-156.5124104426427
 30
0.0
 10
111.4636528584188
 20
-156.6329887846265
 30
0.0
 10
111.4636528584188
 20
-156.6329887846265
 30
0.0
 10
111.2731390780845
 20
-156.6329887846265
 30
0.0
 10
111.2731390780845
 20
-156.6329887846265
 30
0.0
 10
111.2776177022153
 20
-156.5695990276979
 30
0.0
 10
111.2817518167976
 20
-156.5168890667736
 30
0.0
 10
111.2838188740888
 20
-156.4617675390096
 30
0.0
 10
111.2858859313799
 20
-156.3391221397347
 30
0.0
 10
111.2879529886711
 20
-156.3239637195996
 30
0.0
 10
111.2879529886711
 20
-156.2798664973884
 30
0.0
 10
111.2879529886711
 20
-156.2798664973884
 30
0.0
 10
111.2879529886711
 20
-155.958094579066
 30
0.0
 10
111.2879529886711
 20
-155.958094579066
 30
0.0
 10
111.2879529886711
 20
-155.902973051302
 30
0.0
 10
111.2752061353757
 20
-155.6642279341742
 30
0.0
 10
111.2731390780845
 20
-155.6135850305411
 30
0.0
 10
111.2731390780845
 20
-155.6135850305411
 30
0.0
 10
111.4743326544231
 20
-155.6411457944231
 30
0.0
 10
111.4743326544231
 20
-155.6411457944231
 30
0.0
 10
111.4953477368831
 20
-155.6432128517142
 30
0.0
 10
111.5270426153474
 20
-155.6473469662965
 30
0.0
 10
111.5270426153474
 20
-155.6728406728874
 30
0.0
 10
111.5270426153474
 20
-155.7000569272208
 30
0.0
 10
111.4763997117142
 20
-155.7210720096809
 30
0.0
 10
111.4550401197057
 20
-155.729684748394
 30
0.0
  0
SPLINE
  5
134
330
124
100
AcDbEntity
  8
_U+30EC_U+30A4_U+30E4_U+30FC 1
370
     0
100
AcDbSpline
210
0.0
220
0.0
230
1.0
 70
    11
 71
     3
 72
    83
 73
    79
 74
     0
 42
0.0000000001
 43
0.0000000001
 12
1.0
 22
0.0
 32
0.0
 13
1.0
 23
0.0
 33
0.0
 40
0.0
 40
0.0
 40
0.0
 40
0.0
 40
1.0
 40
1.0
 40
1.0
 40
2.0
 40
2.0
 40
2.0
 40
3.0
 40
3.0
 40
3.0
 40
4.0
 40
4.0
 40
4.0
 40
5.0
 40
5.0
 40
5.0
 40
6.0
 40
6.0
 40
6.0
 40
7.0
 40
7.0
 40
7.0
 40
8.0
 40
8.0
 40
8.0
 40
9.0
 40
9.0
 40
9.0
 40
10.0
 40
10.0
 40
10.0
 40
11.0
 40
11.0
 40
11.0
 40
12.0
 40
12.0
 40
12.0
 40
13.0
 40
13.0
 40
13.0
 40
14.0
 40
14.0
 40
14.0
 40
15.0
 40
15.0
 40
15.0
 40
16.0
 40
16.0
 40
16.0
 40
17.0
 40
17.0
 40
17.0
 40
18.0
 40
18.0
 40
18.0
 40
19.0
 40
19.0
 40
19.0
 40
20.0
 40
20.0
 40
20.0
 40
21.0
 40
21.0
 40
21.0
 40
22.0
 40
22.0
 40
22.0
 40
23.0
 40
23.0
 40
23.0
 40
24.0
 40
24.0
 40
24.0
 40
25.0
 40
25.0
 40
25.0
 40
26.0
 40
26.0
 40
26.0
 40
26.0
 10
112.2570583486718
 20
-156.0511121571678
 30
0.0
 10
112.2570583486718
 20
-156.0511121571678
 30
0.0
 10
112.1595621464393
 20
-156.0511121571678
 30
0.0
 10
112.1595621464393
 20
-156.0511121571678
 30
0.0
 10
112.1595621464393
 20
-156.0511121571678
 30
0.0
 10
112.1595621464393
 20
-156.2988145225573
 30
0.0
 10
112.1595621464393
 20
-156.2988145225573
 30
0.0
 10
112.1595621464393
 20
-156.2988145225573
 30
0.0
 10
112.2422444380853
 20
-156.2988145225573
 30
0.0
 10
112.2422444380853
 20
-156.2988145225573
 30
0.0
 10
112.307701252305
 20
-156.2988145225573
 30
0.0
 10
112.4472276194576
 20
-156.2943358984264
 30
0.0
 10
112.5467908789814
 20
-156.2860676692618
 30
0.0
 10
112.5467908789814
 20
-156.2860676692618
 30
0.0
 10
112.5467908789814
 20
-156.4659016535919
 30
0.0
 10
112.5467908789814
 20
-156.4659016535919
 30
0.0
 10
112.4537733008796
 20
-156.4576334244273
 30
0.0
 10
112.3035671377227
 20
-156.453499309845
 30
0.0
 10
112.2422444380853
 20
-156.453499309845
 30
0.0
 10
112.2422444380853
 20
-156.453499309845
 30
0.0
 10
111.9373534876407
 20
-156.453499309845
 30
0.0
 10
111.9373534876407
 20
-156.453499309845
 30
0.0
 10
111.8846435267163
 20
-156.453499309845
 30
0.0
 10
111.7385714781418
 20
-156.4576334244273
 30
0.0
 10
111.6328070467446
 20
-156.4659016535919
 30
0.0
 10
111.6328070467446
 20
-156.4659016535919
 30
0.0
 10
111.6328070467446
 20
-156.2860676692618
 30
0.0
 10
111.6328070467446
 20
-156.2860676692618
 30
0.0
 10
111.7323703062683
 20
-156.2943358984264
 30
0.0
 10
111.8718966734209
 20
-156.2988145225573
 30
0.0
 10
111.9373534876407
 20
-156.2988145225573
 30
0.0
 10
111.9373534876407
 20
-156.2988145225573
 30
0.0
 10
111.9817952194004
 20
-156.2988145225573
 30
0.0
 10
111.9817952194004
 20
-156.2988145225573
 30
0.0
 10
111.9817952194004
 20
-156.2988145225573
 30
0.0
 10
111.9817952194004
 20
-156.0511121571678
 30
0.0
 10
111.9817952194004
 20
-156.0511121571678
 30
0.0
 10
111.9817952194004
 20
-156.0511121571678
 30
0.0
 10
111.908070176016
 20
-156.0511121571678
 30
0.0
 10
111.908070176016
 20
-156.0511121571678
 30
0.0
 10
111.8464029668301
 20
-156.0511121571678
 30
0.0
 10
111.6793158357954
 20
-156.0555907812986
 30
0.0
 10
111.5587374938117
 20
-156.0642035200117
 30
0.0
 10
111.5587374938117
 20
-156.0642035200117
 30
0.0
 10
111.5587374938117
 20
-155.8864365929728
 30
0.0
 10
111.5587374938117
 20
-155.8864365929728
 30
0.0
 10
111.673114663922
 20
-155.8926377648463
 30
0.0
 10
111.8315890562435
 20
-155.8967718794286
 30
0.0
 10
111.908070176016
 20
-155.8967718794286
 30
0.0
 10
111.908070176016
 20
-155.8967718794286
 30
0.0
 10
111.9797281621092
 20
-155.8967718794286
 30
0.0
 10
111.9797281621092
 20
-155.8967718794286
 30
0.0
 10
111.9755940475269
 20
-155.7444986589805
 30
0.0
 10
111.9735269902358
 20
-155.7107367232251
 30
0.0
 10
111.9669813088138
 20
-155.6177191451233
 30
0.0
 10
111.9669813088138
 20
-155.6177191451233
 30
0.0
 10
112.1788546811567
 20
-155.6411457944231
 30
0.0
 10
112.1788546811567
 20
-155.6411457944231
 30
0.0
 10
112.204003878199
 20
-155.6432128517142
 30
0.0
 10
112.2274305274987
 20
-155.6473469662965
 30
0.0
 10
112.2274305274987
 20
-155.6704291060477
 30
0.0
 10
112.2274305274987
 20
-155.7024684940605
 30
0.0
 10
112.182988795739
 20
-155.7190049523897
 30
0.0
 10
112.1595621464393
 20
-155.7276176911028
 30
0.0
 10
112.1595621464393
 20
-155.7276176911028
 30
0.0
 10
112.1595621464393
 20
-155.8967718794286
 30
0.0
 10
112.1595621464393
 20
-155.8967718794286
 30
0.0
 10
112.1595621464393
 20
-155.8967718794286
 30
0.0
 10
112.2570583486718
 20
-155.8967718794286
 30
0.0
 10
112.2570583486718
 20
-155.8967718794286
 30
0.0
 10
112.3331949588959
 20
-155.8967718794286
 30
0.0
 10
112.4916693512174
 20
-155.8926377648463
 30
0.0
 10
112.6081135786188
 20
-155.8864365929728
 30
0.0
 10
112.6081135786188
 20
-155.8864365929728
 30
0.0
 10
112.6081135786188
 20
-156.0642035200117
 30
0.0
 10
112.6081135786188
 20
-156.0642035200117
 30
0.0
 10
112.5002820899305
 20
-156.0576578385898
 30
0.0
 10
112.3266492774739
 20
-156.0511121571678
 30
0.0
 10
112.2570583486718
 20
-156.0511121571678
 30
0.0
  0
SPLINE
  5
135
330
124
100
AcDbEntity
  8
_U+30EC_U+30A4_U+30E4_U+30FC 1
370
     0
100
AcDbSpline
210
0.0
220
0.0
230
1.0
 70
    11
 71
     3
 72
    17
 73
    13
 74
     0
 42
0.0000000001
 43
0.0000000001
 12
1.0
 22
0.0
 32
0.0
 13
1.0
 23
0.0
 33
0.0
 40
0.0
 40
0.0
 40
0.0
 40
0.0
 40
1.0
 40
1.0
 40
1.0
 40
2.0
 40
2.0
 40
2.0
 40
3.0
 40
3.0
 40
3.0
 40
4.0
 40
4.0
 40
4.0
 40
4.0
 10
112.0114230405735
 20
-156.8489962715516
 30
0.0
 10
112.0114230405735
 20
-156.8489962715516
 30
0.0
 10
111.8085069164923
 20
-156.8489962715516
 30
0.0
 10
111.8085069164923
 20
-156.8489962715516
 30
0.0
 10
111.8360676803743
 20
-156.9082519138979
 30
0.0
 10
111.8908446985898
 20
-156.9799098999911
 30
0.0
 10
111.9184054624718
 20
-157.0095377211643
 30
0.0
 10
111.9459662263538
 20
-156.9950683201263
 30
0.0
 10
112.0603433964641
 20
-156.9313340536491
 30
0.0
 10
112.1512939172747
 20
-156.8489962715516
 30
0.0
 10
112.1512939172747
 20
-156.8489962715516
 30
0.0
 10
112.0114230405735
 20
-156.8489962715516
 30
0.0
 10
112.0114230405735
 20
-156.8489962715516
 30
0.0
  0
HATCH
  5
136
330
124
100
AcDbEntity
  8
_U+30EC_U+30A4_U+30E4_U+30FC 1
 62
     7
420
 16777215
100
AcDbHatch
 10
0.0
 20
0.0
 30
0.0
210
0.0
220
0.0
230
1.0
  2
SOLID
 70
     1
 71
     0
 91
        6
 92
        1
 93
        1
 72
     4
 94
        3
 73
     0
 74
     1
 95
      113
 96
      109
 40
0.0
 40
0.0
 40
0.0
 40
0.0
 40
1.0
 40
1.0
 40
1.0
 40
2.0
 40
2.0
 40
2.0
 40
3.0
 40
3.0
 40
3.0
 40
4.0
 40
4.0
 40
4.0
 40
5.0
 40
5.0
 40
5.0
 40
6.0
 40
6.0
 40
6.0
 40
7.0
 40
7.0
 40
7.0
 40
8.0
 40
8.0
 40
8.0
 40
9.0
 40
9.0
 40
9.0
 40
10.0
 40
10.0
 40
10.0
 40
11.0
 40
11.0
 40
11.0
 40
12.0
 40
12.0
 40
12.0
 40
13.0
 40
13.0
 40
13.0
 40
14.0
 40
14.0
 40
14.0
 40
15.0
 40
15.0
 40
15.0
 40
16.0
 40
16.0
 40
16.0
 40
17.0
 40
17.0
 40
17.0
 40
18.0
 40
18.0
 40
18.0
 40
19.0
 40
19.0
 40
19.0
 40
20.0
 40
20.0
 40
20.0
 40
21.0
 40
21.0
 40
21.0
 40
22.0
 40
22.0
 40
22.0
 40
23.0
 40
23.0
 40
23.0
 40
24.0
 40
24.0
 40
24.0
 40
25.0
 40
25.0
 40
25.0
 40
26.0
 40
26.0
 40
26.0
 40
27.0
 40
27.0
 40
27.0
 40
28.0
 40
28.0
 40
28.0
 40
29.0
 40
29.0
 40
29.0
 40
30.0
 40
30.0
 40
30.0
 40
31.0
 40
31.0
 40
31.0
 40
32.0
 40
32.0
 40
32.0
 40
33.0
 40
33.0
 40
33.0
 40
34.0
 40
34.0
 40
34.0
 40
35.0
 40
35.0
 40
35.0
 40
36.0
 40
36.0
 40
36.0
 40
36.0
 10
112.2188177887856
 20
-156.8510633288428
 10
112.2188177887856
 20
-156.8510633288428
 10
112.3183810483093
 20
-156.950282078818
 10
112.3183810483093
 20
-156.950282078818
 10
112.3290608443136
 20
-156.9609618748223
 10
112.3393961307693
 20
-156.9737087281177
 10
112.3393961307693
 20
-156.9885226387043
 10
112.3393961307693
 20
-156.9905896959954
 10
112.3393961307693
 20
-157.0202175171686
 10
112.3015000804316
 20
-157.0202175171686
 10
112.2928873417185
 20
-157.0202175171686
 10
112.252579724541
 20
-157.0157388930377
 10
112.2463785526676
 20
-157.0157388930377
 10
112.2060709354902
 20
-157.0477782810506
 10
112.1595621464393
 20
-157.081540216806
 10
112.0603433964641
 20
-157.1387288018612
 10
112.2060709354902
 20
-157.2465602905495
 10
112.3648898373602
 20
-157.3037488756046
 10
112.637741399792
 20
-157.3416449259424
 10
112.637741399792
 20
-157.3416449259424
 10
112.4875352366351
 20
-157.5173447956901
 10
112.4875352366351
 20
-157.5173447956901
 10
112.2253634702076
 20
-157.4453423000484
 10
112.0686116256287
 20
-157.3568033460775
 10
111.9924750154047
 20
-157.3037488756046
 10
111.8422688522478
 20
-157.2021185587897
 10
111.6986083705129
 20
-157.0391655423374
 10
111.6224717602888
 20
-156.874145468594
 10
111.5546033792294
 20
-156.9399467923622
 10
111.4805338262965
 20
-156.9926567532866
 10
111.4023301587814
 20
-157.0412325996286
 10
111.4023301587814
 20
-157.0412325996286
 10
111.4023301587814
 20
-157.2930690796003
 10
111.4023301587814
 20
-157.2930690796003
 10
111.5652831752337
 20
-157.267919882558
 10
111.7513183314372
 20
-157.2231336412498
 10
111.8147080883658
 20
-157.2086642402117
 10
111.8147080883658
 20
-157.2086642402117
 10
111.7850802671926
 20
-157.377473918989
 10
111.7850802671926
 20
-157.377473918989
 10
111.7830132099015
 20
-157.377473918989
 10
111.7640651847326
 20
-157.3840196004109
 10
111.7619981274414
 20
-157.3840196004109
 10
111.5632161179425
 20
-157.4222601602972
 10
111.245922823751
 20
-157.487716974517
 10
111.0488633619947
 20
-157.5235459675636
 10
111.038528075539
 20
-157.5407714449898
 10
111.0151014262393
 20
-157.5724663234541
 10
110.9920192864881
 20
-157.5724663234541
 10
110.9644585226061
 20
-157.5724663234541
 10
110.9603244080238
 20
-157.5531737887367
 10
110.9579128411841
 20
-157.5342257635678
 10
110.9579128411841
 20
-157.5342257635678
 10
110.9327636441418
 20
-157.3609374606598
 10
110.9327636441418
 20
-157.3609374606598
 10
111.0068331970747
 20
-157.3523247219466
 10
111.114664685763
 20
-157.3395778686512
 10
111.2224961744513
 20
-157.3185627861912
 10
111.2224961744513
 20
-157.3185627861912
 10
111.2224961744513
 20
-157.1407958591523
 10
111.2224961744513
 20
-157.1407958591523
 10
111.0784911831679
 20
-157.212798354794
 10
110.983406547775
 20
-157.2424261759672
 10
110.8183864740315
 20
-157.2720539971403
 10
110.8183864740315
 20
-157.2720539971403
 10
110.6978081320478
 20
-157.102555299266
 10
110.6978081320478
 20
-157.102555299266
 10
111.0151014262393
 20
-157.074994535384
 10
111.2076822638648
 20
-156.9819769572823
 10
111.3854491909036
 20
-156.8489962715516
 10
111.239377142329
 20
-156.8489962715516
 10
110.9389648160153
 20
-156.853130386134
 10
110.7422498638075
 20
-156.8593315580074
 10
110.7422498638075
 20
-156.8593315580074
 10
110.7422498638075
 20
-156.6815646309685
 10
110.7422498638075
 20
-156.6815646309685
 10
110.8965901415467
 20
-156.6881103123905
 10
111.1928683532782
 20
-156.6946559938125
 10
111.3768364521905
 20
-156.6946559938125
 10
111.3768364521905
 20
-156.6946559938125
 10
111.5883653149849
 20
-156.6946559938125
 10
111.5883653149849
 20
-156.6946559938125
 10
111.5883653149849
 20
-156.599226848871
 10
111.5862982576937
 20
-156.5485839452379
 10
111.5800970858203
 20
-156.5017306466385
 10
111.5800970858203
 20
-156.5017306466385
 10
111.7957600631969
 20
-156.5189561240647
 10
111.7957600631969
 20
-156.5189561240647
 10
111.8443359095389
 20
-156.523090238647
 10
111.8529486482521
 20
-156.5379041492336
 10
111.8529486482521
 20
-156.5527180598202
 10
111.8529486482521
 20
-156.578211766411
 10
111.8360676803743
 20
-156.5864799955756
 10
111.7850802671926
 20
-156.6119737021665
 10
111.7830132099015
 20
-156.6374674087573
 10
111.7830132099015
 20
-156.6436685806308
 10
111.7809461526103
 20
-156.6946559938125
 10
111.7809461526103
 20
-156.6946559938125
 10
112.0114230405735
 20
-156.6946559938125
 10
112.0114230405735
 20
-156.6946559938125
 10
112.176443114317
 20
-156.6946559938125
 10
112.4685872114662
 20
-156.6881103123905
 10
112.6484211957962
 20
-156.6815646309685
 10
112.6484211957962
 20
-156.6815646309685
 10
112.6484211957962
 20
-156.8593315580074
 10
112.6484211957962
 20
-156.8593315580074
 10
112.5192301150994
 20
-156.8551974434251
 10
112.4961479753482
 20
-156.8551974434251
 10
112.2188177887856
 20
-156.8510633288428
 97
        0
 97
        0
 92
        1
 93
        1
 72
     4
 94
        3
 73
     0
 74
     1
 95
       23
 96
       19
 40
0.0
 40
0.0
 40
0.0
 40
0.0
 40
1.0
 40
1.0
 40
1.0
 40
2.0
 40
2.0
 40
2.0
 40
3.0
 40
3.0
 40
3.0
 40
4.0
 40
4.0
 40
4.0
 40
5.0
 40
5.0
 40
5.0
 40
6.0
 40
6.0
 40
6.0
 40
6.0
 10
110.934830701433
 20
-156.4996635893473
 10
110.9179497335552
 20
-156.5399712065247
 10
110.9114040521333
 20
-156.5568521744025
 10
110.8903889696732
 20
-156.5568521744025
 10
110.8755750590867
 20
-156.5568521744025
 10
110.8648952630824
 20
-156.5399712065247
 10
110.8586940912089
 20
-156.5272243532293
 10
110.8586940912089
 20
-156.5272243532293
 10
110.7591308316852
 20
-156.3622042794858
 10
110.7591308316852
 20
-156.3622042794858
 10
110.8607611485001
 20
-156.3305094010215
 10
111.010967311657
 20
-156.2757323828061
 10
111.2097493211559
 20
-156.1124348568052
 10
111.2097493211559
 20
-156.1124348568052
 10
111.2669379062111
 20
-156.2860676692618
 10
111.2669379062111
 20
-156.2860676692618
 10
111.1739203281093
 20
-156.3687499609078
 10
111.0850368645899
 20
-156.425938545963
 10
110.934830701433
 20
-156.4996635893473
 97
        0
 97
        0
 92
        1
 93
        1
 72
     4
 94
        3
 73
     0
 74
     1
 95
       17
 96
       13
 40
0.0
 40
0.0
 40
0.0
 40
0.0
 40
1.0
 40
1.0
 40
1.0
 40
2.0
 40
2.0
 40
2.0
 40
3.0
 40
3.0
 40
3.0
 40
4.0
 40
4.0
 40
4.0
 40
4.0
 10
111.087103921881
 20
-156.0345756988386
 10
111.0574761007079
 20
-155.9942680816612
 10
110.9896077196484
 20
-155.8967718794286
 10
110.8077066780272
 20
-155.7868733334491
 10
110.8077066780272
 20
-155.7868733334491
 10
110.934830701433
 20
-155.65354813817
 10
110.934830701433
 20
-155.65354813817
 10
111.1208658576365
 20
-155.7551784549848
 10
111.1780544426916
 20
-155.8440619185043
 10
111.2056152065736
 20
-155.8864365929728
 10
111.2056152065736
 20
-155.8864365929728
 10
111.087103921881
 20
-156.0345756988386
 10
111.087103921881
 20
-156.0345756988386
 97
        0
 97
        0
 92
        1
 93
        1
 72
     4
 94
        3
 73
     0
 74
     1
 95
       38
 96
       34
 40
0.0
 40
0.0
 40
0.0
 40
0.0
 40
1.0
 40
1.0
 40
1.0
 40
2.0
 40
2.0
 40
2.0
 40
3.0
 40
3.0
 40
3.0
 40
4.0
 40
4.0
 40
4.0
 40
5.0
 40
5.0
 40
5.0
 40
6.0
 40
6.0
 40
6.0
 40
7.0
 40
7.0
 40
7.0
 40
8.0
 40
8.0
 40
8.0
 40
9.0
 40
9.0
 40
9.0
 40
10.0
 40
10.0
 40
10.0
 40
11.0
 40
11.0
 40
11.0
 40
11.0
 10
111.4550401197057
 20
-155.729684748394
 10
111.4529730624145
 20
-155.7761935374448
 10
111.4509060051234
 20
-155.8926377648463
 10
111.4509060051234
 20
-155.937079496606
 10
111.4509060051234
 20
-155.937079496606
 10
111.4509060051234
 20
-156.2840006119707
 10
111.4509060051234
 20
-156.2840006119707
 10
111.4509060051234
 20
-156.370817018199
 10
111.4529730624145
 20
-156.5124104426427
 10
111.4636528584188
 20
-156.6329887846265
 10
111.4636528584188
 20
-156.6329887846265
 10
111.2731390780845
 20
-156.6329887846265
 10
111.2731390780845
 20
-156.6329887846265
 10
111.2776177022153
 20
-156.5695990276979
 10
111.2817518167976
 20
-156.5168890667736
 10
111.2838188740888
 20
-156.4617675390096
 10
111.2858859313799
 20
-156.3391221397347
 10
111.2879529886711
 20
-156.3239637195996
 10
111.2879529886711
 20
-156.2798664973884
 10
111.2879529886711
 20
-156.2798664973884
 10
111.2879529886711
 20
-155.958094579066
 10
111.2879529886711
 20
-155.958094579066
 10
111.2879529886711
 20
-155.902973051302
 10
111.2752061353757
 20
-155.6642279341742
 10
111.2731390780845
 20
-155.6135850305411
 10
111.2731390780845
 20
-155.6135850305411
 10
111.4743326544231
 20
-155.6411457944231
 10
111.4743326544231
 20
-155.6411457944231
 10
111.4953477368831
 20
-155.6432128517142
 10
111.5270426153474
 20
-155.6473469662965
 10
111.5270426153474
 20
-155.6728406728874
 10
111.5270426153474
 20
-155.7000569272208
 10
111.4763997117142
 20
-155.7210720096809
 10
111.4550401197057
 20
-155.729684748394
 97
        0
 97
        0
 92
        1
 93
        1
 72
     4
 94
        3
 73
     0
 74
     1
 95
       83
 96
       79
 40
0.0
 40
0.0
 40
0.0
 40
0.0
 40
1.0
 40
1.0
 40
1.0
 40
2.0
 40
2.0
 40
2.0
 40
3.0
 40
3.0
 40
3.0
 40
4.0
 40
4.0
 40
4.0
 40
5.0
 40
5.0
 40
5.0
 40
6.0
 40
6.0
 40
6.0
 40
7.0
 40
7.0
 40
7.0
 40
8.0
 40
8.0
 40
8.0
 40
9.0
 40
9.0
 40
9.0
 40
10.0
 40
10.0
 40
10.0
 40
11.0
 40
11.0
 40
11.0
 40
12.0
 40
12.0
 40
12.0
 40
13.0
 40
13.0
 40
13.0
 40
14.0
 40
14.0
 40
14.0
 40
15.0
 40
15.0
 40
15.0
 40
16.0
 40
16.0
 40
16.0
 40
17.0
 40
17.0
 40
17.0
 40
18.0
 40
18.0
 40
18.0
 40
19.0
 40
19.0
 40
19.0
 40
20.0
 40
20.0
 40
20.0
 40
21.0
 40
21.0
 40
21.0
 40
22.0
 40
22.0
 40
22.0
 40
23.0
 40
23.0
 40
23.0
 40
24.0
 40
24.0
 40
24.0
 40
25.0
 40
25.0
 40
25.0
 40
26.0
 40
26.0
 40
26.0
 40
26.0
 10
112.2570583486718
 20
-156.0511121571678
 10
112.2570583486718
 20
-156.0511121571678
 10
112.1595621464393
 20
-156.0511121571678
 10
112.1595621464393
 20
-156.0511121571678
 10
112.1595621464393
 20
-156.0511121571678
 10
112.1595621464393
 20
-156.2988145225573
 10
112.1595621464393
 20
-156.2988145225573
 10
112.1595621464393
 20
-156.2988145225573
 10
112.2422444380853
 20
-156.2988145225573
 10
112.2422444380853
 20
-156.2988145225573
 10
112.307701252305
 20
-156.2988145225573
 10
112.4472276194576
 20
-156.2943358984264
 10
112.5467908789814
 20
-156.2860676692618
 10
112.5467908789814
 20
-156.2860676692618
 10
112.5467908789814
 20
-156.4659016535919
 10
112.5467908789814
 20
-156.4659016535919
 10
112.4537733008796
 20
-156.4576334244273
 10
112.3035671377227
 20
-156.453499309845
 10
112.2422444380853
 20
-156.453499309845
 10
112.2422444380853
 20
-156.453499309845
 10
111.9373534876407
 20
-156.453499309845
 10
111.9373534876407
 20
-156.453499309845
 10
111.8846435267163
 20
-156.453499309845
 10
111.7385714781418
 20
-156.4576334244273
 10
111.6328070467446
 20
-156.4659016535919
 10
111.6328070467446
 20
-156.4659016535919
 10
111.6328070467446
 20
-156.2860676692618
 10
111.6328070467446
 20
-156.2860676692618
 10
111.7323703062683
 20
-156.2943358984264
 10
111.8718966734209
 20
-156.2988145225573
 10
111.9373534876407
 20
-156.2988145225573
 10
111.9373534876407
 20
-156.2988145225573
 10
111.9817952194004
 20
-156.2988145225573
 10
111.9817952194004
 20
-156.2988145225573
 10
111.9817952194004
 20
-156.2988145225573
 10
111.9817952194004
 20
-156.0511121571678
 10
111.9817952194004
 20
-156.0511121571678
 10
111.9817952194004
 20
-156.0511121571678
 10
111.908070176016
 20
-156.0511121571678
 10
111.908070176016
 20
-156.0511121571678
 10
111.8464029668301
 20
-156.0511121571678
 10
111.6793158357954
 20
-156.0555907812986
 10
111.5587374938117
 20
-156.0642035200117
 10
111.5587374938117
 20
-156.0642035200117
 10
111.5587374938117
 20
-155.8864365929728
 10
111.5587374938117
 20
-155.8864365929728
 10
111.673114663922
 20
-155.8926377648463
 10
111.8315890562435
 20
-155.8967718794286
 10
111.908070176016
 20
-155.8967718794286
 10
111.908070176016
 20
-155.8967718794286
 10
111.9797281621092
 20
-155.8967718794286
 10
111.9797281621092
 20
-155.8967718794286
 10
111.9755940475269
 20
-155.7444986589805
 10
111.9735269902358
 20
-155.7107367232251
 10
111.9669813088138
 20
-155.6177191451233
 10
111.9669813088138
 20
-155.6177191451233
 10
112.1788546811567
 20
-155.6411457944231
 10
112.1788546811567
 20
-155.6411457944231
 10
112.204003878199
 20
-155.6432128517142
 10
112.2274305274987
 20
-155.6473469662965
 10
112.2274305274987
 20
-155.6704291060477
 10
112.2274305274987
 20
-155.7024684940605
 10
112.182988795739
 20
-155.7190049523897
 10
112.1595621464393
 20
-155.7276176911028
 10
112.1595621464393
 20
-155.7276176911028
 10
112.1595621464393
 20
-155.8967718794286
 10
112.1595621464393
 20
-155.8967718794286
 10
112.1595621464393
 20
-155.8967718794286
 10
112.2570583486718
 20
-155.8967718794286
 10
112.2570583486718
 20
-155.8967718794286
 10
112.3331949588959
 20
-155.8967718794286
 10
112.4916693512174
 20
-155.8926377648463
 10
112.6081135786188
 20
-155.8864365929728
 10
112.6081135786188
 20
-155.8864365929728
 10
112.6081135786188
 20
-156.0642035200117
 10
112.6081135786188
 20
-156.0642035200117
 10
112.5002820899305
 20
-156.0576578385898
 10
112.3266492774739
 20
-156.0511121571678
 10
112.2570583486718
 20
-156.0511121571678
 97
        0
 97
        0
 92
        1
 93
        1
 72
     4
 94
        3
 73
     0
 74
     1
 95
       17
 96
       13
 40
0.0
 40
0.0
 40
0.0
 40
0.0
 40
1.0
 40
1.0
 40
1.0
 40
2.0
 40
2.0
 40
2.0
 40
3.0
 40
3.0
 40
3.0
 40
4.0
 40
4.0
 40
4.0
 40
4.0
 10
112.0114230405735
 20
-156.8489962715516
 10
112.0114230405735
 20
-156.8489962715516
 10
111.8085069164923
 20
-156.8489962715516
 10
111.8085069164923
 20
-156.8489962715516
 10
111.8360676803743
 20
-156.9082519138979
 10
111.8908446985898
 20
-156.9799098999911
 10
111.9184054624718
 20
-157.0095377211643
 10
111.9459662263538
 20
-156.9950683201263
 10
112.0603433964641
 20
-156.9313340536491
 10
112.1512939172747
 20
-156.8489962715516
 10
112.1512939172747
 20
-156.8489962715516
 10
112.0114230405735
 20
-156.8489962715516
 10
112.0114230405735
 20
-156.8489962715516
 97
        0
 97
        0
 75
     2
 76
     1
 98
        0
  0
SPLINE
  5
137
330
124
100
AcDbEntity
  8
_U+30EC_U+30A4_U+30E4_U+30FC 1
370
     0
100
AcDbSpline
210
0.0
220
0.0
230
1.0
 70
    11
 71
     3
 72
    77
 73
    73
 74
     0
 42
0.0000000001
 43
0.0000000001
 12
1.0
 22
0.0
 32
0.0
 13
1.0
 23
0.0
 33
0.0
 40
0.0
 40
0.0
 40
0.0
 40
0.0
 40
1.0
 40
1.0
 40
1.0
 40
2.0
 40
2.0
 40
2.0
 40
3.0
 40
3.0
 40
3.0
 40
4.0
 40
4.0
 40
4.0
 40
5.0
 40
5.0
 40
5.0
 40
6.0
 40
6.0
 40
6.0
 40
7.0
 40
7.0
 40
7.0
 40
8.0
 40
8.0
 40
8.0
 40
9.0
 40
9.0
 40
9.0
 40
10.0
 40
10.0
 40
10.0
 40
11.0
 40
11.0
 40
11.0
 40
12.0
 40
12.0
 40
12.0
 40
13.0
 40
13.0
 40
13.0
 40
14.0
 40
14.0
 40
14.0
 40
15.0
 40
15.0
 40
15.0
 40
16.0
 40
16.0
 40
16.0
 40
17.0
 40
17.0
 40
17.0
 40
18.0
 40
18.0
 40
18.0
 40
19.0
 40
19.0
 40
19.0
 40
20.0
 40
20.0
 40
20.0
 40
21.0
 40
21.0
 40
21.0
 40
22.0
 40
22.0
 40
22.0
 40
23.0
 40
23.0
 40
23.0
 40
24.0
 40
24.0
 40
24.0
 40
24.0
 10
114.5025715859577
 20
-157.4794487453524
 30
0.0
 10
114.4560627969068
 20
-157.5045979423947
 30
0.0
 10
114.3313503403408
 20
-157.5173447956901
 30
0.0
 10
114.2528021632771
 20
-157.5173447956901
 30
0.0
 10
114.2403998195302
 20
-157.5173447956901
 30
0.0
 10
114.2149061129393
 20
-157.5173447956901
 30
0.0
 10
114.1811441771839
 20
-157.5132106811078
 30
0.0
 10
114.1811441771839
 20
-157.5132106811078
 30
0.0
 10
114.0836479749513
 20
-157.2865233981784
 30
0.0
 10
114.0836479749513
 20
-157.2865233981784
 30
0.0
 10
114.1132757961245
 20
-157.2930690796003
 30
0.0
 10
114.1704643811796
 20
-157.3016818183135
 30
0.0
 10
114.2869086085811
 20
-157.3016818183135
 30
0.0
 10
114.3651122760962
 20
-157.3016818183135
 30
0.0
 10
114.3671793333874
 20
-157.2593071438449
 30
0.0
 10
114.3671793333874
 20
-157.2021185587897
 30
0.0
 10
114.3671793333874
 20
-157.2021185587897
 30
0.0
 10
114.3671793333874
 20
-156.853130386134
 30
0.0
 10
114.3671793333874
 20
-156.853130386134
 30
0.0
 10
114.3671793333874
 20
-156.853130386134
 30
0.0
 10
113.9079481052036
 20
-156.853130386134
 30
0.0
 10
113.9079481052036
 20
-156.853130386134
 30
0.0
 10
113.9103596720432
 20
-156.9905896959954
 30
0.0
 10
113.9124267293344
 20
-157.1893717054943
 30
0.0
 10
113.9186279012078
 20
-157.3226969007735
 30
0.0
 10
113.920694958499
 20
-157.3502576646555
 30
0.0
 10
113.920694958499
 20
-157.3946993964152
 30
0.0
 10
113.9334418117944
 20
-157.4560220960527
 30
0.0
 10
113.9334418117944
 20
-157.4560220960527
 30
0.0
 10
113.6922851278269
 20
-157.4560220960527
 30
0.0
 10
113.6922851278269
 20
-157.4560220960527
 30
0.0
 10
113.7177788344178
 20
-157.3313096394866
 30
0.0
 10
113.7177788344178
 20
-156.9905896959954
 30
0.0
 10
113.7177788344178
 20
-156.853130386134
 30
0.0
 10
113.7177788344178
 20
-156.853130386134
 30
0.0
 10
113.2754285741117
 20
-156.853130386134
 30
0.0
 10
113.2754285741117
 20
-156.853130386134
 30
0.0
 10
113.2523464343605
 20
-157.060525134346
 30
0.0
 10
113.1868896201408
 20
-157.3292425821955
 30
0.0
 10
112.9898301583845
 20
-157.5132106811078
 30
0.0
 10
112.9898301583845
 20
-157.5132106811078
 30
0.0
 10
112.8017279448898
 20
-157.3905652818329
 30
0.0
 10
112.8017279448898
 20
-157.3905652818329
 30
0.0
 10
113.0556314821528
 20
-157.1704236803255
 30
0.0
 10
113.0873263606171
 20
-156.8383164755474
 30
0.0
 10
113.0873263606171
 20
-156.5062092707693
 30
0.0
 10
113.0873263606171
 20
-156.5062092707693
 30
0.0
 10
113.0873263606171
 20
-156.0704046918852
 30
0.0
 10
113.0873263606171
 20
-156.0704046918852
 30
0.0
 10
113.0873263606171
 20
-156.0345756988386
 30
0.0
 10
113.0852593033259
 20
-155.8016872440357
 30
0.0
 10
113.0766465646128
 20
-155.7000569272208
 30
0.0
 10
113.2165174413139
 20
-155.7107367232251
 30
0.0
 10
113.4576741252814
 20
-155.7107367232251
 30
0.0
 10
113.6013346070163
 20
-155.7107367232251
 30
0.0
 10
113.6013346070163
 20
-155.7107367232251
 30
0.0
 10
114.0605658352001
 20
-155.7107367232251
 30
0.0
 10
114.0605658352001
 20
-155.7107367232251
 30
0.0
 10
114.0753797457867
 20
-155.7107367232251
 30
0.0
 10
114.4243679184425
 20
-155.7107367232251
 30
0.0
 10
114.582842310764
 20
-155.7000569272208
 30
0.0
 10
114.5807752534729
 20
-155.7527668881451
 30
0.0
 10
114.5745740815994
 20
-155.9139973568548
 30
0.0
 10
114.5745740815994
 20
-155.964640260488
 30
0.0
 10
114.5745740815994
 20
-155.964640260488
 30
0.0
 10
114.5745740815994
 20
-156.571666084989
 30
0.0
 10
114.5745740815994
 20
-156.571666084989
 30
0.0
 10
114.5745740815994
 20
-156.5906141101579
 30
0.0
 10
114.5849093680552
 20
-157.1618109416123
 30
0.0
 10
114.5849093680552
 20
-157.2741210544315
 30
0.0
 10
114.5849093680552
 20
-157.3313096394866
 30
0.0
 10
114.5849093680552
 20
-157.432595446753
 30
0.0
 10
114.5025715859577
 20
-157.4794487453524
 30
0.0
  0
POLYLINE
  5
138
330
124
100
AcDbEntity
  8
_U+30EC_U+30A4_U+30E4_U+30FC 1
370
     0
100
AcDb2dPolyline
 66
     1
 10
0.0
 20
0.0
 30
0.0
  0
VERTEX
  5
139
330
138
100
AcDbEntity
  8
_U+30EC_U+30A4_U+30E4_U+30FC 1
370
     0
100
AcDbVertex
100
AcDb2dVertex
 10
113.7177788344178
 20
-155.8926377648463
 30
0.0
  0
VERTEX
  5
13A
330
138
100
AcDbEntity
  8
_U+30EC_U+30A4_U+30E4_U+30FC 1
370
     0
100
AcDbVertex
100
AcDb2dVertex
 10
113.2799071982425
 20
-155.8926377648463
 30
0.0
  0
VERTEX
  5
13B
330
138
100
AcDbEntity
  8
_U+30EC_U+30A4_U+30E4_U+30FC 1
370
     0
100
AcDbVertex
100
AcDb2dVertex
 10
113.2799071982425
 20
-156.1971842057424
 30
0.0
  0
VERTEX
  5
13C
330
138
100
AcDbEntity
  8
_U+30EC_U+30A4_U+30E4_U+30FC 1
370
     0
100
AcDbVertex
100
AcDb2dVertex
 10
113.7177788344178
 20
-156.1971842057424
 30
0.0
  0
VERTEX
  5
13D
330
138
100
AcDbEntity
  8
_U+30EC_U+30A4_U+30E4_U+30FC 1
370
     0
100
AcDbVertex
100
AcDb2dVertex
 10
113.7177788344178
 20
-155.8926377648463
 30
0.0
  0
SEQEND
  5
13E
330
138
100
AcDbEntity
  8
_U+30EC_U+30A4_U+30E4_U+30FC 1
370
     0
  0
POLYLINE
  5
13F
330
124
100
AcDbEntity
  8
_U+30EC_U+30A4_U+30E4_U+30FC 1
370
     0
100
AcDb2dPolyline
 66
     1
 10
0.0
 20
0.0
 30
0.0
  0
VERTEX
  5
140
330
13F
100
AcDbEntity
  8
_U+30EC_U+30A4_U+30E4_U+30FC 1
370
     0
100
AcDbVertex
100
AcDb2dVertex
 10
113.7177788344178
 20
-156.3646158463255
 30
0.0
  0
VERTEX
  5
141
330
13F
100
AcDbEntity
  8
_U+30EC_U+30A4_U+30E4_U+30FC 1
370
     0
100
AcDbVertex
100
AcDb2dVertex
 10
113.2799071982425
 20
-156.3646158463255
 30
0.0
  0
VERTEX
  5
142
330
13F
100
AcDbEntity
  8
_U+30EC_U+30A4_U+30E4_U+30FC 1
370
     0
100
AcDbVertex
100
AcDb2dVertex
 10
113.2799071982425
 20
-156.6732964018039
 30
0.0
  0
VERTEX
  5
143
330
13F
100
AcDbEntity
  8
_U+30EC_U+30A4_U+30E4_U+30FC 1
370
     0
100
AcDbVertex
100
AcDb2dVertex
 10
113.7177788344178
 20
-156.6732964018039
 30
0.0
  0
VERTEX
  5
144
330
13F
100
AcDbEntity
  8
_U+30EC_U+30A4_U+30E4_U+30FC 1
370
     0
100
AcDbVertex
100
AcDb2dVertex
 10
113.7177788344178
 20
-156.3646158463255
 30
0.0
  0
SEQEND
  5
145
330
13F
100
AcDbEntity
  8
_U+30EC_U+30A4_U+30E4_U+30FC 1
370
     0
  0
POLYLINE
  5
146
330
124
100
AcDbEntity
  8
_U+30EC_U+30A4_U+30E4_U+30FC 1
370
     0
100
AcDb2dPolyline
 66
     1
 10
0.0
 20
0.0
 30
0.0
  0
VERTEX
  5
147
330
146
100
AcDbEntity
  8
_U+30EC_U+30A4_U+30E4_U+30FC 1
370
     0
100
AcDbVertex
100
AcDb2dVertex
 10
114.3671793333874
 20
-155.8926377648463
 30
0.0
  0
VERTEX
  5
148
330
146
100
AcDbEntity
  8
_U+30EC_U+30A4_U+30E4_U+30FC 1
370
     0
100
AcDbVertex
100
AcDb2dVertex
 10
113.9079481052036
 20
-155.8926377648463
 30
0.0
  0
VERTEX
  5
149
330
146
100
AcDbEntity
  8
_U+30EC_U+30A4_U+30E4_U+30FC 1
370
     0
100
AcDbVertex
100
AcDb2dVertex
 10
113.9079481052036
 20
-156.1971842057424
 30
0.0
  0
VERTEX
  5
14A
330
146
100
AcDbEntity
  8
_U+30EC_U+30A4_U+30E4_U+30FC 1
370
     0
100
AcDbVertex
100
AcDb2dVertex
 10
114.3671793333874
 20
-156.1971842057424
 30
0.0
  0
VERTEX
  5
14B
330
146
100
AcDbEntity
  8
_U+30EC_U+30A4_U+30E4_U+30FC 1
370
     0
100
AcDbVertex
100
AcDb2dVertex
 10
114.3671793333874
 20
-155.8926377648463
 30
0.0
  0
SEQEND
  5
14C
330
146
100
AcDbEntity
  8
_U+30EC_U+30A4_U+30E4_U+30FC 1
370
     0
  0
POLYLINE
  5
14D
330
124
100
AcDbEntity
  8
_U+30EC_U+30A4_U+30E4_U+30FC 1
370
     0
100
AcDb2dPolyline
 66
     1
 10
0.0
 20
0.0
 30
0.0
  0
VERTEX
  5
14E
330
14D
100
AcDbEntity
  8
_U+30EC_U+30A4_U+30E4_U+30FC 1
370
     0
100
AcDbVertex
100
AcDb2dVertex
 10
114.3671793333874
 20
-156.3646158463255
 30
0.0
  0
VERTEX
  5
14F
330
14D
100
AcDbEntity
  8
_U+30EC_U+30A4_U+30E4_U+30FC 1
370
     0
100
AcDbVertex
100
AcDb2dVertex
 10
113.9079481052036
 20
-156.3646158463255
 30
0.0
  0
VERTEX
  5
150
330
14D
100
AcDbEntity
  8
_U+30EC_U+30A4_U+30E4_U+30FC 1
370
     0
100
AcDbVertex
100
AcDb2dVertex
 10
113.9079481052036
 20
-156.6732964018039
 30
0.0
  0
VERTEX
  5
151
330
14D
100
AcDbEntity
  8
_U+30EC_U+30A4_U+30E4_U+30FC 1
370
     0
100
AcDbVertex
100
AcDb2dVertex
 10
114.3671793333874
 20
-156.6732964018039
 30
0.0
  0
VERTEX
  5
152
330
14D
100
AcDbEntity
  8
_U+30EC_U+30A4_U+30E4_U+30FC 1
370
     0
100
AcDbVertex
100
AcDb2dVertex
 10
114.3671793333874
 20
-156.3646158463255
 30
0.0
  0
SEQEND
  5
153
330
14D
100
AcDbEntity
  8
_U+30EC_U+30A4_U+30E4_U+30FC 1
370
     0
  0
HATCH
  5
154
330
124
100
AcDbEntity
  8
_U+30EC_U+30A4_U+30E4_U+30FC 1
 62
     7
420
 16777215
100
AcDbHatch
 10
0.0
 20
0.0
 30
0.0
210
0.0
220
0.0
230
1.0
  2
SOLID
 70
     1
 71
     0
 91
        5
 92
        1
 93
        1
 72
     4
 94
        3
 73
     0
 74
     1
 95
       77
 96
       73
 40
0.0
 40
0.0
 40
0.0
 40
0.0
 40
1.0
 40
1.0
 40
1.0
 40
2.0
 40
2.0
 40
2.0
 40
3.0
 40
3.0
 40
3.0
 40
4.0
 40
4.0
 40
4.0
 40
5.0
 40
5.0
 40
5.0
 40
6.0
 40
6.0
 40
6.0
 40
7.0
 40
7.0
 40
7.0
 40
8.0
 40
8.0
 40
8.0
 40
9.0
 40
9.0
 40
9.0
 40
10.0
 40
10.0
 40
10.0
 40
11.0
 40
11.0
 40
11.0
 40
12.0
 40
12.0
 40
12.0
 40
13.0
 40
13.0
 40
13.0
 40
14.0
 40
14.0
 40
14.0
 40
15.0
 40
15.0
 40
15.0
 40
16.0
 40
16.0
 40
16.0
 40
17.0
 40
17.0
 40
17.0
 40
18.0
 40
18.0
 40
18.0
 40
19.0
 40
19.0
 40
19.0
 40
20.0
 40
20.0
 40
20.0
 40
21.0
 40
21.0
 40
21.0
 40
22.0
 40
22.0
 40
22.0
 40
23.0
 40
23.0
 40
23.0
 40
24.0
 40
24.0
 40
24.0
 40
24.0
 10
114.5025715859577
 20
-157.4794487453524
 10
114.4560627969068
 20
-157.5045979423947
 10
114.3313503403408
 20
-157.5173447956901
 10
114.2528021632771
 20
-157.5173447956901
 10
114.2403998195302
 20
-157.5173447956901
 10
114.2149061129393
 20
-157.5173447956901
 10
114.1811441771839
 20
-157.5132106811078
 10
114.1811441771839
 20
-157.5132106811078
 10
114.0836479749513
 20
-157.2865233981784
 10
114.0836479749513
 20
-157.2865233981784
 10
114.1132757961245
 20
-157.2930690796003
 10
114.1704643811796
 20
-157.3016818183135
 10
114.2869086085811
 20
-157.3016818183135
 10
114.3651122760962
 20
-157.3016818183135
 10
114.3671793333874
 20
-157.2593071438449
 10
114.3671793333874
 20
-157.2021185587897
 10
114.3671793333874
 20
-157.2021185587897
 10
114.3671793333874
 20
-156.853130386134
 10
114.3671793333874
 20
-156.853130386134
 10
114.3671793333874
 20
-156.853130386134
 10
113.9079481052036
 20
-156.853130386134
 10
113.9079481052036
 20
-156.853130386134
 10
113.9103596720432
 20
-156.9905896959954
 10
113.9124267293344
 20
-157.1893717054943
 10
113.9186279012078
 20
-157.3226969007735
 10
113.920694958499
 20
-157.3502576646555
 10
113.920694958499
 20
-157.3946993964152
 10
113.9334418117944
 20
-157.4560220960527
 10
113.9334418117944
 20
-157.4560220960527
 10
113.6922851278269
 20
-157.4560220960527
 10
113.6922851278269
 20
-157.4560220960527
 10
113.7177788344178
 20
-157.3313096394866
 10
113.7177788344178
 20
-156.9905896959954
 10
113.7177788344178
 20
-156.853130386134
 10
113.7177788344178
 20
-156.853130386134
 10
113.2754285741117
 20
-156.853130386134
 10
113.2754285741117
 20
-156.853130386134
 10
113.2523464343605
 20
-157.060525134346
 10
113.1868896201408
 20
-157.3292425821955
 10
112.9898301583845
 20
-157.5132106811078
 10
112.9898301583845
 20
-157.5132106811078
 10
112.8017279448898
 20
-157.3905652818329
 10
112.8017279448898
 20
-157.3905652818329
 10
113.0556314821528
 20
-157.1704236803255
 10
113.0873263606171
 20
-156.8383164755474
 10
113.0873263606171
 20
-156.5062092707693
 10
113.0873263606171
 20
-156.5062092707693
 10
113.0873263606171
 20
-156.0704046918852
 10
113.0873263606171
 20
-156.0704046918852
 10
113.0873263606171
 20
-156.0345756988386
 10
113.0852593033259
 20
-155.8016872440357
 10
113.0766465646128
 20
-155.7000569272208
 10
113.2165174413139
 20
-155.7107367232251
 10
113.4576741252814
 20
-155.7107367232251
 10
113.6013346070163
 20
-155.7107367232251
 10
113.6013346070163
 20
-155.7107367232251
 10
114.0605658352001
 20
-155.7107367232251
 10
114.0605658352001
 20
-155.7107367232251
 10
114.0753797457867
 20
-155.7107367232251
 10
114.4243679184425
 20
-155.7107367232251
 10
114.582842310764
 20
-155.7000569272208
 10
114.5807752534729
 20
-155.7527668881451
 10
114.5745740815994
 20
-155.9139973568548
 10
114.5745740815994
 20
-155.964640260488
 10
114.5745740815994
 20
-155.964640260488
 10
114.5745740815994
 20
-156.571666084989
 10
114.5745740815994
 20
-156.571666084989
 10
114.5745740815994
 20
-156.5906141101579
 10
114.5849093680552
 20
-157.1618109416123
 10
114.5849093680552
 20
-157.2741210544315
 10
114.5849093680552
 20
-157.3313096394866
 10
114.5849093680552
 20
-157.432595446753
 10
114.5025715859577
 20
-157.4794487453524
 97
        0
 97
        0
 92
        1
 93
        4
 72
     1
 10
113.7177788344178
 20
-155.8926377648463
 11
113.2799071982425
 21
-155.8926377648463
 72
     1
 10
113.2799071982425
 20
-155.8926377648463
 11
113.2799071982425
 21
-156.1971842057424
 72
     1
 10
113.2799071982425
 20
-156.1971842057424
 11
113.7177788344178
 21
-156.1971842057424
 72
     1
 10
113.7177788344178
 20
-156.1971842057424
 11
113.7177788344178
 21
-155.8926377648463
 97
        0
 92
        1
 93
        4
 72
     1
 10
113.7177788344178
 20
-156.3646158463255
 11
113.2799071982425
 21
-156.3646158463255
 72
     1
 10
113.2799071982425
 20
-156.3646158463255
 11
113.2799071982425
 21
-156.6732964018039
 72
     1
 10
113.2799071982425
 20
-156.6732964018039
 11
113.7177788344178
 21
-156.6732964018039
 72
     1
 10
113.7177788344178
 20
-156.6732964018039
 11
113.7177788344178
 21
-156.3646158463255
 97
        0
 92
        1
 93
        4
 72
     1
 10
114.3671793333874
 20
-155.8926377648463
 11
113.9079481052036
 21
-155.8926377648463
 72
     1
 10
113.9079481052036
 20
-155.8926377648463
 11
113.9079481052036
 21
-156.1971842057424
 72
     1
 10
113.9079481052036
 20
-156.1971842057424
 11
114.3671793333874
 21
-156.1971842057424
 72
     1
 10
114.3671793333874
 20
-156.1971842057424
 11
114.3671793333874
 21
-155.8926377648463
 97
        0
 92
        1
 93
        4
 72
     1
 10
114.3671793333874
 20
-156.3646158463255
 11
113.9079481052036
 21
-156.3646158463255
 72
     1
 10
113.9079481052036
 20
-156.3646158463255
 11
113.9079481052036
 21
-156.6732964018039
 72
     1
 10
113.9079481052036
 20
-156.6732964018039
 11
114.3671793333874
 21
-156.6732964018039
 72
     1
 10
114.3671793333874
 20
-156.6732964018039
 11
114.3671793333874
 21
-156.3646158463255
 97
        0
 75
     2
 76
     1
 98
        0
  0
SPLINE
  5
155
330
124
100
AcDbEntity
  8
_U+30EC_U+30A4_U+30E4_U+30FC 1
370
     0
100
AcDbSpline
210
0.0
220
0.0
230
1.0
 70
    11
 71
     3
 72
    44
 73
    40
 74
     0
 42
0.0000000001
 43
0.0000000001
 12
1.0
 22
0.0
 32
0.0
 13
1.0
 23
0.0
 33
0.0
 40
0.0
 40
0.0
 40
0.0
 40
0.0
 40
1.0
 40
1.0
 40
1.0
 40
2.0
 40
2.0
 40
2.0
 40
3.0
 40
3.0
 40
3.0
 40
4.0
 40
4.0
 40
4.0
 40
5.0
 40
5.0
 40
5.0
 40
6.0
 40
6.0
 40
6.0
 40
7.0
 40
7.0
 40
7.0
 40
8.0
 40
8.0
 40
8.0
 40
9.0
 40
9.0
 40
9.0
 40
10.0
 40
10.0
 40
10.0
 40
11.0
 40
11.0
 40
11.0
 40
12.0
 40
12.0
 40
12.0
 40
13.0
 40
13.0
 40
13.0
 40
13.0
 10
110.0511637094664
 20
-158.7692924950299
 30
0.0
 10
109.9391981061958
 20
-159.1372286928546
 30
0.0
 10
109.8885552025626
 20
-159.2957030851761
 30
0.0
 10
109.6918402503548
 20
-159.5454725078567
 30
0.0
 10
109.507527641894
 20
-159.7759493958199
 30
0.0
 10
109.2708495820573
 20
-159.9619845520234
 30
0.0
 10
108.9914523382035
 20
-160.0553466396737
 30
0.0
 10
108.9914523382035
 20
-160.0553466396737
 30
0.0
 10
108.7988715005781
 20
-159.8755126553436
 30
0.0
 10
108.7988715005781
 20
-159.8755126553436
 30
0.0
 10
109.4400037703831
 20
-159.7232394348956
 30
0.0
 10
109.77004391787
 20
-159.1668565140277
 30
0.0
 10
109.8334336747986
 20
-158.7265733110128
 30
0.0
 10
109.8334336747986
 20
-158.7265733110128
 30
0.0
 10
109.0675889484276
 20
-158.7265733110128
 30
0.0
 10
109.0675889484276
 20
-158.7265733110128
 30
0.0
 10
108.9745713703258
 20
-158.7265733110128
 30
0.0
 10
108.7906032714135
 20
-158.7310519351436
 30
0.0
 10
108.6338514268346
 20
-158.7499999603125
 30
0.0
 10
108.6338514268346
 20
-158.7499999603125
 30
0.0
 10
108.6338514268346
 20
-158.5302028683536
 30
0.0
 10
108.6338514268346
 20
-158.5302028683536
 30
0.0
 10
108.7206678330629
 20
-158.5512179508136
 30
0.0
 10
108.9725043130347
 20
-158.5512179508136
 30
0.0
 10
109.0717230630099
 20
-158.5512179508136
 30
0.0
 10
109.0717230630099
 20
-158.5512179508136
 30
0.0
 10
109.5033935273117
 20
-158.5512179508136
 30
0.0
 10
109.5033935273117
 20
-158.5512179508136
 30
0.0
 10
109.5457682017802
 20
-158.5512179508136
 30
0.0
 10
109.7803792043257
 20
-158.5488063839739
 30
0.0
 10
109.818619764212
 20
-158.5426052121005
 30
0.0
 10
109.8609944386806
 20
-158.536404040227
 30
0.0
 10
109.8630614959717
 20
-158.5343369829359
 30
0.0
 10
109.9243841956092
 20
-158.4940293657585
 30
0.0
 10
109.9243841956092
 20
-158.4940293657585
 30
0.0
 10
110.1124864091038
 20
-158.6487141530462
 30
0.0
 10
110.1124864091038
 20
-158.6487141530462
 30
0.0
 10
110.0832030974792
 20
-158.6783419742193
 30
0.0
 10
110.0683891868926
 20
-158.7100368526836
 30
0.0
 10
110.0511637094664
 20
-158.7692924950299
 30
0.0
  0
SPLINE
  5
156
330
124
100
AcDbEntity
  8
_U+30EC_U+30A4_U+30E4_U+30FC 1
370
     0
100
AcDbSpline
210
0.0
220
0.0
230
1.0
 70
    11
 71
     3
 72
    17
 73
    13
 74
     0
 42
0.0000000001
 43
0.0000000001
 12
1.0
 22
0.0
 32
0.0
 13
1.0
 23
0.0
 33
0.0
 40
0.0
 40
0.0
 40
0.0
 40
0.0
 40
1.0
 40
1.0
 40
1.0
 40
2.0
 40
2.0
 40
2.0
 40
3.0
 40
3.0
 40
3.0
 40
4.0
 40
4.0
 40
4.0
 40
4.0
 10
110.2606255149696
 20
-158.5701659759825
 30
0.0
 10
110.1338460011124
 20
-158.5701659759825
 30
0.0
 10
110.0322156842975
 20
-158.4688801687161
 30
0.0
 10
110.0322156842975
 20
-158.3417561453104
 30
0.0
 10
110.0322156842975
 20
-158.2146321219047
 30
0.0
 10
110.1338460011124
 20
-158.1112792573472
 30
0.0
 10
110.2606255149696
 20
-158.1112792573472
 30
0.0
 10
110.3877495383753
 20
-158.1112792573472
 30
0.0
 10
110.4914469124813
 20
-158.2146321219047
 30
0.0
 10
110.4914469124813
 20
-158.3417561453104
 30
0.0
 10
110.4914469124813
 20
-158.4688801687161
 30
0.0
 10
110.3877495383753
 20
-158.5701659759825
 30
0.0
 10
110.2606255149696
 20
-158.5701659759825
 30
0.0
  0
SPLINE
  5
157
330
124
100
AcDbEntity
  8
_U+30EC_U+30A4_U+30E4_U+30FC 1
370
     0
100
AcDbSpline
210
0.0
220
0.0
230
1.0
 70
    11
 71
     3
 72
    17
 73
    13
 74
     0
 42
0.0000000001
 43
0.0000000001
 12
1.0
 22
0.0
 32
0.0
 13
1.0
 23
0.0
 33
0.0
 40
0.0
 40
0.0
 40
0.0
 40
0.0
 40
1.0
 40
1.0
 40
1.0
 40
2.0
 40
2.0
 40
2.0
 40
3.0
 40
3.0
 40
3.0
 40
4.0
 40
4.0
 40
4.0
 40
4.0
 10
110.2585584576784
 20
-158.2401258284955
 30
0.0
 10
110.2037814394629
 20
-158.2401258284955
 30
0.0
 10
110.1593397077032
 20
-158.2845675602553
 30
0.0
 10
110.1593397077032
 20
-158.3396890880192
 30
0.0
 10
110.1593397077032
 20
-158.3965331635259
 30
0.0
 10
110.2037814394629
 20
-158.4454535194164
 30
0.0
 10
110.2626925722607
 20
-158.4454535194164
 30
0.0
 10
110.321948214607
 20
-158.4454535194164
 30
0.0
 10
110.3622558317844
 20
-158.3944661062347
 30
0.0
 10
110.3622558317844
 20
-158.3417561453104
 30
0.0
 10
110.3622558317844
 20
-158.2845675602553
 30
0.0
 10
110.3157470427336
 20
-158.2401258284955
 30
0.0
 10
110.2585584576784
 20
-158.2401258284955
 30
0.0
  0
HATCH
  5
158
330
124
100
AcDbEntity
  8
_U+30EC_U+30A4_U+30E4_U+30FC 1
 62
     7
420
 16777215
100
AcDbHatch
 10
0.0
 20
0.0
 30
0.0
210
0.0
220
0.0
230
1.0
  2
SOLID
 70
     1
 71
     0
 91
        3
 92
        1
 93
        1
 72
     4
 94
        3
 73
     0
 74
     1
 95
       44
 96
       40
 40
0.0
 40
0.0
 40
0.0
 40
0.0
 40
1.0
 40
1.0
 40
1.0
 40
2.0
 40
2.0
 40
2.0
 40
3.0
 40
3.0
 40
3.0
 40
4.0
 40
4.0
 40
4.0
 40
5.0
 40
5.0
 40
5.0
 40
6.0
 40
6.0
 40
6.0
 40
7.0
 40
7.0
 40
7.0
 40
8.0
 40
8.0
 40
8.0
 40
9.0
 40
9.0
 40
9.0
 40
10.0
 40
10.0
 40
10.0
 40
11.0
 40
11.0
 40
11.0
 40
12.0
 40
12.0
 40
12.0
 40
13.0
 40
13.0
 40
13.0
 40
13.0
 10
110.0511637094664
 20
-158.7692924950299
 10
109.9391981061958
 20
-159.1372286928546
 10
109.8885552025626
 20
-159.2957030851761
 10
109.6918402503548
 20
-159.5454725078567
 10
109.507527641894
 20
-159.7759493958199
 10
109.2708495820573
 20
-159.9619845520234
 10
108.9914523382035
 20
-160.0553466396737
 10
108.9914523382035
 20
-160.0553466396737
 10
108.7988715005781
 20
-159.8755126553436
 10
108.7988715005781
 20
-159.8755126553436
 10
109.4400037703831
 20
-159.7232394348956
 10
109.77004391787
 20
-159.1668565140277
 10
109.8334336747986
 20
-158.7265733110128
 10
109.8334336747986
 20
-158.7265733110128
 10
109.0675889484276
 20
-158.7265733110128
 10
109.0675889484276
 20
-158.7265733110128
 10
108.9745713703258
 20
-158.7265733110128
 10
108.7906032714135
 20
-158.7310519351436
 10
108.6338514268346
 20
-158.7499999603125
 10
108.6338514268346
 20
-158.7499999603125
 10
108.6338514268346
 20
-158.5302028683536
 10
108.6338514268346
 20
-158.5302028683536
 10
108.7206678330629
 20
-158.5512179508136
 10
108.9725043130347
 20
-158.5512179508136
 10
109.0717230630099
 20
-158.5512179508136
 10
109.0717230630099
 20
-158.5512179508136
 10
109.5033935273117
 20
-158.5512179508136
 10
109.5033935273117
 20
-158.5512179508136
 10
109.5457682017802
 20
-158.5512179508136
 10
109.7803792043257
 20
-158.5488063839739
 10
109.818619764212
 20
-158.5426052121005
 10
109.8609944386806
 20
-158.536404040227
 10
109.8630614959717
 20
-158.5343369829359
 10
109.9243841956092
 20
-158.4940293657585
 10
109.9243841956092
 20
-158.4940293657585
 10
110.1124864091038
 20
-158.6487141530462
 10
110.1124864091038
 20
-158.6487141530462
 10
110.0832030974792
 20
-158.6783419742193
 10
110.0683891868926
 20
-158.7100368526836
 10
110.0511637094664
 20
-158.7692924950299
 97
        0
 97
        0
 92
        1
 93
        1
 72
     4
 94
        3
 73
     0
 74
     1
 95
       17
 96
       13
 40
0.0
 40
0.0
 40
0.0
 40
0.0
 40
1.0
 40
1.0
 40
1.0
 40
2.0
 40
2.0
 40
2.0
 40
3.0
 40
3.0
 40
3.0
 40
4.0
 40
4.0
 40
4.0
 40
4.0
 10
110.2606255149696
 20
-158.5701659759825
 10
110.1338460011124
 20
-158.5701659759825
 10
110.0322156842975
 20
-158.4688801687161
 10
110.0322156842975
 20
-158.3417561453104
 10
110.0322156842975
 20
-158.2146321219047
 10
110.1338460011124
 20
-158.1112792573472
 10
110.2606255149696
 20
-158.1112792573472
 10
110.3877495383753
 20
-158.1112792573472
 10
110.4914469124813
 20
-158.2146321219047
 10
110.4914469124813
 20
-158.3417561453104
 10
110.4914469124813
 20
-158.4688801687161
 10
110.3877495383753
 20
-158.5701659759825
 10
110.2606255149696
 20
-158.5701659759825
 97
        0
 97
        0
 92
        1
 93
        1
 72
     4
 94
        3
 73
     0
 74
     1
 95
       17
 96
       13
 40
0.0
 40
0.0
 40
0.0
 40
0.0
 40
1.0
 40
1.0
 40
1.0
 40
2.0
 40
2.0
 40
2.0
 40
3.0
 40
3.0
 40
3.0
 40
4.0
 40
4.0
 40
4.0
 40
4.0
 10
110.2585584576784
 20
-158.2401258284955
 10
110.2037814394629
 20
-158.2401258284955
 10
110.1593397077032
 20
-158.2845675602553
 10
110.1593397077032
 20
-158.3396890880192
 10
110.1593397077032
 20
-158.3965331635259
 10
110.2037814394629
 20
-158.4454535194164
 10
110.2626925722607
 20
-158.4454535194164
 10
110.321948214607
 20
-158.4454535194164
 10
110.3622558317844
 20
-158.3944661062347
 10
110.3622558317844
 20
-158.3417561453104
 10
110.3622558317844
 20
-158.2845675602553
 10
110.3157470427336
 20
-158.2401258284955
 10
110.2585584576784
 20
-158.2401258284955
 97
        0
 97
        0
 75
     2
 76
     1
 98
        0
  0
SPLINE
  5
159
330
124
100
AcDbEntity
  8
_U+30EC_U+30A4_U+30E4_U+30FC 1
370
     0
100
AcDbSpline
210
0.0
220
0.0
230
1.0
 70
    11
 71
     3
 72
    50
 73
    46
 74
     0
 42
0.0000000001
 43
0.0000000001
 12
1.0
 22
0.0
 32
0.0
 13
1.0
 23
0.0
 33
0.0
 40
0.0
 40
0.0
 40
0.0
 40
0.0
 40
1.0
 40
1.0
 40
1.0
 40
2.0
 40
2.0
 40
2.0
 40
3.0
 40
3.0
 40
3.0
 40
4.0
 40
4.0
 40
4.0
 40
5.0
 40
5.0
 40
5.0
 40
6.0
 40
6.0
 40
6.0
 40
7.0
 40
7.0
 40
7.0
 40
8.0
 40
8.0
 40
8.0
 40
9.0
 40
9.0
 40
9.0
 40
10.0
 40
10.0
 40
10.0
 40
11.0
 40
11.0
 40
11.0
 40
12.0
 40
12.0
 40
12.0
 40
13.0
 40
13.0
 40
13.0
 40
14.0
 40
14.0
 40
14.0
 40
15.0
 40
15.0
 40
15.0
 40
15.0
 10
112.0558647723333
 20
-159.0779730505083
 30
0.0
 10
111.9773165952696
 20
-159.2557399775472
 30
0.0
 10
111.8419243426992
 20
-159.4631347257592
 30
0.0
 10
111.7044650328378
 20
-159.6026610929118
 30
0.0
 10
111.535310844512
 20
-159.7738823385288
 30
0.0
 10
111.3723578280597
 20
-159.8627658020482
 30
0.0
 10
111.052997476577
 20
-160.0047037360405
 30
0.0
 10
111.052997476577
 20
-160.0047037360405
 30
0.0
 10
110.8838432882513
 20
-159.8162570129973
 30
0.0
 10
110.8838432882513
 20
-159.8162570129973
 30
0.0
 10
111.0698784444548
 20
-159.7931748732462
 30
0.0
 10
111.2410996900717
 20
-159.7063584670178
 30
0.0
 10
111.3937174200682
 20
-159.6002495260722
 30
0.0
 10
111.6558891864958
 20
-159.418348484451
 30
0.0
 10
111.8464029668301
 20
-159.1055338143903
 30
0.0
 10
111.8949788131721
 20
-158.9236327727691
 30
0.0
 10
111.8949788131721
 20
-158.9236327727691
 30
0.0
 10
111.224218722194
 20
-158.9236327727691
 30
0.0
 10
111.224218722194
 20
-158.9236327727691
 30
0.0
 10
111.0657443298725
 20
-158.9236327727691
 30
0.0
 10
110.7736002327233
 20
-158.9319010019337
 30
0.0
 10
110.6213270122752
 20
-158.94912647936
 30
0.0
 10
110.6213270122752
 20
-158.94912647936
 30
0.0
 10
110.6213270122752
 20
-158.7203721391394
 30
0.0
 10
110.6213270122752
 20
-158.7203721391394
 30
0.0
 10
110.6554334575792
 20
-158.7265733110128
 30
0.0
 10
110.6805826546215
 20
-158.7331189924348
 30
0.0
 10
110.7336371250944
 20
-158.7372531070171
 30
0.0
 10
110.8349229323607
 20
-158.7437987884391
 30
0.0
 10
111.031982394117
 20
-158.7458658457302
 30
0.0
 10
111.1163872335056
 20
-158.7458658457302
 30
0.0
 10
111.1163872335056
 20
-158.7458658457302
 30
0.0
 10
111.6221272507403
 20
-158.7458658457302
 30
0.0
 10
111.6221272507403
 20
-158.7458658457302
 30
0.0
 10
111.6896511222512
 20
-158.7458658457302
 30
0.0
 10
111.8357231708258
 20
-158.7417317311479
 30
0.0
 10
111.8970458704632
 20
-158.7351860497259
 30
0.0
 10
111.969048366105
 20
-158.7265733110128
 30
0.0
 10
111.996609129987
 20
-158.7121039099748
 30
0.0
 10
112.0303710657424
 20
-158.6886772606751
 30
0.0
 10
112.0303710657424
 20
-158.6886772606751
 30
0.0
 10
112.1953911394859
 20
-158.8557643917097
 30
0.0
 10
112.1953911394859
 20
-158.8557643917097
 30
0.0
 10
112.1254557011353
 20
-158.9236327727691
 30
0.0
 10
112.0789469120844
 20
-159.0269856373266
 30
0.0
 10
112.0558647723333
 20
-159.0779730505083
 30
0.0
  0
SPLINE
  5
15A
330
124
100
AcDbEntity
  8
_U+30EC_U+30A4_U+30E4_U+30FC 1
370
     0
100
AcDbSpline
210
0.0
220
0.0
230
1.0
 70
    11
 71
     3
 72
    29
 73
    25
 74
     0
 42
0.0000000001
 43
0.0000000001
 12
1.0
 22
0.0
 32
0.0
 13
1.0
 23
0.0
 33
0.0
 40
0.0
 40
0.0
 40
0.0
 40
0.0
 40
1.0
 40
1.0
 40
1.0
 40
2.0
 40
2.0
 40
2.0
 40
3.0
 40
3.0
 40
3.0
 40
4.0
 40
4.0
 40
4.0
 40
5.0
 40
5.0
 40
5.0
 40
6.0
 40
6.0
 40
6.0
 40
7.0
 40
7.0
 40
7.0
 40
8.0
 40
8.0
 40
8.0
 40
8.0
 10
111.562871608394
 20
-158.4516546912899
 30
0.0
 10
111.562871608394
 20
-158.4516546912899
 30
0.0
 10
111.2221516649028
 20
-158.4516546912899
 30
0.0
 10
111.2221516649028
 20
-158.4516546912899
 30
0.0
 10
111.108119004341
 20
-158.4516546912899
 30
0.0
 10
110.9916747769396
 20
-158.4557888058722
 30
0.0
 10
110.8772976068293
 20
-158.4709472260073
 30
0.0
 10
110.8772976068293
 20
-158.4709472260073
 30
0.0
 10
110.8772976068293
 20
-158.2614854205041
 30
0.0
 10
110.8772976068293
 20
-158.2614854205041
 30
0.0
 10
110.9958088915219
 20
-158.2759548215421
 30
0.0
 10
111.1694417039785
 20
-158.2804334456729
 30
0.0
 10
111.2221516649028
 20
-158.2804334456729
 30
0.0
 10
111.2221516649028
 20
-158.2804334456729
 30
0.0
 10
111.562871608394
 20
-158.2804334456729
 30
0.0
 10
111.562871608394
 20
-158.2804334456729
 30
0.0
 10
111.6793158357954
 20
-158.2804334456729
 30
0.0
 10
111.7954155536484
 20
-158.2759548215421
 30
0.0
 10
111.9118597810498
 20
-158.2614854205041
 30
0.0
 10
111.9118597810498
 20
-158.2614854205041
 30
0.0
 10
111.9118597810498
 20
-158.4709472260073
 30
0.0
 10
111.9118597810498
 20
-158.4709472260073
 30
0.0
 10
111.7616536178929
 20
-158.4516546912899
 30
0.0
 10
111.5776855189806
 20
-158.4516546912899
 30
0.0
 10
111.562871608394
 20
-158.4516546912899
 30
0.0
  0
HATCH
  5
15B
330
124
100
AcDbEntity
  8
_U+30EC_U+30A4_U+30E4_U+30FC 1
 62
     7
420
 16777215
100
AcDbHatch
 10
0.0
 20
0.0
 30
0.0
210
0.0
220
0.0
230
1.0
  2
SOLID
 70
     1
 71
     0
 91
        2
 92
        1
 93
        1
 72
     4
 94
        3
 73
     0
 74
     1
 95
       50
 96
       46
 40
0.0
 40
0.0
 40
0.0
 40
0.0
 40
1.0
 40
1.0
 40
1.0
 40
2.0
 40
2.0
 40
2.0
 40
3.0
 40
3.0
 40
3.0
 40
4.0
 40
4.0
 40
4.0
 40
5.0
 40
5.0
 40
5.0
 40
6.0
 40
6.0
 40
6.0
 40
7.0
 40
7.0
 40
7.0
 40
8.0
 40
8.0
 40
8.0
 40
9.0
 40
9.0
 40
9.0
 40
10.0
 40
10.0
 40
10.0
 40
11.0
 40
11.0
 40
11.0
 40
12.0
 40
12.0
 40
12.0
 40
13.0
 40
13.0
 40
13.0
 40
14.0
 40
14.0
 40
14.0
 40
15.0
 40
15.0
 40
15.0
 40
15.0
 10
112.0558647723333
 20
-159.0779730505083
 10
111.9773165952696
 20
-159.2557399775472
 10
111.8419243426992
 20
-159.4631347257592
 10
111.7044650328378
 20
-159.6026610929118
 10
111.535310844512
 20
-159.7738823385288
 10
111.3723578280597
 20
-159.8627658020482
 10
111.052997476577
 20
-160.0047037360405
 10
111.052997476577
 20
-160.0047037360405
 10
110.8838432882513
 20
-159.8162570129973
 10
110.8838432882513
 20
-159.8162570129973
 10
111.0698784444548
 20
-159.7931748732462
 10
111.2410996900717
 20
-159.7063584670178
 10
111.3937174200682
 20
-159.6002495260722
 10
111.6558891864958
 20
-159.418348484451
 10
111.8464029668301
 20
-159.1055338143903
 10
111.8949788131721
 20
-158.9236327727691
 10
111.8949788131721
 20
-158.9236327727691
 10
111.224218722194
 20
-158.9236327727691
 10
111.224218722194
 20
-158.9236327727691
 10
111.0657443298725
 20
-158.9236327727691
 10
110.7736002327233
 20
-158.9319010019337
 10
110.6213270122752
 20
-158.94912647936
 10
110.6213270122752
 20
-158.94912647936
 10
110.6213270122752
 20
-158.7203721391394
 10
110.6213270122752
 20
-158.7203721391394
 10
110.6554334575792
 20
-158.7265733110128
 10
110.6805826546215
 20
-158.7331189924348
 10
110.7336371250944
 20
-158.7372531070171
 10
110.8349229323607
 20
-158.7437987884391
 10
111.031982394117
 20
-158.7458658457302
 10
111.1163872335056
 20
-158.7458658457302
 10
111.1163872335056
 20
-158.7458658457302
 10
111.6221272507403
 20
-158.7458658457302
 10
111.6221272507403
 20
-158.7458658457302
 10
111.6896511222512
 20
-158.7458658457302
 10
111.8357231708258
 20
-158.7417317311479
 10
111.8970458704632
 20
-158.7351860497259
 10
111.969048366105
 20
-158.7265733110128
 10
111.996609129987
 20
-158.7121039099748
 10
112.0303710657424
 20
-158.6886772606751
 10
112.0303710657424
 20
-158.6886772606751
 10
112.1953911394859
 20
-158.8557643917097
 10
112.1953911394859
 20
-158.8557643917097
 10
112.1254557011353
 20
-158.9236327727691
 10
112.0789469120844
 20
-159.0269856373266
 10
112.0558647723333
 20
-159.0779730505083
 97
        0
 97
        0
 92
        1
 93
        1
 72
     4
 94
        3
 73
     0
 74
     1
 95
       29
 96
       25
 40
0.0
 40
0.0
 40
0.0
 40
0.0
 40
1.0
 40
1.0
 40
1.0
 40
2.0
 40
2.0
 40
2.0
 40
3.0
 40
3.0
 40
3.0
 40
4.0
 40
4.0
 40
4.0
 40
5.0
 40
5.0
 40
5.0
 40
6.0
 40
6.0
 40
6.0
 40
7.0
 40
7.0
 40
7.0
 40
8.0
 40
8.0
 40
8.0
 40
8.0
 10
111.562871608394
 20
-158.4516546912899
 10
111.562871608394
 20
-158.4516546912899
 10
111.2221516649028
 20
-158.4516546912899
 10
111.2221516649028
 20
-158.4516546912899
 10
111.108119004341
 20
-158.4516546912899
 10
110.9916747769396
 20
-158.4557888058722
 10
110.8772976068293
 20
-158.4709472260073
 10
110.8772976068293
 20
-158.4709472260073
 10
110.8772976068293
 20
-158.2614854205041
 10
110.8772976068293
 20
-158.2614854205041
 10
110.9958088915219
 20
-158.2759548215421
 10
111.1694417039785
 20
-158.2804334456729
 10
111.2221516649028
 20
-158.2804334456729
 10
111.2221516649028
 20
-158.2804334456729
 10
111.562871608394
 20
-158.2804334456729
 10
111.562871608394
 20
-158.2804334456729
 10
111.6793158357954
 20
-158.2804334456729
 10
111.7954155536484
 20
-158.2759548215421
 10
111.9118597810498
 20
-158.2614854205041
 10
111.9118597810498
 20
-158.2614854205041
 10
111.9118597810498
 20
-158.4709472260073
 10
111.9118597810498
 20
-158.4709472260073
 10
111.7616536178929
 20
-158.4516546912899
 10
111.5776855189806
 20
-158.4516546912899
 10
111.562871608394
 20
-158.4516546912899
 97
        0
 97
        0
 75
     2
 76
     1
 98
        0
  0
SPLINE
  5
15C
330
124
100
AcDbEntity
  8
_U+30EC_U+30A4_U+30E4_U+30FC 1
370
     0
100
AcDbSpline
210
0.0
220
0.0
230
1.0
 70
    11
 71
     3
 72
    50
 73
    46
 74
     0
 42
0.0000000001
 43
0.0000000001
 12
1.0
 22
0.0
 32
0.0
 13
1.0
 23
0.0
 33
0.0
 40
0.0
 40
0.0
 40
0.0
 40
0.0
 40
1.0
 40
1.0
 40
1.0
 40
2.0
 40
2.0
 40
2.0
 40
3.0
 40
3.0
 40
3.0
 40
4.0
 40
4.0
 40
4.0
 40
5.0
 40
5.0
 40
5.0
 40
6.0
 40
6.0
 40
6.0
 40
7.0
 40
7.0
 40
7.0
 40
8.0
 40
8.0
 40
8.0
 40
9.0
 40
9.0
 40
9.0
 40
10.0
 40
10.0
 40
10.0
 40
11.0
 40
11.0
 40
11.0
 40
12.0
 40
12.0
 40
12.0
 40
13.0
 40
13.0
 40
13.0
 40
14.0
 40
14.0
 40
14.0
 40
15.0
 40
15.0
 40
15.0
 40
15.0
 10
113.7660101712113
 20
-158.4371852902518
 30
0.0
 10
113.5565483657081
 20
-158.6507812103373
 30
0.0
 10
113.4848903796149
 20
-158.7224391964305
 30
0.0
 10
113.3429524456226
 20
-158.8409504811231
 30
0.0
 10
113.3429524456226
 20
-158.8409504811231
 30
0.0
 10
113.3429524456226
 20
-159.4080131979952
 30
0.0
 10
113.3429524456226
 20
-159.4080131979952
 30
0.0
 10
113.3429524456226
 20
-159.5582193611521
 30
0.0
 10
113.3494981270446
 20
-159.577167386321
 30
0.0
 10
113.3536322416269
 20
-159.7549343133599
 30
0.0
 10
113.355699298918
 20
-159.8861924513479
 30
0.0
 10
113.3619004707915
 20
-159.9347682976899
 30
0.0
 10
113.3684461522135
 20
-159.9940239400362
 30
0.0
 10
113.3684461522135
 20
-159.9940239400362
 30
0.0
 10
113.1421033788325
 20
-159.9940239400362
 30
0.0
 10
113.1421033788325
 20
-159.9940239400362
 30
0.0
 10
113.1462374934148
 20
-159.9495822082765
 30
0.0
 10
113.1503716079971
 20
-159.9027289096771
 30
0.0
 10
113.1503716079971
 20
-159.8944606805125
 30
0.0
 10
113.1503716079971
 20
-159.8141899557062
 30
0.0
 10
113.154850232128
 20
-159.4631347257592
 30
0.0
 10
113.154850232128
 20
-159.390787720569
 30
0.0
 10
113.154850232128
 20
-159.390787720569
 30
0.0
 10
113.154850232128
 20
-158.9849554724065
 30
0.0
 10
113.154850232128
 20
-158.9849554724065
 30
0.0
 10
112.9729491905068
 20
-159.1096679289726
 30
0.0
 10
112.7783012955902
 20
-159.2199109845006
 30
0.0
 10
112.5750406619604
 20
-159.3063828811804
 30
0.0
 10
112.5750406619604
 20
-159.3063828811804
 30
0.0
 10
112.3721245378792
 20
-159.143429864728
 30
0.0
 10
112.3721245378792
 20
-159.143429864728
 30
0.0
 10
112.4947699371541
 20
-159.1076008716814
 30
0.0
 10
112.7507405317081
 20
-159.0335313187486
 30
0.0
 10
113.0955945897817
 20
-158.7775607241945
 30
0.0
 10
113.3112575671583
 20
-158.619086331873
 30
0.0
 10
113.5038384047838
 20
-158.4306396088298
 30
0.0
 10
113.6561116252318
 20
-158.2104980073224
 30
0.0
 10
113.6561116252318
 20
-158.2104980073224
 30
0.0
 10
113.8486924628573
 20
-158.3545029986058
 30
0.0
 10
113.8486924628573
 20
-158.3545029986058
 30
0.0
 10
113.8614393161527
 20
-158.3648382850616
 30
0.0
 10
113.8697075453173
 20
-158.3799967051967
 30
0.0
 10
113.8697075453173
 20
-158.3923990489436
 30
0.0
 10
113.8697075453173
 20
-158.432706666121
 30
0.0
 10
113.8318114949795
 20
-158.432706666121
 30
0.0
 10
113.7660101712113
 20
-158.4371852902518
 30
0.0
  0
HATCH
  5
15D
330
124
100
AcDbEntity
  8
_U+30EC_U+30A4_U+30E4_U+30FC 1
 62
     7
420
 16777215
100
AcDbHatch
 10
0.0
 20
0.0
 30
0.0
210
0.0
220
0.0
230
1.0
  2
SOLID
 70
     1
 71
     0
 91
        1
 92
        1
 93
        1
 72
     4
 94
        3
 73
     0
 74
     1
 95
       50
 96
       46
 40
0.0
 40
0.0
 40
0.0
 40
0.0
 40
1.0
 40
1.0
 40
1.0
 40
2.0
 40
2.0
 40
2.0
 40
3.0
 40
3.0
 40
3.0
 40
4.0
 40
4.0
 40
4.0
 40
5.0
 40
5.0
 40
5.0
 40
6.0
 40
6.0
 40
6.0
 40
7.0
 40
7.0
 40
7.0
 40
8.0
 40
8.0
 40
8.0
 40
9.0
 40
9.0
 40
9.0
 40
10.0
 40
10.0
 40
10.0
 40
11.0
 40
11.0
 40
11.0
 40
12.0
 40
12.0
 40
12.0
 40
13.0
 40
13.0
 40
13.0
 40
14.0
 40
14.0
 40
14.0
 40
15.0
 40
15.0
 40
15.0
 40
15.0
 10
113.7660101712113
 20
-158.4371852902518
 10
113.5565483657081
 20
-158.6507812103373
 10
113.4848903796149
 20
-158.7224391964305
 10
113.3429524456226
 20
-158.8409504811231
 10
113.3429524456226
 20
-158.8409504811231
 10
113.3429524456226
 20
-159.4080131979952
 10
113.3429524456226
 20
-159.4080131979952
 10
113.3429524456226
 20
-159.5582193611521
 10
113.3494981270446
 20
-159.577167386321
 10
113.3536322416269
 20
-159.7549343133599
 10
113.355699298918
 20
-159.8861924513479
 10
113.3619004707915
 20
-159.9347682976899
 10
113.3684461522135
 20
-159.9940239400362
 10
113.3684461522135
 20
-159.9940239400362
 10
113.1421033788325
 20
-159.9940239400362
 10
113.1421033788325
 20
-159.9940239400362
 10
113.1462374934148
 20
-159.9495822082765
 10
113.1503716079971
 20
-159.9027289096771
 10
113.1503716079971
 20
-159.8944606805125
 10
113.1503716079971
 20
-159.8141899557062
 10
113.154850232128
 20
-159.4631347257592
 10
113.154850232128
 20
-159.390787720569
 10
113.154850232128
 20
-159.390787720569
 10
113.154850232128
 20
-158.9849554724065
 10
113.154850232128
 20
-158.9849554724065
 10
112.9729491905068
 20
-159.1096679289726
 10
112.7783012955902
 20
-159.2199109845006
 10
112.5750406619604
 20
-159.3063828811804
 10
112.5750406619604
 20
-159.3063828811804
 10
112.3721245378792
 20
-159.143429864728
 10
112.3721245378792
 20
-159.143429864728
 10
112.4947699371541
 20
-159.1076008716814
 10
112.7507405317081
 20
-159.0335313187486
 10
113.0955945897817
 20
-158.7775607241945
 10
113.3112575671583
 20
-158.619086331873
 10
113.5038384047838
 20
-158.4306396088298
 10
113.6561116252318
 20
-158.2104980073224
 10
113.6561116252318
 20
-158.2104980073224
 10
113.8486924628573
 20
-158.3545029986058
 10
113.8486924628573
 20
-158.3545029986058
 10
113.8614393161527
 20
-158.3648382850616
 10
113.8697075453173
 20
-158.3799967051967
 10
113.8697075453173
 20
-158.3923990489436
 10
113.8697075453173
 20
-158.432706666121
 10
113.8318114949795
 20
-158.432706666121
 10
113.7660101712113
 20
-158.4371852902518
 97
        0
 97
        0
 75
     2
 76
     1
 98
        0
  0
SPLINE
  5
15E
330
124
100
AcDbEntity
  8
_U+30EC_U+30A4_U+30E4_U+30FC 1
370
     0
100
AcDbSpline
210
0.0
220
0.0
230
1.0
 70
    11
 71
     3
 72
    50
 73
    46
 74
     0
 42
0.0000000001
 43
0.0000000001
 12
1.0
 22
0.0
 32
0.0
 13
1.0
 23
0.0
 33
0.0
 40
0.0
 40
0.0
 40
0.0
 40
0.0
 40
1.0
 40
1.0
 40
1.0
 40
2.0
 40
2.0
 40
2.0
 40
3.0
 40
3.0
 40
3.0
 40
4.0
 40
4.0
 40
4.0
 40
5.0
 40
5.0
 40
5.0
 40
6.0
 40
6.0
 40
6.0
 40
7.0
 40
7.0
 40
7.0
 40
8.0
 40
8.0
 40
8.0
 40
9.0
 40
9.0
 40
9.0
 40
10.0
 40
10.0
 40
10.0
 40
11.0
 40
11.0
 40
11.0
 40
12.0
 40
12.0
 40
12.0
 40
13.0
 40
13.0
 40
13.0
 40
14.0
 40
14.0
 40
14.0
 40
15.0
 40
15.0
 40
15.0
 40
15.0
 10
115.4744330223467
 20
-158.963595880398
 30
0.0
 10
115.4131103227092
 20
-159.0355983760397
 30
0.0
 10
115.1526611040243
 20
-159.3528916702312
 30
0.0
 10
115.0958170285177
 20
-159.4162814271598
 30
0.0
 10
115.1802218679063
 20
-159.5137776293924
 30
0.0
 10
115.231209281088
 20
-159.577167386321
 30
0.0
 10
115.2966660953078
 20
-159.6681179071316
 30
0.0
 10
115.2966660953078
 20
-159.6681179071316
 30
0.0
 10
115.1126979963954
 20
-159.805577216993
 30
0.0
 10
115.1126979963954
 20
-159.805577216993
 30
0.0
 10
114.9773057438251
 20
-159.5940483541987
 30
0.0
 10
114.8057399886597
 20
-159.3701171476575
 30
0.0
 10
114.5118733437679
 20
-159.17099062861
 30
0.0
 10
114.5118733437679
 20
-159.17099062861
 30
0.0
 10
114.6600124496336
 20
-159.0166503508708
 30
0.0
 10
114.6600124496336
 20
-159.0166503508708
 30
0.0
 10
114.7699109956131
 20
-159.0969210756772
 30
0.0
 10
114.8736083697191
 20
-159.1858045391966
 30
0.0
 10
114.9707600624031
 20
-159.281233684138
 30
0.0
 10
115.0386284434626
 20
-159.2047525643655
 30
0.0
 10
115.2415445675438
 20
-158.9615288231068
 30
0.0
 10
115.374869762823
 20
-158.7331189924348
 30
0.0
 10
115.374869762823
 20
-158.7331189924348
 30
0.0
 10
114.7020426145537
 20
-158.7331189924348
 30
0.0
 10
114.7020426145537
 20
-158.7331189924348
 30
0.0
 10
114.5773301579876
 20
-158.7331189924348
 30
0.0
 10
114.3254936780159
 20
-158.7417317311479
 30
0.0
 10
114.1160318725127
 20
-158.7520670176037
 30
0.0
 10
114.1160318725127
 20
-158.7520670176037
 30
0.0
 10
114.1160318725127
 20
-158.5322699256447
 30
0.0
 10
114.1160318725127
 20
-158.5322699256447
 30
0.0
 10
114.3003444809735
 20
-158.5512179508136
 30
0.0
 10
114.5053276623459
 20
-158.5553520653959
 30
0.0
 10
114.6937743853891
 20
-158.5553520653959
 30
0.0
 10
114.6937743853891
 20
-158.5553520653959
 30
0.0
 10
115.1971028357841
 20
-158.5553520653959
 30
0.0
 10
115.1971028357841
 20
-158.5553520653959
 30
0.0
 10
115.5357557219841
 20
-158.5553520653959
 30
0.0
 10
115.5801974537438
 20
-158.5405381548093
 30
0.0
 10
115.6625352358413
 20
-158.5005750471804
 30
0.0
 10
115.6625352358413
 20
-158.5005750471804
 30
0.0
 10
115.8296223668759
 20
-158.6590494395019
 30
0.0
 10
115.8296223668759
 20
-158.6590494395019
 30
0.0
 10
115.6773491464279
 20
-158.7310519351436
 30
0.0
 10
115.533688664693
 20
-158.8940049515959
 30
0.0
 10
115.4744330223467
 20
-158.963595880398
 30
0.0
  0
HATCH
  5
15F
330
124
100
AcDbEntity
  8
_U+30EC_U+30A4_U+30E4_U+30FC 1
 62
     7
420
 16777215
100
AcDbHatch
 10
0.0
 20
0.0
 30
0.0
210
0.0
220
0.0
230
1.0
  2
SOLID
 70
     1
 71
     0
 91
        1
 92
        1
 93
        1
 72
     4
 94
        3
 73
     0
 74
     1
 95
       50
 96
       46
 40
0.0
 40
0.0
 40
0.0
 40
0.0
 40
1.0
 40
1.0
 40
1.0
 40
2.0
 40
2.0
 40
2.0
 40
3.0
 40
3.0
 40
3.0
 40
4.0
 40
4.0
 40
4.0
 40
5.0
 40
5.0
 40
5.0
 40
6.0
 40
6.0
 40
6.0
 40
7.0
 40
7.0
 40
7.0
 40
8.0
 40
8.0
 40
8.0
 40
9.0
 40
9.0
 40
9.0
 40
10.0
 40
10.0
 40
10.0
 40
11.0
 40
11.0
 40
11.0
 40
12.0
 40
12.0
 40
12.0
 40
13.0
 40
13.0
 40
13.0
 40
14.0
 40
14.0
 40
14.0
 40
15.0
 40
15.0
 40
15.0
 40
15.0
 10
115.4744330223467
 20
-158.963595880398
 10
115.4131103227092
 20
-159.0355983760397
 10
115.1526611040243
 20
-159.3528916702312
 10
115.0958170285177
 20
-159.4162814271598
 10
115.1802218679063
 20
-159.5137776293924
 10
115.231209281088
 20
-159.577167386321
 10
115.2966660953078
 20
-159.6681179071316
 10
115.2966660953078
 20
-159.6681179071316
 10
115.1126979963954
 20
-159.805577216993
 10
115.1126979963954
 20
-159.805577216993
 10
114.9773057438251
 20
-159.5940483541987
 10
114.8057399886597
 20
-159.3701171476575
 10
114.5118733437679
 20
-159.17099062861
 10
114.5118733437679
 20
-159.17099062861
 10
114.6600124496336
 20
-159.0166503508708
 10
114.6600124496336
 20
-159.0166503508708
 10
114.7699109956131
 20
-159.0969210756772
 10
114.8736083697191
 20
-159.1858045391966
 10
114.9707600624031
 20
-159.281233684138
 10
115.0386284434626
 20
-159.2047525643655
 10
115.2415445675438
 20
-158.9615288231068
 10
115.374869762823
 20
-158.7331189924348
 10
115.374869762823
 20
-158.7331189924348
 10
114.7020426145537
 20
-158.7331189924348
 10
114.7020426145537
 20
-158.7331189924348
 10
114.5773301579876
 20
-158.7331189924348
 10
114.3254936780159
 20
-158.7417317311479
 10
114.1160318725127
 20
-158.7520670176037
 10
114.1160318725127
 20
-158.7520670176037
 10
114.1160318725127
 20
-158.5322699256447
 10
114.1160318725127
 20
-158.5322699256447
 10
114.3003444809735
 20
-158.5512179508136
 10
114.5053276623459
 20
-158.5553520653959
 10
114.6937743853891
 20
-158.5553520653959
 10
114.6937743853891
 20
-158.5553520653959
 10
115.1971028357841
 20
-158.5553520653959
 10
115.1971028357841
 20
-158.5553520653959
 10
115.5357557219841
 20
-158.5553520653959
 10
115.5801974537438
 20
-158.5405381548093
 10
115.6625352358413
 20
-158.5005750471804
 10
115.6625352358413
 20
-158.5005750471804
 10
115.8296223668759
 20
-158.6590494395019
 10
115.8296223668759
 20
-158.6590494395019
 10
115.6773491464279
 20
-158.7310519351436
 10
115.533688664693
 20
-158.8940049515959
 10
115.4744330223467
 20
-158.963595880398
 97
        0
 97
        0
 75
     2
 76
     1
 98
        0
  0
SPLINE
  5
160
330
124
100
AcDbEntity
  8
_U+30EC_U+30A4_U+30E4_U+30FC 1
370
     0
100
AcDbSpline
210
0.0
220
0.0
230
1.0
 70
    11
 71
     3
 72
    29
 73
    25
 74
     0
 42
0.0000000001
 43
0.0000000001
 12
1.0
 22
0.0
 32
0.0
 13
1.0
 23
0.0
 33
0.0
 40
0.0
 40
0.0
 40
0.0
 40
0.0
 40
1.0
 40
1.0
 40
1.0
 40
2.0
 40
2.0
 40
2.0
 40
3.0
 40
3.0
 40
3.0
 40
4.0
 40
4.0
 40
4.0
 40
5.0
 40
5.0
 40
5.0
 40
6.0
 40
6.0
 40
6.0
 40
7.0
 40
7.0
 40
7.0
 40
8.0
 40
8.0
 40
8.0
 40
8.0
 10
117.0981065245449
 20
-159.2068196216566
 30
0.0
 10
117.0981065245449
 20
-159.2068196216566
 30
0.0
 10
116.6137260993188
 20
-159.2068196216566
 30
0.0
 10
116.6137260993188
 20
-159.2068196216566
 30
0.0
 10
116.5861653354368
 20
-159.2068196216566
 30
0.0
 10
116.2688720412453
 20
-159.2068196216566
 30
0.0
 10
116.0573431784509
 20
-159.2323133282475
 30
0.0
 10
116.0573431784509
 20
-159.2323133282475
 30
0.0
 10
116.0573431784509
 20
-159.0018364402843
 30
0.0
 10
116.0573431784509
 20
-159.0018364402843
 30
0.0
 10
116.2158175707724
 20
-159.0249185800354
 30
0.0
 10
116.4063313511068
 20
-159.0269856373266
 30
0.0
 10
116.6137260993188
 20
-159.0269856373266
 30
0.0
 10
116.6137260993188
 20
-159.0269856373266
 30
0.0
 10
117.0981065245449
 20
-159.0269856373266
 30
0.0
 10
117.0981065245449
 20
-159.0269856373266
 30
0.0
 10
117.2841416807484
 20
-159.0269856373266
 30
0.0
 10
117.4705213465004
 20
-159.0249185800354
 30
0.0
 10
117.6544894454128
 20
-159.0018364402843
 30
0.0
 10
117.6544894454128
 20
-159.0018364402843
 30
0.0
 10
117.6544894454128
 20
-159.2323133282475
 30
0.0
 10
117.6544894454128
 20
-159.2323133282475
 30
0.0
 10
117.4705213465004
 20
-159.2088866789478
 30
0.0
 10
117.222818981111
 20
-159.2068196216566
 30
0.0
 10
117.0981065245449
 20
-159.2068196216566
 30
0.0
  0
HATCH
  5
161
330
124
100
AcDbEntity
  8
_U+30EC_U+30A4_U+30E4_U+30FC 1
 62
     7
420
 16777215
100
AcDbHatch
 10
0.0
 20
0.0
 30
0.0
210
0.0
220
0.0
230
1.0
  2
SOLID
 70
     1
 71
     0
 91
        1
 92
        1
 93
        1
 72
     4
 94
        3
 73
     0
 74
     1
 95
       29
 96
       25
 40
0.0
 40
0.0
 40
0.0
 40
0.0
 40
1.0
 40
1.0
 40
1.0
 40
2.0
 40
2.0
 40
2.0
 40
3.0
 40
3.0
 40
3.0
 40
4.0
 40
4.0
 40
4.0
 40
5.0
 40
5.0
 40
5.0
 40
6.0
 40
6.0
 40
6.0
 40
7.0
 40
7.0
 40
7.0
 40
8.0
 40
8.0
 40
8.0
 40
8.0
 10
117.0981065245449
 20
-159.2068196216566
 10
117.0981065245449
 20
-159.2068196216566
 10
116.6137260993188
 20
-159.2068196216566
 10
116.6137260993188
 20
-159.2068196216566
 10
116.5861653354368
 20
-159.2068196216566
 10
116.2688720412453
 20
-159.2068196216566
 10
116.0573431784509
 20
-159.2323133282475
 10
116.0573431784509
 20
-159.2323133282475
 10
116.0573431784509
 20
-159.0018364402843
 10
116.0573431784509
 20
-159.0018364402843
 10
116.2158175707724
 20
-159.0249185800354
 10
116.4063313511068
 20
-159.0269856373266
 10
116.6137260993188
 20
-159.0269856373266
 10
116.6137260993188
 20
-159.0269856373266
 10
117.0981065245449
 20
-159.0269856373266
 10
117.0981065245449
 20
-159.0269856373266
 10
117.2841416807484
 20
-159.0269856373266
 10
117.4705213465004
 20
-159.0249185800354
 10
117.6544894454128
 20
-159.0018364402843
 10
117.6544894454128
 20
-159.0018364402843
 10
117.6544894454128
 20
-159.2323133282475
 10
117.6544894454128
 20
-159.2323133282475
 10
117.4705213465004
 20
-159.2088866789478
 10
117.222818981111
 20
-159.2068196216566
 10
117.0981065245449
 20
-159.2068196216566
 97
        0
 97
        0
 75
     2
 76
     1
 98
        0
  0
ENDBLK
  5
127
330
124
100
AcDbEntity
  8
0
100
AcDbBlockEnd
  0
ENDSEC
  0
SECTION
  2
ENTITIES
  0
POLYLINE
  5
41
330
1F
100
AcDbEntity
  8
_U+30EC_U+30A4_U+30E4_U+30FC 1
 62
     7
420
 16777215
370
    25
100
AcDb2dPolyline
 66
     1
 10
0.0
 20
0.0
 30
0.0
  0
VERTEX
  5
42
330
41
100
AcDbEntity
  8
_U+30EC_U+30A4_U+30E4_U+30FC 1
 62
     7
420
 16777215
370
    25
100
AcDbVertex
100
AcDb2dVertex
 10
85.6025133716535
 20
-143.8765007973641
 30
0.0
  0
VERTEX
  5
43
330
41
100
AcDbEntity
  8
_U+30EC_U+30A4_U+30E4_U+30FC 1
 62
     7
420
 16777215
370
    25
100
AcDbVertex
100
AcDb2dVertex
 10
96.60272392434808
 20
-143.8765007973641
 30
0.0
  0
SEQEND
  5
44
330
41
100
AcDbEntity
  8
_U+30EC_U+30A4_U+30E4_U+30FC 1
 62
     7
420
 16777215
370
    25
  0
POLYLINE
  5
45
330
1F
100
AcDbEntity
  8
_U+30EC_U+30A4_U+30E4_U+30FC 1
 62
     7
420
 16777215
370
    25
100
AcDb2dPolyline
 66
     1
 10
0.0
 20
0.0
 30
0.0
  0
VERTEX
  5
46
330
45
100
AcDbEntity
  8
_U+30EC_U+30A4_U+30E4_U+30FC 1
 62
     7
420
 16777215
370
    25
100
AcDbVertex
100
AcDb2dVertex
 10
98.6025858177718
 20
-144.8762730193363
 30
0.0
  0
VERTEX
  5
47
330
45
100
AcDbEntity
  8
_U+30EC_U+30A4_U+30E4_U+30FC 1
 62
     7
420
 16777215
370
    25
100
AcDbVertex
100
AcDb2dVertex
 10
119.6027055597919
 20
-144.8762730193363
 30
0.0
  0
SEQEND
  5
48
330
45
100
AcDbEntity
  8
_U+30EC_U+30A4_U+30E4_U+30FC 1
 62
     7
420
 16777215
370
    25
  0
POLYLINE
  5
49
330
1F
100
AcDbEntity
  8
_U+30EC_U+30A4_U+30E4_U+30FC 1
 62
     7
420
 16777215
370
    25
100
AcDb2dPolyline
 66
     1
 10
0.0
 20
0.0
 30
0.0
  0
VERTEX
  5
4A
330
49
100
AcDbEntity
  8
_U+30EC_U+30A4_U+30E4_U+30FC 1
 62
     7
420
 16777215
370
    25
100
AcDbVertex
100
AcDb2dVertex
 10
95.60259894986339
 20
-144.8762730193363
 30
0.0
  0
VERTEX
  5
4B
330
49
100
AcDbEntity
  8
_U+30EC_U+30A4_U+30E4_U+30FC 1
 62
     7
420
 16777215
370
    25
100
AcDbVertex
100
AcDb2dVertex
 10
95.60259894986339
 20
-152.3762227396838
 30
0.0
  0
SEQEND
  5
4C
330
49
100
AcDbEntity
  8
_U+30EC_U+30A4_U+30E4_U+30FC 1
 62
     7
420
 16777215
370
    25
  0
POLYLINE
  5
4D
330
1F
100
AcDbEntity
  8
_U+30EC_U+30A4_U+30E4_U+30FC 1
 62
     7
420
 16777215
370
    25
100
AcDb2dPolyline
 66
     1
 10
0.0
 20
0.0
 30
0.0
  0
VERTEX
  5
4E
330
4D
100
AcDbEntity
  8
_U+30EC_U+30A4_U+30E4_U+30FC 1
 62
     7
420
 16777215
370
    25
100
AcDbVertex
100
AcDb2dVertex
 10
105.6025081391889
 20
-151.3764505177112
 30
0.0
  0
VERTEX
  5
4F
330
4D
100
AcDbEntity
  8
_U+30EC_U+30A4_U+30E4_U+30FC 1
 62
     7
420
 16777215
370
    25
100
AcDbVertex
100
AcDb2dVertex
 10
105.6025081391889
 20
-151.6761705176368
 30
0.0
  0
SEQEND
  5
50
330
4D
100
AcDbEntity
  8
_U+30EC_U+30A4_U+30E4_U+30FC 1
 62
     7
420
 16777215
370
    25
  0
POLYLINE
  5
51
330
1F
100
AcDbEntity
  8
_U+30EC_U+30A4_U+30E4_U+30FC 1
 62
     7
420
 16777215
370
    25
100
AcDb2dPolyline
 66
     1
 10
0.0
 20
0.0
 30
0.0
  0
VERTEX
  5
52
330
51
100
AcDbEntity
  8
_U+30EC_U+30A4_U+30E4_U+30FC 1
 62
     7
420
 16777215
370
    25
100
AcDbVertex
100
AcDb2dVertex
 10
98.6025858177718
 20
-151.3764505177112
 30
0.0
  0
VERTEX
  5
53
330
51
100
AcDbEntity
  8
_U+30EC_U+30A4_U+30E4_U+30FC 1
 62
     7
420
 16777215
370
    25
100
AcDbVertex
100
AcDb2dVertex
 10
105.6025081391889
 20
-151.3764505177112
 30
0.0
  0
SEQEND
  5
54
330
51
100
AcDbEntity
  8
_U+30EC_U+30A4_U+30E4_U+30FC 1
 62
     7
420
 16777215
370
    25
  0
POLYLINE
  5
55
330
1F
100
AcDbEntity
  8
_U+30EC_U+30A4_U+30E4_U+30FC 1
 62
     7
420
 16777215
370
    25
100
AcDb2dPolyline
 66
     1
 10
0.0
 20
0.0
 30
0.0
  0
VERTEX
  5
56
330
55
100
AcDbEntity
  8
_U+30EC_U+30A4_U+30E4_U+30FC 1
 62
     7
420
 16777215
370
    25
100
AcDbVertex
100
AcDb2dVertex
 10
97.602496121064
 20
-143.8765007973641
 30
0.0
  0
VERTEX
  5
57
330
55
100
AcDbEntity
  8
_U+30EC_U+30A4_U+30E4_U+30FC 1
 62
     7
420
 16777215
370
    25
100
AcDbVertex
100
AcDb2dVertex
 10
119.6027055597919
 20
-143.8765007973641
 30
0.0
  0
SEQEND
  5
58
330
55
100
AcDbEntity
  8
_U+30EC_U+30A4_U+30E4_U+30FC 1
 62
     7
420
 16777215
370
    25
  0
POLYLINE
  5
59
330
1F
100
AcDbEntity
  8
_U+30EC_U+30A4_U+30E4_U+30FC 1
 62
     7
420
 16777215
370
    25
100
AcDb2dPolyline
 66
     1
 10
0.0
 20
0.0
 30
0.0
  0
VERTEX
  5
5A
330
59
100
AcDbEntity
  8
_U+30EC_U+30A4_U+30E4_U+30FC 1
 62
     7
420
 16777215
370
    25
100
AcDbVertex
100
AcDb2dVertex
 10
96.60272392434808
 20
-143.8765007973641
 30
0.0
  0
VERTEX
  5
5B
330
59
100
AcDbEntity
  8
_U+30EC_U+30A4_U+30E4_U+30FC 1
 62
     7
420
 16777215
370
    25
100
AcDbVertex
100
AcDb2dVertex
 10
96.60272392434808
 20
-151.3764505177112
 30
0.0
  0
SEQEND
  5
5C
330
59
100
AcDbEntity
  8
_U+30EC_U+30A4_U+30E4_U+30FC 1
 62
     7
420
 16777215
370
    25
  0
POLYLINE
  5
5D
330
1F
100
AcDbEntity
  8
_U+30EC_U+30A4_U+30E4_U+30FC 1
 62
     7
420
 16777215
370
    25
100
AcDb2dPolyline
 66
     1
 10
0.0
 20
0.0
 30
0.0
  0
VERTEX
  5
5E
330
5D
100
AcDbEntity
  8
_U+30EC_U+30A4_U+30E4_U+30FC 1
 62
     7
420
 16777215
370
    25
100
AcDbVertex
100
AcDb2dVertex
 10
97.602496121064
 20
-143.8765007973641
 30
0.0
  0
VERTEX
  5
5F
330
5D
100
AcDbEntity
  8
_U+30EC_U+30A4_U+30E4_U+30FC 1
 62
     7
420
 16777215
370
    25
100
AcDbVertex
100
AcDb2dVertex
 10
97.602496121064
 20
-151.3764505177112
 30
0.0
  0
SEQEND
  5
60
330
5D
100
AcDbEntity
  8
_U+30EC_U+30A4_U+30E4_U+30FC 1
 62
     7
420
 16777215
370
    25
  0
POLYLINE
  5
61
330
1F
100
AcDbEntity
  8
_U+30EC_U+30A4_U+30E4_U+30FC 1
 62
     7
420
 16777215
370
    25
100
AcDb2dPolyline
 66
     1
 10
0.0
 20
0.0
 30
0.0
  0
VERTEX
  5
62
330
61
100
AcDbEntity
  8
_U+30EC_U+30A4_U+30E4_U+30FC 1
 62
     7
420
 16777215
370
    25
100
AcDbVertex
100
AcDb2dVertex
 10
98.6025858177718
 20
-144.8762730193363
 30
0.0
  0
VERTEX
  5
63
330
61
100
AcDbEntity
  8
_U+30EC_U+30A4_U+30E4_U+30FC 1
 62
     7
420
 16777215
370
    25
100
AcDbVertex
100
AcDb2dVertex
 10
98.6025858177718
 20
-151.3764505177112
 30
0.0
  0
SEQEND
  5
64
330
61
100
AcDbEntity
  8
_U+30EC_U+30A4_U+30E4_U+30FC 1
 62
     7
420
 16777215
370
    25
  0
POLYLINE
  5
65
330
1F
100
AcDbEntity
  8
_U+30EC_U+30A4_U+30E4_U+30FC 1
 62
     7
420
 16777215
370
    25
100
AcDb2dPolyline
 66
     1
 10
0.0
 20
0.0
 30
0.0
  0
VERTEX
  5
66
330
65
100
AcDbEntity
  8
_U+30EC_U+30A4_U+30E4_U+30FC 1
 62
     7
420
 16777215
370
    25
100
AcDbVertex
100
AcDb2dVertex
 10
96.60272392434808
 20
-151.3764505177112
 30
0.0
  0
VERTEX
  5
67
330
65
100
AcDbEntity
  8
_U+30EC_U+30A4_U+30E4_U+30FC 1
 62
     7
420
 16777215
370
    25
100
AcDbVertex
100
AcDb2dVertex
 10
97.602496121064
 20
-151.3764505177112
 30
0.0
  0
SEQEND
  5
68
330
65
100
AcDbEntity
  8
_U+30EC_U+30A4_U+30E4_U+30FC 1
 62
     7
420
 16777215
370
    25
  0
POLYLINE
  5
69
330
1F
100
AcDbEntity
  8
_U+30EC_U+30A4_U+30E4_U+30FC 1
 62
     7
420
 16777215
370
    25
100
AcDb2dPolyline
 66
     1
 10
0.0
 20
0.0
 30
0.0
  0
VERTEX
  5
6A
330
69
100
AcDbEntity
  8
_U+30EC_U+30A4_U+30E4_U+30FC 1
 62
     7
420
 16777215
370
    25
100
AcDbVertex
100
AcDb2dVertex
 10
95.60259894986339
 20
-152.3762227396838
 30
0.0
  0
VERTEX
  5
6B
330
69
100
AcDbEntity
  8
_U+30EC_U+30A4_U+30E4_U+30FC 1
 62
     7
420
 16777215
370
    25
100
AcDbVertex
100
AcDb2dVertex
 10
105.6025081391889
 20
-151.6761705176368
 30
0.0
  0
SEQEND
  5
6C
330
69
100
AcDbEntity
  8
_U+30EC_U+30A4_U+30E4_U+30FC 1
 62
     7
420
 16777215
370
    25
  0
POLYLINE
  5
6D
330
1F
100
AcDbEntity
  8
_U+30EC_U+30A4_U+30E4_U+30FC 1
 62
     7
420
 16777215
370
    25
100
AcDb2dPolyline
 66
     1
 10
0.0
 20
0.0
 30
0.0
  0
VERTEX
  5
6E
330
6D
100
AcDbEntity
  8
_U+30EC_U+30A4_U+30E4_U+30FC 1
 62
     7
420
 16777215
370
    25
100
AcDbVertex
100
AcDb2dVertex
 10
119.6027055597919
 20
-143.8765007973641
 30
0.0
  0
VERTEX
  5
6F
330
6D
100
AcDbEntity
  8
_U+30EC_U+30A4_U+30E4_U+30FC 1
 62
     7
420
 16777215
370
    25
100
AcDbVertex
100
AcDb2dVertex
 10
119.6027055597919
 20
-144.8762730193363
 30
0.0
  0
SEQEND
  5
70
330
6D
100
AcDbEntity
  8
_U+30EC_U+30A4_U+30E4_U+30FC 1
 62
     7
420
 16777215
370
    25
  0
POLYLINE
  5
71
330
1F
100
AcDbEntity
  8
_U+30EC_U+30A4_U+30E4_U+30FC 1
 62
     7
420
 16777215
370
    25
100
AcDb2dPolyline
 66
     1
 10
0.0
 20
0.0
 30
0.0
  0
VERTEX
  5
72
330
71
100
AcDbEntity
  8
_U+30EC_U+30A4_U+30E4_U+30FC 1
 62
     7
420
 16777215
370
    25
100
AcDbVertex
100
AcDb2dVertex
 10
85.6025133716535
 20
-144.8762730193363
 30
0.0
  0
VERTEX
  5
73
330
71
100
AcDbEntity
  8
_U+30EC_U+30A4_U+30E4_U+30FC 1
 62
     7
420
 16777215
370
    25
100
AcDbVertex
100
AcDb2dVertex
 10
95.60259894986339
 20
-144.8762730193363
 30
0.0
  0
SEQEND
  5
74
330
71
100
AcDbEntity
  8
_U+30EC_U+30A4_U+30E4_U+30FC 1
 62
     7
420
 16777215
370
    25
  0
POLYLINE
  5
75
330
1F
100
AcDbEntity
  8
_U+30EC_U+30A4_U+30E4_U+30FC 1
 62
     7
420
 16777215
370
    25
100
AcDb2dPolyline
 66
     1
 10
0.0
 20
0.0
 30
0.0
  0
VERTEX
  5
76
330
75
100
AcDbEntity
  8
_U+30EC_U+30A4_U+30E4_U+30FC 1
 62
     7
420
 16777215
370
    25
100
AcDbVertex
100
AcDb2dVertex
 10
85.6025133716535
 20
-143.8765007973641
 30
0.0
  0
VERTEX
  5
77
330
75
100
AcDbEntity
  8
_U+30EC_U+30A4_U+30E4_U+30FC 1
 62
     7
420
 16777215
370
    25
100
AcDbVertex
100
AcDb2dVertex
 10
85.6025133716535
 20
-144.8762730193363
 30
0.0
  0
SEQEND
  5
78
330
75
100
AcDbEntity
  8
_U+30EC_U+30A4_U+30E4_U+30FC 1
 62
     7
420
 16777215
370
    25
  0
SPLINE
  5
79
330
1F
100
AcDbEntity
  8
_U+30EC_U+30A4_U+30E4_U+30FC 1
 62
     7
420
 16777215
370
     9
100
AcDbSpline
210
0.0
220
0.0
230
1.0
 70
    11
 71
     3
 72
    17
 73
    13
 74
     0
 42
0.0000000001
 43
0.0000000001
 12
1.0
 22
0.0
 32
0.0
 13
1.0
 23
0.0
 33
0.0
 40
0.0
 40
0.0
 40
0.0
 40
0.0
 40
1.0
 40
1.0
 40
1.0
 40
2.0
 40
2.0
 40
2.0
 40
3.0
 40
3.0
 40
3.0
 40
4.0
 40
4.0
 40
4.0
 40
4.0
 10
123.7023360107572
 20
-143.8765007973641
 30
0.0
 10
123.7023360107572
 20
-143.8206913529337
 30
0.0
 10
123.6575685118993
 20
-143.7758885751673
 30
0.0
 10
123.6024293466393
 20
-143.7758885751673
 30
0.0
 10
123.5473254591562
 20
-143.7758885751673
 30
0.0
 10
123.5025226825215
 20
-143.8206913529337
 30
0.0
 10
123.5025226825215
 20
-143.8765007973641
 30
0.0
 10
123.5025226825215
 20
-143.9316046862394
 30
0.0
 10
123.5473254591562
 20
-143.9764074640061
 30
0.0
 10
123.6024293466393
 20
-143.9764074640061
 30
0.0
 10
123.6575685118993
 20
-143.9764074640061
 30
0.0
 10
123.7023360107572
 20
-143.9316046862394
 30
0.0
 10
123.7023360107572
 20
-143.8765007973641
 30
0.0
  0
SPLINE
  5
7A
330
1F
100
AcDbEntity
  8
_U+30EC_U+30A4_U+30E4_U+30FC 1
 62
     7
420
 16777215
370
     9
100
AcDbSpline
210
0.0
220
0.0
230
1.0
 70
    11
 71
     3
 72
    17
 73
    13
 74
     0
 42
0.0000000001
 43
0.0000000001
 12
1.0
 22
0.0
 32
0.0
 13
1.0
 23
0.0
 33
0.0
 40
0.0
 40
0.0
 40
0.0
 40
0.0
 40
1.0
 40
1.0
 40
1.0
 40
2.0
 40
2.0
 40
2.0
 40
3.0
 40
3.0
 40
3.0
 40
4.0
 40
4.0
 40
4.0
 40
4.0
 10
123.7023360107572
 20
-144.8762730193363
 30
0.0
 10
123.7023360107572
 20
-144.8211338526836
 30
0.0
 10
123.6575685118993
 20
-144.7763310749172
 30
0.0
 10
123.6024293466393
 20
-144.7763310749172
 30
0.0
 10
123.5473254591562
 20
-144.7763310749172
 30
0.0
 10
123.5025226825215
 20
-144.8211338526836
 30
0.0
 10
123.5025226825215
 20
-144.8762730193363
 30
0.0
 10
123.5025226825215
 20
-144.9313769082116
 30
0.0
 10
123.5473254591562
 20
-144.9761796859783
 30
0.0
 10
123.6024293466393
 20
-144.9761796859783
 30
0.0
 10
123.6575685118993
 20
-144.9761796859783
 30
0.0
 10
123.7023360107572
 20
-144.9313769082116
 30
0.0
 10
123.7023360107572
 20
-144.8762730193363
 30
0.0
  0
SPLINE
  5
7B
330
1F
100
AcDbEntity
  8
_U+30EC_U+30A4_U+30E4_U+30FC 1
 62
     7
420
 16777215
370
     9
100
AcDbSpline
210
0.0
220
0.0
230
1.0
 70
    11
 71
     3
 72
    17
 73
    13
 74
     0
 42
0.0000000001
 43
0.0000000001
 12
1.0
 22
0.0
 32
0.0
 13
1.0
 23
0.0
 33
0.0
 40
0.0
 40
0.0
 40
0.0
 40
0.0
 40
1.0
 40
1.0
 40
1.0
 40
2.0
 40
2.0
 40
2.0
 40
3.0
 40
3.0
 40
3.0
 40
4.0
 40
4.0
 40
4.0
 40
4.0
 10
105.7024148033067
 20
-156.3759819053506
 30
0.0
 10
105.7024148033067
 20
-156.3208780164751
 30
0.0
 10
105.6576499735857
 20
-156.276075238709
 30
0.0
 10
105.6025081391889
 20
-156.276075238709
 30
0.0
 10
105.5474042517058
 20
-156.276075238709
 30
0.0
 10
105.5026014750711
 20
-156.3208780164751
 30
0.0
 10
105.5026014750711
 20
-156.3759819053506
 30
0.0
 10
105.5026014750711
 20
-156.4311210720031
 30
0.0
 10
105.5474042517058
 20
-156.4758885719923
 30
0.0
 10
105.6025081391889
 20
-156.4758885719923
 30
0.0
 10
105.6576499735857
 20
-156.4758885719923
 30
0.0
 10
105.7024148033067
 20
-156.4311210720031
 30
0.0
 10
105.7024148033067
 20
-156.3759819053506
 30
0.0
  0
SPLINE
  5
7C
330
1F
100
AcDbEntity
  8
_U+30EC_U+30A4_U+30E4_U+30FC 1
 62
     7
420
 16777215
370
     9
100
AcDbSpline
210
0.0
220
0.0
230
1.0
 70
    11
 71
     3
 72
    17
 73
    13
 74
     0
 42
0.0000000001
 43
0.0000000001
 12
1.0
 22
0.0
 32
0.0
 13
1.0
 23
0.0
 33
0.0
 40
0.0
 40
0.0
 40
0.0
 40
0.0
 40
1.0
 40
1.0
 40
1.0
 40
2.0
 40
2.0
 40
2.0
 40
3.0
 40
3.0
 40
3.0
 40
4.0
 40
4.0
 40
4.0
 40
4.0
 10
95.70250561398123
 20
-156.3759819053506
 30
0.0
 10
95.70250561398123
 20
-156.3208780164751
 30
0.0
 10
95.65773811512334
 20
-156.276075238709
 30
0.0
 10
95.60259894986339
 20
-156.276075238709
 30
0.0
 10
95.54714228461154
 20
-156.276075238709
 30
0.0
 10
95.50233950797679
 20
-156.3208780164751
 30
0.0
 10
95.50233950797679
 20
-156.3759819053506
 30
0.0
 10
95.50233950797679
 20
-156.4311210720031
 30
0.0
 10
95.54714228461154
 20
-156.4758885719923
 30
0.0
 10
95.60259894986339
 20
-156.4758885719923
 30
0.0
 10
95.65773811512334
 20
-156.4758885719923
 30
0.0
 10
95.70250561398123
 20
-156.4311210720031
 30
0.0
 10
95.70250561398123
 20
-156.3759819053506
 30
0.0
  0
SPLINE
  5
7D
330
1F
100
AcDbEntity
  8
_U+30EC_U+30A4_U+30E4_U+30FC 1
 62
     7
420
 16777215
370
     9
100
AcDbSpline
210
0.0
220
0.0
230
1.0
 70
    11
 71
     3
 72
    17
 73
    13
 74
     0
 42
0.0000000001
 43
0.0000000001
 12
1.0
 22
0.0
 32
0.0
 13
1.0
 23
0.0
 33
0.0
 40
0.0
 40
0.0
 40
0.0
 40
0.0
 40
1.0
 40
1.0
 40
1.0
 40
2.0
 40
2.0
 40
2.0
 40
3.0
 40
3.0
 40
3.0
 40
4.0
 40
4.0
 40
4.0
 40
4.0
 10
109.7021738679311
 20
-151.3764505177112
 30
0.0
 10
109.7021738679311
 20
-151.3206410732808
 30
0.0
 10
109.6573710912963
 20
-151.2758735732922
 30
0.0
 10
109.6022672038132
 20
-151.2758735732922
 30
0.0
 10
109.5471280385533
 20
-151.2758735732922
 30
0.0
 10
109.5023605396954
 20
-151.3206410732808
 30
0.0
 10
109.5023605396954
 20
-151.3764505177112
 30
0.0
 10
109.5023605396954
 20
-151.4315896843643
 30
0.0
 10
109.5471280385533
 20
-151.4763571843528
 30
0.0
 10
109.6022672038132
 20
-151.4763571843528
 30
0.0
 10
109.6573710912963
 20
-151.4763571843528
 30
0.0
 10
109.7021738679311
 20
-151.4315896843643
 30
0.0
 10
109.7021738679311
 20
-151.3764505177112
 30
0.0
  0
SPLINE
  5
7E
330
1F
100
AcDbEntity
  8
_U+30EC_U+30A4_U+30E4_U+30FC 1
 62
     7
420
 16777215
370
     9
100
AcDbSpline
210
0.0
220
0.0
230
1.0
 70
    11
 71
     3
 72
    17
 73
    13
 74
     0
 42
0.0000000001
 43
0.0000000001
 12
1.0
 22
0.0
 32
0.0
 13
1.0
 23
0.0
 33
0.0
 40
0.0
 40
0.0
 40
0.0
 40
0.0
 40
1.0
 40
1.0
 40
1.0
 40
2.0
 40
2.0
 40
2.0
 40
3.0
 40
3.0
 40
3.0
 40
4.0
 40
4.0
 40
4.0
 40
4.0
 10
109.7021738679311
 20
-151.6761705176368
 30
0.0
 10
109.7021738679311
 20
-151.6210666287612
 30
0.0
 10
109.6573710912963
 20
-151.5762638509951
 30
0.0
 10
109.6022672038132
 20
-151.5762638509951
 30
0.0
 10
109.5471280385533
 20
-151.5762638509951
 30
0.0
 10
109.5023605396954
 20
-151.6210666287612
 30
0.0
 10
109.5023605396954
 20
-151.6761705176368
 30
0.0
 10
109.5023605396954
 20
-151.7313096842892
 30
0.0
 10
109.5471280385533
 20
-151.7760771842784
 30
0.0
 10
109.6022672038132
 20
-151.7760771842784
 30
0.0
 10
109.6573710912963
 20
-151.7760771842784
 30
0.0
 10
109.7021738679311
 20
-151.7313096842892
 30
0.0
 10
109.7021738679311
 20
-151.6761705176368
 30
0.0
  0
SPLINE
  5
7F
330
1F
100
AcDbEntity
  8
_U+30EC_U+30A4_U+30E4_U+30FC 1
 62
     7
420
 16777215
370
     9
100
AcDbSpline
210
0.0
220
0.0
230
1.0
 70
    11
 71
     3
 72
    17
 73
    13
 74
     0
 42
0.0000000001
 43
0.0000000001
 12
1.0
 22
0.0
 32
0.0
 13
1.0
 23
0.0
 33
0.0
 40
0.0
 40
0.0
 40
0.0
 40
0.0
 40
1.0
 40
1.0
 40
1.0
 40
2.0
 40
2.0
 40
2.0
 40
3.0
 40
3.0
 40
3.0
 40
4.0
 40
4.0
 40
4.0
 40
4.0
 10
123.7023360107572
 20
-151.3764505177112
 30
0.0
 10
123.7023360107572
 20
-151.3206410732808
 30
0.0
 10
123.6575685118993
 20
-151.2758735732922
 30
0.0
 10
123.6024293466393
 20
-151.2758735732922
 30
0.0
 10
123.5473254591562
 20
-151.2758735732922
 30
0.0
 10
123.5025226825215
 20
-151.3206410732808
 30
0.0
 10
123.5025226825215
 20
-151.3764505177112
 30
0.0
 10
123.5025226825215
 20
-151.4315896843643
 30
0.0
 10
123.5473254591562
 20
-151.4763571843528
 30
0.0
 10
123.6024293466393
 20
-151.4763571843528
 30
0.0
 10
123.6575685118993
 20
-151.4763571843528
 30
0.0
 10
123.7023360107572
 20
-151.4315896843643
 30
0.0
 10
123.7023360107572
 20
-151.3764505177112
 30
0.0
  0
SPLINE
  5
80
330
1F
100
AcDbEntity
  8
_U+30EC_U+30A4_U+30E4_U+30FC 1
 62
     7
420
 16777215
370
     9
100
AcDbSpline
210
0.0
220
0.0
230
1.0
 70
    11
 71
     3
 72
    17
 73
    13
 74
     0
 42
0.0000000001
 43
0.0000000001
 12
1.0
 22
0.0
 32
0.0
 13
1.0
 23
0.0
 33
0.0
 40
0.0
 40
0.0
 40
0.0
 40
0.0
 40
1.0
 40
1.0
 40
1.0
 40
2.0
 40
2.0
 40
2.0
 40
3.0
 40
3.0
 40
3.0
 40
4.0
 40
4.0
 40
4.0
 40
4.0
 10
119.7026122239097
 20
-139.876036076142
 30
0.0
 10
119.7026122239097
 20
-139.8209321872671
 30
0.0
 10
119.657809447275
 20
-139.7761294095004
 30
0.0
 10
119.6027055597919
 20
-139.7761294095004
 30
0.0
 10
119.5475694145576
 20
-139.7761294095004
 30
0.0
 10
119.5027666367908
 20
-139.8209321872671
 30
0.0
 10
119.5027666367908
 20
-139.876036076142
 30
0.0
 10
119.5027666367908
 20
-139.9311752427951
 30
0.0
 10
119.5475694145576
 20
-139.9759427427837
 30
0.0
 10
119.6027055597919
 20
-139.9759427427837
 30
0.0
 10
119.657809447275
 20
-139.9759427427837
 30
0.0
 10
119.7026122239097
 20
-139.9311752427951
 30
0.0
 10
119.7026122239097
 20
-139.876036076142
 30
0.0
  0
SPLINE
  5
81
330
1F
100
AcDbEntity
  8
_U+30EC_U+30A4_U+30E4_U+30FC 1
 62
     7
420
 16777215
370
     9
100
AcDbSpline
210
0.0
220
0.0
230
1.0
 70
    11
 71
     3
 72
    17
 73
    13
 74
     0
 42
0.0000000001
 43
0.0000000001
 12
1.0
 22
0.0
 32
0.0
 13
1.0
 23
0.0
 33
0.0
 40
0.0
 40
0.0
 40
0.0
 40
0.0
 40
1.0
 40
1.0
 40
1.0
 40
2.0
 40
2.0
 40
2.0
 40
3.0
 40
3.0
 40
3.0
 40
4.0
 40
4.0
 40
4.0
 40
4.0
 10
85.70259642465572
 20
-139.876036076142
 30
0.0
 10
85.70259642465572
 20
-139.8209321872671
 30
0.0
 10
85.65782892579783
 20
-139.7761294095004
 30
0.0
 10
85.6025133716535
 20
-139.7761294095004
 30
0.0
 10
85.54740948417043
 20
-139.7761294095004
 30
0.0
 10
85.50260670753566
 20
-139.8209321872671
 30
0.0
 10
85.50260670753566
 20
-139.876036076142
 30
0.0
 10
85.50260670753566
 20
-139.9311752427951
 30
0.0
 10
85.54740948417043
 20
-139.9759427427837
 30
0.0
 10
85.6025133716535
 20
-139.9759427427837
 30
0.0
 10
85.65782892579783
 20
-139.9759427427837
 30
0.0
 10
85.70259642465572
 20
-139.9311752427951
 30
0.0
 10
85.70259642465572
 20
-139.876036076142
 30
0.0
  0
SPLINE
  5
82
330
1F
100
AcDbEntity
  8
_U+30EC_U+30A4_U+30E4_U+30FC 1
 62
     7
420
 16777215
370
     9
100
AcDbSpline
210
0.0
220
0.0
230
1.0
 70
    11
 71
     3
 72
    17
 73
    13
 74
     0
 42
0.0000000001
 43
0.0000000001
 12
1.0
 22
0.0
 32
0.0
 13
1.0
 23
0.0
 33
0.0
 40
0.0
 40
0.0
 40
0.0
 40
0.0
 40
1.0
 40
1.0
 40
1.0
 40
2.0
 40
2.0
 40
2.0
 40
3.0
 40
3.0
 40
3.0
 40
4.0
 40
4.0
 40
4.0
 40
4.0
 10
85.70259642465572
 20
-156.3759819053506
 30
0.0
 10
85.70259642465572
 20
-156.3208780164751
 30
0.0
 10
85.65782892579783
 20
-156.276075238709
 30
0.0
 10
85.6025133716535
 20
-156.276075238709
 30
0.0
 10
85.54740948417043
 20
-156.276075238709
 30
0.0
 10
85.50260670753566
 20
-156.3208780164751
 30
0.0
 10
85.50260670753566
 20
-156.3759819053506
 30
0.0
 10
85.50260670753566
 20
-156.4311210720031
 30
0.0
 10
85.54740948417043
 20
-156.4758885719923
 30
0.0
 10
85.6025133716535
 20
-156.4758885719923
 30
0.0
 10
85.65782892579783
 20
-156.4758885719923
 30
0.0
 10
85.70259642465572
 20
-156.4311210720031
 30
0.0
 10
85.70259642465572
 20
-156.3759819053506
 30
0.0
  0
POLYLINE
  5
83
330
1F
100
AcDbEntity
  8
_U+30EC_U+30A4_U+30E4_U+30FC 1
 62
     7
420
 16777215
370
     9
100
AcDb2dPolyline
 66
     1
 10
0.0
 20
0.0
 30
0.0
  0
VERTEX
  5
84
330
83
100
AcDbEntity
  8
_U+30EC_U+30A4_U+30E4_U+30FC 1
 62
     7
420
 16777215
370
     9
100
AcDbVertex
100
AcDb2dVertex
 10
123.6024293466393
 20
-143.8765007973641
 30
0.0
  0
VERTEX
  5
85
330
83
100
AcDbEntity
  8
_U+30EC_U+30A4_U+30E4_U+30FC 1
 62
     7
420
 16777215
370
     9
100
AcDbVertex
100
AcDb2dVertex
 10
123.6024293466393
 20
-140.1061882983067
 30
0.0
  0
SEQEND
  5
86
330
83
100
AcDbEntity
  8
_U+30EC_U+30A4_U+30E4_U+30FC 1
 62
     7
420
 16777215
370
     9
  0
POLYLINE
  5
87
330
1F
100
AcDbEntity
  8
_U+30EC_U+30A4_U+30E4_U+30FC 1
 62
     7
420
 16777215
370
     9
100
AcDb2dPolyline
 66
     1
 10
0.0
 20
0.0
 30
0.0
  0
VERTEX
  5
88
330
87
100
AcDbEntity
  8
_U+30EC_U+30A4_U+30E4_U+30FC 1
 62
     7
420
 16777215
370
     9
100
AcDbVertex
100
AcDb2dVertex
 10
123.6024293466393
 20
-143.8765007973641
 30
0.0
  0
VERTEX
  5
89
330
87
100
AcDbEntity
  8
_U+30EC_U+30A4_U+30E4_U+30FC 1
 62
     7
420
 16777215
370
     9
100
AcDbVertex
100
AcDb2dVertex
 10
123.6024293466393
 20
-144.8762730193363
 30
0.0
  0
SEQEND
  5
8A
330
87
100
AcDbEntity
  8
_U+30EC_U+30A4_U+30E4_U+30FC 1
 62
     7
420
 16777215
370
     9
  0
POLYLINE
  5
8B
330
1F
100
AcDbEntity
  8
_U+30EC_U+30A4_U+30E4_U+30FC 1
 62
     7
420
 16777215
370
     9
100
AcDb2dPolyline
 66
     1
 10
0.0
 20
0.0
 30
0.0
  0
VERTEX
  5
8C
330
8B
100
AcDbEntity
  8
_U+30EC_U+30A4_U+30E4_U+30FC 1
 62
     7
420
 16777215
370
     9
100
AcDbVertex
100
AcDb2dVertex
 10
122.1424232727761
 20
-143.8765007973641
 30
0.0
  0
VERTEX
  5
8D
330
8B
100
AcDbEntity
  8
_U+30EC_U+30A4_U+30E4_U+30FC 1
 62
     7
420
 16777215
370
     9
100
AcDbVertex
100
AcDb2dVertex
 10
124.6029070988928
 20
-143.8765007973641
 30
0.0
  0
SEQEND
  5
8E
330
8B
100
AcDbEntity
  8
_U+30EC_U+30A4_U+30E4_U+30FC 1
 62
     7
420
 16777215
370
     9
  0
POLYLINE
  5
8F
330
1F
100
AcDbEntity
  8
_U+30EC_U+30A4_U+30E4_U+30FC 1
 62
     7
420
 16777215
370
     9
100
AcDb2dPolyline
 66
     1
 10
0.0
 20
0.0
 30
0.0
  0
VERTEX
  5
90
330
8F
100
AcDbEntity
  8
_U+30EC_U+30A4_U+30E4_U+30FC 1
 62
     7
420
 16777215
370
     9
100
AcDbVertex
100
AcDb2dVertex
 10
122.1424232727761
 20
-144.8762730193363
 30
0.0
  0
VERTEX
  5
91
330
8F
100
AcDbEntity
  8
_U+30EC_U+30A4_U+30E4_U+30FC 1
 62
     7
420
 16777215
370
     9
100
AcDbVertex
100
AcDb2dVertex
 10
124.6029070988928
 20
-144.8762730193363
 30
0.0
  0
SEQEND
  5
92
330
8F
100
AcDbEntity
  8
_U+30EC_U+30A4_U+30E4_U+30FC 1
 62
     7
420
 16777215
370
     9
  0
INSERT
  5
94
330
1F
100
AcDbEntity
  8
_U+30EC_U+30A4_U+30E4_U+30FC 1
100
AcDbBlockReference
  2
block 2
 10
0.0
 20
0.0
 30
0.0
  0
POLYLINE
  5
99
330
1F
100
AcDbEntity
  8
_U+30EC_U+30A4_U+30E4_U+30FC 1
 62
     7
420
 16777215
370
     9
100
AcDb2dPolyline
 66
     1
 10
0.0
 20
0.0
 30
0.0
  0
VERTEX
  5
9A
330
99
100
AcDbEntity
  8
_U+30EC_U+30A4_U+30E4_U+30FC 1
 62
     7
420
 16777215
370
     9
100
AcDbVertex
100
AcDb2dVertex
 10
109.6022672038132
 20
-151.3764505177112
 30
0.0
  0
VERTEX
  5
9B
330
99
100
AcDbEntity
  8
_U+30EC_U+30A4_U+30E4_U+30FC 1
 62
     7
420
 16777215
370
     9
100
AcDbVertex
100
AcDb2dVertex
 10
109.6022672038132
 20
-146.1185446856926
 30
0.0
  0
SEQEND
  5
9C
330
99
100
AcDbEntity
  8
_U+30EC_U+30A4_U+30E4_U+30FC 1
 62
     7
420
 16777215
370
     9
  0
POLYLINE
  5
9D
330
1F
100
AcDbEntity
  8
_U+30EC_U+30A4_U+30E4_U+30FC 1
 62
     7
420
 16777215
370
     9
100
AcDb2dPolyline
 66
     1
 10
0.0
 20
0.0
 30
0.0
  0
VERTEX
  5
9E
330
9D
100
AcDbEntity
  8
_U+30EC_U+30A4_U+30E4_U+30FC 1
 62
     7
420
 16777215
370
     9
100
AcDbVertex
100
AcDb2dVertex
 10
109.6022672038132
 20
-151.3764505177112
 30
0.0
  0
VERTEX
  5
9F
330
9D
100
AcDbEntity
  8
_U+30EC_U+30A4_U+30E4_U+30FC 1
 62
     7
420
 16777215
370
     9
100
AcDbVertex
100
AcDb2dVertex
 10
109.6022672038132
 20
-152.6759427396087
 30
0.0
  0
SEQEND
  5
A0
330
9D
100
AcDbEntity
  8
_U+30EC_U+30A4_U+30E4_U+30FC 1
 62
     7
420
 16777215
370
     9
  0
POLYLINE
  5
A1
330
1F
100
AcDbEntity
  8
_U+30EC_U+30A4_U+30E4_U+30FC 1
 62
     7
420
 16777215
370
     9
100
AcDb2dPolyline
 66
     1
 10
0.0
 20
0.0
 30
0.0
  0
VERTEX
  5
A2
330
A1
100
AcDbEntity
  8
_U+30EC_U+30A4_U+30E4_U+30FC 1
 62
     7
420
 16777215
370
     9
100
AcDbVertex
100
AcDb2dVertex
 10
108.1422258521731
 20
-151.3764505177112
 30
0.0
  0
VERTEX
  5
A3
330
A1
100
AcDbEntity
  8
_U+30EC_U+30A4_U+30E4_U+30FC 1
 62
     7
420
 16777215
370
     9
100
AcDbVertex
100
AcDb2dVertex
 10
110.6027096782898
 20
-151.3764505177112
 30
0.0
  0
SEQEND
  5
A4
330
A1
100
AcDbEntity
  8
_U+30EC_U+30A4_U+30E4_U+30FC 1
 62
     7
420
 16777215
370
     9
  0
POLYLINE
  5
A5
330
1F
100
AcDbEntity
  8
_U+30EC_U+30A4_U+30E4_U+30FC 1
 62
     7
420
 16777215
370
     9
100
AcDb2dPolyline
 66
     1
 10
0.0
 20
0.0
 30
0.0
  0
VERTEX
  5
A6
330
A5
100
AcDbEntity
  8
_U+30EC_U+30A4_U+30E4_U+30FC 1
 62
     7
420
 16777215
370
     9
100
AcDbVertex
100
AcDb2dVertex
 10
108.1422258521731
 20
-151.6761705176368
 30
0.0
  0
VERTEX
  5
A7
330
A5
100
AcDbEntity
  8
_U+30EC_U+30A4_U+30E4_U+30FC 1
 62
     7
420
 16777215
370
     9
100
AcDbVertex
100
AcDb2dVertex
 10
110.6027096782898
 20
-151.6761705176368
 30
0.0
  0
SEQEND
  5
A8
330
A5
100
AcDbEntity
  8
_U+30EC_U+30A4_U+30E4_U+30FC 1
 62
     7
420
 16777215
370
     9
  0
INSERT
  5
AA
330
1F
100
AcDbEntity
  8
_U+30EC_U+30A4_U+30E4_U+30FC 1
100
AcDbBlockReference
  2
block 3
 10
0.0
 20
0.0
 30
0.0
  0
POLYLINE
  5
BA
330
1F
100
AcDbEntity
  8
_U+30EC_U+30A4_U+30E4_U+30FC 1
 62
     7
420
 16777215
370
     9
100
AcDb2dPolyline
 66
     1
 10
0.0
 20
0.0
 30
0.0
  0
VERTEX
  5
BB
330
BA
100
AcDbEntity
  8
_U+30EC_U+30A4_U+30E4_U+30FC 1
 62
     7
420
 16777215
370
     9
100
AcDbVertex
100
AcDb2dVertex
 10
95.60259894986339
 20
-156.3759819053506
 30
0.0
  0
VERTEX
  5
BC
330
BA
100
AcDbEntity
  8
_U+30EC_U+30A4_U+30E4_U+30FC 1
 62
     7
420
 16777215
370
     9
100
AcDbVertex
100
AcDb2dVertex
 10
105.6025081391889
 20
-156.3759819053506
 30
0.0
  0
SEQEND
  5
BD
330
BA
100
AcDbEntity
  8
_U+30EC_U+30A4_U+30E4_U+30FC 1
 62
     7
420
 16777215
370
     9
  0
POLYLINE
  5
BE
330
1F
100
AcDbEntity
  8
_U+30EC_U+30A4_U+30E4_U+30FC 1
 62
     7
420
 16777215
370
     9
100
AcDb2dPolyline
 66
     1
 10
0.0
 20
0.0
 30
0.0
  0
VERTEX
  5
BF
330
BE
100
AcDbEntity
  8
_U+30EC_U+30A4_U+30E4_U+30FC 1
 62
     7
420
 16777215
370
     9
100
AcDbVertex
100
AcDb2dVertex
 10
95.60259894986339
 20
-154.9159405168263
 30
0.0
  0
VERTEX
  5
C0
330
BE
100
AcDbEntity
  8
_U+30EC_U+30A4_U+30E4_U+30FC 1
 62
     7
420
 16777215
370
     9
100
AcDbVertex
100
AcDb2dVertex
 10
95.60259894986339
 20
-157.3764244051006
 30
0.0
  0
SEQEND
  5
C1
330
BE
100
AcDbEntity
  8
_U+30EC_U+30A4_U+30E4_U+30FC 1
 62
     7
420
 16777215
370
     9
  0
POLYLINE
  5
C2
330
1F
100
AcDbEntity
  8
_U+30EC_U+30A4_U+30E4_U+30FC 1
 62
     7
420
 16777215
370
     9
100
AcDb2dPolyline
 66
     1
 10
0.0
 20
0.0
 30
0.0
  0
VERTEX
  5
C3
330
C2
100
AcDbEntity
  8
_U+30EC_U+30A4_U+30E4_U+30FC 1
 62
     7
420
 16777215
370
     9
100
AcDbVertex
100
AcDb2dVertex
 10
105.6025081391889
 20
-154.2159235725568
 30
0.0
  0
VERTEX
  5
C4
330
C2
100
AcDbEntity
  8
_U+30EC_U+30A4_U+30E4_U+30FC 1
 62
     7
420
 16777215
370
     9
100
AcDbVertex
100
AcDb2dVertex
 10
105.6025081391889
 20
-157.3764244051006
 30
0.0
  0
SEQEND
  5
C5
330
C2
100
AcDbEntity
  8
_U+30EC_U+30A4_U+30E4_U+30FC 1
 62
     7
420
 16777215
370
     9
  0
INSERT
  5
C7
330
1F
100
AcDbEntity
  8
_U+30EC_U+30A4_U+30E4_U+30FC 1
100
AcDbBlockReference
  2
block 4
 10
0.0
 20
0.0
 30
0.0
  0
POLYLINE
  5
CF
330
1F
100
AcDbEntity
  8
_U+30EC_U+30A4_U+30E4_U+30FC 1
 62
     7
420
 16777215
370
     9
100
AcDb2dPolyline
 66
     1
 10
0.0
 20
0.0
 30
0.0
  0
VERTEX
  5
D0
330
CF
100
AcDbEntity
  8
_U+30EC_U+30A4_U+30E4_U+30FC 1
 62
     7
420
 16777215
370
     9
100
AcDbVertex
100
AcDb2dVertex
 10
123.6024293466393
 20
-151.3764505177112
 30
0.0
  0
VERTEX
  5
D1
330
CF
100
AcDbEntity
  8
_U+30EC_U+30A4_U+30E4_U+30FC 1
 62
     7
420
 16777215
370
     9
100
AcDbVertex
100
AcDb2dVertex
 10
123.6024293466393
 20
-144.8762730193363
 30
0.0
  0
SEQEND
  5
D2
330
CF
100
AcDbEntity
  8
_U+30EC_U+30A4_U+30E4_U+30FC 1
 62
     7
420
 16777215
370
     9
  0
POLYLINE
  5
D3
330
1F
100
AcDbEntity
  8
_U+30EC_U+30A4_U+30E4_U+30FC 1
 62
     7
420
 16777215
370
     9
100
AcDb2dPolyline
 66
     1
 10
0.0
 20
0.0
 30
0.0
  0
VERTEX
  5
D4
330
D3
100
AcDbEntity
  8
_U+30EC_U+30A4_U+30E4_U+30FC 1
 62
     7
420
 16777215
370
     9
100
AcDbVertex
100
AcDb2dVertex
 10
108.1422258521731
 20
-151.3764505177112
 30
0.0
  0
VERTEX
  5
D5
330
D3
100
AcDbEntity
  8
_U+30EC_U+30A4_U+30E4_U+30FC 1
 62
     7
420
 16777215
370
     9
100
AcDbVertex
100
AcDb2dVertex
 10
124.6029070988928
 20
-151.3764505177112
 30
0.0
  0
SEQEND
  5
D6
330
D3
100
AcDbEntity
  8
_U+30EC_U+30A4_U+30E4_U+30FC 1
 62
     7
420
 16777215
370
     9
  0
INSERT
  5
D8
330
1F
100
AcDbEntity
  8
_U+30EC_U+30A4_U+30E4_U+30FC 1
100
AcDbBlockReference
  2
block 5
 10
0.0
 20
0.0
 30
0.0
  0
POLYLINE
  5
E8
330
1F
100
AcDbEntity
  8
_U+30EC_U+30A4_U+30E4_U+30FC 1
 62
     7
420
 16777215
370
     9
100
AcDb2dPolyline
 66
     1
 10
0.0
 20
0.0
 30
0.0
  0
VERTEX
  5
E9
330
E8
100
AcDbEntity
  8
_U+30EC_U+30A4_U+30E4_U+30FC 1
 62
     7
420
 16777215
370
     9
100
AcDbVertex
100
AcDb2dVertex
 10
119.6027055597919
 20
-139.876036076142
 30
0.0
  0
VERTEX
  5
EA
330
E8
100
AcDbEntity
  8
_U+30EC_U+30A4_U+30E4_U+30FC 1
 62
     7
420
 16777215
370
     9
100
AcDbVertex
100
AcDb2dVertex
 10
85.6025133716535
 20
-139.876036076142
 30
0.0
  0
SEQEND
  5
EB
330
E8
100
AcDbEntity
  8
_U+30EC_U+30A4_U+30E4_U+30FC 1
 62
     7
420
 16777215
370
     9
  0
POLYLINE
  5
EC
330
1F
100
AcDbEntity
  8
_U+30EC_U+30A4_U+30E4_U+30FC 1
 62
     7
420
 16777215
370
     9
100
AcDb2dPolyline
 66
     1
 10
0.0
 20
0.0
 30
0.0
  0
VERTEX
  5
ED
330
EC
100
AcDbEntity
  8
_U+30EC_U+30A4_U+30E4_U+30FC 1
 62
     7
420
 16777215
370
     9
100
AcDbVertex
100
AcDb2dVertex
 10
119.6027055597919
 20
-141.3360774646661
 30
0.0
  0
VERTEX
  5
EE
330
EC
100
AcDbEntity
  8
_U+30EC_U+30A4_U+30E4_U+30FC 1
 62
     7
420
 16777215
370
     9
100
AcDbVertex
100
AcDb2dVertex
 10
119.6027055597919
 20
-138.8762638541698
 30
0.0
  0
SEQEND
  5
EF
330
EC
100
AcDbEntity
  8
_U+30EC_U+30A4_U+30E4_U+30FC 1
 62
     7
420
 16777215
370
     9
  0
POLYLINE
  5
F0
330
1F
100
AcDbEntity
  8
_U+30EC_U+30A4_U+30E4_U+30FC 1
 62
     7
420
 16777215
370
     9
100
AcDb2dPolyline
 66
     1
 10
0.0
 20
0.0
 30
0.0
  0
VERTEX
  5
F1
330
F0
100
AcDbEntity
  8
_U+30EC_U+30A4_U+30E4_U+30FC 1
 62
     7
420
 16777215
370
     9
100
AcDbVertex
100
AcDb2dVertex
 10
85.6025133716535
 20
-141.3360774646661
 30
0.0
  0
VERTEX
  5
F2
330
F0
100
AcDbEntity
  8
_U+30EC_U+30A4_U+30E4_U+30FC 1
 62
     7
420
 16777215
370
     9
100
AcDbVertex
100
AcDb2dVertex
 10
85.6025133716535
 20
-138.8762638541698
 30
0.0
  0
SEQEND
  5
F3
330
F0
100
AcDbEntity
  8
_U+30EC_U+30A4_U+30E4_U+30FC 1
 62
     7
420
 16777215
370
     9
  0
INSERT
  5
F5
330
1F
100
AcDbEntity
  8
_U+30EC_U+30A4_U+30E4_U+30FC 1
100
AcDbBlockReference
  2
block 6
 10
0.0
 20
0.0
 30
0.0
  0
POLYLINE
  5
10F
330
1F
100
AcDbEntity
  8
_U+30EC_U+30A4_U+30E4_U+30FC 1
 62
     7
420
 16777215
370
     9
100
AcDb2dPolyline
 66
     1
 10
0.0
 20
0.0
 30
0.0
  0
VERTEX
  5
110
330
10F
100
AcDbEntity
  8
_U+30EC_U+30A4_U+30E4_U+30FC 1
 62
     7
420
 16777215
370
     9
100
AcDbVertex
100
AcDb2dVertex
 10
95.60259894986339
 20
-156.3759819053506
 30
0.0
  0
VERTEX
  5
111
330
10F
100
AcDbEntity
  8
_U+30EC_U+30A4_U+30E4_U+30FC 1
 62
     7
420
 16777215
370
     9
100
AcDbVertex
100
AcDb2dVertex
 10
85.6025133716535
 20
-156.3759819053506
 30
0.0
  0
SEQEND
  5
112
330
10F
100
AcDbEntity
  8
_U+30EC_U+30A4_U+30E4_U+30FC 1
 62
     7
420
 16777215
370
     9
  0
POLYLINE
  5
113
330
1F
100
AcDbEntity
  8
_U+30EC_U+30A4_U+30E4_U+30FC 1
 62
     7
420
 16777215
370
     9
100
AcDb2dPolyline
 66
     1
 10
0.0
 20
0.0
 30
0.0
  0
VERTEX
  5
114
330
113
100
AcDbEntity
  8
_U+30EC_U+30A4_U+30E4_U+30FC 1
 62
     7
420
 16777215
370
     9
100
AcDbVertex
100
AcDb2dVertex
 10
85.6025133716535
 20
-147.4159907964795
 30
0.0
  0
VERTEX
  5
115
330
113
100
AcDbEntity
  8
_U+30EC_U+30A4_U+30E4_U+30FC 1
 62
     7
420
 16777215
370
     9
100
AcDbVertex
100
AcDb2dVertex
 10
85.6025133716535
 20
-157.3764244051006
 30
0.0
  0
SEQEND
  5
116
330
113
100
AcDbEntity
  8
_U+30EC_U+30A4_U+30E4_U+30FC 1
 62
     7
420
 16777215
370
     9
  0
INSERT
  5
118
330
1F
100
AcDbEntity
  8
_U+30EC_U+30A4_U+30E4_U+30FC 1
100
AcDbBlockReference
  2
block 7
 10
0.0
 20
0.0
 30
0.0
  0
POLYLINE
  5
120
330
1F
100
AcDbEntity
  8
_U+30EC_U+30A4_U+30E4_U+30FC 1
 62
     7
420
 16777215
370
     9
100
AcDb2dPolyline
 66
     1
 10
0.0
 20
0.0
 30
0.0
  0
VERTEX
  5
121
330
120
100
AcDbEntity
  8
_U+30EC_U+30A4_U+30E4_U+30FC 1
 62
     7
420
 16777215
370
     9
100
AcDbVertex
100
AcDb2dVertex
 10
105.6025081391889
 20
-152.1426485730756
 30
0.0
  0
VERTEX
  5
122
330
120
100
AcDbEntity
  8
_U+30EC_U+30A4_U+30E4_U+30FC 1
 62
     7
420
 16777215
370
     9
100
AcDbVertex
100
AcDb2dVertex
 10
109.2598258236607
 20
-155.1908602389798
 30
0.0
  0
SEQEND
  5
123
330
120
100
AcDbEntity
  8
_U+30EC_U+30A4_U+30E4_U+30FC 1
 62
     7
420
 16777215
370
     9
  0
INSERT
  5
125
330
1F
100
AcDbEntity
  8
_U+30EC_U+30A4_U+30E4_U+30FC 1
100
AcDbBlockReference
  2
block 8
 10
0.0
 20
0.0
 30
0.0
  0
POLYLINE
  5
162
330
1F
100
AcDbEntity
  8
_U+30EC_U+30A4_U+30E4_U+30FC 1
  6
AI-Linetype-1
 62
   154
420
    23468
370
    25
100
AcDb2dPolyline
 66
     1
 10
0.0
 20
0.0
 30
0.0
  0
VERTEX
  5
163
330
162
100
AcDbEntity
  8
_U+30EC_U+30A4_U+30E4_U+30FC 1
  6
AI-Linetype-1
 62
   154
420
    23468
370
    25
100
AcDbVertex
100
AcDb2dVertex
 10
85.6025133716535
 20
-145.3758063525449
 30
0.0
  0
VERTEX
  5
164
330
162
100
AcDbEntity
  8
_U+30EC_U+30A4_U+30E4_U+30FC 1
  6
AI-Linetype-1
 62
   154
420
    23468
370
    25
100
AcDbVertex
100
AcDb2dVertex
 10
95.10253886511337
 20
-145.3758063525449
 30
0.0
  0
VERTEX
  5
165
330
162
100
AcDbEntity
  8
_U+30EC_U+30A4_U+30E4_U+30FC 1
  6
AI-Linetype-1
 62
   154
420
    23468
370
    25
100
AcDbVertex
100
AcDb2dVertex
 10
95.10253886511337
 20
-152.875756072892
 30
0.0
  0
VERTEX
  5
166
330
162
100
AcDbEntity
  8
_U+30EC_U+30A4_U+30E4_U+30FC 1
  6
AI-Linetype-1
 62
   154
420
    23468
370
    25
100
AcDbVertex
100
AcDb2dVertex
 10
105.6025081391889
 20
-152.1426485730756
 30
0.0
  0
SEQEND
  5
168
330
162
100
AcDbEntity
  8
_U+30EC_U+30A4_U+30E4_U+30FC 1
  6
AI-Linetype-1
 62
   154
420
    23468
370
    25
  0
ENDSEC
  0
SECTION
  2
OBJECTS
  0
DICTIONARY
  5
C
330
0
100
AcDbDictionary
281
     1
  3
ACAD_GROUP
350
D
  3
ACAD_LAYOUT
350
1A
  3
ACAD_MATERIAL
350
3B
  3
ACAD_MLEADERSTYLE
350
16A
  3
ACAD_MLINESTYLE
350
17
  3
ACAD_PLOTSETTINGS
350
19
  3
ACAD_PLOTSTYLENAME
350
E
  3
ACAD_TABLESTYLE
350
169
  3
ACAD_VISUALSTYLE
350
2A
  0
SUN
  5
3F
330
29
100
AcDbSun
 90
        1
290
     0
 63
     7
421
 16777215
 40
1.0
291
     1
 91
  2455826
 92
 54000000
292
     0
 70
     2
 71
   256
280
     1
  0
DICTIONARY
  5
D
102
{ACAD_REACTORS
330
C
102
}
330
C
100
AcDbDictionary
281
     1
  0
DICTIONARY
  5
1A
102
{ACAD_REACTORS
330
C
102
}
330
C
100
AcDbDictionary
281
     1
  3
Layout1
350
1E
  3
Layout2
350
26
  3
Model
350
22
  0
DICTIONARY
  5
3B
102
{ACAD_REACTORS
330
C
102
}
330
C
100
AcDbDictionary
281
     1
  3
ByBlock
350
3D
  3
ByLayer
350
3C
  3
Global
350
3E
  0
DICTIONARY
  5
16A
102
{ACAD_REACTORS
330
C
102
}
330
C
100
AcDbDictionary
281
     1
  0
DICTIONARY
  5
17
102
{ACAD_REACTORS
330
C
102
}
330
C
100
AcDbDictionary
281
     1
  3
Standard
350
18
  0
DICTIONARY
  5
19
102
{ACAD_REACTORS
330
C
102
}
330
C
100
AcDbDictionary
281
     1
  0
ACDBDICTIONARYWDFLT
  5
E
102
{ACAD_REACTORS
330
C
102
}
330
C
100
AcDbDictionary
281
     1
  3
Normal
350
F
100
AcDbDictionaryWithDefault
340
F
  0
DICTIONARY
  5
169
102
{ACAD_REACTORS
330
C
102
}
330
C
100
AcDbDictionary
281
     1
  0
DICTIONARY
  5
2A
102
{ACAD_REACTORS
330
C
102
}
330
C
100
AcDbDictionary
281
     1
  3
2dWireframe
350
2F
  3
3D Hidden
350
31
  3
3dWireframe
350
30
  3
Basic
350
32
  3
Brighten
350
36
  3
ColorChange
350
3A
  3
Conceptual
350
34
  3
Dim
350
35
  3
Facepattern
350
39
  3
Flat
350
2B
  3
FlatWithEdges
350
2C
  3
Gouraud
350
2D
  3
GouraudWithEdges
350
2E
  3
Linepattern
350
38
  3
Realistic
350
33
  3
Thicken
350
37
  0
LAYOUT
  5
1E
102
{ACAD_REACTORS
330
1A
102
}
330
1A
100
AcDbPlotSettings
  1

  2
none_device
  4

  6

 40
0.0
 41
0.0
 42
0.0
 43
0.0
 44
0.0
 45
0.0
 46
0.0
 47
0.0
 48
0.0
 49
0.0
140
0.0
141
0.0
142
1.0
143
1.0
 70
   688
 72
     0
 73
     0
 74
     5
  7

 75
    16
 76
     0
 77
     2
 78
   300
147
1.0
148
0.0
149
0.0
100
AcDbLayout
  1
Layout1
 70
     1
 71
     1
 10
0.0
 20
0.0
 11
12.0
 21
9.0
 12
0.0
 22
0.0
 32
0.0
 14
1.000000000000000E+20
 24
1.000000000000000E+20
 34
1.000000000000000E+20
 15
-1.000000000000000E+20
 25
-1.000000000000000E+20
 35
-1.000000000000000E+20
146
0.0
 13
0.0
 23
0.0
 33
0.0
 16
1.0
 26
0.0
 36
0.0
 17
0.0
 27
1.0
 37
0.0
 76
     0
330
1B
  0
LAYOUT
  5
26
102
{ACAD_REACTORS
330
1A
102
}
330
1A
100
AcDbPlotSettings
  1

  2
none_device
  4

  6

 40
0.0
 41
0.0
 42
0.0
 43
0.0
 44
0.0
 45
0.0
 46
0.0
 47
0.0
 48
0.0
 49
0.0
140
0.0
141
0.0
142
1.0
143
1.0
 70
   688
 72
     0
 73
     0
 74
     5
  7

 75
    16
 76
     0
 77
     2
 78
   300
147
1.0
148
0.0
149
0.0
100
AcDbLayout
  1
Layout2
 70
     1
 71
     2
 10
0.0
 20
0.0
 11
0.0
 21
0.0
 12
0.0
 22
0.0
 32
0.0
 14
0.0
 24
0.0
 34
0.0
 15
0.0
 25
0.0
 35
0.0
146
0.0
 13
0.0
 23
0.0
 33
0.0
 16
1.0
 26
0.0
 36
0.0
 17
0.0
 27
1.0
 37
0.0
 76
     0
330
23
  0
LAYOUT
  5
22
102
{ACAD_REACTORS
330
1A
102
}
330
1A
100
AcDbPlotSettings
  1

  2
none_device
  4

  6

 40
0.0
 41
0.0
 42
0.0
 43
0.0
 44
0.0
 45
0.0
 46
0.0
 47
0.0
 48
0.0
 49
0.0
140
0.0
141
0.0
142
1.0
143
1.0
 70
  1712
 72
     0
 73
     0
 74
     0
  7

 75
     0
 76
     0
 77
     2
 78
   300
147
1.0
148
0.0
149
0.0
100
AcDbLayout
  1
Model
 70
     1
 71
     0
 10
0.0
 20
0.0
 11
12.0
 21
9.0
 12
0.0
 22
0.0
 32
0.0
 14
1.000000000000000E+20
 24
1.000000000000000E+20
 34
1.000000000000000E+20
 15
-1.000000000000000E+20
 25
-1.000000000000000E+20
 35
-1.000000000000000E+20
146
0.0
 13
0.0
 23
0.0
 33
0.0
 16
1.0
 26
0.0
 36
0.0
 17
0.0
 27
1.0
 37
0.0
 76
     0
330
1F
331
29
  0
MATERIAL
  5
3D
102
{ACAD_REACTORS
330
3B
102
}
330
3B
100
AcDbMaterial
  1
ByBlock
 72
     1
 94
      127
  0
MATERIAL
  5
3C
102
{ACAD_REACTORS
330
3B
102
}
330
3B
100
AcDbMaterial
  1
ByLayer
 72
     1
 94
      127
  0
MATERIAL
  5
3E
102
{ACAD_REACTORS
330
3B
102
}
330
3B
100
AcDbMaterial
  1
Global
 72
     1
 94
      127
  0
MLINESTYLE
  5
18
102
{ACAD_REACTORS
330
17
102
}
330
17
100
AcDbMlineStyle
  2
Standard
 70
     0
  3

 62
   256
 51
90.0
 52
90.0
 71
     2
 49
0.5
 62
   256
  6
BYLAYER
 49
-0.5
 62
   256
  6
BYLAYER
  0
ACDBPLACEHOLDER
  5
F
102
{ACAD_REACTORS
330
E
102
}
330
E
  0
VISUALSTYLE
  5
2F
102
{ACAD_REACTORS
330
2A
102
}
330
2A
100
AcDbVisualStyle
  2
2dWireframe
 70
     4
177
     2
291
     0
 71
     0
176
     1
 72
     2
176
     1
 73
     0
176
     1
 90
        0
176
     1
 40
-0.6
176
     1
 41
-30.0
176
     1
 62
     5
 63
     7
421
 16777215
176
     1
 74
     1
176
     1
 91
        4
176
     1
 64
     7
176
     1
 65
   257
176
     1
 75
     1
176
     1
175
     1
176
     1
 42
1.0
176
     1
 92
        0
176
     1
 66
   257
176
     1
 43
1.0
176
     1
 76
     1
176
     1
 77
     6
176
     1
 78
     2
176
     1
 67
     7
176
     1
 79
     5
176
     1
170
     0
176
     1
171
     0
176
     1
290
     0
176
     1
 93
        1
176
     1
 44
0.0
176
     1
173
     0
176
     1
  0
VISUALSTYLE
  5
31
102
{ACAD_REACTORS
330
2A
102
}
330
2A
100
AcDbVisualStyle
  2
3D Hidden
 70
     6
177
     2
291
     0
 71
     1
176
     1
 72
     2
176
     1
 73
     2
176
     1
 90
        0
176
     1
 40
-0.6
176
     1
 41
-30.0
176
     1
 62
     5
 63
     7
421
 16777215
176
     1
 74
     2
176
     1
 91
        2
176
     1
 64
     7
176
     1
 65
   257
176
     1
 75
     2
176
     1
175
     1
176
     1
 42
40.0
176
     1
 92
        0
176
     1
 66
   257
176
     1
 43
1.0
176
     1
 76
     1
176
     1
 77
     6
176
     1
 78
     2
176
     1
 67
     7
176
     1
 79
     3
176
     1
170
     0
176
     1
171
     0
176
     1
290
     0
176
     1
 93
        1
176
     1
 44
0.0
176
     1
173
     0
176
     1
  0
VISUALSTYLE
  5
30
102
{ACAD_REACTORS
330
2A
102
}
330
2A
100
AcDbVisualStyle
  2
3dWireframe
 70
     5
177
     2
291
     0
 71
     0
176
     1
 72
     2
176
     1
 73
     0
176
     1
 90
        0
176
     1
 40
-0.6
176
     1
 41
-30.0
176
     1
 62
     5
 63
     7
421
 16777215
176
     1
 74
     1
176
     1
 91
        4
176
     1
 64
     7
176
     1
 65
   257
176
     1
 75
     1
176
     1
175
     1
176
     1
 42
1.0
176
     1
 92
        0
176
     1
 66
   257
176
     1
 43
1.0
176
     1
 76
     1
176
     1
 77
     6
176
     1
 78
     2
176
     1
 67
     7
176
     1
 79
     5
176
     1
170
     0
176
     1
171
     0
176
     1
290
     0
176
     1
 93
        1
176
     1
 44
0.0
176
     1
173
     0
176
     1
  0
VISUALSTYLE
  5
32
102
{ACAD_REACTORS
330
2A
102
}
330
2A
100
AcDbVisualStyle
  2
Basic
 70
     7
177
     2
291
     1
 71
     1
176
     1
 72
     0
176
     1
 73
     1
176
     1
 90
        0
176
     1
 40
-0.6
176
     1
 41
-30.0
176
     1
 62
     5
 63
     7
421
 16777215
176
     1
 74
     0
176
     1
 91
        4
176
     1
 64
     7
176
     1
 65
   257
176
     1
 75
     1
176
     1
175
     1
176
     1
 42
1.0
176
     1
 92
        8
176
     1
 66
     7
176
     1
 43
1.0
176
     1
 76
     1
176
     1
 77
     6
176
     1
 78
     2
176
     1
 67
     7
176
     1
 79
     5
176
     1
170
     0
176
     1
171
     0
176
     1
290
     0
176
     1
 93
        1
176
     1
 44
0.0
176
     1
173
     0
176
     1
  0
VISUALSTYLE
  5
36
102
{ACAD_REACTORS
330
2A
102
}
330
2A
100
AcDbVisualStyle
  2
Brighten
 70
    12
177
     2
291
     1
 71
     2
176
     1
 72
     2
176
     1
 73
     0
176
     1
 90
        0
176
     1
 40
-0.6
176
     1
 41
-30.0
176
     1
 62
     5
 63
     7
421
 16777215
176
     1
 74
     1
176
     1
 91
        4
176
     1
 64
     7
176
     1
 65
   257
176
     1
 75
     1
176
     1
175
     1
176
     1
 42
1.0
176
     1
 92
        8
176
     1
 66
     7
176
     1
 43
1.0
176
     1
 76
     1
176
     1
 77
     6
176
     1
 78
     2
176
     1
 67
     7
176
     1
 79
     5
176
     1
170
     0
176
     1
171
     0
176
     1
290
     0
176
     1
 93
        1
176
     1
 44
50.0
176
     1
173
     0
176
     1
  0
VISUALSTYLE
  5
3A
102
{ACAD_REACTORS
330
2A
102
}
330
2A
100
AcDbVisualStyle
  2
ColorChange
 70
    16
177
     2
291
     1
 71
     2
176
     1
 72
     2
176
     1
 73
     3
176
     1
 90
        0
176
     1
 40
-0.6
176
     1
 41
-30.0
176
     1
 62
     5
 63
     8
421
  8421504
176
     1
 74
     1
176
     1
 91
        4
176
     1
 64
     7
176
     1
 65
   257
176
     1
 75
     1
176
     1
175
     1
176
     1
 42
1.0
176
     1
 92
        8
176
     1
 66
     8
424
  8421504
176
     1
 43
1.0
176
     1
 76
     1
176
     1
 77
     6
176
     1
 78
     2
176
     1
 67
     7
176
     1
 79
     5
176
     1
170
     0
176
     1
171
     0
176
     1
290
     0
176
     1
 93
        1
176
     1
 44
0.0
176
     1
173
     0
176
     1
  0
VISUALSTYLE
  5
34
102
{ACAD_REACTORS
330
2A
102
}
330
2A
100
AcDbVisualStyle
  2
Conceptual
 70
     9
177
     2
291
     0
 71
     3
176
     1
 72
     2
176
     1
 73
     0
176
     1
 90
        0
176
     1
 40
-0.6
176
     1
 41
-30.0
176
     1
 62
     5
 63
     7
421
 16777215
176
     1
 74
     2
176
     1
 91
        2
176
     1
 64
     7
176
     1
 65
   257
176
     1
 75
     1
176
     1
175
     1
176
     1
 42
40.0
176
     1
 92
        8
176
     1
 66
     7
176
     1
 43
1.0
176
     1
 76
     1
176
     1
 77
     6
176
     1
 78
     2
176
     1
 67
     7
176
     1
 79
     3
176
     1
170
     0
176
     1
171
     0
176
     1
290
     0
176
     1
 93
        1
176
     1
 44
0.0
176
     1
173
     0
176
     1
  0
VISUALSTYLE
  5
35
102
{ACAD_REACTORS
330
2A
102
}
330
2A
100
AcDbVisualStyle
  2
Dim
 70
    11
177
     2
291
     1
 71
     2
176
     1
 72
     2
176
     1
 73
     0
176
     1
 90
        0
176
     1
 40
-0.6
176
     1
 41
-30.0
176
     1
 62
     5
 63
     7
421
 16777215
176
     1
 74
     1
176
     1
 91
        4
176
     1
 64
     7
176
     1
 65
   257
176
     1
 75
     1
176
     1
175
     1
176
     1
 42
1.0
176
     1
 92
        8
176
     1
 66
     7
176
     1
 43
1.0
176
     1
 76
     1
176
     1
 77
     6
176
     1
 78
     2
176
     1
 67
     7
176
     1
 79
     5
176
     1
170
     0
176
     1
171
     0
176
     1
290
     0
176
     1
 93
        1
176
     1
 44
-50.0
176
     1
173
     0
176
     1
  0
VISUALSTYLE
  5
39
102
{ACAD_REACTORS
330
2A
102
}
330
2A
100
AcDbVisualStyle
  2
Facepattern
 70
    15
177
     2
291
     1
 71
     2
176
     1
 72
     2
176
     1
 73
     0
176
     1
 90
        0
176
     1
 40
-0.6
176
     1
 41
-30.0
176
     1
 62
     5
 63
     7
421
 16777215
176
     1
 74
     1
176
     1
 91
        4
176
     1
 64
     7
176
     1
 65
   257
176
     1
 75
     1
176
     1
175
     1
176
     1
 42
1.0
176
     1
 92
        8
176
     1
 66
     7
176
     1
 43
1.0
176
     1
 76
     1
176
     1
 77
     6
176
     1
 78
     2
176
     1
 67
     7
176
     1
 79
     5
176
     1
170
     0
176
     1
171
     0
176
     1
290
     0
176
     1
 93
        1
176
     1
 44
0.0
176
     1
173
     0
176
     1
  0
VISUALSTYLE
  5
2B
102
{ACAD_REACTORS
330
2A
102
}
330
2A
100
AcDbVisualStyle
  2
Flat
 70
     0
177
     2
291
     1
 71
     2
176
     1
 72
     1
176
     1
 73
     1
176
     1
 90
        2
176
     1
 40
-0.6
176
     1
 41
30.0
176
     1
 62
     5
 63
     7
421
 16777215
176
     1
 74
     0
176
     1
 91
        4
176
     1
 64
     7
176
     1
 65
   257
176
     1
 75
     1
176
     1
175
     1
176
     1
 42
1.0
176
     1
 92
        8
176
     1
 66
     7
176
     1
 43
1.0
176
     1
 76
     1
176
     1
 77
     6
176
     1
 78
     2
176
     1
 67
     7
176
     1
 79
     5
176
     1
170
     0
176
     1
171
     0
176
     1
290
     0
176
     1
 93
       13
176
     1
 44
0.0
176
     1
173
     0
176
     1
  0
VISUALSTYLE
  5
2C
102
{ACAD_REACTORS
330
2A
102
}
330
2A
100
AcDbVisualStyle
  2
FlatWithEdges
 70
     1
177
     2
291
     1
 71
     2
176
     1
 72
     1
176
     1
 73
     1
176
     1
 90
        2
176
     1
 40
-0.6
176
     1
 41
30.0
176
     1
 62
     5
 63
     7
421
 16777215
176
     1
 74
     1
176
     1
 91
        4
176
     1
 64
     7
176
     1
 65
   257
176
     1
 75
     1
176
     1
175
     1
176
     1
 42
1.0
176
     1
 92
        0
176
     1
 66
   257
176
     1
 43
1.0
176
     1
 76
     1
176
     1
 77
     6
176
     1
 78
     2
176
     1
 67
     7
176
     1
 79
     5
176
     1
170
     0
176
     1
171
     0
176
     1
290
     0
176
     1
 93
       13
176
     1
 44
0.0
176
     1
173
     0
176
     1
  0
VISUALSTYLE
  5
2D
102
{ACAD_REACTORS
330
2A
102
}
330
2A
100
AcDbVisualStyle
  2
Gouraud
 70
     2
177
     2
291
     1
 71
     2
176
     1
 72
     2
176
     1
 73
     1
176
     1
 90
        2
176
     1
 40
-0.6
176
     1
 41
30.0
176
     1
 62
     5
 63
     7
421
 16777215
176
     1
 74
     0
176
     1
 91
        4
176
     1
 64
     7
176
     1
 65
   257
176
     1
 75
     1
176
     1
175
     1
176
     1
 42
1.0
176
     1
 92
        0
176
     1
 66
     7
176
     1
 43
1.0
176
     1
 76
     1
176
     1
 77
     6
176
     1
 78
     2
176
     1
 67
     7
176
     1
 79
     5
176
     1
170
     0
176
     1
171
     0
176
     1
290
     0
176
     1
 93
       13
176
     1
 44
0.0
176
     1
173
     0
176
     1
  0
VISUALSTYLE
  5
2E
102
{ACAD_REACTORS
330
2A
102
}
330
2A
100
AcDbVisualStyle
  2
GouraudWithEdges
 70
     3
177
     2
291
     1
 71
     2
176
     1
 72
     2
176
     1
 73
     1
176
     1
 90
        2
176
     1
 40
-0.6
176
     1
 41
30.0
176
     1
 62
     5
 63
     7
421
 16777215
176
     1
 74
     1
176
     1
 91
        4
176
     1
 64
     7
176
     1
 65
   257
176
     1
 75
     1
176
     1
175
     1
176
     1
 42
1.0
176
     1
 92
        0
176
     1
 66
   257
176
     1
 43
1.0
176
     1
 76
     1
176
     1
 77
     6
176
     1
 78
     2
176
     1
 67
     7
176
     1
 79
     5
176
     1
170
     0
176
     1
171
     0
176
     1
290
     0
176
     1
 93
       13
176
     1
 44
0.0
176
     1
173
     0
176
     1
  0
VISUALSTYLE
  5
38
102
{ACAD_REACTORS
330
2A
102
}
330
2A
100
AcDbVisualStyle
  2
Linepattern
 70
    14
177
     2
291
     1
 71
     2
176
     1
 72
     2
176
     1
 73
     0
176
     1
 90
        0
176
     1
 40
-0.6
176
     1
 41
-30.0
176
     1
 62
     5
 63
     7
421
 16777215
176
     1
 74
     1
176
     1
 91
        4
176
     1
 64
     7
176
     1
 65
   257
176
     1
 75
     7
176
     1
175
     7
176
     1
 42
1.0
176
     1
 92
        8
176
     1
 66
     7
176
     1
 43
1.0
176
     1
 76
     1
176
     1
 77
     6
176
     1
 78
     2
176
     1
 67
     7
176
     1
 79
     5
176
     1
170
     0
176
     1
171
     0
176
     1
290
     0
176
     1
 93
        1
176
     1
 44
0.0
176
     1
173
     0
176
     1
  0
VISUALSTYLE
  5
33
102
{ACAD_REACTORS
330
2A
102
}
330
2A
100
AcDbVisualStyle
  2
Realistic
 70
     8
177
     2
291
     0
 71
     2
176
     1
 72
     2
176
     1
 73
     0
176
     1
 90
        0
176
     1
 40
-0.6
176
     1
 41
-30.0
176
     1
 62
     5
 63
     7
421
 16777215
176
     1
 74
     1
176
     1
 91
        0
176
     1
 64
     7
176
     1
 65
   257
176
     1
 75
     1
176
     1
175
     1
176
     1
 42
1.0
176
     1
 92
        8
176
     1
 66
     8
424
  7895160
176
     1
 43
1.0
176
     1
 76
     1
176
     1
 77
     6
176
     1
 78
     2
176
     1
 67
     7
176
     1
 79
     5
176
     1
170
     0
176
     1
171
     0
176
     1
290
     0
176
     1
 93
       13
176
     1
 44
0.0
176
     1
173
     0
176
     1
  0
VISUALSTYLE
  5
37
102
{ACAD_REACTORS
330
2A
102
}
330
2A
100
AcDbVisualStyle
  2
Thicken
 70
    13
177
     2
291
     1
 71
     2
176
     1
 72
     2
176
     1
 73
     0
176
     1
 90
        0
176
     1
 40
-0.6
176
     1
 41
-30.0
176
     1
 62
     5
 63
     7
421
 16777215
176
     1
 74
     1
176
     1
 91
        4
176
     1
 64
     7
176
     1
 65
   257
176
     1
 75
     1
176
     1
175
     1
176
     1
 42
1.0
176
     1
 92
       12
176
     1
 66
     7
176
     1
 43
1.0
176
     1
 76
     1
176
     1
 77
     6
176
     1
 78
     2
176
     1
 67
     7
176
     1
 79
     5
176
     1
170
     0
176
     1
171
     0
176
     1
290
     0
176
     1
 93
        1
176
     1
 44
0.0
176
     1
173
     0
176
     1
  0
ENDSEC
  0
EOF
