  0
SECTION
  2
HEADER
  9
$ACADVER
  1
AC1024
  9
$ACADMAINTVER
 70
     6
  9
$DWGCODEPAGE
  3
UNDEFINED
  9
$INSBASE
 10
0.0
 20
0.0
 30
0.0
  9
$EXTMIN
 10
1.000000000000000E+20
 20
1.000000000000000E+20
 30
1.000000000000000E+20
  9
$EXTMAX
 10
-1.000000000000000E+20
 20
-1.000000000000000E+20
 30
-1.000000000000000E+20
  9
$LIMMIN
 10
0.0
 20
0.0
  9
$LIMMAX
 10
12.0
 20
9.0
  9
$ORTHOMODE
 70
     0
  9
$REGENMODE
 70
     1
  9
$FILLMODE
 70
     1
  9
$QTEXTMODE
 70
     0
  9
$MIRRTEXT
 70
     1
  9
$LTSCALE
 40
1.0
  9
$ATTMODE
 70
     1
  9
$TEXTSIZE
 40
0.2
  9
$TRACEWID
 40
0.05
  9
$TEXTSTYLE
  7
Standard
  9
$CLAYER
  8
0
  9
$CELTYPE
  6
ByLayer
  9
$CECOLOR
 62
   256
  9
$CELTSCALE
 40
1.0
  9
$DISPSILH
 70
     0
  9
$DIMSCALE
 40
1.0
  9
$DIMASZ
 40
0.18
  9
$DIMEXO
 40
0.0625
  9
$DIMDLI
 40
0.38
  9
$DIMRND
 40
0.0
  9
$DIMDLE
 40
0.0
  9
$DIMEXE
 40
0.18
  9
$DIMTP
 40
0.0
  9
$DIMTM
 40
0.0
  9
$DIMTXT
 40
0.18
  9
$DIMCEN
 40
0.09
  9
$DIMTSZ
 40
0.0
  9
$DIMTOL
 70
     0
  9
$DIMLIM
 70
     0
  9
$DIMTIH
 70
     1
  9
$DIMTOH
 70
     1
  9
$DIMSE1
 70
     0
  9
$DIMSE2
 70
     0
  9
$DIMTAD
 70
     0
  9
$DIMZIN
 70
     0
  9
$DIMBLK
  1

  9
$DIMASO
 70
     1
  9
$DIMSHO
 70
     1
  9
$DIMPOST
  1

  9
$DIMAPOST
  1

  9
$DIMALT
 70
     0
  9
$DIMALTD
 70
     2
  9
$DIMALTF
 40
25.4
  9
$DIMLFAC
 40
1.0
  9
$DIMTOFL
 70
     0
  9
$DIMTVP
 40
0.0
  9
$DIMTIX
 70
     0
  9
$DIMSOXD
 70
     0
  9
$DIMSAH
 70
     0
  9
$DIMBLK1
  1

  9
$DIMBLK2
  1

  9
$DIMSTYLE
  2
Standard
  9
$DIMCLRD
 70
     0
  9
$DIMCLRE
 70
     0
  9
$DIMCLRT
 70
     0
  9
$DIMTFAC
 40
1.0
  9
$DIMGAP
 40
0.09
  9
$DIMJUST
 70
     0
  9
$DIMSD1
 70
     0
  9
$DIMSD2
 70
     0
  9
$DIMTOLJ
 70
     1
  9
$DIMTZIN
 70
     0
  9
$DIMALTZ
 70
     0
  9
$DIMALTTZ
 70
     0
  9
$DIMUPT
 70
     0
  9
$DIMDEC
 70
     4
  9
$DIMTDEC
 70
     4
  9
$DIMALTU
 70
     2
  9
$DIMALTTD
 70
     2
  9
$DIMTXSTY
  7
Standard
  9
$DIMAUNIT
 70
     0
  9
$DIMADEC
 70
     0
  9
$DIMALTRND
 40
0.0
  9
$DIMAZIN
 70
     0
  9
$DIMDSEP
 70
    46
  9
$DIMATFIT
 70
     3
  9
$DIMFRAC
 70
     0
  9
$DIMLDRBLK
  1

  9
$DIMLUNIT
 70
     2
  9
$DIMLWD
 70
    -2
  9
$DIMLWE
 70
    -2
  9
$DIMTMOVE
 70
     0
  9
$DIMFXL
 40
1.0
  9
$DIMFXLON
 70
     0
  9
$DIMJOGANG
 40
0.7853981633974483
  9
$DIMTFILL
 70
     0
  9
$DIMTFILLCLR
 70
     0
  9
$DIMARCSYM
 70
     0
  9
$DIMLTYPE
  6

  9
$DIMLTEX1
  6

  9
$DIMLTEX2
  6

  9
$DIMTXTDIRECTION
 70
     0
  9
$LUNITS
 70
     2
  9
$LUPREC
 70
     4
  9
$SKETCHINC
 40
0.1
  9
$FILLETRAD
 40
0.5
  9
$AUNITS
 70
     0
  9
$AUPREC
 70
     0
  9
$MENU
  1
.
  9
$ELEVATION
 40
0.0
  9
$PELEVATION
 40
0.0
  9
$THICKNESS
 40
0.0
  9
$LIMCHECK
 70
     0
  9
$CHAMFERA
 40
0.5
  9
$CHAMFERB
 40
0.5
  9
$CHAMFERC
 40
1.0
  9
$CHAMFERD
 40
0.0
  9
$SKPOLY
 70
     0
  9
$TDCREATE
 40
2457917.610185174
  9
$TDUCREATE
 40
2457917.235185185
  9
$TDUPDATE
 40
2457917.610185174
  9
$TDUUPDATE
 40
2457917.235185185
  9
$TDINDWG
 40
0.0000000116
  9
$TDUSRTIMER
 40
0.0000000116
  9
$USRTIMER
 70
     1
  9
$ANGBASE
 50
0.0
  9
$ANGDIR
 70
     0
  9
$PDMODE
 70
     0
  9
$PDSIZE
 40
0.0
  9
$PLINEWID
 40
0.0
  9
$SPLFRAME
 70
     0
  9
$SPLINETYPE
 70
     6
  9
$SPLINESEGS
 70
     8
  9
$HANDSEED
  5
15B
  9
$SURFTAB1
 70
     6
  9
$SURFTAB2
 70
     6
  9
$SURFTYPE
 70
     6
  9
$SURFU
 70
     6
  9
$SURFV
 70
     6
  9
$UCSBASE
  2

  9
$UCSNAME
  2

  9
$UCSORG
 10
0.0
 20
0.0
 30
0.0
  9
$UCSXDIR
 10
1.0
 20
0.0
 30
0.0
  9
$UCSYDIR
 10
0.0
 20
1.0
 30
0.0
  9
$UCSORTHOREF
  2

  9
$UCSORTHOVIEW
 70
     0
  9
$UCSORGTOP
 10
0.0
 20
0.0
 30
0.0
  9
$UCSORGBOTTOM
 10
0.0
 20
0.0
 30
0.0
  9
$UCSORGLEFT
 10
0.0
 20
0.0
 30
0.0
  9
$UCSORGRIGHT
 10
0.0
 20
0.0
 30
0.0
  9
$UCSORGFRONT
 10
0.0
 20
0.0
 30
0.0
  9
$UCSORGBACK
 10
0.0
 20
0.0
 30
0.0
  9
$PUCSBASE
  2

  9
$PUCSNAME
  2

  9
$PUCSORG
 10
0.0
 20
0.0
 30
0.0
  9
$PUCSXDIR
 10
1.0
 20
0.0
 30
0.0
  9
$PUCSYDIR
 10
0.0
 20
1.0
 30
0.0
  9
$PUCSORTHOREF
  2

  9
$PUCSORTHOVIEW
 70
     0
  9
$PUCSORGTOP
 10
0.0
 20
0.0
 30
0.0
  9
$PUCSORGBOTTOM
 10
0.0
 20
0.0
 30
0.0
  9
$PUCSORGLEFT
 10
0.0
 20
0.0
 30
0.0
  9
$PUCSORGRIGHT
 10
0.0
 20
0.0
 30
0.0
  9
$PUCSORGFRONT
 10
0.0
 20
0.0
 30
0.0
  9
$PUCSORGBACK
 10
0.0
 20
0.0
 30
0.0
  9
$USERI1
 70
     0
  9
$USERI2
 70
     0
  9
$USERI3
 70
     0
  9
$USERI4
 70
     0
  9
$USERI5
 70
     0
  9
$USERR1
 40
0.0
  9
$USERR2
 40
0.0
  9
$USERR3
 40
0.0
  9
$USERR4
 40
0.0
  9
$USERR5
 40
0.0
  9
$WORLDVIEW
 70
     1
  9
$SHADEDGE
 70
     3
  9
$SHADEDIF
 70
    70
  9
$TILEMODE
 70
     1
  9
$MAXACTVP
 70
    64
  9
$PINSBASE
 10
0.0
 20
0.0
 30
0.0
  9
$PLIMCHECK
 70
     0
  9
$PEXTMIN
 10
1.000000000000000E+20
 20
1.000000000000000E+20
 30
1.000000000000000E+20
  9
$PEXTMAX
 10
-1.000000000000000E+20
 20
-1.000000000000000E+20
 30
-1.000000000000000E+20
  9
$PLIMMIN
 10
0.0
 20
0.0
  9
$PLIMMAX
 10
12.0
 20
9.0
  9
$UNITMODE
 70
     0
  9
$VISRETAIN
 70
     1
  9
$PLINEGEN
 70
     0
  9
$PSLTSCALE
 70
     1
  9
$TREEDEPTH
 70
  3020
  9
$CMLSTYLE
  2
Standard
  9
$CMLJUST
 70
     0
  9
$CMLSCALE
 40
1.0
  9
$PROXYGRAPHICS
 70
     1
  9
$MEASUREMENT
 70
     0
  9
$CELWEIGHT
370
    -1
  9
$ENDCAPS
280
     0
  9
$JOINSTYLE
280
     0
  9
$LWDISPLAY
290
     1
  9
$INSUNITS
 70
     1
  9
$HYPERLINKBASE
  1

  9
$STYLESHEET
  1

  9
$XEDIT
290
     1
  9
$CEPSNTYPE
380
     0
  9
$PSTYLEMODE
290
     1
  9
$FINGERPRINTGUID
  2
{6C83238E-322C-5AF7-EBF8-3CB2CC327E8A}
  9
$VERSIONGUID
  2
{FAEB1C32-E019-11D5-929B-00C0DF256EC4}
  9
$EXTNAMES
290
     1
  9
$PSVPSCALE
 40
0.0
  9
$OLESTARTUP
290
     0
  9
$SORTENTS
280
   127
  9
$INDEXCTL
280
     0
  9
$HIDETEXT
280
     1
  9
$XCLIPFRAME
280
     2
  9
$HALOGAP
280
     0
  9
$OBSCOLOR
 70
   257
  9
$OBSLTYPE
280
     0
  9
$INTERSECTIONDISPLAY
280
     0
  9
$INTERSECTIONCOLOR
 70
   257
  9
$DIMASSOC
280
     2
  9
$PROJECTNAME
  1

  9
$CAMERADISPLAY
290
     0
  9
$LENSLENGTH
 40
50.0
  9
$CAMERAHEIGHT
 40
0.0
  9
$STEPSPERSEC
 40
2.0
  9
$STEPSIZE
 40
6.0
  9
$3DDWFPREC
 40
2.0
  9
$PSOLWIDTH
 40
0.25
  9
$PSOLHEIGHT
 40
4.0
  9
$LOFTANG1
 40
1.570796326794897
  9
$LOFTANG2
 40
1.570796326794897
  9
$LOFTMAG1
 40
0.0
  9
$LOFTMAG2
 40
0.0
  9
$LOFTPARAM
 70
     7
  9
$LOFTNORMALS
280
     1
  9
$LATITUDE
 40
37.795
  9
$LONGITUDE
 40
-122.394
  9
$NORTHDIRECTION
 40
0.0
  9
$TIMEZONE
 70
 -8000
  9
$LIGHTGLYPHDISPLAY
280
     1
  9
$TILEMODELIGHTSYNCH
280
     1
  9
$CMATERIAL
347
3C
  9
$SOLIDHIST
280
     1
  9
$SHOWHIST
280
     1
  9
$DWFFRAME
280
     2
  9
$DGNFRAME
280
     2
  9
$REALWORLDSCALE
290
     1
  9
$INTERFERECOLOR
 62
   256
  9
$CSHADOW
280
     0
  9
$SHADOWPLANELOCATION
 40
0.0
  0
ENDSEC
  0
SECTION
  2
CLASSES
  0
CLASS
  1
ACDBDICTIONARYWDFLT
  2
AcDbDictionaryWithDefault
  3
ObjectDBX Classes
 90
        0
 91
        4
280
     0
281
     0
  0
CLASS
  1
VISUALSTYLE
  2
AcDbVisualStyle
  3
ObjectDBX Classes
 90
     4095
 91
        4
280
     0
281
     0
  0
CLASS
  1
MATERIAL
  2
AcDbMaterial
  3
ObjectDBX Classes
 90
     1153
 91
        4
280
     0
281
     0
  0
CLASS
  1
SUN
  2
AcDbSun
  3
SCENEOE
 90
     1024
 91
        4
280
     0
281
     0
  0
ENDSEC
  0
SECTION
  2
TABLES
  0
TABLE
  2
VPORT
  5
8
330
0
100
AcDbSymbolTable
 70
     1
  0
VPORT
  5
29
330
8
100
AcDbSymbolTableRecord
100
AcDbViewportTableRecord
  2
*Active
 70
     0
 10
0.0
 20
0.0
 11
1.0
 21
1.0
 12
0.0
 22
0.0
 13
0.0
 23
0.0
 14
0.5
 24
0.5
 15
0.5
 25
0.5
 16
0.0
 26
0.0
 36
1.0
 17
105.0008280156501
 27
-148.4999710739862
 37
0.0
 40
296.9999421479724
 41
0.7070764206636528
 42
50.0
 43
0.0
 44
0.0
 50
0.0
 51
0.0
 71
     0
 72
   100
 73
     1
 74
     3
 75
     0
 76
     0
 77
     0
 78
     0
281
     0
 65
     1
110
0.0
120
0.0
130
0.0
111
1.0
121
0.0
131
0.0
112
0.0
122
1.0
132
0.0
 79
     0
146
0.0
 60
     3
 61
     5
292
     1
282
     1
141
0.0
142
0.0
 63
   250
361
3F
  0
ENDTAB
  0
TABLE
  2
LTYPE
  5
5
330
0
100
AcDbSymbolTable
 70
     2
  0
LTYPE
  5
14
330
5
100
AcDbSymbolTableRecord
100
AcDbLinetypeTableRecord
  2
ByBlock
 70
     0
  3

 72
    65
 73
     0
 40
0.0
  0
LTYPE
  5
15
330
5
100
AcDbSymbolTableRecord
100
AcDbLinetypeTableRecord
  2
ByLayer
 70
     0
  3

 72
    65
 73
     0
 40
0.0
  0
LTYPE
  5
16
330
5
100
AcDbSymbolTableRecord
100
AcDbLinetypeTableRecord
  2
Continuous
 70
     0
  3
Solid line
 72
    65
 73
     0
 40
0.0
  0
LTYPE
  5
157
330
5
100
AcDbSymbolTableRecord
100
AcDbLinetypeTableRecord
  2
AI-Linetype-1
 70
     0
  3
Adobe Illustrator Linetype No. 1
 72
    65
 73
     2
 40
1.411111110758333
 49
0.7055555553791667
 74
     0
 49
-0.7055555553791667
 74
     0
  0
ENDTAB
  0
TABLE
  2
LAYER
  5
2
330
0
100
AcDbSymbolTable
 70
     2
  0
LAYER
  5
10
330
2
100
AcDbSymbolTableRecord
100
AcDbLayerTableRecord
  2
0
 70
     0
 62
     7
  6
Continuous
370
    -3
390
F
347
3E
  0
LAYER
  5
40
330
2
100
AcDbSymbolTableRecord
100
AcDbLayerTableRecord
  2
_U+30EC_U+30A4_U+30E4_U+30FC 1
 70
     0
 62
     7
  6
Continuous
370
    -3
390
F
347
3E
  0
ENDTAB
  0
TABLE
  2
STYLE
  5
3
330
0
100
AcDbSymbolTable
 70
     1
  0
STYLE
  5
11
330
3
100
AcDbSymbolTableRecord
100
AcDbTextStyleTableRecord
  2
Standard
 70
     0
 40
0.0
 41
1.0
 50
0.0
 71
     0
 42
0.2
  3
txt
  4

  0
ENDTAB
  0
TABLE
  2
VIEW
  5
6
330
0
100
AcDbSymbolTable
 70
     0
  0
ENDTAB
  0
TABLE
  2
UCS
  5
7
330
0
100
AcDbSymbolTable
 70
     0
  0
ENDTAB
  0
TABLE
  2
APPID
  5
9
330
0
100
AcDbSymbolTable
 70
     1
  0
APPID
  5
12
330
9
100
AcDbSymbolTableRecord
100
AcDbRegAppTableRecord
  2
ACAD
 70
     0
  0
ENDTAB
  0
TABLE
  2
DIMSTYLE
  5
A
330
0
100
AcDbSymbolTable
 70
     1
100
AcDbDimStyleTable
  0
DIMSTYLE
105
27
330
A
100
AcDbSymbolTableRecord
100
AcDbDimStyleTableRecord
  2
Standard
 70
     0
178
     0
340
11
  0
ENDTAB
  0
TABLE
  2
BLOCK_RECORD
  5
1
330
0
100
AcDbSymbolTable
 70
     8
  0
BLOCK_RECORD
  5
1F
330
1
100
AcDbSymbolTableRecord
100
AcDbBlockTableRecord
  2
*Model_Space
340
22
 70
     0
280
     1
281
     0
  0
BLOCK_RECORD
  5
1B
330
1
100
AcDbSymbolTableRecord
100
AcDbBlockTableRecord
  2
*Paper_Space
340
1E
 70
     0
280
     1
281
     0
  0
BLOCK_RECORD
  5
23
330
1
100
AcDbSymbolTableRecord
100
AcDbBlockTableRecord
  2
*Paper_Space0
340
26
 70
     0
280
     1
281
     0
  0
BLOCK_RECORD
  5
93
330
1
100
AcDbSymbolTableRecord
100
AcDbBlockTableRecord
  2
block 2
340
0
102
{BLKREFS
331
94
102
}
 70
     0
280
     1
281
     0
  0
BLOCK_RECORD
  5
A5
330
1
100
AcDbSymbolTableRecord
100
AcDbBlockTableRecord
  2
block 3
340
0
102
{BLKREFS
331
A6
102
}
 70
     0
280
     1
281
     0
  0
BLOCK_RECORD
  5
BD
330
1
100
AcDbSymbolTableRecord
100
AcDbBlockTableRecord
  2
block 4
340
0
102
{BLKREFS
331
BE
102
}
 70
     0
280
     1
281
     0
  0
BLOCK_RECORD
  5
DA
330
1
100
AcDbSymbolTableRecord
100
AcDbBlockTableRecord
  2
block 5
340
0
102
{BLKREFS
331
DB
102
}
 70
     0
280
     1
281
     0
  0
BLOCK_RECORD
  5
EB
330
1
100
AcDbSymbolTableRecord
100
AcDbBlockTableRecord
  2
block 6
340
0
102
{BLKREFS
331
EC
102
}
 70
     0
280
     1
281
     0
  0
BLOCK_RECORD
  5
FE
330
1
100
AcDbSymbolTableRecord
100
AcDbBlockTableRecord
  2
block 7
340
0
102
{BLKREFS
331
FF
102
}
 70
     0
280
     1
281
     0
  0
BLOCK_RECORD
  5
114
330
1
100
AcDbSymbolTableRecord
100
AcDbBlockTableRecord
  2
block 8
340
0
102
{BLKREFS
331
115
102
}
 70
     0
280
     1
281
     0
  0
ENDTAB
  0
ENDSEC
  0
SECTION
  2
BLOCKS
  0
BLOCK
  5
20
330
1F
100
AcDbEntity
  8
0
100
AcDbBlockBegin
  2
*Model_Space
 70
     0
 10
0.0
 20
0.0
 30
0.0
  3
*Model_Space
  1

  0
ENDBLK
  5
21
330
1F
100
AcDbEntity
  8
0
100
AcDbBlockEnd
  0
BLOCK
  5
1C
330
1B
100
AcDbEntity
 67
     1
  8
0
100
AcDbBlockBegin
  2
*Paper_Space
 70
     0
 10
0.0
 20
0.0
 30
0.0
  3
*Paper_Space
  1

  0
ENDBLK
  5
1D
330
1B
100
AcDbEntity
 67
     1
  8
0
100
AcDbBlockEnd
  0
BLOCK
  5
24
330
23
100
AcDbEntity
  8
0
100
AcDbBlockBegin
  2
*Paper_Space0
 70
     0
 10
0.0
 20
0.0
 30
0.0
  3
*Paper_Space0
  1

  0
ENDBLK
  5
25
330
23
100
AcDbEntity
  8
0
100
AcDbBlockEnd
  0
BLOCK
  5
95
330
93
100
AcDbEntity
  8
0
100
AcDbBlockBegin
  2
block 2
 70
     0
 10
0.0
 20
0.0
 30
0.0
  3
block 2
  1

  0
SPLINE
  5
97
330
93
100
AcDbEntity
  8
_U+30EC_U+30A4_U+30E4_U+30FC 1
370
     0
100
AcDbSpline
210
0.0
220
0.0
230
1.0
 70
    11
 71
     3
 72
    26
 73
    22
 74
     0
 42
0.0000000001
 43
0.0000000001
 12
1.0
 22
0.0
 32
0.0
 13
1.0
 23
0.0
 33
0.0
 40
0.0
 40
0.0
 40
0.0
 40
0.0
 40
1.0
 40
1.0
 40
1.0
 40
2.0
 40
2.0
 40
2.0
 40
3.0
 40
3.0
 40
3.0
 40
4.0
 40
4.0
 40
4.0
 40
5.0
 40
5.0
 40
5.0
 40
6.0
 40
6.0
 40
6.0
 40
7.0
 40
7.0
 40
7.0
 40
7.0
 10
121.1436821528738
 20
-137.1017089500996
 30
0.0
 10
121.1436821528738
 20
-137.1017089500996
 30
0.0
 10
120.0395290498512
 20
-137.1017089500996
 30
0.0
 10
120.0395290498512
 20
-137.1017089500996
 30
0.0
 10
120.0395290498512
 20
-137.1017089500996
 30
0.0
 10
120.0395290498512
 20
-137.4317490975865
 30
0.0
 10
120.0395290498512
 20
-137.4317490975865
 30
0.0
 10
120.0395290498512
 20
-137.4317490975865
 30
0.0
 10
119.8913899439855
 20
-137.4317490975865
 30
0.0
 10
119.8913899439855
 20
-137.4317490975865
 30
0.0
 10
119.8765760333989
 20
-137.0996418928084
 30
0.0
 10
119.7136230169466
 20
-137.0531331037575
 30
0.0
 10
119.5992458468363
 20
-137.0235052825844
 30
0.0
 10
119.5992458468363
 20
-137.0235052825844
 30
0.0
 10
119.5992458468363
 20
-136.8774332340098
 30
0.0
 10
119.5992458468363
 20
-136.8774332340098
 30
0.0
 10
119.5992458468363
 20
-136.8774332340098
 30
0.0
 10
121.1436821528738
 20
-136.8774332340098
 30
0.0
 10
121.1436821528738
 20
-136.8774332340098
 30
0.0
 10
121.1436821528738
 20
-136.8774332340098
 30
0.0
 10
121.1436821528738
 20
-137.1017089500996
 30
0.0
 10
121.1436821528738
 20
-137.1017089500996
 30
0.0
  0
HATCH
  5
98
330
93
100
AcDbEntity
  8
_U+30EC_U+30A4_U+30E4_U+30FC 1
 62
     7
420
 16777215
100
AcDbHatch
 10
0.0
 20
0.0
 30
0.0
210
0.0
220
0.0
230
1.0
  2
SOLID
 70
     1
 71
     0
 91
        1
 92
        1
 93
        1
 72
     4
 94
        3
 73
     0
 74
     1
 95
       26
 96
       22
 40
0.0
 40
0.0
 40
0.0
 40
0.0
 40
1.0
 40
1.0
 40
1.0
 40
2.0
 40
2.0
 40
2.0
 40
3.0
 40
3.0
 40
3.0
 40
4.0
 40
4.0
 40
4.0
 40
5.0
 40
5.0
 40
5.0
 40
6.0
 40
6.0
 40
6.0
 40
7.0
 40
7.0
 40
7.0
 40
7.0
 10
121.1436821528738
 20
-137.1017089500996
 10
121.1436821528738
 20
-137.1017089500996
 10
120.0395290498512
 20
-137.1017089500996
 10
120.0395290498512
 20
-137.1017089500996
 10
120.0395290498512
 20
-137.1017089500996
 10
120.0395290498512
 20
-137.4317490975865
 10
120.0395290498512
 20
-137.4317490975865
 10
120.0395290498512
 20
-137.4317490975865
 10
119.8913899439855
 20
-137.4317490975865
 10
119.8913899439855
 20
-137.4317490975865
 10
119.8765760333989
 20
-137.0996418928084
 10
119.7136230169466
 20
-137.0531331037575
 10
119.5992458468363
 20
-137.0235052825844
 10
119.5992458468363
 20
-137.0235052825844
 10
119.5992458468363
 20
-136.8774332340098
 10
119.5992458468363
 20
-136.8774332340098
 10
119.5992458468363
 20
-136.8774332340098
 10
121.1436821528738
 20
-136.8774332340098
 10
121.1436821528738
 20
-136.8774332340098
 10
121.1436821528738
 20
-136.8774332340098
 10
121.1436821528738
 20
-137.1017089500996
 10
121.1436821528738
 20
-137.1017089500996
 97
        0
 97
        0
 75
     2
 76
     1
 98
        0
  0
ENDBLK
  5
96
330
93
100
AcDbEntity
  8
0
100
AcDbBlockEnd
  0
BLOCK
  5
A7
330
A5
100
AcDbEntity
  8
0
100
AcDbBlockBegin
  2
block 3
 70
     0
 10
0.0
 20
0.0
 30
0.0
  3
block 3
  1

  0
SPLINE
  5
A9
330
A5
100
AcDbEntity
  8
_U+30EC_U+30A4_U+30E4_U+30FC 1
370
     0
100
AcDbSpline
210
0.0
220
0.0
230
1.0
 70
    11
 71
     3
 72
    62
 73
    58
 74
     0
 42
0.0000000001
 43
0.0000000001
 12
1.0
 22
0.0
 32
0.0
 13
1.0
 23
0.0
 33
0.0
 40
0.0
 40
0.0
 40
0.0
 40
0.0
 40
1.0
 40
1.0
 40
1.0
 40
2.0
 40
2.0
 40
2.0
 40
3.0
 40
3.0
 40
3.0
 40
4.0
 40
4.0
 40
4.0
 40
5.0
 40
5.0
 40
5.0
 40
6.0
 40
6.0
 40
6.0
 40
7.0
 40
7.0
 40
7.0
 40
8.0
 40
8.0
 40
8.0
 40
9.0
 40
9.0
 40
9.0
 40
10.0
 40
10.0
 40
10.0
 40
11.0
 40
11.0
 40
11.0
 40
12.0
 40
12.0
 40
12.0
 40
13.0
 40
13.0
 40
13.0
 40
14.0
 40
14.0
 40
14.0
 40
15.0
 40
15.0
 40
15.0
 40
16.0
 40
16.0
 40
16.0
 40
17.0
 40
17.0
 40
17.0
 40
18.0
 40
18.0
 40
18.0
 40
19.0
 40
19.0
 40
19.0
 40
19.0
 10
102.2750664349347
 20
-134.7519815743849
 30
0.0
 10
102.1798095447676
 20
-134.7519815743849
 30
0.0
 10
101.9619072553255
 20
-134.7307942371506
 30
0.0
 10
101.8371947987595
 20
-134.5445868261729
 30
0.0
 10
101.7631252458266
 20
-134.432448968128
 30
0.0
 10
101.75881887647
 20
-134.3330579633785
 30
0.0
 10
101.7546847618877
 20
-134.2484808692157
 30
0.0
 10
101.7546847618877
 20
-134.2484808692157
 30
0.0
 10
101.9746541086209
 20
-134.2484808692157
 30
0.0
 10
101.9746541086209
 20
-134.2484808692157
 30
0.0
 10
101.9767211659121
 20
-134.3225504221485
 30
0.0
 10
101.9874009619164
 20
-134.5573336794683
 30
0.0
 10
102.2707600655781
 20
-134.5573336794683
 30
0.0
 10
102.4083916302139
 20
-134.5573336794683
 30
0.0
 10
102.5606648506619
 20
-134.487570495892
 30
0.0
 10
102.5606648506619
 20
-134.2589884104457
 30
0.0
 10
102.5606648506619
 20
-134.1427164378185
 30
0.0
 10
102.5225965455499
 20
-134.0939683367022
 30
0.0
 10
102.4909016670856
 20
-134.0622734582379
 30
0.0
 10
102.4168321141527
 20
-133.988203905305
 30
0.0
 10
102.3003878867513
 20
-133.9756293067839
 30
0.0
 10
102.2454386137616
 20
-133.9756293067839
 30
0.0
 10
102.2264905885927
 20
-133.9756293067839
 30
0.0
 10
102.1904893407718
 20
-133.977696364075
 30
0.0
 10
102.1629285768898
 20
-133.9818304786573
 30
0.0
 10
102.1629285768898
 20
-133.9818304786573
 30
0.0
 10
102.1629285768898
 20
-133.7871825837407
 30
0.0
 10
102.1629285768898
 20
-133.7871825837407
 30
0.0
 10
102.2009968820018
 20
-133.7935560103884
 30
0.0
 10
102.2433715564704
 20
-133.7957953224538
 30
0.0
 10
102.2497449831181
 20
-133.7957953224538
 30
0.0
 10
102.3152017973379
 20
-133.7957953224538
 30
0.0
 10
102.514156061611
 20
-133.7746079852195
 30
0.0
 10
102.514156061611
 20
-133.5375854158344
 30
0.0
 10
102.514156061611
 20
-133.3599907435697
 30
0.0
 10
102.382897923623
 20
-133.3048692158057
 30
0.0
 10
102.2729993776436
 20
-133.3048692158057
 30
0.0
 10
102.0085882991506
 20
-133.3048692158057
 30
0.0
 10
101.9999755604375
 20
-133.5375854158344
 30
0.0
 10
101.9958414458552
 20
-133.6095879114761
 30
0.0
 10
101.9958414458552
 20
-133.6095879114761
 30
0.0
 10
101.7927530669997
 20
-133.6095879114761
 30
0.0
 10
101.7927530669997
 20
-133.6095879114761
 30
0.0
 10
101.8011935509386
 20
-133.4847032001358
 30
0.0
 10
101.8287543148206
 20
-133.108154263598
 30
0.0
 10
102.2855739761647
 20
-133.108154263598
 30
0.0
 10
102.5098496922545
 20
-133.108154263598
 30
0.0
 10
102.751006376222
 20
-133.2351060322294
 30
0.0
 10
102.751006376222
 20
-133.5312119891867
 30
0.0
 10
102.751006376222
 20
-133.7174194001644
 30
0.0
 10
102.6559217408291
 20
-133.7999294370361
 30
0.0
 10
102.5563584813054
 20
-133.8612521366736
 30
0.0
 10
102.6178534357171
 20
-133.8888129005556
 30
0.0
 10
102.7997544773383
 20
-133.9692558801362
 30
0.0
 10
102.7997544773383
 20
-134.2464138119245
 30
0.0
 10
102.7997544773383
 20
-134.5848944433503
 30
0.0
 10
102.5522243667231
 20
-134.7519815743849
 30
0.0
 10
102.2750664349347
 20
-134.7519815743849
 30
0.0
  0
HATCH
  5
AA
330
A5
100
AcDbEntity
  8
_U+30EC_U+30A4_U+30E4_U+30FC 1
 62
     7
420
 16777215
100
AcDbHatch
 10
0.0
 20
0.0
 30
0.0
210
0.0
220
0.0
230
1.0
  2
SOLID
 70
     1
 71
     0
 91
        1
 92
        1
 93
        1
 72
     4
 94
        3
 73
     0
 74
     1
 95
       62
 96
       58
 40
0.0
 40
0.0
 40
0.0
 40
0.0
 40
1.0
 40
1.0
 40
1.0
 40
2.0
 40
2.0
 40
2.0
 40
3.0
 40
3.0
 40
3.0
 40
4.0
 40
4.0
 40
4.0
 40
5.0
 40
5.0
 40
5.0
 40
6.0
 40
6.0
 40
6.0
 40
7.0
 40
7.0
 40
7.0
 40
8.0
 40
8.0
 40
8.0
 40
9.0
 40
9.0
 40
9.0
 40
10.0
 40
10.0
 40
10.0
 40
11.0
 40
11.0
 40
11.0
 40
12.0
 40
12.0
 40
12.0
 40
13.0
 40
13.0
 40
13.0
 40
14.0
 40
14.0
 40
14.0
 40
15.0
 40
15.0
 40
15.0
 40
16.0
 40
16.0
 40
16.0
 40
17.0
 40
17.0
 40
17.0
 40
18.0
 40
18.0
 40
18.0
 40
19.0
 40
19.0
 40
19.0
 40
19.0
 10
102.2750664349347
 20
-134.7519815743849
 10
102.1798095447676
 20
-134.7519815743849
 10
101.9619072553255
 20
-134.7307942371506
 10
101.8371947987595
 20
-134.5445868261729
 10
101.7631252458266
 20
-134.432448968128
 10
101.75881887647
 20
-134.3330579633785
 10
101.7546847618877
 20
-134.2484808692157
 10
101.7546847618877
 20
-134.2484808692157
 10
101.9746541086209
 20
-134.2484808692157
 10
101.9746541086209
 20
-134.2484808692157
 10
101.9767211659121
 20
-134.3225504221485
 10
101.9874009619164
 20
-134.5573336794683
 10
102.2707600655781
 20
-134.5573336794683
 10
102.4083916302139
 20
-134.5573336794683
 10
102.5606648506619
 20
-134.487570495892
 10
102.5606648506619
 20
-134.2589884104457
 10
102.5606648506619
 20
-134.1427164378185
 10
102.5225965455499
 20
-134.0939683367022
 10
102.4909016670856
 20
-134.0622734582379
 10
102.4168321141527
 20
-133.988203905305
 10
102.3003878867513
 20
-133.9756293067839
 10
102.2454386137616
 20
-133.9756293067839
 10
102.2264905885927
 20
-133.9756293067839
 10
102.1904893407718
 20
-133.977696364075
 10
102.1629285768898
 20
-133.9818304786573
 10
102.1629285768898
 20
-133.9818304786573
 10
102.1629285768898
 20
-133.7871825837407
 10
102.1629285768898
 20
-133.7871825837407
 10
102.2009968820018
 20
-133.7935560103884
 10
102.2433715564704
 20
-133.7957953224538
 10
102.2497449831181
 20
-133.7957953224538
 10
102.3152017973379
 20
-133.7957953224538
 10
102.514156061611
 20
-133.7746079852195
 10
102.514156061611
 20
-133.5375854158344
 10
102.514156061611
 20
-133.3599907435697
 10
102.382897923623
 20
-133.3048692158057
 10
102.2729993776436
 20
-133.3048692158057
 10
102.0085882991506
 20
-133.3048692158057
 10
101.9999755604375
 20
-133.5375854158344
 10
101.9958414458552
 20
-133.6095879114761
 10
101.9958414458552
 20
-133.6095879114761
 10
101.7927530669997
 20
-133.6095879114761
 10
101.7927530669997
 20
-133.6095879114761
 10
101.8011935509386
 20
-133.4847032001358
 10
101.8287543148206
 20
-133.108154263598
 10
102.2855739761647
 20
-133.108154263598
 10
102.5098496922545
 20
-133.108154263598
 10
102.751006376222
 20
-133.2351060322294
 10
102.751006376222
 20
-133.5312119891867
 10
102.751006376222
 20
-133.7174194001644
 10
102.6559217408291
 20
-133.7999294370361
 10
102.5563584813054
 20
-133.8612521366736
 10
102.6178534357171
 20
-133.8888129005556
 10
102.7997544773383
 20
-133.9692558801362
 10
102.7997544773383
 20
-134.2464138119245
 10
102.7997544773383
 20
-134.5848944433503
 10
102.5522243667231
 20
-134.7519815743849
 10
102.2750664349347
 20
-134.7519815743849
 97
        0
 97
        0
 75
     2
 76
     1
 98
        0
  0
SPLINE
  5
AB
330
A5
100
AcDbEntity
  8
_U+30EC_U+30A4_U+30E4_U+30FC 1
370
     0
100
AcDbSpline
210
0.0
220
0.0
230
1.0
 70
    11
 71
     3
 72
    26
 73
    22
 74
     0
 42
0.0000000001
 43
0.0000000001
 12
1.0
 22
0.0
 32
0.0
 13
1.0
 23
0.0
 33
0.0
 40
0.0
 40
0.0
 40
0.0
 40
0.0
 40
1.0
 40
1.0
 40
1.0
 40
2.0
 40
2.0
 40
2.0
 40
3.0
 40
3.0
 40
3.0
 40
4.0
 40
4.0
 40
4.0
 40
5.0
 40
5.0
 40
5.0
 40
6.0
 40
6.0
 40
6.0
 40
7.0
 40
7.0
 40
7.0
 40
7.0
 10
103.4117756902929
 20
-134.7011664159775
 30
0.0
 10
103.4117756902929
 20
-134.7011664159775
 30
0.0
 10
103.4117756902929
 20
-133.5968410581806
 30
0.0
 10
103.4117756902929
 20
-133.5968410581806
 30
0.0
 10
103.4117756902929
 20
-133.5968410581806
 30
0.0
 10
103.081735542806
 20
-133.5968410581806
 30
0.0
 10
103.081735542806
 20
-133.5968410581806
 30
0.0
 10
103.081735542806
 20
-133.5968410581806
 30
0.0
 10
103.081735542806
 20
-133.4488742070892
 30
0.0
 10
103.081735542806
 20
-133.4488742070892
 30
0.0
 10
103.413842747584
 20
-133.4340602965026
 30
0.0
 10
103.4603515366349
 20
-133.2711072800503
 30
0.0
 10
103.4899793578081
 20
-133.1569023647143
 30
0.0
 10
103.4899793578081
 20
-133.1569023647143
 30
0.0
 10
103.6360514063827
 20
-133.1569023647143
 30
0.0
 10
103.6360514063827
 20
-133.1569023647143
 30
0.0
 10
103.6360514063827
 20
-133.1569023647143
 30
0.0
 10
103.6360514063827
 20
-134.7011664159775
 30
0.0
 10
103.6360514063827
 20
-134.7011664159775
 30
0.0
 10
103.6360514063827
 20
-134.7011664159775
 30
0.0
 10
103.4117756902929
 20
-134.7011664159775
 30
0.0
 10
103.4117756902929
 20
-134.7011664159775
 30
0.0
  0
HATCH
  5
AC
330
A5
100
AcDbEntity
  8
_U+30EC_U+30A4_U+30E4_U+30FC 1
 62
     7
420
 16777215
100
AcDbHatch
 10
0.0
 20
0.0
 30
0.0
210
0.0
220
0.0
230
1.0
  2
SOLID
 70
     1
 71
     0
 91
        1
 92
        1
 93
        1
 72
     4
 94
        3
 73
     0
 74
     1
 95
       26
 96
       22
 40
0.0
 40
0.0
 40
0.0
 40
0.0
 40
1.0
 40
1.0
 40
1.0
 40
2.0
 40
2.0
 40
2.0
 40
3.0
 40
3.0
 40
3.0
 40
4.0
 40
4.0
 40
4.0
 40
5.0
 40
5.0
 40
5.0
 40
6.0
 40
6.0
 40
6.0
 40
7.0
 40
7.0
 40
7.0
 40
7.0
 10
103.4117756902929
 20
-134.7011664159775
 10
103.4117756902929
 20
-134.7011664159775
 10
103.4117756902929
 20
-133.5968410581806
 10
103.4117756902929
 20
-133.5968410581806
 10
103.4117756902929
 20
-133.5968410581806
 10
103.081735542806
 20
-133.5968410581806
 10
103.081735542806
 20
-133.5968410581806
 10
103.081735542806
 20
-133.5968410581806
 10
103.081735542806
 20
-133.4488742070892
 10
103.081735542806
 20
-133.4488742070892
 10
103.413842747584
 20
-133.4340602965026
 10
103.4603515366349
 20
-133.2711072800503
 10
103.4899793578081
 20
-133.1569023647143
 10
103.4899793578081
 20
-133.1569023647143
 10
103.6360514063827
 20
-133.1569023647143
 10
103.6360514063827
 20
-133.1569023647143
 10
103.6360514063827
 20
-133.1569023647143
 10
103.6360514063827
 20
-134.7011664159775
 10
103.6360514063827
 20
-134.7011664159775
 10
103.6360514063827
 20
-134.7011664159775
 10
103.4117756902929
 20
-134.7011664159775
 10
103.4117756902929
 20
-134.7011664159775
 97
        0
 97
        0
 75
     2
 76
     1
 98
        0
  0
ENDBLK
  5
A8
330
A5
100
AcDbEntity
  8
0
100
AcDbBlockEnd
  0
BLOCK
  5
BF
330
BD
100
AcDbEntity
  8
0
100
AcDbBlockBegin
  2
block 4
 70
     0
 10
0.0
 20
0.0
 30
0.0
  3
block 4
  1

  0
SPLINE
  5
C1
330
BD
100
AcDbEntity
  8
_U+30EC_U+30A4_U+30E4_U+30FC 1
370
     0
100
AcDbSpline
210
0.0
220
0.0
230
1.0
 70
    11
 71
     3
 72
    29
 73
    25
 74
     0
 42
0.0000000001
 43
0.0000000001
 12
1.0
 22
0.0
 32
0.0
 13
1.0
 23
0.0
 33
0.0
 40
0.0
 40
0.0
 40
0.0
 40
0.0
 40
1.0
 40
1.0
 40
1.0
 40
2.0
 40
2.0
 40
2.0
 40
3.0
 40
3.0
 40
3.0
 40
4.0
 40
4.0
 40
4.0
 40
5.0
 40
5.0
 40
5.0
 40
6.0
 40
6.0
 40
6.0
 40
7.0
 40
7.0
 40
7.0
 40
8.0
 40
8.0
 40
8.0
 40
8.0
 10
105.9652804639601
 20
-154.0178168017733
 30
0.0
 10
106.1747422694633
 20
-154.1259928000102
 30
0.0
 10
106.1936902946321
 20
-154.2992811029182
 30
0.0
 10
106.1936902946321
 20
-154.4157253303197
 30
0.0
 10
106.1936902946321
 20
-154.5766112894809
 30
0.0
 10
106.1471815055813
 20
-154.7182047139246
 30
0.0
 10
105.9652804639601
 20
-154.8132893493175
 30
0.0
 10
105.7706325690435
 20
-154.9169867234235
 30
0.0
 10
105.5336099996583
 20
-154.9362792581409
 30
0.0
 10
105.3710014927545
 20
-154.9362792581409
 30
0.0
 10
105.226996501471
 20
-154.9362792581409
 30
0.0
 10
104.9751600214993
 20
-154.9190537807147
 30
0.0
 10
104.7763780120004
 20
-154.8132893493175
 30
0.0
 10
104.5734618879191
 20
-154.7054578606292
 30
0.0
 10
104.5500352386194
 20
-154.544571901468
 30
0.0
 10
104.5500352386194
 20
-154.4157253303197
 30
0.0
 10
104.5500352386194
 20
-154.2569064284497
 30
0.0
 10
104.5944769703792
 20
-154.1132459467148
 30
0.0
 10
104.7763780120004
 20
-154.0178168017733
 30
0.0
 10
104.9689588496258
 20
-153.9185980517981
 30
0.0
 10
105.1973686802979
 20
-153.8951714024984
 30
0.0
 10
105.3710014927545
 20
-153.8951714024984
 30
0.0
 10
105.5422227383714
 20
-153.8951714024984
 30
0.0
 10
105.7726996263346
 20
-153.916530994507
 30
0.0
 10
105.9652804639601
 20
-154.0178168017733
 30
0.0
  0
SPLINE
  5
C2
330
BD
100
AcDbEntity
  8
_U+30EC_U+30A4_U+30E4_U+30FC 1
370
     0
100
AcDbSpline
210
0.0
220
0.0
230
1.0
 70
    11
 71
     3
 72
    17
 73
    13
 74
     0
 42
0.0000000001
 43
0.0000000001
 12
1.0
 22
0.0
 32
0.0
 13
1.0
 23
0.0
 33
0.0
 40
0.0
 40
0.0
 40
0.0
 40
0.0
 40
1.0
 40
1.0
 40
1.0
 40
2.0
 40
2.0
 40
2.0
 40
3.0
 40
3.0
 40
3.0
 40
4.0
 40
4.0
 40
4.0
 40
4.0
 10
104.7426160762449
 20
-154.4157253303197
 30
0.0
 10
104.7426160762449
 20
-154.6654947530003
 30
0.0
 10
105.026147434681
 20
-154.7120035420512
 30
0.0
 10
105.3710014927545
 20
-154.7120035420512
 30
0.0
 10
105.6903618442371
 20
-154.7120035420512
 30
0.0
 10
105.9990423997155
 20
-154.6758300394561
 30
0.0
 10
105.9990423997155
 20
-154.4157253303197
 30
0.0
 10
105.9990423997155
 20
-154.1680229649302
 30
0.0
 10
105.7179226081191
 20
-154.1194471185882
 30
0.0
 10
105.3710014927545
 20
-154.1194471185882
 30
0.0
 10
105.0512966317233
 20
-154.1194471185882
 30
0.0
 10
104.7426160762449
 20
-154.1576876784745
 30
0.0
 10
104.7426160762449
 20
-154.4157253303197
 30
0.0
  0
HATCH
  5
C3
330
BD
100
AcDbEntity
  8
_U+30EC_U+30A4_U+30E4_U+30FC 1
 62
     7
420
 16777215
100
AcDbHatch
 10
0.0
 20
0.0
 30
0.0
210
0.0
220
0.0
230
1.0
  2
SOLID
 70
     1
 71
     0
 91
        2
 92
        1
 93
        1
 72
     4
 94
        3
 73
     0
 74
     1
 95
       29
 96
       25
 40
0.0
 40
0.0
 40
0.0
 40
0.0
 40
1.0
 40
1.0
 40
1.0
 40
2.0
 40
2.0
 40
2.0
 40
3.0
 40
3.0
 40
3.0
 40
4.0
 40
4.0
 40
4.0
 40
5.0
 40
5.0
 40
5.0
 40
6.0
 40
6.0
 40
6.0
 40
7.0
 40
7.0
 40
7.0
 40
8.0
 40
8.0
 40
8.0
 40
8.0
 10
105.9652804639601
 20
-154.0178168017733
 10
106.1747422694633
 20
-154.1259928000102
 10
106.1936902946321
 20
-154.2992811029182
 10
106.1936902946321
 20
-154.4157253303197
 10
106.1936902946321
 20
-154.5766112894809
 10
106.1471815055813
 20
-154.7182047139246
 10
105.9652804639601
 20
-154.8132893493175
 10
105.7706325690435
 20
-154.9169867234235
 10
105.5336099996583
 20
-154.9362792581409
 10
105.3710014927545
 20
-154.9362792581409
 10
105.226996501471
 20
-154.9362792581409
 10
104.9751600214993
 20
-154.9190537807147
 10
104.7763780120004
 20
-154.8132893493175
 10
104.5734618879191
 20
-154.7054578606292
 10
104.5500352386194
 20
-154.544571901468
 10
104.5500352386194
 20
-154.4157253303197
 10
104.5500352386194
 20
-154.2569064284497
 10
104.5944769703792
 20
-154.1132459467148
 10
104.7763780120004
 20
-154.0178168017733
 10
104.9689588496258
 20
-153.9185980517981
 10
105.1973686802979
 20
-153.8951714024984
 10
105.3710014927545
 20
-153.8951714024984
 10
105.5422227383714
 20
-153.8951714024984
 10
105.7726996263346
 20
-153.916530994507
 10
105.9652804639601
 20
-154.0178168017733
 97
        0
 97
        0
 92
        1
 93
        1
 72
     4
 94
        3
 73
     0
 74
     1
 95
       17
 96
       13
 40
0.0
 40
0.0
 40
0.0
 40
0.0
 40
1.0
 40
1.0
 40
1.0
 40
2.0
 40
2.0
 40
2.0
 40
3.0
 40
3.0
 40
3.0
 40
4.0
 40
4.0
 40
4.0
 40
4.0
 10
104.7426160762449
 20
-154.4157253303197
 10
104.7426160762449
 20
-154.6654947530003
 10
105.026147434681
 20
-154.7120035420512
 10
105.3710014927545
 20
-154.7120035420512
 10
105.6903618442371
 20
-154.7120035420512
 10
105.9990423997155
 20
-154.6758300394561
 10
105.9990423997155
 20
-154.4157253303197
 10
105.9990423997155
 20
-154.1680229649302
 10
105.7179226081191
 20
-154.1194471185882
 10
105.3710014927545
 20
-154.1194471185882
 10
105.0512966317233
 20
-154.1194471185882
 10
104.7426160762449
 20
-154.1576876784745
 10
104.7426160762449
 20
-154.4157253303197
 97
        0
 97
        0
 75
     2
 76
     1
 98
        0
  0
POLYLINE
  5
C4
330
BD
100
AcDbEntity
  8
_U+30EC_U+30A4_U+30E4_U+30FC 1
370
     0
100
AcDb2dPolyline
 66
     1
 10
0.0
 20
0.0
 30
0.0
  0
VERTEX
  5
C5
330
C4
100
AcDbEntity
  8
_U+30EC_U+30A4_U+30E4_U+30FC 1
370
     0
100
AcDbVertex
100
AcDb2dVertex
 10
106.143047390999
 20
-153.6788194060248
 30
0.0
  0
VERTEX
  5
C6
330
C4
100
AcDbEntity
  8
_U+30EC_U+30A4_U+30E4_U+30FC 1
370
     0
100
AcDbVertex
100
AcDb2dVertex
 10
105.8912109110272
 20
-153.6788194060248
 30
0.0
  0
VERTEX
  5
C7
330
C4
100
AcDbEntity
  8
_U+30EC_U+30A4_U+30E4_U+30FC 1
370
     0
100
AcDbVertex
100
AcDb2dVertex
 10
105.8912109110272
 20
-153.426982926053
 30
0.0
  0
VERTEX
  5
C8
330
C4
100
AcDbEntity
  8
_U+30EC_U+30A4_U+30E4_U+30FC 1
370
     0
100
AcDbVertex
100
AcDb2dVertex
 10
106.143047390999
 20
-153.426982926053
 30
0.0
  0
VERTEX
  5
C9
330
C4
100
AcDbEntity
  8
_U+30EC_U+30A4_U+30E4_U+30FC 1
370
     0
100
AcDbVertex
100
AcDb2dVertex
 10
106.143047390999
 20
-153.6788194060248
 30
0.0
  0
SEQEND
  5
CA
330
C4
100
AcDbEntity
  8
_U+30EC_U+30A4_U+30E4_U+30FC 1
370
     0
  0
HATCH
  5
CB
330
BD
100
AcDbEntity
  8
_U+30EC_U+30A4_U+30E4_U+30FC 1
 62
     7
420
 16777215
100
AcDbHatch
 10
0.0
 20
0.0
 30
0.0
210
0.0
220
0.0
230
1.0
  2
SOLID
 70
     1
 71
     0
 91
        1
 92
        1
 93
        4
 72
     1
 10
106.143047390999
 20
-153.6788194060248
 11
105.8912109110272
 21
-153.6788194060248
 72
     1
 10
105.8912109110272
 20
-153.6788194060248
 11
105.8912109110272
 21
-153.426982926053
 72
     1
 10
105.8912109110272
 20
-153.426982926053
 11
106.143047390999
 21
-153.426982926053
 72
     1
 10
106.143047390999
 20
-153.426982926053
 11
106.143047390999
 21
-153.6788194060248
 97
        0
 75
     2
 76
     1
 98
        0
  0
SPLINE
  5
CC
330
BD
100
AcDbEntity
  8
_U+30EC_U+30A4_U+30E4_U+30FC 1
370
     0
100
AcDbSpline
210
0.0
220
0.0
230
1.0
 70
    11
 71
     3
 72
    53
 73
    49
 74
     0
 42
0.0000000001
 43
0.0000000001
 12
1.0
 22
0.0
 32
0.0
 13
1.0
 23
0.0
 33
0.0
 40
0.0
 40
0.0
 40
0.0
 40
0.0
 40
1.0
 40
1.0
 40
1.0
 40
2.0
 40
2.0
 40
2.0
 40
3.0
 40
3.0
 40
3.0
 40
4.0
 40
4.0
 40
4.0
 40
5.0
 40
5.0
 40
5.0
 40
6.0
 40
6.0
 40
6.0
 40
7.0
 40
7.0
 40
7.0
 40
8.0
 40
8.0
 40
8.0
 40
9.0
 40
9.0
 40
9.0
 40
10.0
 40
10.0
 40
10.0
 40
11.0
 40
11.0
 40
11.0
 40
12.0
 40
12.0
 40
12.0
 40
13.0
 40
13.0
 40
13.0
 40
14.0
 40
14.0
 40
14.0
 40
15.0
 40
15.0
 40
15.0
 40
16.0
 40
16.0
 40
16.0
 40
16.0
 10
106.1936902946321
 20
-152.709714046024
 30
0.0
 10
106.1936902946321
 20
-152.7879177135391
 30
0.0
 10
106.1768093267544
 20
-152.889548030354
 30
0.0
 10
106.1134195698258
 20
-152.9911783471689
 30
0.0
 10
106.0035210238463
 20
-153.1644666500769
 30
0.0
 10
105.8722628858583
 20
-153.1858262420855
 30
0.0
 10
105.76443139717
 20
-153.2047742672544
 30
0.0
 10
105.76443139717
 20
-153.2047742672544
 30
0.0
 10
105.76443139717
 20
-152.9825656084558
 30
0.0
 10
105.76443139717
 20
-152.9825656084558
 30
0.0
 10
105.9632134066689
 20
-152.9277885902403
 30
0.0
 10
105.9928412278421
 20
-152.8006645668346
 30
0.0
 10
105.9928412278421
 20
-152.7076469887328
 30
0.0
 10
105.9928412278421
 20
-152.5681206215802
 30
0.0
 10
105.8932779683184
 20
-152.4158474011322
 30
0.0
 10
105.660734023064
 20
-152.4158474011322
 30
0.0
 10
105.4047634285099
 20
-152.4158474011322
 30
0.0
 10
105.3348279901594
 20
-152.5956813854622
 30
0.0
 10
105.3348279901594
 20
-152.7162597274459
 30
0.0
 10
105.3348279901594
 20
-152.7479546059103
 30
0.0
 10
105.3348279901594
 20
-152.889548030354
 30
0.0
 10
105.4640190708562
 20
-152.9784314938734
 30
0.0
 10
105.4640190708562
 20
-152.9784314938734
 30
0.0
 10
105.4450710456873
 20
-153.1541313636212
 30
0.0
 10
105.4450710456873
 20
-153.1541313636212
 30
0.0
 10
105.4450710456873
 20
-153.1541313636212
 30
0.0
 10
104.5986110849615
 20
-153.0335530216375
 30
0.0
 10
104.5986110849615
 20
-153.0335530216375
 30
0.0
 10
104.5986110849615
 20
-153.0335530216375
 30
0.0
 10
104.5986110849615
 20
-152.254961441971
 30
0.0
 10
104.5986110849615
 20
-152.254961441971
 30
0.0
 10
104.5986110849615
 20
-152.254961441971
 30
0.0
 10
104.7932589798781
 20
-152.254961441971
 30
0.0
 10
104.7932589798781
 20
-152.254961441971
 30
0.0
 10
104.7932589798781
 20
-152.254961441971
 30
0.0
 10
104.7932589798781
 20
-152.8706000051851
 30
0.0
 10
104.7932589798781
 20
-152.8706000051851
 30
0.0
 10
104.7932589798781
 20
-152.8706000051851
 30
0.0
 10
105.2163167054668
 20
-152.9360568194049
 30
0.0
 10
105.2163167054668
 20
-152.9360568194049
 30
0.0
 10
105.1825547697113
 20
-152.8747341197674
 30
0.0
 10
105.1422471525339
 20
-152.79239633767
 30
0.0
 10
105.1422471525339
 20
-152.6738850529774
 30
0.0
 10
105.1422471525339
 20
-152.4199815157145
 30
0.0
 10
105.3286268182859
 20
-152.1829589463293
 30
0.0
 10
105.6417859978951
 20
-152.1829589463293
 30
0.0
 10
105.9590792920866
 20
-152.1829589463293
 30
0.0
 10
106.1936902946321
 20
-152.407234662419
 30
0.0
 10
106.1936902946321
 20
-152.709714046024
 30
0.0
  0
HATCH
  5
CD
330
BD
100
AcDbEntity
  8
_U+30EC_U+30A4_U+30E4_U+30FC 1
 62
     7
420
 16777215
100
AcDbHatch
 10
0.0
 20
0.0
 30
0.0
210
0.0
220
0.0
230
1.0
  2
SOLID
 70
     1
 71
     0
 91
        1
 92
        1
 93
        1
 72
     4
 94
        3
 73
     0
 74
     1
 95
       53
 96
       49
 40
0.0
 40
0.0
 40
0.0
 40
0.0
 40
1.0
 40
1.0
 40
1.0
 40
2.0
 40
2.0
 40
2.0
 40
3.0
 40
3.0
 40
3.0
 40
4.0
 40
4.0
 40
4.0
 40
5.0
 40
5.0
 40
5.0
 40
6.0
 40
6.0
 40
6.0
 40
7.0
 40
7.0
 40
7.0
 40
8.0
 40
8.0
 40
8.0
 40
9.0
 40
9.0
 40
9.0
 40
10.0
 40
10.0
 40
10.0
 40
11.0
 40
11.0
 40
11.0
 40
12.0
 40
12.0
 40
12.0
 40
13.0
 40
13.0
 40
13.0
 40
14.0
 40
14.0
 40
14.0
 40
15.0
 40
15.0
 40
15.0
 40
16.0
 40
16.0
 40
16.0
 40
16.0
 10
106.1936902946321
 20
-152.709714046024
 10
106.1936902946321
 20
-152.7879177135391
 10
106.1768093267544
 20
-152.889548030354
 10
106.1134195698258
 20
-152.9911783471689
 10
106.0035210238463
 20
-153.1644666500769
 10
105.8722628858583
 20
-153.1858262420855
 10
105.76443139717
 20
-153.2047742672544
 10
105.76443139717
 20
-153.2047742672544
 10
105.76443139717
 20
-152.9825656084558
 10
105.76443139717
 20
-152.9825656084558
 10
105.9632134066689
 20
-152.9277885902403
 10
105.9928412278421
 20
-152.8006645668346
 10
105.9928412278421
 20
-152.7076469887328
 10
105.9928412278421
 20
-152.5681206215802
 10
105.8932779683184
 20
-152.4158474011322
 10
105.660734023064
 20
-152.4158474011322
 10
105.4047634285099
 20
-152.4158474011322
 10
105.3348279901594
 20
-152.5956813854622
 10
105.3348279901594
 20
-152.7162597274459
 10
105.3348279901594
 20
-152.7479546059103
 10
105.3348279901594
 20
-152.889548030354
 10
105.4640190708562
 20
-152.9784314938734
 10
105.4640190708562
 20
-152.9784314938734
 10
105.4450710456873
 20
-153.1541313636212
 10
105.4450710456873
 20
-153.1541313636212
 10
105.4450710456873
 20
-153.1541313636212
 10
104.5986110849615
 20
-153.0335530216375
 10
104.5986110849615
 20
-153.0335530216375
 10
104.5986110849615
 20
-153.0335530216375
 10
104.5986110849615
 20
-152.254961441971
 10
104.5986110849615
 20
-152.254961441971
 10
104.5986110849615
 20
-152.254961441971
 10
104.7932589798781
 20
-152.254961441971
 10
104.7932589798781
 20
-152.254961441971
 10
104.7932589798781
 20
-152.254961441971
 10
104.7932589798781
 20
-152.8706000051851
 10
104.7932589798781
 20
-152.8706000051851
 10
104.7932589798781
 20
-152.8706000051851
 10
105.2163167054668
 20
-152.9360568194049
 10
105.2163167054668
 20
-152.9360568194049
 10
105.1825547697113
 20
-152.8747341197674
 10
105.1422471525339
 20
-152.79239633767
 10
105.1422471525339
 20
-152.6738850529774
 10
105.1422471525339
 20
-152.4199815157145
 10
105.3286268182859
 20
-152.1829589463293
 10
105.6417859978951
 20
-152.1829589463293
 10
105.9590792920866
 20
-152.1829589463293
 10
106.1936902946321
 20
-152.407234662419
 10
106.1936902946321
 20
-152.709714046024
 97
        0
 97
        0
 75
     2
 76
     1
 98
        0
  0
ENDBLK
  5
C0
330
BD
100
AcDbEntity
  8
0
100
AcDbBlockEnd
  0
BLOCK
  5
DC
330
DA
100
AcDbEntity
  8
0
100
AcDbBlockBegin
  2
block 5
 70
     0
 10
0.0
 20
0.0
 30
0.0
  3
block 5
  1

  0
SPLINE
  5
DE
330
DA
100
AcDbEntity
  8
_U+30EC_U+30A4_U+30E4_U+30FC 1
370
     0
100
AcDbSpline
210
0.0
220
0.0
230
1.0
 70
    11
 71
     3
 72
    26
 73
    22
 74
     0
 42
0.0000000001
 43
0.0000000001
 12
1.0
 22
0.0
 32
0.0
 13
1.0
 23
0.0
 33
0.0
 40
0.0
 40
0.0
 40
0.0
 40
0.0
 40
1.0
 40
1.0
 40
1.0
 40
2.0
 40
2.0
 40
2.0
 40
3.0
 40
3.0
 40
3.0
 40
4.0
 40
4.0
 40
4.0
 40
5.0
 40
5.0
 40
5.0
 40
6.0
 40
6.0
 40
6.0
 40
7.0
 40
7.0
 40
7.0
 40
7.0
 10
97.8575927489731
 20
-160.2014186882483
 30
0.0
 10
97.8575927489731
 20
-160.2014186882483
 30
0.0
 10
97.8575927489731
 20
-159.0972655852257
 30
0.0
 10
97.8575927489731
 20
-159.0972655852257
 30
0.0
 10
97.8575927489731
 20
-159.0972655852257
 30
0.0
 10
97.52755260148618
 20
-159.0972655852257
 30
0.0
 10
97.52755260148618
 20
-159.0972655852257
 30
0.0
 10
97.52755260148618
 20
-159.0972655852257
 30
0.0
 10
97.52755260148618
 20
-158.94912647936
 30
0.0
 10
97.52755260148618
 20
-158.94912647936
 30
0.0
 10
97.85965980626426
 20
-158.9343125687734
 30
0.0
 10
97.90616859531512
 20
-158.7713595523211
 30
0.0
 10
97.93579641648827
 20
-158.6569823822108
 30
0.0
 10
97.93579641648827
 20
-158.6569823822108
 30
0.0
 10
98.08186846506287
 20
-158.6569823822108
 30
0.0
 10
98.08186846506287
 20
-158.6569823822108
 30
0.0
 10
98.08186846506287
 20
-158.6569823822108
 30
0.0
 10
98.08186846506287
 20
-160.2014186882483
 30
0.0
 10
98.08186846506287
 20
-160.2014186882483
 30
0.0
 10
98.08186846506287
 20
-160.2014186882483
 30
0.0
 10
97.8575927489731
 20
-160.2014186882483
 30
0.0
 10
97.8575927489731
 20
-160.2014186882483
 30
0.0
  0
HATCH
  5
DF
330
DA
100
AcDbEntity
  8
_U+30EC_U+30A4_U+30E4_U+30FC 1
 62
     7
420
 16777215
100
AcDbHatch
 10
0.0
 20
0.0
 30
0.0
210
0.0
220
0.0
230
1.0
  2
SOLID
 70
     1
 71
     0
 91
        1
 92
        1
 93
        1
 72
     4
 94
        3
 73
     0
 74
     1
 95
       26
 96
       22
 40
0.0
 40
0.0
 40
0.0
 40
0.0
 40
1.0
 40
1.0
 40
1.0
 40
2.0
 40
2.0
 40
2.0
 40
3.0
 40
3.0
 40
3.0
 40
4.0
 40
4.0
 40
4.0
 40
5.0
 40
5.0
 40
5.0
 40
6.0
 40
6.0
 40
6.0
 40
7.0
 40
7.0
 40
7.0
 40
7.0
 10
97.8575927489731
 20
-160.2014186882483
 10
97.8575927489731
 20
-160.2014186882483
 10
97.8575927489731
 20
-159.0972655852257
 10
97.8575927489731
 20
-159.0972655852257
 10
97.8575927489731
 20
-159.0972655852257
 10
97.52755260148618
 20
-159.0972655852257
 10
97.52755260148618
 20
-159.0972655852257
 10
97.52755260148618
 20
-159.0972655852257
 10
97.52755260148618
 20
-158.94912647936
 10
97.52755260148618
 20
-158.94912647936
 10
97.85965980626426
 20
-158.9343125687734
 10
97.90616859531512
 20
-158.7713595523211
 10
97.93579641648827
 20
-158.6569823822108
 10
97.93579641648827
 20
-158.6569823822108
 10
98.08186846506287
 20
-158.6569823822108
 10
98.08186846506287
 20
-158.6569823822108
 10
98.08186846506287
 20
-158.6569823822108
 10
98.08186846506287
 20
-160.2014186882483
 10
98.08186846506287
 20
-160.2014186882483
 10
98.08186846506287
 20
-160.2014186882483
 10
97.8575927489731
 20
-160.2014186882483
 10
97.8575927489731
 20
-160.2014186882483
 97
        0
 97
        0
 75
     2
 76
     1
 98
        0
  0
SPLINE
  5
E0
330
DA
100
AcDbEntity
  8
_U+30EC_U+30A4_U+30E4_U+30FC 1
370
     0
100
AcDbSpline
210
0.0
220
0.0
230
1.0
 70
    11
 71
     3
 72
    29
 73
    25
 74
     0
 42
0.0000000001
 43
0.0000000001
 12
1.0
 22
0.0
 32
0.0
 13
1.0
 23
0.0
 33
0.0
 40
0.0
 40
0.0
 40
0.0
 40
0.0
 40
1.0
 40
1.0
 40
1.0
 40
2.0
 40
2.0
 40
2.0
 40
3.0
 40
3.0
 40
3.0
 40
4.0
 40
4.0
 40
4.0
 40
5.0
 40
5.0
 40
5.0
 40
6.0
 40
6.0
 40
6.0
 40
7.0
 40
7.0
 40
7.0
 40
8.0
 40
8.0
 40
8.0
 40
8.0
 10
99.48074948684857
 20
-160.0236517612094
 30
0.0
 10
99.37291799816025
 20
-160.2331135667126
 30
0.0
 10
99.19945744047791
 20
-160.2520615918814
 30
0.0
 10
99.08301321307647
 20
-160.2520615918814
 30
0.0
 10
98.92229950868956
 20
-160.2520615918814
 30
0.0
 10
98.78053382947154
 20
-160.2055528028306
 30
0.0
 10
98.68527693930437
 20
-160.0236517612094
 30
0.0
 10
98.58175181997262
 20
-159.8290038662928
 30
0.0
 10
98.56263154002949
 20
-159.5919812969076
 30
0.0
 10
98.56263154002949
 20
-159.4293727900038
 30
0.0
 10
98.56263154002949
 20
-159.2853677987203
 30
0.0
 10
98.57951250790721
 20
-159.0335313187486
 30
0.0
 10
98.68527693930437
 20
-158.8347493092496
 30
0.0
 10
98.79328068276696
 20
-158.6318331851684
 30
0.0
 10
98.95399438715387
 20
-158.6084065358687
 30
0.0
 10
99.08301321307647
 20
-158.6084065358687
 30
0.0
 10
99.24165986017223
 20
-158.6084065358687
 30
0.0
 10
99.3854925966814
 20
-158.6528482676285
 30
0.0
 10
99.48074948684857
 20
-158.8347493092496
 30
0.0
 10
99.58014049159803
 20
-159.0273301468751
 30
0.0
 10
99.60339488612347
 20
-159.2557399775472
 30
0.0
 10
99.60339488612347
 20
-159.4293727900038
 30
0.0
 10
99.60339488612347
 20
-159.6005940356207
 30
0.0
 10
99.58237980366344
 20
-159.8310709235839
 30
0.0
 10
99.48074948684857
 20
-160.0236517612094
 30
0.0
  0
SPLINE
  5
E1
330
DA
100
AcDbEntity
  8
_U+30EC_U+30A4_U+30E4_U+30FC 1
370
     0
100
AcDbSpline
210
0.0
220
0.0
230
1.0
 70
    11
 71
     3
 72
    17
 73
    13
 74
     0
 42
0.0000000001
 43
0.0000000001
 12
1.0
 22
0.0
 32
0.0
 13
1.0
 23
0.0
 33
0.0
 40
0.0
 40
0.0
 40
0.0
 40
0.0
 40
1.0
 40
1.0
 40
1.0
 40
2.0
 40
2.0
 40
2.0
 40
3.0
 40
3.0
 40
3.0
 40
4.0
 40
4.0
 40
4.0
 40
4.0
 10
99.08301321307647
 20
-158.8009873734942
 30
0.0
 10
98.83341604517013
 20
-158.8009873734942
 30
0.0
 10
98.78690725611925
 20
-159.0845187319303
 30
0.0
 10
98.78690725611925
 20
-159.4293727900038
 30
0.0
 10
98.78690725611925
 20
-159.7487331414864
 30
0.0
 10
98.82290850394011
 20
-160.0574136969648
 30
0.0
 10
99.08301321307647
 20
-160.0574136969648
 30
0.0
 10
99.33054332369167
 20
-160.0574136969648
 30
0.0
 10
99.37929142480796
 20
-159.7762939053684
 30
0.0
 10
99.37929142480796
 20
-159.4293727900038
 30
0.0
 10
99.37929142480796
 20
-159.1096679289726
 30
0.0
 10
99.34105086492168
 20
-158.8009873734942
 30
0.0
 10
99.08301321307647
 20
-158.8009873734942
 30
0.0
  0
HATCH
  5
E2
330
DA
100
AcDbEntity
  8
_U+30EC_U+30A4_U+30E4_U+30FC 1
 62
     7
420
 16777215
100
AcDbHatch
 10
0.0
 20
0.0
 30
0.0
210
0.0
220
0.0
230
1.0
  2
SOLID
 70
     1
 71
     0
 91
        2
 92
        1
 93
        1
 72
     4
 94
        3
 73
     0
 74
     1
 95
       29
 96
       25
 40
0.0
 40
0.0
 40
0.0
 40
0.0
 40
1.0
 40
1.0
 40
1.0
 40
2.0
 40
2.0
 40
2.0
 40
3.0
 40
3.0
 40
3.0
 40
4.0
 40
4.0
 40
4.0
 40
5.0
 40
5.0
 40
5.0
 40
6.0
 40
6.0
 40
6.0
 40
7.0
 40
7.0
 40
7.0
 40
8.0
 40
8.0
 40
8.0
 40
8.0
 10
99.48074948684857
 20
-160.0236517612094
 10
99.37291799816025
 20
-160.2331135667126
 10
99.19945744047791
 20
-160.2520615918814
 10
99.08301321307647
 20
-160.2520615918814
 10
98.92229950868956
 20
-160.2520615918814
 10
98.78053382947154
 20
-160.2055528028306
 10
98.68527693930437
 20
-160.0236517612094
 10
98.58175181997262
 20
-159.8290038662928
 10
98.56263154002949
 20
-159.5919812969076
 10
98.56263154002949
 20
-159.4293727900038
 10
98.56263154002949
 20
-159.2853677987203
 10
98.57951250790721
 20
-159.0335313187486
 10
98.68527693930437
 20
-158.8347493092496
 10
98.79328068276696
 20
-158.6318331851684
 10
98.95399438715387
 20
-158.6084065358687
 10
99.08301321307647
 20
-158.6084065358687
 10
99.24165986017223
 20
-158.6084065358687
 10
99.3854925966814
 20
-158.6528482676285
 10
99.48074948684857
 20
-158.8347493092496
 10
99.58014049159803
 20
-159.0273301468751
 10
99.60339488612347
 20
-159.2557399775472
 10
99.60339488612347
 20
-159.4293727900038
 10
99.60339488612347
 20
-159.6005940356207
 10
99.58237980366344
 20
-159.8310709235839
 10
99.48074948684857
 20
-160.0236517612094
 97
        0
 97
        0
 92
        1
 93
        1
 72
     4
 94
        3
 73
     0
 74
     1
 95
       17
 96
       13
 40
0.0
 40
0.0
 40
0.0
 40
0.0
 40
1.0
 40
1.0
 40
1.0
 40
2.0
 40
2.0
 40
2.0
 40
3.0
 40
3.0
 40
3.0
 40
4.0
 40
4.0
 40
4.0
 40
4.0
 10
99.08301321307647
 20
-158.8009873734942
 10
98.83341604517013
 20
-158.8009873734942
 10
98.78690725611925
 20
-159.0845187319303
 10
98.78690725611925
 20
-159.4293727900038
 10
98.78690725611925
 20
-159.7487331414864
 10
98.82290850394011
 20
-160.0574136969648
 10
99.08301321307647
 20
-160.0574136969648
 10
99.33054332369167
 20
-160.0574136969648
 10
99.37929142480796
 20
-159.7762939053684
 10
99.37929142480796
 20
-159.4293727900038
 10
99.37929142480796
 20
-159.1096679289726
 10
99.34105086492168
 20
-158.8009873734942
 10
99.08301321307647
 20
-158.8009873734942
 97
        0
 97
        0
 75
     2
 76
     1
 98
        0
  0
ENDBLK
  5
DD
330
DA
100
AcDbEntity
  8
0
100
AcDbBlockEnd
  0
BLOCK
  5
ED
330
EB
100
AcDbEntity
  8
0
100
AcDbBlockBegin
  2
block 6
 70
     0
 10
0.0
 20
0.0
 30
0.0
  3
block 6
  1

  0
SPLINE
  5
EF
330
EB
100
AcDbEntity
  8
_U+30EC_U+30A4_U+30E4_U+30FC 1
370
     0
100
AcDbSpline
210
0.0
220
0.0
230
1.0
 70
    11
 71
     3
 72
    32
 73
    28
 74
     0
 42
0.0000000001
 43
0.0000000001
 12
1.0
 22
0.0
 32
0.0
 13
1.0
 23
0.0
 33
0.0
 40
0.0
 40
0.0
 40
0.0
 40
0.0
 40
1.0
 40
1.0
 40
1.0
 40
2.0
 40
2.0
 40
2.0
 40
3.0
 40
3.0
 40
3.0
 40
4.0
 40
4.0
 40
4.0
 40
5.0
 40
5.0
 40
5.0
 40
6.0
 40
6.0
 40
6.0
 40
7.0
 40
7.0
 40
7.0
 40
8.0
 40
8.0
 40
8.0
 40
9.0
 40
9.0
 40
9.0
 40
9.0
 10
90.48422713666714
 20
-160.2520615918814
 30
0.0
 10
89.96797957820246
 20
-160.2520615918814
 30
0.0
 10
89.95953909426359
 20
-159.6980902378533
 30
0.0
 10
89.95953909426359
 20
-159.4841498082193
 30
0.0
 10
89.95953909426359
 20
-159.253672920256
 30
0.0
 10
89.97865937420673
 20
-158.6063394785776
 30
0.0
 10
90.52229544177915
 20
-158.6063394785776
 30
0.0
 10
90.69575599946148
 20
-158.6063394785776
 30
0.0
 10
90.94121905278553
 20
-158.6762749169282
 30
0.0
 10
90.97928735789755
 20
-159.0083821217062
 30
0.0
 10
90.97928735789755
 20
-159.0083821217062
 30
0.0
 10
90.7655191830378
 20
-159.0083821217062
 30
0.0
 10
90.7655191830378
 20
-159.0083821217062
 30
0.0
 10
90.75501164180778
 20
-158.9511935366511
 30
0.0
 10
90.72331676334348
 20
-158.8030544307854
 30
0.0
 10
90.52022838448801
 20
-158.8030544307854
 30
0.0
 10
90.22825654211307
 20
-158.8030544307854
 30
0.0
 10
90.18794892493565
 20
-159.1310275209811
 30
0.0
 10
90.1753743264145
 20
-159.3360107023535
 30
0.0
 10
90.26839190451624
 20
-159.2578070348383
 30
0.0
 10
90.33608803080139
 20
-159.198551392492
 30
0.0
 10
90.5179890724226
 20
-159.198551392492
 30
0.0
 10
90.69782305675263
 20
-159.198551392492
 30
0.0
 10
91.00030244035757
 20
-159.3067273907289
 30
0.0
 10
91.00030244035757
 20
-159.7129041484398
 30
0.0
 10
91.00030244035757
 20
-160.0322644999225
 30
0.0
 10
90.80152043085864
 20
-160.2520615918814
 30
0.0
 10
90.48422713666714
 20
-160.2520615918814
 30
0.0
  0
SPLINE
  5
F0
330
EB
100
AcDbEntity
  8
_U+30EC_U+30A4_U+30E4_U+30FC 1
370
     0
100
AcDbSpline
210
0.0
220
0.0
230
1.0
 70
    11
 71
     3
 72
    17
 73
    13
 74
     0
 42
0.0000000001
 43
0.0000000001
 12
1.0
 22
0.0
 32
0.0
 13
1.0
 23
0.0
 33
0.0
 40
0.0
 40
0.0
 40
0.0
 40
0.0
 40
1.0
 40
1.0
 40
1.0
 40
2.0
 40
2.0
 40
2.0
 40
3.0
 40
3.0
 40
3.0
 40
4.0
 40
4.0
 40
4.0
 40
4.0
 10
90.50110810454487
 20
-159.3931992874087
 30
0.0
 10
90.23876408334309
 20
-159.3931992874087
 30
0.0
 10
90.20069577823108
 20
-159.604728150203
 30
0.0
 10
90.20069577823108
 20
-159.7211723776044
 30
0.0
 10
90.20069577823108
 20
-159.8968722473522
 30
0.0
 10
90.29595266839824
 20
-160.0598252638045
 30
0.0
 10
90.47992076731057
 20
-160.0598252638045
 30
0.0
 10
90.60049910929432
 20
-160.0598252638045
 30
0.0
 10
90.77619897904206
 20
-160.0005696214582
 30
0.0
 10
90.77619897904206
 20
-159.714971205731
 30
0.0
 10
90.77619897904206
 20
-159.4906954896412
 30
0.0
 10
90.63650035711518
 20
-159.3931992874087
 30
0.0
 10
90.50110810454487
 20
-159.3931992874087
 30
0.0
  0
HATCH
  5
F1
330
EB
100
AcDbEntity
  8
_U+30EC_U+30A4_U+30E4_U+30FC 1
 62
     7
420
 16777215
100
AcDbHatch
 10
0.0
 20
0.0
 30
0.0
210
0.0
220
0.0
230
1.0
  2
SOLID
 70
     1
 71
     0
 91
        2
 92
        1
 93
        1
 72
     4
 94
        3
 73
     0
 74
     1
 95
       32
 96
       28
 40
0.0
 40
0.0
 40
0.0
 40
0.0
 40
1.0
 40
1.0
 40
1.0
 40
2.0
 40
2.0
 40
2.0
 40
3.0
 40
3.0
 40
3.0
 40
4.0
 40
4.0
 40
4.0
 40
5.0
 40
5.0
 40
5.0
 40
6.0
 40
6.0
 40
6.0
 40
7.0
 40
7.0
 40
7.0
 40
8.0
 40
8.0
 40
8.0
 40
9.0
 40
9.0
 40
9.0
 40
9.0
 10
90.48422713666714
 20
-160.2520615918814
 10
89.96797957820246
 20
-160.2520615918814
 10
89.95953909426359
 20
-159.6980902378533
 10
89.95953909426359
 20
-159.4841498082193
 10
89.95953909426359
 20
-159.253672920256
 10
89.97865937420673
 20
-158.6063394785776
 10
90.52229544177915
 20
-158.6063394785776
 10
90.69575599946148
 20
-158.6063394785776
 10
90.94121905278553
 20
-158.6762749169282
 10
90.97928735789755
 20
-159.0083821217062
 10
90.97928735789755
 20
-159.0083821217062
 10
90.7655191830378
 20
-159.0083821217062
 10
90.7655191830378
 20
-159.0083821217062
 10
90.75501164180778
 20
-158.9511935366511
 10
90.72331676334348
 20
-158.8030544307854
 10
90.52022838448801
 20
-158.8030544307854
 10
90.22825654211307
 20
-158.8030544307854
 10
90.18794892493565
 20
-159.1310275209811
 10
90.1753743264145
 20
-159.3360107023535
 10
90.26839190451624
 20
-159.2578070348383
 10
90.33608803080139
 20
-159.198551392492
 10
90.5179890724226
 20
-159.198551392492
 10
90.69782305675263
 20
-159.198551392492
 10
91.00030244035757
 20
-159.3067273907289
 10
91.00030244035757
 20
-159.7129041484398
 10
91.00030244035757
 20
-160.0322644999225
 10
90.80152043085864
 20
-160.2520615918814
 10
90.48422713666714
 20
-160.2520615918814
 97
        0
 97
        0
 92
        1
 93
        1
 72
     4
 94
        3
 73
     0
 74
     1
 95
       17
 96
       13
 40
0.0
 40
0.0
 40
0.0
 40
0.0
 40
1.0
 40
1.0
 40
1.0
 40
2.0
 40
2.0
 40
2.0
 40
3.0
 40
3.0
 40
3.0
 40
4.0
 40
4.0
 40
4.0
 40
4.0
 10
90.50110810454487
 20
-159.3931992874087
 10
90.23876408334309
 20
-159.3931992874087
 10
90.20069577823108
 20
-159.604728150203
 10
90.20069577823108
 20
-159.7211723776044
 10
90.20069577823108
 20
-159.8968722473522
 10
90.29595266839824
 20
-160.0598252638045
 10
90.47992076731057
 20
-160.0598252638045
 10
90.60049910929432
 20
-160.0598252638045
 10
90.77619897904206
 20
-160.0005696214582
 10
90.77619897904206
 20
-159.714971205731
 10
90.77619897904206
 20
-159.4906954896412
 10
90.63650035711518
 20
-159.3931992874087
 10
90.50110810454487
 20
-159.3931992874087
 97
        0
 97
        0
 75
     2
 76
     1
 98
        0
  0
ENDBLK
  5
EE
330
EB
100
AcDbEntity
  8
0
100
AcDbBlockEnd
  0
BLOCK
  5
100
330
FE
100
AcDbEntity
  8
0
100
AcDbBlockBegin
  2
block 7
 70
     0
 10
0.0
 20
0.0
 30
0.0
  3
block 7
  1

  0
SPLINE
  5
102
330
FE
100
AcDbEntity
  8
_U+30EC_U+30A4_U+30E4_U+30FC 1
370
     0
100
AcDbSpline
210
0.0
220
0.0
230
1.0
 70
    11
 71
     3
 72
    26
 73
    22
 74
     0
 42
0.0000000001
 43
0.0000000001
 12
1.0
 22
0.0
 32
0.0
 13
1.0
 23
0.0
 33
0.0
 40
0.0
 40
0.0
 40
0.0
 40
0.0
 40
1.0
 40
1.0
 40
1.0
 40
2.0
 40
2.0
 40
2.0
 40
3.0
 40
3.0
 40
3.0
 40
4.0
 40
4.0
 40
4.0
 40
5.0
 40
5.0
 40
5.0
 40
6.0
 40
6.0
 40
6.0
 40
7.0
 40
7.0
 40
7.0
 40
7.0
 10
121.1436821528738
 20
-150.3026258304799
 30
0.0
 10
121.1436821528738
 20
-150.3026258304799
 30
0.0
 10
120.0395290498512
 20
-150.3026258304799
 30
0.0
 10
120.0395290498512
 20
-150.3026258304799
 30
0.0
 10
120.0395290498512
 20
-150.3026258304799
 30
0.0
 10
120.0395290498512
 20
-150.6326659779668
 30
0.0
 10
120.0395290498512
 20
-150.6326659779668
 30
0.0
 10
120.0395290498512
 20
-150.6326659779668
 30
0.0
 10
119.8913899439855
 20
-150.6326659779668
 30
0.0
 10
119.8913899439855
 20
-150.6326659779668
 30
0.0
 10
119.8765760333989
 20
-150.3005587731888
 30
0.0
 10
119.7136230169466
 20
-150.2540499841379
 30
0.0
 10
119.5992458468363
 20
-150.2244221629647
 30
0.0
 10
119.5992458468363
 20
-150.2244221629647
 30
0.0
 10
119.5992458468363
 20
-150.0783501143901
 30
0.0
 10
119.5992458468363
 20
-150.0783501143901
 30
0.0
 10
119.5992458468363
 20
-150.0783501143901
 30
0.0
 10
121.1436821528738
 20
-150.0783501143901
 30
0.0
 10
121.1436821528738
 20
-150.0783501143901
 30
0.0
 10
121.1436821528738
 20
-150.0783501143901
 30
0.0
 10
121.1436821528738
 20
-150.3026258304799
 30
0.0
 10
121.1436821528738
 20
-150.3026258304799
 30
0.0
  0
HATCH
  5
103
330
FE
100
AcDbEntity
  8
_U+30EC_U+30A4_U+30E4_U+30FC 1
 62
     7
420
 16777215
100
AcDbHatch
 10
0.0
 20
0.0
 30
0.0
210
0.0
220
0.0
230
1.0
  2
SOLID
 70
     1
 71
     0
 91
        1
 92
        1
 93
        1
 72
     4
 94
        3
 73
     0
 74
     1
 95
       26
 96
       22
 40
0.0
 40
0.0
 40
0.0
 40
0.0
 40
1.0
 40
1.0
 40
1.0
 40
2.0
 40
2.0
 40
2.0
 40
3.0
 40
3.0
 40
3.0
 40
4.0
 40
4.0
 40
4.0
 40
5.0
 40
5.0
 40
5.0
 40
6.0
 40
6.0
 40
6.0
 40
7.0
 40
7.0
 40
7.0
 40
7.0
 10
121.1436821528738
 20
-150.3026258304799
 10
121.1436821528738
 20
-150.3026258304799
 10
120.0395290498512
 20
-150.3026258304799
 10
120.0395290498512
 20
-150.3026258304799
 10
120.0395290498512
 20
-150.3026258304799
 10
120.0395290498512
 20
-150.6326659779668
 10
120.0395290498512
 20
-150.6326659779668
 10
120.0395290498512
 20
-150.6326659779668
 10
119.8913899439855
 20
-150.6326659779668
 10
119.8913899439855
 20
-150.6326659779668
 10
119.8765760333989
 20
-150.3005587731888
 10
119.7136230169466
 20
-150.2540499841379
 10
119.5992458468363
 20
-150.2244221629647
 10
119.5992458468363
 20
-150.2244221629647
 10
119.5992458468363
 20
-150.0783501143901
 10
119.5992458468363
 20
-150.0783501143901
 10
119.5992458468363
 20
-150.0783501143901
 10
121.1436821528738
 20
-150.0783501143901
 10
121.1436821528738
 20
-150.0783501143901
 10
121.1436821528738
 20
-150.0783501143901
 10
121.1436821528738
 20
-150.3026258304799
 10
121.1436821528738
 20
-150.3026258304799
 97
        0
 97
        0
 75
     2
 76
     1
 98
        0
  0
SPLINE
  5
104
330
FE
100
AcDbEntity
  8
_U+30EC_U+30A4_U+30E4_U+30FC 1
370
     0
100
AcDbSpline
210
0.0
220
0.0
230
1.0
 70
    11
 71
     3
 72
    53
 73
    49
 74
     0
 42
0.0000000001
 43
0.0000000001
 12
1.0
 22
0.0
 32
0.0
 13
1.0
 23
0.0
 33
0.0
 40
0.0
 40
0.0
 40
0.0
 40
0.0
 40
1.0
 40
1.0
 40
1.0
 40
2.0
 40
2.0
 40
2.0
 40
3.0
 40
3.0
 40
3.0
 40
4.0
 40
4.0
 40
4.0
 40
5.0
 40
5.0
 40
5.0
 40
6.0
 40
6.0
 40
6.0
 40
7.0
 40
7.0
 40
7.0
 40
8.0
 40
8.0
 40
8.0
 40
9.0
 40
9.0
 40
9.0
 40
10.0
 40
10.0
 40
10.0
 40
11.0
 40
11.0
 40
11.0
 40
12.0
 40
12.0
 40
12.0
 40
13.0
 40
13.0
 40
13.0
 40
14.0
 40
14.0
 40
14.0
 40
15.0
 40
15.0
 40
15.0
 40
16.0
 40
16.0
 40
16.0
 40
16.0
 10
121.194325056507
 20
-149.0961533915454
 30
0.0
 10
121.194325056507
 20
-149.1743570590606
 30
0.0
 10
121.1774440886293
 20
-149.2759873758754
 30
0.0
 10
121.1140543317007
 20
-149.3776176926903
 30
0.0
 10
121.0041557857212
 20
-149.5509059955984
 30
0.0
 10
120.8728976477332
 20
-149.5722655876069
 30
0.0
 10
120.7650661590448
 20
-149.5912136127758
 30
0.0
 10
120.7650661590448
 20
-149.5912136127758
 30
0.0
 10
120.7650661590448
 20
-149.3690049539772
 30
0.0
 10
120.7650661590448
 20
-149.3690049539772
 30
0.0
 10
120.9638481685438
 20
-149.3142279357617
 30
0.0
 10
120.9934759897169
 20
-149.187103912356
 30
0.0
 10
120.9934759897169
 20
-149.0940863342543
 30
0.0
 10
120.9934759897169
 20
-148.9545599671016
 30
0.0
 10
120.8939127301932
 20
-148.8022867466536
 30
0.0
 10
120.6613687849388
 20
-148.8022867466536
 30
0.0
 10
120.4053981903848
 20
-148.8022867466536
 30
0.0
 10
120.3354627520342
 20
-148.9821207309836
 30
0.0
 10
120.3354627520342
 20
-149.1026990729674
 30
0.0
 10
120.3354627520342
 20
-149.1343939514317
 30
0.0
 10
120.3354627520342
 20
-149.2759873758754
 30
0.0
 10
120.4646538327311
 20
-149.3648708393949
 30
0.0
 10
120.4646538327311
 20
-149.3648708393949
 30
0.0
 10
120.4457058075622
 20
-149.5405707091426
 30
0.0
 10
120.4457058075622
 20
-149.5405707091426
 30
0.0
 10
120.4457058075622
 20
-149.5405707091426
 30
0.0
 10
119.5992458468363
 20
-149.4199923671589
 30
0.0
 10
119.5992458468363
 20
-149.4199923671589
 30
0.0
 10
119.5992458468363
 20
-149.4199923671589
 30
0.0
 10
119.5992458468363
 20
-148.6414007874924
 30
0.0
 10
119.5992458468363
 20
-148.6414007874924
 30
0.0
 10
119.5992458468363
 20
-148.6414007874924
 30
0.0
 10
119.7938937417529
 20
-148.6414007874924
 30
0.0
 10
119.7938937417529
 20
-148.6414007874924
 30
0.0
 10
119.7938937417529
 20
-148.6414007874924
 30
0.0
 10
119.7938937417529
 20
-149.2570393507066
 30
0.0
 10
119.7938937417529
 20
-149.2570393507066
 30
0.0
 10
119.7938937417529
 20
-149.2570393507066
 30
0.0
 10
120.2169514673416
 20
-149.3224961649263
 30
0.0
 10
120.2169514673416
 20
-149.3224961649263
 30
0.0
 10
120.1831895315862
 20
-149.2611734652889
 30
0.0
 10
120.1428819144087
 20
-149.1788356831914
 30
0.0
 10
120.1428819144087
 20
-149.0603243984988
 30
0.0
 10
120.1428819144087
 20
-148.8064208612359
 30
0.0
 10
120.3292615801607
 20
-148.5693982918507
 30
0.0
 10
120.64242075977
 20
-148.5693982918507
 30
0.0
 10
120.9597140539615
 20
-148.5693982918507
 30
0.0
 10
121.194325056507
 20
-148.7936740079405
 30
0.0
 10
121.194325056507
 20
-149.0961533915454
 30
0.0
  0
HATCH
  5
105
330
FE
100
AcDbEntity
  8
_U+30EC_U+30A4_U+30E4_U+30FC 1
 62
     7
420
 16777215
100
AcDbHatch
 10
0.0
 20
0.0
 30
0.0
210
0.0
220
0.0
230
1.0
  2
SOLID
 70
     1
 71
     0
 91
        1
 92
        1
 93
        1
 72
     4
 94
        3
 73
     0
 74
     1
 95
       53
 96
       49
 40
0.0
 40
0.0
 40
0.0
 40
0.0
 40
1.0
 40
1.0
 40
1.0
 40
2.0
 40
2.0
 40
2.0
 40
3.0
 40
3.0
 40
3.0
 40
4.0
 40
4.0
 40
4.0
 40
5.0
 40
5.0
 40
5.0
 40
6.0
 40
6.0
 40
6.0
 40
7.0
 40
7.0
 40
7.0
 40
8.0
 40
8.0
 40
8.0
 40
9.0
 40
9.0
 40
9.0
 40
10.0
 40
10.0
 40
10.0
 40
11.0
 40
11.0
 40
11.0
 40
12.0
 40
12.0
 40
12.0
 40
13.0
 40
13.0
 40
13.0
 40
14.0
 40
14.0
 40
14.0
 40
15.0
 40
15.0
 40
15.0
 40
16.0
 40
16.0
 40
16.0
 40
16.0
 10
121.194325056507
 20
-149.0961533915454
 10
121.194325056507
 20
-149.1743570590606
 10
121.1774440886293
 20
-149.2759873758754
 10
121.1140543317007
 20
-149.3776176926903
 10
121.0041557857212
 20
-149.5509059955984
 10
120.8728976477332
 20
-149.5722655876069
 10
120.7650661590448
 20
-149.5912136127758
 10
120.7650661590448
 20
-149.5912136127758
 10
120.7650661590448
 20
-149.3690049539772
 10
120.7650661590448
 20
-149.3690049539772
 10
120.9638481685438
 20
-149.3142279357617
 10
120.9934759897169
 20
-149.187103912356
 10
120.9934759897169
 20
-149.0940863342543
 10
120.9934759897169
 20
-148.9545599671016
 10
120.8939127301932
 20
-148.8022867466536
 10
120.6613687849388
 20
-148.8022867466536
 10
120.4053981903848
 20
-148.8022867466536
 10
120.3354627520342
 20
-148.9821207309836
 10
120.3354627520342
 20
-149.1026990729674
 10
120.3354627520342
 20
-149.1343939514317
 10
120.3354627520342
 20
-149.2759873758754
 10
120.4646538327311
 20
-149.3648708393949
 10
120.4646538327311
 20
-149.3648708393949
 10
120.4457058075622
 20
-149.5405707091426
 10
120.4457058075622
 20
-149.5405707091426
 10
120.4457058075622
 20
-149.5405707091426
 10
119.5992458468363
 20
-149.4199923671589
 10
119.5992458468363
 20
-149.4199923671589
 10
119.5992458468363
 20
-149.4199923671589
 10
119.5992458468363
 20
-148.6414007874924
 10
119.5992458468363
 20
-148.6414007874924
 10
119.5992458468363
 20
-148.6414007874924
 10
119.7938937417529
 20
-148.6414007874924
 10
119.7938937417529
 20
-148.6414007874924
 10
119.7938937417529
 20
-148.6414007874924
 10
119.7938937417529
 20
-149.2570393507066
 10
119.7938937417529
 20
-149.2570393507066
 10
119.7938937417529
 20
-149.2570393507066
 10
120.2169514673416
 20
-149.3224961649263
 10
120.2169514673416
 20
-149.3224961649263
 10
120.1831895315862
 20
-149.2611734652889
 10
120.1428819144087
 20
-149.1788356831914
 10
120.1428819144087
 20
-149.0603243984988
 10
120.1428819144087
 20
-148.8064208612359
 10
120.3292615801607
 20
-148.5693982918507
 10
120.64242075977
 20
-148.5693982918507
 10
120.9597140539615
 20
-148.5693982918507
 10
121.194325056507
 20
-148.7936740079405
 10
121.194325056507
 20
-149.0961533915454
 97
        0
 97
        0
 75
     2
 76
     1
 98
        0
  0
POLYLINE
  5
106
330
FE
100
AcDbEntity
  8
_U+30EC_U+30A4_U+30E4_U+30FC 1
370
     0
100
AcDb2dPolyline
 66
     1
 10
0.0
 20
0.0
 30
0.0
  0
VERTEX
  5
107
330
106
100
AcDbEntity
  8
_U+30EC_U+30A4_U+30E4_U+30FC 1
370
     0
100
AcDbVertex
100
AcDb2dVertex
 10
121.1436821528738
 20
-148.3402994420816
 30
0.0
  0
VERTEX
  5
108
330
106
100
AcDbEntity
  8
_U+30EC_U+30A4_U+30E4_U+30FC 1
370
     0
100
AcDbVertex
100
AcDb2dVertex
 10
120.8918456729021
 20
-148.3402994420816
 30
0.0
  0
VERTEX
  5
109
330
106
100
AcDbEntity
  8
_U+30EC_U+30A4_U+30E4_U+30FC 1
370
     0
100
AcDbVertex
100
AcDb2dVertex
 10
120.8918456729021
 20
-148.0884629621098
 30
0.0
  0
VERTEX
  5
10A
330
106
100
AcDbEntity
  8
_U+30EC_U+30A4_U+30E4_U+30FC 1
370
     0
100
AcDbVertex
100
AcDb2dVertex
 10
121.1436821528738
 20
-148.0884629621098
 30
0.0
  0
VERTEX
  5
10B
330
106
100
AcDbEntity
  8
_U+30EC_U+30A4_U+30E4_U+30FC 1
370
     0
100
AcDbVertex
100
AcDb2dVertex
 10
121.1436821528738
 20
-148.3402994420816
 30
0.0
  0
SEQEND
  5
10C
330
106
100
AcDbEntity
  8
_U+30EC_U+30A4_U+30E4_U+30FC 1
370
     0
  0
HATCH
  5
10D
330
FE
100
AcDbEntity
  8
_U+30EC_U+30A4_U+30E4_U+30FC 1
 62
     7
420
 16777215
100
AcDbHatch
 10
0.0
 20
0.0
 30
0.0
210
0.0
220
0.0
230
1.0
  2
SOLID
 70
     1
 71
     0
 91
        1
 92
        1
 93
        4
 72
     1
 10
121.1436821528738
 20
-148.3402994420816
 11
120.8918456729021
 21
-148.3402994420816
 72
     1
 10
120.8918456729021
 20
-148.3402994420816
 11
120.8918456729021
 21
-148.0884629621098
 72
     1
 10
120.8918456729021
 20
-148.0884629621098
 11
121.1436821528738
 21
-148.0884629621098
 72
     1
 10
121.1436821528738
 20
-148.0884629621098
 11
121.1436821528738
 21
-148.3402994420816
 97
        0
 75
     2
 76
     1
 98
        0
  0
SPLINE
  5
10E
330
FE
100
AcDbEntity
  8
_U+30EC_U+30A4_U+30E4_U+30FC 1
370
     0
100
AcDbSpline
210
0.0
220
0.0
230
1.0
 70
    11
 71
     3
 72
    53
 73
    49
 74
     0
 42
0.0000000001
 43
0.0000000001
 12
1.0
 22
0.0
 32
0.0
 13
1.0
 23
0.0
 33
0.0
 40
0.0
 40
0.0
 40
0.0
 40
0.0
 40
1.0
 40
1.0
 40
1.0
 40
2.0
 40
2.0
 40
2.0
 40
3.0
 40
3.0
 40
3.0
 40
4.0
 40
4.0
 40
4.0
 40
5.0
 40
5.0
 40
5.0
 40
6.0
 40
6.0
 40
6.0
 40
7.0
 40
7.0
 40
7.0
 40
8.0
 40
8.0
 40
8.0
 40
9.0
 40
9.0
 40
9.0
 40
10.0
 40
10.0
 40
10.0
 40
11.0
 40
11.0
 40
11.0
 40
12.0
 40
12.0
 40
12.0
 40
13.0
 40
13.0
 40
13.0
 40
14.0
 40
14.0
 40
14.0
 40
15.0
 40
15.0
 40
15.0
 40
16.0
 40
16.0
 40
16.0
 40
16.0
 10
121.194325056507
 20
-147.3711940820808
 30
0.0
 10
121.194325056507
 20
-147.449397749596
 30
0.0
 10
121.1774440886293
 20
-147.5510280664109
 30
0.0
 10
121.1140543317007
 20
-147.6526583832257
 30
0.0
 10
121.0041557857212
 20
-147.8259466861338
 30
0.0
 10
120.8728976477332
 20
-147.8473062781424
 30
0.0
 10
120.7650661590448
 20
-147.8662543033112
 30
0.0
 10
120.7650661590448
 20
-147.8662543033112
 30
0.0
 10
120.7650661590448
 20
-147.6440456445126
 30
0.0
 10
120.7650661590448
 20
-147.6440456445126
 30
0.0
 10
120.9638481685438
 20
-147.5892686262971
 30
0.0
 10
120.9934759897169
 20
-147.4621446028914
 30
0.0
 10
120.9934759897169
 20
-147.3691270247897
 30
0.0
 10
120.9934759897169
 20
-147.2296006576371
 30
0.0
 10
120.8939127301932
 20
-147.077327437189
 30
0.0
 10
120.6613687849388
 20
-147.077327437189
 30
0.0
 10
120.4053981903848
 20
-147.077327437189
 30
0.0
 10
120.3354627520342
 20
-147.257161421519
 30
0.0
 10
120.3354627520342
 20
-147.3777397635028
 30
0.0
 10
120.3354627520342
 20
-147.4094346419671
 30
0.0
 10
120.3354627520342
 20
-147.5510280664109
 30
0.0
 10
120.4646538327311
 20
-147.6399115299303
 30
0.0
 10
120.4646538327311
 20
-147.6399115299303
 30
0.0
 10
120.4457058075622
 20
-147.8156113996781
 30
0.0
 10
120.4457058075622
 20
-147.8156113996781
 30
0.0
 10
120.4457058075622
 20
-147.8156113996781
 30
0.0
 10
119.5992458468363
 20
-147.6950330576943
 30
0.0
 10
119.5992458468363
 20
-147.6950330576943
 30
0.0
 10
119.5992458468363
 20
-147.6950330576943
 30
0.0
 10
119.5992458468363
 20
-146.9164414780278
 30
0.0
 10
119.5992458468363
 20
-146.9164414780278
 30
0.0
 10
119.5992458468363
 20
-146.9164414780278
 30
0.0
 10
119.7938937417529
 20
-146.9164414780278
 30
0.0
 10
119.7938937417529
 20
-146.9164414780278
 30
0.0
 10
119.7938937417529
 20
-146.9164414780278
 30
0.0
 10
119.7938937417529
 20
-147.532080041242
 30
0.0
 10
119.7938937417529
 20
-147.532080041242
 30
0.0
 10
119.7938937417529
 20
-147.532080041242
 30
0.0
 10
120.2169514673416
 20
-147.5975368554617
 30
0.0
 10
120.2169514673416
 20
-147.5975368554617
 30
0.0
 10
120.1831895315862
 20
-147.5362141558243
 30
0.0
 10
120.1428819144087
 20
-147.4538763737268
 30
0.0
 10
120.1428819144087
 20
-147.3353650890342
 30
0.0
 10
120.1428819144087
 20
-147.0814615517713
 30
0.0
 10
120.3292615801607
 20
-146.8444389823861
 30
0.0
 10
120.64242075977
 20
-146.8444389823861
 30
0.0
 10
120.9597140539615
 20
-146.8444389823861
 30
0.0
 10
121.194325056507
 20
-147.0687146984759
 30
0.0
 10
121.194325056507
 20
-147.3711940820808
 30
0.0
  0
HATCH
  5
10F
330
FE
100
AcDbEntity
  8
_U+30EC_U+30A4_U+30E4_U+30FC 1
 62
     7
420
 16777215
100
AcDbHatch
 10
0.0
 20
0.0
 30
0.0
210
0.0
220
0.0
230
1.0
  2
SOLID
 70
     1
 71
     0
 91
        1
 92
        1
 93
        1
 72
     4
 94
        3
 73
     0
 74
     1
 95
       53
 96
       49
 40
0.0
 40
0.0
 40
0.0
 40
0.0
 40
1.0
 40
1.0
 40
1.0
 40
2.0
 40
2.0
 40
2.0
 40
3.0
 40
3.0
 40
3.0
 40
4.0
 40
4.0
 40
4.0
 40
5.0
 40
5.0
 40
5.0
 40
6.0
 40
6.0
 40
6.0
 40
7.0
 40
7.0
 40
7.0
 40
8.0
 40
8.0
 40
8.0
 40
9.0
 40
9.0
 40
9.0
 40
10.0
 40
10.0
 40
10.0
 40
11.0
 40
11.0
 40
11.0
 40
12.0
 40
12.0
 40
12.0
 40
13.0
 40
13.0
 40
13.0
 40
14.0
 40
14.0
 40
14.0
 40
15.0
 40
15.0
 40
15.0
 40
16.0
 40
16.0
 40
16.0
 40
16.0
 10
121.194325056507
 20
-147.3711940820808
 10
121.194325056507
 20
-147.449397749596
 10
121.1774440886293
 20
-147.5510280664109
 10
121.1140543317007
 20
-147.6526583832257
 10
121.0041557857212
 20
-147.8259466861338
 10
120.8728976477332
 20
-147.8473062781424
 10
120.7650661590448
 20
-147.8662543033112
 10
120.7650661590448
 20
-147.8662543033112
 10
120.7650661590448
 20
-147.6440456445126
 10
120.7650661590448
 20
-147.6440456445126
 10
120.9638481685438
 20
-147.5892686262971
 10
120.9934759897169
 20
-147.4621446028914
 10
120.9934759897169
 20
-147.3691270247897
 10
120.9934759897169
 20
-147.2296006576371
 10
120.8939127301932
 20
-147.077327437189
 10
120.6613687849388
 20
-147.077327437189
 10
120.4053981903848
 20
-147.077327437189
 10
120.3354627520342
 20
-147.257161421519
 10
120.3354627520342
 20
-147.3777397635028
 10
120.3354627520342
 20
-147.4094346419671
 10
120.3354627520342
 20
-147.5510280664109
 10
120.4646538327311
 20
-147.6399115299303
 10
120.4646538327311
 20
-147.6399115299303
 10
120.4457058075622
 20
-147.8156113996781
 10
120.4457058075622
 20
-147.8156113996781
 10
120.4457058075622
 20
-147.8156113996781
 10
119.5992458468363
 20
-147.6950330576943
 10
119.5992458468363
 20
-147.6950330576943
 10
119.5992458468363
 20
-147.6950330576943
 10
119.5992458468363
 20
-146.9164414780278
 10
119.5992458468363
 20
-146.9164414780278
 10
119.5992458468363
 20
-146.9164414780278
 10
119.7938937417529
 20
-146.9164414780278
 10
119.7938937417529
 20
-146.9164414780278
 10
119.7938937417529
 20
-146.9164414780278
 10
119.7938937417529
 20
-147.532080041242
 10
119.7938937417529
 20
-147.532080041242
 10
119.7938937417529
 20
-147.532080041242
 10
120.2169514673416
 20
-147.5975368554617
 10
120.2169514673416
 20
-147.5975368554617
 10
120.1831895315862
 20
-147.5362141558243
 10
120.1428819144087
 20
-147.4538763737268
 10
120.1428819144087
 20
-147.3353650890342
 10
120.1428819144087
 20
-147.0814615517713
 10
120.3292615801607
 20
-146.8444389823861
 10
120.64242075977
 20
-146.8444389823861
 10
120.9597140539615
 20
-146.8444389823861
 10
121.194325056507
 20
-147.0687146984759
 10
121.194325056507
 20
-147.3711940820808
 97
        0
 97
        0
 75
     2
 76
     1
 98
        0
  0
ENDBLK
  5
101
330
FE
100
AcDbEntity
  8
0
100
AcDbBlockEnd
  0
BLOCK
  5
116
330
114
100
AcDbEntity
  8
0
100
AcDbBlockBegin
  2
block 8
 70
     0
 10
0.0
 20
0.0
 30
0.0
  3
block 8
  1

  0
SPLINE
  5
118
330
114
100
AcDbEntity
  8
_U+30EC_U+30A4_U+30E4_U+30FC 1
370
     0
100
AcDbSpline
210
0.0
220
0.0
230
1.0
 70
    11
 71
     3
 72
    17
 73
    13
 74
     0
 42
0.0000000001
 43
0.0000000001
 12
1.0
 22
0.0
 32
0.0
 13
1.0
 23
0.0
 33
0.0
 40
0.0
 40
0.0
 40
0.0
 40
0.0
 40
1.0
 40
1.0
 40
1.0
 40
2.0
 40
2.0
 40
2.0
 40
3.0
 40
3.0
 40
3.0
 40
4.0
 40
4.0
 40
4.0
 40
4.0
 10
106.7404269481413
 20
-161.6865993519395
 30
0.0
 10
106.6346625167441
 20
-161.5808349205423
 30
0.0
 10
106.5540472823893
 20
-161.542594360656
 30
0.0
 10
106.4610297042875
 20
-161.5108994821917
 30
0.0
 10
106.4610297042875
 20
-161.5108994821917
 30
0.0
 10
106.5712727598155
 20
-161.3462239179968
 30
0.0
 10
106.5712727598155
 20
-161.3462239179968
 30
0.0
 10
106.6684244524996
 20
-161.3882540829168
 30
0.0
 10
106.7890027944833
 20
-161.4668022599805
 30
0.0
 10
106.8420572649562
 20
-161.521579278196
 30
0.0
 10
106.8420572649562
 20
-161.521579278196
 30
0.0
 10
106.7404269481413
 20
-161.6865993519395
 30
0.0
 10
106.7404269481413
 20
-161.6865993519395
 30
0.0
  0
SPLINE
  5
119
330
114
100
AcDbEntity
  8
_U+30EC_U+30A4_U+30E4_U+30FC 1
370
     0
100
AcDbSpline
210
0.0
220
0.0
230
1.0
 70
    11
 71
     3
 72
   182
 73
   178
 74
     0
 42
0.0000000001
 43
0.0000000001
 12
1.0
 22
0.0
 32
0.0
 13
1.0
 23
0.0
 33
0.0
 40
0.0
 40
0.0
 40
0.0
 40
0.0
 40
1.0
 40
1.0
 40
1.0
 40
2.0
 40
2.0
 40
2.0
 40
3.0
 40
3.0
 40
3.0
 40
4.0
 40
4.0
 40
4.0
 40
5.0
 40
5.0
 40
5.0
 40
6.0
 40
6.0
 40
6.0
 40
7.0
 40
7.0
 40
7.0
 40
8.0
 40
8.0
 40
8.0
 40
9.0
 40
9.0
 40
9.0
 40
10.0
 40
10.0
 40
10.0
 40
11.0
 40
11.0
 40
11.0
 40
12.0
 40
12.0
 40
12.0
 40
13.0
 40
13.0
 40
13.0
 40
14.0
 40
14.0
 40
14.0
 40
15.0
 40
15.0
 40
15.0
 40
16.0
 40
16.0
 40
16.0
 40
17.0
 40
17.0
 40
17.0
 40
18.0
 40
18.0
 40
18.0
 40
19.0
 40
19.0
 40
19.0
 40
20.0
 40
20.0
 40
20.0
 40
21.0
 40
21.0
 40
21.0
 40
22.0
 40
22.0
 40
22.0
 40
23.0
 40
23.0
 40
23.0
 40
24.0
 40
24.0
 40
24.0
 40
25.0
 40
25.0
 40
25.0
 40
26.0
 40
26.0
 40
26.0
 40
27.0
 40
27.0
 40
27.0
 40
28.0
 40
28.0
 40
28.0
 40
29.0
 40
29.0
 40
29.0
 40
30.0
 40
30.0
 40
30.0
 40
31.0
 40
31.0
 40
31.0
 40
32.0
 40
32.0
 40
32.0
 40
33.0
 40
33.0
 40
33.0
 40
34.0
 40
34.0
 40
34.0
 40
35.0
 40
35.0
 40
35.0
 40
36.0
 40
36.0
 40
36.0
 40
37.0
 40
37.0
 40
37.0
 40
38.0
 40
38.0
 40
38.0
 40
39.0
 40
39.0
 40
39.0
 40
40.0
 40
40.0
 40
40.0
 40
41.0
 40
41.0
 40
41.0
 40
42.0
 40
42.0
 40
42.0
 40
43.0
 40
43.0
 40
43.0
 40
44.0
 40
44.0
 40
44.0
 40
45.0
 40
45.0
 40
45.0
 40
46.0
 40
46.0
 40
46.0
 40
47.0
 40
47.0
 40
47.0
 40
48.0
 40
48.0
 40
48.0
 40
49.0
 40
49.0
 40
49.0
 40
50.0
 40
50.0
 40
50.0
 40
51.0
 40
51.0
 40
51.0
 40
52.0
 40
52.0
 40
52.0
 40
53.0
 40
53.0
 40
53.0
 40
54.0
 40
54.0
 40
54.0
 40
55.0
 40
55.0
 40
55.0
 40
56.0
 40
56.0
 40
56.0
 40
57.0
 40
57.0
 40
57.0
 40
58.0
 40
58.0
 40
58.0
 40
59.0
 40
59.0
 40
59.0
 40
59.0
 10
107.7853244088176
 20
-162.8648220078949
 30
0.0
 10
107.7853244088176
 20
-162.8648220078949
 30
0.0
 10
107.1486707631434
 20
-162.8648220078949
 30
0.0
 10
107.1486707631434
 20
-162.8648220078949
 30
0.0
 10
106.9350748430579
 20
-162.8648220078949
 30
0.0
 10
106.7190673561327
 20
-162.8693006320257
 30
0.0
 10
106.5054714360472
 20
-162.8820474853212
 30
0.0
 10
106.5054714360472
 20
-162.8820474853212
 30
0.0
 10
106.5054714360472
 20
-162.6746527371091
 30
0.0
 10
106.5054714360472
 20
-162.6746527371091
 30
0.0
 10
106.7276800948459
 20
-162.687055080856
 30
0.0
 10
107.0511745609108
 20
-162.6915337049869
 30
0.0
 10
107.1486707631434
 20
-162.6915337049869
 30
0.0
 10
107.1486707631434
 20
-162.6915337049869
 30
0.0
 10
107.3688123646509
 20
-162.6915337049869
 30
0.0
 10
107.3688123646509
 20
-162.6915337049869
 30
0.0
 10
107.3688123646509
 20
-162.6915337049869
 30
0.0
 10
107.3688123646509
 20
-162.5499402805431
 30
0.0
 10
107.3688123646509
 20
-162.5499402805431
 30
0.0
 10
107.3688123646509
 20
-162.5499402805431
 30
0.0
 10
107.2079264054897
 20
-162.5499402805431
 30
0.0
 10
107.2079264054897
 20
-162.5499402805431
 30
0.0
 10
107.0429063317462
 20
-162.5499402805431
 30
0.0
 10
106.8778862580028
 20
-162.5540743951254
 30
0.0
 10
106.7128661842593
 20
-162.568888305712
 30
0.0
 10
106.7128661842593
 20
-162.568888305712
 30
0.0
 10
106.7128661842593
 20
-162.3594265002088
 30
0.0
 10
106.7128661842593
 20
-162.3594265002088
 30
0.0
 10
106.8840874298762
 20
-162.3742404107953
 30
0.0
 10
107.1317897952657
 20
-162.3783745253776
 30
0.0
 10
107.2079264054897
 20
-162.3783745253776
 30
0.0
 10
107.2079264054897
 20
-162.3783745253776
 30
0.0
 10
107.3688123646509
 20
-162.3783745253776
 30
0.0
 10
107.3688123646509
 20
-162.3783745253776
 30
0.0
 10
107.36433374052
 20
-162.3067165392845
 30
0.0
 10
107.36433374052
 20
-162.3001708578625
 30
0.0
 10
107.3581325686466
 20
-162.2474608969382
 30
0.0
 10
107.3581325686466
 20
-162.2474608969382
 30
0.0
 10
107.4976589357992
 20
-162.2619302979762
 30
0.0
 10
107.4976589357992
 20
-162.2619302979762
 30
0.0
 10
107.4976589357992
 20
-162.2619302979762
 30
0.0
 10
107.398440185824
 20
-162.0907090523593
 30
0.0
 10
107.398440185824
 20
-162.0907090523593
 30
0.0
 10
107.4449489748749
 20
-162.0972547337813
 30
0.0
 10
107.5190185278077
 20
-162.1055229629459
 30
0.0
 10
107.5358994956855
 20
-162.1055229629459
 30
0.0
 10
107.5865423993186
 20
-162.1055229629459
 30
0.0
 10
107.6034233671964
 20
-162.0841633709373
 30
0.0
 10
107.6034233671964
 20
-162.0273192954307
 30
0.0
 10
107.6034233671964
 20
-162.0273192954307
 30
0.0
 10
107.6034233671964
 20
-161.8898599855692
 30
0.0
 10
107.6034233671964
 20
-161.8898599855692
 30
0.0
 10
107.6034233671964
 20
-161.8898599855692
 30
0.0
 10
107.4976589357992
 20
-161.8898599855692
 30
0.0
 10
107.4976589357992
 20
-161.8898599855692
 30
0.0
 10
107.36433374052
 20
-161.8898599855692
 30
0.0
 10
107.2079264054897
 20
-161.8898599855692
 30
0.0
 10
107.0852810062148
 20
-161.9022623293161
 30
0.0
 10
107.0852810062148
 20
-161.9022623293161
 30
0.0
 10
107.0852810062148
 20
-161.7120930585303
 30
0.0
 10
107.0852810062148
 20
-161.7120930585303
 30
0.0
 10
107.2523681372494
 20
-161.7289740264081
 30
0.0
 10
107.4828450252126
 20
-161.7310410836992
 30
0.0
 10
107.4976589357992
 20
-161.7310410836992
 30
0.0
 10
107.4976589357992
 20
-161.7310410836992
 30
0.0
 10
107.6034233671964
 20
-161.7310410836992
 30
0.0
 10
107.6034233671964
 20
-161.7310410836992
 30
0.0
 10
107.6034233671964
 20
-161.7310410836992
 30
0.0
 10
107.6034233671964
 20
-161.5997829457112
 30
0.0
 10
107.6034233671964
 20
-161.5997829457112
 30
0.0
 10
107.6034233671964
 20
-161.5997829457112
 30
0.0
 10
107.5655273168586
 20
-161.5997829457112
 30
0.0
 10
107.5655273168586
 20
-161.5997829457112
 30
0.0
 10
107.5210855850989
 20
-161.5997829457112
 30
0.0
 10
107.3960286189843
 20
-161.6039170602935
 30
0.0
 10
107.3071451554649
 20
-161.6125297990066
 30
0.0
 10
107.3071451554649
 20
-161.6125297990066
 30
0.0
 10
107.3071451554649
 20
-161.5322590742003
 30
0.0
 10
107.3071451554649
 20
-161.5322590742003
 30
0.0
 10
107.2544351945406
 20
-161.570155124538
 30
0.0
 10
107.2289414879497
 20
-161.5853135446731
 30
0.0
 10
107.1865668134811
 20
-161.6083956844243
 30
0.0
 10
107.1865668134811
 20
-161.6083956844243
 30
0.0
 10
106.9984645999865
 20
-161.4792046037274
 30
0.0
 10
106.9984645999865
 20
-161.4792046037274
 30
0.0
 10
107.0766682675017
 20
-161.445442667972
 30
0.0
 10
107.2334201120805
 20
-161.3820529110434
 30
0.0
 10
107.3898274471109
 20
-161.2380479197599
 30
0.0
 10
107.4721652292084
 20
-161.1598442522448
 30
0.0
 10
107.5507134062721
 20
-161.0754394128562
 30
0.0
 10
107.6034233671964
 20
-160.9738090960413
 30
0.0
 10
107.6034233671964
 20
-160.9738090960413
 30
0.0
 10
107.8149522299907
 20
-161.0351317956787
 30
0.0
 10
107.8149522299907
 20
-161.0351317956787
 30
0.0
 10
107.8342447647081
 20
-161.0413329675522
 30
0.0
 10
107.8445800511639
 20
-161.0499457062653
 30
0.0
 10
107.8445800511639
 20
-161.0623480500122
 30
0.0
 10
107.8445800511639
 20
-161.0795735274384
 30
0.0
 10
107.8318331978684
 20
-161.0857746993119
 30
0.0
 10
107.8066840008261
 20
-161.0985215526073
 30
0.0
 10
107.8869547256324
 20
-161.1960177548399
 30
0.0
 10
108.0499077420848
 20
-161.293169447524
 30
0.0
 10
108.0836696778402
 20
-161.3121174726928
 30
0.0
 10
108.2338758409971
 20
-161.4010009362123
 30
0.0
 10
108.3482530111074
 20
-161.4285617000943
 30
0.0
 10
108.4264566786226
 20
-161.4475097252631
 30
0.0
 10
108.4264566786226
 20
-161.4475097252631
 30
0.0
 10
108.30794539393
 20
-161.6170084231374
 30
0.0
 10
108.30794539393
 20
-161.6170084231374
 30
0.0
 10
108.2231960449928
 20
-161.5873806019643
 30
0.0
 10
108.1725531413596
 20
-161.5680880672469
 30
0.0
 10
108.0540418566671
 20
-161.5026312530271
 30
0.0
 10
108.0540418566671
 20
-161.5026312530271
 30
0.0
 10
108.0540418566671
 20
-161.6125297990066
 30
0.0
 10
108.0540418566671
 20
-161.6125297990066
 30
0.0
 10
107.9717040745696
 20
-161.6039170602935
 30
0.0
 10
107.8445800511639
 20
-161.5997829457112
 30
0.0
 10
107.7918700902395
 20
-161.5997829457112
 30
0.0
 10
107.7918700902395
 20
-161.5997829457112
 30
0.0
 10
107.7918700902395
 20
-161.7310410836992
 30
0.0
 10
107.7918700902395
 20
-161.7310410836992
 30
0.0
 10
107.7918700902395
 20
-161.7310410836992
 30
0.0
 10
107.9124484322233
 20
-161.7310410836992
 30
0.0
 10
107.9124484322233
 20
-161.7310410836992
 30
0.0
 10
107.9145154895144
 20
-161.7310410836992
 30
0.0
 10
108.1470594347688
 20
-161.7289740264081
 30
0.0
 10
108.3248263618077
 20
-161.7120930585303
 30
0.0
 10
108.3248263618077
 20
-161.7120930585303
 30
0.0
 10
108.3248263618077
 20
-161.9022623293161
 30
0.0
 10
108.3248263618077
 20
-161.9022623293161
 30
0.0
 10
108.1959797906593
 20
-161.8898599855692
 30
0.0
 10
108.0392279460805
 20
-161.8898599855692
 30
0.0
 10
107.9124484322233
 20
-161.8898599855692
 30
0.0
 10
107.9124484322233
 20
-161.8898599855692
 30
0.0
 10
107.7918700902395
 20
-161.8898599855692
 30
0.0
 10
107.7918700902395
 20
-161.8898599855692
 30
0.0
 10
107.7918700902395
 20
-161.8898599855692
 30
0.0
 10
107.7918700902395
 20
-162.1158582494016
 30
0.0
 10
107.7918700902395
 20
-162.1158582494016
 30
0.0
 10
107.7918700902395
 20
-162.2343695340942
 30
0.0
 10
107.7663763836487
 20
-162.2705430366893
 30
0.0
 10
107.6054904244875
 20
-162.2853569472759
 30
0.0
 10
107.6099690486183
 20
-162.3043049724448
 30
0.0
 10
107.6034233671964
 20
-162.3149847684491
 30
0.0
 10
107.5655273168586
 20
-162.3384114177487
 30
0.0
 10
107.5634602595675
 20
-162.3570149333691
 30
0.0
 10
107.5634602595675
 20
-162.3635606147911
 30
0.0
 10
107.5610486927278
 20
-162.3783745253776
 30
0.0
 10
107.5610486927278
 20
-162.3783745253776
 30
0.0
 10
107.6985080025893
 20
-162.3783745253776
 30
0.0
 10
107.6985080025893
 20
-162.3783745253776
 30
0.0
 10
107.8635280763327
 20
-162.3783745253776
 30
0.0
 10
108.0309597169159
 20
-162.3742404107953
 30
0.0
 10
108.1980468479505
 20
-162.3594265002088
 30
0.0
 10
108.1980468479505
 20
-162.3594265002088
 30
0.0
 10
108.1980468479505
 20
-162.5664767388723
 30
0.0
 10
108.1980468479505
 20
-162.5664767388723
 30
0.0
 10
107.9820393610253
 20
-162.5499402805431
 30
0.0
 10
107.7178005373067
 20
-162.5499402805431
 30
0.0
 10
107.6985080025893
 20
-162.5499402805431
 30
0.0
 10
107.6985080025893
 20
-162.5499402805431
 30
0.0
 10
107.5589816354367
 20
-162.5499402805431
 30
0.0
 10
107.5589816354367
 20
-162.5499402805431
 30
0.0
 10
107.5589816354367
 20
-162.5499402805431
 30
0.0
 10
107.5589816354367
 20
-162.6915337049869
 30
0.0
 10
107.5589816354367
 20
-162.6915337049869
 30
0.0
 10
107.5589816354367
 20
-162.6915337049869
 30
0.0
 10
107.7853244088176
 20
-162.6915337049869
 30
0.0
 10
107.7853244088176
 20
-162.6915337049869
 30
0.0
 10
108.0013318957427
 20
-162.6915337049869
 30
0.0
 10
108.2190619304105
 20
-162.687055080856
 30
0.0
 10
108.4347249077872
 20
-162.6746527371091
 30
0.0
 10
108.4347249077872
 20
-162.6746527371091
 30
0.0
 10
108.4347249077872
 20
-162.8820474853212
 30
0.0
 10
108.4347249077872
 20
-162.8820474853212
 30
0.0
 10
108.1536051161908
 20
-162.8648220078949
 30
0.0
 10
107.8087510581173
 20
-162.8648220078949
 30
0.0
 10
107.7853244088176
 20
-162.8648220078949
 30
0.0
  0
SPLINE
  5
11A
330
114
100
AcDbEntity
  8
_U+30EC_U+30A4_U+30E4_U+30FC 1
370
     0
100
AcDbSpline
210
0.0
220
0.0
230
1.0
 70
    11
 71
     3
 72
    23
 73
    19
 74
     0
 42
0.0000000001
 43
0.0000000001
 12
1.0
 22
0.0
 32
0.0
 13
1.0
 23
0.0
 33
0.0
 40
0.0
 40
0.0
 40
0.0
 40
0.0
 40
1.0
 40
1.0
 40
1.0
 40
2.0
 40
2.0
 40
2.0
 40
3.0
 40
3.0
 40
3.0
 40
4.0
 40
4.0
 40
4.0
 40
5.0
 40
5.0
 40
5.0
 40
6.0
 40
6.0
 40
6.0
 40
6.0
 10
106.6663573952084
 20
-162.2364365913853
 30
0.0
 10
106.6663573952084
 20
-162.2577961833939
 30
0.0
 10
106.6684244524996
 20
-162.2956922337316
 30
0.0
 10
106.6429307459087
 20
-162.2956922337316
 30
0.0
 10
106.632595459453
 20
-162.2956922337316
 30
0.0
 10
106.6239827207398
 20
-162.2894910618582
 30
0.0
 10
106.6133029247356
 20
-162.2726100939805
 30
0.0
 10
106.6133029247356
 20
-162.2726100939805
 30
0.0
 10
106.5096055506295
 20
-162.0907090523593
 30
0.0
 10
106.5096055506295
 20
-162.0907090523593
 30
0.0
 10
106.7256130375547
 20
-161.9615179716624
 30
0.0
 10
106.9223279897625
 20
-161.6845322946483
 30
0.0
 10
106.9688367788134
 20
-161.6125297990066
 30
0.0
 10
106.9688367788134
 20
-161.6125297990066
 30
0.0
 10
107.0408392744551
 20
-161.7923637833366
 30
0.0
 10
107.0408392744551
 20
-161.7923637833366
 30
0.0
 10
106.9075140791759
 20
-161.9890787355444
 30
0.0
 10
106.7318142094282
 20
-162.1730468344568
 30
0.0
 10
106.6663573952084
 20
-162.2364365913853
 30
0.0
  0
SPLINE
  5
11B
330
114
100
AcDbEntity
  8
_U+30EC_U+30A4_U+30E4_U+30FC 1
370
     0
100
AcDbSpline
210
0.0
220
0.0
230
1.0
 70
    11
 71
     3
 72
    17
 73
    13
 74
     0
 42
0.0000000001
 43
0.0000000001
 12
1.0
 22
0.0
 32
0.0
 13
1.0
 23
0.0
 33
0.0
 40
0.0
 40
0.0
 40
0.0
 40
0.0
 40
1.0
 40
1.0
 40
1.0
 40
2.0
 40
2.0
 40
2.0
 40
3.0
 40
3.0
 40
3.0
 40
4.0
 40
4.0
 40
4.0
 40
4.0
 10
106.9202609324713
 20
-161.341745293866
 30
0.0
 10
106.8589382328339
 20
-161.2656086836419
 30
0.0
 10
106.729747152137
 20
-161.1894720734179
 30
0.0
 10
106.626049778031
 20
-161.1598442522448
 30
0.0
 10
106.626049778031
 20
-161.1598442522448
 30
0.0
 10
106.7214789229724
 20
-160.9948241785013
 30
0.0
 10
106.7214789229724
 20
-160.9948241785013
 30
0.0
 10
106.8227647302388
 20
-161.0306531715479
 30
0.0
 10
106.9285291616359
 20
-161.087841756603
 30
0.0
 10
107.0174126251554
 20
-161.1684569909579
 30
0.0
 10
107.0174126251554
 20
-161.1684569909579
 30
0.0
 10
106.9202609324713
 20
-161.341745293866
 30
0.0
 10
106.9202609324713
 20
-161.341745293866
 30
0.0
  0
SPLINE
  5
11C
330
114
100
AcDbEntity
  8
_U+30EC_U+30A4_U+30E4_U+30FC 1
370
     0
100
AcDbSpline
210
0.0
220
0.0
230
1.0
 70
    11
 71
     3
 72
    23
 73
    19
 74
     0
 42
0.0000000001
 43
0.0000000001
 12
1.0
 22
0.0
 32
0.0
 13
1.0
 23
0.0
 33
0.0
 40
0.0
 40
0.0
 40
0.0
 40
0.0
 40
1.0
 40
1.0
 40
1.0
 40
2.0
 40
2.0
 40
2.0
 40
3.0
 40
3.0
 40
3.0
 40
4.0
 40
4.0
 40
4.0
 40
5.0
 40
5.0
 40
5.0
 40
6.0
 40
6.0
 40
6.0
 40
6.0
 10
107.3729464792332
 20
-162.0462673205996
 30
0.0
 10
107.3515868872246
 20
-162.0696939698992
 30
0.0
 10
107.2544351945406
 20
-162.1816595731699
 30
0.0
 10
107.1149088273879
 20
-162.2619302979762
 30
0.0
 10
107.1149088273879
 20
-162.2619302979762
 30
0.0
 10
106.9478216963533
 20
-162.1413519559924
 30
0.0
 10
106.9478216963533
 20
-162.1413519559924
 30
0.0
 10
107.0980278595102
 20
-162.065559855317
 30
0.0
 10
107.1972466094854
 20
-161.9701307103755
 30
0.0
 10
107.2458224558274
 20
-161.9174207494512
 30
0.0
 10
107.2458224558274
 20
-161.9174207494512
 30
0.0
 10
107.419455268284
 20
-161.9997585315487
 30
0.0
 10
107.419455268284
 20
-161.9997585315487
 30
0.0
 10
107.4277234974486
 20
-162.003892646131
 30
0.0
 10
107.4363362361618
 20
-162.0104383275529
 30
0.0
 10
107.4363362361618
 20
-162.0207736140087
 30
0.0
 10
107.4363362361618
 20
-162.0462673205996
 30
0.0
 10
107.4005072431152
 20
-162.0462673205996
 30
0.0
 10
107.3729464792332
 20
-162.0462673205996
 30
0.0
  0
SPLINE
  5
11D
330
114
100
AcDbEntity
  8
_U+30EC_U+30A4_U+30E4_U+30FC 1
370
     0
100
AcDbSpline
210
0.0
220
0.0
230
1.0
 70
    11
 71
     3
 72
    20
 73
    16
 74
     0
 42
0.0000000001
 43
0.0000000001
 12
1.0
 22
0.0
 32
0.0
 13
1.0
 23
0.0
 33
0.0
 40
0.0
 40
0.0
 40
0.0
 40
0.0
 40
1.0
 40
1.0
 40
1.0
 40
2.0
 40
2.0
 40
2.0
 40
3.0
 40
3.0
 40
3.0
 40
4.0
 40
4.0
 40
4.0
 40
5.0
 40
5.0
 40
5.0
 40
5.0
 10
107.6712917482558
 20
-161.2042859840045
 30
0.0
 10
107.6330511883695
 20
-161.253206339895
 30
0.0
 10
107.5717284887321
 20
-161.3310654978617
 30
0.0
 10
107.4322021215795
 20
-161.4413085533897
 30
0.0
 10
107.5124728463858
 20
-161.445442667972
 30
0.0
 10
107.5421006675589
 20
-161.445442667972
 30
0.0
 10
107.5655273168586
 20
-161.445442667972
 30
0.0
 10
107.5655273168586
 20
-161.445442667972
 30
0.0
 10
107.7939371475307
 20
-161.445442667972
 30
0.0
 10
107.7939371475307
 20
-161.445442667972
 30
0.0
 10
107.825632025995
 20
-161.445442667972
 30
0.0
 10
107.874207872337
 20
-161.4433756106808
 30
0.0
 10
107.9482774252699
 20
-161.4413085533897
 30
0.0
 10
107.8363118219993
 20
-161.3672390004568
 30
0.0
 10
107.7873914661087
 20
-161.3207302114059
 30
0.0
 10
107.6712917482558
 20
-161.2042859840045
 30
0.0
  0
SPLINE
  5
11E
330
114
100
AcDbEntity
  8
_U+30EC_U+30A4_U+30E4_U+30FC 1
370
     0
100
AcDbSpline
210
0.0
220
0.0
230
1.0
 70
    11
 71
     3
 72
    17
 73
    13
 74
     0
 42
0.0000000001
 43
0.0000000001
 12
1.0
 22
0.0
 32
0.0
 13
1.0
 23
0.0
 33
0.0
 40
0.0
 40
0.0
 40
0.0
 40
0.0
 40
1.0
 40
1.0
 40
1.0
 40
2.0
 40
2.0
 40
2.0
 40
3.0
 40
3.0
 40
3.0
 40
4.0
 40
4.0
 40
4.0
 40
4.0
 10
108.2318087837059
 20
-162.259863240685
 30
0.0
 10
108.0964165311356
 20
-162.1478976374144
 30
0.0
 10
107.9906520997385
 20
-162.0841633709373
 30
0.0
 10
107.8721408150459
 20
-162.0207736140087
 30
0.0
 10
107.8721408150459
 20
-162.0207736140087
 30
0.0
 10
107.9989203289031
 20
-161.9088080107381
 30
0.0
 10
107.9989203289031
 20
-161.9088080107381
 30
0.0
 10
108.1301784668911
 20
-161.955316799789
 30
0.0
 10
108.2400770128705
 20
-162.0125053848441
 30
0.0
 10
108.3651339789851
 20
-162.1137911921105
 30
0.0
 10
108.3651339789851
 20
-162.1137911921105
 30
0.0
 10
108.2318087837059
 20
-162.259863240685
 30
0.0
 10
108.2318087837059
 20
-162.259863240685
 30
0.0
  0
HATCH
  5
11F
330
114
100
AcDbEntity
  8
_U+30EC_U+30A4_U+30E4_U+30FC 1
 62
     7
420
 16777215
100
AcDbHatch
 10
0.0
 20
0.0
 30
0.0
210
0.0
220
0.0
230
1.0
  2
SOLID
 70
     1
 71
     0
 91
        7
 92
        1
 93
        1
 72
     4
 94
        3
 73
     0
 74
     1
 95
       17
 96
       13
 40
0.0
 40
0.0
 40
0.0
 40
0.0
 40
1.0
 40
1.0
 40
1.0
 40
2.0
 40
2.0
 40
2.0
 40
3.0
 40
3.0
 40
3.0
 40
4.0
 40
4.0
 40
4.0
 40
4.0
 10
106.7404269481413
 20
-161.6865993519395
 10
106.6346625167441
 20
-161.5808349205423
 10
106.5540472823893
 20
-161.542594360656
 10
106.4610297042875
 20
-161.5108994821917
 10
106.4610297042875
 20
-161.5108994821917
 10
106.5712727598155
 20
-161.3462239179968
 10
106.5712727598155
 20
-161.3462239179968
 10
106.6684244524996
 20
-161.3882540829168
 10
106.7890027944833
 20
-161.4668022599805
 10
106.8420572649562
 20
-161.521579278196
 10
106.8420572649562
 20
-161.521579278196
 10
106.7404269481413
 20
-161.6865993519395
 10
106.7404269481413
 20
-161.6865993519395
 97
        0
 97
        0
 92
        1
 93
        1
 72
     4
 94
        3
 73
     0
 74
     1
 95
      182
 96
      178
 40
0.0
 40
0.0
 40
0.0
 40
0.0
 40
1.0
 40
1.0
 40
1.0
 40
2.0
 40
2.0
 40
2.0
 40
3.0
 40
3.0
 40
3.0
 40
4.0
 40
4.0
 40
4.0
 40
5.0
 40
5.0
 40
5.0
 40
6.0
 40
6.0
 40
6.0
 40
7.0
 40
7.0
 40
7.0
 40
8.0
 40
8.0
 40
8.0
 40
9.0
 40
9.0
 40
9.0
 40
10.0
 40
10.0
 40
10.0
 40
11.0
 40
11.0
 40
11.0
 40
12.0
 40
12.0
 40
12.0
 40
13.0
 40
13.0
 40
13.0
 40
14.0
 40
14.0
 40
14.0
 40
15.0
 40
15.0
 40
15.0
 40
16.0
 40
16.0
 40
16.0
 40
17.0
 40
17.0
 40
17.0
 40
18.0
 40
18.0
 40
18.0
 40
19.0
 40
19.0
 40
19.0
 40
20.0
 40
20.0
 40
20.0
 40
21.0
 40
21.0
 40
21.0
 40
22.0
 40
22.0
 40
22.0
 40
23.0
 40
23.0
 40
23.0
 40
24.0
 40
24.0
 40
24.0
 40
25.0
 40
25.0
 40
25.0
 40
26.0
 40
26.0
 40
26.0
 40
27.0
 40
27.0
 40
27.0
 40
28.0
 40
28.0
 40
28.0
 40
29.0
 40
29.0
 40
29.0
 40
30.0
 40
30.0
 40
30.0
 40
31.0
 40
31.0
 40
31.0
 40
32.0
 40
32.0
 40
32.0
 40
33.0
 40
33.0
 40
33.0
 40
34.0
 40
34.0
 40
34.0
 40
35.0
 40
35.0
 40
35.0
 40
36.0
 40
36.0
 40
36.0
 40
37.0
 40
37.0
 40
37.0
 40
38.0
 40
38.0
 40
38.0
 40
39.0
 40
39.0
 40
39.0
 40
40.0
 40
40.0
 40
40.0
 40
41.0
 40
41.0
 40
41.0
 40
42.0
 40
42.0
 40
42.0
 40
43.0
 40
43.0
 40
43.0
 40
44.0
 40
44.0
 40
44.0
 40
45.0
 40
45.0
 40
45.0
 40
46.0
 40
46.0
 40
46.0
 40
47.0
 40
47.0
 40
47.0
 40
48.0
 40
48.0
 40
48.0
 40
49.0
 40
49.0
 40
49.0
 40
50.0
 40
50.0
 40
50.0
 40
51.0
 40
51.0
 40
51.0
 40
52.0
 40
52.0
 40
52.0
 40
53.0
 40
53.0
 40
53.0
 40
54.0
 40
54.0
 40
54.0
 40
55.0
 40
55.0
 40
55.0
 40
56.0
 40
56.0
 40
56.0
 40
57.0
 40
57.0
 40
57.0
 40
58.0
 40
58.0
 40
58.0
 40
59.0
 40
59.0
 40
59.0
 40
59.0
 10
107.7853244088176
 20
-162.8648220078949
 10
107.7853244088176
 20
-162.8648220078949
 10
107.1486707631434
 20
-162.8648220078949
 10
107.1486707631434
 20
-162.8648220078949
 10
106.9350748430579
 20
-162.8648220078949
 10
106.7190673561327
 20
-162.8693006320257
 10
106.5054714360472
 20
-162.8820474853212
 10
106.5054714360472
 20
-162.8820474853212
 10
106.5054714360472
 20
-162.6746527371091
 10
106.5054714360472
 20
-162.6746527371091
 10
106.7276800948459
 20
-162.687055080856
 10
107.0511745609108
 20
-162.6915337049869
 10
107.1486707631434
 20
-162.6915337049869
 10
107.1486707631434
 20
-162.6915337049869
 10
107.3688123646509
 20
-162.6915337049869
 10
107.3688123646509
 20
-162.6915337049869
 10
107.3688123646509
 20
-162.6915337049869
 10
107.3688123646509
 20
-162.5499402805431
 10
107.3688123646509
 20
-162.5499402805431
 10
107.3688123646509
 20
-162.5499402805431
 10
107.2079264054897
 20
-162.5499402805431
 10
107.2079264054897
 20
-162.5499402805431
 10
107.0429063317462
 20
-162.5499402805431
 10
106.8778862580028
 20
-162.5540743951254
 10
106.7128661842593
 20
-162.568888305712
 10
106.7128661842593
 20
-162.568888305712
 10
106.7128661842593
 20
-162.3594265002088
 10
106.7128661842593
 20
-162.3594265002088
 10
106.8840874298762
 20
-162.3742404107953
 10
107.1317897952657
 20
-162.3783745253776
 10
107.2079264054897
 20
-162.3783745253776
 10
107.2079264054897
 20
-162.3783745253776
 10
107.3688123646509
 20
-162.3783745253776
 10
107.3688123646509
 20
-162.3783745253776
 10
107.36433374052
 20
-162.3067165392845
 10
107.36433374052
 20
-162.3001708578625
 10
107.3581325686466
 20
-162.2474608969382
 10
107.3581325686466
 20
-162.2474608969382
 10
107.4976589357992
 20
-162.2619302979762
 10
107.4976589357992
 20
-162.2619302979762
 10
107.4976589357992
 20
-162.2619302979762
 10
107.398440185824
 20
-162.0907090523593
 10
107.398440185824
 20
-162.0907090523593
 10
107.4449489748749
 20
-162.0972547337813
 10
107.5190185278077
 20
-162.1055229629459
 10
107.5358994956855
 20
-162.1055229629459
 10
107.5865423993186
 20
-162.1055229629459
 10
107.6034233671964
 20
-162.0841633709373
 10
107.6034233671964
 20
-162.0273192954307
 10
107.6034233671964
 20
-162.0273192954307
 10
107.6034233671964
 20
-161.8898599855692
 10
107.6034233671964
 20
-161.8898599855692
 10
107.6034233671964
 20
-161.8898599855692
 10
107.4976589357992
 20
-161.8898599855692
 10
107.4976589357992
 20
-161.8898599855692
 10
107.36433374052
 20
-161.8898599855692
 10
107.2079264054897
 20
-161.8898599855692
 10
107.0852810062148
 20
-161.9022623293161
 10
107.0852810062148
 20
-161.9022623293161
 10
107.0852810062148
 20
-161.7120930585303
 10
107.0852810062148
 20
-161.7120930585303
 10
107.2523681372494
 20
-161.7289740264081
 10
107.4828450252126
 20
-161.7310410836992
 10
107.4976589357992
 20
-161.7310410836992
 10
107.4976589357992
 20
-161.7310410836992
 10
107.6034233671964
 20
-161.7310410836992
 10
107.6034233671964
 20
-161.7310410836992
 10
107.6034233671964
 20
-161.7310410836992
 10
107.6034233671964
 20
-161.5997829457112
 10
107.6034233671964
 20
-161.5997829457112
 10
107.6034233671964
 20
-161.5997829457112
 10
107.5655273168586
 20
-161.5997829457112
 10
107.5655273168586
 20
-161.5997829457112
 10
107.5210855850989
 20
-161.5997829457112
 10
107.3960286189843
 20
-161.6039170602935
 10
107.3071451554649
 20
-161.6125297990066
 10
107.3071451554649
 20
-161.6125297990066
 10
107.3071451554649
 20
-161.5322590742003
 10
107.3071451554649
 20
-161.5322590742003
 10
107.2544351945406
 20
-161.570155124538
 10
107.2289414879497
 20
-161.5853135446731
 10
107.1865668134811
 20
-161.6083956844243
 10
107.1865668134811
 20
-161.6083956844243
 10
106.9984645999865
 20
-161.4792046037274
 10
106.9984645999865
 20
-161.4792046037274
 10
107.0766682675017
 20
-161.445442667972
 10
107.2334201120805
 20
-161.3820529110434
 10
107.3898274471109
 20
-161.2380479197599
 10
107.4721652292084
 20
-161.1598442522448
 10
107.5507134062721
 20
-161.0754394128562
 10
107.6034233671964
 20
-160.9738090960413
 10
107.6034233671964
 20
-160.9738090960413
 10
107.8149522299907
 20
-161.0351317956787
 10
107.8149522299907
 20
-161.0351317956787
 10
107.8342447647081
 20
-161.0413329675522
 10
107.8445800511639
 20
-161.0499457062653
 10
107.8445800511639
 20
-161.0623480500122
 10
107.8445800511639
 20
-161.0795735274384
 10
107.8318331978684
 20
-161.0857746993119
 10
107.8066840008261
 20
-161.0985215526073
 10
107.8869547256324
 20
-161.1960177548399
 10
108.0499077420848
 20
-161.293169447524
 10
108.0836696778402
 20
-161.3121174726928
 10
108.2338758409971
 20
-161.4010009362123
 10
108.3482530111074
 20
-161.4285617000943
 10
108.4264566786226
 20
-161.4475097252631
 10
108.4264566786226
 20
-161.4475097252631
 10
108.30794539393
 20
-161.6170084231374
 10
108.30794539393
 20
-161.6170084231374
 10
108.2231960449928
 20
-161.5873806019643
 10
108.1725531413596
 20
-161.5680880672469
 10
108.0540418566671
 20
-161.5026312530271
 10
108.0540418566671
 20
-161.5026312530271
 10
108.0540418566671
 20
-161.6125297990066
 10
108.0540418566671
 20
-161.6125297990066
 10
107.9717040745696
 20
-161.6039170602935
 10
107.8445800511639
 20
-161.5997829457112
 10
107.7918700902395
 20
-161.5997829457112
 10
107.7918700902395
 20
-161.5997829457112
 10
107.7918700902395
 20
-161.7310410836992
 10
107.7918700902395
 20
-161.7310410836992
 10
107.7918700902395
 20
-161.7310410836992
 10
107.9124484322233
 20
-161.7310410836992
 10
107.9124484322233
 20
-161.7310410836992
 10
107.9145154895144
 20
-161.7310410836992
 10
108.1470594347688
 20
-161.7289740264081
 10
108.3248263618077
 20
-161.7120930585303
 10
108.3248263618077
 20
-161.7120930585303
 10
108.3248263618077
 20
-161.9022623293161
 10
108.3248263618077
 20
-161.9022623293161
 10
108.1959797906593
 20
-161.8898599855692
 10
108.0392279460805
 20
-161.8898599855692
 10
107.9124484322233
 20
-161.8898599855692
 10
107.9124484322233
 20
-161.8898599855692
 10
107.7918700902395
 20
-161.8898599855692
 10
107.7918700902395
 20
-161.8898599855692
 10
107.7918700902395
 20
-161.8898599855692
 10
107.7918700902395
 20
-162.1158582494016
 10
107.7918700902395
 20
-162.1158582494016
 10
107.7918700902395
 20
-162.2343695340942
 10
107.7663763836487
 20
-162.2705430366893
 10
107.6054904244875
 20
-162.2853569472759
 10
107.6099690486183
 20
-162.3043049724448
 10
107.6034233671964
 20
-162.3149847684491
 10
107.5655273168586
 20
-162.3384114177487
 10
107.5634602595675
 20
-162.3570149333691
 10
107.5634602595675
 20
-162.3635606147911
 10
107.5610486927278
 20
-162.3783745253776
 10
107.5610486927278
 20
-162.3783745253776
 10
107.6985080025893
 20
-162.3783745253776
 10
107.6985080025893
 20
-162.3783745253776
 10
107.8635280763327
 20
-162.3783745253776
 10
108.0309597169159
 20
-162.3742404107953
 10
108.1980468479505
 20
-162.3594265002088
 10
108.1980468479505
 20
-162.3594265002088
 10
108.1980468479505
 20
-162.5664767388723
 10
108.1980468479505
 20
-162.5664767388723
 10
107.9820393610253
 20
-162.5499402805431
 10
107.7178005373067
 20
-162.5499402805431
 10
107.6985080025893
 20
-162.5499402805431
 10
107.6985080025893
 20
-162.5499402805431
 10
107.5589816354367
 20
-162.5499402805431
 10
107.5589816354367
 20
-162.5499402805431
 10
107.5589816354367
 20
-162.5499402805431
 10
107.5589816354367
 20
-162.6915337049869
 10
107.5589816354367
 20
-162.6915337049869
 10
107.5589816354367
 20
-162.6915337049869
 10
107.7853244088176
 20
-162.6915337049869
 10
107.7853244088176
 20
-162.6915337049869
 10
108.0013318957427
 20
-162.6915337049869
 10
108.2190619304105
 20
-162.687055080856
 10
108.4347249077872
 20
-162.6746527371091
 10
108.4347249077872
 20
-162.6746527371091
 10
108.4347249077872
 20
-162.8820474853212
 10
108.4347249077872
 20
-162.8820474853212
 10
108.1536051161908
 20
-162.8648220078949
 10
107.8087510581173
 20
-162.8648220078949
 10
107.7853244088176
 20
-162.8648220078949
 97
        0
 97
        0
 92
        1
 93
        1
 72
     4
 94
        3
 73
     0
 74
     1
 95
       23
 96
       19
 40
0.0
 40
0.0
 40
0.0
 40
0.0
 40
1.0
 40
1.0
 40
1.0
 40
2.0
 40
2.0
 40
2.0
 40
3.0
 40
3.0
 40
3.0
 40
4.0
 40
4.0
 40
4.0
 40
5.0
 40
5.0
 40
5.0
 40
6.0
 40
6.0
 40
6.0
 40
6.0
 10
106.6663573952084
 20
-162.2364365913853
 10
106.6663573952084
 20
-162.2577961833939
 10
106.6684244524996
 20
-162.2956922337316
 10
106.6429307459087
 20
-162.2956922337316
 10
106.632595459453
 20
-162.2956922337316
 10
106.6239827207398
 20
-162.2894910618582
 10
106.6133029247356
 20
-162.2726100939805
 10
106.6133029247356
 20
-162.2726100939805
 10
106.5096055506295
 20
-162.0907090523593
 10
106.5096055506295
 20
-162.0907090523593
 10
106.7256130375547
 20
-161.9615179716624
 10
106.9223279897625
 20
-161.6845322946483
 10
106.9688367788134
 20
-161.6125297990066
 10
106.9688367788134
 20
-161.6125297990066
 10
107.0408392744551
 20
-161.7923637833366
 10
107.0408392744551
 20
-161.7923637833366
 10
106.9075140791759
 20
-161.9890787355444
 10
106.7318142094282
 20
-162.1730468344568
 10
106.6663573952084
 20
-162.2364365913853
 97
        0
 97
        0
 92
        1
 93
        1
 72
     4
 94
        3
 73
     0
 74
     1
 95
       17
 96
       13
 40
0.0
 40
0.0
 40
0.0
 40
0.0
 40
1.0
 40
1.0
 40
1.0
 40
2.0
 40
2.0
 40
2.0
 40
3.0
 40
3.0
 40
3.0
 40
4.0
 40
4.0
 40
4.0
 40
4.0
 10
106.9202609324713
 20
-161.341745293866
 10
106.8589382328339
 20
-161.2656086836419
 10
106.729747152137
 20
-161.1894720734179
 10
106.626049778031
 20
-161.1598442522448
 10
106.626049778031
 20
-161.1598442522448
 10
106.7214789229724
 20
-160.9948241785013
 10
106.7214789229724
 20
-160.9948241785013
 10
106.8227647302388
 20
-161.0306531715479
 10
106.9285291616359
 20
-161.087841756603
 10
107.0174126251554
 20
-161.1684569909579
 10
107.0174126251554
 20
-161.1684569909579
 10
106.9202609324713
 20
-161.341745293866
 10
106.9202609324713
 20
-161.341745293866
 97
        0
 97
        0
 92
        1
 93
        1
 72
     4
 94
        3
 73
     0
 74
     1
 95
       23
 96
       19
 40
0.0
 40
0.0
 40
0.0
 40
0.0
 40
1.0
 40
1.0
 40
1.0
 40
2.0
 40
2.0
 40
2.0
 40
3.0
 40
3.0
 40
3.0
 40
4.0
 40
4.0
 40
4.0
 40
5.0
 40
5.0
 40
5.0
 40
6.0
 40
6.0
 40
6.0
 40
6.0
 10
107.3729464792332
 20
-162.0462673205996
 10
107.3515868872246
 20
-162.0696939698992
 10
107.2544351945406
 20
-162.1816595731699
 10
107.1149088273879
 20
-162.2619302979762
 10
107.1149088273879
 20
-162.2619302979762
 10
106.9478216963533
 20
-162.1413519559924
 10
106.9478216963533
 20
-162.1413519559924
 10
107.0980278595102
 20
-162.065559855317
 10
107.1972466094854
 20
-161.9701307103755
 10
107.2458224558274
 20
-161.9174207494512
 10
107.2458224558274
 20
-161.9174207494512
 10
107.419455268284
 20
-161.9997585315487
 10
107.419455268284
 20
-161.9997585315487
 10
107.4277234974486
 20
-162.003892646131
 10
107.4363362361618
 20
-162.0104383275529
 10
107.4363362361618
 20
-162.0207736140087
 10
107.4363362361618
 20
-162.0462673205996
 10
107.4005072431152
 20
-162.0462673205996
 10
107.3729464792332
 20
-162.0462673205996
 97
        0
 97
        0
 92
        1
 93
        1
 72
     4
 94
        3
 73
     0
 74
     1
 95
       20
 96
       16
 40
0.0
 40
0.0
 40
0.0
 40
0.0
 40
1.0
 40
1.0
 40
1.0
 40
2.0
 40
2.0
 40
2.0
 40
3.0
 40
3.0
 40
3.0
 40
4.0
 40
4.0
 40
4.0
 40
5.0
 40
5.0
 40
5.0
 40
5.0
 10
107.6712917482558
 20
-161.2042859840045
 10
107.6330511883695
 20
-161.253206339895
 10
107.5717284887321
 20
-161.3310654978617
 10
107.4322021215795
 20
-161.4413085533897
 10
107.5124728463858
 20
-161.445442667972
 10
107.5421006675589
 20
-161.445442667972
 10
107.5655273168586
 20
-161.445442667972
 10
107.5655273168586
 20
-161.445442667972
 10
107.7939371475307
 20
-161.445442667972
 10
107.7939371475307
 20
-161.445442667972
 10
107.825632025995
 20
-161.445442667972
 10
107.874207872337
 20
-161.4433756106808
 10
107.9482774252699
 20
-161.4413085533897
 10
107.8363118219993
 20
-161.3672390004568
 10
107.7873914661087
 20
-161.3207302114059
 10
107.6712917482558
 20
-161.2042859840045
 97
        0
 97
        0
 92
        1
 93
        1
 72
     4
 94
        3
 73
     0
 74
     1
 95
       17
 96
       13
 40
0.0
 40
0.0
 40
0.0
 40
0.0
 40
1.0
 40
1.0
 40
1.0
 40
2.0
 40
2.0
 40
2.0
 40
3.0
 40
3.0
 40
3.0
 40
4.0
 40
4.0
 40
4.0
 40
4.0
 10
108.2318087837059
 20
-162.259863240685
 10
108.0964165311356
 20
-162.1478976374144
 10
107.9906520997385
 20
-162.0841633709373
 10
107.8721408150459
 20
-162.0207736140087
 10
107.8721408150459
 20
-162.0207736140087
 10
107.9989203289031
 20
-161.9088080107381
 10
107.9989203289031
 20
-161.9088080107381
 10
108.1301784668911
 20
-161.955316799789
 10
108.2400770128705
 20
-162.0125053848441
 10
108.3651339789851
 20
-162.1137911921105
 10
108.3651339789851
 20
-162.1137911921105
 10
108.2318087837059
 20
-162.259863240685
 10
108.2318087837059
 20
-162.259863240685
 97
        0
 97
        0
 75
     2
 76
     1
 98
        0
  0
SPLINE
  5
120
330
114
100
AcDbEntity
  8
_U+30EC_U+30A4_U+30E4_U+30FC 1
370
     0
100
AcDbSpline
210
0.0
220
0.0
230
1.0
 70
    11
 71
     3
 72
   113
 73
   109
 74
     0
 42
0.0000000001
 43
0.0000000001
 12
1.0
 22
0.0
 32
0.0
 13
1.0
 23
0.0
 33
0.0
 40
0.0
 40
0.0
 40
0.0
 40
0.0
 40
1.0
 40
1.0
 40
1.0
 40
2.0
 40
2.0
 40
2.0
 40
3.0
 40
3.0
 40
3.0
 40
4.0
 40
4.0
 40
4.0
 40
5.0
 40
5.0
 40
5.0
 40
6.0
 40
6.0
 40
6.0
 40
7.0
 40
7.0
 40
7.0
 40
8.0
 40
8.0
 40
8.0
 40
9.0
 40
9.0
 40
9.0
 40
10.0
 40
10.0
 40
10.0
 40
11.0
 40
11.0
 40
11.0
 40
12.0
 40
12.0
 40
12.0
 40
13.0
 40
13.0
 40
13.0
 40
14.0
 40
14.0
 40
14.0
 40
15.0
 40
15.0
 40
15.0
 40
16.0
 40
16.0
 40
16.0
 40
17.0
 40
17.0
 40
17.0
 40
18.0
 40
18.0
 40
18.0
 40
19.0
 40
19.0
 40
19.0
 40
20.0
 40
20.0
 40
20.0
 40
21.0
 40
21.0
 40
21.0
 40
22.0
 40
22.0
 40
22.0
 40
23.0
 40
23.0
 40
23.0
 40
24.0
 40
24.0
 40
24.0
 40
25.0
 40
25.0
 40
25.0
 40
26.0
 40
26.0
 40
26.0
 40
27.0
 40
27.0
 40
27.0
 40
28.0
 40
28.0
 40
28.0
 40
29.0
 40
29.0
 40
29.0
 40
30.0
 40
30.0
 40
30.0
 40
31.0
 40
31.0
 40
31.0
 40
32.0
 40
32.0
 40
32.0
 40
33.0
 40
33.0
 40
33.0
 40
34.0
 40
34.0
 40
34.0
 40
35.0
 40
35.0
 40
35.0
 40
36.0
 40
36.0
 40
36.0
 40
36.0
 10
110.1114528804583
 20
-162.2364365913853
 30
0.0
 10
110.1114528804583
 20
-162.2364365913853
 30
0.0
 10
110.211016139982
 20
-162.3363443604576
 30
0.0
 10
110.211016139982
 20
-162.3363443604576
 30
0.0
 10
110.2216959359862
 20
-162.3466796469133
 30
0.0
 10
110.232031222442
 20
-162.3594265002088
 30
0.0
 10
110.232031222442
 20
-162.3742404107953
 30
0.0
 10
110.232031222442
 20
-162.3763074680865
 30
0.0
 10
110.232031222442
 20
-162.4059352892596
 30
0.0
 10
110.1941351721043
 20
-162.4059352892596
 30
0.0
 10
110.1855224333911
 20
-162.4059352892596
 30
0.0
 10
110.1452148162137
 20
-162.4018011746773
 30
0.0
 10
110.1390136443403
 20
-162.4018011746773
 30
0.0
 10
110.0987060271628
 20
-162.4334960531416
 30
0.0
 10
110.052197238112
 20
-162.4672579888971
 30
0.0
 10
109.9529784881368
 20
-162.5244465739522
 30
0.0
 10
110.0987060271628
 20
-162.6322780626406
 30
0.0
 10
110.2575249290328
 20
-162.6894666476957
 30
0.0
 10
110.5303764914646
 20
-162.727707207582
 30
0.0
 10
110.5303764914646
 20
-162.727707207582
 30
0.0
 10
110.3801703283077
 20
-162.9030625677812
 30
0.0
 10
110.3801703283077
 20
-162.9030625677812
 30
0.0
 10
110.1179985618802
 20
-162.8310600721395
 30
0.0
 10
109.9612467173014
 20
-162.74217660862
 30
0.0
 10
109.8851101070773
 20
-162.6894666476957
 30
0.0
 10
109.7349039439204
 20
-162.5878363308808
 30
0.0
 10
109.5912434621855
 20
-162.4248833144285
 30
0.0
 10
109.5151068519615
 20
-162.259863240685
 30
0.0
 10
109.4472384709021
 20
-162.3253200549048
 30
0.0
 10
109.3731689179692
 20
-162.3783745253776
 30
0.0
 10
109.294965250454
 20
-162.4272948812682
 30
0.0
 10
109.294965250454
 20
-162.4272948812682
 30
0.0
 10
109.294965250454
 20
-162.6787868516914
 30
0.0
 10
109.294965250454
 20
-162.6787868516914
 30
0.0
 10
109.4579182669064
 20
-162.6532931451006
 30
0.0
 10
109.6439534231098
 20
-162.6091959228894
 30
0.0
 10
109.7073431800384
 20
-162.5940375027543
 30
0.0
 10
109.7073431800384
 20
-162.5940375027543
 30
0.0
 10
109.6777153588653
 20
-162.7635362006286
 30
0.0
 10
109.6777153588653
 20
-162.7635362006286
 30
0.0
 10
109.6756483015741
 20
-162.7635362006286
 30
0.0
 10
109.6567002764053
 20
-162.769737372502
 30
0.0
 10
109.6546332191141
 20
-162.769737372502
 30
0.0
 10
109.4558512096152
 20
-162.8076334228398
 30
0.0
 10
109.1385579154237
 20
-162.873434746608
 30
0.0
 10
108.9414984536674
 20
-162.9096082492032
 30
0.0
 10
108.9311631672117
 20
-162.9261447075324
 30
0.0
 10
108.907736517912
 20
-162.9578395859967
 30
0.0
 10
108.8846543781608
 20
-162.9578395859967
 30
0.0
 10
108.8570936142788
 20
-162.9578395859967
 30
0.0
 10
108.8529594996965
 20
-162.9392360703763
 30
0.0
 10
108.8505479328568
 20
-162.9199435356589
 30
0.0
 10
108.8505479328568
 20
-162.9199435356589
 30
0.0
 10
108.8253987358145
 20
-162.7463107232023
 30
0.0
 10
108.8253987358145
 20
-162.7463107232023
 30
0.0
 10
108.8994682887474
 20
-162.7380424940377
 30
0.0
 10
109.0072997774357
 20
-162.7252956407423
 30
0.0
 10
109.115131266124
 20
-162.7042805582823
 30
0.0
 10
109.115131266124
 20
-162.7042805582823
 30
0.0
 10
109.115131266124
 20
-162.5265136312434
 30
0.0
 10
109.115131266124
 20
-162.5265136312434
 30
0.0
 10
108.9711262748406
 20
-162.5985161268851
 30
0.0
 10
108.8760416394477
 20
-162.6277994385097
 30
0.0
 10
108.7110215657042
 20
-162.6574272596829
 30
0.0
 10
108.7110215657042
 20
-162.6574272596829
 30
0.0
 10
108.5904432237205
 20
-162.4886175809056
 30
0.0
 10
108.5904432237205
 20
-162.4886175809056
 30
0.0
 10
108.907736517912
 20
-162.4610568170236
 30
0.0
 10
109.1003173555374
 20
-162.3680392389219
 30
0.0
 10
109.2780842825763
 20
-162.2343695340942
 30
0.0
 10
109.1320122340017
 20
-162.2343695340942
 30
0.0
 10
108.8315999076879
 20
-162.238848158225
 30
0.0
 10
108.6348849554802
 20
-162.245393839647
 30
0.0
 10
108.6348849554802
 20
-162.245393839647
 30
0.0
 10
108.6348849554802
 20
-162.0676269126081
 30
0.0
 10
108.6348849554802
 20
-162.0676269126081
 30
0.0
 10
108.7892252332194
 20
-162.0738280844816
 30
0.0
 10
109.0855034449508
 20
-162.080029256355
 30
0.0
 10
109.2694715438632
 20
-162.080029256355
 30
0.0
 10
109.2694715438632
 20
-162.080029256355
 30
0.0
 10
109.4810004066575
 20
-162.080029256355
 30
0.0
 10
109.4810004066575
 20
-162.080029256355
 30
0.0
 10
109.4810004066575
 20
-161.9849446209621
 30
0.0
 10
109.4789333493664
 20
-161.9339572077804
 30
0.0
 10
109.4727321774929
 20
-161.8877929282781
 30
0.0
 10
109.4727321774929
 20
-161.8877929282781
 30
0.0
 10
109.6883951548696
 20
-161.9043293866073
 30
0.0
 10
109.6883951548696
 20
-161.9043293866073
 30
0.0
 10
109.7369710012116
 20
-161.9088080107381
 30
0.0
 10
109.7455837399247
 20
-161.9236219213247
 30
0.0
 10
109.7455837399247
 20
-161.9384358319112
 30
0.0
 10
109.7455837399247
 20
-161.9635850289536
 30
0.0
 10
109.728702772047
 20
-161.9721977676667
 30
0.0
 10
109.6777153588653
 20
-161.9976914742575
 30
0.0
 10
109.6756483015741
 20
-162.0228406712999
 30
0.0
 10
109.6756483015741
 20
-162.0293863527218
 30
0.0
 10
109.673581244283
 20
-162.080029256355
 30
0.0
 10
109.673581244283
 20
-162.080029256355
 30
0.0
 10
109.9040581322462
 20
-162.080029256355
 30
0.0
 10
109.9040581322462
 20
-162.080029256355
 30
0.0
 10
110.0690782059897
 20
-162.080029256355
 30
0.0
 10
110.3612223031389
 20
-162.0738280844816
 30
0.0
 10
110.5410562874689
 20
-162.0676269126081
 30
0.0
 10
110.5410562874689
 20
-162.0676269126081
 30
0.0
 10
110.5410562874689
 20
-162.245393839647
 30
0.0
 10
110.5410562874689
 20
-162.245393839647
 30
0.0
 10
110.411865206772
 20
-162.2409152155162
 30
0.0
 10
110.3887830670209
 20
-162.2409152155162
 30
0.0
 10
110.1114528804583
 20
-162.2364365913853
 30
0.0
  0
SPLINE
  5
121
330
114
100
AcDbEntity
  8
_U+30EC_U+30A4_U+30E4_U+30FC 1
370
     0
100
AcDbSpline
210
0.0
220
0.0
230
1.0
 70
    11
 71
     3
 72
    23
 73
    19
 74
     0
 42
0.0000000001
 43
0.0000000001
 12
1.0
 22
0.0
 32
0.0
 13
1.0
 23
0.0
 33
0.0
 40
0.0
 40
0.0
 40
0.0
 40
0.0
 40
1.0
 40
1.0
 40
1.0
 40
2.0
 40
2.0
 40
2.0
 40
3.0
 40
3.0
 40
3.0
 40
4.0
 40
4.0
 40
4.0
 40
5.0
 40
5.0
 40
5.0
 40
6.0
 40
6.0
 40
6.0
 40
6.0
 10
108.8274657931056
 20
-161.8857258709869
 30
0.0
 10
108.8105848252279
 20
-161.9256889786158
 30
0.0
 10
108.8040391438059
 20
-161.9425699464935
 30
0.0
 10
108.7830240613459
 20
-161.9425699464935
 30
0.0
 10
108.7682101507593
 20
-161.9425699464935
 30
0.0
 10
108.7575303547551
 20
-161.9256889786158
 30
0.0
 10
108.7513291828816
 20
-161.9129421253204
 30
0.0
 10
108.7513291828816
 20
-161.9129421253204
 30
0.0
 10
108.6517659233579
 20
-161.7479220515769
 30
0.0
 10
108.6517659233579
 20
-161.7479220515769
 30
0.0
 10
108.7533962401728
 20
-161.7162271731126
 30
0.0
 10
108.9036024033297
 20
-161.6611056453486
 30
0.0
 10
109.1023844128286
 20
-161.4984971384448
 30
0.0
 10
109.1023844128286
 20
-161.4984971384448
 30
0.0
 10
109.1595729978837
 20
-161.6717854413529
 30
0.0
 10
109.1595729978837
 20
-161.6717854413529
 30
0.0
 10
109.066555419782
 20
-161.7541232234504
 30
0.0
 10
108.9776719562625
 20
-161.8113118085055
 30
0.0
 10
108.8274657931056
 20
-161.8857258709869
 30
0.0
  0
SPLINE
  5
122
330
114
100
AcDbEntity
  8
_U+30EC_U+30A4_U+30E4_U+30FC 1
370
     0
100
AcDbSpline
210
0.0
220
0.0
230
1.0
 70
    11
 71
     3
 72
    17
 73
    13
 74
     0
 42
0.0000000001
 43
0.0000000001
 12
1.0
 22
0.0
 32
0.0
 13
1.0
 23
0.0
 33
0.0
 40
0.0
 40
0.0
 40
0.0
 40
0.0
 40
1.0
 40
1.0
 40
1.0
 40
2.0
 40
2.0
 40
2.0
 40
3.0
 40
3.0
 40
3.0
 40
4.0
 40
4.0
 40
4.0
 40
4.0
 10
108.9797390135537
 20
-161.4199489613811
 30
0.0
 10
108.9501111923805
 20
-161.3799858537522
 30
0.0
 10
108.8822428113211
 20
-161.2828341610682
 30
0.0
 10
108.7003417696999
 20
-161.1725911055402
 30
0.0
 10
108.7003417696999
 20
-161.1725911055402
 30
0.0
 10
108.8274657931056
 20
-161.039265910261
 30
0.0
 10
108.8274657931056
 20
-161.039265910261
 30
0.0
 10
109.0135009493091
 20
-161.1408962270759
 30
0.0
 10
109.0706895343643
 20
-161.2297796905953
 30
0.0
 10
109.0982502982463
 20
-161.2718098555154
 30
0.0
 10
109.0982502982463
 20
-161.2718098555154
 30
0.0
 10
108.9797390135537
 20
-161.4199489613811
 30
0.0
 10
108.9797390135537
 20
-161.4199489613811
 30
0.0
  0
SPLINE
  5
123
330
114
100
AcDbEntity
  8
_U+30EC_U+30A4_U+30E4_U+30FC 1
370
     0
100
AcDbSpline
210
0.0
220
0.0
230
1.0
 70
    11
 71
     3
 72
    38
 73
    34
 74
     0
 42
0.0000000001
 43
0.0000000001
 12
1.0
 22
0.0
 32
0.0
 13
1.0
 23
0.0
 33
0.0
 40
0.0
 40
0.0
 40
0.0
 40
0.0
 40
1.0
 40
1.0
 40
1.0
 40
2.0
 40
2.0
 40
2.0
 40
3.0
 40
3.0
 40
3.0
 40
4.0
 40
4.0
 40
4.0
 40
5.0
 40
5.0
 40
5.0
 40
6.0
 40
6.0
 40
6.0
 40
7.0
 40
7.0
 40
7.0
 40
8.0
 40
8.0
 40
8.0
 40
9.0
 40
9.0
 40
9.0
 40
10.0
 40
10.0
 40
10.0
 40
11.0
 40
11.0
 40
11.0
 40
11.0
 10
109.3476752113784
 20
-161.115402520485
 30
0.0
 10
109.3456081540872
 20
-161.1622558190844
 30
0.0
 10
109.3435410967961
 20
-161.2783555369374
 30
0.0
 10
109.3435410967961
 20
-161.3227972686971
 30
0.0
 10
109.3435410967961
 20
-161.3227972686971
 30
0.0
 10
109.3435410967961
 20
-161.6697183840618
 30
0.0
 10
109.3435410967961
 20
-161.6697183840618
 30
0.0
 10
109.3435410967961
 20
-161.75653479029
 30
0.0
 10
109.3456081540872
 20
-161.8981282147338
 30
0.0
 10
109.3562879500915
 20
-162.0187065567175
 30
0.0
 10
109.3562879500915
 20
-162.0187065567175
 30
0.0
 10
109.1657741697572
 20
-162.0187065567175
 30
0.0
 10
109.1657741697572
 20
-162.0187065567175
 30
0.0
 10
109.170252793888
 20
-161.955316799789
 30
0.0
 10
109.1743869084703
 20
-161.9022623293161
 30
0.0
 10
109.1764539657615
 20
-161.8474853111006
 30
0.0
 10
109.1785210230526
 20
-161.7244954022772
 30
0.0
 10
109.1805880803438
 20
-161.7100260012392
 30
0.0
 10
109.1805880803438
 20
-161.6652397599309
 30
0.0
 10
109.1805880803438
 20
-161.6652397599309
 30
0.0
 10
109.1805880803438
 20
-161.3441568607056
 30
0.0
 10
109.1805880803438
 20
-161.3441568607056
 30
0.0
 10
109.1805880803438
 20
-161.2890353329416
 30
0.0
 10
109.1678412270483
 20
-161.0499457062653
 30
0.0
 10
109.1657741697572
 20
-160.9989582930836
 30
0.0
 10
109.1657741697572
 20
-160.9989582930836
 30
0.0
 10
109.3669677460958
 20
-161.0265190569656
 30
0.0
 10
109.3669677460958
 20
-161.0265190569656
 30
0.0
 10
109.3879828285558
 20
-161.0285861142567
 30
0.0
 10
109.4196777070201
 20
-161.0327202288391
 30
0.0
 10
109.4196777070201
 20
-161.0582139354299
 30
0.0
 10
109.4196777070201
 20
-161.0857746993119
 30
0.0
 10
109.3690348033869
 20
-161.1071342913204
 30
0.0
 10
109.3476752113784
 20
-161.115402520485
 30
0.0
  0
SPLINE
  5
124
330
114
100
AcDbEntity
  8
_U+30EC_U+30A4_U+30E4_U+30FC 1
370
     0
100
AcDbSpline
210
0.0
220
0.0
230
1.0
 70
    11
 71
     3
 72
    83
 73
    79
 74
     0
 42
0.0000000001
 43
0.0000000001
 12
1.0
 22
0.0
 32
0.0
 13
1.0
 23
0.0
 33
0.0
 40
0.0
 40
0.0
 40
0.0
 40
0.0
 40
1.0
 40
1.0
 40
1.0
 40
2.0
 40
2.0
 40
2.0
 40
3.0
 40
3.0
 40
3.0
 40
4.0
 40
4.0
 40
4.0
 40
5.0
 40
5.0
 40
5.0
 40
6.0
 40
6.0
 40
6.0
 40
7.0
 40
7.0
 40
7.0
 40
8.0
 40
8.0
 40
8.0
 40
9.0
 40
9.0
 40
9.0
 40
10.0
 40
10.0
 40
10.0
 40
11.0
 40
11.0
 40
11.0
 40
12.0
 40
12.0
 40
12.0
 40
13.0
 40
13.0
 40
13.0
 40
14.0
 40
14.0
 40
14.0
 40
15.0
 40
15.0
 40
15.0
 40
16.0
 40
16.0
 40
16.0
 40
17.0
 40
17.0
 40
17.0
 40
18.0
 40
18.0
 40
18.0
 40
19.0
 40
19.0
 40
19.0
 40
20.0
 40
20.0
 40
20.0
 40
21.0
 40
21.0
 40
21.0
 40
22.0
 40
22.0
 40
22.0
 40
23.0
 40
23.0
 40
23.0
 40
24.0
 40
24.0
 40
24.0
 40
25.0
 40
25.0
 40
25.0
 40
26.0
 40
26.0
 40
26.0
 40
26.0
 10
110.1496934403445
 20
-161.4371744388074
 30
0.0
 10
110.1496934403445
 20
-161.4371744388074
 30
0.0
 10
110.052197238112
 20
-161.4371744388074
 30
0.0
 10
110.052197238112
 20
-161.4371744388074
 30
0.0
 10
110.052197238112
 20
-161.4371744388074
 30
0.0
 10
110.052197238112
 20
-161.6845322946483
 30
0.0
 10
110.052197238112
 20
-161.6845322946483
 30
0.0
 10
110.052197238112
 20
-161.6845322946483
 30
0.0
 10
110.134879529758
 20
-161.6845322946483
 30
0.0
 10
110.134879529758
 20
-161.6845322946483
 30
0.0
 10
110.2003363439777
 20
-161.6845322946483
 30
0.0
 10
110.3398627111303
 20
-161.680398180066
 30
0.0
 10
110.439425970654
 20
-161.6717854413529
 30
0.0
 10
110.439425970654
 20
-161.6717854413529
 30
0.0
 10
110.439425970654
 20
-161.8516194256829
 30
0.0
 10
110.439425970654
 20
-161.8516194256829
 30
0.0
 10
110.3464083925523
 20
-161.8430066869698
 30
0.0
 10
110.1962022293954
 20
-161.8388725723875
 30
0.0
 10
110.134879529758
 20
-161.8388725723875
 30
0.0
 10
110.134879529758
 20
-161.8388725723875
 30
0.0
 10
109.8299885793133
 20
-161.8388725723875
 30
0.0
 10
109.8299885793133
 20
-161.8388725723875
 30
0.0
 10
109.777278618389
 20
-161.8388725723875
 30
0.0
 10
109.6312065698144
 20
-161.8430066869698
 30
0.0
 10
109.5254421384173
 20
-161.8516194256829
 30
0.0
 10
109.5254421384173
 20
-161.8516194256829
 30
0.0
 10
109.5254421384173
 20
-161.6717854413529
 30
0.0
 10
109.5254421384173
 20
-161.6717854413529
 30
0.0
 10
109.625005397941
 20
-161.680398180066
 30
0.0
 10
109.7645317650936
 20
-161.6845322946483
 30
0.0
 10
109.8299885793133
 20
-161.6845322946483
 30
0.0
 10
109.8299885793133
 20
-161.6845322946483
 30
0.0
 10
109.8744303110731
 20
-161.6845322946483
 30
0.0
 10
109.8744303110731
 20
-161.6845322946483
 30
0.0
 10
109.8744303110731
 20
-161.6845322946483
 30
0.0
 10
109.8744303110731
 20
-161.4371744388074
 30
0.0
 10
109.8744303110731
 20
-161.4371744388074
 30
0.0
 10
109.8744303110731
 20
-161.4371744388074
 30
0.0
 10
109.8007052676887
 20
-161.4371744388074
 30
0.0
 10
109.8007052676887
 20
-161.4371744388074
 30
0.0
 10
109.7390380585027
 20
-161.4371744388074
 30
0.0
 10
109.5719509274681
 20
-161.4413085533897
 30
0.0
 10
109.4513725854844
 20
-161.4495767825543
 30
0.0
 10
109.4513725854844
 20
-161.4495767825543
 30
0.0
 10
109.4513725854844
 20
-161.2718098555154
 30
0.0
 10
109.4513725854844
 20
-161.2718098555154
 30
0.0
 10
109.5657497555947
 20
-161.2783555369374
 30
0.0
 10
109.7242241479162
 20
-161.2828341610682
 30
0.0
 10
109.8007052676887
 20
-161.2828341610682
 30
0.0
 10
109.8007052676887
 20
-161.2828341610682
 30
0.0
 10
109.8723632537819
 20
-161.2828341610682
 30
0.0
 10
109.8723632537819
 20
-161.2828341610682
 30
0.0
 10
109.8682291391996
 20
-161.1302164310716
 30
0.0
 10
109.8661620819085
 20
-161.0964544953162
 30
0.0
 10
109.8596164004865
 20
-161.0030924076659
 30
0.0
 10
109.8596164004865
 20
-161.0030924076659
 30
0.0
 10
110.0714897728294
 20
-161.0265190569656
 30
0.0
 10
110.0714897728294
 20
-161.0265190569656
 30
0.0
 10
110.0966389698717
 20
-161.0285861142567
 30
0.0
 10
110.1200656191714
 20
-161.0327202288391
 30
0.0
 10
110.1200656191714
 20
-161.0561468781387
 30
0.0
 10
110.1200656191714
 20
-161.087841756603
 30
0.0
 10
110.0756238874117
 20
-161.1050672340293
 30
0.0
 10
110.052197238112
 20
-161.1133354631939
 30
0.0
 10
110.052197238112
 20
-161.1133354631939
 30
0.0
 10
110.052197238112
 20
-161.2828341610682
 30
0.0
 10
110.052197238112
 20
-161.2828341610682
 30
0.0
 10
110.052197238112
 20
-161.2828341610682
 30
0.0
 10
110.1496934403445
 20
-161.2828341610682
 30
0.0
 10
110.1496934403445
 20
-161.2828341610682
 30
0.0
 10
110.2258300505685
 20
-161.2828341610682
 30
0.0
 10
110.38430444289
 20
-161.2783555369374
 30
0.0
 10
110.5007486702915
 20
-161.2718098555154
 30
0.0
 10
110.5007486702915
 20
-161.2718098555154
 30
0.0
 10
110.5007486702915
 20
-161.4495767825543
 30
0.0
 10
110.5007486702915
 20
-161.4495767825543
 30
0.0
 10
110.3929171816032
 20
-161.4433756106808
 30
0.0
 10
110.2192843691466
 20
-161.4371744388074
 30
0.0
 10
110.1496934403445
 20
-161.4371744388074
 30
0.0
  0
SPLINE
  5
125
330
114
100
AcDbEntity
  8
_U+30EC_U+30A4_U+30E4_U+30FC 1
370
     0
100
AcDbSpline
210
0.0
220
0.0
230
1.0
 70
    11
 71
     3
 72
    17
 73
    13
 74
     0
 42
0.0000000001
 43
0.0000000001
 12
1.0
 22
0.0
 32
0.0
 13
1.0
 23
0.0
 33
0.0
 40
0.0
 40
0.0
 40
0.0
 40
0.0
 40
1.0
 40
1.0
 40
1.0
 40
2.0
 40
2.0
 40
2.0
 40
3.0
 40
3.0
 40
3.0
 40
4.0
 40
4.0
 40
4.0
 40
4.0
 10
109.9040581322462
 20
-162.2343695340942
 30
0.0
 10
109.9040581322462
 20
-162.2343695340942
 30
0.0
 10
109.701142008165
 20
-162.2343695340942
 30
0.0
 10
109.701142008165
 20
-162.2343695340942
 30
0.0
 10
109.728702772047
 20
-162.2936251764405
 30
0.0
 10
109.7834797902625
 20
-162.3659721816307
 30
0.0
 10
109.8110405541445
 20
-162.3952554932553
 30
0.0
 10
109.8386013180265
 20
-162.3804415826688
 30
0.0
 10
109.9529784881368
 20
-162.3170518257402
 30
0.0
 10
110.0439290089474
 20
-162.2343695340942
 30
0.0
 10
110.0439290089474
 20
-162.2343695340942
 30
0.0
 10
109.9040581322462
 20
-162.2343695340942
 30
0.0
 10
109.9040581322462
 20
-162.2343695340942
 30
0.0
  0
HATCH
  5
126
330
114
100
AcDbEntity
  8
_U+30EC_U+30A4_U+30E4_U+30FC 1
 62
     7
420
 16777215
100
AcDbHatch
 10
0.0
 20
0.0
 30
0.0
210
0.0
220
0.0
230
1.0
  2
SOLID
 70
     1
 71
     0
 91
        6
 92
        1
 93
        1
 72
     4
 94
        3
 73
     0
 74
     1
 95
      113
 96
      109
 40
0.0
 40
0.0
 40
0.0
 40
0.0
 40
1.0
 40
1.0
 40
1.0
 40
2.0
 40
2.0
 40
2.0
 40
3.0
 40
3.0
 40
3.0
 40
4.0
 40
4.0
 40
4.0
 40
5.0
 40
5.0
 40
5.0
 40
6.0
 40
6.0
 40
6.0
 40
7.0
 40
7.0
 40
7.0
 40
8.0
 40
8.0
 40
8.0
 40
9.0
 40
9.0
 40
9.0
 40
10.0
 40
10.0
 40
10.0
 40
11.0
 40
11.0
 40
11.0
 40
12.0
 40
12.0
 40
12.0
 40
13.0
 40
13.0
 40
13.0
 40
14.0
 40
14.0
 40
14.0
 40
15.0
 40
15.0
 40
15.0
 40
16.0
 40
16.0
 40
16.0
 40
17.0
 40
17.0
 40
17.0
 40
18.0
 40
18.0
 40
18.0
 40
19.0
 40
19.0
 40
19.0
 40
20.0
 40
20.0
 40
20.0
 40
21.0
 40
21.0
 40
21.0
 40
22.0
 40
22.0
 40
22.0
 40
23.0
 40
23.0
 40
23.0
 40
24.0
 40
24.0
 40
24.0
 40
25.0
 40
25.0
 40
25.0
 40
26.0
 40
26.0
 40
26.0
 40
27.0
 40
27.0
 40
27.0
 40
28.0
 40
28.0
 40
28.0
 40
29.0
 40
29.0
 40
29.0
 40
30.0
 40
30.0
 40
30.0
 40
31.0
 40
31.0
 40
31.0
 40
32.0
 40
32.0
 40
32.0
 40
33.0
 40
33.0
 40
33.0
 40
34.0
 40
34.0
 40
34.0
 40
35.0
 40
35.0
 40
35.0
 40
36.0
 40
36.0
 40
36.0
 40
36.0
 10
110.1114528804583
 20
-162.2364365913853
 10
110.1114528804583
 20
-162.2364365913853
 10
110.211016139982
 20
-162.3363443604576
 10
110.211016139982
 20
-162.3363443604576
 10
110.2216959359862
 20
-162.3466796469133
 10
110.232031222442
 20
-162.3594265002088
 10
110.232031222442
 20
-162.3742404107953
 10
110.232031222442
 20
-162.3763074680865
 10
110.232031222442
 20
-162.4059352892596
 10
110.1941351721043
 20
-162.4059352892596
 10
110.1855224333911
 20
-162.4059352892596
 10
110.1452148162137
 20
-162.4018011746773
 10
110.1390136443403
 20
-162.4018011746773
 10
110.0987060271628
 20
-162.4334960531416
 10
110.052197238112
 20
-162.4672579888971
 10
109.9529784881368
 20
-162.5244465739522
 10
110.0987060271628
 20
-162.6322780626406
 10
110.2575249290328
 20
-162.6894666476957
 10
110.5303764914646
 20
-162.727707207582
 10
110.5303764914646
 20
-162.727707207582
 10
110.3801703283077
 20
-162.9030625677812
 10
110.3801703283077
 20
-162.9030625677812
 10
110.1179985618802
 20
-162.8310600721395
 10
109.9612467173014
 20
-162.74217660862
 10
109.8851101070773
 20
-162.6894666476957
 10
109.7349039439204
 20
-162.5878363308808
 10
109.5912434621855
 20
-162.4248833144285
 10
109.5151068519615
 20
-162.259863240685
 10
109.4472384709021
 20
-162.3253200549048
 10
109.3731689179692
 20
-162.3783745253776
 10
109.294965250454
 20
-162.4272948812682
 10
109.294965250454
 20
-162.4272948812682
 10
109.294965250454
 20
-162.6787868516914
 10
109.294965250454
 20
-162.6787868516914
 10
109.4579182669064
 20
-162.6532931451006
 10
109.6439534231098
 20
-162.6091959228894
 10
109.7073431800384
 20
-162.5940375027543
 10
109.7073431800384
 20
-162.5940375027543
 10
109.6777153588653
 20
-162.7635362006286
 10
109.6777153588653
 20
-162.7635362006286
 10
109.6756483015741
 20
-162.7635362006286
 10
109.6567002764053
 20
-162.769737372502
 10
109.6546332191141
 20
-162.769737372502
 10
109.4558512096152
 20
-162.8076334228398
 10
109.1385579154237
 20
-162.873434746608
 10
108.9414984536674
 20
-162.9096082492032
 10
108.9311631672117
 20
-162.9261447075324
 10
108.907736517912
 20
-162.9578395859967
 10
108.8846543781608
 20
-162.9578395859967
 10
108.8570936142788
 20
-162.9578395859967
 10
108.8529594996965
 20
-162.9392360703763
 10
108.8505479328568
 20
-162.9199435356589
 10
108.8505479328568
 20
-162.9199435356589
 10
108.8253987358145
 20
-162.7463107232023
 10
108.8253987358145
 20
-162.7463107232023
 10
108.8994682887474
 20
-162.7380424940377
 10
109.0072997774357
 20
-162.7252956407423
 10
109.115131266124
 20
-162.7042805582823
 10
109.115131266124
 20
-162.7042805582823
 10
109.115131266124
 20
-162.5265136312434
 10
109.115131266124
 20
-162.5265136312434
 10
108.9711262748406
 20
-162.5985161268851
 10
108.8760416394477
 20
-162.6277994385097
 10
108.7110215657042
 20
-162.6574272596829
 10
108.7110215657042
 20
-162.6574272596829
 10
108.5904432237205
 20
-162.4886175809056
 10
108.5904432237205
 20
-162.4886175809056
 10
108.907736517912
 20
-162.4610568170236
 10
109.1003173555374
 20
-162.3680392389219
 10
109.2780842825763
 20
-162.2343695340942
 10
109.1320122340017
 20
-162.2343695340942
 10
108.8315999076879
 20
-162.238848158225
 10
108.6348849554802
 20
-162.245393839647
 10
108.6348849554802
 20
-162.245393839647
 10
108.6348849554802
 20
-162.0676269126081
 10
108.6348849554802
 20
-162.0676269126081
 10
108.7892252332194
 20
-162.0738280844816
 10
109.0855034449508
 20
-162.080029256355
 10
109.2694715438632
 20
-162.080029256355
 10
109.2694715438632
 20
-162.080029256355
 10
109.4810004066575
 20
-162.080029256355
 10
109.4810004066575
 20
-162.080029256355
 10
109.4810004066575
 20
-161.9849446209621
 10
109.4789333493664
 20
-161.9339572077804
 10
109.4727321774929
 20
-161.8877929282781
 10
109.4727321774929
 20
-161.8877929282781
 10
109.6883951548696
 20
-161.9043293866073
 10
109.6883951548696
 20
-161.9043293866073
 10
109.7369710012116
 20
-161.9088080107381
 10
109.7455837399247
 20
-161.9236219213247
 10
109.7455837399247
 20
-161.9384358319112
 10
109.7455837399247
 20
-161.9635850289536
 10
109.728702772047
 20
-161.9721977676667
 10
109.6777153588653
 20
-161.9976914742575
 10
109.6756483015741
 20
-162.0228406712999
 10
109.6756483015741
 20
-162.0293863527218
 10
109.673581244283
 20
-162.080029256355
 10
109.673581244283
 20
-162.080029256355
 10
109.9040581322462
 20
-162.080029256355
 10
109.9040581322462
 20
-162.080029256355
 10
110.0690782059897
 20
-162.080029256355
 10
110.3612223031389
 20
-162.0738280844816
 10
110.5410562874689
 20
-162.0676269126081
 10
110.5410562874689
 20
-162.0676269126081
 10
110.5410562874689
 20
-162.245393839647
 10
110.5410562874689
 20
-162.245393839647
 10
110.411865206772
 20
-162.2409152155162
 10
110.3887830670209
 20
-162.2409152155162
 10
110.1114528804583
 20
-162.2364365913853
 97
        0
 97
        0
 92
        1
 93
        1
 72
     4
 94
        3
 73
     0
 74
     1
 95
       23
 96
       19
 40
0.0
 40
0.0
 40
0.0
 40
0.0
 40
1.0
 40
1.0
 40
1.0
 40
2.0
 40
2.0
 40
2.0
 40
3.0
 40
3.0
 40
3.0
 40
4.0
 40
4.0
 40
4.0
 40
5.0
 40
5.0
 40
5.0
 40
6.0
 40
6.0
 40
6.0
 40
6.0
 10
108.8274657931056
 20
-161.8857258709869
 10
108.8105848252279
 20
-161.9256889786158
 10
108.8040391438059
 20
-161.9425699464935
 10
108.7830240613459
 20
-161.9425699464935
 10
108.7682101507593
 20
-161.9425699464935
 10
108.7575303547551
 20
-161.9256889786158
 10
108.7513291828816
 20
-161.9129421253204
 10
108.7513291828816
 20
-161.9129421253204
 10
108.6517659233579
 20
-161.7479220515769
 10
108.6517659233579
 20
-161.7479220515769
 10
108.7533962401728
 20
-161.7162271731126
 10
108.9036024033297
 20
-161.6611056453486
 10
109.1023844128286
 20
-161.4984971384448
 10
109.1023844128286
 20
-161.4984971384448
 10
109.1595729978837
 20
-161.6717854413529
 10
109.1595729978837
 20
-161.6717854413529
 10
109.066555419782
 20
-161.7541232234504
 10
108.9776719562625
 20
-161.8113118085055
 10
108.8274657931056
 20
-161.8857258709869
 97
        0
 97
        0
 92
        1
 93
        1
 72
     4
 94
        3
 73
     0
 74
     1
 95
       17
 96
       13
 40
0.0
 40
0.0
 40
0.0
 40
0.0
 40
1.0
 40
1.0
 40
1.0
 40
2.0
 40
2.0
 40
2.0
 40
3.0
 40
3.0
 40
3.0
 40
4.0
 40
4.0
 40
4.0
 40
4.0
 10
108.9797390135537
 20
-161.4199489613811
 10
108.9501111923805
 20
-161.3799858537522
 10
108.8822428113211
 20
-161.2828341610682
 10
108.7003417696999
 20
-161.1725911055402
 10
108.7003417696999
 20
-161.1725911055402
 10
108.8274657931056
 20
-161.039265910261
 10
108.8274657931056
 20
-161.039265910261
 10
109.0135009493091
 20
-161.1408962270759
 10
109.0706895343643
 20
-161.2297796905953
 10
109.0982502982463
 20
-161.2718098555154
 10
109.0982502982463
 20
-161.2718098555154
 10
108.9797390135537
 20
-161.4199489613811
 10
108.9797390135537
 20
-161.4199489613811
 97
        0
 97
        0
 92
        1
 93
        1
 72
     4
 94
        3
 73
     0
 74
     1
 95
       38
 96
       34
 40
0.0
 40
0.0
 40
0.0
 40
0.0
 40
1.0
 40
1.0
 40
1.0
 40
2.0
 40
2.0
 40
2.0
 40
3.0
 40
3.0
 40
3.0
 40
4.0
 40
4.0
 40
4.0
 40
5.0
 40
5.0
 40
5.0
 40
6.0
 40
6.0
 40
6.0
 40
7.0
 40
7.0
 40
7.0
 40
8.0
 40
8.0
 40
8.0
 40
9.0
 40
9.0
 40
9.0
 40
10.0
 40
10.0
 40
10.0
 40
11.0
 40
11.0
 40
11.0
 40
11.0
 10
109.3476752113784
 20
-161.115402520485
 10
109.3456081540872
 20
-161.1622558190844
 10
109.3435410967961
 20
-161.2783555369374
 10
109.3435410967961
 20
-161.3227972686971
 10
109.3435410967961
 20
-161.3227972686971
 10
109.3435410967961
 20
-161.6697183840618
 10
109.3435410967961
 20
-161.6697183840618
 10
109.3435410967961
 20
-161.75653479029
 10
109.3456081540872
 20
-161.8981282147338
 10
109.3562879500915
 20
-162.0187065567175
 10
109.3562879500915
 20
-162.0187065567175
 10
109.1657741697572
 20
-162.0187065567175
 10
109.1657741697572
 20
-162.0187065567175
 10
109.170252793888
 20
-161.955316799789
 10
109.1743869084703
 20
-161.9022623293161
 10
109.1764539657615
 20
-161.8474853111006
 10
109.1785210230526
 20
-161.7244954022772
 10
109.1805880803438
 20
-161.7100260012392
 10
109.1805880803438
 20
-161.6652397599309
 10
109.1805880803438
 20
-161.6652397599309
 10
109.1805880803438
 20
-161.3441568607056
 10
109.1805880803438
 20
-161.3441568607056
 10
109.1805880803438
 20
-161.2890353329416
 10
109.1678412270483
 20
-161.0499457062653
 10
109.1657741697572
 20
-160.9989582930836
 10
109.1657741697572
 20
-160.9989582930836
 10
109.3669677460958
 20
-161.0265190569656
 10
109.3669677460958
 20
-161.0265190569656
 10
109.3879828285558
 20
-161.0285861142567
 10
109.4196777070201
 20
-161.0327202288391
 10
109.4196777070201
 20
-161.0582139354299
 10
109.4196777070201
 20
-161.0857746993119
 10
109.3690348033869
 20
-161.1071342913204
 10
109.3476752113784
 20
-161.115402520485
 97
        0
 97
        0
 92
        1
 93
        1
 72
     4
 94
        3
 73
     0
 74
     1
 95
       83
 96
       79
 40
0.0
 40
0.0
 40
0.0
 40
0.0
 40
1.0
 40
1.0
 40
1.0
 40
2.0
 40
2.0
 40
2.0
 40
3.0
 40
3.0
 40
3.0
 40
4.0
 40
4.0
 40
4.0
 40
5.0
 40
5.0
 40
5.0
 40
6.0
 40
6.0
 40
6.0
 40
7.0
 40
7.0
 40
7.0
 40
8.0
 40
8.0
 40
8.0
 40
9.0
 40
9.0
 40
9.0
 40
10.0
 40
10.0
 40
10.0
 40
11.0
 40
11.0
 40
11.0
 40
12.0
 40
12.0
 40
12.0
 40
13.0
 40
13.0
 40
13.0
 40
14.0
 40
14.0
 40
14.0
 40
15.0
 40
15.0
 40
15.0
 40
16.0
 40
16.0
 40
16.0
 40
17.0
 40
17.0
 40
17.0
 40
18.0
 40
18.0
 40
18.0
 40
19.0
 40
19.0
 40
19.0
 40
20.0
 40
20.0
 40
20.0
 40
21.0
 40
21.0
 40
21.0
 40
22.0
 40
22.0
 40
22.0
 40
23.0
 40
23.0
 40
23.0
 40
24.0
 40
24.0
 40
24.0
 40
25.0
 40
25.0
 40
25.0
 40
26.0
 40
26.0
 40
26.0
 40
26.0
 10
110.1496934403445
 20
-161.4371744388074
 10
110.1496934403445
 20
-161.4371744388074
 10
110.052197238112
 20
-161.4371744388074
 10
110.052197238112
 20
-161.4371744388074
 10
110.052197238112
 20
-161.4371744388074
 10
110.052197238112
 20
-161.6845322946483
 10
110.052197238112
 20
-161.6845322946483
 10
110.052197238112
 20
-161.6845322946483
 10
110.134879529758
 20
-161.6845322946483
 10
110.134879529758
 20
-161.6845322946483
 10
110.2003363439777
 20
-161.6845322946483
 10
110.3398627111303
 20
-161.680398180066
 10
110.439425970654
 20
-161.6717854413529
 10
110.439425970654
 20
-161.6717854413529
 10
110.439425970654
 20
-161.8516194256829
 10
110.439425970654
 20
-161.8516194256829
 10
110.3464083925523
 20
-161.8430066869698
 10
110.1962022293954
 20
-161.8388725723875
 10
110.134879529758
 20
-161.8388725723875
 10
110.134879529758
 20
-161.8388725723875
 10
109.8299885793133
 20
-161.8388725723875
 10
109.8299885793133
 20
-161.8388725723875
 10
109.777278618389
 20
-161.8388725723875
 10
109.6312065698144
 20
-161.8430066869698
 10
109.5254421384173
 20
-161.8516194256829
 10
109.5254421384173
 20
-161.8516194256829
 10
109.5254421384173
 20
-161.6717854413529
 10
109.5254421384173
 20
-161.6717854413529
 10
109.625005397941
 20
-161.680398180066
 10
109.7645317650936
 20
-161.6845322946483
 10
109.8299885793133
 20
-161.6845322946483
 10
109.8299885793133
 20
-161.6845322946483
 10
109.8744303110731
 20
-161.6845322946483
 10
109.8744303110731
 20
-161.6845322946483
 10
109.8744303110731
 20
-161.6845322946483
 10
109.8744303110731
 20
-161.4371744388074
 10
109.8744303110731
 20
-161.4371744388074
 10
109.8744303110731
 20
-161.4371744388074
 10
109.8007052676887
 20
-161.4371744388074
 10
109.8007052676887
 20
-161.4371744388074
 10
109.7390380585027
 20
-161.4371744388074
 10
109.5719509274681
 20
-161.4413085533897
 10
109.4513725854844
 20
-161.4495767825543
 10
109.4513725854844
 20
-161.4495767825543
 10
109.4513725854844
 20
-161.2718098555154
 10
109.4513725854844
 20
-161.2718098555154
 10
109.5657497555947
 20
-161.2783555369374
 10
109.7242241479162
 20
-161.2828341610682
 10
109.8007052676887
 20
-161.2828341610682
 10
109.8007052676887
 20
-161.2828341610682
 10
109.8723632537819
 20
-161.2828341610682
 10
109.8723632537819
 20
-161.2828341610682
 10
109.8682291391996
 20
-161.1302164310716
 10
109.8661620819085
 20
-161.0964544953162
 10
109.8596164004865
 20
-161.0030924076659
 10
109.8596164004865
 20
-161.0030924076659
 10
110.0714897728294
 20
-161.0265190569656
 10
110.0714897728294
 20
-161.0265190569656
 10
110.0966389698717
 20
-161.0285861142567
 10
110.1200656191714
 20
-161.0327202288391
 10
110.1200656191714
 20
-161.0561468781387
 10
110.1200656191714
 20
-161.087841756603
 10
110.0756238874117
 20
-161.1050672340293
 10
110.052197238112
 20
-161.1133354631939
 10
110.052197238112
 20
-161.1133354631939
 10
110.052197238112
 20
-161.2828341610682
 10
110.052197238112
 20
-161.2828341610682
 10
110.052197238112
 20
-161.2828341610682
 10
110.1496934403445
 20
-161.2828341610682
 10
110.1496934403445
 20
-161.2828341610682
 10
110.2258300505685
 20
-161.2828341610682
 10
110.38430444289
 20
-161.2783555369374
 10
110.5007486702915
 20
-161.2718098555154
 10
110.5007486702915
 20
-161.2718098555154
 10
110.5007486702915
 20
-161.4495767825543
 10
110.5007486702915
 20
-161.4495767825543
 10
110.3929171816032
 20
-161.4433756106808
 10
110.2192843691466
 20
-161.4371744388074
 10
110.1496934403445
 20
-161.4371744388074
 97
        0
 97
        0
 92
        1
 93
        1
 72
     4
 94
        3
 73
     0
 74
     1
 95
       17
 96
       13
 40
0.0
 40
0.0
 40
0.0
 40
0.0
 40
1.0
 40
1.0
 40
1.0
 40
2.0
 40
2.0
 40
2.0
 40
3.0
 40
3.0
 40
3.0
 40
4.0
 40
4.0
 40
4.0
 40
4.0
 10
109.9040581322462
 20
-162.2343695340942
 10
109.9040581322462
 20
-162.2343695340942
 10
109.701142008165
 20
-162.2343695340942
 10
109.701142008165
 20
-162.2343695340942
 10
109.728702772047
 20
-162.2936251764405
 10
109.7834797902625
 20
-162.3659721816307
 10
109.8110405541445
 20
-162.3952554932553
 10
109.8386013180265
 20
-162.3804415826688
 10
109.9529784881368
 20
-162.3170518257402
 10
110.0439290089474
 20
-162.2343695340942
 10
110.0439290089474
 20
-162.2343695340942
 10
109.9040581322462
 20
-162.2343695340942
 10
109.9040581322462
 20
-162.2343695340942
 97
        0
 97
        0
 75
     2
 76
     1
 98
        0
  0
SPLINE
  5
127
330
114
100
AcDbEntity
  8
_U+30EC_U+30A4_U+30E4_U+30FC 1
370
     0
100
AcDbSpline
210
0.0
220
0.0
230
1.0
 70
    11
 71
     3
 72
    77
 73
    73
 74
     0
 42
0.0000000001
 43
0.0000000001
 12
1.0
 22
0.0
 32
0.0
 13
1.0
 23
0.0
 33
0.0
 40
0.0
 40
0.0
 40
0.0
 40
0.0
 40
1.0
 40
1.0
 40
1.0
 40
2.0
 40
2.0
 40
2.0
 40
3.0
 40
3.0
 40
3.0
 40
4.0
 40
4.0
 40
4.0
 40
5.0
 40
5.0
 40
5.0
 40
6.0
 40
6.0
 40
6.0
 40
7.0
 40
7.0
 40
7.0
 40
8.0
 40
8.0
 40
8.0
 40
9.0
 40
9.0
 40
9.0
 40
10.0
 40
10.0
 40
10.0
 40
11.0
 40
11.0
 40
11.0
 40
12.0
 40
12.0
 40
12.0
 40
13.0
 40
13.0
 40
13.0
 40
14.0
 40
14.0
 40
14.0
 40
15.0
 40
15.0
 40
15.0
 40
16.0
 40
16.0
 40
16.0
 40
17.0
 40
17.0
 40
17.0
 40
18.0
 40
18.0
 40
18.0
 40
19.0
 40
19.0
 40
19.0
 40
20.0
 40
20.0
 40
20.0
 40
21.0
 40
21.0
 40
21.0
 40
22.0
 40
22.0
 40
22.0
 40
23.0
 40
23.0
 40
23.0
 40
24.0
 40
24.0
 40
24.0
 40
24.0
 10
112.3952066776304
 20
-162.8648220078949
 30
0.0
 10
112.3486978885795
 20
-162.8903157144858
 30
0.0
 10
112.2239854320134
 20
-162.9030625677812
 30
0.0
 10
112.1454372549498
 20
-162.9030625677812
 30
0.0
 10
112.1330349112029
 20
-162.9030625677812
 30
0.0
 10
112.107541204612
 20
-162.9030625677812
 30
0.0
 10
112.0737792688566
 20
-162.8985839436504
 30
0.0
 10
112.0737792688566
 20
-162.8985839436504
 30
0.0
 10
111.976283066624
 20
-162.672585679818
 30
0.0
 10
111.976283066624
 20
-162.672585679818
 30
0.0
 10
112.0059108877971
 20
-162.6787868516914
 30
0.0
 10
112.0630994728523
 20
-162.687055080856
 30
0.0
 10
112.1795437002537
 20
-162.687055080856
 30
0.0
 10
112.2577473677689
 20
-162.687055080856
 30
0.0
 10
112.2598144250601
 20
-162.645024915936
 30
0.0
 10
112.2598144250601
 20
-162.5878363308808
 30
0.0
 10
112.2598144250601
 20
-162.5878363308808
 30
0.0
 10
112.2598144250601
 20
-162.238848158225
 30
0.0
 10
112.2598144250601
 20
-162.238848158225
 30
0.0
 10
112.2598144250601
 20
-162.238848158225
 30
0.0
 10
111.8005831968762
 20
-162.238848158225
 30
0.0
 10
111.8005831968762
 20
-162.238848158225
 30
0.0
 10
111.8029947637159
 20
-162.3763074680865
 30
0.0
 10
111.8050618210071
 20
-162.5750894775854
 30
0.0
 10
111.8112629928805
 20
-162.7084146728646
 30
0.0
 10
111.8133300501717
 20
-162.7359754367466
 30
0.0
 10
111.8133300501717
 20
-162.7804171685063
 30
0.0
 10
111.8260769034671
 20
-162.8417398681437
 30
0.0
 10
111.8260769034671
 20
-162.8417398681437
 30
0.0
 10
111.5849202194996
 20
-162.8417398681437
 30
0.0
 10
111.5849202194996
 20
-162.8417398681437
 30
0.0
 10
111.6104139260905
 20
-162.7166829020292
 30
0.0
 10
111.6104139260905
 20
-162.3763074680865
 30
0.0
 10
111.6104139260905
 20
-162.238848158225
 30
0.0
 10
111.6104139260905
 20
-162.238848158225
 30
0.0
 10
111.1680636657844
 20
-162.238848158225
 30
0.0
 10
111.1680636657844
 20
-162.238848158225
 30
0.0
 10
111.1449815260332
 20
-162.4458983968885
 30
0.0
 10
111.0795247118135
 20
-162.714615844738
 30
0.0
 10
110.8824652500572
 20
-162.8985839436504
 30
0.0
 10
110.8824652500572
 20
-162.8985839436504
 30
0.0
 10
110.6943630365625
 20
-162.7759385443755
 30
0.0
 10
110.6943630365625
 20
-162.7759385443755
 30
0.0
 10
110.9482665738254
 20
-162.5561414524165
 30
0.0
 10
110.9799614522897
 20
-162.2240342476385
 30
0.0
 10
110.9799614522897
 20
-161.8919270428603
 30
0.0
 10
110.9799614522897
 20
-161.8919270428603
 30
0.0
 10
110.9799614522897
 20
-161.4561224639762
 30
0.0
 10
110.9799614522897
 20
-161.4561224639762
 30
0.0
 10
110.9799614522897
 20
-161.4199489613811
 30
0.0
 10
110.9778943949986
 20
-161.1874050161268
 30
0.0
 10
110.9692816562855
 20
-161.0857746993119
 30
0.0
 10
111.1091525329866
 20
-161.0964544953162
 30
0.0
 10
111.3503092169541
 20
-161.0964544953162
 30
0.0
 10
111.493969698689
 20
-161.0964544953162
 30
0.0
 10
111.493969698689
 20
-161.0964544953162
 30
0.0
 10
111.9532009268728
 20
-161.0964544953162
 30
0.0
 10
111.9532009268728
 20
-161.0964544953162
 30
0.0
 10
111.9680148374594
 20
-161.0964544953162
 30
0.0
 10
112.3170030101152
 20
-161.0964544953162
 30
0.0
 10
112.4754774024367
 20
-161.0857746993119
 30
0.0
 10
112.4734103451455
 20
-161.1388291697847
 30
0.0
 10
112.4672091732721
 20
-161.2993706193974
 30
0.0
 10
112.4672091732721
 20
-161.3503580325791
 30
0.0
 10
112.4672091732721
 20
-161.3503580325791
 30
0.0
 10
112.4672091732721
 20
-161.9573838570801
 30
0.0
 10
112.4672091732721
 20
-161.9573838570801
 30
0.0
 10
112.4672091732721
 20
-161.9766763917975
 30
0.0
 10
112.4775444597278
 20
-162.5478732232519
 30
0.0
 10
112.4775444597278
 20
-162.6598388265226
 30
0.0
 10
112.4775444597278
 20
-162.7166829020292
 30
0.0
 10
112.4775444597278
 20
-162.8186577283926
 30
0.0
 10
112.3952066776304
 20
-162.8648220078949
 30
0.0
  0
POLYLINE
  5
128
330
114
100
AcDbEntity
  8
_U+30EC_U+30A4_U+30E4_U+30FC 1
370
     0
100
AcDb2dPolyline
 66
     1
 10
0.0
 20
0.0
 30
0.0
  0
VERTEX
  5
129
330
128
100
AcDbEntity
  8
_U+30EC_U+30A4_U+30E4_U+30FC 1
370
     0
100
AcDbVertex
100
AcDb2dVertex
 10
111.6104139260905
 20
-161.2783555369374
 30
0.0
  0
VERTEX
  5
12A
330
128
100
AcDbEntity
  8
_U+30EC_U+30A4_U+30E4_U+30FC 1
370
     0
100
AcDbVertex
100
AcDb2dVertex
 10
111.1725422899152
 20
-161.2783555369374
 30
0.0
  0
VERTEX
  5
12B
330
128
100
AcDbEntity
  8
_U+30EC_U+30A4_U+30E4_U+30FC 1
370
     0
100
AcDbVertex
100
AcDb2dVertex
 10
111.1725422899152
 20
-161.5829019778334
 30
0.0
  0
VERTEX
  5
12C
330
128
100
AcDbEntity
  8
_U+30EC_U+30A4_U+30E4_U+30FC 1
370
     0
100
AcDbVertex
100
AcDb2dVertex
 10
111.6104139260905
 20
-161.5829019778334
 30
0.0
  0
VERTEX
  5
12D
330
128
100
AcDbEntity
  8
_U+30EC_U+30A4_U+30E4_U+30FC 1
370
     0
100
AcDbVertex
100
AcDb2dVertex
 10
111.6104139260905
 20
-161.2783555369374
 30
0.0
  0
SEQEND
  5
12E
330
128
100
AcDbEntity
  8
_U+30EC_U+30A4_U+30E4_U+30FC 1
370
     0
  0
POLYLINE
  5
12F
330
114
100
AcDbEntity
  8
_U+30EC_U+30A4_U+30E4_U+30FC 1
370
     0
100
AcDb2dPolyline
 66
     1
 10
0.0
 20
0.0
 30
0.0
  0
VERTEX
  5
130
330
12F
100
AcDbEntity
  8
_U+30EC_U+30A4_U+30E4_U+30FC 1
370
     0
100
AcDbVertex
100
AcDb2dVertex
 10
111.6104139260905
 20
-161.7499891088681
 30
0.0
  0
VERTEX
  5
131
330
12F
100
AcDbEntity
  8
_U+30EC_U+30A4_U+30E4_U+30FC 1
370
     0
100
AcDbVertex
100
AcDb2dVertex
 10
111.1725422899152
 20
-161.7499891088681
 30
0.0
  0
VERTEX
  5
132
330
12F
100
AcDbEntity
  8
_U+30EC_U+30A4_U+30E4_U+30FC 1
370
     0
100
AcDbVertex
100
AcDb2dVertex
 10
111.1725422899152
 20
-162.059014173895
 30
0.0
  0
VERTEX
  5
133
330
12F
100
AcDbEntity
  8
_U+30EC_U+30A4_U+30E4_U+30FC 1
370
     0
100
AcDbVertex
100
AcDb2dVertex
 10
111.6104139260905
 20
-162.059014173895
 30
0.0
  0
VERTEX
  5
134
330
12F
100
AcDbEntity
  8
_U+30EC_U+30A4_U+30E4_U+30FC 1
370
     0
100
AcDbVertex
100
AcDb2dVertex
 10
111.6104139260905
 20
-161.7499891088681
 30
0.0
  0
SEQEND
  5
135
330
12F
100
AcDbEntity
  8
_U+30EC_U+30A4_U+30E4_U+30FC 1
370
     0
  0
POLYLINE
  5
136
330
114
100
AcDbEntity
  8
_U+30EC_U+30A4_U+30E4_U+30FC 1
370
     0
100
AcDb2dPolyline
 66
     1
 10
0.0
 20
0.0
 30
0.0
  0
VERTEX
  5
137
330
136
100
AcDbEntity
  8
_U+30EC_U+30A4_U+30E4_U+30FC 1
370
     0
100
AcDbVertex
100
AcDb2dVertex
 10
112.2598144250601
 20
-161.2783555369374
 30
0.0
  0
VERTEX
  5
138
330
136
100
AcDbEntity
  8
_U+30EC_U+30A4_U+30E4_U+30FC 1
370
     0
100
AcDbVertex
100
AcDb2dVertex
 10
111.8005831968762
 20
-161.2783555369374
 30
0.0
  0
VERTEX
  5
139
330
136
100
AcDbEntity
  8
_U+30EC_U+30A4_U+30E4_U+30FC 1
370
     0
100
AcDbVertex
100
AcDb2dVertex
 10
111.8005831968762
 20
-161.5829019778334
 30
0.0
  0
VERTEX
  5
13A
330
136
100
AcDbEntity
  8
_U+30EC_U+30A4_U+30E4_U+30FC 1
370
     0
100
AcDbVertex
100
AcDb2dVertex
 10
112.2598144250601
 20
-161.5829019778334
 30
0.0
  0
VERTEX
  5
13B
330
136
100
AcDbEntity
  8
_U+30EC_U+30A4_U+30E4_U+30FC 1
370
     0
100
AcDbVertex
100
AcDb2dVertex
 10
112.2598144250601
 20
-161.2783555369374
 30
0.0
  0
SEQEND
  5
13C
330
136
100
AcDbEntity
  8
_U+30EC_U+30A4_U+30E4_U+30FC 1
370
     0
  0
POLYLINE
  5
13D
330
114
100
AcDbEntity
  8
_U+30EC_U+30A4_U+30E4_U+30FC 1
370
     0
100
AcDb2dPolyline
 66
     1
 10
0.0
 20
0.0
 30
0.0
  0
VERTEX
  5
13E
330
13D
100
AcDbEntity
  8
_U+30EC_U+30A4_U+30E4_U+30FC 1
370
     0
100
AcDbVertex
100
AcDb2dVertex
 10
112.2598144250601
 20
-161.7499891088681
 30
0.0
  0
VERTEX
  5
13F
330
13D
100
AcDbEntity
  8
_U+30EC_U+30A4_U+30E4_U+30FC 1
370
     0
100
AcDbVertex
100
AcDb2dVertex
 10
111.8005831968762
 20
-161.7499891088681
 30
0.0
  0
VERTEX
  5
140
330
13D
100
AcDbEntity
  8
_U+30EC_U+30A4_U+30E4_U+30FC 1
370
     0
100
AcDbVertex
100
AcDb2dVertex
 10
111.8005831968762
 20
-162.059014173895
 30
0.0
  0
VERTEX
  5
141
330
13D
100
AcDbEntity
  8
_U+30EC_U+30A4_U+30E4_U+30FC 1
370
     0
100
AcDbVertex
100
AcDb2dVertex
 10
112.2598144250601
 20
-162.059014173895
 30
0.0
  0
VERTEX
  5
142
330
13D
100
AcDbEntity
  8
_U+30EC_U+30A4_U+30E4_U+30FC 1
370
     0
100
AcDbVertex
100
AcDb2dVertex
 10
112.2598144250601
 20
-161.7499891088681
 30
0.0
  0
SEQEND
  5
143
330
13D
100
AcDbEntity
  8
_U+30EC_U+30A4_U+30E4_U+30FC 1
370
     0
  0
HATCH
  5
144
330
114
100
AcDbEntity
  8
_U+30EC_U+30A4_U+30E4_U+30FC 1
 62
     7
420
 16777215
100
AcDbHatch
 10
0.0
 20
0.0
 30
0.0
210
0.0
220
0.0
230
1.0
  2
SOLID
 70
     1
 71
     0
 91
        5
 92
        1
 93
        1
 72
     4
 94
        3
 73
     0
 74
     1
 95
       77
 96
       73
 40
0.0
 40
0.0
 40
0.0
 40
0.0
 40
1.0
 40
1.0
 40
1.0
 40
2.0
 40
2.0
 40
2.0
 40
3.0
 40
3.0
 40
3.0
 40
4.0
 40
4.0
 40
4.0
 40
5.0
 40
5.0
 40
5.0
 40
6.0
 40
6.0
 40
6.0
 40
7.0
 40
7.0
 40
7.0
 40
8.0
 40
8.0
 40
8.0
 40
9.0
 40
9.0
 40
9.0
 40
10.0
 40
10.0
 40
10.0
 40
11.0
 40
11.0
 40
11.0
 40
12.0
 40
12.0
 40
12.0
 40
13.0
 40
13.0
 40
13.0
 40
14.0
 40
14.0
 40
14.0
 40
15.0
 40
15.0
 40
15.0
 40
16.0
 40
16.0
 40
16.0
 40
17.0
 40
17.0
 40
17.0
 40
18.0
 40
18.0
 40
18.0
 40
19.0
 40
19.0
 40
19.0
 40
20.0
 40
20.0
 40
20.0
 40
21.0
 40
21.0
 40
21.0
 40
22.0
 40
22.0
 40
22.0
 40
23.0
 40
23.0
 40
23.0
 40
24.0
 40
24.0
 40
24.0
 40
24.0
 10
112.3952066776304
 20
-162.8648220078949
 10
112.3486978885795
 20
-162.8903157144858
 10
112.2239854320134
 20
-162.9030625677812
 10
112.1454372549498
 20
-162.9030625677812
 10
112.1330349112029
 20
-162.9030625677812
 10
112.107541204612
 20
-162.9030625677812
 10
112.0737792688566
 20
-162.8985839436504
 10
112.0737792688566
 20
-162.8985839436504
 10
111.976283066624
 20
-162.672585679818
 10
111.976283066624
 20
-162.672585679818
 10
112.0059108877971
 20
-162.6787868516914
 10
112.0630994728523
 20
-162.687055080856
 10
112.1795437002537
 20
-162.687055080856
 10
112.2577473677689
 20
-162.687055080856
 10
112.2598144250601
 20
-162.645024915936
 10
112.2598144250601
 20
-162.5878363308808
 10
112.2598144250601
 20
-162.5878363308808
 10
112.2598144250601
 20
-162.238848158225
 10
112.2598144250601
 20
-162.238848158225
 10
112.2598144250601
 20
-162.238848158225
 10
111.8005831968762
 20
-162.238848158225
 10
111.8005831968762
 20
-162.238848158225
 10
111.8029947637159
 20
-162.3763074680865
 10
111.8050618210071
 20
-162.5750894775854
 10
111.8112629928805
 20
-162.7084146728646
 10
111.8133300501717
 20
-162.7359754367466
 10
111.8133300501717
 20
-162.7804171685063
 10
111.8260769034671
 20
-162.8417398681437
 10
111.8260769034671
 20
-162.8417398681437
 10
111.5849202194996
 20
-162.8417398681437
 10
111.5849202194996
 20
-162.8417398681437
 10
111.6104139260905
 20
-162.7166829020292
 10
111.6104139260905
 20
-162.3763074680865
 10
111.6104139260905
 20
-162.238848158225
 10
111.6104139260905
 20
-162.238848158225
 10
111.1680636657844
 20
-162.238848158225
 10
111.1680636657844
 20
-162.238848158225
 10
111.1449815260332
 20
-162.4458983968885
 10
111.0795247118135
 20
-162.714615844738
 10
110.8824652500572
 20
-162.8985839436504
 10
110.8824652500572
 20
-162.8985839436504
 10
110.6943630365625
 20
-162.7759385443755
 10
110.6943630365625
 20
-162.7759385443755
 10
110.9482665738254
 20
-162.5561414524165
 10
110.9799614522897
 20
-162.2240342476385
 10
110.9799614522897
 20
-161.8919270428603
 10
110.9799614522897
 20
-161.8919270428603
 10
110.9799614522897
 20
-161.4561224639762
 10
110.9799614522897
 20
-161.4561224639762
 10
110.9799614522897
 20
-161.4199489613811
 10
110.9778943949986
 20
-161.1874050161268
 10
110.9692816562855
 20
-161.0857746993119
 10
111.1091525329866
 20
-161.0964544953162
 10
111.3503092169541
 20
-161.0964544953162
 10
111.493969698689
 20
-161.0964544953162
 10
111.493969698689
 20
-161.0964544953162
 10
111.9532009268728
 20
-161.0964544953162
 10
111.9532009268728
 20
-161.0964544953162
 10
111.9680148374594
 20
-161.0964544953162
 10
112.3170030101152
 20
-161.0964544953162
 10
112.4754774024367
 20
-161.0857746993119
 10
112.4734103451455
 20
-161.1388291697847
 10
112.4672091732721
 20
-161.2993706193974
 10
112.4672091732721
 20
-161.3503580325791
 10
112.4672091732721
 20
-161.3503580325791
 10
112.4672091732721
 20
-161.9573838570801
 10
112.4672091732721
 20
-161.9573838570801
 10
112.4672091732721
 20
-161.9766763917975
 10
112.4775444597278
 20
-162.5478732232519
 10
112.4775444597278
 20
-162.6598388265226
 10
112.4775444597278
 20
-162.7166829020292
 10
112.4775444597278
 20
-162.8186577283926
 10
112.3952066776304
 20
-162.8648220078949
 97
        0
 97
        0
 92
        1
 93
        4
 72
     1
 10
111.6104139260905
 20
-161.2783555369374
 11
111.1725422899152
 21
-161.2783555369374
 72
     1
 10
111.1725422899152
 20
-161.2783555369374
 11
111.1725422899152
 21
-161.5829019778334
 72
     1
 10
111.1725422899152
 20
-161.5829019778334
 11
111.6104139260905
 21
-161.5829019778334
 72
     1
 10
111.6104139260905
 20
-161.5829019778334
 11
111.6104139260905
 21
-161.2783555369374
 97
        0
 92
        1
 93
        4
 72
     1
 10
111.6104139260905
 20
-161.7499891088681
 11
111.1725422899152
 21
-161.7499891088681
 72
     1
 10
111.1725422899152
 20
-161.7499891088681
 11
111.1725422899152
 21
-162.059014173895
 72
     1
 10
111.1725422899152
 20
-162.059014173895
 11
111.6104139260905
 21
-162.059014173895
 72
     1
 10
111.6104139260905
 20
-162.059014173895
 11
111.6104139260905
 21
-161.7499891088681
 97
        0
 92
        1
 93
        4
 72
     1
 10
112.2598144250601
 20
-161.2783555369374
 11
111.8005831968762
 21
-161.2783555369374
 72
     1
 10
111.8005831968762
 20
-161.2783555369374
 11
111.8005831968762
 21
-161.5829019778334
 72
     1
 10
111.8005831968762
 20
-161.5829019778334
 11
112.2598144250601
 21
-161.5829019778334
 72
     1
 10
112.2598144250601
 20
-161.5829019778334
 11
112.2598144250601
 21
-161.2783555369374
 97
        0
 92
        1
 93
        4
 72
     1
 10
112.2598144250601
 20
-161.7499891088681
 11
111.8005831968762
 21
-161.7499891088681
 72
     1
 10
111.8005831968762
 20
-161.7499891088681
 11
111.8005831968762
 21
-162.059014173895
 72
     1
 10
111.8005831968762
 20
-162.059014173895
 11
112.2598144250601
 21
-162.059014173895
 72
     1
 10
112.2598144250601
 20
-162.059014173895
 11
112.2598144250601
 21
-161.7499891088681
 97
        0
 75
     2
 76
     1
 98
        0
  0
SPLINE
  5
145
330
114
100
AcDbEntity
  8
_U+30EC_U+30A4_U+30E4_U+30FC 1
370
     0
100
AcDbSpline
210
0.0
220
0.0
230
1.0
 70
    11
 71
     3
 72
    44
 73
    40
 74
     0
 42
0.0000000001
 43
0.0000000001
 12
1.0
 22
0.0
 32
0.0
 13
1.0
 23
0.0
 33
0.0
 40
0.0
 40
0.0
 40
0.0
 40
0.0
 40
1.0
 40
1.0
 40
1.0
 40
2.0
 40
2.0
 40
2.0
 40
3.0
 40
3.0
 40
3.0
 40
4.0
 40
4.0
 40
4.0
 40
5.0
 40
5.0
 40
5.0
 40
6.0
 40
6.0
 40
6.0
 40
7.0
 40
7.0
 40
7.0
 40
8.0
 40
8.0
 40
8.0
 40
9.0
 40
9.0
 40
9.0
 40
10.0
 40
10.0
 40
10.0
 40
11.0
 40
11.0
 40
11.0
 40
12.0
 40
12.0
 40
12.0
 40
13.0
 40
13.0
 40
13.0
 40
13.0
 10
107.9437988011391
 20
-164.1546657575724
 30
0.0
 10
107.8318331978684
 20
-164.5229464649456
 30
0.0
 10
107.7811902942353
 20
-164.6817653668157
 30
0.0
 10
107.5844753420275
 20
-164.9311902799478
 30
0.0
 10
107.4001627335666
 20
-165.1620116774595
 30
0.0
 10
107.16348467373
 20
-165.348046833663
 30
0.0
 10
106.8840874298762
 20
-165.4410644117647
 30
0.0
 10
106.8840874298762
 20
-165.4410644117647
 30
0.0
 10
106.6915065922507
 20
-165.2612304274347
 30
0.0
 10
106.6915065922507
 20
-165.2612304274347
 30
0.0
 10
107.3326388620557
 20
-165.1089572069866
 30
0.0
 10
107.6626790095427
 20
-164.5525742861188
 30
0.0
 10
107.7260687664713
 20
-164.1126355926524
 30
0.0
 10
107.7260687664713
 20
-164.1126355926524
 30
0.0
 10
106.9602240401002
 20
-164.1126355926524
 30
0.0
 10
106.9602240401002
 20
-164.1126355926524
 30
0.0
 10
106.8672064619985
 20
-164.1126355926524
 30
0.0
 10
106.6832383630861
 20
-164.1167697072347
 30
0.0
 10
106.5264865185073
 20
-164.1357177324036
 30
0.0
 10
106.5264865185073
 20
-164.1357177324036
 30
0.0
 10
106.5264865185073
 20
-163.9155761308961
 30
0.0
 10
106.5264865185073
 20
-163.9155761308961
 30
0.0
 10
106.6133029247356
 20
-163.9369357229046
 30
0.0
 10
106.8651394047073
 20
-163.9369357229046
 30
0.0
 10
106.9643581546825
 20
-163.9369357229046
 30
0.0
 10
106.9643581546825
 20
-163.9369357229046
 30
0.0
 10
107.3960286189843
 20
-163.9369357229046
 30
0.0
 10
107.3960286189843
 20
-163.9369357229046
 30
0.0
 10
107.4384032934529
 20
-163.9369357229046
 30
0.0
 10
107.6730142959984
 20
-163.9348686656135
 30
0.0
 10
107.7112548558847
 20
-163.9286674937401
 30
0.0
 10
107.7536295303533
 20
-163.9221218123181
 30
0.0
 10
107.7556965876444
 20
-163.9200547550269
 30
0.0
 10
107.8170192872819
 20
-163.8797471378495
 30
0.0
 10
107.8170192872819
 20
-163.8797471378495
 30
0.0
 10
108.0051215007765
 20
-164.0340874155887
 30
0.0
 10
108.0051215007765
 20
-164.0340874155887
 30
0.0
 10
107.9758381891519
 20
-164.0637152367619
 30
0.0
 10
107.9610242785653
 20
-164.0954101152261
 30
0.0
 10
107.9437988011391
 20
-164.1546657575724
 30
0.0
  0
SPLINE
  5
146
330
114
100
AcDbEntity
  8
_U+30EC_U+30A4_U+30E4_U+30FC 1
370
     0
100
AcDbSpline
210
0.0
220
0.0
230
1.0
 70
    11
 71
     3
 72
    17
 73
    13
 74
     0
 42
0.0000000001
 43
0.0000000001
 12
1.0
 22
0.0
 32
0.0
 13
1.0
 23
0.0
 33
0.0
 40
0.0
 40
0.0
 40
0.0
 40
0.0
 40
1.0
 40
1.0
 40
1.0
 40
2.0
 40
2.0
 40
2.0
 40
3.0
 40
3.0
 40
3.0
 40
4.0
 40
4.0
 40
4.0
 40
4.0
 10
108.1532606066422
 20
-163.9558837480735
 30
0.0
 10
108.026481092785
 20
-163.9558837480735
 30
0.0
 10
107.9248507759702
 20
-163.8542534312587
 30
0.0
 10
107.9248507759702
 20
-163.7274739174015
 30
0.0
 10
107.9248507759702
 20
-163.6006944035443
 30
0.0
 10
108.026481092785
 20
-163.4966525198897
 30
0.0
 10
108.1532606066422
 20
-163.4966525198897
 30
0.0
 10
108.280384630048
 20
-163.4966525198897
 30
0.0
 10
108.384082004154
 20
-163.6006944035443
 30
0.0
 10
108.384082004154
 20
-163.7274739174015
 30
0.0
 10
108.384082004154
 20
-163.8542534312587
 30
0.0
 10
108.280384630048
 20
-163.9558837480735
 30
0.0
 10
108.1532606066422
 20
-163.9558837480735
 30
0.0
  0
SPLINE
  5
147
330
114
100
AcDbEntity
  8
_U+30EC_U+30A4_U+30E4_U+30FC 1
370
     0
100
AcDbSpline
210
0.0
220
0.0
230
1.0
 70
    11
 71
     3
 72
    17
 73
    13
 74
     0
 42
0.0000000001
 43
0.0000000001
 12
1.0
 22
0.0
 32
0.0
 13
1.0
 23
0.0
 33
0.0
 40
0.0
 40
0.0
 40
0.0
 40
0.0
 40
1.0
 40
1.0
 40
1.0
 40
2.0
 40
2.0
 40
2.0
 40
3.0
 40
3.0
 40
3.0
 40
4.0
 40
4.0
 40
4.0
 40
4.0
 10
108.1511935493511
 20
-163.6258436005866
 30
0.0
 10
108.0964165311356
 20
-163.6258436005866
 30
0.0
 10
108.0519747993759
 20
-163.6702853323463
 30
0.0
 10
108.0519747993759
 20
-163.7254068601103
 30
0.0
 10
108.0519747993759
 20
-163.7825954451655
 30
0.0
 10
108.0964165311356
 20
-163.8311712915075
 30
0.0
 10
108.1553276639334
 20
-163.8311712915075
 30
0.0
 10
108.2145833062797
 20
-163.8311712915075
 30
0.0
 10
108.2548909234571
 20
-163.7805283878743
 30
0.0
 10
108.2548909234571
 20
-163.7274739174015
 30
0.0
 10
108.2548909234571
 20
-163.6702853323463
 30
0.0
 10
108.2083821344062
 20
-163.6258436005866
 30
0.0
 10
108.1511935493511
 20
-163.6258436005866
 30
0.0
  0
HATCH
  5
148
330
114
100
AcDbEntity
  8
_U+30EC_U+30A4_U+30E4_U+30FC 1
 62
     7
420
 16777215
100
AcDbHatch
 10
0.0
 20
0.0
 30
0.0
210
0.0
220
0.0
230
1.0
  2
SOLID
 70
     1
 71
     0
 91
        3
 92
        1
 93
        1
 72
     4
 94
        3
 73
     0
 74
     1
 95
       44
 96
       40
 40
0.0
 40
0.0
 40
0.0
 40
0.0
 40
1.0
 40
1.0
 40
1.0
 40
2.0
 40
2.0
 40
2.0
 40
3.0
 40
3.0
 40
3.0
 40
4.0
 40
4.0
 40
4.0
 40
5.0
 40
5.0
 40
5.0
 40
6.0
 40
6.0
 40
6.0
 40
7.0
 40
7.0
 40
7.0
 40
8.0
 40
8.0
 40
8.0
 40
9.0
 40
9.0
 40
9.0
 40
10.0
 40
10.0
 40
10.0
 40
11.0
 40
11.0
 40
11.0
 40
12.0
 40
12.0
 40
12.0
 40
13.0
 40
13.0
 40
13.0
 40
13.0
 10
107.9437988011391
 20
-164.1546657575724
 10
107.8318331978684
 20
-164.5229464649456
 10
107.7811902942353
 20
-164.6817653668157
 10
107.5844753420275
 20
-164.9311902799478
 10
107.4001627335666
 20
-165.1620116774595
 10
107.16348467373
 20
-165.348046833663
 10
106.8840874298762
 20
-165.4410644117647
 10
106.8840874298762
 20
-165.4410644117647
 10
106.6915065922507
 20
-165.2612304274347
 10
106.6915065922507
 20
-165.2612304274347
 10
107.3326388620557
 20
-165.1089572069866
 10
107.6626790095427
 20
-164.5525742861188
 10
107.7260687664713
 20
-164.1126355926524
 10
107.7260687664713
 20
-164.1126355926524
 10
106.9602240401002
 20
-164.1126355926524
 10
106.9602240401002
 20
-164.1126355926524
 10
106.8672064619985
 20
-164.1126355926524
 10
106.6832383630861
 20
-164.1167697072347
 10
106.5264865185073
 20
-164.1357177324036
 10
106.5264865185073
 20
-164.1357177324036
 10
106.5264865185073
 20
-163.9155761308961
 10
106.5264865185073
 20
-163.9155761308961
 10
106.6133029247356
 20
-163.9369357229046
 10
106.8651394047073
 20
-163.9369357229046
 10
106.9643581546825
 20
-163.9369357229046
 10
106.9643581546825
 20
-163.9369357229046
 10
107.3960286189843
 20
-163.9369357229046
 10
107.3960286189843
 20
-163.9369357229046
 10
107.4384032934529
 20
-163.9369357229046
 10
107.6730142959984
 20
-163.9348686656135
 10
107.7112548558847
 20
-163.9286674937401
 10
107.7536295303533
 20
-163.9221218123181
 10
107.7556965876444
 20
-163.9200547550269
 10
107.8170192872819
 20
-163.8797471378495
 10
107.8170192872819
 20
-163.8797471378495
 10
108.0051215007765
 20
-164.0340874155887
 10
108.0051215007765
 20
-164.0340874155887
 10
107.9758381891519
 20
-164.0637152367619
 10
107.9610242785653
 20
-164.0954101152261
 10
107.9437988011391
 20
-164.1546657575724
 97
        0
 97
        0
 92
        1
 93
        1
 72
     4
 94
        3
 73
     0
 74
     1
 95
       17
 96
       13
 40
0.0
 40
0.0
 40
0.0
 40
0.0
 40
1.0
 40
1.0
 40
1.0
 40
2.0
 40
2.0
 40
2.0
 40
3.0
 40
3.0
 40
3.0
 40
4.0
 40
4.0
 40
4.0
 40
4.0
 10
108.1532606066422
 20
-163.9558837480735
 10
108.026481092785
 20
-163.9558837480735
 10
107.9248507759702
 20
-163.8542534312587
 10
107.9248507759702
 20
-163.7274739174015
 10
107.9248507759702
 20
-163.6006944035443
 10
108.026481092785
 20
-163.4966525198897
 10
108.1532606066422
 20
-163.4966525198897
 10
108.280384630048
 20
-163.4966525198897
 10
108.384082004154
 20
-163.6006944035443
 10
108.384082004154
 20
-163.7274739174015
 10
108.384082004154
 20
-163.8542534312587
 10
108.280384630048
 20
-163.9558837480735
 10
108.1532606066422
 20
-163.9558837480735
 97
        0
 97
        0
 92
        1
 93
        1
 72
     4
 94
        3
 73
     0
 74
     1
 95
       17
 96
       13
 40
0.0
 40
0.0
 40
0.0
 40
0.0
 40
1.0
 40
1.0
 40
1.0
 40
2.0
 40
2.0
 40
2.0
 40
3.0
 40
3.0
 40
3.0
 40
4.0
 40
4.0
 40
4.0
 40
4.0
 10
108.1511935493511
 20
-163.6258436005866
 10
108.0964165311356
 20
-163.6258436005866
 10
108.0519747993759
 20
-163.6702853323463
 10
108.0519747993759
 20
-163.7254068601103
 10
108.0519747993759
 20
-163.7825954451655
 10
108.0964165311356
 20
-163.8311712915075
 10
108.1553276639334
 20
-163.8311712915075
 10
108.2145833062797
 20
-163.8311712915075
 10
108.2548909234571
 20
-163.7805283878743
 10
108.2548909234571
 20
-163.7274739174015
 10
108.2548909234571
 20
-163.6702853323463
 10
108.2083821344062
 20
-163.6258436005866
 10
108.1511935493511
 20
-163.6258436005866
 97
        0
 97
        0
 75
     2
 76
     1
 98
        0
  0
SPLINE
  5
149
330
114
100
AcDbEntity
  8
_U+30EC_U+30A4_U+30E4_U+30FC 1
370
     0
100
AcDbSpline
210
0.0
220
0.0
230
1.0
 70
    11
 71
     3
 72
    50
 73
    46
 74
     0
 42
0.0000000001
 43
0.0000000001
 12
1.0
 22
0.0
 32
0.0
 13
1.0
 23
0.0
 33
0.0
 40
0.0
 40
0.0
 40
0.0
 40
0.0
 40
1.0
 40
1.0
 40
1.0
 40
2.0
 40
2.0
 40
2.0
 40
3.0
 40
3.0
 40
3.0
 40
4.0
 40
4.0
 40
4.0
 40
5.0
 40
5.0
 40
5.0
 40
6.0
 40
6.0
 40
6.0
 40
7.0
 40
7.0
 40
7.0
 40
8.0
 40
8.0
 40
8.0
 40
9.0
 40
9.0
 40
9.0
 40
10.0
 40
10.0
 40
10.0
 40
11.0
 40
11.0
 40
11.0
 40
12.0
 40
12.0
 40
12.0
 40
13.0
 40
13.0
 40
13.0
 40
14.0
 40
14.0
 40
14.0
 40
15.0
 40
15.0
 40
15.0
 40
15.0
 10
109.9484998640059
 20
-164.4636908225994
 30
0.0
 10
109.8699516869422
 20
-164.6411132400897
 30
0.0
 10
109.7345594343719
 20
-164.8485079883018
 30
0.0
 10
109.5971001245104
 20
-164.9883788650029
 30
0.0
 10
109.4279459361847
 20
-165.1596001106198
 30
0.0
 10
109.2649929197324
 20
-165.2484835741393
 30
0.0
 10
108.9456325682497
 20
-165.3900769985831
 30
0.0
 10
108.9456325682497
 20
-165.3900769985831
 30
0.0
 10
108.7764783799239
 20
-165.2019747850884
 30
0.0
 10
108.7764783799239
 20
-165.2019747850884
 30
0.0
 10
108.9625135361274
 20
-165.1785481357887
 30
0.0
 10
109.1337347817444
 20
-165.0917317295604
 30
0.0
 10
109.2863525117409
 20
-164.9863118077118
 30
0.0
 10
109.5485242781684
 20
-164.8044107660906
 30
0.0
 10
109.7390380585027
 20
-164.4909070769328
 30
0.0
 10
109.7876139048448
 20
-164.3090060353117
 30
0.0
 10
109.7876139048448
 20
-164.3090060353117
 30
0.0
 10
109.1168538138666
 20
-164.3090060353117
 30
0.0
 10
109.1168538138666
 20
-164.3090060353117
 30
0.0
 10
108.9583794215451
 20
-164.3090060353117
 30
0.0
 10
108.6662353243959
 20
-164.3176187740248
 30
0.0
 10
108.5139621039479
 20
-164.3344997419025
 30
0.0
 10
108.5139621039479
 20
-164.3344997419025
 30
0.0
 10
108.5139621039479
 20
-164.1060899112304
 30
0.0
 10
108.5139621039479
 20
-164.1060899112304
 30
0.0
 10
108.5480685492519
 20
-164.1126355926524
 30
0.0
 10
108.5732177462942
 20
-164.1188367645259
 30
0.0
 10
108.626272216767
 20
-164.1229708791082
 30
0.0
 10
108.7275580240334
 20
-164.1291720509816
 30
0.0
 10
108.9246174857897
 20
-164.1315836178213
 30
0.0
 10
109.0090223251783
 20
-164.1315836178213
 30
0.0
 10
109.0090223251783
 20
-164.1315836178213
 30
0.0
 10
109.514762342413
 20
-164.1315836178213
 30
0.0
 10
109.514762342413
 20
-164.1315836178213
 30
0.0
 10
109.5822862139239
 20
-164.1315836178213
 30
0.0
 10
109.7283582624985
 20
-164.1271049936905
 30
0.0
 10
109.7896809621359
 20
-164.120903821817
 30
0.0
 10
109.8616834577776
 20
-164.1126355926524
 30
0.0
 10
109.8892442216596
 20
-164.0974771725173
 30
0.0
 10
109.9230061574151
 20
-164.0743950327661
 30
0.0
 10
109.9230061574151
 20
-164.0743950327661
 30
0.0
 10
110.0880262311586
 20
-164.2414821638008
 30
0.0
 10
110.0880262311586
 20
-164.2414821638008
 30
0.0
 10
110.018090792808
 20
-164.3090060353117
 30
0.0
 10
109.9715820037571
 20
-164.4130479189662
 30
0.0
 10
109.9484998640059
 20
-164.4636908225994
 30
0.0
  0
SPLINE
  5
14A
330
114
100
AcDbEntity
  8
_U+30EC_U+30A4_U+30E4_U+30FC 1
370
     0
100
AcDbSpline
210
0.0
220
0.0
230
1.0
 70
    11
 71
     3
 72
    29
 73
    25
 74
     0
 42
0.0000000001
 43
0.0000000001
 12
1.0
 22
0.0
 32
0.0
 13
1.0
 23
0.0
 33
0.0
 40
0.0
 40
0.0
 40
0.0
 40
0.0
 40
1.0
 40
1.0
 40
1.0
 40
2.0
 40
2.0
 40
2.0
 40
3.0
 40
3.0
 40
3.0
 40
4.0
 40
4.0
 40
4.0
 40
5.0
 40
5.0
 40
5.0
 40
6.0
 40
6.0
 40
6.0
 40
7.0
 40
7.0
 40
7.0
 40
8.0
 40
8.0
 40
8.0
 40
8.0
 10
109.4555067000667
 20
-163.8377169729295
 30
0.0
 10
109.4555067000667
 20
-163.8377169729295
 30
0.0
 10
109.1147867565755
 20
-163.8377169729295
 30
0.0
 10
109.1147867565755
 20
-163.8377169729295
 30
0.0
 10
109.0007540960137
 20
-163.8377169729295
 30
0.0
 10
108.8843098686123
 20
-163.8418510875118
 30
0.0
 10
108.769932698502
 20
-163.8563204885498
 30
0.0
 10
108.769932698502
 20
-163.8563204885498
 30
0.0
 10
108.769932698502
 20
-163.6468586830466
 30
0.0
 10
108.769932698502
 20
-163.6468586830466
 30
0.0
 10
108.8884439831946
 20
-163.6620171031817
 30
0.0
 10
109.0620767956512
 20
-163.666151217764
 30
0.0
 10
109.1147867565755
 20
-163.666151217764
 30
0.0
 10
109.1147867565755
 20
-163.666151217764
 30
0.0
 10
109.4555067000667
 20
-163.666151217764
 30
0.0
 10
109.4555067000667
 20
-163.666151217764
 30
0.0
 10
109.5719509274681
 20
-163.666151217764
 30
0.0
 10
109.688050645321
 20
-163.6620171031817
 30
0.0
 10
109.8044948727225
 20
-163.6468586830466
 30
0.0
 10
109.8044948727225
 20
-163.6468586830466
 30
0.0
 10
109.8044948727225
 20
-163.8563204885498
 30
0.0
 10
109.8044948727225
 20
-163.8563204885498
 30
0.0
 10
109.6542887095656
 20
-163.8377169729295
 30
0.0
 10
109.4703206106533
 20
-163.8377169729295
 30
0.0
 10
109.4555067000667
 20
-163.8377169729295
 30
0.0
  0
HATCH
  5
14B
330
114
100
AcDbEntity
  8
_U+30EC_U+30A4_U+30E4_U+30FC 1
 62
     7
420
 16777215
100
AcDbHatch
 10
0.0
 20
0.0
 30
0.0
210
0.0
220
0.0
230
1.0
  2
SOLID
 70
     1
 71
     0
 91
        2
 92
        1
 93
        1
 72
     4
 94
        3
 73
     0
 74
     1
 95
       50
 96
       46
 40
0.0
 40
0.0
 40
0.0
 40
0.0
 40
1.0
 40
1.0
 40
1.0
 40
2.0
 40
2.0
 40
2.0
 40
3.0
 40
3.0
 40
3.0
 40
4.0
 40
4.0
 40
4.0
 40
5.0
 40
5.0
 40
5.0
 40
6.0
 40
6.0
 40
6.0
 40
7.0
 40
7.0
 40
7.0
 40
8.0
 40
8.0
 40
8.0
 40
9.0
 40
9.0
 40
9.0
 40
10.0
 40
10.0
 40
10.0
 40
11.0
 40
11.0
 40
11.0
 40
12.0
 40
12.0
 40
12.0
 40
13.0
 40
13.0
 40
13.0
 40
14.0
 40
14.0
 40
14.0
 40
15.0
 40
15.0
 40
15.0
 40
15.0
 10
109.9484998640059
 20
-164.4636908225994
 10
109.8699516869422
 20
-164.6411132400897
 10
109.7345594343719
 20
-164.8485079883018
 10
109.5971001245104
 20
-164.9883788650029
 10
109.4279459361847
 20
-165.1596001106198
 10
109.2649929197324
 20
-165.2484835741393
 10
108.9456325682497
 20
-165.3900769985831
 10
108.9456325682497
 20
-165.3900769985831
 10
108.7764783799239
 20
-165.2019747850884
 10
108.7764783799239
 20
-165.2019747850884
 10
108.9625135361274
 20
-165.1785481357887
 10
109.1337347817444
 20
-165.0917317295604
 10
109.2863525117409
 20
-164.9863118077118
 10
109.5485242781684
 20
-164.8044107660906
 10
109.7390380585027
 20
-164.4909070769328
 10
109.7876139048448
 20
-164.3090060353117
 10
109.7876139048448
 20
-164.3090060353117
 10
109.1168538138666
 20
-164.3090060353117
 10
109.1168538138666
 20
-164.3090060353117
 10
108.9583794215451
 20
-164.3090060353117
 10
108.6662353243959
 20
-164.3176187740248
 10
108.5139621039479
 20
-164.3344997419025
 10
108.5139621039479
 20
-164.3344997419025
 10
108.5139621039479
 20
-164.1060899112304
 10
108.5139621039479
 20
-164.1060899112304
 10
108.5480685492519
 20
-164.1126355926524
 10
108.5732177462942
 20
-164.1188367645259
 10
108.626272216767
 20
-164.1229708791082
 10
108.7275580240334
 20
-164.1291720509816
 10
108.9246174857897
 20
-164.1315836178213
 10
109.0090223251783
 20
-164.1315836178213
 10
109.0090223251783
 20
-164.1315836178213
 10
109.514762342413
 20
-164.1315836178213
 10
109.514762342413
 20
-164.1315836178213
 10
109.5822862139239
 20
-164.1315836178213
 10
109.7283582624985
 20
-164.1271049936905
 10
109.7896809621359
 20
-164.120903821817
 10
109.8616834577776
 20
-164.1126355926524
 10
109.8892442216596
 20
-164.0974771725173
 10
109.9230061574151
 20
-164.0743950327661
 10
109.9230061574151
 20
-164.0743950327661
 10
110.0880262311586
 20
-164.2414821638008
 10
110.0880262311586
 20
-164.2414821638008
 10
110.018090792808
 20
-164.3090060353117
 10
109.9715820037571
 20
-164.4130479189662
 10
109.9484998640059
 20
-164.4636908225994
 97
        0
 97
        0
 92
        1
 93
        1
 72
     4
 94
        3
 73
     0
 74
     1
 95
       29
 96
       25
 40
0.0
 40
0.0
 40
0.0
 40
0.0
 40
1.0
 40
1.0
 40
1.0
 40
2.0
 40
2.0
 40
2.0
 40
3.0
 40
3.0
 40
3.0
 40
4.0
 40
4.0
 40
4.0
 40
5.0
 40
5.0
 40
5.0
 40
6.0
 40
6.0
 40
6.0
 40
7.0
 40
7.0
 40
7.0
 40
8.0
 40
8.0
 40
8.0
 40
8.0
 10
109.4555067000667
 20
-163.8377169729295
 10
109.4555067000667
 20
-163.8377169729295
 10
109.1147867565755
 20
-163.8377169729295
 10
109.1147867565755
 20
-163.8377169729295
 10
109.0007540960137
 20
-163.8377169729295
 10
108.8843098686123
 20
-163.8418510875118
 10
108.769932698502
 20
-163.8563204885498
 10
108.769932698502
 20
-163.8563204885498
 10
108.769932698502
 20
-163.6468586830466
 10
108.769932698502
 20
-163.6468586830466
 10
108.8884439831946
 20
-163.6620171031817
 10
109.0620767956512
 20
-163.666151217764
 10
109.1147867565755
 20
-163.666151217764
 10
109.1147867565755
 20
-163.666151217764
 10
109.4555067000667
 20
-163.666151217764
 10
109.4555067000667
 20
-163.666151217764
 10
109.5719509274681
 20
-163.666151217764
 10
109.688050645321
 20
-163.6620171031817
 10
109.8044948727225
 20
-163.6468586830466
 10
109.8044948727225
 20
-163.6468586830466
 10
109.8044948727225
 20
-163.8563204885498
 10
109.8044948727225
 20
-163.8563204885498
 10
109.6542887095656
 20
-163.8377169729295
 10
109.4703206106533
 20
-163.8377169729295
 10
109.4555067000667
 20
-163.8377169729295
 97
        0
 97
        0
 75
     2
 76
     1
 98
        0
  0
SPLINE
  5
14C
330
114
100
AcDbEntity
  8
_U+30EC_U+30A4_U+30E4_U+30FC 1
370
     0
100
AcDbSpline
210
0.0
220
0.0
230
1.0
 70
    11
 71
     3
 72
    50
 73
    46
 74
     0
 42
0.0000000001
 43
0.0000000001
 12
1.0
 22
0.0
 32
0.0
 13
1.0
 23
0.0
 33
0.0
 40
0.0
 40
0.0
 40
0.0
 40
0.0
 40
1.0
 40
1.0
 40
1.0
 40
2.0
 40
2.0
 40
2.0
 40
3.0
 40
3.0
 40
3.0
 40
4.0
 40
4.0
 40
4.0
 40
5.0
 40
5.0
 40
5.0
 40
6.0
 40
6.0
 40
6.0
 40
7.0
 40
7.0
 40
7.0
 40
8.0
 40
8.0
 40
8.0
 40
9.0
 40
9.0
 40
9.0
 40
10.0
 40
10.0
 40
10.0
 40
11.0
 40
11.0
 40
11.0
 40
12.0
 40
12.0
 40
12.0
 40
13.0
 40
13.0
 40
13.0
 40
14.0
 40
14.0
 40
14.0
 40
15.0
 40
15.0
 40
15.0
 40
15.0
 10
111.658645262884
 20
-163.8225585527944
 30
0.0
 10
111.4491834573808
 20
-164.0361544728799
 30
0.0
 10
111.3775254712876
 20
-164.1085014780701
 30
0.0
 10
111.2355875372953
 20
-164.2266682532142
 30
0.0
 10
111.2355875372953
 20
-164.2266682532142
 30
0.0
 10
111.2355875372953
 20
-164.7937309700863
 30
0.0
 10
111.2355875372953
 20
-164.7937309700863
 30
0.0
 10
111.2355875372953
 20
-164.9439371332432
 30
0.0
 10
111.2421332187172
 20
-164.9628851584121
 30
0.0
 10
111.2462673332996
 20
-165.140652085451
 30
0.0
 10
111.2483343905907
 20
-165.2715657138905
 30
0.0
 10
111.2545355624642
 20
-165.320486069781
 30
0.0
 10
111.2610812438861
 20
-165.3797417121273
 30
0.0
 10
111.2610812438861
 20
-165.3797417121273
 30
0.0
 10
111.0347384705052
 20
-165.3797417121273
 30
0.0
 10
111.0347384705052
 20
-165.3797417121273
 30
0.0
 10
111.0388725850875
 20
-165.3352999803676
 30
0.0
 10
111.0430066996698
 20
-165.2887911913167
 30
0.0
 10
111.0430066996698
 20
-165.2801784526036
 30
0.0
 10
111.0430066996698
 20
-165.1999077277972
 30
0.0
 10
111.0474853238006
 20
-164.8485079883018
 30
0.0
 10
111.0474853238006
 20
-164.7768500022086
 30
0.0
 10
111.0474853238006
 20
-164.7768500022086
 30
0.0
 10
111.0474853238006
 20
-164.3703287349491
 30
0.0
 10
111.0474853238006
 20
-164.3703287349491
 30
0.0
 10
110.8655842821794
 20
-164.4953857010637
 30
0.0
 10
110.6709363872628
 20
-164.6052842470431
 30
0.0
 10
110.4676757536331
 20
-164.6921006532714
 30
0.0
 10
110.4676757536331
 20
-164.6921006532714
 30
0.0
 10
110.2647596295519
 20
-164.5291476368191
 30
0.0
 10
110.2647596295519
 20
-164.5291476368191
 30
0.0
 10
110.3874050288268
 20
-164.4933186437725
 30
0.0
 10
110.6433756233808
 20
-164.4192490908396
 30
0.0
 10
110.9882296814543
 20
-164.1632784962856
 30
0.0
 10
111.203892658831
 20
-164.0044595944156
 30
0.0
 10
111.3964734964564
 20
-163.8163573809209
 30
0.0
 10
111.5487467169045
 20
-163.5962157794135
 30
0.0
 10
111.5487467169045
 20
-163.5962157794135
 30
0.0
 10
111.7413275545299
 20
-163.7402207706969
 30
0.0
 10
111.7413275545299
 20
-163.7402207706969
 30
0.0
 10
111.7540744078254
 20
-163.7509005667012
 30
0.0
 10
111.76234263699
 20
-163.7653699677392
 30
0.0
 10
111.76234263699
 20
-163.7784613305832
 30
0.0
 10
111.76234263699
 20
-163.8184244382121
 30
0.0
 10
111.7244465866522
 20
-163.8184244382121
 30
0.0
 10
111.658645262884
 20
-163.8225585527944
 30
0.0
  0
HATCH
  5
14D
330
114
100
AcDbEntity
  8
_U+30EC_U+30A4_U+30E4_U+30FC 1
 62
     7
420
 16777215
100
AcDbHatch
 10
0.0
 20
0.0
 30
0.0
210
0.0
220
0.0
230
1.0
  2
SOLID
 70
     1
 71
     0
 91
        1
 92
        1
 93
        1
 72
     4
 94
        3
 73
     0
 74
     1
 95
       50
 96
       46
 40
0.0
 40
0.0
 40
0.0
 40
0.0
 40
1.0
 40
1.0
 40
1.0
 40
2.0
 40
2.0
 40
2.0
 40
3.0
 40
3.0
 40
3.0
 40
4.0
 40
4.0
 40
4.0
 40
5.0
 40
5.0
 40
5.0
 40
6.0
 40
6.0
 40
6.0
 40
7.0
 40
7.0
 40
7.0
 40
8.0
 40
8.0
 40
8.0
 40
9.0
 40
9.0
 40
9.0
 40
10.0
 40
10.0
 40
10.0
 40
11.0
 40
11.0
 40
11.0
 40
12.0
 40
12.0
 40
12.0
 40
13.0
 40
13.0
 40
13.0
 40
14.0
 40
14.0
 40
14.0
 40
15.0
 40
15.0
 40
15.0
 40
15.0
 10
111.658645262884
 20
-163.8225585527944
 10
111.4491834573808
 20
-164.0361544728799
 10
111.3775254712876
 20
-164.1085014780701
 10
111.2355875372953
 20
-164.2266682532142
 10
111.2355875372953
 20
-164.2266682532142
 10
111.2355875372953
 20
-164.7937309700863
 10
111.2355875372953
 20
-164.7937309700863
 10
111.2355875372953
 20
-164.9439371332432
 10
111.2421332187172
 20
-164.9628851584121
 10
111.2462673332996
 20
-165.140652085451
 10
111.2483343905907
 20
-165.2715657138905
 10
111.2545355624642
 20
-165.320486069781
 10
111.2610812438861
 20
-165.3797417121273
 10
111.2610812438861
 20
-165.3797417121273
 10
111.0347384705052
 20
-165.3797417121273
 10
111.0347384705052
 20
-165.3797417121273
 10
111.0388725850875
 20
-165.3352999803676
 10
111.0430066996698
 20
-165.2887911913167
 10
111.0430066996698
 20
-165.2801784526036
 10
111.0430066996698
 20
-165.1999077277972
 10
111.0474853238006
 20
-164.8485079883018
 10
111.0474853238006
 20
-164.7768500022086
 10
111.0474853238006
 20
-164.7768500022086
 10
111.0474853238006
 20
-164.3703287349491
 10
111.0474853238006
 20
-164.3703287349491
 10
110.8655842821794
 20
-164.4953857010637
 10
110.6709363872628
 20
-164.6052842470431
 10
110.4676757536331
 20
-164.6921006532714
 10
110.4676757536331
 20
-164.6921006532714
 10
110.2647596295519
 20
-164.5291476368191
 10
110.2647596295519
 20
-164.5291476368191
 10
110.3874050288268
 20
-164.4933186437725
 10
110.6433756233808
 20
-164.4192490908396
 10
110.9882296814543
 20
-164.1632784962856
 10
111.203892658831
 20
-164.0044595944156
 10
111.3964734964564
 20
-163.8163573809209
 10
111.5487467169045
 20
-163.5962157794135
 10
111.5487467169045
 20
-163.5962157794135
 10
111.7413275545299
 20
-163.7402207706969
 10
111.7413275545299
 20
-163.7402207706969
 10
111.7540744078254
 20
-163.7509005667012
 10
111.76234263699
 20
-163.7653699677392
 10
111.76234263699
 20
-163.7784613305832
 10
111.76234263699
 20
-163.8184244382121
 10
111.7244465866522
 20
-163.8184244382121
 10
111.658645262884
 20
-163.8225585527944
 97
        0
 97
        0
 75
     2
 76
     1
 98
        0
  0
SPLINE
  5
14E
330
114
100
AcDbEntity
  8
_U+30EC_U+30A4_U+30E4_U+30FC 1
370
     0
100
AcDbSpline
210
0.0
220
0.0
230
1.0
 70
    11
 71
     3
 72
    50
 73
    46
 74
     0
 42
0.0000000001
 43
0.0000000001
 12
1.0
 22
0.0
 32
0.0
 13
1.0
 23
0.0
 33
0.0
 40
0.0
 40
0.0
 40
0.0
 40
0.0
 40
1.0
 40
1.0
 40
1.0
 40
2.0
 40
2.0
 40
2.0
 40
3.0
 40
3.0
 40
3.0
 40
4.0
 40
4.0
 40
4.0
 40
5.0
 40
5.0
 40
5.0
 40
6.0
 40
6.0
 40
6.0
 40
7.0
 40
7.0
 40
7.0
 40
8.0
 40
8.0
 40
8.0
 40
9.0
 40
9.0
 40
9.0
 40
10.0
 40
10.0
 40
10.0
 40
11.0
 40
11.0
 40
11.0
 40
12.0
 40
12.0
 40
12.0
 40
13.0
 40
13.0
 40
13.0
 40
14.0
 40
14.0
 40
14.0
 40
15.0
 40
15.0
 40
15.0
 40
15.0
 10
113.3670681140193
 20
-164.3496581620376
 30
0.0
 10
113.3057454143819
 20
-164.4213161481308
 30
0.0
 10
113.045296195697
 20
-164.7386094423223
 30
0.0
 10
112.9884521201904
 20
-164.8023437087994
 30
0.0
 10
113.072856959579
 20
-164.8994954014835
 30
0.0
 10
113.1238443727607
 20
-164.9628851584121
 30
0.0
 10
113.1893011869805
 20
-165.0538356792227
 30
0.0
 10
113.1893011869805
 20
-165.0538356792227
 30
0.0
 10
113.0053330880681
 20
-165.1916394986326
 30
0.0
 10
113.0053330880681
 20
-165.1916394986326
 30
0.0
 10
112.8699408354978
 20
-164.9797661262898
 30
0.0
 10
112.6983750803324
 20
-164.7554904102
 30
0.0
 10
112.4045084354405
 20
-164.5567084007011
 30
0.0
 10
112.4045084354405
 20
-164.5567084007011
 30
0.0
 10
112.5526475413063
 20
-164.4023681229619
 30
0.0
 10
112.5526475413063
 20
-164.4023681229619
 30
0.0
 10
112.6625460872858
 20
-164.4826388477682
 30
0.0
 10
112.7662434613918
 20
-164.5715223112877
 30
0.0
 10
112.8633951540758
 20
-164.6666069466806
 30
0.0
 10
112.9312635351352
 20
-164.5908148460051
 30
0.0
 10
113.1341796592165
 20
-164.3472465951979
 30
0.0
 10
113.2675048544956
 20
-164.1188367645259
 30
0.0
 10
113.2675048544956
 20
-164.1188367645259
 30
0.0
 10
112.5946777062263
 20
-164.1188367645259
 30
0.0
 10
112.5946777062263
 20
-164.1188367645259
 30
0.0
 10
112.4699652496603
 20
-164.1188367645259
 30
0.0
 10
112.2181287696885
 20
-164.1271049936905
 30
0.0
 10
112.0086669641853
 20
-164.1377847896947
 30
0.0
 10
112.0086669641853
 20
-164.1377847896947
 30
0.0
 10
112.0086669641853
 20
-163.9176431881873
 30
0.0
 10
112.0086669641853
 20
-163.9176431881873
 30
0.0
 10
112.1929795726462
 20
-163.9369357229046
 30
0.0
 10
112.3979627540186
 20
-163.941069837487
 30
0.0
 10
112.5864094770617
 20
-163.941069837487
 30
0.0
 10
112.5864094770617
 20
-163.941069837487
 30
0.0
 10
113.0897379274567
 20
-163.941069837487
 30
0.0
 10
113.0897379274567
 20
-163.941069837487
 30
0.0
 10
113.4283908136568
 20
-163.941069837487
 30
0.0
 10
113.4728325454165
 20
-163.9262559269004
 30
0.0
 10
113.555170327514
 20
-163.885948309723
 30
0.0
 10
113.555170327514
 20
-163.885948309723
 30
0.0
 10
113.7222574585486
 20
-164.044767211593
 30
0.0
 10
113.7222574585486
 20
-164.044767211593
 30
0.0
 10
113.5699842381006
 20
-164.1167697072347
 30
0.0
 10
113.4263237563656
 20
-164.2793782141385
 30
0.0
 10
113.3670681140193
 20
-164.3496581620376
 30
0.0
  0
HATCH
  5
14F
330
114
100
AcDbEntity
  8
_U+30EC_U+30A4_U+30E4_U+30FC 1
 62
     7
420
 16777215
100
AcDbHatch
 10
0.0
 20
0.0
 30
0.0
210
0.0
220
0.0
230
1.0
  2
SOLID
 70
     1
 71
     0
 91
        1
 92
        1
 93
        1
 72
     4
 94
        3
 73
     0
 74
     1
 95
       50
 96
       46
 40
0.0
 40
0.0
 40
0.0
 40
0.0
 40
1.0
 40
1.0
 40
1.0
 40
2.0
 40
2.0
 40
2.0
 40
3.0
 40
3.0
 40
3.0
 40
4.0
 40
4.0
 40
4.0
 40
5.0
 40
5.0
 40
5.0
 40
6.0
 40
6.0
 40
6.0
 40
7.0
 40
7.0
 40
7.0
 40
8.0
 40
8.0
 40
8.0
 40
9.0
 40
9.0
 40
9.0
 40
10.0
 40
10.0
 40
10.0
 40
11.0
 40
11.0
 40
11.0
 40
12.0
 40
12.0
 40
12.0
 40
13.0
 40
13.0
 40
13.0
 40
14.0
 40
14.0
 40
14.0
 40
15.0
 40
15.0
 40
15.0
 40
15.0
 10
113.3670681140193
 20
-164.3496581620376
 10
113.3057454143819
 20
-164.4213161481308
 10
113.045296195697
 20
-164.7386094423223
 10
112.9884521201904
 20
-164.8023437087994
 10
113.072856959579
 20
-164.8994954014835
 10
113.1238443727607
 20
-164.9628851584121
 10
113.1893011869805
 20
-165.0538356792227
 10
113.1893011869805
 20
-165.0538356792227
 10
113.0053330880681
 20
-165.1916394986326
 10
113.0053330880681
 20
-165.1916394986326
 10
112.8699408354978
 20
-164.9797661262898
 10
112.6983750803324
 20
-164.7554904102
 10
112.4045084354405
 20
-164.5567084007011
 10
112.4045084354405
 20
-164.5567084007011
 10
112.5526475413063
 20
-164.4023681229619
 10
112.5526475413063
 20
-164.4023681229619
 10
112.6625460872858
 20
-164.4826388477682
 10
112.7662434613918
 20
-164.5715223112877
 10
112.8633951540758
 20
-164.6666069466806
 10
112.9312635351352
 20
-164.5908148460051
 10
113.1341796592165
 20
-164.3472465951979
 10
113.2675048544956
 20
-164.1188367645259
 10
113.2675048544956
 20
-164.1188367645259
 10
112.5946777062263
 20
-164.1188367645259
 10
112.5946777062263
 20
-164.1188367645259
 10
112.4699652496603
 20
-164.1188367645259
 10
112.2181287696885
 20
-164.1271049936905
 10
112.0086669641853
 20
-164.1377847896947
 10
112.0086669641853
 20
-164.1377847896947
 10
112.0086669641853
 20
-163.9176431881873
 10
112.0086669641853
 20
-163.9176431881873
 10
112.1929795726462
 20
-163.9369357229046
 10
112.3979627540186
 20
-163.941069837487
 10
112.5864094770617
 20
-163.941069837487
 10
112.5864094770617
 20
-163.941069837487
 10
113.0897379274567
 20
-163.941069837487
 10
113.0897379274567
 20
-163.941069837487
 10
113.4283908136568
 20
-163.941069837487
 10
113.4728325454165
 20
-163.9262559269004
 10
113.555170327514
 20
-163.885948309723
 10
113.555170327514
 20
-163.885948309723
 10
113.7222574585486
 20
-164.044767211593
 10
113.7222574585486
 20
-164.044767211593
 10
113.5699842381006
 20
-164.1167697072347
 10
113.4263237563656
 20
-164.2793782141385
 10
113.3670681140193
 20
-164.3496581620376
 97
        0
 97
        0
 75
     2
 76
     1
 98
        0
  0
SPLINE
  5
150
330
114
100
AcDbEntity
  8
_U+30EC_U+30A4_U+30E4_U+30FC 1
370
     0
100
AcDbSpline
210
0.0
220
0.0
230
1.0
 70
    11
 71
     3
 72
    29
 73
    25
 74
     0
 42
0.0000000001
 43
0.0000000001
 12
1.0
 22
0.0
 32
0.0
 13
1.0
 23
0.0
 33
0.0
 40
0.0
 40
0.0
 40
0.0
 40
0.0
 40
1.0
 40
1.0
 40
1.0
 40
2.0
 40
2.0
 40
2.0
 40
3.0
 40
3.0
 40
3.0
 40
4.0
 40
4.0
 40
4.0
 40
5.0
 40
5.0
 40
5.0
 40
6.0
 40
6.0
 40
6.0
 40
7.0
 40
7.0
 40
7.0
 40
8.0
 40
8.0
 40
8.0
 40
8.0
 10
114.9907416162176
 20
-164.5928819032962
 30
0.0
 10
114.9907416162176
 20
-164.5928819032962
 30
0.0
 10
114.5063611909915
 20
-164.5928819032962
 30
0.0
 10
114.5063611909915
 20
-164.5928819032962
 30
0.0
 10
114.4788004271095
 20
-164.5928819032962
 30
0.0
 10
114.161507132918
 20
-164.5928819032962
 30
0.0
 10
113.9499782701236
 20
-164.6180311003386
 30
0.0
 10
113.9499782701236
 20
-164.6180311003386
 30
0.0
 10
113.9499782701236
 20
-164.3875542123753
 30
0.0
 10
113.9499782701236
 20
-164.3875542123753
 30
0.0
 10
114.1084526624451
 20
-164.410980861675
 30
0.0
 10
114.2989664427794
 20
-164.4130479189662
 30
0.0
 10
114.5063611909915
 20
-164.4130479189662
 30
0.0
 10
114.5063611909915
 20
-164.4130479189662
 30
0.0
 10
114.9907416162176
 20
-164.4130479189662
 30
0.0
 10
114.9907416162176
 20
-164.4130479189662
 30
0.0
 10
115.1767767724211
 20
-164.4130479189662
 30
0.0
 10
115.3631564381731
 20
-164.410980861675
 30
0.0
 10
115.5471245370855
 20
-164.3875542123753
 30
0.0
 10
115.5471245370855
 20
-164.3875542123753
 30
0.0
 10
115.5471245370855
 20
-164.6180311003386
 30
0.0
 10
115.5471245370855
 20
-164.6180311003386
 30
0.0
 10
115.3631564381731
 20
-164.5949489605874
 30
0.0
 10
115.1154540727836
 20
-164.5928819032962
 30
0.0
 10
114.9907416162176
 20
-164.5928819032962
 30
0.0
  0
HATCH
  5
151
330
114
100
AcDbEntity
  8
_U+30EC_U+30A4_U+30E4_U+30FC 1
 62
     7
420
 16777215
100
AcDbHatch
 10
0.0
 20
0.0
 30
0.0
210
0.0
220
0.0
230
1.0
  2
SOLID
 70
     1
 71
     0
 91
        1
 92
        1
 93
        1
 72
     4
 94
        3
 73
     0
 74
     1
 95
       29
 96
       25
 40
0.0
 40
0.0
 40
0.0
 40
0.0
 40
1.0
 40
1.0
 40
1.0
 40
2.0
 40
2.0
 40
2.0
 40
3.0
 40
3.0
 40
3.0
 40
4.0
 40
4.0
 40
4.0
 40
5.0
 40
5.0
 40
5.0
 40
6.0
 40
6.0
 40
6.0
 40
7.0
 40
7.0
 40
7.0
 40
8.0
 40
8.0
 40
8.0
 40
8.0
 10
114.9907416162176
 20
-164.5928819032962
 10
114.9907416162176
 20
-164.5928819032962
 10
114.5063611909915
 20
-164.5928819032962
 10
114.5063611909915
 20
-164.5928819032962
 10
114.4788004271095
 20
-164.5928819032962
 10
114.161507132918
 20
-164.5928819032962
 10
113.9499782701236
 20
-164.6180311003386
 10
113.9499782701236
 20
-164.6180311003386
 10
113.9499782701236
 20
-164.3875542123753
 10
113.9499782701236
 20
-164.3875542123753
 10
114.1084526624451
 20
-164.410980861675
 10
114.2989664427794
 20
-164.4130479189662
 10
114.5063611909915
 20
-164.4130479189662
 10
114.5063611909915
 20
-164.4130479189662
 10
114.9907416162176
 20
-164.4130479189662
 10
114.9907416162176
 20
-164.4130479189662
 10
115.1767767724211
 20
-164.4130479189662
 10
115.3631564381731
 20
-164.410980861675
 10
115.5471245370855
 20
-164.3875542123753
 10
115.5471245370855
 20
-164.3875542123753
 10
115.5471245370855
 20
-164.6180311003386
 10
115.5471245370855
 20
-164.6180311003386
 10
115.3631564381731
 20
-164.5949489605874
 10
115.1154540727836
 20
-164.5928819032962
 10
114.9907416162176
 20
-164.5928819032962
 97
        0
 97
        0
 75
     2
 76
     1
 98
        0
  0
ENDBLK
  5
117
330
114
100
AcDbEntity
  8
0
100
AcDbBlockEnd
  0
ENDSEC
  0
SECTION
  2
ENTITIES
  0
POLYLINE
  5
41
330
1F
100
AcDbEntity
  8
_U+30EC_U+30A4_U+30E4_U+30FC 1
 62
     7
420
 16777215
370
    25
100
AcDb2dPolyline
 66
     1
 10
0.0
 20
0.0
 30
0.0
  0
VERTEX
  5
42
330
41
100
AcDbEntity
  8
_U+30EC_U+30A4_U+30E4_U+30FC 1
 62
     7
420
 16777215
370
    25
100
AcDbVertex
100
AcDb2dVertex
 10
87.40584277009117
 20
-140.0527777427646
 30
0.0
  0
VERTEX
  5
43
330
41
100
AcDbEntity
  8
_U+30EC_U+30A4_U+30E4_U+30FC 1
 62
     7
420
 16777215
370
    25
100
AcDbVertex
100
AcDb2dVertex
 10
94.49501786700903
 20
-140.0527777427646
 30
0.0
  0
SEQEND
  5
44
330
41
100
AcDbEntity
  8
_U+30EC_U+30A4_U+30E4_U+30FC 1
 62
     7
420
 16777215
370
    25
  0
POLYLINE
  5
45
330
1F
100
AcDbEntity
  8
_U+30EC_U+30A4_U+30E4_U+30FC 1
 62
     7
420
 16777215
370
    25
100
AcDb2dPolyline
 66
     1
 10
0.0
 20
0.0
 30
0.0
  0
VERTEX
  5
46
330
45
100
AcDbEntity
  8
_U+30EC_U+30A4_U+30E4_U+30FC 1
 62
     7
420
 16777215
370
    25
100
AcDbVertex
100
AcDb2dVertex
 10
118.4947364213919
 20
-140.0527777427646
 30
0.0
  0
VERTEX
  5
47
330
45
100
AcDbEntity
  8
_U+30EC_U+30A4_U+30E4_U+30FC 1
 62
     7
420
 16777215
370
    25
100
AcDbVertex
100
AcDb2dVertex
 10
118.4947364213919
 20
-141.0525499647368
 30
0.0
  0
SEQEND
  5
48
330
45
100
AcDbEntity
  8
_U+30EC_U+30A4_U+30E4_U+30FC 1
 62
     7
420
 16777215
370
    25
  0
POLYLINE
  5
49
330
1F
100
AcDbEntity
  8
_U+30EC_U+30A4_U+30E4_U+30FC 1
 62
     7
420
 16777215
370
    25
100
AcDb2dPolyline
 66
     1
 10
0.0
 20
0.0
 30
0.0
  0
VERTEX
  5
4A
330
49
100
AcDbEntity
  8
_U+30EC_U+30A4_U+30E4_U+30FC 1
 62
     7
420
 16777215
370
    25
100
AcDbVertex
100
AcDb2dVertex
 10
96.49487976043275
 20
-141.0525499647368
 30
0.0
  0
VERTEX
  5
4B
330
49
100
AcDbEntity
  8
_U+30EC_U+30A4_U+30E4_U+30FC 1
 62
     7
420
 16777215
370
    25
100
AcDbVertex
100
AcDb2dVertex
 10
118.4947364213919
 20
-141.0525499647368
 30
0.0
  0
SEQEND
  5
4C
330
49
100
AcDbEntity
  8
_U+30EC_U+30A4_U+30E4_U+30FC 1
 62
     7
420
 16777215
370
    25
  0
POLYLINE
  5
4D
330
1F
100
AcDbEntity
  8
_U+30EC_U+30A4_U+30E4_U+30FC 1
 62
     7
420
 16777215
370
    25
100
AcDb2dPolyline
 66
     1
 10
0.0
 20
0.0
 30
0.0
  0
VERTEX
  5
4E
330
4D
100
AcDbEntity
  8
_U+30EC_U+30A4_U+30E4_U+30FC 1
 62
     7
420
 16777215
370
    25
100
AcDbVertex
100
AcDb2dVertex
 10
87.40584277009117
 20
-140.0527777427646
 30
0.0
  0
VERTEX
  5
4F
330
4D
100
AcDbEntity
  8
_U+30EC_U+30A4_U+30E4_U+30FC 1
 62
     7
420
 16777215
370
    25
100
AcDbVertex
100
AcDb2dVertex
 10
87.40584277009117
 20
-141.0532202425145
 30
0.0
  0
SEQEND
  5
50
330
4D
100
AcDbEntity
  8
_U+30EC_U+30A4_U+30E4_U+30FC 1
 62
     7
420
 16777215
370
    25
  0
POLYLINE
  5
51
330
1F
100
AcDbEntity
  8
_U+30EC_U+30A4_U+30E4_U+30FC 1
 62
     7
420
 16777215
370
    25
100
AcDb2dPolyline
 66
     1
 10
0.0
 20
0.0
 30
0.0
  0
VERTEX
  5
52
330
51
100
AcDbEntity
  8
_U+30EC_U+30A4_U+30E4_U+30FC 1
 62
     7
420
 16777215
370
    25
100
AcDbVertex
100
AcDb2dVertex
 10
93.49489289252435
 20
-141.0532202425145
 30
0.0
  0
VERTEX
  5
53
330
51
100
AcDbEntity
  8
_U+30EC_U+30A4_U+30E4_U+30FC 1
 62
     7
420
 16777215
370
    25
100
AcDbVertex
100
AcDb2dVertex
 10
93.49489289252435
 20
-157.5524957939451
 30
0.0
  0
SEQEND
  5
54
330
51
100
AcDbEntity
  8
_U+30EC_U+30A4_U+30E4_U+30FC 1
 62
     7
420
 16777215
370
    25
  0
POLYLINE
  5
55
330
1F
100
AcDbEntity
  8
_U+30EC_U+30A4_U+30E4_U+30FC 1
 62
     7
420
 16777215
370
    25
100
AcDb2dPolyline
 66
     1
 10
0.0
 20
0.0
 30
0.0
  0
VERTEX
  5
56
330
55
100
AcDbEntity
  8
_U+30EC_U+30A4_U+30E4_U+30FC 1
 62
     7
420
 16777215
370
    25
100
AcDbVertex
100
AcDb2dVertex
 10
103.4949784707342
 20
-156.5527235719732
 30
0.0
  0
VERTEX
  5
57
330
55
100
AcDbEntity
  8
_U+30EC_U+30A4_U+30E4_U+30FC 1
 62
     7
420
 16777215
370
    25
100
AcDbVertex
100
AcDb2dVertex
 10
103.4949784707342
 20
-157.0522569051814
 30
0.0
  0
SEQEND
  5
58
330
55
100
AcDbEntity
  8
_U+30EC_U+30A4_U+30E4_U+30FC 1
 62
     7
420
 16777215
370
    25
  0
POLYLINE
  5
59
330
1F
100
AcDbEntity
  8
_U+30EC_U+30A4_U+30E4_U+30FC 1
 62
     7
420
 16777215
370
    25
100
AcDb2dPolyline
 66
     1
 10
0.0
 20
0.0
 30
0.0
  0
VERTEX
  5
5A
330
59
100
AcDbEntity
  8
_U+30EC_U+30A4_U+30E4_U+30FC 1
 62
     7
420
 16777215
370
    25
100
AcDbVertex
100
AcDb2dVertex
 10
96.49487976043275
 20
-156.5527235719732
 30
0.0
  0
VERTEX
  5
5B
330
59
100
AcDbEntity
  8
_U+30EC_U+30A4_U+30E4_U+30FC 1
 62
     7
420
 16777215
370
    25
100
AcDbVertex
100
AcDb2dVertex
 10
103.4949784707342
 20
-156.5527235719732
 30
0.0
  0
SEQEND
  5
5C
330
59
100
AcDbEntity
  8
_U+30EC_U+30A4_U+30E4_U+30FC 1
 62
     7
420
 16777215
370
    25
  0
POLYLINE
  5
5D
330
1F
100
AcDbEntity
  8
_U+30EC_U+30A4_U+30E4_U+30FC 1
 62
     7
420
 16777215
370
    25
100
AcDb2dPolyline
 66
     1
 10
0.0
 20
0.0
 30
0.0
  0
VERTEX
  5
5E
330
5D
100
AcDbEntity
  8
_U+30EC_U+30A4_U+30E4_U+30FC 1
 62
     7
420
 16777215
370
    25
100
AcDbVertex
100
AcDb2dVertex
 10
95.49475478594806
 20
-140.0527777427646
 30
0.0
  0
VERTEX
  5
5F
330
5D
100
AcDbEntity
  8
_U+30EC_U+30A4_U+30E4_U+30FC 1
 62
     7
420
 16777215
370
    25
100
AcDbVertex
100
AcDb2dVertex
 10
118.4947364213919
 20
-140.0527777427646
 30
0.0
  0
SEQEND
  5
60
330
5D
100
AcDbEntity
  8
_U+30EC_U+30A4_U+30E4_U+30FC 1
 62
     7
420
 16777215
370
    25
  0
POLYLINE
  5
61
330
1F
100
AcDbEntity
  8
_U+30EC_U+30A4_U+30E4_U+30FC 1
 62
     7
420
 16777215
370
    25
100
AcDb2dPolyline
 66
     1
 10
0.0
 20
0.0
 30
0.0
  0
VERTEX
  5
62
330
61
100
AcDbEntity
  8
_U+30EC_U+30A4_U+30E4_U+30FC 1
 62
     7
420
 16777215
370
    25
100
AcDbVertex
100
AcDb2dVertex
 10
87.40584277009117
 20
-141.0532202425145
 30
0.0
  0
VERTEX
  5
63
330
61
100
AcDbEntity
  8
_U+30EC_U+30A4_U+30E4_U+30FC 1
 62
     7
420
 16777215
370
    25
100
AcDbVertex
100
AcDb2dVertex
 10
93.49489289252435
 20
-141.0532202425145
 30
0.0
  0
SEQEND
  5
64
330
61
100
AcDbEntity
  8
_U+30EC_U+30A4_U+30E4_U+30FC 1
 62
     7
420
 16777215
370
    25
  0
POLYLINE
  5
65
330
1F
100
AcDbEntity
  8
_U+30EC_U+30A4_U+30E4_U+30FC 1
 62
     7
420
 16777215
370
    25
100
AcDb2dPolyline
 66
     1
 10
0.0
 20
0.0
 30
0.0
  0
VERTEX
  5
66
330
65
100
AcDbEntity
  8
_U+30EC_U+30A4_U+30E4_U+30FC 1
 62
     7
420
 16777215
370
    25
100
AcDbVertex
100
AcDb2dVertex
 10
94.49501786700903
 20
-140.0527777427646
 30
0.0
  0
VERTEX
  5
67
330
65
100
AcDbEntity
  8
_U+30EC_U+30A4_U+30E4_U+30FC 1
 62
     7
420
 16777215
370
    25
100
AcDbVertex
100
AcDb2dVertex
 10
94.49501786700903
 20
-156.5527235719732
 30
0.0
  0
SEQEND
  5
68
330
65
100
AcDbEntity
  8
_U+30EC_U+30A4_U+30E4_U+30FC 1
 62
     7
420
 16777215
370
    25
  0
POLYLINE
  5
69
330
1F
100
AcDbEntity
  8
_U+30EC_U+30A4_U+30E4_U+30FC 1
 62
     7
420
 16777215
370
    25
100
AcDb2dPolyline
 66
     1
 10
0.0
 20
0.0
 30
0.0
  0
VERTEX
  5
6A
330
69
100
AcDbEntity
  8
_U+30EC_U+30A4_U+30E4_U+30FC 1
 62
     7
420
 16777215
370
    25
100
AcDbVertex
100
AcDb2dVertex
 10
95.49475478594806
 20
-140.0527777427646
 30
0.0
  0
VERTEX
  5
6B
330
69
100
AcDbEntity
  8
_U+30EC_U+30A4_U+30E4_U+30FC 1
 62
     7
420
 16777215
370
    25
100
AcDbVertex
100
AcDb2dVertex
 10
95.49475478594806
 20
-156.5527235719732
 30
0.0
  0
SEQEND
  5
6C
330
69
100
AcDbEntity
  8
_U+30EC_U+30A4_U+30E4_U+30FC 1
 62
     7
420
 16777215
370
    25
  0
POLYLINE
  5
6D
330
1F
100
AcDbEntity
  8
_U+30EC_U+30A4_U+30E4_U+30FC 1
 62
     7
420
 16777215
370
    25
100
AcDb2dPolyline
 66
     1
 10
0.0
 20
0.0
 30
0.0
  0
VERTEX
  5
6E
330
6D
100
AcDbEntity
  8
_U+30EC_U+30A4_U+30E4_U+30FC 1
 62
     7
420
 16777215
370
    25
100
AcDbVertex
100
AcDb2dVertex
 10
96.49487976043275
 20
-141.0525499647368
 30
0.0
  0
VERTEX
  5
6F
330
6D
100
AcDbEntity
  8
_U+30EC_U+30A4_U+30E4_U+30FC 1
 62
     7
420
 16777215
370
    25
100
AcDbVertex
100
AcDb2dVertex
 10
96.49487976043275
 20
-156.5527235719732
 30
0.0
  0
SEQEND
  5
70
330
6D
100
AcDbEntity
  8
_U+30EC_U+30A4_U+30E4_U+30FC 1
 62
     7
420
 16777215
370
    25
  0
POLYLINE
  5
71
330
1F
100
AcDbEntity
  8
_U+30EC_U+30A4_U+30E4_U+30FC 1
 62
     7
420
 16777215
370
    25
100
AcDb2dPolyline
 66
     1
 10
0.0
 20
0.0
 30
0.0
  0
VERTEX
  5
72
330
71
100
AcDbEntity
  8
_U+30EC_U+30A4_U+30E4_U+30FC 1
 62
     7
420
 16777215
370
    25
100
AcDbVertex
100
AcDb2dVertex
 10
94.49501786700903
 20
-156.5527235719732
 30
0.0
  0
VERTEX
  5
73
330
71
100
AcDbEntity
  8
_U+30EC_U+30A4_U+30E4_U+30FC 1
 62
     7
420
 16777215
370
    25
100
AcDbVertex
100
AcDb2dVertex
 10
95.49475478594806
 20
-156.5527235719732
 30
0.0
  0
SEQEND
  5
74
330
71
100
AcDbEntity
  8
_U+30EC_U+30A4_U+30E4_U+30FC 1
 62
     7
420
 16777215
370
    25
  0
POLYLINE
  5
75
330
1F
100
AcDbEntity
  8
_U+30EC_U+30A4_U+30E4_U+30FC 1
 62
     7
420
 16777215
370
    25
100
AcDb2dPolyline
 66
     1
 10
0.0
 20
0.0
 30
0.0
  0
VERTEX
  5
76
330
75
100
AcDbEntity
  8
_U+30EC_U+30A4_U+30E4_U+30FC 1
 62
     7
420
 16777215
370
    25
100
AcDbVertex
100
AcDb2dVertex
 10
93.49489289252435
 20
-157.5524957939451
 30
0.0
  0
VERTEX
  5
77
330
75
100
AcDbEntity
  8
_U+30EC_U+30A4_U+30E4_U+30FC 1
 62
     7
420
 16777215
370
    25
100
AcDbVertex
100
AcDb2dVertex
 10
103.4949784707342
 20
-157.0522569051814
 30
0.0
  0
SEQEND
  5
78
330
75
100
AcDbEntity
  8
_U+30EC_U+30A4_U+30E4_U+30FC 1
 62
     7
420
 16777215
370
    25
  0
SPLINE
  5
79
330
1F
100
AcDbEntity
  8
_U+30EC_U+30A4_U+30E4_U+30FC 1
 62
     7
420
 16777215
370
     9
100
AcDbSpline
210
0.0
220
0.0
230
1.0
 70
    11
 71
     3
 72
    17
 73
    13
 74
     0
 42
0.0000000001
 43
0.0000000001
 12
1.0
 22
0.0
 32
0.0
 13
1.0
 23
0.0
 33
0.0
 40
0.0
 40
0.0
 40
0.0
 40
0.0
 40
1.0
 40
1.0
 40
1.0
 40
2.0
 40
2.0
 40
2.0
 40
3.0
 40
3.0
 40
3.0
 40
4.0
 40
4.0
 40
4.0
 40
4.0
 10
118.5884694745561
 20
-136.0530185770977
 30
0.0
 10
118.5884694745561
 20
-135.9972091326673
 30
0.0
 10
118.5436666979213
 20
-135.9524416326787
 30
0.0
 10
118.4885305259333
 20
-135.9524416326787
 30
0.0
 10
118.4334236451783
 20
-135.9524416326787
 30
0.0
 10
118.3886208685435
 20
-135.9972091326673
 30
0.0
 10
118.3886208685435
 20
-136.0530185770977
 30
0.0
 10
118.3886208685435
 20
-136.1081577437508
 30
0.0
 10
118.4334236451783
 20
-136.1529252437397
 30
0.0
 10
118.4885305259333
 20
-136.1529252437397
 30
0.0
 10
118.5436666979213
 20
-136.1529252437397
 30
0.0
 10
118.5884694745561
 20
-136.1081577437508
 30
0.0
 10
118.5884694745561
 20
-136.0530185770977
 30
0.0
  0
SPLINE
  5
7A
330
1F
100
AcDbEntity
  8
_U+30EC_U+30A4_U+30E4_U+30FC 1
 62
     7
420
 16777215
370
     9
100
AcDbSpline
210
0.0
220
0.0
230
1.0
 70
    11
 71
     3
 72
    17
 73
    13
 74
     0
 42
0.0000000001
 43
0.0000000001
 12
1.0
 22
0.0
 32
0.0
 13
1.0
 23
0.0
 33
0.0
 40
0.0
 40
0.0
 40
0.0
 40
0.0
 40
1.0
 40
1.0
 40
1.0
 40
2.0
 40
2.0
 40
2.0
 40
3.0
 40
3.0
 40
3.0
 40
4.0
 40
4.0
 40
4.0
 40
4.0
 10
122.5951077056716
 20
-140.0527777427646
 30
0.0
 10
122.5951077056716
 20
-139.9969682983341
 30
0.0
 10
122.5503049290368
 20
-139.952871076123
 30
0.0
 10
122.4952010415537
 20
-139.952871076123
 30
0.0
 10
122.4393915985331
 20
-139.952871076123
 30
0.0
 10
122.3945888218983
 20
-139.9969682983341
 30
0.0
 10
122.3945888218983
 20
-140.0527777427646
 30
0.0
 10
122.3945888218983
 20
-140.1079169094174
 30
0.0
 10
122.4393915985331
 20
-140.1526844094062
 30
0.0
 10
122.4952010415537
 20
-140.1526844094062
 30
0.0
 10
122.5503049290368
 20
-140.1526844094062
 30
0.0
 10
122.5951077056716
 20
-140.1079169094174
 30
0.0
 10
122.5951077056716
 20
-140.0527777427646
 30
0.0
  0
SPLINE
  5
7B
330
1F
100
AcDbEntity
  8
_U+30EC_U+30A4_U+30E4_U+30FC 1
 62
     7
420
 16777215
370
     9
100
AcDbSpline
210
0.0
220
0.0
230
1.0
 70
    11
 71
     3
 72
    17
 73
    13
 74
     0
 42
0.0000000001
 43
0.0000000001
 12
1.0
 22
0.0
 32
0.0
 13
1.0
 23
0.0
 33
0.0
 40
0.0
 40
0.0
 40
0.0
 40
0.0
 40
1.0
 40
1.0
 40
1.0
 40
2.0
 40
2.0
 40
2.0
 40
3.0
 40
3.0
 40
3.0
 40
4.0
 40
4.0
 40
4.0
 40
4.0
 10
122.5951077056716
 20
-141.0525499647368
 30
0.0
 10
122.5951077056716
 20
-140.997410798084
 30
0.0
 10
122.5503049290368
 20
-140.9526432980952
 30
0.0
 10
122.4952010415537
 20
-140.9526432980952
 30
0.0
 10
122.4393915985331
 20
-140.9526432980952
 30
0.0
 10
122.3945888218983
 20
-140.997410798084
 30
0.0
 10
122.3945888218983
 20
-141.0525499647368
 30
0.0
 10
122.3945888218983
 20
-141.107653853612
 30
0.0
 10
122.4393915985331
 20
-141.1524566313784
 30
0.0
 10
122.4952010415537
 20
-141.1524566313784
 30
0.0
 10
122.5503049290368
 20
-141.1524566313784
 30
0.0
 10
122.5951077056716
 20
-141.107653853612
 30
0.0
 10
122.5951077056716
 20
-141.0525499647368
 30
0.0
  0
SPLINE
  5
7C
330
1F
100
AcDbEntity
  8
_U+30EC_U+30A4_U+30E4_U+30FC 1
 62
     7
420
 16777215
370
     9
100
AcDbSpline
210
0.0
220
0.0
230
1.0
 70
    11
 71
     3
 72
    17
 73
    13
 74
     0
 42
0.0000000001
 43
0.0000000001
 12
1.0
 22
0.0
 32
0.0
 13
1.0
 23
0.0
 33
0.0
 40
0.0
 40
0.0
 40
0.0
 40
0.0
 40
1.0
 40
1.0
 40
1.0
 40
2.0
 40
2.0
 40
2.0
 40
3.0
 40
3.0
 40
3.0
 40
4.0
 40
4.0
 40
4.0
 40
4.0
 10
87.5460719331803
 20
-136.0530185770977
 30
0.0
 10
87.5460719331803
 20
-135.9972091326673
 30
0.0
 10
87.5013044343224
 20
-135.9524416326787
 30
0.0
 10
87.44616526906246
 20
-135.9524416326787
 30
0.0
 10
87.39106138157939
 20
-135.9524416326787
 30
0.0
 10
87.34625860494462
 20
-135.9972091326673
 30
0.0
 10
87.34625860494462
 20
-136.0530185770977
 30
0.0
 10
87.34625860494462
 20
-136.1081577437508
 30
0.0
 10
87.39106138157939
 20
-136.1529252437397
 30
0.0
 10
87.44616526906246
 20
-136.1529252437397
 30
0.0
 10
87.5013044343224
 20
-136.1529252437397
 30
0.0
 10
87.5460719331803
 20
-136.1081577437508
 30
0.0
 10
87.5460719331803
 20
-136.0530185770977
 30
0.0
  0
SPLINE
  5
7D
330
1F
100
AcDbEntity
  8
_U+30EC_U+30A4_U+30E4_U+30FC 1
 62
     7
420
 16777215
370
     9
100
AcDbSpline
210
0.0
220
0.0
230
1.0
 70
    11
 71
     3
 72
    17
 73
    13
 74
     0
 42
0.0000000001
 43
0.0000000001
 12
1.0
 22
0.0
 32
0.0
 13
1.0
 23
0.0
 33
0.0
 40
0.0
 40
0.0
 40
0.0
 40
0.0
 40
1.0
 40
1.0
 40
1.0
 40
2.0
 40
2.0
 40
2.0
 40
3.0
 40
3.0
 40
3.0
 40
4.0
 40
4.0
 40
4.0
 40
4.0
 10
103.5948851348521
 20
-161.5529252373893
 30
0.0
 10
103.5948851348521
 20
-161.4971157929589
 30
0.0
 10
103.5500823582173
 20
-161.4523482929704
 30
0.0
 10
103.4949784707342
 20
-161.4523482929704
 30
0.0
 10
103.4398393054743
 20
-161.4523482929704
 30
0.0
 10
103.3950718066164
 20
-161.4971157929589
 30
0.0
 10
103.3950718066164
 20
-161.5529252373893
 30
0.0
 10
103.3950718066164
 20
-161.6080644040424
 30
0.0
 10
103.4398393054743
 20
-161.652831904031
 30
0.0
 10
103.4949784707342
 20
-161.652831904031
 30
0.0
 10
103.5500823582173
 20
-161.652831904031
 30
0.0
 10
103.5948851348521
 20
-161.6080644040424
 30
0.0
 10
103.5948851348521
 20
-161.5529252373893
 30
0.0
  0
SPLINE
  5
7E
330
1F
100
AcDbEntity
  8
_U+30EC_U+30A4_U+30E4_U+30FC 1
 62
     7
420
 16777215
370
     9
100
AcDbSpline
210
0.0
220
0.0
230
1.0
 70
    11
 71
     3
 72
    17
 73
    13
 74
     0
 42
0.0000000001
 43
0.0000000001
 12
1.0
 22
0.0
 32
0.0
 13
1.0
 23
0.0
 33
0.0
 40
0.0
 40
0.0
 40
0.0
 40
0.0
 40
1.0
 40
1.0
 40
1.0
 40
2.0
 40
2.0
 40
2.0
 40
3.0
 40
3.0
 40
3.0
 40
4.0
 40
4.0
 40
4.0
 40
4.0
 10
93.59479955664217
 20
-161.5529252373893
 30
0.0
 10
93.59479955664217
 20
-161.4971157929589
 30
0.0
 10
93.55003205778429
 20
-161.4523482929704
 30
0.0
 10
93.49489289252435
 20
-161.4523482929704
 30
0.0
 10
93.4394362272725
 20
-161.4523482929704
 30
0.0
 10
93.39463345063773
 20
-161.4971157929589
 30
0.0
 10
93.39463345063773
 20
-161.5529252373893
 30
0.0
 10
93.39463345063773
 20
-161.6080644040424
 30
0.0
 10
93.4394362272725
 20
-161.652831904031
 30
0.0
 10
93.49489289252435
 20
-161.652831904031
 30
0.0
 10
93.55003205778429
 20
-161.652831904031
 30
0.0
 10
93.59479955664217
 20
-161.6080644040424
 30
0.0
 10
93.59479955664217
 20
-161.5529252373893
 30
0.0
  0
SPLINE
  5
7F
330
1F
100
AcDbEntity
  8
_U+30EC_U+30A4_U+30E4_U+30FC 1
 62
     7
420
 16777215
370
     9
100
AcDbSpline
210
0.0
220
0.0
230
1.0
 70
    11
 71
     3
 72
    17
 73
    13
 74
     0
 42
0.0000000001
 43
0.0000000001
 12
1.0
 22
0.0
 32
0.0
 13
1.0
 23
0.0
 33
0.0
 40
0.0
 40
0.0
 40
0.0
 40
0.0
 40
1.0
 40
1.0
 40
1.0
 40
2.0
 40
2.0
 40
2.0
 40
3.0
 40
3.0
 40
3.0
 40
4.0
 40
4.0
 40
4.0
 40
4.0
 10
87.54571915541152
 20
-161.5529252373893
 30
0.0
 10
87.54571915541152
 20
-161.4971157929589
 30
0.0
 10
87.50095165655364
 20
-161.4523482929704
 30
0.0
 10
87.44581249129368
 20
-161.4523482929704
 30
0.0
 10
87.39070860381061
 20
-161.4523482929704
 30
0.0
 10
87.34590582717586
 20
-161.4971157929589
 30
0.0
 10
87.34590582717586
 20
-161.5529252373893
 30
0.0
 10
87.34590582717586
 20
-161.6080644040424
 30
0.0
 10
87.39070860381061
 20
-161.652831904031
 30
0.0
 10
87.44581249129368
 20
-161.652831904031
 30
0.0
 10
87.50095165655364
 20
-161.652831904031
 30
0.0
 10
87.54571915541152
 20
-161.6080644040424
 30
0.0
 10
87.54571915541152
 20
-161.5529252373893
 30
0.0
  0
SPLINE
  5
80
330
1F
100
AcDbEntity
  8
_U+30EC_U+30A4_U+30E4_U+30FC 1
 62
     7
420
 16777215
370
     9
100
AcDbSpline
210
0.0
220
0.0
230
1.0
 70
    11
 71
     3
 72
    17
 73
    13
 74
     0
 42
0.0000000001
 43
0.0000000001
 12
1.0
 22
0.0
 32
0.0
 13
1.0
 23
0.0
 33
0.0
 40
0.0
 40
0.0
 40
0.0
 40
0.0
 40
1.0
 40
1.0
 40
1.0
 40
2.0
 40
2.0
 40
2.0
 40
3.0
 40
3.0
 40
3.0
 40
4.0
 40
4.0
 40
4.0
 40
4.0
 10
107.594467810592
 20
-156.5527235719732
 30
0.0
 10
107.594467810592
 20
-156.4975844053201
 30
0.0
 10
107.5496650339572
 20
-156.4528169053316
 30
0.0
 10
107.4945638620155
 20
-156.4528169053316
 30
0.0
 10
107.4394219812142
 20
-156.4528169053316
 30
0.0
 10
107.3946544823563
 20
-156.4975844053201
 30
0.0
 10
107.3946544823563
 20
-156.5527235719732
 30
0.0
 10
107.3946544823563
 20
-156.6078274608481
 30
0.0
 10
107.4394219812142
 20
-156.6526302386148
 30
0.0
 10
107.4945638620155
 20
-156.6526302386148
 30
0.0
 10
107.5496650339572
 20
-156.6526302386148
 30
0.0
 10
107.594467810592
 20
-156.6078274608481
 30
0.0
 10
107.594467810592
 20
-156.5527235719732
 30
0.0
  0
SPLINE
  5
81
330
1F
100
AcDbEntity
  8
_U+30EC_U+30A4_U+30E4_U+30FC 1
 62
     7
420
 16777215
370
     9
100
AcDbSpline
210
0.0
220
0.0
230
1.0
 70
    11
 71
     3
 72
    17
 73
    13
 74
     0
 42
0.0000000001
 43
0.0000000001
 12
1.0
 22
0.0
 32
0.0
 13
1.0
 23
0.0
 33
0.0
 40
0.0
 40
0.0
 40
0.0
 40
0.0
 40
1.0
 40
1.0
 40
1.0
 40
2.0
 40
2.0
 40
2.0
 40
3.0
 40
3.0
 40
3.0
 40
4.0
 40
4.0
 40
4.0
 40
4.0
 10
107.594467810592
 20
-157.0515513496259
 30
0.0
 10
107.594467810592
 20
-156.9964474607509
 30
0.0
 10
107.5496650339572
 20
-156.9516446829842
 30
0.0
 10
107.4945638620155
 20
-156.9516446829842
 30
0.0
 10
107.4394219812142
 20
-156.9516446829842
 30
0.0
 10
107.3946544823563
 20
-156.9964474607509
 30
0.0
 10
107.3946544823563
 20
-157.0515513496259
 30
0.0
 10
107.3946544823563
 20
-157.1066905162789
 30
0.0
 10
107.4394219812142
 20
-157.1514932940457
 30
0.0
 10
107.4945638620155
 20
-157.1514932940457
 30
0.0
 10
107.5496650339572
 20
-157.1514932940457
 30
0.0
 10
107.594467810592
 20
-157.1066905162789
 30
0.0
 10
107.594467810592
 20
-157.0515513496259
 30
0.0
  0
SPLINE
  5
82
330
1F
100
AcDbEntity
  8
_U+30EC_U+30A4_U+30E4_U+30FC 1
 62
     7
420
 16777215
370
     9
100
AcDbSpline
210
0.0
220
0.0
230
1.0
 70
    11
 71
     3
 72
    17
 73
    13
 74
     0
 42
0.0000000001
 43
0.0000000001
 12
1.0
 22
0.0
 32
0.0
 13
1.0
 23
0.0
 33
0.0
 40
0.0
 40
0.0
 40
0.0
 40
0.0
 40
1.0
 40
1.0
 40
1.0
 40
2.0
 40
2.0
 40
2.0
 40
3.0
 40
3.0
 40
3.0
 40
4.0
 40
4.0
 40
4.0
 40
4.0
 10
122.5951077056716
 20
-156.5527235719732
 30
0.0
 10
122.5951077056716
 20
-156.4975844053201
 30
0.0
 10
122.5503049290368
 20
-156.4528169053316
 30
0.0
 10
122.4952010415537
 20
-156.4528169053316
 30
0.0
 10
122.4393915985331
 20
-156.4528169053316
 30
0.0
 10
122.3945888218983
 20
-156.4975844053201
 30
0.0
 10
122.3945888218983
 20
-156.5527235719732
 30
0.0
 10
122.3945888218983
 20
-156.6078274608481
 30
0.0
 10
122.4393915985331
 20
-156.6526302386148
 30
0.0
 10
122.4952010415537
 20
-156.6526302386148
 30
0.0
 10
122.5503049290368
 20
-156.6526302386148
 30
0.0
 10
122.5951077056716
 20
-156.6078274608481
 30
0.0
 10
122.5951077056716
 20
-156.5527235719732
 30
0.0
  0
POLYLINE
  5
83
330
1F
100
AcDbEntity
  8
_U+30EC_U+30A4_U+30E4_U+30FC 1
 62
     7
420
 16777215
370
     9
100
AcDb2dPolyline
 66
     1
 10
0.0
 20
0.0
 30
0.0
  0
VERTEX
  5
84
330
83
100
AcDbEntity
  8
_U+30EC_U+30A4_U+30E4_U+30FC 1
 62
     7
420
 16777215
370
     9
100
AcDbVertex
100
AcDb2dVertex
 10
122.4952010415537
 20
-140.0527777427646
 30
0.0
  0
VERTEX
  5
85
330
83
100
AcDbEntity
  8
_U+30EC_U+30A4_U+30E4_U+30FC 1
 62
     7
420
 16777215
370
     9
100
AcDbVertex
100
AcDb2dVertex
 10
122.4952010415537
 20
-136.2824652437072
 30
0.0
  0
SEQEND
  5
86
330
83
100
AcDbEntity
  8
_U+30EC_U+30A4_U+30E4_U+30FC 1
 62
     7
420
 16777215
370
     9
  0
POLYLINE
  5
87
330
1F
100
AcDbEntity
  8
_U+30EC_U+30A4_U+30E4_U+30FC 1
 62
     7
420
 16777215
370
     9
100
AcDb2dPolyline
 66
     1
 10
0.0
 20
0.0
 30
0.0
  0
VERTEX
  5
88
330
87
100
AcDbEntity
  8
_U+30EC_U+30A4_U+30E4_U+30FC 1
 62
     7
420
 16777215
370
     9
100
AcDbVertex
100
AcDb2dVertex
 10
122.4952010415537
 20
-140.0527777427646
 30
0.0
  0
VERTEX
  5
89
330
87
100
AcDbEntity
  8
_U+30EC_U+30A4_U+30E4_U+30FC 1
 62
     7
420
 16777215
370
     9
100
AcDbVertex
100
AcDb2dVertex
 10
122.4952010415537
 20
-141.0525499647368
 30
0.0
  0
SEQEND
  5
8A
330
87
100
AcDbEntity
  8
_U+30EC_U+30A4_U+30E4_U+30FC 1
 62
     7
420
 16777215
370
     9
  0
POLYLINE
  5
8B
330
1F
100
AcDbEntity
  8
_U+30EC_U+30A4_U+30E4_U+30FC 1
 62
     7
420
 16777215
370
     9
100
AcDb2dPolyline
 66
     1
 10
0.0
 20
0.0
 30
0.0
  0
VERTEX
  5
8C
330
8B
100
AcDbEntity
  8
_U+30EC_U+30A4_U+30E4_U+30FC 1
 62
     7
420
 16777215
370
     9
100
AcDbVertex
100
AcDb2dVertex
 10
121.0351596899136
 20
-140.0527777427646
 30
0.0
  0
VERTEX
  5
8D
330
8B
100
AcDbEntity
  8
_U+30EC_U+30A4_U+30E4_U+30FC 1
 62
     7
420
 16777215
370
     9
100
AcDbVertex
100
AcDb2dVertex
 10
123.4949732382696
 20
-140.0527777427646
 30
0.0
  0
SEQEND
  5
8E
330
8B
100
AcDbEntity
  8
_U+30EC_U+30A4_U+30E4_U+30FC 1
 62
     7
420
 16777215
370
     9
  0
POLYLINE
  5
8F
330
1F
100
AcDbEntity
  8
_U+30EC_U+30A4_U+30E4_U+30FC 1
 62
     7
420
 16777215
370
     9
100
AcDb2dPolyline
 66
     1
 10
0.0
 20
0.0
 30
0.0
  0
VERTEX
  5
90
330
8F
100
AcDbEntity
  8
_U+30EC_U+30A4_U+30E4_U+30FC 1
 62
     7
420
 16777215
370
     9
100
AcDbVertex
100
AcDb2dVertex
 10
121.0351596899136
 20
-141.0525499647368
 30
0.0
  0
VERTEX
  5
91
330
8F
100
AcDbEntity
  8
_U+30EC_U+30A4_U+30E4_U+30FC 1
 62
     7
420
 16777215
370
     9
100
AcDbVertex
100
AcDb2dVertex
 10
123.4949732382696
 20
-141.0525499647368
 30
0.0
  0
SEQEND
  5
92
330
8F
100
AcDbEntity
  8
_U+30EC_U+30A4_U+30E4_U+30FC 1
 62
     7
420
 16777215
370
     9
  0
INSERT
  5
94
330
1F
100
AcDbEntity
  8
_U+30EC_U+30A4_U+30E4_U+30FC 1
100
AcDbBlockReference
  2
block 2
 10
0.0
 20
0.0
 30
0.0
  0
POLYLINE
  5
99
330
1F
100
AcDbEntity
  8
_U+30EC_U+30A4_U+30E4_U+30FC 1
 62
     7
420
 16777215
370
     9
100
AcDb2dPolyline
 66
     1
 10
0.0
 20
0.0
 30
0.0
  0
VERTEX
  5
9A
330
99
100
AcDbEntity
  8
_U+30EC_U+30A4_U+30E4_U+30FC 1
 62
     7
420
 16777215
370
     9
100
AcDbVertex
100
AcDb2dVertex
 10
118.4458444148331
 20
-136.0530185770977
 30
0.0
  0
VERTEX
  5
9B
330
99
100
AcDbEntity
  8
_U+30EC_U+30A4_U+30E4_U+30FC 1
 62
     7
420
 16777215
370
     9
100
AcDbVertex
100
AcDb2dVertex
 10
87.44616526906246
 20
-136.0530185770977
 30
0.0
  0
SEQEND
  5
9C
330
99
100
AcDbEntity
  8
_U+30EC_U+30A4_U+30E4_U+30FC 1
 62
     7
420
 16777215
370
     9
  0
POLYLINE
  5
9D
330
1F
100
AcDbEntity
  8
_U+30EC_U+30A4_U+30E4_U+30FC 1
 62
     7
420
 16777215
370
     9
100
AcDb2dPolyline
 66
     1
 10
0.0
 20
0.0
 30
0.0
  0
VERTEX
  5
9E
330
9D
100
AcDbEntity
  8
_U+30EC_U+30A4_U+30E4_U+30FC 1
 62
     7
420
 16777215
370
     9
100
AcDbVertex
100
AcDb2dVertex
 10
118.4885305259333
 20
-137.5123544100665
 30
0.0
  0
VERTEX
  5
9F
330
9D
100
AcDbEntity
  8
_U+30EC_U+30A4_U+30E4_U+30FC 1
 62
     7
420
 16777215
370
     9
100
AcDbVertex
100
AcDb2dVertex
 10
118.4885305259333
 20
-135.0525760773481
 30
0.0
  0
SEQEND
  5
A0
330
9D
100
AcDbEntity
  8
_U+30EC_U+30A4_U+30E4_U+30FC 1
 62
     7
420
 16777215
370
     9
  0
POLYLINE
  5
A1
330
1F
100
AcDbEntity
  8
_U+30EC_U+30A4_U+30E4_U+30FC 1
 62
     7
420
 16777215
370
     9
100
AcDb2dPolyline
 66
     1
 10
0.0
 20
0.0
 30
0.0
  0
VERTEX
  5
A2
330
A1
100
AcDbEntity
  8
_U+30EC_U+30A4_U+30E4_U+30FC 1
 62
     7
420
 16777215
370
     9
100
AcDbVertex
100
AcDb2dVertex
 10
87.44616526906246
 20
-137.5123544100665
 30
0.0
  0
VERTEX
  5
A3
330
A1
100
AcDbEntity
  8
_U+30EC_U+30A4_U+30E4_U+30FC 1
 62
     7
420
 16777215
370
     9
100
AcDbVertex
100
AcDb2dVertex
 10
87.44616526906246
 20
-135.0525760773481
 30
0.0
  0
SEQEND
  5
A4
330
A1
100
AcDbEntity
  8
_U+30EC_U+30A4_U+30E4_U+30FC 1
 62
     7
420
 16777215
370
     9
  0
INSERT
  5
A6
330
1F
100
AcDbEntity
  8
_U+30EC_U+30A4_U+30E4_U+30FC 1
100
AcDbBlockReference
  2
block 3
 10
0.0
 20
0.0
 30
0.0
  0
POLYLINE
  5
AD
330
1F
100
AcDbEntity
  8
_U+30EC_U+30A4_U+30E4_U+30FC 1
 62
     7
420
 16777215
370
     9
100
AcDb2dPolyline
 66
     1
 10
0.0
 20
0.0
 30
0.0
  0
VERTEX
  5
AE
330
AD
100
AcDbEntity
  8
_U+30EC_U+30A4_U+30E4_U+30FC 1
 62
     7
420
 16777215
370
     9
100
AcDbVertex
100
AcDb2dVertex
 10
107.4945638620155
 20
-156.5527235719732
 30
0.0
  0
VERTEX
  5
AF
330
AD
100
AcDbEntity
  8
_U+30EC_U+30A4_U+30E4_U+30FC 1
 62
     7
420
 16777215
370
     9
100
AcDbVertex
100
AcDb2dVertex
 10
107.4945638620155
 20
-151.2948177399543
 30
0.0
  0
SEQEND
  5
B0
330
AD
100
AcDbEntity
  8
_U+30EC_U+30A4_U+30E4_U+30FC 1
 62
     7
420
 16777215
370
     9
  0
POLYLINE
  5
B1
330
1F
100
AcDbEntity
  8
_U+30EC_U+30A4_U+30E4_U+30FC 1
 62
     7
420
 16777215
370
     9
100
AcDb2dPolyline
 66
     1
 10
0.0
 20
0.0
 30
0.0
  0
VERTEX
  5
B2
330
B1
100
AcDbEntity
  8
_U+30EC_U+30A4_U+30E4_U+30FC 1
 62
     7
420
 16777215
370
     9
100
AcDbVertex
100
AcDb2dVertex
 10
107.4945638620155
 20
-156.5527235719732
 30
0.0
  0
VERTEX
  5
B3
330
B1
100
AcDbEntity
  8
_U+30EC_U+30A4_U+30E4_U+30FC 1
 62
     7
420
 16777215
370
     9
100
AcDbVertex
100
AcDb2dVertex
 10
107.4945638620155
 20
-158.0520291271539
 30
0.0
  0
SEQEND
  5
B4
330
B1
100
AcDbEntity
  8
_U+30EC_U+30A4_U+30E4_U+30FC 1
 62
     7
420
 16777215
370
     9
  0
POLYLINE
  5
B5
330
1F
100
AcDbEntity
  8
_U+30EC_U+30A4_U+30E4_U+30FC 1
 62
     7
420
 16777215
370
     9
100
AcDb2dPolyline
 66
     1
 10
0.0
 20
0.0
 30
0.0
  0
VERTEX
  5
B6
330
B5
100
AcDbEntity
  8
_U+30EC_U+30A4_U+30E4_U+30FC 1
 62
     7
420
 16777215
370
     9
100
AcDbVertex
100
AcDb2dVertex
 10
106.034519794834
 20
-156.5527235719732
 30
0.0
  0
VERTEX
  5
B7
330
B5
100
AcDbEntity
  8
_U+30EC_U+30A4_U+30E4_U+30FC 1
 62
     7
420
 16777215
370
     9
100
AcDbVertex
100
AcDb2dVertex
 10
108.4950036209508
 20
-156.5527235719732
 30
0.0
  0
SEQEND
  5
B8
330
B5
100
AcDbEntity
  8
_U+30EC_U+30A4_U+30E4_U+30FC 1
 62
     7
420
 16777215
370
     9
  0
POLYLINE
  5
B9
330
1F
100
AcDbEntity
  8
_U+30EC_U+30A4_U+30E4_U+30FC 1
 62
     7
420
 16777215
370
     9
100
AcDb2dPolyline
 66
     1
 10
0.0
 20
0.0
 30
0.0
  0
VERTEX
  5
BA
330
B9
100
AcDbEntity
  8
_U+30EC_U+30A4_U+30E4_U+30FC 1
 62
     7
420
 16777215
370
     9
100
AcDbVertex
100
AcDb2dVertex
 10
106.034519794834
 20
-157.0515513496259
 30
0.0
  0
VERTEX
  5
BB
330
B9
100
AcDbEntity
  8
_U+30EC_U+30A4_U+30E4_U+30FC 1
 62
     7
420
 16777215
370
     9
100
AcDbVertex
100
AcDb2dVertex
 10
108.4950036209508
 20
-157.0515513496259
 30
0.0
  0
SEQEND
  5
BC
330
B9
100
AcDbEntity
  8
_U+30EC_U+30A4_U+30E4_U+30FC 1
 62
     7
420
 16777215
370
     9
  0
INSERT
  5
BE
330
1F
100
AcDbEntity
  8
_U+30EC_U+30A4_U+30E4_U+30FC 1
100
AcDbBlockReference
  2
block 4
 10
0.0
 20
0.0
 30
0.0
  0
POLYLINE
  5
CE
330
1F
100
AcDbEntity
  8
_U+30EC_U+30A4_U+30E4_U+30FC 1
 62
     7
420
 16777215
370
     9
100
AcDb2dPolyline
 66
     1
 10
0.0
 20
0.0
 30
0.0
  0
VERTEX
  5
CF
330
CE
100
AcDbEntity
  8
_U+30EC_U+30A4_U+30E4_U+30FC 1
 62
     7
420
 16777215
370
     9
100
AcDbVertex
100
AcDb2dVertex
 10
93.49489289252435
 20
-161.5529252373893
 30
0.0
  0
VERTEX
  5
D0
330
CE
100
AcDbEntity
  8
_U+30EC_U+30A4_U+30E4_U+30FC 1
 62
     7
420
 16777215
370
     9
100
AcDbVertex
100
AcDb2dVertex
 10
103.4949784707342
 20
-161.5529252373893
 30
0.0
  0
SEQEND
  5
D1
330
CE
100
AcDbEntity
  8
_U+30EC_U+30A4_U+30E4_U+30FC 1
 62
     7
420
 16777215
370
     9
  0
POLYLINE
  5
D2
330
1F
100
AcDbEntity
  8
_U+30EC_U+30A4_U+30E4_U+30FC 1
 62
     7
420
 16777215
370
     9
100
AcDb2dPolyline
 66
     1
 10
0.0
 20
0.0
 30
0.0
  0
VERTEX
  5
D3
330
D2
100
AcDbEntity
  8
_U+30EC_U+30A4_U+30E4_U+30FC 1
 62
     7
420
 16777215
370
     9
100
AcDbVertex
100
AcDb2dVertex
 10
93.49489289252435
 20
-160.0928838488656
 30
0.0
  0
VERTEX
  5
D4
330
D2
100
AcDbEntity
  8
_U+30EC_U+30A4_U+30E4_U+30FC 1
 62
     7
420
 16777215
370
     9
100
AcDbVertex
100
AcDb2dVertex
 10
93.49489289252435
 20
-162.5526974593619
 30
0.0
  0
SEQEND
  5
D5
330
D2
100
AcDbEntity
  8
_U+30EC_U+30A4_U+30E4_U+30FC 1
 62
     7
420
 16777215
370
     9
  0
POLYLINE
  5
D6
330
1F
100
AcDbEntity
  8
_U+30EC_U+30A4_U+30E4_U+30FC 1
 62
     7
420
 16777215
370
     9
100
AcDb2dPolyline
 66
     1
 10
0.0
 20
0.0
 30
0.0
  0
VERTEX
  5
D7
330
D6
100
AcDbEntity
  8
_U+30EC_U+30A4_U+30E4_U+30FC 1
 62
     7
420
 16777215
370
     9
100
AcDbVertex
100
AcDb2dVertex
 10
103.4949784707342
 20
-159.3928669045962
 30
0.0
  0
VERTEX
  5
D8
330
D6
100
AcDbEntity
  8
_U+30EC_U+30A4_U+30E4_U+30FC 1
 62
     7
420
 16777215
370
     9
100
AcDbVertex
100
AcDb2dVertex
 10
103.4949784707342
 20
-162.5526974593619
 30
0.0
  0
SEQEND
  5
D9
330
D6
100
AcDbEntity
  8
_U+30EC_U+30A4_U+30E4_U+30FC 1
 62
     7
420
 16777215
370
     9
  0
INSERT
  5
DB
330
1F
100
AcDbEntity
  8
_U+30EC_U+30A4_U+30E4_U+30FC 1
100
AcDbBlockReference
  2
block 5
 10
0.0
 20
0.0
 30
0.0
  0
POLYLINE
  5
E3
330
1F
100
AcDbEntity
  8
_U+30EC_U+30A4_U+30E4_U+30FC 1
 62
     7
420
 16777215
370
     9
100
AcDb2dPolyline
 66
     1
 10
0.0
 20
0.0
 30
0.0
  0
VERTEX
  5
E4
330
E3
100
AcDbEntity
  8
_U+30EC_U+30A4_U+30E4_U+30FC 1
 62
     7
420
 16777215
370
     9
100
AcDbVertex
100
AcDb2dVertex
 10
87.49509554559192
 20
-161.5529252373893
 30
0.0
  0
VERTEX
  5
E5
330
E3
100
AcDbEntity
  8
_U+30EC_U+30A4_U+30E4_U+30FC 1
 62
     7
420
 16777215
370
     9
100
AcDbVertex
100
AcDb2dVertex
 10
93.49489289252435
 20
-161.5529252373893
 30
0.0
  0
SEQEND
  5
E6
330
E3
100
AcDbEntity
  8
_U+30EC_U+30A4_U+30E4_U+30FC 1
 62
     7
420
 16777215
370
     9
  0
POLYLINE
  5
E7
330
1F
100
AcDbEntity
  8
_U+30EC_U+30A4_U+30E4_U+30FC 1
 62
     7
420
 16777215
370
     9
100
AcDb2dPolyline
 66
     1
 10
0.0
 20
0.0
 30
0.0
  0
VERTEX
  5
E8
330
E7
100
AcDbEntity
  8
_U+30EC_U+30A4_U+30E4_U+30FC 1
 62
     7
420
 16777215
370
     9
100
AcDbVertex
100
AcDb2dVertex
 10
87.44581249129368
 20
-144.0925066306437
 30
0.0
  0
VERTEX
  5
E9
330
E7
100
AcDbEntity
  8
_U+30EC_U+30A4_U+30E4_U+30FC 1
 62
     7
420
 16777215
370
     9
100
AcDbVertex
100
AcDb2dVertex
 10
87.44581249129368
 20
-162.5526974593619
 30
0.0
  0
SEQEND
  5
EA
330
E7
100
AcDbEntity
  8
_U+30EC_U+30A4_U+30E4_U+30FC 1
 62
     7
420
 16777215
370
     9
  0
INSERT
  5
EC
330
1F
100
AcDbEntity
  8
_U+30EC_U+30A4_U+30E4_U+30FC 1
100
AcDbBlockReference
  2
block 6
 10
0.0
 20
0.0
 30
0.0
  0
POLYLINE
  5
F2
330
1F
100
AcDbEntity
  8
_U+30EC_U+30A4_U+30E4_U+30FC 1
 62
     7
420
 16777215
370
     9
100
AcDb2dPolyline
 66
     1
 10
0.0
 20
0.0
 30
0.0
  0
VERTEX
  5
F3
330
F2
100
AcDbEntity
  8
_U+30EC_U+30A4_U+30E4_U+30FC 1
 62
     7
420
 16777215
370
     9
100
AcDbVertex
100
AcDb2dVertex
 10
122.4952010415537
 20
-141.0525499647368
 30
0.0
  0
VERTEX
  5
F4
330
F2
100
AcDbEntity
  8
_U+30EC_U+30A4_U+30E4_U+30FC 1
 62
     7
420
 16777215
370
     9
100
AcDbVertex
100
AcDb2dVertex
 10
122.4952010415537
 20
-156.5527235719732
 30
0.0
  0
SEQEND
  5
F5
330
F2
100
AcDbEntity
  8
_U+30EC_U+30A4_U+30E4_U+30FC 1
 62
     7
420
 16777215
370
     9
  0
POLYLINE
  5
F6
330
1F
100
AcDbEntity
  8
_U+30EC_U+30A4_U+30E4_U+30FC 1
 62
     7
420
 16777215
370
     9
100
AcDb2dPolyline
 66
     1
 10
0.0
 20
0.0
 30
0.0
  0
VERTEX
  5
F7
330
F6
100
AcDbEntity
  8
_U+30EC_U+30A4_U+30E4_U+30FC 1
 62
     7
420
 16777215
370
     9
100
AcDbVertex
100
AcDb2dVertex
 10
121.0351596899136
 20
-141.0525499647368
 30
0.0
  0
VERTEX
  5
F8
330
F6
100
AcDbEntity
  8
_U+30EC_U+30A4_U+30E4_U+30FC 1
 62
     7
420
 16777215
370
     9
100
AcDbVertex
100
AcDb2dVertex
 10
123.4949732382696
 20
-141.0525499647368
 30
0.0
  0
SEQEND
  5
F9
330
F6
100
AcDbEntity
  8
_U+30EC_U+30A4_U+30E4_U+30FC 1
 62
     7
420
 16777215
370
     9
  0
POLYLINE
  5
FA
330
1F
100
AcDbEntity
  8
_U+30EC_U+30A4_U+30E4_U+30FC 1
 62
     7
420
 16777215
370
     9
100
AcDb2dPolyline
 66
     1
 10
0.0
 20
0.0
 30
0.0
  0
VERTEX
  5
FB
330
FA
100
AcDbEntity
  8
_U+30EC_U+30A4_U+30E4_U+30FC 1
 62
     7
420
 16777215
370
     9
100
AcDbVertex
100
AcDb2dVertex
 10
106.034519794834
 20
-156.5527235719732
 30
0.0
  0
VERTEX
  5
FC
330
FA
100
AcDbEntity
  8
_U+30EC_U+30A4_U+30E4_U+30FC 1
 62
     7
420
 16777215
370
     9
100
AcDbVertex
100
AcDb2dVertex
 10
123.4949732382696
 20
-156.5527235719732
 30
0.0
  0
SEQEND
  5
FD
330
FA
100
AcDbEntity
  8
_U+30EC_U+30A4_U+30E4_U+30FC 1
 62
     7
420
 16777215
370
     9
  0
INSERT
  5
FF
330
1F
100
AcDbEntity
  8
_U+30EC_U+30A4_U+30E4_U+30FC 1
100
AcDbBlockReference
  2
block 7
 10
0.0
 20
0.0
 30
0.0
  0
POLYLINE
  5
110
330
1F
100
AcDbEntity
  8
_U+30EC_U+30A4_U+30E4_U+30FC 1
 62
     7
420
 16777215
370
     9
100
AcDb2dPolyline
 66
     1
 10
0.0
 20
0.0
 30
0.0
  0
VERTEX
  5
111
330
110
100
AcDbEntity
  8
_U+30EC_U+30A4_U+30E4_U+30FC 1
 62
     7
420
 16777215
370
     9
100
AcDbVertex
100
AcDb2dVertex
 10
103.4949784707342
 20
-157.5283657939511
 30
0.0
  0
VERTEX
  5
112
330
110
100
AcDbEntity
  8
_U+30EC_U+30A4_U+30E4_U+30FC 1
 62
     7
420
 16777215
370
     9
100
AcDbVertex
100
AcDb2dVertex
 10
107.1521197663217
 20
-160.5765774598559
 30
0.0
  0
SEQEND
  5
113
330
110
100
AcDbEntity
  8
_U+30EC_U+30A4_U+30E4_U+30FC 1
 62
     7
420
 16777215
370
     9
  0
INSERT
  5
115
330
1F
100
AcDbEntity
  8
_U+30EC_U+30A4_U+30E4_U+30FC 1
100
AcDbBlockReference
  2
block 8
 10
0.0
 20
0.0
 30
0.0
  0
POLYLINE
  5
152
330
1F
100
AcDbEntity
  8
_U+30EC_U+30A4_U+30E4_U+30FC 1
  6
AI-Linetype-1
 62
   154
420
    23468
370
    25
100
AcDb2dPolyline
 66
     1
 10
0.0
 20
0.0
 30
0.0
  0
VERTEX
  5
153
330
152
100
AcDbEntity
  8
_U+30EC_U+30A4_U+30E4_U+30FC 1
  6
AI-Linetype-1
 62
   154
420
    23468
370
    25
100
AcDbVertex
100
AcDb2dVertex
 10
87.40584277009117
 20
-141.5534591312782
 30
0.0
  0
VERTEX
  5
154
330
152
100
AcDbEntity
  8
_U+30EC_U+30A4_U+30E4_U+30FC 1
  6
AI-Linetype-1
 62
   154
420
    23468
370
    25
100
AcDbVertex
100
AcDb2dVertex
 10
92.99500679416639
 20
-141.5534591312782
 30
0.0
  0
VERTEX
  5
155
330
152
100
AcDbEntity
  8
_U+30EC_U+30A4_U+30E4_U+30FC 1
  6
AI-Linetype-1
 62
   154
420
    23468
370
    25
100
AcDbVertex
100
AcDb2dVertex
 10
92.99500679416639
 20
-158.0520291271539
 30
0.0
  0
VERTEX
  5
156
330
152
100
AcDbEntity
  8
_U+30EC_U+30A4_U+30E4_U+30FC 1
  6
AI-Linetype-1
 62
   154
420
    23468
370
    25
100
AcDbVertex
100
AcDb2dVertex
 10
103.4949784707342
 20
-157.5283657939511
 30
0.0
  0
SEQEND
  5
158
330
152
100
AcDbEntity
  8
_U+30EC_U+30A4_U+30E4_U+30FC 1
  6
AI-Linetype-1
 62
   154
420
    23468
370
    25
  0
ENDSEC
  0
SECTION
  2
OBJECTS
  0
DICTIONARY
  5
C
330
0
100
AcDbDictionary
281
     1
  3
ACAD_GROUP
350
D
  3
ACAD_LAYOUT
350
1A
  3
ACAD_MATERIAL
350
3B
  3
ACAD_MLEADERSTYLE
350
15A
  3
ACAD_MLINESTYLE
350
17
  3
ACAD_PLOTSETTINGS
350
19
  3
ACAD_PLOTSTYLENAME
350
E
  3
ACAD_TABLESTYLE
350
159
  3
ACAD_VISUALSTYLE
350
2A
  0
SUN
  5
3F
330
29
100
AcDbSun
 90
        1
290
     0
 63
     7
421
 16777215
 40
1.0
291
     1
 91
  2455826
 92
 54000000
292
     0
 70
     2
 71
   256
280
     1
  0
DICTIONARY
  5
D
102
{ACAD_REACTORS
330
C
102
}
330
C
100
AcDbDictionary
281
     1
  0
DICTIONARY
  5
1A
102
{ACAD_REACTORS
330
C
102
}
330
C
100
AcDbDictionary
281
     1
  3
Layout1
350
1E
  3
Layout2
350
26
  3
Model
350
22
  0
DICTIONARY
  5
3B
102
{ACAD_REACTORS
330
C
102
}
330
C
100
AcDbDictionary
281
     1
  3
ByBlock
350
3D
  3
ByLayer
350
3C
  3
Global
350
3E
  0
DICTIONARY
  5
15A
102
{ACAD_REACTORS
330
C
102
}
330
C
100
AcDbDictionary
281
     1
  0
DICTIONARY
  5
17
102
{ACAD_REACTORS
330
C
102
}
330
C
100
AcDbDictionary
281
     1
  3
Standard
350
18
  0
DICTIONARY
  5
19
102
{ACAD_REACTORS
330
C
102
}
330
C
100
AcDbDictionary
281
     1
  0
ACDBDICTIONARYWDFLT
  5
E
102
{ACAD_REACTORS
330
C
102
}
330
C
100
AcDbDictionary
281
     1
  3
Normal
350
F
100
AcDbDictionaryWithDefault
340
F
  0
DICTIONARY
  5
159
102
{ACAD_REACTORS
330
C
102
}
330
C
100
AcDbDictionary
281
     1
  0
DICTIONARY
  5
2A
102
{ACAD_REACTORS
330
C
102
}
330
C
100
AcDbDictionary
281
     1
  3
2dWireframe
350
2F
  3
3D Hidden
350
31
  3
3dWireframe
350
30
  3
Basic
350
32
  3
Brighten
350
36
  3
ColorChange
350
3A
  3
Conceptual
350
34
  3
Dim
350
35
  3
Facepattern
350
39
  3
Flat
350
2B
  3
FlatWithEdges
350
2C
  3
Gouraud
350
2D
  3
GouraudWithEdges
350
2E
  3
Linepattern
350
38
  3
Realistic
350
33
  3
Thicken
350
37
  0
LAYOUT
  5
1E
102
{ACAD_REACTORS
330
1A
102
}
330
1A
100
AcDbPlotSettings
  1

  2
none_device
  4

  6

 40
0.0
 41
0.0
 42
0.0
 43
0.0
 44
0.0
 45
0.0
 46
0.0
 47
0.0
 48
0.0
 49
0.0
140
0.0
141
0.0
142
1.0
143
1.0
 70
   688
 72
     0
 73
     0
 74
     5
  7

 75
    16
 76
     0
 77
     2
 78
   300
147
1.0
148
0.0
149
0.0
100
AcDbLayout
  1
Layout1
 70
     1
 71
     1
 10
0.0
 20
0.0
 11
12.0
 21
9.0
 12
0.0
 22
0.0
 32
0.0
 14
1.000000000000000E+20
 24
1.000000000000000E+20
 34
1.000000000000000E+20
 15
-1.000000000000000E+20
 25
-1.000000000000000E+20
 35
-1.000000000000000E+20
146
0.0
 13
0.0
 23
0.0
 33
0.0
 16
1.0
 26
0.0
 36
0.0
 17
0.0
 27
1.0
 37
0.0
 76
     0
330
1B
  0
LAYOUT
  5
26
102
{ACAD_REACTORS
330
1A
102
}
330
1A
100
AcDbPlotSettings
  1

  2
none_device
  4

  6

 40
0.0
 41
0.0
 42
0.0
 43
0.0
 44
0.0
 45
0.0
 46
0.0
 47
0.0
 48
0.0
 49
0.0
140
0.0
141
0.0
142
1.0
143
1.0
 70
   688
 72
     0
 73
     0
 74
     5
  7

 75
    16
 76
     0
 77
     2
 78
   300
147
1.0
148
0.0
149
0.0
100
AcDbLayout
  1
Layout2
 70
     1
 71
     2
 10
0.0
 20
0.0
 11
0.0
 21
0.0
 12
0.0
 22
0.0
 32
0.0
 14
0.0
 24
0.0
 34
0.0
 15
0.0
 25
0.0
 35
0.0
146
0.0
 13
0.0
 23
0.0
 33
0.0
 16
1.0
 26
0.0
 36
0.0
 17
0.0
 27
1.0
 37
0.0
 76
     0
330
23
  0
LAYOUT
  5
22
102
{ACAD_REACTORS
330
1A
102
}
330
1A
100
AcDbPlotSettings
  1

  2
none_device
  4

  6

 40
0.0
 41
0.0
 42
0.0
 43
0.0
 44
0.0
 45
0.0
 46
0.0
 47
0.0
 48
0.0
 49
0.0
140
0.0
141
0.0
142
1.0
143
1.0
 70
  1712
 72
     0
 73
     0
 74
     0
  7

 75
     0
 76
     0
 77
     2
 78
   300
147
1.0
148
0.0
149
0.0
100
AcDbLayout
  1
Model
 70
     1
 71
     0
 10
0.0
 20
0.0
 11
12.0
 21
9.0
 12
0.0
 22
0.0
 32
0.0
 14
1.000000000000000E+20
 24
1.000000000000000E+20
 34
1.000000000000000E+20
 15
-1.000000000000000E+20
 25
-1.000000000000000E+20
 35
-1.000000000000000E+20
146
0.0
 13
0.0
 23
0.0
 33
0.0
 16
1.0
 26
0.0
 36
0.0
 17
0.0
 27
1.0
 37
0.0
 76
     0
330
1F
331
29
  0
MATERIAL
  5
3D
102
{ACAD_REACTORS
330
3B
102
}
330
3B
100
AcDbMaterial
  1
ByBlock
 72
     1
 94
      127
  0
MATERIAL
  5
3C
102
{ACAD_REACTORS
330
3B
102
}
330
3B
100
AcDbMaterial
  1
ByLayer
 72
     1
 94
      127
  0
MATERIAL
  5
3E
102
{ACAD_REACTORS
330
3B
102
}
330
3B
100
AcDbMaterial
  1
Global
 72
     1
 94
      127
  0
MLINESTYLE
  5
18
102
{ACAD_REACTORS
330
17
102
}
330
17
100
AcDbMlineStyle
  2
Standard
 70
     0
  3

 62
   256
 51
90.0
 52
90.0
 71
     2
 49
0.5
 62
   256
  6
BYLAYER
 49
-0.5
 62
   256
  6
BYLAYER
  0
ACDBPLACEHOLDER
  5
F
102
{ACAD_REACTORS
330
E
102
}
330
E
  0
VISUALSTYLE
  5
2F
102
{ACAD_REACTORS
330
2A
102
}
330
2A
100
AcDbVisualStyle
  2
2dWireframe
 70
     4
177
     2
291
     0
 71
     0
176
     1
 72
     2
176
     1
 73
     0
176
     1
 90
        0
176
     1
 40
-0.6
176
     1
 41
-30.0
176
     1
 62
     5
 63
     7
421
 16777215
176
     1
 74
     1
176
     1
 91
        4
176
     1
 64
     7
176
     1
 65
   257
176
     1
 75
     1
176
     1
175
     1
176
     1
 42
1.0
176
     1
 92
        0
176
     1
 66
   257
176
     1
 43
1.0
176
     1
 76
     1
176
     1
 77
     6
176
     1
 78
     2
176
     1
 67
     7
176
     1
 79
     5
176
     1
170
     0
176
     1
171
     0
176
     1
290
     0
176
     1
 93
        1
176
     1
 44
0.0
176
     1
173
     0
176
     1
  0
VISUALSTYLE
  5
31
102
{ACAD_REACTORS
330
2A
102
}
330
2A
100
AcDbVisualStyle
  2
3D Hidden
 70
     6
177
     2
291
     0
 71
     1
176
     1
 72
     2
176
     1
 73
     2
176
     1
 90
        0
176
     1
 40
-0.6
176
     1
 41
-30.0
176
     1
 62
     5
 63
     7
421
 16777215
176
     1
 74
     2
176
     1
 91
        2
176
     1
 64
     7
176
     1
 65
   257
176
     1
 75
     2
176
     1
175
     1
176
     1
 42
40.0
176
     1
 92
        0
176
     1
 66
   257
176
     1
 43
1.0
176
     1
 76
     1
176
     1
 77
     6
176
     1
 78
     2
176
     1
 67
     7
176
     1
 79
     3
176
     1
170
     0
176
     1
171
     0
176
     1
290
     0
176
     1
 93
        1
176
     1
 44
0.0
176
     1
173
     0
176
     1
  0
VISUALSTYLE
  5
30
102
{ACAD_REACTORS
330
2A
102
}
330
2A
100
AcDbVisualStyle
  2
3dWireframe
 70
     5
177
     2
291
     0
 71
     0
176
     1
 72
     2
176
     1
 73
     0
176
     1
 90
        0
176
     1
 40
-0.6
176
     1
 41
-30.0
176
     1
 62
     5
 63
     7
421
 16777215
176
     1
 74
     1
176
     1
 91
        4
176
     1
 64
     7
176
     1
 65
   257
176
     1
 75
     1
176
     1
175
     1
176
     1
 42
1.0
176
     1
 92
        0
176
     1
 66
   257
176
     1
 43
1.0
176
     1
 76
     1
176
     1
 77
     6
176
     1
 78
     2
176
     1
 67
     7
176
     1
 79
     5
176
     1
170
     0
176
     1
171
     0
176
     1
290
     0
176
     1
 93
        1
176
     1
 44
0.0
176
     1
173
     0
176
     1
  0
VISUALSTYLE
  5
32
102
{ACAD_REACTORS
330
2A
102
}
330
2A
100
AcDbVisualStyle
  2
Basic
 70
     7
177
     2
291
     1
 71
     1
176
     1
 72
     0
176
     1
 73
     1
176
     1
 90
        0
176
     1
 40
-0.6
176
     1
 41
-30.0
176
     1
 62
     5
 63
     7
421
 16777215
176
     1
 74
     0
176
     1
 91
        4
176
     1
 64
     7
176
     1
 65
   257
176
     1
 75
     1
176
     1
175
     1
176
     1
 42
1.0
176
     1
 92
        8
176
     1
 66
     7
176
     1
 43
1.0
176
     1
 76
     1
176
     1
 77
     6
176
     1
 78
     2
176
     1
 67
     7
176
     1
 79
     5
176
     1
170
     0
176
     1
171
     0
176
     1
290
     0
176
     1
 93
        1
176
     1
 44
0.0
176
     1
173
     0
176
     1
  0
VISUALSTYLE
  5
36
102
{ACAD_REACTORS
330
2A
102
}
330
2A
100
AcDbVisualStyle
  2
Brighten
 70
    12
177
     2
291
     1
 71
     2
176
     1
 72
     2
176
     1
 73
     0
176
     1
 90
        0
176
     1
 40
-0.6
176
     1
 41
-30.0
176
     1
 62
     5
 63
     7
421
 16777215
176
     1
 74
     1
176
     1
 91
        4
176
     1
 64
     7
176
     1
 65
   257
176
     1
 75
     1
176
     1
175
     1
176
     1
 42
1.0
176
     1
 92
        8
176
     1
 66
     7
176
     1
 43
1.0
176
     1
 76
     1
176
     1
 77
     6
176
     1
 78
     2
176
     1
 67
     7
176
     1
 79
     5
176
     1
170
     0
176
     1
171
     0
176
     1
290
     0
176
     1
 93
        1
176
     1
 44
50.0
176
     1
173
     0
176
     1
  0
VISUALSTYLE
  5
3A
102
{ACAD_REACTORS
330
2A
102
}
330
2A
100
AcDbVisualStyle
  2
ColorChange
 70
    16
177
     2
291
     1
 71
     2
176
     1
 72
     2
176
     1
 73
     3
176
     1
 90
        0
176
     1
 40
-0.6
176
     1
 41
-30.0
176
     1
 62
     5
 63
     8
421
  8421504
176
     1
 74
     1
176
     1
 91
        4
176
     1
 64
     7
176
     1
 65
   257
176
     1
 75
     1
176
     1
175
     1
176
     1
 42
1.0
176
     1
 92
        8
176
     1
 66
     8
424
  8421504
176
     1
 43
1.0
176
     1
 76
     1
176
     1
 77
     6
176
     1
 78
     2
176
     1
 67
     7
176
     1
 79
     5
176
     1
170
     0
176
     1
171
     0
176
     1
290
     0
176
     1
 93
        1
176
     1
 44
0.0
176
     1
173
     0
176
     1
  0
VISUALSTYLE
  5
34
102
{ACAD_REACTORS
330
2A
102
}
330
2A
100
AcDbVisualStyle
  2
Conceptual
 70
     9
177
     2
291
     0
 71
     3
176
     1
 72
     2
176
     1
 73
     0
176
     1
 90
        0
176
     1
 40
-0.6
176
     1
 41
-30.0
176
     1
 62
     5
 63
     7
421
 16777215
176
     1
 74
     2
176
     1
 91
        2
176
     1
 64
     7
176
     1
 65
   257
176
     1
 75
     1
176
     1
175
     1
176
     1
 42
40.0
176
     1
 92
        8
176
     1
 66
     7
176
     1
 43
1.0
176
     1
 76
     1
176
     1
 77
     6
176
     1
 78
     2
176
     1
 67
     7
176
     1
 79
     3
176
     1
170
     0
176
     1
171
     0
176
     1
290
     0
176
     1
 93
        1
176
     1
 44
0.0
176
     1
173
     0
176
     1
  0
VISUALSTYLE
  5
35
102
{ACAD_REACTORS
330
2A
102
}
330
2A
100
AcDbVisualStyle
  2
Dim
 70
    11
177
     2
291
     1
 71
     2
176
     1
 72
     2
176
     1
 73
     0
176
     1
 90
        0
176
     1
 40
-0.6
176
     1
 41
-30.0
176
     1
 62
     5
 63
     7
421
 16777215
176
     1
 74
     1
176
     1
 91
        4
176
     1
 64
     7
176
     1
 65
   257
176
     1
 75
     1
176
     1
175
     1
176
     1
 42
1.0
176
     1
 92
        8
176
     1
 66
     7
176
     1
 43
1.0
176
     1
 76
     1
176
     1
 77
     6
176
     1
 78
     2
176
     1
 67
     7
176
     1
 79
     5
176
     1
170
     0
176
     1
171
     0
176
     1
290
     0
176
     1
 93
        1
176
     1
 44
-50.0
176
     1
173
     0
176
     1
  0
VISUALSTYLE
  5
39
102
{ACAD_REACTORS
330
2A
102
}
330
2A
100
AcDbVisualStyle
  2
Facepattern
 70
    15
177
     2
291
     1
 71
     2
176
     1
 72
     2
176
     1
 73
     0
176
     1
 90
        0
176
     1
 40
-0.6
176
     1
 41
-30.0
176
     1
 62
     5
 63
     7
421
 16777215
176
     1
 74
     1
176
     1
 91
        4
176
     1
 64
     7
176
     1
 65
   257
176
     1
 75
     1
176
     1
175
     1
176
     1
 42
1.0
176
     1
 92
        8
176
     1
 66
     7
176
     1
 43
1.0
176
     1
 76
     1
176
     1
 77
     6
176
     1
 78
     2
176
     1
 67
     7
176
     1
 79
     5
176
     1
170
     0
176
     1
171
     0
176
     1
290
     0
176
     1
 93
        1
176
     1
 44
0.0
176
     1
173
     0
176
     1
  0
VISUALSTYLE
  5
2B
102
{ACAD_REACTORS
330
2A
102
}
330
2A
100
AcDbVisualStyle
  2
Flat
 70
     0
177
     2
291
     1
 71
     2
176
     1
 72
     1
176
     1
 73
     1
176
     1
 90
        2
176
     1
 40
-0.6
176
     1
 41
30.0
176
     1
 62
     5
 63
     7
421
 16777215
176
     1
 74
     0
176
     1
 91
        4
176
     1
 64
     7
176
     1
 65
   257
176
     1
 75
     1
176
     1
175
     1
176
     1
 42
1.0
176
     1
 92
        8
176
     1
 66
     7
176
     1
 43
1.0
176
     1
 76
     1
176
     1
 77
     6
176
     1
 78
     2
176
     1
 67
     7
176
     1
 79
     5
176
     1
170
     0
176
     1
171
     0
176
     1
290
     0
176
     1
 93
       13
176
     1
 44
0.0
176
     1
173
     0
176
     1
  0
VISUALSTYLE
  5
2C
102
{ACAD_REACTORS
330
2A
102
}
330
2A
100
AcDbVisualStyle
  2
FlatWithEdges
 70
     1
177
     2
291
     1
 71
     2
176
     1
 72
     1
176
     1
 73
     1
176
     1
 90
        2
176
     1
 40
-0.6
176
     1
 41
30.0
176
     1
 62
     5
 63
     7
421
 16777215
176
     1
 74
     1
176
     1
 91
        4
176
     1
 64
     7
176
     1
 65
   257
176
     1
 75
     1
176
     1
175
     1
176
     1
 42
1.0
176
     1
 92
        0
176
     1
 66
   257
176
     1
 43
1.0
176
     1
 76
     1
176
     1
 77
     6
176
     1
 78
     2
176
     1
 67
     7
176
     1
 79
     5
176
     1
170
     0
176
     1
171
     0
176
     1
290
     0
176
     1
 93
       13
176
     1
 44
0.0
176
     1
173
     0
176
     1
  0
VISUALSTYLE
  5
2D
102
{ACAD_REACTORS
330
2A
102
}
330
2A
100
AcDbVisualStyle
  2
Gouraud
 70
     2
177
     2
291
     1
 71
     2
176
     1
 72
     2
176
     1
 73
     1
176
     1
 90
        2
176
     1
 40
-0.6
176
     1
 41
30.0
176
     1
 62
     5
 63
     7
421
 16777215
176
     1
 74
     0
176
     1
 91
        4
176
     1
 64
     7
176
     1
 65
   257
176
     1
 75
     1
176
     1
175
     1
176
     1
 42
1.0
176
     1
 92
        0
176
     1
 66
     7
176
     1
 43
1.0
176
     1
 76
     1
176
     1
 77
     6
176
     1
 78
     2
176
     1
 67
     7
176
     1
 79
     5
176
     1
170
     0
176
     1
171
     0
176
     1
290
     0
176
     1
 93
       13
176
     1
 44
0.0
176
     1
173
     0
176
     1
  0
VISUALSTYLE
  5
2E
102
{ACAD_REACTORS
330
2A
102
}
330
2A
100
AcDbVisualStyle
  2
GouraudWithEdges
 70
     3
177
     2
291
     1
 71
     2
176
     1
 72
     2
176
     1
 73
     1
176
     1
 90
        2
176
     1
 40
-0.6
176
     1
 41
30.0
176
     1
 62
     5
 63
     7
421
 16777215
176
     1
 74
     1
176
     1
 91
        4
176
     1
 64
     7
176
     1
 65
   257
176
     1
 75
     1
176
     1
175
     1
176
     1
 42
1.0
176
     1
 92
        0
176
     1
 66
   257
176
     1
 43
1.0
176
     1
 76
     1
176
     1
 77
     6
176
     1
 78
     2
176
     1
 67
     7
176
     1
 79
     5
176
     1
170
     0
176
     1
171
     0
176
     1
290
     0
176
     1
 93
       13
176
     1
 44
0.0
176
     1
173
     0
176
     1
  0
VISUALSTYLE
  5
38
102
{ACAD_REACTORS
330
2A
102
}
330
2A
100
AcDbVisualStyle
  2
Linepattern
 70
    14
177
     2
291
     1
 71
     2
176
     1
 72
     2
176
     1
 73
     0
176
     1
 90
        0
176
     1
 40
-0.6
176
     1
 41
-30.0
176
     1
 62
     5
 63
     7
421
 16777215
176
     1
 74
     1
176
     1
 91
        4
176
     1
 64
     7
176
     1
 65
   257
176
     1
 75
     7
176
     1
175
     7
176
     1
 42
1.0
176
     1
 92
        8
176
     1
 66
     7
176
     1
 43
1.0
176
     1
 76
     1
176
     1
 77
     6
176
     1
 78
     2
176
     1
 67
     7
176
     1
 79
     5
176
     1
170
     0
176
     1
171
     0
176
     1
290
     0
176
     1
 93
        1
176
     1
 44
0.0
176
     1
173
     0
176
     1
  0
VISUALSTYLE
  5
33
102
{ACAD_REACTORS
330
2A
102
}
330
2A
100
AcDbVisualStyle
  2
Realistic
 70
     8
177
     2
291
     0
 71
     2
176
     1
 72
     2
176
     1
 73
     0
176
     1
 90
        0
176
     1
 40
-0.6
176
     1
 41
-30.0
176
     1
 62
     5
 63
     7
421
 16777215
176
     1
 74
     1
176
     1
 91
        0
176
     1
 64
     7
176
     1
 65
   257
176
     1
 75
     1
176
     1
175
     1
176
     1
 42
1.0
176
     1
 92
        8
176
     1
 66
     8
424
  7895160
176
     1
 43
1.0
176
     1
 76
     1
176
     1
 77
     6
176
     1
 78
     2
176
     1
 67
     7
176
     1
 79
     5
176
     1
170
     0
176
     1
171
     0
176
     1
290
     0
176
     1
 93
       13
176
     1
 44
0.0
176
     1
173
     0
176
     1
  0
VISUALSTYLE
  5
37
102
{ACAD_REACTORS
330
2A
102
}
330
2A
100
AcDbVisualStyle
  2
Thicken
 70
    13
177
     2
291
     1
 71
     2
176
     1
 72
     2
176
     1
 73
     0
176
     1
 90
        0
176
     1
 40
-0.6
176
     1
 41
-30.0
176
     1
 62
     5
 63
     7
421
 16777215
176
     1
 74
     1
176
     1
 91
        4
176
     1
 64
     7
176
     1
 65
   257
176
     1
 75
     1
176
     1
175
     1
176
     1
 42
1.0
176
     1
 92
       12
176
     1
 66
     7
176
     1
 43
1.0
176
     1
 76
     1
176
     1
 77
     6
176
     1
 78
     2
176
     1
 67
     7
176
     1
 79
     5
176
     1
170
     0
176
     1
171
     0
176
     1
290
     0
176
     1
 93
        1
176
     1
 44
0.0
176
     1
173
     0
176
     1
  0
ENDSEC
  0
EOF
