  0
SECTION
  2
HEADER
  9
$ACADVER
  1
AC1024
  9
$ACADMAINTVER
 70
     6
  9
$DWGCODEPAGE
  3
UNDEFINED
  9
$INSBASE
 10
0.0
 20
0.0
 30
0.0
  9
$EXTMIN
 10
1.000000000000000E+20
 20
1.000000000000000E+20
 30
1.000000000000000E+20
  9
$EXTMAX
 10
-1.000000000000000E+20
 20
-1.000000000000000E+20
 30
-1.000000000000000E+20
  9
$LIMMIN
 10
0.0
 20
0.0
  9
$LIMMAX
 10
12.0
 20
9.0
  9
$ORTHOMODE
 70
     0
  9
$REGENMODE
 70
     1
  9
$FILLMODE
 70
     1
  9
$QTEXTMODE
 70
     0
  9
$MIRRTEXT
 70
     1
  9
$LTSCALE
 40
1.0
  9
$ATTMODE
 70
     1
  9
$TEXTSIZE
 40
0.2
  9
$TRACEWID
 40
0.05
  9
$TEXTSTYLE
  7
Standard
  9
$CLAYER
  8
0
  9
$CELTYPE
  6
ByLayer
  9
$CECOLOR
 62
   256
  9
$CELTSCALE
 40
1.0
  9
$DISPSILH
 70
     0
  9
$DIMSCALE
 40
1.0
  9
$DIMASZ
 40
0.18
  9
$DIMEXO
 40
0.0625
  9
$DIMDLI
 40
0.38
  9
$DIMRND
 40
0.0
  9
$DIMDLE
 40
0.0
  9
$DIMEXE
 40
0.18
  9
$DIMTP
 40
0.0
  9
$DIMTM
 40
0.0
  9
$DIMTXT
 40
0.18
  9
$DIMCEN
 40
0.09
  9
$DIMTSZ
 40
0.0
  9
$DIMTOL
 70
     0
  9
$DIMLIM
 70
     0
  9
$DIMTIH
 70
     1
  9
$DIMTOH
 70
     1
  9
$DIMSE1
 70
     0
  9
$DIMSE2
 70
     0
  9
$DIMTAD
 70
     0
  9
$DIMZIN
 70
     0
  9
$DIMBLK
  1

  9
$DIMASO
 70
     1
  9
$DIMSHO
 70
     1
  9
$DIMPOST
  1

  9
$DIMAPOST
  1

  9
$DIMALT
 70
     0
  9
$DIMALTD
 70
     2
  9
$DIMALTF
 40
25.4
  9
$DIMLFAC
 40
1.0
  9
$DIMTOFL
 70
     0
  9
$DIMTVP
 40
0.0
  9
$DIMTIX
 70
     0
  9
$DIMSOXD
 70
     0
  9
$DIMSAH
 70
     0
  9
$DIMBLK1
  1

  9
$DIMBLK2
  1

  9
$DIMSTYLE
  2
Standard
  9
$DIMCLRD
 70
     0
  9
$DIMCLRE
 70
     0
  9
$DIMCLRT
 70
     0
  9
$DIMTFAC
 40
1.0
  9
$DIMGAP
 40
0.09
  9
$DIMJUST
 70
     0
  9
$DIMSD1
 70
     0
  9
$DIMSD2
 70
     0
  9
$DIMTOLJ
 70
     1
  9
$DIMTZIN
 70
     0
  9
$DIMALTZ
 70
     0
  9
$DIMALTTZ
 70
     0
  9
$DIMUPT
 70
     0
  9
$DIMDEC
 70
     4
  9
$DIMTDEC
 70
     4
  9
$DIMALTU
 70
     2
  9
$DIMALTTD
 70
     2
  9
$DIMTXSTY
  7
Standard
  9
$DIMAUNIT
 70
     0
  9
$DIMADEC
 70
     0
  9
$DIMALTRND
 40
0.0
  9
$DIMAZIN
 70
     0
  9
$DIMDSEP
 70
    46
  9
$DIMATFIT
 70
     3
  9
$DIMFRAC
 70
     0
  9
$DIMLDRBLK
  1

  9
$DIMLUNIT
 70
     2
  9
$DIMLWD
 70
    -2
  9
$DIMLWE
 70
    -2
  9
$DIMTMOVE
 70
     0
  9
$DIMFXL
 40
1.0
  9
$DIMFXLON
 70
     0
  9
$DIMJOGANG
 40
0.7853981633974483
  9
$DIMTFILL
 70
     0
  9
$DIMTFILLCLR
 70
     0
  9
$DIMARCSYM
 70
     0
  9
$DIMLTYPE
  6

  9
$DIMLTEX1
  6

  9
$DIMLTEX2
  6

  9
$DIMTXTDIRECTION
 70
     0
  9
$LUNITS
 70
     2
  9
$LUPREC
 70
     4
  9
$SKETCHINC
 40
0.1
  9
$FILLETRAD
 40
0.5
  9
$AUNITS
 70
     0
  9
$AUPREC
 70
     0
  9
$MENU
  1
.
  9
$ELEVATION
 40
0.0
  9
$PELEVATION
 40
0.0
  9
$THICKNESS
 40
0.0
  9
$LIMCHECK
 70
     0
  9
$CHAMFERA
 40
0.5
  9
$CHAMFERB
 40
0.5
  9
$CHAMFERC
 40
1.0
  9
$CHAMFERD
 40
0.0
  9
$SKPOLY
 70
     0
  9
$TDCREATE
 40
2457917.610069433
  9
$TDUCREATE
 40
2457917.235069444
  9
$TDUPDATE
 40
2457917.610069433
  9
$TDUUPDATE
 40
2457917.235069444
  9
$TDINDWG
 40
0.0000000116
  9
$TDUSRTIMER
 40
0.0000000116
  9
$USRTIMER
 70
     1
  9
$ANGBASE
 50
0.0
  9
$ANGDIR
 70
     0
  9
$PDMODE
 70
     0
  9
$PDSIZE
 40
0.0
  9
$PLINEWID
 40
0.0
  9
$SPLFRAME
 70
     0
  9
$SPLINETYPE
 70
     6
  9
$SPLINESEGS
 70
     8
  9
$HANDSEED
  5
A2
  9
$SURFTAB1
 70
     6
  9
$SURFTAB2
 70
     6
  9
$SURFTYPE
 70
     6
  9
$SURFU
 70
     6
  9
$SURFV
 70
     6
  9
$UCSBASE
  2

  9
$UCSNAME
  2

  9
$UCSORG
 10
0.0
 20
0.0
 30
0.0
  9
$UCSXDIR
 10
1.0
 20
0.0
 30
0.0
  9
$UCSYDIR
 10
0.0
 20
1.0
 30
0.0
  9
$UCSORTHOREF
  2

  9
$UCSORTHOVIEW
 70
     0
  9
$UCSORGTOP
 10
0.0
 20
0.0
 30
0.0
  9
$UCSORGBOTTOM
 10
0.0
 20
0.0
 30
0.0
  9
$UCSORGLEFT
 10
0.0
 20
0.0
 30
0.0
  9
$UCSORGRIGHT
 10
0.0
 20
0.0
 30
0.0
  9
$UCSORGFRONT
 10
0.0
 20
0.0
 30
0.0
  9
$UCSORGBACK
 10
0.0
 20
0.0
 30
0.0
  9
$PUCSBASE
  2

  9
$PUCSNAME
  2

  9
$PUCSORG
 10
0.0
 20
0.0
 30
0.0
  9
$PUCSXDIR
 10
1.0
 20
0.0
 30
0.0
  9
$PUCSYDIR
 10
0.0
 20
1.0
 30
0.0
  9
$PUCSORTHOREF
  2

  9
$PUCSORTHOVIEW
 70
     0
  9
$PUCSORGTOP
 10
0.0
 20
0.0
 30
0.0
  9
$PUCSORGBOTTOM
 10
0.0
 20
0.0
 30
0.0
  9
$PUCSORGLEFT
 10
0.0
 20
0.0
 30
0.0
  9
$PUCSORGRIGHT
 10
0.0
 20
0.0
 30
0.0
  9
$PUCSORGFRONT
 10
0.0
 20
0.0
 30
0.0
  9
$PUCSORGBACK
 10
0.0
 20
0.0
 30
0.0
  9
$USERI1
 70
     0
  9
$USERI2
 70
     0
  9
$USERI3
 70
     0
  9
$USERI4
 70
     0
  9
$USERI5
 70
     0
  9
$USERR1
 40
0.0
  9
$USERR2
 40
0.0
  9
$USERR3
 40
0.0
  9
$USERR4
 40
0.0
  9
$USERR5
 40
0.0
  9
$WORLDVIEW
 70
     1
  9
$SHADEDGE
 70
     3
  9
$SHADEDIF
 70
    70
  9
$TILEMODE
 70
     1
  9
$MAXACTVP
 70
    64
  9
$PINSBASE
 10
0.0
 20
0.0
 30
0.0
  9
$PLIMCHECK
 70
     0
  9
$PEXTMIN
 10
1.000000000000000E+20
 20
1.000000000000000E+20
 30
1.000000000000000E+20
  9
$PEXTMAX
 10
-1.000000000000000E+20
 20
-1.000000000000000E+20
 30
-1.000000000000000E+20
  9
$PLIMMIN
 10
0.0
 20
0.0
  9
$PLIMMAX
 10
12.0
 20
9.0
  9
$UNITMODE
 70
     0
  9
$VISRETAIN
 70
     1
  9
$PLINEGEN
 70
     0
  9
$PSLTSCALE
 70
     1
  9
$TREEDEPTH
 70
  3020
  9
$CMLSTYLE
  2
Standard
  9
$CMLJUST
 70
     0
  9
$CMLSCALE
 40
1.0
  9
$PROXYGRAPHICS
 70
     1
  9
$MEASUREMENT
 70
     0
  9
$CELWEIGHT
370
    -1
  9
$ENDCAPS
280
     0
  9
$JOINSTYLE
280
     0
  9
$LWDISPLAY
290
     1
  9
$INSUNITS
 70
     1
  9
$HYPERLINKBASE
  1

  9
$STYLESHEET
  1

  9
$XEDIT
290
     1
  9
$CEPSNTYPE
380
     0
  9
$PSTYLEMODE
290
     1
  9
$FINGERPRINTGUID
  2
{C3F65765-9F44-EBF5-F76B-0DF759B6D827}
  9
$VERSIONGUID
  2
{FAEB1C32-E019-11D5-929B-00C0DF256EC4}
  9
$EXTNAMES
290
     1
  9
$PSVPSCALE
 40
0.0
  9
$OLESTARTUP
290
     0
  9
$SORTENTS
280
   127
  9
$INDEXCTL
280
     0
  9
$HIDETEXT
280
     1
  9
$XCLIPFRAME
280
     2
  9
$HALOGAP
280
     0
  9
$OBSCOLOR
 70
   257
  9
$OBSLTYPE
280
     0
  9
$INTERSECTIONDISPLAY
280
     0
  9
$INTERSECTIONCOLOR
 70
   257
  9
$DIMASSOC
280
     2
  9
$PROJECTNAME
  1

  9
$CAMERADISPLAY
290
     0
  9
$LENSLENGTH
 40
50.0
  9
$CAMERAHEIGHT
 40
0.0
  9
$STEPSPERSEC
 40
2.0
  9
$STEPSIZE
 40
6.0
  9
$3DDWFPREC
 40
2.0
  9
$PSOLWIDTH
 40
0.25
  9
$PSOLHEIGHT
 40
4.0
  9
$LOFTANG1
 40
1.570796326794897
  9
$LOFTANG2
 40
1.570796326794897
  9
$LOFTMAG1
 40
0.0
  9
$LOFTMAG2
 40
0.0
  9
$LOFTPARAM
 70
     7
  9
$LOFTNORMALS
280
     1
  9
$LATITUDE
 40
37.795
  9
$LONGITUDE
 40
-122.394
  9
$NORTHDIRECTION
 40
0.0
  9
$TIMEZONE
 70
 -8000
  9
$LIGHTGLYPHDISPLAY
280
     1
  9
$TILEMODELIGHTSYNCH
280
     1
  9
$CMATERIAL
347
3C
  9
$SOLIDHIST
280
     1
  9
$SHOWHIST
280
     1
  9
$DWFFRAME
280
     2
  9
$DGNFRAME
280
     2
  9
$REALWORLDSCALE
290
     1
  9
$INTERFERECOLOR
 62
   256
  9
$CSHADOW
280
     0
  9
$SHADOWPLANELOCATION
 40
0.0
  0
ENDSEC
  0
SECTION
  2
CLASSES
  0
CLASS
  1
ACDBDICTIONARYWDFLT
  2
AcDbDictionaryWithDefault
  3
ObjectDBX Classes
 90
        0
 91
        4
280
     0
281
     0
  0
CLASS
  1
VISUALSTYLE
  2
AcDbVisualStyle
  3
ObjectDBX Classes
 90
     4095
 91
        4
280
     0
281
     0
  0
CLASS
  1
MATERIAL
  2
AcDbMaterial
  3
ObjectDBX Classes
 90
     1153
 91
        4
280
     0
281
     0
  0
CLASS
  1
SUN
  2
AcDbSun
  3
SCENEOE
 90
     1024
 91
        4
280
     0
281
     0
  0
ENDSEC
  0
SECTION
  2
TABLES
  0
TABLE
  2
VPORT
  5
8
330
0
100
AcDbSymbolTable
 70
     1
  0
VPORT
  5
29
330
8
100
AcDbSymbolTableRecord
100
AcDbViewportTableRecord
  2
*Active
 70
     0
 10
0.0
 20
0.0
 11
1.0
 21
1.0
 12
0.0
 22
0.0
 13
0.0
 23
0.0
 14
0.5
 24
0.5
 15
0.5
 25
0.5
 16
0.0
 26
0.0
 36
1.0
 17
91.00082462281999
 27
-128.4993055234307
 37
0.0
 40
256.9986110468615
 41
0.7081814508812795
 42
50.0
 43
0.0
 44
0.0
 50
0.0
 51
0.0
 71
     0
 72
   100
 73
     1
 74
     3
 75
     0
 76
     0
 77
     0
 78
     0
281
     0
 65
     1
110
0.0
120
0.0
130
0.0
111
1.0
121
0.0
131
0.0
112
0.0
122
1.0
132
0.0
 79
     0
146
0.0
 60
     3
 61
     5
292
     1
282
     1
141
0.0
142
0.0
 63
   250
361
3F
  0
ENDTAB
  0
TABLE
  2
LTYPE
  5
5
330
0
100
AcDbSymbolTable
 70
     1
  0
LTYPE
  5
14
330
5
100
AcDbSymbolTableRecord
100
AcDbLinetypeTableRecord
  2
ByBlock
 70
     0
  3

 72
    65
 73
     0
 40
0.0
  0
LTYPE
  5
15
330
5
100
AcDbSymbolTableRecord
100
AcDbLinetypeTableRecord
  2
ByLayer
 70
     0
  3

 72
    65
 73
     0
 40
0.0
  0
LTYPE
  5
16
330
5
100
AcDbSymbolTableRecord
100
AcDbLinetypeTableRecord
  2
Continuous
 70
     0
  3
Solid line
 72
    65
 73
     0
 40
0.0
  0
ENDTAB
  0
TABLE
  2
LAYER
  5
2
330
0
100
AcDbSymbolTable
 70
     2
  0
LAYER
  5
10
330
2
100
AcDbSymbolTableRecord
100
AcDbLayerTableRecord
  2
0
 70
     0
 62
     7
  6
Continuous
370
    -3
390
F
347
3E
  0
LAYER
  5
40
330
2
100
AcDbSymbolTableRecord
100
AcDbLayerTableRecord
  2
_U+30EC_U+30A4_U+30E4_U+30FC 1
 70
     0
 62
     7
  6
Continuous
370
    -3
390
F
347
3E
  0
ENDTAB
  0
TABLE
  2
STYLE
  5
3
330
0
100
AcDbSymbolTable
 70
     1
  0
STYLE
  5
11
330
3
100
AcDbSymbolTableRecord
100
AcDbTextStyleTableRecord
  2
Standard
 70
     0
 40
0.0
 41
1.0
 50
0.0
 71
     0
 42
0.2
  3
txt
  4

  0
ENDTAB
  0
TABLE
  2
VIEW
  5
6
330
0
100
AcDbSymbolTable
 70
     0
  0
ENDTAB
  0
TABLE
  2
UCS
  5
7
330
0
100
AcDbSymbolTable
 70
     0
  0
ENDTAB
  0
TABLE
  2
APPID
  5
9
330
0
100
AcDbSymbolTable
 70
     1
  0
APPID
  5
12
330
9
100
AcDbSymbolTableRecord
100
AcDbRegAppTableRecord
  2
ACAD
 70
     0
  0
ENDTAB
  0
TABLE
  2
DIMSTYLE
  5
A
330
0
100
AcDbSymbolTable
 70
     1
100
AcDbDimStyleTable
  0
DIMSTYLE
105
27
330
A
100
AcDbSymbolTableRecord
100
AcDbDimStyleTableRecord
  2
Standard
 70
     0
178
     0
340
11
  0
ENDTAB
  0
TABLE
  2
BLOCK_RECORD
  5
1
330
0
100
AcDbSymbolTable
 70
     4
  0
BLOCK_RECORD
  5
1F
330
1
100
AcDbSymbolTableRecord
100
AcDbBlockTableRecord
  2
*Model_Space
340
22
 70
     0
280
     1
281
     0
  0
BLOCK_RECORD
  5
1B
330
1
100
AcDbSymbolTableRecord
100
AcDbBlockTableRecord
  2
*Paper_Space
340
1E
 70
     0
280
     1
281
     0
  0
BLOCK_RECORD
  5
23
330
1
100
AcDbSymbolTableRecord
100
AcDbBlockTableRecord
  2
*Paper_Space0
340
26
 70
     0
280
     1
281
     0
  0
BLOCK_RECORD
  5
6B
330
1
100
AcDbSymbolTableRecord
100
AcDbBlockTableRecord
  2
block 2
340
0
102
{BLKREFS
331
6C
102
}
 70
     0
280
     1
281
     0
  0
BLOCK_RECORD
  5
82
330
1
100
AcDbSymbolTableRecord
100
AcDbBlockTableRecord
  2
block 3
340
0
102
{BLKREFS
331
83
102
}
 70
     0
280
     1
281
     0
  0
BLOCK_RECORD
  5
97
330
1
100
AcDbSymbolTableRecord
100
AcDbBlockTableRecord
  2
block 4
340
0
102
{BLKREFS
331
98
102
}
 70
     0
280
     1
281
     0
  0
ENDTAB
  0
ENDSEC
  0
SECTION
  2
BLOCKS
  0
BLOCK
  5
20
330
1F
100
AcDbEntity
  8
0
100
AcDbBlockBegin
  2
*Model_Space
 70
     0
 10
0.0
 20
0.0
 30
0.0
  3
*Model_Space
  1

  0
ENDBLK
  5
21
330
1F
100
AcDbEntity
  8
0
100
AcDbBlockEnd
  0
BLOCK
  5
1C
330
1B
100
AcDbEntity
 67
     1
  8
0
100
AcDbBlockBegin
  2
*Paper_Space
 70
     0
 10
0.0
 20
0.0
 30
0.0
  3
*Paper_Space
  1

  0
ENDBLK
  5
1D
330
1B
100
AcDbEntity
 67
     1
  8
0
100
AcDbBlockEnd
  0
BLOCK
  5
24
330
23
100
AcDbEntity
  8
0
100
AcDbBlockBegin
  2
*Paper_Space0
 70
     0
 10
0.0
 20
0.0
 30
0.0
  3
*Paper_Space0
  1

  0
ENDBLK
  5
25
330
23
100
AcDbEntity
  8
0
100
AcDbBlockEnd
  0
BLOCK
  5
6D
330
6B
100
AcDbEntity
  8
0
100
AcDbBlockBegin
  2
block 2
 70
     0
 10
0.0
 20
0.0
 30
0.0
  3
block 2
  1

  0
SPLINE
  5
6F
330
6B
100
AcDbEntity
  8
_U+30EC_U+30A4_U+30E4_U+30FC 1
370
     0
100
AcDbSpline
210
0.0
220
0.0
230
1.0
 70
    11
 71
     3
 72
    62
 73
    58
 74
     0
 42
0.0000000001
 43
0.0000000001
 12
1.0
 22
0.0
 32
0.0
 13
1.0
 23
0.0
 33
0.0
 40
0.0
 40
0.0
 40
0.0
 40
0.0
 40
1.0
 40
1.0
 40
1.0
 40
2.0
 40
2.0
 40
2.0
 40
3.0
 40
3.0
 40
3.0
 40
4.0
 40
4.0
 40
4.0
 40
5.0
 40
5.0
 40
5.0
 40
6.0
 40
6.0
 40
6.0
 40
7.0
 40
7.0
 40
7.0
 40
8.0
 40
8.0
 40
8.0
 40
9.0
 40
9.0
 40
9.0
 40
10.0
 40
10.0
 40
10.0
 40
11.0
 40
11.0
 40
11.0
 40
12.0
 40
12.0
 40
12.0
 40
13.0
 40
13.0
 40
13.0
 40
14.0
 40
14.0
 40
14.0
 40
15.0
 40
15.0
 40
15.0
 40
16.0
 40
16.0
 40
16.0
 40
17.0
 40
17.0
 40
17.0
 40
18.0
 40
18.0
 40
18.0
 40
19.0
 40
19.0
 40
19.0
 40
19.0
 10
83.03989255736504
 20
-124.2613213122506
 30
0.0
 10
82.94463566719787
 20
-124.2613213122506
 30
0.0
 10
82.72673337775582
 20
-124.2401339750164
 30
0.0
 10
82.60202092118978
 20
-124.0539265640386
 30
0.0
 10
82.52795136825691
 20
-123.9417887059937
 30
0.0
 10
82.52364499890034
 20
-123.8423977012443
 30
0.0
 10
82.51951088431804
 20
-123.7578206070814
 30
0.0
 10
82.51951088431804
 20
-123.7578206070814
 30
0.0
 10
82.73948023105125
 20
-123.7578206070814
 30
0.0
 10
82.73948023105125
 20
-123.7578206070814
 30
0.0
 10
82.74154728834239
 20
-123.8318901600143
 30
0.0
 10
82.75222708434667
 20
-124.066673417334
 30
0.0
 10
83.03558618800847
 20
-124.066673417334
 30
0.0
 10
83.1732177526442
 20
-124.066673417334
 30
0.0
 10
83.32549097309224
 20
-123.9969102337577
 30
0.0
 10
83.32549097309224
 20
-123.7683281483114
 30
0.0
 10
83.32549097309224
 20
-123.6520561756842
 30
0.0
 10
83.28742266798024
 20
-123.6033080745679
 30
0.0
 10
83.25572778951593
 20
-123.5716131961036
 30
0.0
 10
83.18165823658306
 20
-123.4975436431708
 30
0.0
 10
83.06521400918162
 20
-123.4849690446496
 30
0.0
 10
83.01026473619189
 20
-123.4849690446496
 30
0.0
 10
82.991316711023
 20
-123.4849690446496
 30
0.0
 10
82.95531546320214
 20
-123.4870361019407
 30
0.0
 10
82.92775469932015
 20
-123.491170216523
 30
0.0
 10
82.92775469932015
 20
-123.491170216523
 30
0.0
 10
82.92775469932015
 20
-123.2965223216064
 30
0.0
 10
82.92775469932015
 20
-123.2965223216064
 30
0.0
 10
82.96582300443215
 20
-123.3028957482541
 30
0.0
 10
83.00819767890073
 20
-123.3051350603196
 30
0.0
 10
83.01457110554844
 20
-123.3051350603196
 30
0.0
 10
83.08002791976818
 20
-123.3051350603196
 30
0.0
 10
83.27898218404137
 20
-123.2839477230853
 30
0.0
 10
83.27898218404137
 20
-123.0469251537001
 30
0.0
 10
83.27898218404137
 20
-122.8693304814355
 30
0.0
 10
83.14772404605336
 20
-122.8142089536715
 30
0.0
 10
83.03782550007388
 20
-122.8142089536715
 30
0.0
 10
82.77341442158095
 20
-122.8142089536715
 30
0.0
 10
82.76480168286783
 20
-123.0469251537001
 30
0.0
 10
82.76066756828553
 20
-123.1189276493418
 30
0.0
 10
82.76066756828553
 20
-123.1189276493418
 30
0.0
 10
82.55757918943006
 20
-123.1189276493418
 30
0.0
 10
82.55757918943006
 20
-123.1189276493418
 30
0.0
 10
82.56601967336891
 20
-122.9940429380015
 30
0.0
 10
82.59358043725092
 20
-122.6174940014637
 30
0.0
 10
83.05040009859505
 20
-122.6174940014637
 30
0.0
 10
83.27467581468481
 20
-122.6174940014637
 30
0.0
 10
83.5158324986523
 20
-122.7444457700951
 30
0.0
 10
83.5158324986523
 20
-123.0405517270524
 30
0.0
 10
83.5158324986523
 20
-123.2267591380301
 30
0.0
 10
83.4207478632594
 20
-123.3092691749019
 30
0.0
 10
83.32118460373567
 20
-123.3705918745393
 30
0.0
 10
83.38267955814739
 20
-123.3981526384213
 30
0.0
 10
83.56458059976858
 20
-123.4785956180019
 30
0.0
 10
83.56458059976858
 20
-123.7557535497902
 30
0.0
 10
83.56458059976858
 20
-124.094234181216
 30
0.0
 10
83.31705048915337
 20
-124.2613213122506
 30
0.0
 10
83.03989255736504
 20
-124.2613213122506
 30
0.0
  0
HATCH
  5
70
330
6B
100
AcDbEntity
  8
_U+30EC_U+30A4_U+30E4_U+30FC 1
 62
   179
420
  2234388
100
AcDbHatch
 10
0.0
 20
0.0
 30
0.0
210
0.0
220
0.0
230
1.0
  2
SOLID
 70
     1
 71
     0
 91
        1
 92
        1
 93
        1
 72
     4
 94
        3
 73
     0
 74
     1
 95
       62
 96
       58
 40
0.0
 40
0.0
 40
0.0
 40
0.0
 40
1.0
 40
1.0
 40
1.0
 40
2.0
 40
2.0
 40
2.0
 40
3.0
 40
3.0
 40
3.0
 40
4.0
 40
4.0
 40
4.0
 40
5.0
 40
5.0
 40
5.0
 40
6.0
 40
6.0
 40
6.0
 40
7.0
 40
7.0
 40
7.0
 40
8.0
 40
8.0
 40
8.0
 40
9.0
 40
9.0
 40
9.0
 40
10.0
 40
10.0
 40
10.0
 40
11.0
 40
11.0
 40
11.0
 40
12.0
 40
12.0
 40
12.0
 40
13.0
 40
13.0
 40
13.0
 40
14.0
 40
14.0
 40
14.0
 40
15.0
 40
15.0
 40
15.0
 40
16.0
 40
16.0
 40
16.0
 40
17.0
 40
17.0
 40
17.0
 40
18.0
 40
18.0
 40
18.0
 40
19.0
 40
19.0
 40
19.0
 40
19.0
 10
83.03989255736504
 20
-124.2613213122506
 10
82.94463566719787
 20
-124.2613213122506
 10
82.72673337775582
 20
-124.2401339750164
 10
82.60202092118978
 20
-124.0539265640386
 10
82.52795136825691
 20
-123.9417887059937
 10
82.52364499890034
 20
-123.8423977012443
 10
82.51951088431804
 20
-123.7578206070814
 10
82.51951088431804
 20
-123.7578206070814
 10
82.73948023105125
 20
-123.7578206070814
 10
82.73948023105125
 20
-123.7578206070814
 10
82.74154728834239
 20
-123.8318901600143
 10
82.75222708434667
 20
-124.066673417334
 10
83.03558618800847
 20
-124.066673417334
 10
83.1732177526442
 20
-124.066673417334
 10
83.32549097309224
 20
-123.9969102337577
 10
83.32549097309224
 20
-123.7683281483114
 10
83.32549097309224
 20
-123.6520561756842
 10
83.28742266798024
 20
-123.6033080745679
 10
83.25572778951593
 20
-123.5716131961036
 10
83.18165823658306
 20
-123.4975436431708
 10
83.06521400918162
 20
-123.4849690446496
 10
83.01026473619189
 20
-123.4849690446496
 10
82.991316711023
 20
-123.4849690446496
 10
82.95531546320214
 20
-123.4870361019407
 10
82.92775469932015
 20
-123.491170216523
 10
82.92775469932015
 20
-123.491170216523
 10
82.92775469932015
 20
-123.2965223216064
 10
82.92775469932015
 20
-123.2965223216064
 10
82.96582300443215
 20
-123.3028957482541
 10
83.00819767890073
 20
-123.3051350603196
 10
83.01457110554844
 20
-123.3051350603196
 10
83.08002791976818
 20
-123.3051350603196
 10
83.27898218404137
 20
-123.2839477230853
 10
83.27898218404137
 20
-123.0469251537001
 10
83.27898218404137
 20
-122.8693304814355
 10
83.14772404605336
 20
-122.8142089536715
 10
83.03782550007388
 20
-122.8142089536715
 10
82.77341442158095
 20
-122.8142089536715
 10
82.76480168286783
 20
-123.0469251537001
 10
82.76066756828553
 20
-123.1189276493418
 10
82.76066756828553
 20
-123.1189276493418
 10
82.55757918943006
 20
-123.1189276493418
 10
82.55757918943006
 20
-123.1189276493418
 10
82.56601967336891
 20
-122.9940429380015
 10
82.59358043725092
 20
-122.6174940014637
 10
83.05040009859505
 20
-122.6174940014637
 10
83.27467581468481
 20
-122.6174940014637
 10
83.5158324986523
 20
-122.7444457700951
 10
83.5158324986523
 20
-123.0405517270524
 10
83.5158324986523
 20
-123.2267591380301
 10
83.4207478632594
 20
-123.3092691749019
 10
83.32118460373567
 20
-123.3705918745393
 10
83.38267955814739
 20
-123.3981526384213
 10
83.56458059976858
 20
-123.4785956180019
 10
83.56458059976858
 20
-123.7557535497902
 10
83.56458059976858
 20
-124.094234181216
 10
83.31705048915337
 20
-124.2613213122506
 10
83.03989255736504
 20
-124.2613213122506
 97
        0
 97
        0
 75
     2
 76
     1
 98
        0
  0
SPLINE
  5
71
330
6B
100
AcDbEntity
  8
_U+30EC_U+30A4_U+30E4_U+30FC 1
370
     0
100
AcDbSpline
210
0.0
220
0.0
230
1.0
 70
    11
 71
     3
 72
    53
 73
    49
 74
     0
 42
0.0000000001
 43
0.0000000001
 12
1.0
 22
0.0
 32
0.0
 13
1.0
 23
0.0
 33
0.0
 40
0.0
 40
0.0
 40
0.0
 40
0.0
 40
1.0
 40
1.0
 40
1.0
 40
2.0
 40
2.0
 40
2.0
 40
3.0
 40
3.0
 40
3.0
 40
4.0
 40
4.0
 40
4.0
 40
5.0
 40
5.0
 40
5.0
 40
6.0
 40
6.0
 40
6.0
 40
7.0
 40
7.0
 40
7.0
 40
8.0
 40
8.0
 40
8.0
 40
9.0
 40
9.0
 40
9.0
 40
10.0
 40
10.0
 40
10.0
 40
11.0
 40
11.0
 40
11.0
 40
12.0
 40
12.0
 40
12.0
 40
13.0
 40
13.0
 40
13.0
 40
14.0
 40
14.0
 40
14.0
 40
15.0
 40
15.0
 40
15.0
 40
16.0
 40
16.0
 40
16.0
 40
16.0
 10
84.20622963389636
 20
-124.2613213122506
 30
0.0
 10
84.12785371160693
 20
-124.2613213122506
 30
0.0
 10
84.02639564956633
 20
-124.2442680895987
 30
0.0
 10
83.92476533275145
 20
-124.1808783326701
 30
0.0
 10
83.75130477506912
 20
-124.0708075319163
 30
0.0
 10
83.73011743783483
 20
-123.9397216487026
 30
0.0
 10
83.71116941266597
 20
-123.8318901600143
 30
0.0
 10
83.71116941266597
 20
-123.8318901600143
 30
0.0
 10
83.93320581669032
 20
-123.8318901600143
 30
0.0
 10
83.93320581669032
 20
-123.8318901600143
 30
0.0
 10
83.9883273444543
 20
-124.0306721695132
 30
0.0
 10
84.11527911308576
 20
-124.0602999906863
 30
0.0
 10
84.20829669118751
 20
-124.0602999906863
 30
0.0
 10
84.34782305834013
 20
-124.0602999906863
 30
0.0
 10
84.50026853356243
 20
-123.9609089859369
 30
0.0
 10
84.50026853356243
 20
-123.7281927859082
 30
0.0
 10
84.50026853356243
 20
-123.4722221913542
 30
0.0
 10
84.32043454923239
 20
-123.4024590077779
 30
0.0
 10
84.19985620724866
 20
-123.4024590077779
 30
0.0
 10
84.16816132878435
 20
-123.4024590077779
 30
0.0
 10
84.02639564956633
 20
-123.4024590077779
 30
0.0
 10
83.93751218604687
 20
-123.5314778337005
 30
0.0
 10
83.93751218604687
 20
-123.5314778337005
 30
0.0
 10
83.7619845710734
 20
-123.5123575537573
 30
0.0
 10
83.7619845710734
 20
-123.5123575537573
 30
0.0
 10
83.7619845710734
 20
-123.5123575537573
 30
0.0
 10
83.88256291305714
 20
-122.66624210258
 30
0.0
 10
83.88256291305714
 20
-122.66624210258
 30
0.0
 10
83.88256291305714
 20
-122.66624210258
 30
0.0
 10
84.66098223794934
 20
-122.66624210258
 30
0.0
 10
84.66098223794934
 20
-122.66624210258
 30
0.0
 10
84.66098223794934
 20
-122.66624210258
 30
0.0
 10
84.66098223794934
 20
-122.8608899974966
 30
0.0
 10
84.66098223794934
 20
-122.8608899974966
 30
0.0
 10
84.66098223794934
 20
-122.8608899974966
 30
0.0
 10
84.0453436747352
 20
-122.8608899974966
 30
0.0
 10
84.0453436747352
 20
-122.8608899974966
 30
0.0
 10
84.0453436747352
 20
-122.8608899974966
 30
0.0
 10
83.97988686051545
 20
-123.2839477230853
 30
0.0
 10
83.97988686051545
 20
-123.2839477230853
 30
0.0
 10
84.0412095601529
 20
-123.2500135325556
 30
0.0
 10
84.12371959702463
 20
-123.2098781701524
 30
0.0
 10
84.24205862694296
 20
-123.2098781701524
 30
0.0
 10
84.49596216420588
 20
-123.2098781701524
 30
0.0
 10
84.73298473359107
 20
-123.3960855811302
 30
0.0
 10
84.73298473359107
 20
-123.7090725059651
 30
0.0
 10
84.73298473359107
 20
-124.0265380549309
 30
0.0
 10
84.5087090175013
 20
-124.2613213122506
 30
0.0
 10
84.20622963389636
 20
-124.2613213122506
 30
0.0
  0
HATCH
  5
72
330
6B
100
AcDbEntity
  8
_U+30EC_U+30A4_U+30E4_U+30FC 1
 62
   179
420
  2234388
100
AcDbHatch
 10
0.0
 20
0.0
 30
0.0
210
0.0
220
0.0
230
1.0
  2
SOLID
 70
     1
 71
     0
 91
        1
 92
        1
 93
        1
 72
     4
 94
        3
 73
     0
 74
     1
 95
       53
 96
       49
 40
0.0
 40
0.0
 40
0.0
 40
0.0
 40
1.0
 40
1.0
 40
1.0
 40
2.0
 40
2.0
 40
2.0
 40
3.0
 40
3.0
 40
3.0
 40
4.0
 40
4.0
 40
4.0
 40
5.0
 40
5.0
 40
5.0
 40
6.0
 40
6.0
 40
6.0
 40
7.0
 40
7.0
 40
7.0
 40
8.0
 40
8.0
 40
8.0
 40
9.0
 40
9.0
 40
9.0
 40
10.0
 40
10.0
 40
10.0
 40
11.0
 40
11.0
 40
11.0
 40
12.0
 40
12.0
 40
12.0
 40
13.0
 40
13.0
 40
13.0
 40
14.0
 40
14.0
 40
14.0
 40
15.0
 40
15.0
 40
15.0
 40
16.0
 40
16.0
 40
16.0
 40
16.0
 10
84.20622963389636
 20
-124.2613213122506
 10
84.12785371160693
 20
-124.2613213122506
 10
84.02639564956633
 20
-124.2442680895987
 10
83.92476533275145
 20
-124.1808783326701
 10
83.75130477506912
 20
-124.0708075319163
 10
83.73011743783483
 20
-123.9397216487026
 10
83.71116941266597
 20
-123.8318901600143
 10
83.71116941266597
 20
-123.8318901600143
 10
83.93320581669032
 20
-123.8318901600143
 10
83.93320581669032
 20
-123.8318901600143
 10
83.9883273444543
 20
-124.0306721695132
 10
84.11527911308576
 20
-124.0602999906863
 10
84.20829669118751
 20
-124.0602999906863
 10
84.34782305834013
 20
-124.0602999906863
 10
84.50026853356243
 20
-123.9609089859369
 10
84.50026853356243
 20
-123.7281927859082
 10
84.50026853356243
 20
-123.4722221913542
 10
84.32043454923239
 20
-123.4024590077779
 10
84.19985620724866
 20
-123.4024590077779
 10
84.16816132878435
 20
-123.4024590077779
 10
84.02639564956633
 20
-123.4024590077779
 10
83.93751218604687
 20
-123.5314778337005
 10
83.93751218604687
 20
-123.5314778337005
 10
83.7619845710734
 20
-123.5123575537573
 10
83.7619845710734
 20
-123.5123575537573
 10
83.7619845710734
 20
-123.5123575537573
 10
83.88256291305714
 20
-122.66624210258
 10
83.88256291305714
 20
-122.66624210258
 10
83.88256291305714
 20
-122.66624210258
 10
84.66098223794934
 20
-122.66624210258
 10
84.66098223794934
 20
-122.66624210258
 10
84.66098223794934
 20
-122.66624210258
 10
84.66098223794934
 20
-122.8608899974966
 10
84.66098223794934
 20
-122.8608899974966
 10
84.66098223794934
 20
-122.8608899974966
 10
84.0453436747352
 20
-122.8608899974966
 10
84.0453436747352
 20
-122.8608899974966
 10
84.0453436747352
 20
-122.8608899974966
 10
83.97988686051545
 20
-123.2839477230853
 10
83.97988686051545
 20
-123.2839477230853
 10
84.0412095601529
 20
-123.2500135325556
 10
84.12371959702463
 20
-123.2098781701524
 10
84.24205862694296
 20
-123.2098781701524
 10
84.49596216420588
 20
-123.2098781701524
 10
84.73298473359107
 20
-123.3960855811302
 10
84.73298473359107
 20
-123.7090725059651
 10
84.73298473359107
 20
-124.0265380549309
 10
84.5087090175013
 20
-124.2613213122506
 10
84.20622963389636
 20
-124.2613213122506
 97
        0
 97
        0
 75
     2
 76
     1
 98
        0
  0
SPLINE
  5
73
330
6B
100
AcDbEntity
  8
_U+30EC_U+30A4_U+30E4_U+30FC 1
370
     0
100
AcDbSpline
210
0.0
220
0.0
230
1.0
 70
    11
 71
     3
 72
    44
 73
    40
 74
     0
 42
0.0000000001
 43
0.0000000001
 12
1.0
 22
0.0
 32
0.0
 13
1.0
 23
0.0
 33
0.0
 40
0.0
 40
0.0
 40
0.0
 40
0.0
 40
1.0
 40
1.0
 40
1.0
 40
2.0
 40
2.0
 40
2.0
 40
3.0
 40
3.0
 40
3.0
 40
4.0
 40
4.0
 40
4.0
 40
5.0
 40
5.0
 40
5.0
 40
6.0
 40
6.0
 40
6.0
 40
7.0
 40
7.0
 40
7.0
 40
8.0
 40
8.0
 40
8.0
 40
9.0
 40
9.0
 40
9.0
 40
10.0
 40
10.0
 40
10.0
 40
11.0
 40
11.0
 40
11.0
 40
12.0
 40
12.0
 40
12.0
 40
13.0
 40
13.0
 40
13.0
 40
13.0
 10
85.91620277800013
 20
-124.2105061538432
 30
0.0
 10
85.89277612870042
 20
-124.1660644220835
 30
0.0
 10
85.8717610462404
 20
-124.1131822063849
 30
0.0
 10
85.86952173417498
 20
-123.8825330636474
 30
0.0
 10
85.86538761959268
 20
-123.6393093223888
 30
0.0
 10
85.8061319772464
 20
-123.5695461388125
 30
0.0
 10
85.62836505020749
 20
-123.5695461388125
 30
0.0
 10
85.62836505020749
 20
-123.5695461388125
 30
0.0
 10
85.2201212352054
 20
-123.5695461388125
 30
0.0
 10
85.2201212352054
 20
-123.5695461388125
 30
0.0
 10
85.2201212352054
 20
-123.5695461388125
 30
0.0
 10
85.2201212352054
 20
-124.2105061538432
 30
0.0
 10
85.2201212352054
 20
-124.2105061538432
 30
0.0
 10
85.2201212352054
 20
-124.2105061538432
 30
0.0
 10
84.98533797788562
 20
-124.2105061538432
 30
0.0
 10
84.98533797788562
 20
-124.2105061538432
 30
0.0
 10
84.98533797788562
 20
-124.2105061538432
 30
0.0
 10
84.98533797788562
 20
-122.66624210258
 30
0.0
 10
84.98533797788562
 20
-122.66624210258
 30
0.0
 10
84.98533797788562
 20
-122.66624210258
 30
0.0
 10
85.6600599286718
 20
-122.66624210258
 30
0.0
 10
85.6600599286718
 20
-122.66624210258
 30
0.0
 10
85.96684568163329
 20
-122.66624210258
 30
0.0
 10
86.13410506744218
 20
-122.8374633481969
 30
0.0
 10
86.13410506744218
 20
-123.0936061975252
 30
0.0
 10
86.13410506744218
 20
-123.1442491011584
 30
0.0
 10
86.12549232872905
 20
-123.2267591380301
 30
0.0
 10
86.08105059696932
 20
-123.3072021176107
 30
0.0
 10
86.02196720939729
 20
-123.4108994917167
 30
0.0
 10
85.95633814040328
 20
-123.4298475168856
 30
0.0
 10
85.89501544076583
 20
-123.4467284847633
 30
0.0
 10
86.0324747506273
 20
-123.4891031592319
 30
0.0
 10
86.10017087691246
 20
-123.5378512603482
 30
0.0
 10
86.10447724626903
 20
-123.8529052424743
 30
0.0
 10
86.10861136085133
 20
-124.1236897476149
 30
0.0
 10
86.14461260867219
 20
-124.1555568808535
 30
0.0
 10
86.21230873495735
 20
-124.2105061538432
 30
0.0
 10
86.21230873495735
 20
-124.2105061538432
 30
0.0
 10
85.91620277800013
 20
-124.2105061538432
 30
0.0
 10
85.91620277800013
 20
-124.2105061538432
 30
0.0
  0
SPLINE
  5
74
330
6B
100
AcDbEntity
  8
_U+30EC_U+30A4_U+30E4_U+30FC 1
370
     0
100
AcDbSpline
210
0.0
220
0.0
230
1.0
 70
    11
 71
     3
 72
    20
 73
    16
 74
     0
 42
0.0000000001
 43
0.0000000001
 12
1.0
 22
0.0
 32
0.0
 13
1.0
 23
0.0
 33
0.0
 40
0.0
 40
0.0
 40
0.0
 40
0.0
 40
1.0
 40
1.0
 40
1.0
 40
2.0
 40
2.0
 40
2.0
 40
3.0
 40
3.0
 40
3.0
 40
4.0
 40
4.0
 40
4.0
 40
5.0
 40
5.0
 40
5.0
 40
5.0
 10
85.66436629802836
 20
-122.8777709653743
 30
0.0
 10
85.66436629802836
 20
-122.8777709653743
 30
0.0
 10
85.2201212352054
 20
-122.8777709653743
 30
0.0
 10
85.2201212352054
 20
-122.8777709653743
 30
0.0
 10
85.2201212352054
 20
-122.8777709653743
 30
0.0
 10
85.2201212352054
 20
-123.3580172760181
 30
0.0
 10
85.2201212352054
 20
-123.3580172760181
 30
0.0
 10
85.2201212352054
 20
-123.3580172760181
 30
0.0
 10
85.66229924073721
 20
-123.3580172760181
 30
0.0
 10
85.66229924073721
 20
-123.3580172760181
 30
0.0
 10
85.76169024548666
 20
-123.3580172760181
 30
0.0
 10
85.89708249805699
 20
-123.2818806657941
 30
0.0
 10
85.89708249805699
 20
-123.1104871654029
 30
0.0
 10
85.89708249805699
 20
-123.0321112431135
 30
0.0
 10
85.86332056230154
 20
-122.8777709653743
 30
0.0
 10
85.66436629802836
 20
-122.8777709653743
 30
0.0
  0
HATCH
  5
75
330
6B
100
AcDbEntity
  8
_U+30EC_U+30A4_U+30E4_U+30FC 1
 62
   179
420
  2234388
100
AcDbHatch
 10
0.0
 20
0.0
 30
0.0
210
0.0
220
0.0
230
1.0
  2
SOLID
 70
     1
 71
     0
 91
        2
 92
        1
 93
        1
 72
     4
 94
        3
 73
     0
 74
     1
 95
       44
 96
       40
 40
0.0
 40
0.0
 40
0.0
 40
0.0
 40
1.0
 40
1.0
 40
1.0
 40
2.0
 40
2.0
 40
2.0
 40
3.0
 40
3.0
 40
3.0
 40
4.0
 40
4.0
 40
4.0
 40
5.0
 40
5.0
 40
5.0
 40
6.0
 40
6.0
 40
6.0
 40
7.0
 40
7.0
 40
7.0
 40
8.0
 40
8.0
 40
8.0
 40
9.0
 40
9.0
 40
9.0
 40
10.0
 40
10.0
 40
10.0
 40
11.0
 40
11.0
 40
11.0
 40
12.0
 40
12.0
 40
12.0
 40
13.0
 40
13.0
 40
13.0
 40
13.0
 10
85.91620277800013
 20
-124.2105061538432
 10
85.89277612870042
 20
-124.1660644220835
 10
85.8717610462404
 20
-124.1131822063849
 10
85.86952173417498
 20
-123.8825330636474
 10
85.86538761959268
 20
-123.6393093223888
 10
85.8061319772464
 20
-123.5695461388125
 10
85.62836505020749
 20
-123.5695461388125
 10
85.62836505020749
 20
-123.5695461388125
 10
85.2201212352054
 20
-123.5695461388125
 10
85.2201212352054
 20
-123.5695461388125
 10
85.2201212352054
 20
-123.5695461388125
 10
85.2201212352054
 20
-124.2105061538432
 10
85.2201212352054
 20
-124.2105061538432
 10
85.2201212352054
 20
-124.2105061538432
 10
84.98533797788562
 20
-124.2105061538432
 10
84.98533797788562
 20
-124.2105061538432
 10
84.98533797788562
 20
-124.2105061538432
 10
84.98533797788562
 20
-122.66624210258
 10
84.98533797788562
 20
-122.66624210258
 10
84.98533797788562
 20
-122.66624210258
 10
85.6600599286718
 20
-122.66624210258
 10
85.6600599286718
 20
-122.66624210258
 10
85.96684568163329
 20
-122.66624210258
 10
86.13410506744218
 20
-122.8374633481969
 10
86.13410506744218
 20
-123.0936061975252
 10
86.13410506744218
 20
-123.1442491011584
 10
86.12549232872905
 20
-123.2267591380301
 10
86.08105059696932
 20
-123.3072021176107
 10
86.02196720939729
 20
-123.4108994917167
 10
85.95633814040328
 20
-123.4298475168856
 10
85.89501544076583
 20
-123.4467284847633
 10
86.0324747506273
 20
-123.4891031592319
 10
86.10017087691246
 20
-123.5378512603482
 10
86.10447724626903
 20
-123.8529052424743
 10
86.10861136085133
 20
-124.1236897476149
 10
86.14461260867219
 20
-124.1555568808535
 10
86.21230873495735
 20
-124.2105061538432
 10
86.21230873495735
 20
-124.2105061538432
 10
85.91620277800013
 20
-124.2105061538432
 10
85.91620277800013
 20
-124.2105061538432
 97
        0
 97
        0
 92
        1
 93
        1
 72
     4
 94
        3
 73
     0
 74
     1
 95
       20
 96
       16
 40
0.0
 40
0.0
 40
0.0
 40
0.0
 40
1.0
 40
1.0
 40
1.0
 40
2.0
 40
2.0
 40
2.0
 40
3.0
 40
3.0
 40
3.0
 40
4.0
 40
4.0
 40
4.0
 40
5.0
 40
5.0
 40
5.0
 40
5.0
 10
85.66436629802836
 20
-122.8777709653743
 10
85.66436629802836
 20
-122.8777709653743
 10
85.2201212352054
 20
-122.8777709653743
 10
85.2201212352054
 20
-122.8777709653743
 10
85.2201212352054
 20
-122.8777709653743
 10
85.2201212352054
 20
-123.3580172760181
 10
85.2201212352054
 20
-123.3580172760181
 10
85.2201212352054
 20
-123.3580172760181
 10
85.66229924073721
 20
-123.3580172760181
 10
85.66229924073721
 20
-123.3580172760181
 10
85.76169024548666
 20
-123.3580172760181
 10
85.89708249805699
 20
-123.2818806657941
 10
85.89708249805699
 20
-123.1104871654029
 10
85.89708249805699
 20
-123.0321112431135
 10
85.86332056230154
 20
-122.8777709653743
 10
85.66436629802836
 20
-122.8777709653743
 97
        0
 97
        0
 75
     2
 76
     1
 98
        0
  0
ENDBLK
  5
6E
330
6B
100
AcDbEntity
  8
0
100
AcDbBlockEnd
  0
BLOCK
  5
84
330
82
100
AcDbEntity
  8
0
100
AcDbBlockBegin
  2
block 3
 70
     0
 10
0.0
 20
0.0
 30
0.0
  3
block 3
  1

  0
SPLINE
  5
86
330
82
100
AcDbEntity
  8
_U+30EC_U+30A4_U+30E4_U+30FC 1
370
     0
100
AcDbSpline
210
0.0
220
0.0
230
1.0
 70
    11
 71
     3
 72
    62
 73
    58
 74
     0
 42
0.0000000001
 43
0.0000000001
 12
1.0
 22
0.0
 32
0.0
 13
1.0
 23
0.0
 33
0.0
 40
0.0
 40
0.0
 40
0.0
 40
0.0
 40
1.0
 40
1.0
 40
1.0
 40
2.0
 40
2.0
 40
2.0
 40
3.0
 40
3.0
 40
3.0
 40
4.0
 40
4.0
 40
4.0
 40
5.0
 40
5.0
 40
5.0
 40
6.0
 40
6.0
 40
6.0
 40
7.0
 40
7.0
 40
7.0
 40
8.0
 40
8.0
 40
8.0
 40
9.0
 40
9.0
 40
9.0
 40
10.0
 40
10.0
 40
10.0
 40
11.0
 40
11.0
 40
11.0
 40
12.0
 40
12.0
 40
12.0
 40
13.0
 40
13.0
 40
13.0
 40
14.0
 40
14.0
 40
14.0
 40
15.0
 40
15.0
 40
15.0
 40
16.0
 40
16.0
 40
16.0
 40
17.0
 40
17.0
 40
17.0
 40
18.0
 40
18.0
 40
18.0
 40
19.0
 40
19.0
 40
19.0
 40
19.0
 10
87.27787676854511
 20
-143.8950927374637
 30
0.0
 10
87.18261987837796
 20
-143.8950927374637
 30
0.0
 10
86.96471758893591
 20
-143.8740776550037
 30
0.0
 10
86.84000513236987
 20
-143.6880424988002
 30
0.0
 10
86.765935579437
 20
-143.5757323859811
 30
0.0
 10
86.76162921008043
 20
-143.4765136360059
 30
0.0
 10
86.75749509549813
 20
-143.3917642870687
 30
0.0
 10
86.75749509549813
 20
-143.3917642870687
 30
0.0
 10
86.97746444223134
 20
-143.3917642870687
 30
0.0
 10
86.97746444223134
 20
-143.3917642870687
 30
0.0
 10
86.97953149952248
 20
-143.4658338400016
 30
0.0
 10
86.99021129552676
 20
-143.7004448425471
 30
0.0
 10
87.27374265396281
 20
-143.7004448425471
 30
0.0
 10
87.41120196382428
 20
-143.7004448425471
 30
0.0
 10
87.56347518427233
 20
-143.6308539137451
 30
0.0
 10
87.56347518427233
 20
-143.402444083073
 30
0.0
 10
87.56347518427233
 20
-143.2859998556715
 30
0.0
 10
87.52540687916031
 20
-143.2374240093295
 30
0.0
 10
87.49371200069602
 20
-143.2057291308653
 30
0.0
 10
87.41964244776315
 20
-143.1316595779324
 30
0.0
 10
87.30319822036171
 20
-143.1189127246369
 30
0.0
 10
87.24824894737196
 20
-143.1189127246369
 30
0.0
 10
87.2293009222031
 20
-143.1189127246369
 30
0.0
 10
87.19329967438223
 20
-143.1209797819281
 30
0.0
 10
87.16573891050024
 20
-143.1251138965104
 30
0.0
 10
87.16573891050024
 20
-143.1251138965104
 30
0.0
 10
87.16573891050024
 20
-142.9304660015938
 30
0.0
 10
87.16573891050024
 20
-142.9304660015938
 30
0.0
 10
87.20380721561224
 20
-142.9370116830158
 30
0.0
 10
87.24618189008082
 20
-142.9390787403069
 30
0.0
 10
87.25255531672853
 20
-142.9390787403069
 30
0.0
 10
87.31801213094828
 20
-142.9390787403069
 30
0.0
 10
87.51696639522146
 20
-142.9177191482983
 30
0.0
 10
87.51696639522146
 20
-142.6810410884617
 30
0.0
 10
87.51696639522146
 20
-142.5032741614228
 30
0.0
 10
87.38570825723343
 20
-142.4481526336588
 30
0.0
 10
87.27580971125397
 20
-142.4481526336588
 30
0.0
 10
87.01139863276104
 20
-142.4481526336588
 30
0.0
 10
87.00295814882219
 20
-142.6810410884617
 30
0.0
 10
86.99865177946562
 20
-142.7526990745549
 30
0.0
 10
86.99865177946562
 20
-142.7526990745549
 30
0.0
 10
86.79556340061013
 20
-142.7526990745549
 30
0.0
 10
86.79556340061013
 20
-142.7526990745549
 30
0.0
 10
86.804003884549
 20
-142.6279866179889
 30
0.0
 10
86.831564648431
 20
-142.251437681451
 30
0.0
 10
87.28838430977513
 20
-142.251437681451
 30
0.0
 10
87.51266002586489
 20
-142.251437681451
 30
0.0
 10
87.75381670983238
 20
-142.3785617048568
 30
0.0
 10
87.75381670983238
 20
-142.6744954070397
 30
0.0
 10
87.75381670983238
 20
-142.8608750727917
 30
0.0
 10
87.65873207443948
 20
-142.9432128548892
 30
0.0
 10
87.55916881491576
 20
-143.0045355545267
 30
0.0
 10
87.62066376932748
 20
-143.0320963184087
 30
0.0
 10
87.80256481094867
 20
-143.112367043215
 30
0.0
 10
87.80256481094867
 20
-143.3896972297776
 30
0.0
 10
87.80256481094867
 20
-143.7280056064291
 30
0.0
 10
87.55503470033347
 20
-143.8950927374637
 30
0.0
 10
87.27787676854511
 20
-143.8950927374637
 30
0.0
  0
HATCH
  5
87
330
82
100
AcDbEntity
  8
_U+30EC_U+30A4_U+30E4_U+30FC 1
 62
   179
420
  2234388
100
AcDbHatch
 10
0.0
 20
0.0
 30
0.0
210
0.0
220
0.0
230
1.0
  2
SOLID
 70
     1
 71
     0
 91
        1
 92
        1
 93
        1
 72
     4
 94
        3
 73
     0
 74
     1
 95
       62
 96
       58
 40
0.0
 40
0.0
 40
0.0
 40
0.0
 40
1.0
 40
1.0
 40
1.0
 40
2.0
 40
2.0
 40
2.0
 40
3.0
 40
3.0
 40
3.0
 40
4.0
 40
4.0
 40
4.0
 40
5.0
 40
5.0
 40
5.0
 40
6.0
 40
6.0
 40
6.0
 40
7.0
 40
7.0
 40
7.0
 40
8.0
 40
8.0
 40
8.0
 40
9.0
 40
9.0
 40
9.0
 40
10.0
 40
10.0
 40
10.0
 40
11.0
 40
11.0
 40
11.0
 40
12.0
 40
12.0
 40
12.0
 40
13.0
 40
13.0
 40
13.0
 40
14.0
 40
14.0
 40
14.0
 40
15.0
 40
15.0
 40
15.0
 40
16.0
 40
16.0
 40
16.0
 40
17.0
 40
17.0
 40
17.0
 40
18.0
 40
18.0
 40
18.0
 40
19.0
 40
19.0
 40
19.0
 40
19.0
 10
87.27787676854511
 20
-143.8950927374637
 10
87.18261987837796
 20
-143.8950927374637
 10
86.96471758893591
 20
-143.8740776550037
 10
86.84000513236987
 20
-143.6880424988002
 10
86.765935579437
 20
-143.5757323859811
 10
86.76162921008043
 20
-143.4765136360059
 10
86.75749509549813
 20
-143.3917642870687
 10
86.75749509549813
 20
-143.3917642870687
 10
86.97746444223134
 20
-143.3917642870687
 10
86.97746444223134
 20
-143.3917642870687
 10
86.97953149952248
 20
-143.4658338400016
 10
86.99021129552676
 20
-143.7004448425471
 10
87.27374265396281
 20
-143.7004448425471
 10
87.41120196382428
 20
-143.7004448425471
 10
87.56347518427233
 20
-143.6308539137451
 10
87.56347518427233
 20
-143.402444083073
 10
87.56347518427233
 20
-143.2859998556715
 10
87.52540687916031
 20
-143.2374240093295
 10
87.49371200069602
 20
-143.2057291308653
 10
87.41964244776315
 20
-143.1316595779324
 10
87.30319822036171
 20
-143.1189127246369
 10
87.24824894737196
 20
-143.1189127246369
 10
87.2293009222031
 20
-143.1189127246369
 10
87.19329967438223
 20
-143.1209797819281
 10
87.16573891050024
 20
-143.1251138965104
 10
87.16573891050024
 20
-143.1251138965104
 10
87.16573891050024
 20
-142.9304660015938
 10
87.16573891050024
 20
-142.9304660015938
 10
87.20380721561224
 20
-142.9370116830158
 10
87.24618189008082
 20
-142.9390787403069
 10
87.25255531672853
 20
-142.9390787403069
 10
87.31801213094828
 20
-142.9390787403069
 10
87.51696639522146
 20
-142.9177191482983
 10
87.51696639522146
 20
-142.6810410884617
 10
87.51696639522146
 20
-142.5032741614228
 10
87.38570825723343
 20
-142.4481526336588
 10
87.27580971125397
 20
-142.4481526336588
 10
87.01139863276104
 20
-142.4481526336588
 10
87.00295814882219
 20
-142.6810410884617
 10
86.99865177946562
 20
-142.7526990745549
 10
86.99865177946562
 20
-142.7526990745549
 10
86.79556340061013
 20
-142.7526990745549
 10
86.79556340061013
 20
-142.7526990745549
 10
86.804003884549
 20
-142.6279866179889
 10
86.831564648431
 20
-142.251437681451
 10
87.28838430977513
 20
-142.251437681451
 10
87.51266002586489
 20
-142.251437681451
 10
87.75381670983238
 20
-142.3785617048568
 10
87.75381670983238
 20
-142.6744954070397
 10
87.75381670983238
 20
-142.8608750727917
 10
87.65873207443948
 20
-142.9432128548892
 10
87.55916881491576
 20
-143.0045355545267
 10
87.62066376932748
 20
-143.0320963184087
 10
87.80256481094867
 20
-143.112367043215
 10
87.80256481094867
 20
-143.3896972297776
 10
87.80256481094867
 20
-143.7280056064291
 10
87.55503470033347
 20
-143.8950927374637
 10
87.27787676854511
 20
-143.8950927374637
 97
        0
 97
        0
 75
     2
 76
     1
 98
        0
  0
SPLINE
  5
88
330
82
100
AcDbEntity
  8
_U+30EC_U+30A4_U+30E4_U+30FC 1
370
     0
100
AcDbSpline
210
0.0
220
0.0
230
1.0
 70
    11
 71
     3
 72
    29
 73
    25
 74
     0
 42
0.0000000001
 43
0.0000000001
 12
1.0
 22
0.0
 32
0.0
 13
1.0
 23
0.0
 33
0.0
 40
0.0
 40
0.0
 40
0.0
 40
0.0
 40
1.0
 40
1.0
 40
1.0
 40
2.0
 40
2.0
 40
2.0
 40
3.0
 40
3.0
 40
3.0
 40
4.0
 40
4.0
 40
4.0
 40
5.0
 40
5.0
 40
5.0
 40
6.0
 40
6.0
 40
6.0
 40
7.0
 40
7.0
 40
7.0
 40
8.0
 40
8.0
 40
8.0
 40
8.0
 10
88.86089814401741
 20
-143.6666829067917
 30
0.0
 10
88.75306665532909
 20
-143.8761447122949
 30
0.0
 10
88.57960609764677
 20
-143.8950927374637
 30
0.0
 10
88.46316187024533
 20
-143.8950927374637
 30
0.0
 10
88.30244816585842
 20
-143.8950927374637
 30
0.0
 10
88.16068248664038
 20
-143.8485839484129
 30
0.0
 10
88.06542559647323
 20
-143.6666829067917
 30
0.0
 10
87.96190047714147
 20
-143.4720350118751
 30
0.0
 10
87.94278019719833
 20
-143.2353569520384
 30
0.0
 10
87.94278019719833
 20
-143.0724039355861
 30
0.0
 10
87.94278019719833
 20
-142.9283989443026
 30
0.0
 10
87.95966116507606
 20
-142.6765624643309
 30
0.0
 10
88.06542559647323
 20
-142.477780454832
 30
0.0
 10
88.17342933993581
 20
-142.2748643307507
 30
0.0
 10
88.33414304432272
 20
-142.251437681451
 30
0.0
 10
88.46316187024533
 20
-142.251437681451
 30
0.0
 10
88.62180851734108
 20
-142.251437681451
 30
0.0
 10
88.76564125385026
 20
-142.2958794132108
 30
0.0
 10
88.86089814401741
 20
-142.477780454832
 30
0.0
 10
88.96028914876688
 20
-142.6703612924574
 30
0.0
 10
88.98354354329231
 20
-142.8987711231295
 30
0.0
 10
88.98354354329231
 20
-143.0724039355861
 30
0.0
 10
88.98354354329231
 20
-143.243625181203
 30
0.0
 10
88.96252846083229
 20
-143.4741020691662
 30
0.0
 10
88.86089814401741
 20
-143.6666829067917
 30
0.0
  0
SPLINE
  5
89
330
82
100
AcDbEntity
  8
_U+30EC_U+30A4_U+30E4_U+30FC 1
370
     0
100
AcDbSpline
210
0.0
220
0.0
230
1.0
 70
    11
 71
     3
 72
    17
 73
    13
 74
     0
 42
0.0000000001
 43
0.0000000001
 12
1.0
 22
0.0
 32
0.0
 13
1.0
 23
0.0
 33
0.0
 40
0.0
 40
0.0
 40
0.0
 40
0.0
 40
1.0
 40
1.0
 40
1.0
 40
2.0
 40
2.0
 40
2.0
 40
3.0
 40
3.0
 40
3.0
 40
4.0
 40
4.0
 40
4.0
 40
4.0
 10
88.46316187024533
 20
-142.4440185190765
 30
0.0
 10
88.21356470233897
 20
-142.4440185190765
 30
0.0
 10
88.1670559132881
 20
-142.7275498775126
 30
0.0
 10
88.1670559132881
 20
-143.0724039355861
 30
0.0
 10
88.1670559132881
 20
-143.3917642870687
 30
0.0
 10
88.20305716110896
 20
-143.7004448425471
 30
0.0
 10
88.46316187024533
 20
-143.7004448425471
 30
0.0
 10
88.71069198086053
 20
-143.7004448425471
 30
0.0
 10
88.7594400819768
 20
-143.4193250509507
 30
0.0
 10
88.7594400819768
 20
-143.0724039355861
 30
0.0
 10
88.7594400819768
 20
-142.7526990745549
 30
0.0
 10
88.7213717768648
 20
-142.4440185190765
 30
0.0
 10
88.46316187024533
 20
-142.4440185190765
 30
0.0
  0
HATCH
  5
8A
330
82
100
AcDbEntity
  8
_U+30EC_U+30A4_U+30E4_U+30FC 1
 62
   179
420
  2234388
100
AcDbHatch
 10
0.0
 20
0.0
 30
0.0
210
0.0
220
0.0
230
1.0
  2
SOLID
 70
     1
 71
     0
 91
        2
 92
        1
 93
        1
 72
     4
 94
        3
 73
     0
 74
     1
 95
       29
 96
       25
 40
0.0
 40
0.0
 40
0.0
 40
0.0
 40
1.0
 40
1.0
 40
1.0
 40
2.0
 40
2.0
 40
2.0
 40
3.0
 40
3.0
 40
3.0
 40
4.0
 40
4.0
 40
4.0
 40
5.0
 40
5.0
 40
5.0
 40
6.0
 40
6.0
 40
6.0
 40
7.0
 40
7.0
 40
7.0
 40
8.0
 40
8.0
 40
8.0
 40
8.0
 10
88.86089814401741
 20
-143.6666829067917
 10
88.75306665532909
 20
-143.8761447122949
 10
88.57960609764677
 20
-143.8950927374637
 10
88.46316187024533
 20
-143.8950927374637
 10
88.30244816585842
 20
-143.8950927374637
 10
88.16068248664038
 20
-143.8485839484129
 10
88.06542559647323
 20
-143.6666829067917
 10
87.96190047714147
 20
-143.4720350118751
 10
87.94278019719833
 20
-143.2353569520384
 10
87.94278019719833
 20
-143.0724039355861
 10
87.94278019719833
 20
-142.9283989443026
 10
87.95966116507606
 20
-142.6765624643309
 10
88.06542559647323
 20
-142.477780454832
 10
88.17342933993581
 20
-142.2748643307507
 10
88.33414304432272
 20
-142.251437681451
 10
88.46316187024533
 20
-142.251437681451
 10
88.62180851734108
 20
-142.251437681451
 10
88.76564125385026
 20
-142.2958794132108
 10
88.86089814401741
 20
-142.477780454832
 10
88.96028914876688
 20
-142.6703612924574
 10
88.98354354329231
 20
-142.8987711231295
 10
88.98354354329231
 20
-143.0724039355861
 10
88.98354354329231
 20
-143.243625181203
 10
88.96252846083229
 20
-143.4741020691662
 10
88.86089814401741
 20
-143.6666829067917
 97
        0
 97
        0
 92
        1
 93
        1
 72
     4
 94
        3
 73
     0
 74
     1
 95
       17
 96
       13
 40
0.0
 40
0.0
 40
0.0
 40
0.0
 40
1.0
 40
1.0
 40
1.0
 40
2.0
 40
2.0
 40
2.0
 40
3.0
 40
3.0
 40
3.0
 40
4.0
 40
4.0
 40
4.0
 40
4.0
 10
88.46316187024533
 20
-142.4440185190765
 10
88.21356470233897
 20
-142.4440185190765
 10
88.1670559132881
 20
-142.7275498775126
 10
88.1670559132881
 20
-143.0724039355861
 10
88.1670559132881
 20
-143.3917642870687
 10
88.20305716110896
 20
-143.7004448425471
 10
88.46316187024533
 20
-143.7004448425471
 10
88.71069198086053
 20
-143.7004448425471
 10
88.7594400819768
 20
-143.4193250509507
 10
88.7594400819768
 20
-143.0724039355861
 10
88.7594400819768
 20
-142.7526990745549
 10
88.7213717768648
 20
-142.4440185190765
 10
88.46316187024533
 20
-142.4440185190765
 97
        0
 97
        0
 75
     2
 76
     1
 98
        0
  0
ENDBLK
  5
85
330
82
100
AcDbEntity
  8
0
100
AcDbBlockEnd
  0
BLOCK
  5
99
330
97
100
AcDbEntity
  8
0
100
AcDbBlockBegin
  2
block 4
 70
     0
 10
0.0
 20
0.0
 30
0.0
  3
block 4
  1

  0
SPLINE
  5
9B
330
97
100
AcDbEntity
  8
_U+30EC_U+30A4_U+30E4_U+30FC 1
370
     0
100
AcDbSpline
210
0.0
220
0.0
230
1.0
 70
    11
 71
     3
 72
    62
 73
    58
 74
     0
 42
0.0000000001
 43
0.0000000001
 12
1.0
 22
0.0
 32
0.0
 13
1.0
 23
0.0
 33
0.0
 40
0.0
 40
0.0
 40
0.0
 40
0.0
 40
1.0
 40
1.0
 40
1.0
 40
2.0
 40
2.0
 40
2.0
 40
3.0
 40
3.0
 40
3.0
 40
4.0
 40
4.0
 40
4.0
 40
5.0
 40
5.0
 40
5.0
 40
6.0
 40
6.0
 40
6.0
 40
7.0
 40
7.0
 40
7.0
 40
8.0
 40
8.0
 40
8.0
 40
9.0
 40
9.0
 40
9.0
 40
10.0
 40
10.0
 40
10.0
 40
11.0
 40
11.0
 40
11.0
 40
12.0
 40
12.0
 40
12.0
 40
13.0
 40
13.0
 40
13.0
 40
14.0
 40
14.0
 40
14.0
 40
15.0
 40
15.0
 40
15.0
 40
16.0
 40
16.0
 40
16.0
 40
17.0
 40
17.0
 40
17.0
 40
18.0
 40
18.0
 40
18.0
 40
19.0
 40
19.0
 40
19.0
 40
19.0
 10
106.2798176817634
 20
-126.0873941742073
 30
0.0
 10
106.2798176817634
 20
-126.1828233191487
 30
0.0
 10
106.2588025993034
 20
-126.4005533538165
 30
0.0
 10
106.0727674430999
 20
-126.5256103199311
 30
0.0
 10
105.9604573302807
 20
-126.599679872864
 30
0.0
 10
105.8612385803055
 20
-126.6038139874463
 30
0.0
 10
105.7764892313684
 20
-126.6079481020286
 30
0.0
 10
105.7764892313684
 20
-126.6079481020286
 30
0.0
 10
105.7764892313684
 20
-126.3878065005211
 30
0.0
 10
105.7764892313684
 20
-126.3878065005211
 30
0.0
 10
105.8505587843013
 20
-126.38573944323
 30
0.0
 10
106.0851697868468
 20
-126.3754041567742
 30
0.0
 10
106.0851697868468
 20
-126.0918727983381
 30
0.0
 10
106.0851697868468
 20
-125.9544134884767
 30
0.0
 10
106.0155788580447
 20
-125.8017957584801
 30
0.0
 10
105.7871690273727
 20
-125.8017957584801
 30
0.0
 10
105.6707247999712
 20
-125.8017957584801
 30
0.0
 10
105.6221489536292
 20
-125.8400363183664
 30
0.0
 10
105.5904540751649
 20
-125.8717311968307
 30
0.0
 10
105.516384522232
 20
-125.9458007497635
 30
0.0
 10
105.5036376689366
 20
-126.062244977165
 30
0.0
 10
105.5036376689366
 20
-126.1170219953805
 30
0.0
 10
105.5036376689366
 20
-126.1363145300979
 30
0.0
 10
105.5057047262277
 20
-126.1721435231445
 30
0.0
 10
105.50983884081
 20
-126.1997042870265
 30
0.0
 10
105.50983884081
 20
-126.1997042870265
 30
0.0
 10
105.3151909458934
 20
-126.1997042870265
 30
0.0
 10
105.3151909458934
 20
-126.1997042870265
 30
0.0
 10
105.3217366273154
 20
-126.1614637271402
 30
0.0
 10
105.3238036846066
 20
-126.1194335622202
 30
0.0
 10
105.3238036846066
 20
-126.1128878807982
 30
0.0
 10
105.3238036846066
 20
-126.0474310665784
 30
0.0
 10
105.302444092598
 20
-125.8486490570795
 30
0.0
 10
105.0657660327613
 20
-125.8486490570795
 30
0.0
 10
104.8879991057224
 20
-125.8486490570795
 30
0.0
 10
104.8328775779585
 20
-125.979562685519
 30
0.0
 10
104.8328775779585
 20
-126.089805741047
 30
0.0
 10
104.8328775779585
 20
-126.3540445647657
 30
0.0
 10
105.0657660327613
 20
-126.3626573034788
 30
0.0
 10
105.1374240188545
 20
-126.3667914180611
 30
0.0
 10
105.1374240188545
 20
-126.3667914180611
 30
0.0
 10
105.1374240188545
 20
-126.5700520516908
 30
0.0
 10
105.1374240188545
 20
-126.5700520516908
 30
0.0
 10
105.0127115622885
 20
-126.5614393129777
 30
0.0
 10
104.6361626257507
 20
-126.5338785490957
 30
0.0
 10
104.6361626257507
 20
-126.0770588877516
 30
0.0
 10
104.6361626257507
 20
-125.8527831716618
 30
0.0
 10
104.7632866491564
 20
-125.6116264876943
 30
0.0
 10
105.0592203513394
 20
-125.6116264876943
 30
0.0
 10
105.2456000170914
 20
-125.6116264876943
 30
0.0
 10
105.3279377991889
 20
-125.7067111230872
 30
0.0
 10
105.3892604988263
 20
-125.8062743826109
 30
0.0
 10
105.4168212627083
 20
-125.7449516829735
 30
0.0
 10
105.4970919875146
 20
-125.5630506413523
 30
0.0
 10
105.7744221740772
 20
-125.5630506413523
 30
0.0
 10
106.1127305507288
 20
-125.5630506413523
 30
0.0
 10
106.2798176817634
 20
-125.8104084971932
 30
0.0
 10
106.2798176817634
 20
-126.0873941742073
 30
0.0
  0
HATCH
  5
9C
330
97
100
AcDbEntity
  8
_U+30EC_U+30A4_U+30E4_U+30FC 1
 62
   179
420
  2234388
100
AcDbHatch
 10
0.0
 20
0.0
 30
0.0
210
0.0
220
0.0
230
1.0
  2
SOLID
 70
     1
 71
     0
 91
        1
 92
        1
 93
        1
 72
     4
 94
        3
 73
     0
 74
     1
 95
       62
 96
       58
 40
0.0
 40
0.0
 40
0.0
 40
0.0
 40
1.0
 40
1.0
 40
1.0
 40
2.0
 40
2.0
 40
2.0
 40
3.0
 40
3.0
 40
3.0
 40
4.0
 40
4.0
 40
4.0
 40
5.0
 40
5.0
 40
5.0
 40
6.0
 40
6.0
 40
6.0
 40
7.0
 40
7.0
 40
7.0
 40
8.0
 40
8.0
 40
8.0
 40
9.0
 40
9.0
 40
9.0
 40
10.0
 40
10.0
 40
10.0
 40
11.0
 40
11.0
 40
11.0
 40
12.0
 40
12.0
 40
12.0
 40
13.0
 40
13.0
 40
13.0
 40
14.0
 40
14.0
 40
14.0
 40
15.0
 40
15.0
 40
15.0
 40
16.0
 40
16.0
 40
16.0
 40
17.0
 40
17.0
 40
17.0
 40
18.0
 40
18.0
 40
18.0
 40
19.0
 40
19.0
 40
19.0
 40
19.0
 10
106.2798176817634
 20
-126.0873941742073
 10
106.2798176817634
 20
-126.1828233191487
 10
106.2588025993034
 20
-126.4005533538165
 10
106.0727674430999
 20
-126.5256103199311
 10
105.9604573302807
 20
-126.599679872864
 10
105.8612385803055
 20
-126.6038139874463
 10
105.7764892313684
 20
-126.6079481020286
 10
105.7764892313684
 20
-126.6079481020286
 10
105.7764892313684
 20
-126.3878065005211
 10
105.7764892313684
 20
-126.3878065005211
 10
105.8505587843013
 20
-126.38573944323
 10
106.0851697868468
 20
-126.3754041567742
 10
106.0851697868468
 20
-126.0918727983381
 10
106.0851697868468
 20
-125.9544134884767
 10
106.0155788580447
 20
-125.8017957584801
 10
105.7871690273727
 20
-125.8017957584801
 10
105.6707247999712
 20
-125.8017957584801
 10
105.6221489536292
 20
-125.8400363183664
 10
105.5904540751649
 20
-125.8717311968307
 10
105.516384522232
 20
-125.9458007497635
 10
105.5036376689366
 20
-126.062244977165
 10
105.5036376689366
 20
-126.1170219953805
 10
105.5036376689366
 20
-126.1363145300979
 10
105.5057047262277
 20
-126.1721435231445
 10
105.50983884081
 20
-126.1997042870265
 10
105.50983884081
 20
-126.1997042870265
 10
105.3151909458934
 20
-126.1997042870265
 10
105.3151909458934
 20
-126.1997042870265
 10
105.3217366273154
 20
-126.1614637271402
 10
105.3238036846066
 20
-126.1194335622202
 10
105.3238036846066
 20
-126.1128878807982
 10
105.3238036846066
 20
-126.0474310665784
 10
105.302444092598
 20
-125.8486490570795
 10
105.0657660327613
 20
-125.8486490570795
 10
104.8879991057224
 20
-125.8486490570795
 10
104.8328775779585
 20
-125.979562685519
 10
104.8328775779585
 20
-126.089805741047
 10
104.8328775779585
 20
-126.3540445647657
 10
105.0657660327613
 20
-126.3626573034788
 10
105.1374240188545
 20
-126.3667914180611
 10
105.1374240188545
 20
-126.3667914180611
 10
105.1374240188545
 20
-126.5700520516908
 10
105.1374240188545
 20
-126.5700520516908
 10
105.0127115622885
 20
-126.5614393129777
 10
104.6361626257507
 20
-126.5338785490957
 10
104.6361626257507
 20
-126.0770588877516
 10
104.6361626257507
 20
-125.8527831716618
 10
104.7632866491564
 20
-125.6116264876943
 10
105.0592203513394
 20
-125.6116264876943
 10
105.2456000170914
 20
-125.6116264876943
 10
105.3279377991889
 20
-125.7067111230872
 10
105.3892604988263
 20
-125.8062743826109
 10
105.4168212627083
 20
-125.7449516829735
 10
105.4970919875146
 20
-125.5630506413523
 10
105.7744221740772
 20
-125.5630506413523
 10
106.1127305507288
 20
-125.5630506413523
 10
106.2798176817634
 20
-125.8104084971932
 10
106.2798176817634
 20
-126.0873941742073
 97
        0
 97
        0
 75
     2
 76
     1
 98
        0
  0
SPLINE
  5
9D
330
97
100
AcDbEntity
  8
_U+30EC_U+30A4_U+30E4_U+30FC 1
370
     0
100
AcDbSpline
210
0.0
220
0.0
230
1.0
 70
    11
 71
     3
 72
    29
 73
    25
 74
     0
 42
0.0000000001
 43
0.0000000001
 12
1.0
 22
0.0
 32
0.0
 13
1.0
 23
0.0
 33
0.0
 40
0.0
 40
0.0
 40
0.0
 40
0.0
 40
1.0
 40
1.0
 40
1.0
 40
2.0
 40
2.0
 40
2.0
 40
3.0
 40
3.0
 40
3.0
 40
4.0
 40
4.0
 40
4.0
 40
5.0
 40
5.0
 40
5.0
 40
6.0
 40
6.0
 40
6.0
 40
7.0
 40
7.0
 40
7.0
 40
8.0
 40
8.0
 40
8.0
 40
8.0
 10
106.0514078510913
 20
-124.504372798735
 30
0.0
 10
106.2608696565945
 20
-124.6125487969719
 30
0.0
 10
106.2798176817634
 20
-124.7858370998799
 30
0.0
 10
106.2798176817634
 20
-124.9022813272814
 30
0.0
 10
106.2798176817634
 20
-125.0631672864425
 30
0.0
 10
106.2333088927125
 20
-125.2047607108863
 30
0.0
 10
106.0514078510913
 20
-125.2998453462792
 30
0.0
 10
105.8567599561747
 20
-125.4035427203852
 30
0.0
 10
105.6197373867895
 20
-125.4228352551026
 30
0.0
 10
105.4571288798857
 20
-125.4228352551026
 30
0.0
 10
105.3131238886023
 20
-125.4228352551026
 30
0.0
 10
105.0612874086305
 20
-125.4056097776764
 30
0.0
 10
104.8625053991316
 20
-125.2998453462792
 30
0.0
 10
104.6595892750504
 20
-125.1920138575909
 30
0.0
 10
104.6361626257507
 20
-125.0311278984297
 30
0.0
 10
104.6361626257507
 20
-124.9022813272814
 30
0.0
 10
104.6361626257507
 20
-124.7434624254114
 30
0.0
 10
104.6806043575104
 20
-124.5998019436764
 30
0.0
 10
104.8625053991316
 20
-124.504372798735
 30
0.0
 10
105.0550862367571
 20
-124.4051540487598
 30
0.0
 10
105.2834960674291
 20
-124.3817273994601
 30
0.0
 10
105.4571288798857
 20
-124.3817273994601
 30
0.0
 10
105.6283501255026
 20
-124.3817273994601
 30
0.0
 10
105.8588270134659
 20
-124.4030869914687
 30
0.0
 10
106.0514078510913
 20
-124.504372798735
 30
0.0
  0
SPLINE
  5
9E
330
97
100
AcDbEntity
  8
_U+30EC_U+30A4_U+30E4_U+30FC 1
370
     0
100
AcDbSpline
210
0.0
220
0.0
230
1.0
 70
    11
 71
     3
 72
    17
 73
    13
 74
     0
 42
0.0000000001
 43
0.0000000001
 12
1.0
 22
0.0
 32
0.0
 13
1.0
 23
0.0
 33
0.0
 40
0.0
 40
0.0
 40
0.0
 40
0.0
 40
1.0
 40
1.0
 40
1.0
 40
2.0
 40
2.0
 40
2.0
 40
3.0
 40
3.0
 40
3.0
 40
4.0
 40
4.0
 40
4.0
 40
4.0
 10
104.8287434633762
 20
-124.9022813272814
 30
0.0
 10
104.8287434633762
 20
-125.152050749962
 30
0.0
 10
105.1122748218122
 20
-125.1985595390129
 30
0.0
 10
105.4571288798857
 20
-125.1985595390129
 30
0.0
 10
105.7764892313684
 20
-125.1985595390129
 30
0.0
 10
106.0851697868468
 20
-125.1623860364177
 30
0.0
 10
106.0851697868468
 20
-124.9022813272814
 30
0.0
 10
106.0851697868468
 20
-124.6545789618919
 30
0.0
 10
105.8040499952504
 20
-124.6060031155499
 30
0.0
 10
105.4571288798857
 20
-124.6060031155499
 30
0.0
 10
105.1374240188545
 20
-124.6060031155499
 30
0.0
 10
104.8287434633762
 20
-124.6442436754362
 30
0.0
 10
104.8287434633762
 20
-124.9022813272814
 30
0.0
  0
HATCH
  5
9F
330
97
100
AcDbEntity
  8
_U+30EC_U+30A4_U+30E4_U+30FC 1
 62
   179
420
  2234388
100
AcDbHatch
 10
0.0
 20
0.0
 30
0.0
210
0.0
220
0.0
230
1.0
  2
SOLID
 70
     1
 71
     0
 91
        2
 92
        1
 93
        1
 72
     4
 94
        3
 73
     0
 74
     1
 95
       29
 96
       25
 40
0.0
 40
0.0
 40
0.0
 40
0.0
 40
1.0
 40
1.0
 40
1.0
 40
2.0
 40
2.0
 40
2.0
 40
3.0
 40
3.0
 40
3.0
 40
4.0
 40
4.0
 40
4.0
 40
5.0
 40
5.0
 40
5.0
 40
6.0
 40
6.0
 40
6.0
 40
7.0
 40
7.0
 40
7.0
 40
8.0
 40
8.0
 40
8.0
 40
8.0
 10
106.0514078510913
 20
-124.504372798735
 10
106.2608696565945
 20
-124.6125487969719
 10
106.2798176817634
 20
-124.7858370998799
 10
106.2798176817634
 20
-124.9022813272814
 10
106.2798176817634
 20
-125.0631672864425
 10
106.2333088927125
 20
-125.2047607108863
 10
106.0514078510913
 20
-125.2998453462792
 10
105.8567599561747
 20
-125.4035427203852
 10
105.6197373867895
 20
-125.4228352551026
 10
105.4571288798857
 20
-125.4228352551026
 10
105.3131238886023
 20
-125.4228352551026
 10
105.0612874086305
 20
-125.4056097776764
 10
104.8625053991316
 20
-125.2998453462792
 10
104.6595892750504
 20
-125.1920138575909
 10
104.6361626257507
 20
-125.0311278984297
 10
104.6361626257507
 20
-124.9022813272814
 10
104.6361626257507
 20
-124.7434624254114
 10
104.6806043575104
 20
-124.5998019436764
 10
104.8625053991316
 20
-124.504372798735
 10
105.0550862367571
 20
-124.4051540487598
 10
105.2834960674291
 20
-124.3817273994601
 10
105.4571288798857
 20
-124.3817273994601
 10
105.6283501255026
 20
-124.3817273994601
 10
105.8588270134659
 20
-124.4030869914687
 10
106.0514078510913
 20
-124.504372798735
 97
        0
 97
        0
 92
        1
 93
        1
 72
     4
 94
        3
 73
     0
 74
     1
 95
       17
 96
       13
 40
0.0
 40
0.0
 40
0.0
 40
0.0
 40
1.0
 40
1.0
 40
1.0
 40
2.0
 40
2.0
 40
2.0
 40
3.0
 40
3.0
 40
3.0
 40
4.0
 40
4.0
 40
4.0
 40
4.0
 10
104.8287434633762
 20
-124.9022813272814
 10
104.8287434633762
 20
-125.152050749962
 10
105.1122748218122
 20
-125.1985595390129
 10
105.4571288798857
 20
-125.1985595390129
 10
105.7764892313684
 20
-125.1985595390129
 10
106.0851697868468
 20
-125.1623860364177
 10
106.0851697868468
 20
-124.9022813272814
 10
106.0851697868468
 20
-124.6545789618919
 10
105.8040499952504
 20
-124.6060031155499
 10
105.4571288798857
 20
-124.6060031155499
 10
105.1374240188545
 20
-124.6060031155499
 10
104.8287434633762
 20
-124.6442436754362
 10
104.8287434633762
 20
-124.9022813272814
 97
        0
 97
        0
 75
     2
 76
     1
 98
        0
  0
ENDBLK
  5
9A
330
97
100
AcDbEntity
  8
0
100
AcDbBlockEnd
  0
ENDSEC
  0
SECTION
  2
ENTITIES
  0
SPLINE
  5
41
330
1F
100
AcDbEntity
  8
_U+30EC_U+30A4_U+30E4_U+30FC 1
370
     0
100
AcDbSpline
210
0.0
220
0.0
230
1.0
 70
    11
 71
     3
 72
    35
 73
    31
 74
     0
 42
0.0000000001
 43
0.0000000001
 12
1.0
 22
0.0
 32
0.0
 13
1.0
 23
0.0
 33
0.0
 40
0.0
 40
0.0
 40
0.0
 40
0.0
 40
1.0
 40
1.0
 40
1.0
 40
2.0
 40
2.0
 40
2.0
 40
3.0
 40
3.0
 40
3.0
 40
4.0
 40
4.0
 40
4.0
 40
5.0
 40
5.0
 40
5.0
 40
6.0
 40
6.0
 40
6.0
 40
7.0
 40
7.0
 40
7.0
 40
8.0
 40
8.0
 40
8.0
 40
9.0
 40
9.0
 40
9.0
 40
10.0
 40
10.0
 40
10.0
 40
10.0
 10
72.87513814080033
 20
-140.489975242655
 30
0.0
 10
72.87513814080033
 20
-140.489975242655
 30
0.0
 10
87.87507248034235
 20
-140.489975242655
 30
0.0
 10
87.87507248034235
 20
-140.489975242655
 30
0.0
 10
87.87507248034235
 20
-139.7995538539389
 30
0.0
 10
88.43457802162374
 20
-139.2400835763009
 30
0.0
 10
89.12496411512163
 20
-139.2400835763009
 30
0.0
 10
89.81535020861952
 20
-139.2400835763009
 30
0.0
 10
90.3748557499009
 20
-139.7995538539389
 30
0.0
 10
90.3748557499009
 20
-140.489975242655
 30
0.0
 10
90.3748557499009
 20
-140.489975242655
 30
0.0
 10
92.87495651945135
 20
-140.489975242655
 30
0.0
 10
92.87495651945135
 20
-140.489975242655
 30
0.0
 10
92.87495651945135
 20
-134.9671332995918
 30
0.0
 10
97.35220275344
 20
-130.4898894118217
 30
0.0
 10
102.8750420976613
 20
-130.4898894118217
 30
0.0
 10
102.8750420976613
 20
-130.4898894118217
 30
0.0
 10
102.8750420976613
 20
-127.9901060791135
 30
0.0
 10
102.8750420976613
 20
-127.9901060791135
 30
0.0
 10
102.1846207263865
 20
-127.9901060791135
 30
0.0
 10
101.625150462882
 20
-127.4306358014756
 30
0.0
 10
101.625150462882
 20
-126.7402496905373
 30
0.0
 10
101.625150462882
 20
-126.0498283018208
 30
0.0
 10
102.1846207263865
 20
-125.4900052464052
 30
0.0
 10
102.8750420976613
 20
-125.4900052464052
 30
0.0
 10
102.8750420976613
 20
-125.4900052464052
 30
0.0
 10
102.8750420976613
 20
-110.4900705279331
 30
0.0
 10
102.8750420976613
 20
-110.4900705279331
 30
0.0
 10
100.7662777070159
 20
-126.1022158018078
 30
0.0
 10
88.48693024251034
 20
-138.3812107987377
 30
0.0
 10
72.87513814080033
 20
-140.489975242655
 30
0.0
  0
HATCH
  5
42
330
1F
100
AcDbEntity
  8
_U+30EC_U+30A4_U+30E4_U+30FC 1
 62
     9
420
 13224394
100
AcDbHatch
 10
0.0
 20
0.0
 30
0.0
210
0.0
220
0.0
230
1.0
  2
SOLID
 70
     1
 71
     0
 91
        1
 92
        1
 93
        1
 72
     4
 94
        3
 73
     0
 74
     1
 95
       35
 96
       31
 40
0.0
 40
0.0
 40
0.0
 40
0.0
 40
1.0
 40
1.0
 40
1.0
 40
2.0
 40
2.0
 40
2.0
 40
3.0
 40
3.0
 40
3.0
 40
4.0
 40
4.0
 40
4.0
 40
5.0
 40
5.0
 40
5.0
 40
6.0
 40
6.0
 40
6.0
 40
7.0
 40
7.0
 40
7.0
 40
8.0
 40
8.0
 40
8.0
 40
9.0
 40
9.0
 40
9.0
 40
10.0
 40
10.0
 40
10.0
 40
10.0
 10
72.87513814080033
 20
-140.489975242655
 10
72.87513814080033
 20
-140.489975242655
 10
87.87507248034235
 20
-140.489975242655
 10
87.87507248034235
 20
-140.489975242655
 10
87.87507248034235
 20
-139.7995538539389
 10
88.43457802162374
 20
-139.2400835763009
 10
89.12496411512163
 20
-139.2400835763009
 10
89.81535020861952
 20
-139.2400835763009
 10
90.3748557499009
 20
-139.7995538539389
 10
90.3748557499009
 20
-140.489975242655
 10
90.3748557499009
 20
-140.489975242655
 10
92.87495651945135
 20
-140.489975242655
 10
92.87495651945135
 20
-140.489975242655
 10
92.87495651945135
 20
-134.9671332995918
 10
97.35220275344
 20
-130.4898894118217
 10
102.8750420976613
 20
-130.4898894118217
 10
102.8750420976613
 20
-130.4898894118217
 10
102.8750420976613
 20
-127.9901060791135
 10
102.8750420976613
 20
-127.9901060791135
 10
102.1846207263865
 20
-127.9901060791135
 10
101.625150462882
 20
-127.4306358014756
 10
101.625150462882
 20
-126.7402496905373
 10
101.625150462882
 20
-126.0498283018208
 10
102.1846207263865
 20
-125.4900052464052
 10
102.8750420976613
 20
-125.4900052464052
 10
102.8750420976613
 20
-125.4900052464052
 10
102.8750420976613
 20
-110.4900705279331
 10
102.8750420976613
 20
-110.4900705279331
 10
100.7662777070159
 20
-126.1022158018078
 10
88.48693024251034
 20
-138.3812107987377
 10
72.87513814080033
 20
-140.489975242655
 97
        0
 97
        0
 75
     2
 76
     1
 98
        0
  0
POLYLINE
  5
43
330
1F
100
AcDbEntity
  8
_U+30EC_U+30A4_U+30E4_U+30FC 1
 62
   179
420
  2234388
370
    25
100
AcDb2dPolyline
 66
     1
 10
0.0
 20
0.0
 30
0.0
  0
VERTEX
  5
44
330
43
100
AcDbEntity
  8
_U+30EC_U+30A4_U+30E4_U+30FC 1
 62
   179
420
  2234388
370
    25
100
AcDbVertex
100
AcDb2dVertex
 10
72.87513814080033
 20
-140.489975242655
 30
0.0
  0
VERTEX
  5
45
330
43
100
AcDbEntity
  8
_U+30EC_U+30A4_U+30E4_U+30FC 1
 62
   179
420
  2234388
370
    25
100
AcDbVertex
100
AcDb2dVertex
 10
87.87507248034235
 20
-140.489975242655
 30
0.0
  0
SEQEND
  5
46
330
43
100
AcDbEntity
  8
_U+30EC_U+30A4_U+30E4_U+30FC 1
 62
   179
420
  2234388
370
    25
  0
POLYLINE
  5
47
330
1F
100
AcDbEntity
  8
_U+30EC_U+30A4_U+30E4_U+30FC 1
 62
   179
420
  2234388
370
    25
100
AcDb2dPolyline
 66
     1
 10
0.0
 20
0.0
 30
0.0
  0
VERTEX
  5
48
330
47
100
AcDbEntity
  8
_U+30EC_U+30A4_U+30E4_U+30FC 1
 62
   179
420
  2234388
370
    25
100
AcDbVertex
100
AcDb2dVertex
 10
90.3748557499009
 20
-140.489975242655
 30
0.0
  0
VERTEX
  5
49
330
47
100
AcDbEntity
  8
_U+30EC_U+30A4_U+30E4_U+30FC 1
 62
   179
420
  2234388
370
    25
100
AcDbVertex
100
AcDb2dVertex
 10
92.87495651945135
 20
-140.489975242655
 30
0.0
  0
SEQEND
  5
4A
330
47
100
AcDbEntity
  8
_U+30EC_U+30A4_U+30E4_U+30FC 1
 62
   179
420
  2234388
370
    25
  0
POLYLINE
  5
4B
330
1F
100
AcDbEntity
  8
_U+30EC_U+30A4_U+30E4_U+30FC 1
 62
   179
420
  2234388
370
     9
100
AcDb2dPolyline
 66
     1
 10
0.0
 20
0.0
 30
0.0
  0
VERTEX
  5
4C
330
4B
100
AcDbEntity
  8
_U+30EC_U+30A4_U+30E4_U+30FC 1
 62
   179
420
  2234388
370
     9
100
AcDbVertex
100
AcDb2dVertex
 10
92.07259876214343
 20
-130.0537502452646
 30
0.0
  0
VERTEX
  5
4D
330
4B
100
AcDbEntity
  8
_U+30EC_U+30A4_U+30E4_U+30FC 1
 62
   179
420
  2234388
370
     9
100
AcDbVertex
100
AcDb2dVertex
 10
92.9386681844926
 20
-130.553601078473
 30
0.0
  0
SEQEND
  5
4E
330
4B
100
AcDbEntity
  8
_U+30EC_U+30A4_U+30E4_U+30FC 1
 62
   179
420
  2234388
370
     9
  0
POLYLINE
  5
4F
330
1F
100
AcDbEntity
  8
_U+30EC_U+30A4_U+30E4_U+30FC 1
 62
   179
420
  2234388
370
     9
100
AcDb2dPolyline
 66
     1
 10
0.0
 20
0.0
 30
0.0
  0
VERTEX
  5
50
330
4F
100
AcDbEntity
  8
_U+30EC_U+30A4_U+30E4_U+30FC 1
 62
   179
420
  2234388
370
     9
100
AcDbVertex
100
AcDb2dVertex
 10
92.43846458614274
 20
-129.6878491342447
 30
0.0
  0
VERTEX
  5
51
330
4F
100
AcDbEntity
  8
_U+30EC_U+30A4_U+30E4_U+30FC 1
 62
   179
420
  2234388
370
     9
100
AcDbVertex
100
AcDb2dVertex
 10
92.9386681844926
 20
-130.553601078473
 30
0.0
  0
SEQEND
  5
52
330
4F
100
AcDbEntity
  8
_U+30EC_U+30A4_U+30E4_U+30FC 1
 62
   179
420
  2234388
370
     9
  0
POLYLINE
  5
53
330
1F
100
AcDbEntity
  8
_U+30EC_U+30A4_U+30E4_U+30FC 1
 62
   179
420
  2234388
370
    25
100
AcDb2dPolyline
 66
     1
 10
0.0
 20
0.0
 30
0.0
  0
VERTEX
  5
54
330
53
100
AcDbEntity
  8
_U+30EC_U+30A4_U+30E4_U+30FC 1
 62
   179
420
  2234388
370
    25
100
AcDbVertex
100
AcDb2dVertex
 10
102.8750420976613
 20
-127.9901060791135
 30
0.0
  0
VERTEX
  5
55
330
53
100
AcDbEntity
  8
_U+30EC_U+30A4_U+30E4_U+30FC 1
 62
   179
420
  2234388
370
    25
100
AcDbVertex
100
AcDb2dVertex
 10
102.8750420976613
 20
-130.4898894118217
 30
0.0
  0
SEQEND
  5
56
330
53
100
AcDbEntity
  8
_U+30EC_U+30A4_U+30E4_U+30FC 1
 62
   179
420
  2234388
370
    25
  0
POLYLINE
  5
57
330
1F
100
AcDbEntity
  8
_U+30EC_U+30A4_U+30E4_U+30FC 1
 62
   179
420
  2234388
370
    25
100
AcDb2dPolyline
 66
     1
 10
0.0
 20
0.0
 30
0.0
  0
VERTEX
  5
58
330
57
100
AcDbEntity
  8
_U+30EC_U+30A4_U+30E4_U+30FC 1
 62
   179
420
  2234388
370
    25
100
AcDbVertex
100
AcDb2dVertex
 10
102.8750420976613
 20
-110.4900705279331
 30
0.0
  0
VERTEX
  5
59
330
57
100
AcDbEntity
  8
_U+30EC_U+30A4_U+30E4_U+30FC 1
 62
   179
420
  2234388
370
    25
100
AcDbVertex
100
AcDb2dVertex
 10
102.8750420976613
 20
-125.4900052464052
 30
0.0
  0
SEQEND
  5
5A
330
57
100
AcDbEntity
  8
_U+30EC_U+30A4_U+30E4_U+30FC 1
 62
   179
420
  2234388
370
    25
  0
SPLINE
  5
5B
330
1F
100
AcDbEntity
  8
_U+30EC_U+30A4_U+30E4_U+30FC 1
 62
   179
420
  2234388
370
     9
100
AcDbSpline
210
0.0
220
0.0
230
1.0
 70
    11
 71
     3
 72
    17
 73
    13
 74
     0
 42
0.0000000001
 43
0.0000000001
 12
1.0
 22
0.0
 32
0.0
 13
1.0
 23
0.0
 33
0.0
 40
0.0
 40
0.0
 40
0.0
 40
0.0
 40
1.0
 40
1.0
 40
1.0
 40
2.0
 40
2.0
 40
2.0
 40
3.0
 40
3.0
 40
3.0
 40
4.0
 40
4.0
 40
4.0
 40
4.0
 10
106.9750253263953
 20
-140.489975242655
 30
0.0
 10
106.9750253263953
 20
-140.4348360760026
 30
0.0
 10
106.9302578275374
 20
-140.3900685760134
 30
0.0
 10
106.8751186622775
 20
-140.3900685760134
 30
0.0
 10
106.8196619970256
 20
-140.3900685760134
 30
0.0
 10
106.7748592203908
 20
-140.4348360760026
 30
0.0
 10
106.7748592203908
 20
-140.489975242655
 30
0.0
 10
106.7748592203908
 20
-140.5454319093083
 30
0.0
 10
106.8196619970256
 20
-140.5898819092967
 30
0.0
 10
106.8751186622775
 20
-140.5898819092967
 30
0.0
 10
106.9302578275374
 20
-140.5898819092967
 30
0.0
 10
106.9750253263953
 20
-140.5454319093083
 30
0.0
 10
106.9750253263953
 20
-140.489975242655
 30
0.0
  0
SPLINE
  5
5C
330
1F
100
AcDbEntity
  8
_U+30EC_U+30A4_U+30E4_U+30FC 1
 62
   179
420
  2234388
370
     9
100
AcDbSpline
210
0.0
220
0.0
230
1.0
 70
    11
 71
     3
 72
    17
 73
    13
 74
     0
 42
0.0000000001
 43
0.0000000001
 12
1.0
 22
0.0
 32
0.0
 13
1.0
 23
0.0
 33
0.0
 40
0.0
 40
0.0
 40
0.0
 40
0.0
 40
1.0
 40
1.0
 40
1.0
 40
2.0
 40
2.0
 40
2.0
 40
3.0
 40
3.0
 40
3.0
 40
4.0
 40
4.0
 40
4.0
 40
4.0
 10
102.9749487617791
 20
-144.4900519083222
 30
0.0
 10
102.9749487617791
 20
-144.4349480194466
 30
0.0
 10
102.9301459851443
 20
-144.3901452416805
 30
0.0
 10
102.8750420976613
 20
-144.3901452416805
 30
0.0
 10
102.8199055298508
 20
-144.3901452416805
 30
0.0
 10
102.7751354335434
 20
-144.4349480194466
 30
0.0
 10
102.7751354335434
 20
-144.4900519083222
 30
0.0
 10
102.7751354335434
 20
-144.5451910749746
 30
0.0
 10
102.8199055298508
 20
-144.5899585749638
 30
0.0
 10
102.8750420976613
 20
-144.5899585749638
 30
0.0
 10
102.9301459851443
 20
-144.5899585749638
 30
0.0
 10
102.9749487617791
 20
-144.5451910749746
 30
0.0
 10
102.9749487617791
 20
-144.4900519083222
 30
0.0
  0
SPLINE
  5
5D
330
1F
100
AcDbEntity
  8
_U+30EC_U+30A4_U+30E4_U+30FC 1
 62
   179
420
  2234388
370
    25
100
AcDbSpline
210
0.0
220
0.0
230
1.0
 70
     8
 71
     3
 72
     8
 73
     4
 74
     0
 42
0.0000000001
 43
0.0000000001
 12
1.0
 22
0.0
 32
0.0
 13
1.0
 23
0.0
 33
0.0
 40
0.0
 40
0.0
 40
0.0
 40
0.0
 40
1.0
 40
1.0
 40
1.0
 40
1.0
 10
72.87513814080033
 20
-140.489975242655
 30
0.0
 10
88.48693024251034
 20
-138.3812107987377
 30
0.0
 10
100.7662777070159
 20
-126.1022158018078
 30
0.0
 10
102.8750420976613
 20
-110.4900705279331
 30
0.0
  0
SPLINE
  5
5E
330
1F
100
AcDbEntity
  8
_U+30EC_U+30A4_U+30E4_U+30FC 1
 62
   179
420
  2234388
370
    25
100
AcDbSpline
210
0.0
220
0.0
230
1.0
 70
     8
 71
     3
 72
     8
 73
     4
 74
     0
 42
0.0000000001
 43
0.0000000001
 12
1.0
 22
0.0
 32
0.0
 13
1.0
 23
0.0
 33
0.0
 40
0.0
 40
0.0
 40
0.0
 40
0.0
 40
1.0
 40
1.0
 40
1.0
 40
1.0
 10
102.8750420976613
 20
-130.4898894118217
 30
0.0
 10
97.35220275344
 20
-130.4898894118217
 30
0.0
 10
92.87495651945135
 20
-134.9671332995918
 30
0.0
 10
92.87495651945135
 20
-140.489975242655
 30
0.0
  0
SPLINE
  5
5F
330
1F
100
AcDbEntity
  8
_U+30EC_U+30A4_U+30E4_U+30FC 1
 62
   179
420
  2234388
370
    25
100
AcDbSpline
210
0.0
220
0.0
230
1.0
 70
     8
 71
     3
 72
    11
 73
     7
 74
     0
 42
0.0000000001
 43
0.0000000001
 12
1.0
 22
0.0
 32
0.0
 13
1.0
 23
0.0
 33
0.0
 40
0.0
 40
0.0
 40
0.0
 40
0.0
 40
1.0
 40
1.0
 40
1.0
 40
2.0
 40
2.0
 40
2.0
 40
2.0
 10
90.3748557499009
 20
-140.489975242655
 30
0.0
 10
90.3748557499009
 20
-139.7995538539389
 30
0.0
 10
89.81535020861952
 20
-139.2400835763009
 30
0.0
 10
89.12496411512163
 20
-139.2400835763009
 30
0.0
 10
88.43457802162374
 20
-139.2400835763009
 30
0.0
 10
87.87507248034235
 20
-139.7995538539389
 30
0.0
 10
87.87507248034235
 20
-140.489975242655
 30
0.0
  0
SPLINE
  5
60
330
1F
100
AcDbEntity
  8
_U+30EC_U+30A4_U+30E4_U+30FC 1
 62
   179
420
  2234388
370
    25
100
AcDbSpline
210
0.0
220
0.0
230
1.0
 70
     8
 71
     3
 72
    11
 73
     7
 74
     0
 42
0.0000000001
 43
0.0000000001
 12
1.0
 22
0.0
 32
0.0
 13
1.0
 23
0.0
 33
0.0
 40
0.0
 40
0.0
 40
0.0
 40
0.0
 40
1.0
 40
1.0
 40
1.0
 40
2.0
 40
2.0
 40
2.0
 40
2.0
 10
102.8750420976613
 20
-125.4900052464052
 30
0.0
 10
102.1846207263865
 20
-125.4900052464052
 30
0.0
 10
101.625150462882
 20
-126.0498283018208
 30
0.0
 10
101.625150462882
 20
-126.7402496905373
 30
0.0
 10
101.625150462882
 20
-127.4306358014756
 30
0.0
 10
102.1846207263865
 20
-127.9901060791135
 30
0.0
 10
102.8750420976613
 20
-127.9901060791135
 30
0.0
  0
SPLINE
  5
61
330
1F
100
AcDbEntity
  8
_U+30EC_U+30A4_U+30E4_U+30FC 1
 62
   179
420
  2234388
370
     9
100
AcDbSpline
210
0.0
220
0.0
230
1.0
 70
    11
 71
     3
 72
    17
 73
    13
 74
     0
 42
0.0000000001
 43
0.0000000001
 12
1.0
 22
0.0
 32
0.0
 13
1.0
 23
0.0
 33
0.0
 40
0.0
 40
0.0
 40
0.0
 40
0.0
 40
1.0
 40
1.0
 40
1.0
 40
2.0
 40
2.0
 40
2.0
 40
3.0
 40
3.0
 40
3.0
 40
4.0
 40
4.0
 40
4.0
 40
4.0
 10
72.97504480491817
 20
-144.4900519083222
 30
0.0
 10
72.97504480491817
 20
-144.4349480194466
 30
0.0
 10
72.9302420282834
 20
-144.3901452416805
 30
0.0
 10
72.87513814080033
 20
-144.3901452416805
 30
0.0
 10
72.8196833151283
 20
-144.3901452416805
 30
0.0
 10
72.77523331513966
 20
-144.4349480194466
 30
0.0
 10
72.77523331513966
 20
-144.4900519083222
 30
0.0
 10
72.77523331513966
 20
-144.5451910749746
 30
0.0
 10
72.8196833151283
 20
-144.5899585749638
 30
0.0
 10
72.87513814080033
 20
-144.5899585749638
 30
0.0
 10
72.9302420282834
 20
-144.5899585749638
 30
0.0
 10
72.97504480491817
 20
-144.5451910749746
 30
0.0
 10
72.97504480491817
 20
-144.4900519083222
 30
0.0
  0
SPLINE
  5
62
330
1F
100
AcDbEntity
  8
_U+30EC_U+30A4_U+30E4_U+30FC 1
 62
   179
420
  2234388
370
     9
100
AcDbSpline
210
0.0
220
0.0
230
1.0
 70
    11
 71
     3
 72
    17
 73
    13
 74
     0
 42
0.0000000001
 43
0.0000000001
 12
1.0
 22
0.0
 32
0.0
 13
1.0
 23
0.0
 33
0.0
 40
0.0
 40
0.0
 40
0.0
 40
0.0
 40
1.0
 40
1.0
 40
1.0
 40
2.0
 40
2.0
 40
2.0
 40
3.0
 40
3.0
 40
3.0
 40
4.0
 40
4.0
 40
4.0
 40
4.0
 10
106.9750253263953
 20
-110.4900705279331
 30
0.0
 10
106.9750253263953
 20
-110.4346138612801
 30
0.0
 10
106.9302578275374
 20
-110.3898110835137
 30
0.0
 10
106.8751186622775
 20
-110.3898110835137
 30
0.0
 10
106.8196619970256
 20
-110.3898110835137
 30
0.0
 10
106.7748592203908
 20
-110.4346138612801
 30
0.0
 10
106.7748592203908
 20
-110.4900705279331
 30
0.0
 10
106.7748592203908
 20
-110.545174416808
 30
0.0
 10
106.8196619970256
 20
-110.5899771945748
 30
0.0
 10
106.8751186622775
 20
-110.5899771945748
 30
0.0
 10
106.9302578275374
 20
-110.5899771945748
 30
0.0
 10
106.9750253263953
 20
-110.545174416808
 30
0.0
 10
106.9750253263953
 20
-110.4900705279331
 30
0.0
  0
POLYLINE
  5
63
330
1F
100
AcDbEntity
  8
_U+30EC_U+30A4_U+30E4_U+30FC 1
 62
   179
420
  2234388
370
     9
100
AcDb2dPolyline
 66
     1
 10
0.0
 20
0.0
 30
0.0
  0
VERTEX
  5
64
330
63
100
AcDbEntity
  8
_U+30EC_U+30A4_U+30E4_U+30FC 1
 62
   179
420
  2234388
370
     9
100
AcDbVertex
100
AcDb2dVertex
 10
92.9386681844926
 20
-130.553601078473
 30
0.0
  0
VERTEX
  5
65
330
63
100
AcDbEntity
  8
_U+30EC_U+30A4_U+30E4_U+30FC 1
 62
   179
420
  2234388
370
     9
100
AcDbVertex
100
AcDb2dVertex
 10
87.24120138540263
 20
-124.8561341354525
 30
0.0
  0
SEQEND
  5
66
330
63
100
AcDbEntity
  8
_U+30EC_U+30A4_U+30E4_U+30FC 1
 62
   179
420
  2234388
370
     9
  0
POLYLINE
  5
67
330
1F
100
AcDbEntity
  8
_U+30EC_U+30A4_U+30E4_U+30FC 1
 62
   179
420
  2234388
370
     9
100
AcDb2dPolyline
 66
     1
 10
0.0
 20
0.0
 30
0.0
  0
VERTEX
  5
68
330
67
100
AcDbEntity
  8
_U+30EC_U+30A4_U+30E4_U+30FC 1
 62
   179
420
  2234388
370
     9
100
AcDbVertex
100
AcDb2dVertex
 10
87.24120138540263
 20
-124.8561341354525
 30
0.0
  0
VERTEX
  5
69
330
67
100
AcDbEntity
  8
_U+30EC_U+30A4_U+30E4_U+30FC 1
 62
   179
420
  2234388
370
     9
100
AcDbVertex
100
AcDb2dVertex
 10
82.10419262756976
 20
-124.8561341354525
 30
0.0
  0
SEQEND
  5
6A
330
67
100
AcDbEntity
  8
_U+30EC_U+30A4_U+30E4_U+30FC 1
 62
   179
420
  2234388
370
     9
  0
INSERT
  5
6C
330
1F
100
AcDbEntity
  8
_U+30EC_U+30A4_U+30E4_U+30FC 1
100
AcDbBlockReference
  2
block 2
 10
0.0
 20
0.0
 30
0.0
  0
POLYLINE
  5
76
330
1F
100
AcDbEntity
  8
_U+30EC_U+30A4_U+30E4_U+30FC 1
 62
   179
420
  2234388
370
     9
100
AcDb2dPolyline
 66
     1
 10
0.0
 20
0.0
 30
0.0
  0
VERTEX
  5
77
330
76
100
AcDbEntity
  8
_U+30EC_U+30A4_U+30E4_U+30FC 1
 62
   179
420
  2234388
370
     9
100
AcDbVertex
100
AcDb2dVertex
 10
72.87513814080033
 20
-144.4900519083222
 30
0.0
  0
VERTEX
  5
78
330
76
100
AcDbEntity
  8
_U+30EC_U+30A4_U+30E4_U+30FC 1
 62
   179
420
  2234388
370
     9
100
AcDbVertex
100
AcDb2dVertex
 10
102.8750420976613
 20
-144.4900519083222
 30
0.0
  0
SEQEND
  5
79
330
76
100
AcDbEntity
  8
_U+30EC_U+30A4_U+30E4_U+30FC 1
 62
   179
420
  2234388
370
     9
  0
POLYLINE
  5
7A
330
1F
100
AcDbEntity
  8
_U+30EC_U+30A4_U+30E4_U+30FC 1
 62
   179
420
  2234388
370
     9
100
AcDb2dPolyline
 66
     1
 10
0.0
 20
0.0
 30
0.0
  0
VERTEX
  5
7B
330
7A
100
AcDbEntity
  8
_U+30EC_U+30A4_U+30E4_U+30FC 1
 62
   179
420
  2234388
370
     9
100
AcDbVertex
100
AcDb2dVertex
 10
72.87513814080033
 20
-143.030045797576
 30
0.0
  0
VERTEX
  5
7C
330
7A
100
AcDbEntity
  8
_U+30EC_U+30A4_U+30E4_U+30FC 1
 62
   179
420
  2234388
370
     9
100
AcDbVertex
100
AcDb2dVertex
 10
72.87513814080033
 20
-145.4901769080718
 30
0.0
  0
SEQEND
  5
7D
330
7A
100
AcDbEntity
  8
_U+30EC_U+30A4_U+30E4_U+30FC 1
 62
   179
420
  2234388
370
     9
  0
POLYLINE
  5
7E
330
1F
100
AcDbEntity
  8
_U+30EC_U+30A4_U+30E4_U+30FC 1
 62
   179
420
  2234388
370
     9
100
AcDb2dPolyline
 66
     1
 10
0.0
 20
0.0
 30
0.0
  0
VERTEX
  5
7F
330
7E
100
AcDbEntity
  8
_U+30EC_U+30A4_U+30E4_U+30FC 1
 62
   179
420
  2234388
370
     9
100
AcDbVertex
100
AcDb2dVertex
 10
102.8750420976613
 20
-133.0299599667426
 30
0.0
  0
VERTEX
  5
80
330
7E
100
AcDbEntity
  8
_U+30EC_U+30A4_U+30E4_U+30FC 1
 62
   179
420
  2234388
370
     9
100
AcDbVertex
100
AcDb2dVertex
 10
102.8750420976613
 20
-145.4901769080718
 30
0.0
  0
SEQEND
  5
81
330
7E
100
AcDbEntity
  8
_U+30EC_U+30A4_U+30E4_U+30FC 1
 62
   179
420
  2234388
370
     9
  0
INSERT
  5
83
330
1F
100
AcDbEntity
  8
_U+30EC_U+30A4_U+30E4_U+30FC 1
100
AcDbBlockReference
  2
block 3
 10
0.0
 20
0.0
 30
0.0
  0
POLYLINE
  5
8B
330
1F
100
AcDbEntity
  8
_U+30EC_U+30A4_U+30E4_U+30FC 1
 62
   179
420
  2234388
370
     9
100
AcDb2dPolyline
 66
     1
 10
0.0
 20
0.0
 30
0.0
  0
VERTEX
  5
8C
330
8B
100
AcDbEntity
  8
_U+30EC_U+30A4_U+30E4_U+30FC 1
 62
   179
420
  2234388
370
     9
100
AcDbVertex
100
AcDb2dVertex
 10
106.8751186622775
 20
-140.489975242655
 30
0.0
  0
VERTEX
  5
8D
330
8B
100
AcDbEntity
  8
_U+30EC_U+30A4_U+30E4_U+30FC 1
 62
   179
420
  2234388
370
     9
100
AcDbVertex
100
AcDb2dVertex
 10
106.8751186622775
 20
-110.4900705279331
 30
0.0
  0
SEQEND
  5
8E
330
8B
100
AcDbEntity
  8
_U+30EC_U+30A4_U+30E4_U+30FC 1
 62
   179
420
  2234388
370
     9
  0
POLYLINE
  5
8F
330
1F
100
AcDbEntity
  8
_U+30EC_U+30A4_U+30E4_U+30FC 1
 62
   179
420
  2234388
370
     9
100
AcDb2dPolyline
 66
     1
 10
0.0
 20
0.0
 30
0.0
  0
VERTEX
  5
90
330
8F
100
AcDbEntity
  8
_U+30EC_U+30A4_U+30E4_U+30FC 1
 62
   179
420
  2234388
370
     9
100
AcDbVertex
100
AcDb2dVertex
 10
95.41502701020431
 20
-140.489975242655
 30
0.0
  0
VERTEX
  5
91
330
8F
100
AcDbEntity
  8
_U+30EC_U+30A4_U+30E4_U+30FC 1
 62
   179
420
  2234388
370
     9
100
AcDbVertex
100
AcDb2dVertex
 10
107.8748908589934
 20
-140.489975242655
 30
0.0
  0
SEQEND
  5
92
330
8F
100
AcDbEntity
  8
_U+30EC_U+30A4_U+30E4_U+30FC 1
 62
   179
420
  2234388
370
     9
  0
POLYLINE
  5
93
330
1F
100
AcDbEntity
  8
_U+30EC_U+30A4_U+30E4_U+30FC 1
 62
   179
420
  2234388
370
     9
100
AcDb2dPolyline
 66
     1
 10
0.0
 20
0.0
 30
0.0
  0
VERTEX
  5
94
330
93
100
AcDbEntity
  8
_U+30EC_U+30A4_U+30E4_U+30FC 1
 62
   179
420
  2234388
370
     9
100
AcDbVertex
100
AcDb2dVertex
 10
105.4151125884142
 20
-110.4900705279331
 30
0.0
  0
VERTEX
  5
95
330
93
100
AcDbEntity
  8
_U+30EC_U+30A4_U+30E4_U+30FC 1
 62
   179
420
  2234388
370
     9
100
AcDbVertex
100
AcDb2dVertex
 10
107.8748908589934
 20
-110.4900705279331
 30
0.0
  0
SEQEND
  5
96
330
93
100
AcDbEntity
  8
_U+30EC_U+30A4_U+30E4_U+30FC 1
 62
   179
420
  2234388
370
     9
  0
INSERT
  5
98
330
1F
100
AcDbEntity
  8
_U+30EC_U+30A4_U+30E4_U+30FC 1
100
AcDbBlockReference
  2
block 4
 10
0.0
 20
0.0
 30
0.0
  0
ENDSEC
  0
SECTION
  2
OBJECTS
  0
DICTIONARY
  5
C
330
0
100
AcDbDictionary
281
     1
  3
ACAD_GROUP
350
D
  3
ACAD_LAYOUT
350
1A
  3
ACAD_MATERIAL
350
3B
  3
ACAD_MLEADERSTYLE
350
A1
  3
ACAD_MLINESTYLE
350
17
  3
ACAD_PLOTSETTINGS
350
19
  3
ACAD_PLOTSTYLENAME
350
E
  3
ACAD_TABLESTYLE
350
A0
  3
ACAD_VISUALSTYLE
350
2A
  0
SUN
  5
3F
330
29
100
AcDbSun
 90
        1
290
     0
 63
     7
421
 16777215
 40
1.0
291
     1
 91
  2455826
 92
 54000000
292
     0
 70
     2
 71
   256
280
     1
  0
DICTIONARY
  5
D
102
{ACAD_REACTORS
330
C
102
}
330
C
100
AcDbDictionary
281
     1
  0
DICTIONARY
  5
1A
102
{ACAD_REACTORS
330
C
102
}
330
C
100
AcDbDictionary
281
     1
  3
Layout1
350
1E
  3
Layout2
350
26
  3
Model
350
22
  0
DICTIONARY
  5
3B
102
{ACAD_REACTORS
330
C
102
}
330
C
100
AcDbDictionary
281
     1
  3
ByBlock
350
3D
  3
ByLayer
350
3C
  3
Global
350
3E
  0
DICTIONARY
  5
A1
102
{ACAD_REACTORS
330
C
102
}
330
C
100
AcDbDictionary
281
     1
  0
DICTIONARY
  5
17
102
{ACAD_REACTORS
330
C
102
}
330
C
100
AcDbDictionary
281
     1
  3
Standard
350
18
  0
DICTIONARY
  5
19
102
{ACAD_REACTORS
330
C
102
}
330
C
100
AcDbDictionary
281
     1
  0
ACDBDICTIONARYWDFLT
  5
E
102
{ACAD_REACTORS
330
C
102
}
330
C
100
AcDbDictionary
281
     1
  3
Normal
350
F
100
AcDbDictionaryWithDefault
340
F
  0
DICTIONARY
  5
A0
102
{ACAD_REACTORS
330
C
102
}
330
C
100
AcDbDictionary
281
     1
  0
DICTIONARY
  5
2A
102
{ACAD_REACTORS
330
C
102
}
330
C
100
AcDbDictionary
281
     1
  3
2dWireframe
350
2F
  3
3D Hidden
350
31
  3
3dWireframe
350
30
  3
Basic
350
32
  3
Brighten
350
36
  3
ColorChange
350
3A
  3
Conceptual
350
34
  3
Dim
350
35
  3
Facepattern
350
39
  3
Flat
350
2B
  3
FlatWithEdges
350
2C
  3
Gouraud
350
2D
  3
GouraudWithEdges
350
2E
  3
Linepattern
350
38
  3
Realistic
350
33
  3
Thicken
350
37
  0
LAYOUT
  5
1E
102
{ACAD_REACTORS
330
1A
102
}
330
1A
100
AcDbPlotSettings
  1

  2
none_device
  4

  6

 40
0.0
 41
0.0
 42
0.0
 43
0.0
 44
0.0
 45
0.0
 46
0.0
 47
0.0
 48
0.0
 49
0.0
140
0.0
141
0.0
142
1.0
143
1.0
 70
   688
 72
     0
 73
     0
 74
     5
  7

 75
    16
 76
     0
 77
     2
 78
   300
147
1.0
148
0.0
149
0.0
100
AcDbLayout
  1
Layout1
 70
     1
 71
     1
 10
0.0
 20
0.0
 11
12.0
 21
9.0
 12
0.0
 22
0.0
 32
0.0
 14
1.000000000000000E+20
 24
1.000000000000000E+20
 34
1.000000000000000E+20
 15
-1.000000000000000E+20
 25
-1.000000000000000E+20
 35
-1.000000000000000E+20
146
0.0
 13
0.0
 23
0.0
 33
0.0
 16
1.0
 26
0.0
 36
0.0
 17
0.0
 27
1.0
 37
0.0
 76
     0
330
1B
  0
LAYOUT
  5
26
102
{ACAD_REACTORS
330
1A
102
}
330
1A
100
AcDbPlotSettings
  1

  2
none_device
  4

  6

 40
0.0
 41
0.0
 42
0.0
 43
0.0
 44
0.0
 45
0.0
 46
0.0
 47
0.0
 48
0.0
 49
0.0
140
0.0
141
0.0
142
1.0
143
1.0
 70
   688
 72
     0
 73
     0
 74
     5
  7

 75
    16
 76
     0
 77
     2
 78
   300
147
1.0
148
0.0
149
0.0
100
AcDbLayout
  1
Layout2
 70
     1
 71
     2
 10
0.0
 20
0.0
 11
0.0
 21
0.0
 12
0.0
 22
0.0
 32
0.0
 14
0.0
 24
0.0
 34
0.0
 15
0.0
 25
0.0
 35
0.0
146
0.0
 13
0.0
 23
0.0
 33
0.0
 16
1.0
 26
0.0
 36
0.0
 17
0.0
 27
1.0
 37
0.0
 76
     0
330
23
  0
LAYOUT
  5
22
102
{ACAD_REACTORS
330
1A
102
}
330
1A
100
AcDbPlotSettings
  1

  2
none_device
  4

  6

 40
0.0
 41
0.0
 42
0.0
 43
0.0
 44
0.0
 45
0.0
 46
0.0
 47
0.0
 48
0.0
 49
0.0
140
0.0
141
0.0
142
1.0
143
1.0
 70
  1712
 72
     0
 73
     0
 74
     0
  7

 75
     0
 76
     0
 77
     2
 78
   300
147
1.0
148
0.0
149
0.0
100
AcDbLayout
  1
Model
 70
     1
 71
     0
 10
0.0
 20
0.0
 11
12.0
 21
9.0
 12
0.0
 22
0.0
 32
0.0
 14
1.000000000000000E+20
 24
1.000000000000000E+20
 34
1.000000000000000E+20
 15
-1.000000000000000E+20
 25
-1.000000000000000E+20
 35
-1.000000000000000E+20
146
0.0
 13
0.0
 23
0.0
 33
0.0
 16
1.0
 26
0.0
 36
0.0
 17
0.0
 27
1.0
 37
0.0
 76
     0
330
1F
331
29
  0
MATERIAL
  5
3D
102
{ACAD_REACTORS
330
3B
102
}
330
3B
100
AcDbMaterial
  1
ByBlock
 72
     1
 94
      127
  0
MATERIAL
  5
3C
102
{ACAD_REACTORS
330
3B
102
}
330
3B
100
AcDbMaterial
  1
ByLayer
 72
     1
 94
      127
  0
MATERIAL
  5
3E
102
{ACAD_REACTORS
330
3B
102
}
330
3B
100
AcDbMaterial
  1
Global
 72
     1
 94
      127
  0
MLINESTYLE
  5
18
102
{ACAD_REACTORS
330
17
102
}
330
17
100
AcDbMlineStyle
  2
Standard
 70
     0
  3

 62
   256
 51
90.0
 52
90.0
 71
     2
 49
0.5
 62
   256
  6
BYLAYER
 49
-0.5
 62
   256
  6
BYLAYER
  0
ACDBPLACEHOLDER
  5
F
102
{ACAD_REACTORS
330
E
102
}
330
E
  0
VISUALSTYLE
  5
2F
102
{ACAD_REACTORS
330
2A
102
}
330
2A
100
AcDbVisualStyle
  2
2dWireframe
 70
     4
177
     2
291
     0
 71
     0
176
     1
 72
     2
176
     1
 73
     0
176
     1
 90
        0
176
     1
 40
-0.6
176
     1
 41
-30.0
176
     1
 62
     5
 63
     7
421
 16777215
176
     1
 74
     1
176
     1
 91
        4
176
     1
 64
     7
176
     1
 65
   257
176
     1
 75
     1
176
     1
175
     1
176
     1
 42
1.0
176
     1
 92
        0
176
     1
 66
   257
176
     1
 43
1.0
176
     1
 76
     1
176
     1
 77
     6
176
     1
 78
     2
176
     1
 67
     7
176
     1
 79
     5
176
     1
170
     0
176
     1
171
     0
176
     1
290
     0
176
     1
 93
        1
176
     1
 44
0.0
176
     1
173
     0
176
     1
  0
VISUALSTYLE
  5
31
102
{ACAD_REACTORS
330
2A
102
}
330
2A
100
AcDbVisualStyle
  2
3D Hidden
 70
     6
177
     2
291
     0
 71
     1
176
     1
 72
     2
176
     1
 73
     2
176
     1
 90
        0
176
     1
 40
-0.6
176
     1
 41
-30.0
176
     1
 62
     5
 63
     7
421
 16777215
176
     1
 74
     2
176
     1
 91
        2
176
     1
 64
     7
176
     1
 65
   257
176
     1
 75
     2
176
     1
175
     1
176
     1
 42
40.0
176
     1
 92
        0
176
     1
 66
   257
176
     1
 43
1.0
176
     1
 76
     1
176
     1
 77
     6
176
     1
 78
     2
176
     1
 67
     7
176
     1
 79
     3
176
     1
170
     0
176
     1
171
     0
176
     1
290
     0
176
     1
 93
        1
176
     1
 44
0.0
176
     1
173
     0
176
     1
  0
VISUALSTYLE
  5
30
102
{ACAD_REACTORS
330
2A
102
}
330
2A
100
AcDbVisualStyle
  2
3dWireframe
 70
     5
177
     2
291
     0
 71
     0
176
     1
 72
     2
176
     1
 73
     0
176
     1
 90
        0
176
     1
 40
-0.6
176
     1
 41
-30.0
176
     1
 62
     5
 63
     7
421
 16777215
176
     1
 74
     1
176
     1
 91
        4
176
     1
 64
     7
176
     1
 65
   257
176
     1
 75
     1
176
     1
175
     1
176
     1
 42
1.0
176
     1
 92
        0
176
     1
 66
   257
176
     1
 43
1.0
176
     1
 76
     1
176
     1
 77
     6
176
     1
 78
     2
176
     1
 67
     7
176
     1
 79
     5
176
     1
170
     0
176
     1
171
     0
176
     1
290
     0
176
     1
 93
        1
176
     1
 44
0.0
176
     1
173
     0
176
     1
  0
VISUALSTYLE
  5
32
102
{ACAD_REACTORS
330
2A
102
}
330
2A
100
AcDbVisualStyle
  2
Basic
 70
     7
177
     2
291
     1
 71
     1
176
     1
 72
     0
176
     1
 73
     1
176
     1
 90
        0
176
     1
 40
-0.6
176
     1
 41
-30.0
176
     1
 62
     5
 63
     7
421
 16777215
176
     1
 74
     0
176
     1
 91
        4
176
     1
 64
     7
176
     1
 65
   257
176
     1
 75
     1
176
     1
175
     1
176
     1
 42
1.0
176
     1
 92
        8
176
     1
 66
     7
176
     1
 43
1.0
176
     1
 76
     1
176
     1
 77
     6
176
     1
 78
     2
176
     1
 67
     7
176
     1
 79
     5
176
     1
170
     0
176
     1
171
     0
176
     1
290
     0
176
     1
 93
        1
176
     1
 44
0.0
176
     1
173
     0
176
     1
  0
VISUALSTYLE
  5
36
102
{ACAD_REACTORS
330
2A
102
}
330
2A
100
AcDbVisualStyle
  2
Brighten
 70
    12
177
     2
291
     1
 71
     2
176
     1
 72
     2
176
     1
 73
     0
176
     1
 90
        0
176
     1
 40
-0.6
176
     1
 41
-30.0
176
     1
 62
     5
 63
     7
421
 16777215
176
     1
 74
     1
176
     1
 91
        4
176
     1
 64
     7
176
     1
 65
   257
176
     1
 75
     1
176
     1
175
     1
176
     1
 42
1.0
176
     1
 92
        8
176
     1
 66
     7
176
     1
 43
1.0
176
     1
 76
     1
176
     1
 77
     6
176
     1
 78
     2
176
     1
 67
     7
176
     1
 79
     5
176
     1
170
     0
176
     1
171
     0
176
     1
290
     0
176
     1
 93
        1
176
     1
 44
50.0
176
     1
173
     0
176
     1
  0
VISUALSTYLE
  5
3A
102
{ACAD_REACTORS
330
2A
102
}
330
2A
100
AcDbVisualStyle
  2
ColorChange
 70
    16
177
     2
291
     1
 71
     2
176
     1
 72
     2
176
     1
 73
     3
176
     1
 90
        0
176
     1
 40
-0.6
176
     1
 41
-30.0
176
     1
 62
     5
 63
     8
421
  8421504
176
     1
 74
     1
176
     1
 91
        4
176
     1
 64
     7
176
     1
 65
   257
176
     1
 75
     1
176
     1
175
     1
176
     1
 42
1.0
176
     1
 92
        8
176
     1
 66
     8
424
  8421504
176
     1
 43
1.0
176
     1
 76
     1
176
     1
 77
     6
176
     1
 78
     2
176
     1
 67
     7
176
     1
 79
     5
176
     1
170
     0
176
     1
171
     0
176
     1
290
     0
176
     1
 93
        1
176
     1
 44
0.0
176
     1
173
     0
176
     1
  0
VISUALSTYLE
  5
34
102
{ACAD_REACTORS
330
2A
102
}
330
2A
100
AcDbVisualStyle
  2
Conceptual
 70
     9
177
     2
291
     0
 71
     3
176
     1
 72
     2
176
     1
 73
     0
176
     1
 90
        0
176
     1
 40
-0.6
176
     1
 41
-30.0
176
     1
 62
     5
 63
     7
421
 16777215
176
     1
 74
     2
176
     1
 91
        2
176
     1
 64
     7
176
     1
 65
   257
176
     1
 75
     1
176
     1
175
     1
176
     1
 42
40.0
176
     1
 92
        8
176
     1
 66
     7
176
     1
 43
1.0
176
     1
 76
     1
176
     1
 77
     6
176
     1
 78
     2
176
     1
 67
     7
176
     1
 79
     3
176
     1
170
     0
176
     1
171
     0
176
     1
290
     0
176
     1
 93
        1
176
     1
 44
0.0
176
     1
173
     0
176
     1
  0
VISUALSTYLE
  5
35
102
{ACAD_REACTORS
330
2A
102
}
330
2A
100
AcDbVisualStyle
  2
Dim
 70
    11
177
     2
291
     1
 71
     2
176
     1
 72
     2
176
     1
 73
     0
176
     1
 90
        0
176
     1
 40
-0.6
176
     1
 41
-30.0
176
     1
 62
     5
 63
     7
421
 16777215
176
     1
 74
     1
176
     1
 91
        4
176
     1
 64
     7
176
     1
 65
   257
176
     1
 75
     1
176
     1
175
     1
176
     1
 42
1.0
176
     1
 92
        8
176
     1
 66
     7
176
     1
 43
1.0
176
     1
 76
     1
176
     1
 77
     6
176
     1
 78
     2
176
     1
 67
     7
176
     1
 79
     5
176
     1
170
     0
176
     1
171
     0
176
     1
290
     0
176
     1
 93
        1
176
     1
 44
-50.0
176
     1
173
     0
176
     1
  0
VISUALSTYLE
  5
39
102
{ACAD_REACTORS
330
2A
102
}
330
2A
100
AcDbVisualStyle
  2
Facepattern
 70
    15
177
     2
291
     1
 71
     2
176
     1
 72
     2
176
     1
 73
     0
176
     1
 90
        0
176
     1
 40
-0.6
176
     1
 41
-30.0
176
     1
 62
     5
 63
     7
421
 16777215
176
     1
 74
     1
176
     1
 91
        4
176
     1
 64
     7
176
     1
 65
   257
176
     1
 75
     1
176
     1
175
     1
176
     1
 42
1.0
176
     1
 92
        8
176
     1
 66
     7
176
     1
 43
1.0
176
     1
 76
     1
176
     1
 77
     6
176
     1
 78
     2
176
     1
 67
     7
176
     1
 79
     5
176
     1
170
     0
176
     1
171
     0
176
     1
290
     0
176
     1
 93
        1
176
     1
 44
0.0
176
     1
173
     0
176
     1
  0
VISUALSTYLE
  5
2B
102
{ACAD_REACTORS
330
2A
102
}
330
2A
100
AcDbVisualStyle
  2
Flat
 70
     0
177
     2
291
     1
 71
     2
176
     1
 72
     1
176
     1
 73
     1
176
     1
 90
        2
176
     1
 40
-0.6
176
     1
 41
30.0
176
     1
 62
     5
 63
     7
421
 16777215
176
     1
 74
     0
176
     1
 91
        4
176
     1
 64
     7
176
     1
 65
   257
176
     1
 75
     1
176
     1
175
     1
176
     1
 42
1.0
176
     1
 92
        8
176
     1
 66
     7
176
     1
 43
1.0
176
     1
 76
     1
176
     1
 77
     6
176
     1
 78
     2
176
     1
 67
     7
176
     1
 79
     5
176
     1
170
     0
176
     1
171
     0
176
     1
290
     0
176
     1
 93
       13
176
     1
 44
0.0
176
     1
173
     0
176
     1
  0
VISUALSTYLE
  5
2C
102
{ACAD_REACTORS
330
2A
102
}
330
2A
100
AcDbVisualStyle
  2
FlatWithEdges
 70
     1
177
     2
291
     1
 71
     2
176
     1
 72
     1
176
     1
 73
     1
176
     1
 90
        2
176
     1
 40
-0.6
176
     1
 41
30.0
176
     1
 62
     5
 63
     7
421
 16777215
176
     1
 74
     1
176
     1
 91
        4
176
     1
 64
     7
176
     1
 65
   257
176
     1
 75
     1
176
     1
175
     1
176
     1
 42
1.0
176
     1
 92
        0
176
     1
 66
   257
176
     1
 43
1.0
176
     1
 76
     1
176
     1
 77
     6
176
     1
 78
     2
176
     1
 67
     7
176
     1
 79
     5
176
     1
170
     0
176
     1
171
     0
176
     1
290
     0
176
     1
 93
       13
176
     1
 44
0.0
176
     1
173
     0
176
     1
  0
VISUALSTYLE
  5
2D
102
{ACAD_REACTORS
330
2A
102
}
330
2A
100
AcDbVisualStyle
  2
Gouraud
 70
     2
177
     2
291
     1
 71
     2
176
     1
 72
     2
176
     1
 73
     1
176
     1
 90
        2
176
     1
 40
-0.6
176
     1
 41
30.0
176
     1
 62
     5
 63
     7
421
 16777215
176
     1
 74
     0
176
     1
 91
        4
176
     1
 64
     7
176
     1
 65
   257
176
     1
 75
     1
176
     1
175
     1
176
     1
 42
1.0
176
     1
 92
        0
176
     1
 66
     7
176
     1
 43
1.0
176
     1
 76
     1
176
     1
 77
     6
176
     1
 78
     2
176
     1
 67
     7
176
     1
 79
     5
176
     1
170
     0
176
     1
171
     0
176
     1
290
     0
176
     1
 93
       13
176
     1
 44
0.0
176
     1
173
     0
176
     1
  0
VISUALSTYLE
  5
2E
102
{ACAD_REACTORS
330
2A
102
}
330
2A
100
AcDbVisualStyle
  2
GouraudWithEdges
 70
     3
177
     2
291
     1
 71
     2
176
     1
 72
     2
176
     1
 73
     1
176
     1
 90
        2
176
     1
 40
-0.6
176
     1
 41
30.0
176
     1
 62
     5
 63
     7
421
 16777215
176
     1
 74
     1
176
     1
 91
        4
176
     1
 64
     7
176
     1
 65
   257
176
     1
 75
     1
176
     1
175
     1
176
     1
 42
1.0
176
     1
 92
        0
176
     1
 66
   257
176
     1
 43
1.0
176
     1
 76
     1
176
     1
 77
     6
176
     1
 78
     2
176
     1
 67
     7
176
     1
 79
     5
176
     1
170
     0
176
     1
171
     0
176
     1
290
     0
176
     1
 93
       13
176
     1
 44
0.0
176
     1
173
     0
176
     1
  0
VISUALSTYLE
  5
38
102
{ACAD_REACTORS
330
2A
102
}
330
2A
100
AcDbVisualStyle
  2
Linepattern
 70
    14
177
     2
291
     1
 71
     2
176
     1
 72
     2
176
     1
 73
     0
176
     1
 90
        0
176
     1
 40
-0.6
176
     1
 41
-30.0
176
     1
 62
     5
 63
     7
421
 16777215
176
     1
 74
     1
176
     1
 91
        4
176
     1
 64
     7
176
     1
 65
   257
176
     1
 75
     7
176
     1
175
     7
176
     1
 42
1.0
176
     1
 92
        8
176
     1
 66
     7
176
     1
 43
1.0
176
     1
 76
     1
176
     1
 77
     6
176
     1
 78
     2
176
     1
 67
     7
176
     1
 79
     5
176
     1
170
     0
176
     1
171
     0
176
     1
290
     0
176
     1
 93
        1
176
     1
 44
0.0
176
     1
173
     0
176
     1
  0
VISUALSTYLE
  5
33
102
{ACAD_REACTORS
330
2A
102
}
330
2A
100
AcDbVisualStyle
  2
Realistic
 70
     8
177
     2
291
     0
 71
     2
176
     1
 72
     2
176
     1
 73
     0
176
     1
 90
        0
176
     1
 40
-0.6
176
     1
 41
-30.0
176
     1
 62
     5
 63
     7
421
 16777215
176
     1
 74
     1
176
     1
 91
        0
176
     1
 64
     7
176
     1
 65
   257
176
     1
 75
     1
176
     1
175
     1
176
     1
 42
1.0
176
     1
 92
        8
176
     1
 66
     8
424
  7895160
176
     1
 43
1.0
176
     1
 76
     1
176
     1
 77
     6
176
     1
 78
     2
176
     1
 67
     7
176
     1
 79
     5
176
     1
170
     0
176
     1
171
     0
176
     1
290
     0
176
     1
 93
       13
176
     1
 44
0.0
176
     1
173
     0
176
     1
  0
VISUALSTYLE
  5
37
102
{ACAD_REACTORS
330
2A
102
}
330
2A
100
AcDbVisualStyle
  2
Thicken
 70
    13
177
     2
291
     1
 71
     2
176
     1
 72
     2
176
     1
 73
     0
176
     1
 90
        0
176
     1
 40
-0.6
176
     1
 41
-30.0
176
     1
 62
     5
 63
     7
421
 16777215
176
     1
 74
     1
176
     1
 91
        4
176
     1
 64
     7
176
     1
 65
   257
176
     1
 75
     1
176
     1
175
     1
176
     1
 42
1.0
176
     1
 92
       12
176
     1
 66
     7
176
     1
 43
1.0
176
     1
 76
     1
176
     1
 77
     6
176
     1
 78
     2
176
     1
 67
     7
176
     1
 79
     5
176
     1
170
     0
176
     1
171
     0
176
     1
290
     0
176
     1
 93
        1
176
     1
 44
0.0
176
     1
173
     0
176
     1
  0
ENDSEC
  0
EOF
