  0
SECTION
  2
HEADER
  9
$ACADVER
  1
AC1024
  9
$ACADMAINTVER
 70
     6
  9
$DWGCODEPAGE
  3
UNDEFINED
  9
$INSBASE
 10
0.0
 20
0.0
 30
0.0
  9
$EXTMIN
 10
1.000000000000000E+20
 20
1.000000000000000E+20
 30
1.000000000000000E+20
  9
$EXTMAX
 10
-1.000000000000000E+20
 20
-1.000000000000000E+20
 30
-1.000000000000000E+20
  9
$LIMMIN
 10
0.0
 20
0.0
  9
$LIMMAX
 10
12.0
 20
9.0
  9
$ORTHOMODE
 70
     0
  9
$REGENMODE
 70
     1
  9
$FILLMODE
 70
     1
  9
$QTEXTMODE
 70
     0
  9
$MIRRTEXT
 70
     1
  9
$LTSCALE
 40
1.0
  9
$ATTMODE
 70
     1
  9
$TEXTSIZE
 40
0.2
  9
$TRACEWID
 40
0.05
  9
$TEXTSTYLE
  7
Standard
  9
$CLAYER
  8
0
  9
$CELTYPE
  6
ByLayer
  9
$CECOLOR
 62
   256
  9
$CELTSCALE
 40
1.0
  9
$DISPSILH
 70
     0
  9
$DIMSCALE
 40
1.0
  9
$DIMASZ
 40
0.18
  9
$DIMEXO
 40
0.0625
  9
$DIMDLI
 40
0.38
  9
$DIMRND
 40
0.0
  9
$DIMDLE
 40
0.0
  9
$DIMEXE
 40
0.18
  9
$DIMTP
 40
0.0
  9
$DIMTM
 40
0.0
  9
$DIMTXT
 40
0.18
  9
$DIMCEN
 40
0.09
  9
$DIMTSZ
 40
0.0
  9
$DIMTOL
 70
     0
  9
$DIMLIM
 70
     0
  9
$DIMTIH
 70
     1
  9
$DIMTOH
 70
     1
  9
$DIMSE1
 70
     0
  9
$DIMSE2
 70
     0
  9
$DIMTAD
 70
     0
  9
$DIMZIN
 70
     0
  9
$DIMBLK
  1

  9
$DIMASO
 70
     1
  9
$DIMSHO
 70
     1
  9
$DIMPOST
  1

  9
$DIMAPOST
  1

  9
$DIMALT
 70
     0
  9
$DIMALTD
 70
     2
  9
$DIMALTF
 40
25.4
  9
$DIMLFAC
 40
1.0
  9
$DIMTOFL
 70
     0
  9
$DIMTVP
 40
0.0
  9
$DIMTIX
 70
     0
  9
$DIMSOXD
 70
     0
  9
$DIMSAH
 70
     0
  9
$DIMBLK1
  1

  9
$DIMBLK2
  1

  9
$DIMSTYLE
  2
Standard
  9
$DIMCLRD
 70
     0
  9
$DIMCLRE
 70
     0
  9
$DIMCLRT
 70
     0
  9
$DIMTFAC
 40
1.0
  9
$DIMGAP
 40
0.09
  9
$DIMJUST
 70
     0
  9
$DIMSD1
 70
     0
  9
$DIMSD2
 70
     0
  9
$DIMTOLJ
 70
     1
  9
$DIMTZIN
 70
     0
  9
$DIMALTZ
 70
     0
  9
$DIMALTTZ
 70
     0
  9
$DIMUPT
 70
     0
  9
$DIMDEC
 70
     4
  9
$DIMTDEC
 70
     4
  9
$DIMALTU
 70
     2
  9
$DIMALTTD
 70
     2
  9
$DIMTXSTY
  7
Standard
  9
$DIMAUNIT
 70
     0
  9
$DIMADEC
 70
     0
  9
$DIMALTRND
 40
0.0
  9
$DIMAZIN
 70
     0
  9
$DIMDSEP
 70
    46
  9
$DIMATFIT
 70
     3
  9
$DIMFRAC
 70
     0
  9
$DIMLDRBLK
  1

  9
$DIMLUNIT
 70
     2
  9
$DIMLWD
 70
    -2
  9
$DIMLWE
 70
    -2
  9
$DIMTMOVE
 70
     0
  9
$DIMFXL
 40
1.0
  9
$DIMFXLON
 70
     0
  9
$DIMJOGANG
 40
0.7853981633974483
  9
$DIMTFILL
 70
     0
  9
$DIMTFILLCLR
 70
     0
  9
$DIMARCSYM
 70
     0
  9
$DIMLTYPE
  6

  9
$DIMLTEX1
  6

  9
$DIMLTEX2
  6

  9
$DIMTXTDIRECTION
 70
     0
  9
$LUNITS
 70
     2
  9
$LUPREC
 70
     4
  9
$SKETCHINC
 40
0.1
  9
$FILLETRAD
 40
0.5
  9
$AUNITS
 70
     0
  9
$AUPREC
 70
     0
  9
$MENU
  1
.
  9
$ELEVATION
 40
0.0
  9
$PELEVATION
 40
0.0
  9
$THICKNESS
 40
0.0
  9
$LIMCHECK
 70
     0
  9
$CHAMFERA
 40
0.5
  9
$CHAMFERB
 40
0.5
  9
$CHAMFERC
 40
1.0
  9
$CHAMFERD
 40
0.0
  9
$SKPOLY
 70
     0
  9
$TDCREATE
 40
2457917.610046296
  9
$TDUCREATE
 40
2457917.235046296
  9
$TDUPDATE
 40
2457917.610046296
  9
$TDUUPDATE
 40
2457917.235046296
  9
$TDINDWG
 40
0.0000000116
  9
$TDUSRTIMER
 40
0.0000000116
  9
$USRTIMER
 70
     1
  9
$ANGBASE
 50
0.0
  9
$ANGDIR
 70
     0
  9
$PDMODE
 70
     0
  9
$PDSIZE
 40
0.0
  9
$PLINEWID
 40
0.0
  9
$SPLFRAME
 70
     0
  9
$SPLINETYPE
 70
     6
  9
$SPLINESEGS
 70
     8
  9
$HANDSEED
  5
A2
  9
$SURFTAB1
 70
     6
  9
$SURFTAB2
 70
     6
  9
$SURFTYPE
 70
     6
  9
$SURFU
 70
     6
  9
$SURFV
 70
     6
  9
$UCSBASE
  2

  9
$UCSNAME
  2

  9
$UCSORG
 10
0.0
 20
0.0
 30
0.0
  9
$UCSXDIR
 10
1.0
 20
0.0
 30
0.0
  9
$UCSYDIR
 10
0.0
 20
1.0
 30
0.0
  9
$UCSORTHOREF
  2

  9
$UCSORTHOVIEW
 70
     0
  9
$UCSORGTOP
 10
0.0
 20
0.0
 30
0.0
  9
$UCSORGBOTTOM
 10
0.0
 20
0.0
 30
0.0
  9
$UCSORGLEFT
 10
0.0
 20
0.0
 30
0.0
  9
$UCSORGRIGHT
 10
0.0
 20
0.0
 30
0.0
  9
$UCSORGFRONT
 10
0.0
 20
0.0
 30
0.0
  9
$UCSORGBACK
 10
0.0
 20
0.0
 30
0.0
  9
$PUCSBASE
  2

  9
$PUCSNAME
  2

  9
$PUCSORG
 10
0.0
 20
0.0
 30
0.0
  9
$PUCSXDIR
 10
1.0
 20
0.0
 30
0.0
  9
$PUCSYDIR
 10
0.0
 20
1.0
 30
0.0
  9
$PUCSORTHOREF
  2

  9
$PUCSORTHOVIEW
 70
     0
  9
$PUCSORGTOP
 10
0.0
 20
0.0
 30
0.0
  9
$PUCSORGBOTTOM
 10
0.0
 20
0.0
 30
0.0
  9
$PUCSORGLEFT
 10
0.0
 20
0.0
 30
0.0
  9
$PUCSORGRIGHT
 10
0.0
 20
0.0
 30
0.0
  9
$PUCSORGFRONT
 10
0.0
 20
0.0
 30
0.0
  9
$PUCSORGBACK
 10
0.0
 20
0.0
 30
0.0
  9
$USERI1
 70
     0
  9
$USERI2
 70
     0
  9
$USERI3
 70
     0
  9
$USERI4
 70
     0
  9
$USERI5
 70
     0
  9
$USERR1
 40
0.0
  9
$USERR2
 40
0.0
  9
$USERR3
 40
0.0
  9
$USERR4
 40
0.0
  9
$USERR5
 40
0.0
  9
$WORLDVIEW
 70
     1
  9
$SHADEDGE
 70
     3
  9
$SHADEDIF
 70
    70
  9
$TILEMODE
 70
     1
  9
$MAXACTVP
 70
    64
  9
$PINSBASE
 10
0.0
 20
0.0
 30
0.0
  9
$PLIMCHECK
 70
     0
  9
$PEXTMIN
 10
1.000000000000000E+20
 20
1.000000000000000E+20
 30
1.000000000000000E+20
  9
$PEXTMAX
 10
-1.000000000000000E+20
 20
-1.000000000000000E+20
 30
-1.000000000000000E+20
  9
$PLIMMIN
 10
0.0
 20
0.0
  9
$PLIMMAX
 10
12.0
 20
9.0
  9
$UNITMODE
 70
     0
  9
$VISRETAIN
 70
     1
  9
$PLINEGEN
 70
     0
  9
$PSLTSCALE
 70
     1
  9
$TREEDEPTH
 70
  3020
  9
$CMLSTYLE
  2
Standard
  9
$CMLJUST
 70
     0
  9
$CMLSCALE
 40
1.0
  9
$PROXYGRAPHICS
 70
     1
  9
$MEASUREMENT
 70
     0
  9
$CELWEIGHT
370
    -1
  9
$ENDCAPS
280
     0
  9
$JOINSTYLE
280
     0
  9
$LWDISPLAY
290
     1
  9
$INSUNITS
 70
     1
  9
$HYPERLINKBASE
  1

  9
$STYLESHEET
  1

  9
$XEDIT
290
     1
  9
$CEPSNTYPE
380
     0
  9
$PSTYLEMODE
290
     1
  9
$FINGERPRINTGUID
  2
{353E0F09-920A-5DF8-8631-208646958B40}
  9
$VERSIONGUID
  2
{FAEB1C32-E019-11D5-929B-00C0DF256EC4}
  9
$EXTNAMES
290
     1
  9
$PSVPSCALE
 40
0.0
  9
$OLESTARTUP
290
     0
  9
$SORTENTS
280
   127
  9
$INDEXCTL
280
     0
  9
$HIDETEXT
280
     1
  9
$XCLIPFRAME
280
     2
  9
$HALOGAP
280
     0
  9
$OBSCOLOR
 70
   257
  9
$OBSLTYPE
280
     0
  9
$INTERSECTIONDISPLAY
280
     0
  9
$INTERSECTIONCOLOR
 70
   257
  9
$DIMASSOC
280
     2
  9
$PROJECTNAME
  1

  9
$CAMERADISPLAY
290
     0
  9
$LENSLENGTH
 40
50.0
  9
$CAMERAHEIGHT
 40
0.0
  9
$STEPSPERSEC
 40
2.0
  9
$STEPSIZE
 40
6.0
  9
$3DDWFPREC
 40
2.0
  9
$PSOLWIDTH
 40
0.25
  9
$PSOLHEIGHT
 40
4.0
  9
$LOFTANG1
 40
1.570796326794897
  9
$LOFTANG2
 40
1.570796326794897
  9
$LOFTMAG1
 40
0.0
  9
$LOFTMAG2
 40
0.0
  9
$LOFTPARAM
 70
     7
  9
$LOFTNORMALS
280
     1
  9
$LATITUDE
 40
37.795
  9
$LONGITUDE
 40
-122.394
  9
$NORTHDIRECTION
 40
0.0
  9
$TIMEZONE
 70
 -8000
  9
$LIGHTGLYPHDISPLAY
280
     1
  9
$TILEMODELIGHTSYNCH
280
     1
  9
$CMATERIAL
347
3C
  9
$SOLIDHIST
280
     1
  9
$SHOWHIST
280
     1
  9
$DWFFRAME
280
     2
  9
$DGNFRAME
280
     2
  9
$REALWORLDSCALE
290
     1
  9
$INTERFERECOLOR
 62
   256
  9
$CSHADOW
280
     0
  9
$SHADOWPLANELOCATION
 40
0.0
  0
ENDSEC
  0
SECTION
  2
CLASSES
  0
CLASS
  1
ACDBDICTIONARYWDFLT
  2
AcDbDictionaryWithDefault
  3
ObjectDBX Classes
 90
        0
 91
        4
280
     0
281
     0
  0
CLASS
  1
VISUALSTYLE
  2
AcDbVisualStyle
  3
ObjectDBX Classes
 90
     4095
 91
        4
280
     0
281
     0
  0
CLASS
  1
MATERIAL
  2
AcDbMaterial
  3
ObjectDBX Classes
 90
     1153
 91
        4
280
     0
281
     0
  0
CLASS
  1
SUN
  2
AcDbSun
  3
SCENEOE
 90
     1024
 91
        4
280
     0
281
     0
  0
ENDSEC
  0
SECTION
  2
TABLES
  0
TABLE
  2
VPORT
  5
8
330
0
100
AcDbSymbolTable
 70
     1
  0
VPORT
  5
29
330
8
100
AcDbSymbolTableRecord
100
AcDbViewportTableRecord
  2
*Active
 70
     0
 10
0.0
 20
0.0
 11
1.0
 21
1.0
 12
0.0
 22
0.0
 13
0.0
 23
0.0
 14
0.5
 24
0.5
 15
0.5
 25
0.5
 16
0.0
 26
0.0
 36
1.0
 17
91.00082462281999
 27
-128.4993055234307
 37
0.0
 40
256.9986110468615
 41
0.7081814508812795
 42
50.0
 43
0.0
 44
0.0
 50
0.0
 51
0.0
 71
     0
 72
   100
 73
     1
 74
     3
 75
     0
 76
     0
 77
     0
 78
     0
281
     0
 65
     1
110
0.0
120
0.0
130
0.0
111
1.0
121
0.0
131
0.0
112
0.0
122
1.0
132
0.0
 79
     0
146
0.0
 60
     3
 61
     5
292
     1
282
     1
141
0.0
142
0.0
 63
   250
361
3F
  0
ENDTAB
  0
TABLE
  2
LTYPE
  5
5
330
0
100
AcDbSymbolTable
 70
     1
  0
LTYPE
  5
14
330
5
100
AcDbSymbolTableRecord
100
AcDbLinetypeTableRecord
  2
ByBlock
 70
     0
  3

 72
    65
 73
     0
 40
0.0
  0
LTYPE
  5
15
330
5
100
AcDbSymbolTableRecord
100
AcDbLinetypeTableRecord
  2
ByLayer
 70
     0
  3

 72
    65
 73
     0
 40
0.0
  0
LTYPE
  5
16
330
5
100
AcDbSymbolTableRecord
100
AcDbLinetypeTableRecord
  2
Continuous
 70
     0
  3
Solid line
 72
    65
 73
     0
 40
0.0
  0
ENDTAB
  0
TABLE
  2
LAYER
  5
2
330
0
100
AcDbSymbolTable
 70
     2
  0
LAYER
  5
10
330
2
100
AcDbSymbolTableRecord
100
AcDbLayerTableRecord
  2
0
 70
     0
 62
     7
  6
Continuous
370
    -3
390
F
347
3E
  0
LAYER
  5
40
330
2
100
AcDbSymbolTableRecord
100
AcDbLayerTableRecord
  2
_U+30EC_U+30A4_U+30E4_U+30FC 1
 70
     0
 62
     7
  6
Continuous
370
    -3
390
F
347
3E
  0
ENDTAB
  0
TABLE
  2
STYLE
  5
3
330
0
100
AcDbSymbolTable
 70
     1
  0
STYLE
  5
11
330
3
100
AcDbSymbolTableRecord
100
AcDbTextStyleTableRecord
  2
Standard
 70
     0
 40
0.0
 41
1.0
 50
0.0
 71
     0
 42
0.2
  3
txt
  4

  0
ENDTAB
  0
TABLE
  2
VIEW
  5
6
330
0
100
AcDbSymbolTable
 70
     0
  0
ENDTAB
  0
TABLE
  2
UCS
  5
7
330
0
100
AcDbSymbolTable
 70
     0
  0
ENDTAB
  0
TABLE
  2
APPID
  5
9
330
0
100
AcDbSymbolTable
 70
     1
  0
APPID
  5
12
330
9
100
AcDbSymbolTableRecord
100
AcDbRegAppTableRecord
  2
ACAD
 70
     0
  0
ENDTAB
  0
TABLE
  2
DIMSTYLE
  5
A
330
0
100
AcDbSymbolTable
 70
     1
100
AcDbDimStyleTable
  0
DIMSTYLE
105
27
330
A
100
AcDbSymbolTableRecord
100
AcDbDimStyleTableRecord
  2
Standard
 70
     0
178
     0
340
11
  0
ENDTAB
  0
TABLE
  2
BLOCK_RECORD
  5
1
330
0
100
AcDbSymbolTable
 70
     4
  0
BLOCK_RECORD
  5
1F
330
1
100
AcDbSymbolTableRecord
100
AcDbBlockTableRecord
  2
*Model_Space
340
22
 70
     0
280
     1
281
     0
  0
BLOCK_RECORD
  5
1B
330
1
100
AcDbSymbolTableRecord
100
AcDbBlockTableRecord
  2
*Paper_Space
340
1E
 70
     0
280
     1
281
     0
  0
BLOCK_RECORD
  5
23
330
1
100
AcDbSymbolTableRecord
100
AcDbBlockTableRecord
  2
*Paper_Space0
340
26
 70
     0
280
     1
281
     0
  0
BLOCK_RECORD
  5
6F
330
1
100
AcDbSymbolTableRecord
100
AcDbBlockTableRecord
  2
block 2
340
0
102
{BLKREFS
331
70
102
}
 70
     0
280
     1
281
     0
  0
BLOCK_RECORD
  5
84
330
1
100
AcDbSymbolTableRecord
100
AcDbBlockTableRecord
  2
block 3
340
0
102
{BLKREFS
331
85
102
}
 70
     0
280
     1
281
     0
  0
BLOCK_RECORD
  5
95
330
1
100
AcDbSymbolTableRecord
100
AcDbBlockTableRecord
  2
block 4
340
0
102
{BLKREFS
331
96
102
}
 70
     0
280
     1
281
     0
  0
ENDTAB
  0
ENDSEC
  0
SECTION
  2
BLOCKS
  0
BLOCK
  5
20
330
1F
100
AcDbEntity
  8
0
100
AcDbBlockBegin
  2
*Model_Space
 70
     0
 10
0.0
 20
0.0
 30
0.0
  3
*Model_Space
  1

  0
ENDBLK
  5
21
330
1F
100
AcDbEntity
  8
0
100
AcDbBlockEnd
  0
BLOCK
  5
1C
330
1B
100
AcDbEntity
 67
     1
  8
0
100
AcDbBlockBegin
  2
*Paper_Space
 70
     0
 10
0.0
 20
0.0
 30
0.0
  3
*Paper_Space
  1

  0
ENDBLK
  5
1D
330
1B
100
AcDbEntity
 67
     1
  8
0
100
AcDbBlockEnd
  0
BLOCK
  5
24
330
23
100
AcDbEntity
  8
0
100
AcDbBlockBegin
  2
*Paper_Space0
 70
     0
 10
0.0
 20
0.0
 30
0.0
  3
*Paper_Space0
  1

  0
ENDBLK
  5
25
330
23
100
AcDbEntity
  8
0
100
AcDbBlockEnd
  0
BLOCK
  5
71
330
6F
100
AcDbEntity
  8
0
100
AcDbBlockBegin
  2
block 2
 70
     0
 10
0.0
 20
0.0
 30
0.0
  3
block 2
  1

  0
SPLINE
  5
73
330
6F
100
AcDbEntity
  8
_U+30EC_U+30A4_U+30E4_U+30FC 1
370
     0
100
AcDbSpline
210
0.0
220
0.0
230
1.0
 70
    11
 71
     3
 72
    44
 73
    40
 74
     0
 42
0.0000000001
 43
0.0000000001
 12
1.0
 22
0.0
 32
0.0
 13
1.0
 23
0.0
 33
0.0
 40
0.0
 40
0.0
 40
0.0
 40
0.0
 40
1.0
 40
1.0
 40
1.0
 40
2.0
 40
2.0
 40
2.0
 40
3.0
 40
3.0
 40
3.0
 40
4.0
 40
4.0
 40
4.0
 40
5.0
 40
5.0
 40
5.0
 40
6.0
 40
6.0
 40
6.0
 40
7.0
 40
7.0
 40
7.0
 40
8.0
 40
8.0
 40
8.0
 40
9.0
 40
9.0
 40
9.0
 40
10.0
 40
10.0
 40
10.0
 40
11.0
 40
11.0
 40
11.0
 40
12.0
 40
12.0
 40
12.0
 40
13.0
 40
13.0
 40
13.0
 40
13.0
 10
87.95294322887982
 20
-138.3229952996207
 30
0.0
 10
87.73504093943777
 20
-138.4818142014907
 30
0.0
 10
87.64185110656176
 20
-138.5558837544235
 30
0.0
 10
87.59327526021974
 20
-138.6995442361585
 30
0.0
 10
87.59327526021974
 20
-138.6995442361585
 30
0.0
 10
88.37169458511194
 20
-138.6995442361585
 30
0.0
 10
88.37169458511194
 20
-138.6995442361585
 30
0.0
 10
88.37169458511194
 20
-138.6995442361585
 30
0.0
 10
88.37169458511194
 20
-138.9048719270793
 30
0.0
 10
88.37169458511194
 20
-138.9048719270793
 30
0.0
 10
88.37169458511194
 20
-138.9048719270793
 30
0.0
 10
87.3436780923134
 20
-138.9048719270793
 30
0.0
 10
87.3436780923134
 20
-138.9048719270793
 30
0.0
 10
87.37537297077769
 20
-138.5472710157104
 30
0.0
 10
87.44082978499743
 20
-138.4690673481952
 30
0.0
 10
87.82599146024836
 20
-138.1707220791726
 30
0.0
 10
88.08196205480243
 20
-137.9719400696737
 30
0.0
 10
88.14741886902218
 20
-137.9040716886143
 30
0.0
 10
88.14741886902218
 20
-137.7666123787528
 30
0.0
 10
88.14741886902218
 20
-137.6481010940602
 30
0.0
 10
88.07558862815472
 20
-137.5171874656207
 30
0.0
 10
87.87887367594695
 20
-137.5171874656207
 30
0.0
 10
87.61859671203632
 20
-137.5171874656207
 30
0.0
 10
87.61015622809747
 20
-137.7476643535839
 30
0.0
 10
87.6058498587409
 20
-137.8641085809854
 30
0.0
 10
87.6058498587409
 20
-137.8641085809854
 30
0.0
 10
87.3817463974254
 20
-137.8641085809854
 30
0.0
 10
87.3817463974254
 20
-137.8641085809854
 30
0.0
 10
87.39018688136426
 20
-137.7369845575797
 30
0.0
 10
87.40069442259427
 20
-137.625018954309
 30
0.0
 10
87.48113740217485
 20
-137.5065076696164
 30
0.0
 10
87.59103594815433
 20
-137.3456217104553
 30
0.0
 10
87.77724335913209
 20
-137.3118597746998
 30
0.0
 10
87.89368758653353
 20
-137.3118597746998
 30
0.0
 10
88.17084551832187
 20
-137.3118597746998
 30
0.0
 10
88.37806801175965
 20
-137.4958278736122
 30
0.0
 10
88.37806801175965
 20
-137.768679436044
 30
0.0
 10
88.37806801175965
 20
-137.9974337762645
 30
0.0
 10
88.26179603913248
 20
-138.0966525262397
 30
0.0
 10
87.95294322887982
 20
-138.3229952996207
 30
0.0
  0
HATCH
  5
74
330
6F
100
AcDbEntity
  8
_U+30EC_U+30A4_U+30E4_U+30FC 1
 62
   179
420
  2234388
100
AcDbHatch
 10
0.0
 20
0.0
 30
0.0
210
0.0
220
0.0
230
1.0
  2
SOLID
 70
     1
 71
     0
 91
        1
 92
        1
 93
        1
 72
     4
 94
        3
 73
     0
 74
     1
 95
       44
 96
       40
 40
0.0
 40
0.0
 40
0.0
 40
0.0
 40
1.0
 40
1.0
 40
1.0
 40
2.0
 40
2.0
 40
2.0
 40
3.0
 40
3.0
 40
3.0
 40
4.0
 40
4.0
 40
4.0
 40
5.0
 40
5.0
 40
5.0
 40
6.0
 40
6.0
 40
6.0
 40
7.0
 40
7.0
 40
7.0
 40
8.0
 40
8.0
 40
8.0
 40
9.0
 40
9.0
 40
9.0
 40
10.0
 40
10.0
 40
10.0
 40
11.0
 40
11.0
 40
11.0
 40
12.0
 40
12.0
 40
12.0
 40
13.0
 40
13.0
 40
13.0
 40
13.0
 10
87.95294322887982
 20
-138.3229952996207
 10
87.73504093943777
 20
-138.4818142014907
 10
87.64185110656176
 20
-138.5558837544235
 10
87.59327526021974
 20
-138.6995442361585
 10
87.59327526021974
 20
-138.6995442361585
 10
88.37169458511194
 20
-138.6995442361585
 10
88.37169458511194
 20
-138.6995442361585
 10
88.37169458511194
 20
-138.6995442361585
 10
88.37169458511194
 20
-138.9048719270793
 10
88.37169458511194
 20
-138.9048719270793
 10
88.37169458511194
 20
-138.9048719270793
 10
87.3436780923134
 20
-138.9048719270793
 10
87.3436780923134
 20
-138.9048719270793
 10
87.37537297077769
 20
-138.5472710157104
 10
87.44082978499743
 20
-138.4690673481952
 10
87.82599146024836
 20
-138.1707220791726
 10
88.08196205480243
 20
-137.9719400696737
 10
88.14741886902218
 20
-137.9040716886143
 10
88.14741886902218
 20
-137.7666123787528
 10
88.14741886902218
 20
-137.6481010940602
 10
88.07558862815472
 20
-137.5171874656207
 10
87.87887367594695
 20
-137.5171874656207
 10
87.61859671203632
 20
-137.5171874656207
 10
87.61015622809747
 20
-137.7476643535839
 10
87.6058498587409
 20
-137.8641085809854
 10
87.6058498587409
 20
-137.8641085809854
 10
87.3817463974254
 20
-137.8641085809854
 10
87.3817463974254
 20
-137.8641085809854
 10
87.39018688136426
 20
-137.7369845575797
 10
87.40069442259427
 20
-137.625018954309
 10
87.48113740217485
 20
-137.5065076696164
 10
87.59103594815433
 20
-137.3456217104553
 10
87.77724335913209
 20
-137.3118597746998
 10
87.89368758653353
 20
-137.3118597746998
 10
88.17084551832187
 20
-137.3118597746998
 10
88.37806801175965
 20
-137.4958278736122
 10
88.37806801175965
 20
-137.768679436044
 10
88.37806801175965
 20
-137.9974337762645
 10
88.26179603913248
 20
-138.0966525262397
 10
87.95294322887982
 20
-138.3229952996207
 97
        0
 97
        0
 75
     2
 76
     1
 98
        0
  0
SPLINE
  5
75
330
6F
100
AcDbEntity
  8
_U+30EC_U+30A4_U+30E4_U+30FC 1
370
     0
100
AcDbSpline
210
0.0
220
0.0
230
1.0
 70
    11
 71
     3
 72
    29
 73
    25
 74
     0
 42
0.0000000001
 43
0.0000000001
 12
1.0
 22
0.0
 32
0.0
 13
1.0
 23
0.0
 33
0.0
 40
0.0
 40
0.0
 40
0.0
 40
0.0
 40
1.0
 40
1.0
 40
1.0
 40
2.0
 40
2.0
 40
2.0
 40
3.0
 40
3.0
 40
3.0
 40
4.0
 40
4.0
 40
4.0
 40
5.0
 40
5.0
 40
5.0
 40
6.0
 40
6.0
 40
6.0
 40
7.0
 40
7.0
 40
7.0
 40
8.0
 40
8.0
 40
8.0
 40
8.0
 10
89.43450654231151
 20
-138.7271050000404
 30
0.0
 10
89.32633054407466
 20
-138.9365668055436
 30
0.0
 10
89.1530422411666
 20
-138.9555148307125
 30
0.0
 10
89.03659801376516
 20
-138.9555148307125
 30
0.0
 10
88.875712054604
 20
-138.9555148307125
 30
0.0
 10
88.73411863016022
 20
-138.9090060416617
 30
0.0
 10
88.63903399476733
 20
-138.7271050000404
 30
0.0
 10
88.53533662066131
 20
-138.5324571051238
 30
0.0
 10
88.51621634071817
 20
-138.2957790452872
 30
0.0
 10
88.51621634071817
 20
-138.1328260288348
 30
0.0
 10
88.51621634071817
 20
-137.9888210375514
 30
0.0
 10
88.5330973085959
 20
-137.7369845575797
 30
0.0
 10
88.63903399476733
 20
-137.5382025480807
 30
0.0
 10
88.74686548345565
 20
-137.3352864239995
 30
0.0
 10
88.90775144261681
 20
-137.3118597746998
 30
0.0
 10
89.03659801376516
 20
-137.3118597746998
 30
0.0
 10
89.19541691563518
 20
-137.3118597746998
 30
0.0
 10
89.33907739737009
 20
-137.3563015064595
 30
0.0
 10
89.43450654231151
 20
-137.5382025480807
 30
0.0
 10
89.53372529228672
 20
-137.7307833857062
 30
0.0
 10
89.55715194158641
 20
-137.9591932163783
 30
0.0
 10
89.55715194158641
 20
-138.1328260288348
 30
0.0
 10
89.55715194158641
 20
-138.3040472744518
 30
0.0
 10
89.53579234957786
 20
-138.534524162415
 30
0.0
 10
89.43450654231151
 20
-138.7271050000404
 30
0.0
  0
SPLINE
  5
76
330
6F
100
AcDbEntity
  8
_U+30EC_U+30A4_U+30E4_U+30FC 1
370
     0
100
AcDbSpline
210
0.0
220
0.0
230
1.0
 70
    11
 71
     3
 72
    17
 73
    13
 74
     0
 42
0.0000000001
 43
0.0000000001
 12
1.0
 22
0.0
 32
0.0
 13
1.0
 23
0.0
 33
0.0
 40
0.0
 40
0.0
 40
0.0
 40
0.0
 40
1.0
 40
1.0
 40
1.0
 40
2.0
 40
2.0
 40
2.0
 40
3.0
 40
3.0
 40
3.0
 40
4.0
 40
4.0
 40
4.0
 40
4.0
 10
89.03659801376516
 20
-137.5044406123253
 30
0.0
 10
88.78717310063307
 20
-137.5044406123253
 30
0.0
 10
88.74031980203367
 20
-137.7879719707613
 30
0.0
 10
88.74031980203367
 20
-138.1328260288348
 30
0.0
 10
88.74031980203367
 20
-138.4521863803175
 30
0.0
 10
88.7764933046288
 20
-138.7608669357959
 30
0.0
 10
89.03659801376516
 20
-138.7608669357959
 30
0.0
 10
89.28430037915463
 20
-138.7608669357959
 30
0.0
 10
89.33287622549665
 20
-138.4797471441995
 30
0.0
 10
89.33287622549665
 20
-138.1328260288348
 30
0.0
 10
89.33287622549665
 20
-137.8131211678037
 30
0.0
 10
89.29463566561037
 20
-137.5044406123253
 30
0.0
 10
89.03659801376516
 20
-137.5044406123253
 30
0.0
  0
HATCH
  5
77
330
6F
100
AcDbEntity
  8
_U+30EC_U+30A4_U+30E4_U+30FC 1
 62
   179
420
  2234388
100
AcDbHatch
 10
0.0
 20
0.0
 30
0.0
210
0.0
220
0.0
230
1.0
  2
SOLID
 70
     1
 71
     0
 91
        2
 92
        1
 93
        1
 72
     4
 94
        3
 73
     0
 74
     1
 95
       29
 96
       25
 40
0.0
 40
0.0
 40
0.0
 40
0.0
 40
1.0
 40
1.0
 40
1.0
 40
2.0
 40
2.0
 40
2.0
 40
3.0
 40
3.0
 40
3.0
 40
4.0
 40
4.0
 40
4.0
 40
5.0
 40
5.0
 40
5.0
 40
6.0
 40
6.0
 40
6.0
 40
7.0
 40
7.0
 40
7.0
 40
8.0
 40
8.0
 40
8.0
 40
8.0
 10
89.43450654231151
 20
-138.7271050000404
 10
89.32633054407466
 20
-138.9365668055436
 10
89.1530422411666
 20
-138.9555148307125
 10
89.03659801376516
 20
-138.9555148307125
 10
88.875712054604
 20
-138.9555148307125
 10
88.73411863016022
 20
-138.9090060416617
 10
88.63903399476733
 20
-138.7271050000404
 10
88.53533662066131
 20
-138.5324571051238
 10
88.51621634071817
 20
-138.2957790452872
 10
88.51621634071817
 20
-138.1328260288348
 10
88.51621634071817
 20
-137.9888210375514
 10
88.5330973085959
 20
-137.7369845575797
 10
88.63903399476733
 20
-137.5382025480807
 10
88.74686548345565
 20
-137.3352864239995
 10
88.90775144261681
 20
-137.3118597746998
 10
89.03659801376516
 20
-137.3118597746998
 10
89.19541691563518
 20
-137.3118597746998
 10
89.33907739737009
 20
-137.3563015064595
 10
89.43450654231151
 20
-137.5382025480807
 10
89.53372529228672
 20
-137.7307833857062
 10
89.55715194158641
 20
-137.9591932163783
 10
89.55715194158641
 20
-138.1328260288348
 10
89.55715194158641
 20
-138.3040472744518
 10
89.53579234957786
 20
-138.534524162415
 10
89.43450654231151
 20
-138.7271050000404
 97
        0
 97
        0
 92
        1
 93
        1
 72
     4
 94
        3
 73
     0
 74
     1
 95
       17
 96
       13
 40
0.0
 40
0.0
 40
0.0
 40
0.0
 40
1.0
 40
1.0
 40
1.0
 40
2.0
 40
2.0
 40
2.0
 40
3.0
 40
3.0
 40
3.0
 40
4.0
 40
4.0
 40
4.0
 40
4.0
 10
89.03659801376516
 20
-137.5044406123253
 10
88.78717310063307
 20
-137.5044406123253
 10
88.74031980203367
 20
-137.7879719707613
 10
88.74031980203367
 20
-138.1328260288348
 10
88.74031980203367
 20
-138.4521863803175
 10
88.7764933046288
 20
-138.7608669357959
 10
89.03659801376516
 20
-138.7608669357959
 10
89.28430037915463
 20
-138.7608669357959
 10
89.33287622549665
 20
-138.4797471441995
 10
89.33287622549665
 20
-138.1328260288348
 10
89.33287622549665
 20
-137.8131211678037
 10
89.29463566561037
 20
-137.5044406123253
 10
89.03659801376516
 20
-137.5044406123253
 97
        0
 97
        0
 75
     2
 76
     1
 98
        0
  0
ENDBLK
  5
72
330
6F
100
AcDbEntity
  8
0
100
AcDbBlockEnd
  0
BLOCK
  5
86
330
84
100
AcDbEntity
  8
0
100
AcDbBlockBegin
  2
block 3
 70
     0
 10
0.0
 20
0.0
 30
0.0
  3
block 3
  1

  0
SPLINE
  5
88
330
84
100
AcDbEntity
  8
_U+30EC_U+30A4_U+30E4_U+30FC 1
370
     0
100
AcDbSpline
210
0.0
220
0.0
230
1.0
 70
    11
 71
     3
 72
    44
 73
    40
 74
     0
 42
0.0000000001
 43
0.0000000001
 12
1.0
 22
0.0
 32
0.0
 13
1.0
 23
0.0
 33
0.0
 40
0.0
 40
0.0
 40
0.0
 40
0.0
 40
1.0
 40
1.0
 40
1.0
 40
2.0
 40
2.0
 40
2.0
 40
3.0
 40
3.0
 40
3.0
 40
4.0
 40
4.0
 40
4.0
 40
5.0
 40
5.0
 40
5.0
 40
6.0
 40
6.0
 40
6.0
 40
7.0
 40
7.0
 40
7.0
 40
8.0
 40
8.0
 40
8.0
 40
9.0
 40
9.0
 40
9.0
 40
10.0
 40
10.0
 40
10.0
 40
11.0
 40
11.0
 40
11.0
 40
12.0
 40
12.0
 40
12.0
 40
13.0
 40
13.0
 40
13.0
 40
13.0
 10
101.2210394712225
 20
-126.0474310665784
 30
0.0
 10
101.3798583730925
 20
-126.2651611012462
 30
0.0
 10
101.4539279260254
 20
-126.358178679348
 30
0.0
 10
101.5975884077603
 20
-126.4070990352385
 30
0.0
 10
101.5975884077603
 20
-126.4070990352385
 30
0.0
 10
101.5975884077603
 20
-125.628507455572
 30
0.0
 10
101.5975884077603
 20
-125.628507455572
 30
0.0
 10
101.5975884077603
 20
-125.628507455572
 30
0.0
 10
101.8029160986812
 20
-125.628507455572
 30
0.0
 10
101.8029160986812
 20
-125.628507455572
 30
0.0
 10
101.8029160986812
 20
-125.628507455572
 30
0.0
 10
101.8029160986812
 20
-126.6565239483706
 30
0.0
 10
101.8029160986812
 20
-126.6565239483706
 30
0.0
 10
101.4453151873123
 20
-126.6248290699063
 30
0.0
 10
101.3671115197971
 20
-126.5593722556866
 30
0.0
 10
101.0687662507745
 20
-126.1742105804356
 30
0.0
 10
100.8699842412756
 20
-125.9182399858816
 30
0.0
 10
100.8021158602161
 20
-125.8527831716618
 30
0.0
 10
100.6646565503547
 20
-125.8527831716618
 30
0.0
 10
100.5461452656621
 20
-125.8527831716618
 30
0.0
 10
100.4152316372226
 20
-125.9247856673035
 30
0.0
 10
100.4152316372226
 20
-126.1215006195113
 30
0.0
 10
100.4152316372226
 20
-126.3816053286477
 30
0.0
 10
100.6457085251858
 20
-126.3902180673608
 30
0.0
 10
100.7621527525872
 20
-126.3943521819431
 30
0.0
 10
100.7621527525872
 20
-126.3943521819431
 30
0.0
 10
100.7621527525872
 20
-126.6186278980329
 30
0.0
 10
100.7621527525872
 20
-126.6186278980329
 30
0.0
 10
100.6350287291815
 20
-126.6100151593197
 30
0.0
 10
100.5230631259109
 20
-126.5993353633154
 30
0.0
 10
100.4045518412183
 20
-126.5190646385091
 30
0.0
 10
100.2436658820571
 20
-126.4091660925297
 30
0.0
 10
100.2099039463017
 20
-126.2227864267776
 30
0.0
 10
100.2099039463017
 20
-126.1066867089247
 30
0.0
 10
100.2099039463017
 20
-125.8293565223621
 30
0.0
 10
100.393872045214
 20
-125.6219617741501
 30
0.0
 10
100.6667236076458
 20
-125.6219617741501
 30
0.0
 10
100.8954779478664
 20
-125.6219617741501
 30
0.0
 10
100.9946966978416
 20
-125.7384060015515
 30
0.0
 10
101.2210394712225
 20
-126.0474310665784
 30
0.0
  0
HATCH
  5
89
330
84
100
AcDbEntity
  8
_U+30EC_U+30A4_U+30E4_U+30FC 1
 62
   179
420
  2234388
100
AcDbHatch
 10
0.0
 20
0.0
 30
0.0
210
0.0
220
0.0
230
1.0
  2
SOLID
 70
     1
 71
     0
 91
        1
 92
        1
 93
        1
 72
     4
 94
        3
 73
     0
 74
     1
 95
       44
 96
       40
 40
0.0
 40
0.0
 40
0.0
 40
0.0
 40
1.0
 40
1.0
 40
1.0
 40
2.0
 40
2.0
 40
2.0
 40
3.0
 40
3.0
 40
3.0
 40
4.0
 40
4.0
 40
4.0
 40
5.0
 40
5.0
 40
5.0
 40
6.0
 40
6.0
 40
6.0
 40
7.0
 40
7.0
 40
7.0
 40
8.0
 40
8.0
 40
8.0
 40
9.0
 40
9.0
 40
9.0
 40
10.0
 40
10.0
 40
10.0
 40
11.0
 40
11.0
 40
11.0
 40
12.0
 40
12.0
 40
12.0
 40
13.0
 40
13.0
 40
13.0
 40
13.0
 10
101.2210394712225
 20
-126.0474310665784
 10
101.3798583730925
 20
-126.2651611012462
 10
101.4539279260254
 20
-126.358178679348
 10
101.5975884077603
 20
-126.4070990352385
 10
101.5975884077603
 20
-126.4070990352385
 10
101.5975884077603
 20
-125.628507455572
 10
101.5975884077603
 20
-125.628507455572
 10
101.5975884077603
 20
-125.628507455572
 10
101.8029160986812
 20
-125.628507455572
 10
101.8029160986812
 20
-125.628507455572
 10
101.8029160986812
 20
-125.628507455572
 10
101.8029160986812
 20
-126.6565239483706
 10
101.8029160986812
 20
-126.6565239483706
 10
101.4453151873123
 20
-126.6248290699063
 10
101.3671115197971
 20
-126.5593722556866
 10
101.0687662507745
 20
-126.1742105804356
 10
100.8699842412756
 20
-125.9182399858816
 10
100.8021158602161
 20
-125.8527831716618
 10
100.6646565503547
 20
-125.8527831716618
 10
100.5461452656621
 20
-125.8527831716618
 10
100.4152316372226
 20
-125.9247856673035
 10
100.4152316372226
 20
-126.1215006195113
 10
100.4152316372226
 20
-126.3816053286477
 10
100.6457085251858
 20
-126.3902180673608
 10
100.7621527525872
 20
-126.3943521819431
 10
100.7621527525872
 20
-126.3943521819431
 10
100.7621527525872
 20
-126.6186278980329
 10
100.7621527525872
 20
-126.6186278980329
 10
100.6350287291815
 20
-126.6100151593197
 10
100.5230631259109
 20
-126.5993353633154
 10
100.4045518412183
 20
-126.5190646385091
 10
100.2436658820571
 20
-126.4091660925297
 10
100.2099039463017
 20
-126.2227864267776
 10
100.2099039463017
 20
-126.1066867089247
 10
100.2099039463017
 20
-125.8293565223621
 10
100.393872045214
 20
-125.6219617741501
 10
100.6667236076458
 20
-125.6219617741501
 10
100.8954779478664
 20
-125.6219617741501
 10
100.9946966978416
 20
-125.7384060015515
 10
101.2210394712225
 20
-126.0474310665784
 97
        0
 97
        0
 75
     2
 76
     1
 98
        0
  0
SPLINE
  5
8A
330
84
100
AcDbEntity
  8
_U+30EC_U+30A4_U+30E4_U+30FC 1
370
     0
100
AcDbSpline
210
0.0
220
0.0
230
1.0
 70
    11
 71
     3
 72
    29
 73
    25
 74
     0
 42
0.0000000001
 43
0.0000000001
 12
1.0
 22
0.0
 32
0.0
 13
1.0
 23
0.0
 33
0.0
 40
0.0
 40
0.0
 40
0.0
 40
0.0
 40
1.0
 40
1.0
 40
1.0
 40
2.0
 40
2.0
 40
2.0
 40
3.0
 40
3.0
 40
3.0
 40
4.0
 40
4.0
 40
4.0
 40
5.0
 40
5.0
 40
5.0
 40
6.0
 40
6.0
 40
6.0
 40
7.0
 40
7.0
 40
7.0
 40
8.0
 40
8.0
 40
8.0
 40
8.0
 10
101.6251491716423
 20
-124.5656954983725
 30
0.0
 10
101.8346109771455
 20
-124.6738714966093
 30
0.0
 10
101.8535590023144
 20
-124.8471597995174
 30
0.0
 10
101.8535590023144
 20
-124.9636040269188
 30
0.0
 10
101.8535590023144
 20
-125.12448998608
 30
0.0
 10
101.8070502132635
 20
-125.2660834105238
 30
0.0
 10
101.6251491716423
 20
-125.3611680459167
 30
0.0
 10
101.4305012767257
 20
-125.4648654200227
 30
0.0
 10
101.1934787073405
 20
-125.4841579547401
 30
0.0
 10
101.0308702004367
 20
-125.4841579547401
 30
0.0
 10
100.8868652091533
 20
-125.4841579547401
 30
0.0
 10
100.6350287291815
 20
-125.4669324773138
 30
0.0
 10
100.4362467196826
 20
-125.3611680459167
 30
0.0
 10
100.2333305956014
 20
-125.2533365572283
 30
0.0
 10
100.2099039463017
 20
-125.0924505980672
 30
0.0
 10
100.2099039463017
 20
-124.9636040269188
 30
0.0
 10
100.2099039463017
 20
-124.8047851250488
 30
0.0
 10
100.2543456780614
 20
-124.6611246433139
 30
0.0
 10
100.4362467196826
 20
-124.5656954983725
 30
0.0
 10
100.6288275573081
 20
-124.4664767483973
 30
0.0
 10
100.8572373879801
 20
-124.4430500990976
 30
0.0
 10
101.0308702004367
 20
-124.4430500990976
 30
0.0
 10
101.2020914460536
 20
-124.4430500990976
 30
0.0
 10
101.4325683340169
 20
-124.4644096911061
 30
0.0
 10
101.6251491716423
 20
-124.5656954983725
 30
0.0
  0
SPLINE
  5
8B
330
84
100
AcDbEntity
  8
_U+30EC_U+30A4_U+30E4_U+30FC 1
370
     0
100
AcDbSpline
210
0.0
220
0.0
230
1.0
 70
    11
 71
     3
 72
    17
 73
    13
 74
     0
 42
0.0000000001
 43
0.0000000001
 12
1.0
 22
0.0
 32
0.0
 13
1.0
 23
0.0
 33
0.0
 40
0.0
 40
0.0
 40
0.0
 40
0.0
 40
1.0
 40
1.0
 40
1.0
 40
2.0
 40
2.0
 40
2.0
 40
3.0
 40
3.0
 40
3.0
 40
4.0
 40
4.0
 40
4.0
 40
4.0
 10
100.4024847839272
 20
-124.9636040269188
 30
0.0
 10
100.4024847839272
 20
-125.2133734495994
 30
0.0
 10
100.6860161423632
 20
-125.2598822386503
 30
0.0
 10
101.0308702004367
 20
-125.2598822386503
 30
0.0
 10
101.3502305519194
 20
-125.2598822386503
 30
0.0
 10
101.6589111073978
 20
-125.2237087360552
 30
0.0
 10
101.6589111073978
 20
-124.9636040269188
 30
0.0
 10
101.6589111073978
 20
-124.7159016615294
 30
0.0
 10
101.3777913158014
 20
-124.6673258151873
 30
0.0
 10
101.0308702004367
 20
-124.6673258151873
 30
0.0
 10
100.7111653394055
 20
-124.6673258151873
 30
0.0
 10
100.4024847839272
 20
-124.7055663750736
 30
0.0
 10
100.4024847839272
 20
-124.9636040269188
 30
0.0
  0
HATCH
  5
8C
330
84
100
AcDbEntity
  8
_U+30EC_U+30A4_U+30E4_U+30FC 1
 62
   179
420
  2234388
100
AcDbHatch
 10
0.0
 20
0.0
 30
0.0
210
0.0
220
0.0
230
1.0
  2
SOLID
 70
     1
 71
     0
 91
        2
 92
        1
 93
        1
 72
     4
 94
        3
 73
     0
 74
     1
 95
       29
 96
       25
 40
0.0
 40
0.0
 40
0.0
 40
0.0
 40
1.0
 40
1.0
 40
1.0
 40
2.0
 40
2.0
 40
2.0
 40
3.0
 40
3.0
 40
3.0
 40
4.0
 40
4.0
 40
4.0
 40
5.0
 40
5.0
 40
5.0
 40
6.0
 40
6.0
 40
6.0
 40
7.0
 40
7.0
 40
7.0
 40
8.0
 40
8.0
 40
8.0
 40
8.0
 10
101.6251491716423
 20
-124.5656954983725
 10
101.8346109771455
 20
-124.6738714966093
 10
101.8535590023144
 20
-124.8471597995174
 10
101.8535590023144
 20
-124.9636040269188
 10
101.8535590023144
 20
-125.12448998608
 10
101.8070502132635
 20
-125.2660834105238
 10
101.6251491716423
 20
-125.3611680459167
 10
101.4305012767257
 20
-125.4648654200227
 10
101.1934787073405
 20
-125.4841579547401
 10
101.0308702004367
 20
-125.4841579547401
 10
100.8868652091533
 20
-125.4841579547401
 10
100.6350287291815
 20
-125.4669324773138
 10
100.4362467196826
 20
-125.3611680459167
 10
100.2333305956014
 20
-125.2533365572283
 10
100.2099039463017
 20
-125.0924505980672
 10
100.2099039463017
 20
-124.9636040269188
 10
100.2099039463017
 20
-124.8047851250488
 10
100.2543456780614
 20
-124.6611246433139
 10
100.4362467196826
 20
-124.5656954983725
 10
100.6288275573081
 20
-124.4664767483973
 10
100.8572373879801
 20
-124.4430500990976
 10
101.0308702004367
 20
-124.4430500990976
 10
101.2020914460536
 20
-124.4430500990976
 10
101.4325683340169
 20
-124.4644096911061
 10
101.6251491716423
 20
-124.5656954983725
 97
        0
 97
        0
 92
        1
 93
        1
 72
     4
 94
        3
 73
     0
 74
     1
 95
       17
 96
       13
 40
0.0
 40
0.0
 40
0.0
 40
0.0
 40
1.0
 40
1.0
 40
1.0
 40
2.0
 40
2.0
 40
2.0
 40
3.0
 40
3.0
 40
3.0
 40
4.0
 40
4.0
 40
4.0
 40
4.0
 10
100.4024847839272
 20
-124.9636040269188
 10
100.4024847839272
 20
-125.2133734495994
 10
100.6860161423632
 20
-125.2598822386503
 10
101.0308702004367
 20
-125.2598822386503
 10
101.3502305519194
 20
-125.2598822386503
 10
101.6589111073978
 20
-125.2237087360552
 10
101.6589111073978
 20
-124.9636040269188
 10
101.6589111073978
 20
-124.7159016615294
 10
101.3777913158014
 20
-124.6673258151873
 10
101.0308702004367
 20
-124.6673258151873
 10
100.7111653394055
 20
-124.6673258151873
 10
100.4024847839272
 20
-124.7055663750736
 10
100.4024847839272
 20
-124.9636040269188
 97
        0
 97
        0
 75
     2
 76
     1
 98
        0
  0
ENDBLK
  5
87
330
84
100
AcDbEntity
  8
0
100
AcDbBlockEnd
  0
BLOCK
  5
97
330
95
100
AcDbEntity
  8
0
100
AcDbBlockBegin
  2
block 4
 70
     0
 10
0.0
 20
0.0
 30
0.0
  3
block 4
  1

  0
SPLINE
  5
99
330
95
100
AcDbEntity
  8
_U+30EC_U+30A4_U+30E4_U+30FC 1
370
     0
100
AcDbSpline
210
0.0
220
0.0
230
1.0
 70
    11
 71
     3
 72
    44
 73
    40
 74
     0
 42
0.0000000001
 43
0.0000000001
 12
1.0
 22
0.0
 32
0.0
 13
1.0
 23
0.0
 33
0.0
 40
0.0
 40
0.0
 40
0.0
 40
0.0
 40
1.0
 40
1.0
 40
1.0
 40
2.0
 40
2.0
 40
2.0
 40
3.0
 40
3.0
 40
3.0
 40
4.0
 40
4.0
 40
4.0
 40
5.0
 40
5.0
 40
5.0
 40
6.0
 40
6.0
 40
6.0
 40
7.0
 40
7.0
 40
7.0
 40
8.0
 40
8.0
 40
8.0
 40
9.0
 40
9.0
 40
9.0
 40
10.0
 40
10.0
 40
10.0
 40
11.0
 40
11.0
 40
11.0
 40
12.0
 40
12.0
 40
12.0
 40
13.0
 40
13.0
 40
13.0
 40
13.0
 10
81.38865829128478
 20
-121.156945770492
 30
0.0
 10
81.17075600184273
 20
-121.3155924175878
 30
0.0
 10
81.07756616896673
 20
-121.3896619705206
 30
0.0
 10
81.0289903226247
 20
-121.5334947070298
 30
0.0
 10
81.0289903226247
 20
-121.5334947070298
 30
0.0
 10
81.8074096475169
 20
-121.5334947070298
 30
0.0
 10
81.8074096475169
 20
-121.5334947070298
 30
0.0
 10
81.8074096475169
 20
-121.5334947070298
 30
0.0
 10
81.8074096475169
 20
-121.7386501431765
 30
0.0
 10
81.8074096475169
 20
-121.7386501431765
 30
0.0
 10
81.8074096475169
 20
-121.7386501431765
 30
0.0
 10
80.77939315471835
 20
-121.7386501431765
 30
0.0
 10
80.77939315471835
 20
-121.7386501431765
 30
0.0
 10
80.81108803318264
 20
-121.3810492318075
 30
0.0
 10
80.8765448474024
 20
-121.3028455642924
 30
0.0
 10
81.26170652265333
 20
-121.0045002952697
 30
0.0
 10
81.51767711720738
 20
-120.8057182857708
 30
0.0
 10
81.58313393142714
 20
-120.7380221594856
 30
0.0
 10
81.58313393142714
 20
-120.6005628496242
 30
0.0
 10
81.58313393142714
 20
-120.4820515649316
 30
0.0
 10
81.51130369055967
 20
-120.3509656817178
 30
0.0
 10
81.31458873835192
 20
-120.3509656817178
 30
0.0
 10
81.05431177444129
 20
-120.3509656817178
 30
0.0
 10
81.04587129050242
 20
-120.581442569681
 30
0.0
 10
81.04156492114586
 20
-120.6978867970825
 30
0.0
 10
81.04156492114586
 20
-120.6978867970825
 30
0.0
 10
80.81746145983035
 20
-120.6978867970825
 30
0.0
 10
80.81746145983035
 20
-120.6978867970825
 30
0.0
 10
80.82590194376922
 20
-120.570935028451
 30
0.0
 10
80.83640948499924
 20
-120.4587971704061
 30
0.0
 10
80.91685246457982
 20
-120.3402858857135
 30
0.0
 10
81.0267510105593
 20
-120.1795721813266
 30
0.0
 10
81.21295842153704
 20
-120.1456379907969
 30
0.0
 10
81.32940264893848
 20
-120.1456379907969
 30
0.0
 10
81.60656058072684
 20
-120.1456379907969
 30
0.0
 10
81.81378307416462
 20
-120.3297783444835
 30
0.0
 10
81.81378307416462
 20
-120.6026299069153
 30
0.0
 10
81.81378307416462
 20
-120.8310397375874
 30
0.0
 10
81.69751110153743
 20
-120.9306029971111
 30
0.0
 10
81.38865829128478
 20
-121.156945770492
 30
0.0
  0
HATCH
  5
9A
330
95
100
AcDbEntity
  8
_U+30EC_U+30A4_U+30E4_U+30FC 1
 62
   179
420
  2234388
100
AcDbHatch
 10
0.0
 20
0.0
 30
0.0
210
0.0
220
0.0
230
1.0
  2
SOLID
 70
     1
 71
     0
 91
        1
 92
        1
 93
        1
 72
     4
 94
        3
 73
     0
 74
     1
 95
       44
 96
       40
 40
0.0
 40
0.0
 40
0.0
 40
0.0
 40
1.0
 40
1.0
 40
1.0
 40
2.0
 40
2.0
 40
2.0
 40
3.0
 40
3.0
 40
3.0
 40
4.0
 40
4.0
 40
4.0
 40
5.0
 40
5.0
 40
5.0
 40
6.0
 40
6.0
 40
6.0
 40
7.0
 40
7.0
 40
7.0
 40
8.0
 40
8.0
 40
8.0
 40
9.0
 40
9.0
 40
9.0
 40
10.0
 40
10.0
 40
10.0
 40
11.0
 40
11.0
 40
11.0
 40
12.0
 40
12.0
 40
12.0
 40
13.0
 40
13.0
 40
13.0
 40
13.0
 10
81.38865829128478
 20
-121.156945770492
 10
81.17075600184273
 20
-121.3155924175878
 10
81.07756616896673
 20
-121.3896619705206
 10
81.0289903226247
 20
-121.5334947070298
 10
81.0289903226247
 20
-121.5334947070298
 10
81.8074096475169
 20
-121.5334947070298
 10
81.8074096475169
 20
-121.5334947070298
 10
81.8074096475169
 20
-121.5334947070298
 10
81.8074096475169
 20
-121.7386501431765
 10
81.8074096475169
 20
-121.7386501431765
 10
81.8074096475169
 20
-121.7386501431765
 10
80.77939315471835
 20
-121.7386501431765
 10
80.77939315471835
 20
-121.7386501431765
 10
80.81108803318264
 20
-121.3810492318075
 10
80.8765448474024
 20
-121.3028455642924
 10
81.26170652265333
 20
-121.0045002952697
 10
81.51767711720738
 20
-120.8057182857708
 10
81.58313393142714
 20
-120.7380221594856
 10
81.58313393142714
 20
-120.6005628496242
 10
81.58313393142714
 20
-120.4820515649316
 10
81.51130369055967
 20
-120.3509656817178
 10
81.31458873835192
 20
-120.3509656817178
 10
81.05431177444129
 20
-120.3509656817178
 10
81.04587129050242
 20
-120.581442569681
 10
81.04156492114586
 20
-120.6978867970825
 10
81.04156492114586
 20
-120.6978867970825
 10
80.81746145983035
 20
-120.6978867970825
 10
80.81746145983035
 20
-120.6978867970825
 10
80.82590194376922
 20
-120.570935028451
 10
80.83640948499924
 20
-120.4587971704061
 10
80.91685246457982
 20
-120.3402858857135
 10
81.0267510105593
 20
-120.1795721813266
 10
81.21295842153704
 20
-120.1456379907969
 10
81.32940264893848
 20
-120.1456379907969
 10
81.60656058072684
 20
-120.1456379907969
 10
81.81378307416462
 20
-120.3297783444835
 10
81.81378307416462
 20
-120.6026299069153
 10
81.81378307416462
 20
-120.8310397375874
 10
81.69751110153743
 20
-120.9306029971111
 10
81.38865829128478
 20
-121.156945770492
 97
        0
 97
        0
 75
     2
 76
     1
 98
        0
  0
SPLINE
  5
9B
330
95
100
AcDbEntity
  8
_U+30EC_U+30A4_U+30E4_U+30FC 1
370
     0
100
AcDbSpline
210
0.0
220
0.0
230
1.0
 70
    11
 71
     3
 72
    53
 73
    49
 74
     0
 42
0.0000000001
 43
0.0000000001
 12
1.0
 22
0.0
 32
0.0
 13
1.0
 23
0.0
 33
0.0
 40
0.0
 40
0.0
 40
0.0
 40
0.0
 40
1.0
 40
1.0
 40
1.0
 40
2.0
 40
2.0
 40
2.0
 40
3.0
 40
3.0
 40
3.0
 40
4.0
 40
4.0
 40
4.0
 40
5.0
 40
5.0
 40
5.0
 40
6.0
 40
6.0
 40
6.0
 40
7.0
 40
7.0
 40
7.0
 40
8.0
 40
8.0
 40
8.0
 40
9.0
 40
9.0
 40
9.0
 40
10.0
 40
10.0
 40
10.0
 40
11.0
 40
11.0
 40
11.0
 40
12.0
 40
12.0
 40
12.0
 40
13.0
 40
13.0
 40
13.0
 40
14.0
 40
14.0
 40
14.0
 40
15.0
 40
15.0
 40
15.0
 40
16.0
 40
16.0
 40
16.0
 40
16.0
 10
82.45336505100124
 20
-121.7894653015839
 30
0.0
 10
82.37498912871182
 20
-121.7894653015839
 30
0.0
 10
82.27353106667121
 20
-121.7724120789319
 30
0.0
 10
82.17190074985633
 20
-121.7090223220033
 30
0.0
 10
81.998440192174
 20
-121.5989515212496
 30
0.0
 10
81.97725285493972
 20
-121.4678656380358
 30
0.0
 10
81.95830482977084
 20
-121.3600341493475
 30
0.0
 10
81.95830482977084
 20
-121.3600341493475
 30
0.0
 10
82.18034123379519
 20
-121.3600341493475
 30
0.0
 10
82.18034123379519
 20
-121.3600341493475
 30
0.0
 10
82.23546276155919
 20
-121.5588161588464
 30
0.0
 10
82.36241453019065
 20
-121.5884439800196
 30
0.0
 10
82.4554321082924
 20
-121.5884439800196
 30
0.0
 10
82.59495847544501
 20
-121.5884439800196
 30
0.0
 10
82.74740395066732
 20
-121.4890529752701
 30
0.0
 10
82.74740395066732
 20
-121.2563367752415
 30
0.0
 10
82.74740395066732
 20
-121.0003661806874
 30
0.0
 10
82.56756996633727
 20
-120.9306029971111
 30
0.0
 10
82.44699162435353
 20
-120.9306029971111
 30
0.0
 10
82.41529674588924
 20
-120.9306029971111
 30
0.0
 10
82.27353106667121
 20
-120.9306029971111
 30
0.0
 10
82.18464760315176
 20
-121.0596218230337
 30
0.0
 10
82.18464760315176
 20
-121.0596218230337
 30
0.0
 10
82.00911998817828
 20
-121.0405015430906
 30
0.0
 10
82.00911998817828
 20
-121.0405015430906
 30
0.0
 10
82.00911998817828
 20
-121.0405015430906
 30
0.0
 10
82.12969833016203
 20
-120.1943860919132
 30
0.0
 10
82.12969833016203
 20
-120.1943860919132
 30
0.0
 10
82.12969833016203
 20
-120.1943860919132
 30
0.0
 10
82.90811765505423
 20
-120.1943860919132
 30
0.0
 10
82.90811765505423
 20
-120.1943860919132
 30
0.0
 10
82.90811765505423
 20
-120.1943860919132
 30
0.0
 10
82.90811765505423
 20
-120.3890339868298
 30
0.0
 10
82.90811765505423
 20
-120.3890339868298
 30
0.0
 10
82.90811765505423
 20
-120.3890339868298
 30
0.0
 10
82.29247909184008
 20
-120.3890339868298
 30
0.0
 10
82.29247909184008
 20
-120.3890339868298
 30
0.0
 10
82.29247909184008
 20
-120.3890339868298
 30
0.0
 10
82.22702227762034
 20
-120.8120917124185
 30
0.0
 10
82.22702227762034
 20
-120.8120917124185
 30
0.0
 10
82.28834497725778
 20
-120.7781575218888
 30
0.0
 10
82.37085501412952
 20
-120.7380221594856
 30
0.0
 10
82.48919404404785
 20
-120.7380221594856
 30
0.0
 10
82.74309758131076
 20
-120.7380221594856
 30
0.0
 10
82.98012015069595
 20
-120.9242295704634
 30
0.0
 10
82.98012015069595
 20
-121.2372164952983
 30
0.0
 10
82.98012015069595
 20
-121.5546820442641
 30
0.0
 10
82.75584443460617
 20
-121.7894653015839
 30
0.0
 10
82.45336505100124
 20
-121.7894653015839
 30
0.0
  0
HATCH
  5
9C
330
95
100
AcDbEntity
  8
_U+30EC_U+30A4_U+30E4_U+30FC 1
 62
   179
420
  2234388
100
AcDbHatch
 10
0.0
 20
0.0
 30
0.0
210
0.0
220
0.0
230
1.0
  2
SOLID
 70
     1
 71
     0
 91
        1
 92
        1
 93
        1
 72
     4
 94
        3
 73
     0
 74
     1
 95
       53
 96
       49
 40
0.0
 40
0.0
 40
0.0
 40
0.0
 40
1.0
 40
1.0
 40
1.0
 40
2.0
 40
2.0
 40
2.0
 40
3.0
 40
3.0
 40
3.0
 40
4.0
 40
4.0
 40
4.0
 40
5.0
 40
5.0
 40
5.0
 40
6.0
 40
6.0
 40
6.0
 40
7.0
 40
7.0
 40
7.0
 40
8.0
 40
8.0
 40
8.0
 40
9.0
 40
9.0
 40
9.0
 40
10.0
 40
10.0
 40
10.0
 40
11.0
 40
11.0
 40
11.0
 40
12.0
 40
12.0
 40
12.0
 40
13.0
 40
13.0
 40
13.0
 40
14.0
 40
14.0
 40
14.0
 40
15.0
 40
15.0
 40
15.0
 40
16.0
 40
16.0
 40
16.0
 40
16.0
 10
82.45336505100124
 20
-121.7894653015839
 10
82.37498912871182
 20
-121.7894653015839
 10
82.27353106667121
 20
-121.7724120789319
 10
82.17190074985633
 20
-121.7090223220033
 10
81.998440192174
 20
-121.5989515212496
 10
81.97725285493972
 20
-121.4678656380358
 10
81.95830482977084
 20
-121.3600341493475
 10
81.95830482977084
 20
-121.3600341493475
 10
82.18034123379519
 20
-121.3600341493475
 10
82.18034123379519
 20
-121.3600341493475
 10
82.23546276155919
 20
-121.5588161588464
 10
82.36241453019065
 20
-121.5884439800196
 10
82.4554321082924
 20
-121.5884439800196
 10
82.59495847544501
 20
-121.5884439800196
 10
82.74740395066732
 20
-121.4890529752701
 10
82.74740395066732
 20
-121.2563367752415
 10
82.74740395066732
 20
-121.0003661806874
 10
82.56756996633727
 20
-120.9306029971111
 10
82.44699162435353
 20
-120.9306029971111
 10
82.41529674588924
 20
-120.9306029971111
 10
82.27353106667121
 20
-120.9306029971111
 10
82.18464760315176
 20
-121.0596218230337
 10
82.18464760315176
 20
-121.0596218230337
 10
82.00911998817828
 20
-121.0405015430906
 10
82.00911998817828
 20
-121.0405015430906
 10
82.00911998817828
 20
-121.0405015430906
 10
82.12969833016203
 20
-120.1943860919132
 10
82.12969833016203
 20
-120.1943860919132
 10
82.12969833016203
 20
-120.1943860919132
 10
82.90811765505423
 20
-120.1943860919132
 10
82.90811765505423
 20
-120.1943860919132
 10
82.90811765505423
 20
-120.1943860919132
 10
82.90811765505423
 20
-120.3890339868298
 10
82.90811765505423
 20
-120.3890339868298
 10
82.90811765505423
 20
-120.3890339868298
 10
82.29247909184008
 20
-120.3890339868298
 10
82.29247909184008
 20
-120.3890339868298
 10
82.29247909184008
 20
-120.3890339868298
 10
82.22702227762034
 20
-120.8120917124185
 10
82.22702227762034
 20
-120.8120917124185
 10
82.28834497725778
 20
-120.7781575218888
 10
82.37085501412952
 20
-120.7380221594856
 10
82.48919404404785
 20
-120.7380221594856
 10
82.74309758131076
 20
-120.7380221594856
 10
82.98012015069595
 20
-120.9242295704634
 10
82.98012015069595
 20
-121.2372164952983
 10
82.98012015069595
 20
-121.5546820442641
 10
82.75584443460617
 20
-121.7894653015839
 10
82.45336505100124
 20
-121.7894653015839
 97
        0
 97
        0
 75
     2
 76
     1
 98
        0
  0
SPLINE
  5
9D
330
95
100
AcDbEntity
  8
_U+30EC_U+30A4_U+30E4_U+30FC 1
370
     0
100
AcDbSpline
210
0.0
220
0.0
230
1.0
 70
    11
 71
     3
 72
    44
 73
    40
 74
     0
 42
0.0000000001
 43
0.0000000001
 12
1.0
 22
0.0
 32
0.0
 13
1.0
 23
0.0
 33
0.0
 40
0.0
 40
0.0
 40
0.0
 40
0.0
 40
1.0
 40
1.0
 40
1.0
 40
2.0
 40
2.0
 40
2.0
 40
3.0
 40
3.0
 40
3.0
 40
4.0
 40
4.0
 40
4.0
 40
5.0
 40
5.0
 40
5.0
 40
6.0
 40
6.0
 40
6.0
 40
7.0
 40
7.0
 40
7.0
 40
8.0
 40
8.0
 40
8.0
 40
9.0
 40
9.0
 40
9.0
 40
10.0
 40
10.0
 40
10.0
 40
11.0
 40
11.0
 40
11.0
 40
12.0
 40
12.0
 40
12.0
 40
13.0
 40
13.0
 40
13.0
 40
13.0
 10
84.163338195105
 20
-121.7386501431765
 30
0.0
 10
84.1399115458053
 20
-121.6942084114167
 30
0.0
 10
84.11889646334528
 20
-121.6413261957182
 30
0.0
 10
84.11665715127987
 20
-121.4106770529807
 30
0.0
 10
84.11252303669757
 20
-121.167453311722
 30
0.0
 10
84.05326739435127
 20
-121.0976901281457
 30
0.0
 10
83.87550046731238
 20
-121.0976901281457
 30
0.0
 10
83.87550046731238
 20
-121.0976901281457
 30
0.0
 10
83.46725665231027
 20
-121.0976901281457
 30
0.0
 10
83.46725665231027
 20
-121.0976901281457
 30
0.0
 10
83.46725665231027
 20
-121.0976901281457
 30
0.0
 10
83.46725665231027
 20
-121.7386501431765
 30
0.0
 10
83.46725665231027
 20
-121.7386501431765
 30
0.0
 10
83.46725665231027
 20
-121.7386501431765
 30
0.0
 10
83.23247339499049
 20
-121.7386501431765
 30
0.0
 10
83.23247339499049
 20
-121.7386501431765
 30
0.0
 10
83.23247339499049
 20
-121.7386501431765
 30
0.0
 10
83.23247339499049
 20
-120.1943860919132
 30
0.0
 10
83.23247339499049
 20
-120.1943860919132
 30
0.0
 10
83.23247339499049
 20
-120.1943860919132
 30
0.0
 10
83.90719534577667
 20
-120.1943860919132
 30
0.0
 10
83.90719534577667
 20
-120.1943860919132
 30
0.0
 10
84.21398109873817
 20
-120.1943860919132
 30
0.0
 10
84.38124048454705
 20
-120.3656073375301
 30
0.0
 10
84.38124048454705
 20
-120.6217501868585
 30
0.0
 10
84.38124048454705
 20
-120.6723930904916
 30
0.0
 10
84.37262774583392
 20
-120.7549031273634
 30
0.0
 10
84.3281860140742
 20
-120.8353461069439
 30
0.0
 10
84.26910262650217
 20
-120.93904348105
 30
0.0
 10
84.20347355750816
 20
-120.9579915062188
 30
0.0
 10
84.14215085787072
 20
-120.9748724740966
 30
0.0
 10
84.27961016773219
 20
-121.0172471485651
 30
0.0
 10
84.34730629401734
 20
-121.0659952496814
 30
0.0
 10
84.3516126633739
 20
-121.3810492318075
 30
0.0
 10
84.35574677795621
 20
-121.6518337369482
 30
0.0
 10
84.39174802577706
 20
-121.6837008701867
 30
0.0
 10
84.45944415206223
 20
-121.7386501431765
 30
0.0
 10
84.45944415206223
 20
-121.7386501431765
 30
0.0
 10
84.163338195105
 20
-121.7386501431765
 30
0.0
 10
84.163338195105
 20
-121.7386501431765
 30
0.0
  0
SPLINE
  5
9E
330
95
100
AcDbEntity
  8
_U+30EC_U+30A4_U+30E4_U+30FC 1
370
     0
100
AcDbSpline
210
0.0
220
0.0
230
1.0
 70
    11
 71
     3
 72
    20
 73
    16
 74
     0
 42
0.0000000001
 43
0.0000000001
 12
1.0
 22
0.0
 32
0.0
 13
1.0
 23
0.0
 33
0.0
 40
0.0
 40
0.0
 40
0.0
 40
0.0
 40
1.0
 40
1.0
 40
1.0
 40
2.0
 40
2.0
 40
2.0
 40
3.0
 40
3.0
 40
3.0
 40
4.0
 40
4.0
 40
4.0
 40
5.0
 40
5.0
 40
5.0
 40
5.0
 10
83.91150171513324
 20
-120.4059149547076
 30
0.0
 10
83.91150171513324
 20
-120.4059149547076
 30
0.0
 10
83.46725665231027
 20
-120.4059149547076
 30
0.0
 10
83.46725665231027
 20
-120.4059149547076
 30
0.0
 10
83.46725665231027
 20
-120.4059149547076
 30
0.0
 10
83.46725665231027
 20
-120.8861612653514
 30
0.0
 10
83.46725665231027
 20
-120.8861612653514
 30
0.0
 10
83.46725665231027
 20
-120.8861612653514
 30
0.0
 10
83.90943465784208
 20
-120.8861612653514
 30
0.0
 10
83.90943465784208
 20
-120.8861612653514
 30
0.0
 10
84.00882566259155
 20
-120.8861612653514
 30
0.0
 10
84.14421791516186
 20
-120.8100246551274
 30
0.0
 10
84.14421791516186
 20
-120.6386311547362
 30
0.0
 10
84.14421791516186
 20
-120.5602552324467
 30
0.0
 10
84.11045597940642
 20
-120.4059149547076
 30
0.0
 10
83.91150171513324
 20
-120.4059149547076
 30
0.0
  0
HATCH
  5
9F
330
95
100
AcDbEntity
  8
_U+30EC_U+30A4_U+30E4_U+30FC 1
 62
   179
420
  2234388
100
AcDbHatch
 10
0.0
 20
0.0
 30
0.0
210
0.0
220
0.0
230
1.0
  2
SOLID
 70
     1
 71
     0
 91
        2
 92
        1
 93
        1
 72
     4
 94
        3
 73
     0
 74
     1
 95
       44
 96
       40
 40
0.0
 40
0.0
 40
0.0
 40
0.0
 40
1.0
 40
1.0
 40
1.0
 40
2.0
 40
2.0
 40
2.0
 40
3.0
 40
3.0
 40
3.0
 40
4.0
 40
4.0
 40
4.0
 40
5.0
 40
5.0
 40
5.0
 40
6.0
 40
6.0
 40
6.0
 40
7.0
 40
7.0
 40
7.0
 40
8.0
 40
8.0
 40
8.0
 40
9.0
 40
9.0
 40
9.0
 40
10.0
 40
10.0
 40
10.0
 40
11.0
 40
11.0
 40
11.0
 40
12.0
 40
12.0
 40
12.0
 40
13.0
 40
13.0
 40
13.0
 40
13.0
 10
84.163338195105
 20
-121.7386501431765
 10
84.1399115458053
 20
-121.6942084114167
 10
84.11889646334528
 20
-121.6413261957182
 10
84.11665715127987
 20
-121.4106770529807
 10
84.11252303669757
 20
-121.167453311722
 10
84.05326739435127
 20
-121.0976901281457
 10
83.87550046731238
 20
-121.0976901281457
 10
83.87550046731238
 20
-121.0976901281457
 10
83.46725665231027
 20
-121.0976901281457
 10
83.46725665231027
 20
-121.0976901281457
 10
83.46725665231027
 20
-121.0976901281457
 10
83.46725665231027
 20
-121.7386501431765
 10
83.46725665231027
 20
-121.7386501431765
 10
83.46725665231027
 20
-121.7386501431765
 10
83.23247339499049
 20
-121.7386501431765
 10
83.23247339499049
 20
-121.7386501431765
 10
83.23247339499049
 20
-121.7386501431765
 10
83.23247339499049
 20
-120.1943860919132
 10
83.23247339499049
 20
-120.1943860919132
 10
83.23247339499049
 20
-120.1943860919132
 10
83.90719534577667
 20
-120.1943860919132
 10
83.90719534577667
 20
-120.1943860919132
 10
84.21398109873817
 20
-120.1943860919132
 10
84.38124048454705
 20
-120.3656073375301
 10
84.38124048454705
 20
-120.6217501868585
 10
84.38124048454705
 20
-120.6723930904916
 10
84.37262774583392
 20
-120.7549031273634
 10
84.3281860140742
 20
-120.8353461069439
 10
84.26910262650217
 20
-120.93904348105
 10
84.20347355750816
 20
-120.9579915062188
 10
84.14215085787072
 20
-120.9748724740966
 10
84.27961016773219
 20
-121.0172471485651
 10
84.34730629401734
 20
-121.0659952496814
 10
84.3516126633739
 20
-121.3810492318075
 10
84.35574677795621
 20
-121.6518337369482
 10
84.39174802577706
 20
-121.6837008701867
 10
84.45944415206223
 20
-121.7386501431765
 10
84.45944415206223
 20
-121.7386501431765
 10
84.163338195105
 20
-121.7386501431765
 10
84.163338195105
 20
-121.7386501431765
 97
        0
 97
        0
 92
        1
 93
        1
 72
     4
 94
        3
 73
     0
 74
     1
 95
       20
 96
       16
 40
0.0
 40
0.0
 40
0.0
 40
0.0
 40
1.0
 40
1.0
 40
1.0
 40
2.0
 40
2.0
 40
2.0
 40
3.0
 40
3.0
 40
3.0
 40
4.0
 40
4.0
 40
4.0
 40
5.0
 40
5.0
 40
5.0
 40
5.0
 10
83.91150171513324
 20
-120.4059149547076
 10
83.91150171513324
 20
-120.4059149547076
 10
83.46725665231027
 20
-120.4059149547076
 10
83.46725665231027
 20
-120.4059149547076
 10
83.46725665231027
 20
-120.4059149547076
 10
83.46725665231027
 20
-120.8861612653514
 10
83.46725665231027
 20
-120.8861612653514
 10
83.46725665231027
 20
-120.8861612653514
 10
83.90943465784208
 20
-120.8861612653514
 10
83.90943465784208
 20
-120.8861612653514
 10
84.00882566259155
 20
-120.8861612653514
 10
84.14421791516186
 20
-120.8100246551274
 10
84.14421791516186
 20
-120.6386311547362
 10
84.14421791516186
 20
-120.5602552324467
 10
84.11045597940642
 20
-120.4059149547076
 10
83.91150171513324
 20
-120.4059149547076
 97
        0
 97
        0
 75
     2
 76
     1
 98
        0
  0
ENDBLK
  5
98
330
95
100
AcDbEntity
  8
0
100
AcDbBlockEnd
  0
ENDSEC
  0
SECTION
  2
ENTITIES
  0
SPLINE
  5
41
330
1F
100
AcDbEntity
  8
_U+30EC_U+30A4_U+30E4_U+30FC 1
370
     0
100
AcDbSpline
210
0.0
220
0.0
230
1.0
 70
    11
 71
     3
 72
    44
 73
    40
 74
     0
 42
0.0000000001
 43
0.0000000001
 12
1.0
 22
0.0
 32
0.0
 13
1.0
 23
0.0
 33
0.0
 40
0.0
 40
0.0
 40
0.0
 40
0.0
 40
1.0
 40
1.0
 40
1.0
 40
2.0
 40
2.0
 40
2.0
 40
3.0
 40
3.0
 40
3.0
 40
4.0
 40
4.0
 40
4.0
 40
5.0
 40
5.0
 40
5.0
 40
6.0
 40
6.0
 40
6.0
 40
7.0
 40
7.0
 40
7.0
 40
8.0
 40
8.0
 40
8.0
 40
9.0
 40
9.0
 40
9.0
 40
10.0
 40
10.0
 40
10.0
 40
11.0
 40
11.0
 40
11.0
 40
12.0
 40
12.0
 40
12.0
 40
13.0
 40
13.0
 40
13.0
 40
13.0
 10
91.54858266440108
 20
-128.6510705233927
 30
0.0
 10
91.54858266440108
 20
-128.6510705233927
 30
0.0
 10
91.54858266440108
 20
-128.6510705233927
 30
0.0
 10
91.54858266440108
 20
-128.6510705233927
 30
0.0
 10
91.54858266440108
 20
-128.6510705233927
 30
0.0
 10
91.54858266440108
 20
-128.6510705233927
 30
0.0
 10
91.54858266440108
 20
-128.6510705233927
 30
0.0
 10
88.05527136463398
 20
-132.1445583002974
 30
0.0
 10
83.52821536901769
 20
-134.6046894107932
 30
0.0
 10
78.44842716528055
 20
-135.5507335772238
 30
0.0
 10
78.44842716528055
 20
-135.5507335772238
 30
0.0
 10
88.44851274349045
 20
-135.5507335772238
 30
0.0
 10
88.44851274349045
 20
-135.5507335772238
 30
0.0
 10
88.44851274349045
 20
-134.9981424662502
 30
0.0
 10
88.89636412095369
 20
-134.5509613552512
 30
0.0
 10
89.44863771797513
 20
-134.5509613552512
 30
0.0
 10
90.0008760372197
 20
-134.5509613552512
 30
0.0
 10
90.44840991469104
 20
-134.9981424662502
 30
0.0
 10
90.44840991469104
 20
-135.5507335772238
 30
0.0
 10
90.44840991469104
 20
-135.5507335772238
 30
0.0
 10
92.94868707312588
 20
-135.5507335772238
 30
0.0
 10
92.94868707312588
 20
-135.5507335772238
 30
0.0
 10
92.94868707312588
 20
-132.5128583002053
 30
0.0
 10
95.41121942059176
 20
-130.0509633008206
 30
0.0
 10
98.44842193281596
 20
-130.0509633008206
 30
0.0
 10
98.44842193281596
 20
-130.0509633008206
 30
0.0
 10
98.44842193281596
 20
-127.5506860792233
 30
0.0
 10
98.44842193281596
 20
-127.5506860792233
 30
0.0
 10
97.89653886441491
 20
-127.5506860792233
 30
0.0
 10
97.44864973610005
 20
-127.1028346904466
 30
0.0
 10
97.44864973610005
 20
-126.5505963572512
 30
0.0
 10
97.44864973610005
 20
-125.9983227462783
 30
0.0
 10
97.89653886441491
 20
-125.5504713575012
 30
0.0
 10
98.44842193281596
 20
-125.5504713575012
 30
0.0
 10
98.44842193281596
 20
-125.5504713575012
 30
0.0
 10
98.44842193281596
 20
-115.5507383044456
 30
0.0
 10
98.44842193281596
 20
-115.5507383044456
 30
0.0
 10
97.50241306806177
 20
-120.6305266365091
 30
0.0
 10
95.04259951970572
 20
-125.1575474687105
 30
0.0
 10
91.54858266440108
 20
-128.6510705233927
 30
0.0
  0
HATCH
  5
42
330
1F
100
AcDbEntity
  8
_U+30EC_U+30A4_U+30E4_U+30FC 1
 62
     9
420
 13224394
100
AcDbHatch
 10
0.0
 20
0.0
 30
0.0
210
0.0
220
0.0
230
1.0
  2
SOLID
 70
     1
 71
     0
 91
        1
 92
        1
 93
        1
 72
     4
 94
        3
 73
     0
 74
     1
 95
       44
 96
       40
 40
0.0
 40
0.0
 40
0.0
 40
0.0
 40
1.0
 40
1.0
 40
1.0
 40
2.0
 40
2.0
 40
2.0
 40
3.0
 40
3.0
 40
3.0
 40
4.0
 40
4.0
 40
4.0
 40
5.0
 40
5.0
 40
5.0
 40
6.0
 40
6.0
 40
6.0
 40
7.0
 40
7.0
 40
7.0
 40
8.0
 40
8.0
 40
8.0
 40
9.0
 40
9.0
 40
9.0
 40
10.0
 40
10.0
 40
10.0
 40
11.0
 40
11.0
 40
11.0
 40
12.0
 40
12.0
 40
12.0
 40
13.0
 40
13.0
 40
13.0
 40
13.0
 10
91.54858266440108
 20
-128.6510705233927
 10
91.54858266440108
 20
-128.6510705233927
 10
91.54858266440108
 20
-128.6510705233927
 10
91.54858266440108
 20
-128.6510705233927
 10
91.54858266440108
 20
-128.6510705233927
 10
91.54858266440108
 20
-128.6510705233927
 10
91.54858266440108
 20
-128.6510705233927
 10
88.05527136463398
 20
-132.1445583002974
 10
83.52821536901769
 20
-134.6046894107932
 10
78.44842716528055
 20
-135.5507335772238
 10
78.44842716528055
 20
-135.5507335772238
 10
88.44851274349045
 20
-135.5507335772238
 10
88.44851274349045
 20
-135.5507335772238
 10
88.44851274349045
 20
-134.9981424662502
 10
88.89636412095369
 20
-134.5509613552512
 10
89.44863771797513
 20
-134.5509613552512
 10
90.0008760372197
 20
-134.5509613552512
 10
90.44840991469104
 20
-134.9981424662502
 10
90.44840991469104
 20
-135.5507335772238
 10
90.44840991469104
 20
-135.5507335772238
 10
92.94868707312588
 20
-135.5507335772238
 10
92.94868707312588
 20
-135.5507335772238
 10
92.94868707312588
 20
-132.5128583002053
 10
95.41121942059176
 20
-130.0509633008206
 10
98.44842193281596
 20
-130.0509633008206
 10
98.44842193281596
 20
-130.0509633008206
 10
98.44842193281596
 20
-127.5506860792233
 10
98.44842193281596
 20
-127.5506860792233
 10
97.89653886441491
 20
-127.5506860792233
 10
97.44864973610005
 20
-127.1028346904466
 10
97.44864973610005
 20
-126.5505963572512
 10
97.44864973610005
 20
-125.9983227462783
 10
97.89653886441491
 20
-125.5504713575012
 10
98.44842193281596
 20
-125.5504713575012
 10
98.44842193281596
 20
-125.5504713575012
 10
98.44842193281596
 20
-115.5507383044456
 10
98.44842193281596
 20
-115.5507383044456
 10
97.50241306806177
 20
-120.6305266365091
 10
95.04259951970572
 20
-125.1575474687105
 10
91.54858266440108
 20
-128.6510705233927
 97
        0
 97
        0
 75
     2
 76
     1
 98
        0
  0
POLYLINE
  5
43
330
1F
100
AcDbEntity
  8
_U+30EC_U+30A4_U+30E4_U+30FC 1
 62
   179
420
  2234388
370
    25
100
AcDb2dPolyline
 66
     1
 10
0.0
 20
0.0
 30
0.0
  0
VERTEX
  5
44
330
43
100
AcDbEntity
  8
_U+30EC_U+30A4_U+30E4_U+30FC 1
 62
   179
420
  2234388
370
    25
100
AcDbVertex
100
AcDb2dVertex
 10
78.44842716528055
 20
-135.5507335772238
 30
0.0
  0
VERTEX
  5
45
330
43
100
AcDbEntity
  8
_U+30EC_U+30A4_U+30E4_U+30FC 1
 62
   179
420
  2234388
370
    25
100
AcDbVertex
100
AcDb2dVertex
 10
88.44851274349045
 20
-135.5507335772238
 30
0.0
  0
SEQEND
  5
46
330
43
100
AcDbEntity
  8
_U+30EC_U+30A4_U+30E4_U+30FC 1
 62
   179
420
  2234388
370
    25
  0
POLYLINE
  5
47
330
1F
100
AcDbEntity
  8
_U+30EC_U+30A4_U+30E4_U+30FC 1
 62
   179
420
  2234388
370
    25
100
AcDb2dPolyline
 66
     1
 10
0.0
 20
0.0
 30
0.0
  0
VERTEX
  5
48
330
47
100
AcDbEntity
  8
_U+30EC_U+30A4_U+30E4_U+30FC 1
 62
   179
420
  2234388
370
    25
100
AcDbVertex
100
AcDb2dVertex
 10
90.44840991469104
 20
-135.5507335772238
 30
0.0
  0
VERTEX
  5
49
330
47
100
AcDbEntity
  8
_U+30EC_U+30A4_U+30E4_U+30FC 1
 62
   179
420
  2234388
370
    25
100
AcDbVertex
100
AcDb2dVertex
 10
92.94868707312588
 20
-135.5507335772238
 30
0.0
  0
SEQEND
  5
4A
330
47
100
AcDbEntity
  8
_U+30EC_U+30A4_U+30E4_U+30FC 1
 62
   179
420
  2234388
370
    25
  0
POLYLINE
  5
4B
330
1F
100
AcDbEntity
  8
_U+30EC_U+30A4_U+30E4_U+30FC 1
 62
   179
420
  2234388
370
    25
100
AcDb2dPolyline
 66
     1
 10
0.0
 20
0.0
 30
0.0
  0
VERTEX
  5
4C
330
4B
100
AcDbEntity
  8
_U+30EC_U+30A4_U+30E4_U+30FC 1
 62
   179
420
  2234388
370
    25
100
AcDbVertex
100
AcDb2dVertex
 10
98.44842193281596
 20
-127.5506860792233
 30
0.0
  0
VERTEX
  5
4D
330
4B
100
AcDbEntity
  8
_U+30EC_U+30A4_U+30E4_U+30FC 1
 62
   179
420
  2234388
370
    25
100
AcDbVertex
100
AcDb2dVertex
 10
98.44842193281596
 20
-130.0509633008206
 30
0.0
  0
SEQEND
  5
4E
330
4B
100
AcDbEntity
  8
_U+30EC_U+30A4_U+30E4_U+30FC 1
 62
   179
420
  2234388
370
    25
  0
POLYLINE
  5
4F
330
1F
100
AcDbEntity
  8
_U+30EC_U+30A4_U+30E4_U+30FC 1
 62
   179
420
  2234388
370
    25
100
AcDb2dPolyline
 66
     1
 10
0.0
 20
0.0
 30
0.0
  0
VERTEX
  5
50
330
4F
100
AcDbEntity
  8
_U+30EC_U+30A4_U+30E4_U+30FC 1
 62
   179
420
  2234388
370
    25
100
AcDbVertex
100
AcDb2dVertex
 10
98.44842193281596
 20
-115.5507383044456
 30
0.0
  0
VERTEX
  5
51
330
4F
100
AcDbEntity
  8
_U+30EC_U+30A4_U+30E4_U+30FC 1
 62
   179
420
  2234388
370
    25
100
AcDbVertex
100
AcDb2dVertex
 10
98.44842193281596
 20
-125.5504713575012
 30
0.0
  0
SEQEND
  5
52
330
4F
100
AcDbEntity
  8
_U+30EC_U+30A4_U+30E4_U+30FC 1
 62
   179
420
  2234388
370
    25
  0
POLYLINE
  5
53
330
1F
100
AcDbEntity
  8
_U+30EC_U+30A4_U+30E4_U+30FC 1
 62
   179
420
  2234388
370
     9
100
AcDb2dPolyline
 66
     1
 10
0.0
 20
0.0
 30
0.0
  0
VERTEX
  5
54
330
53
100
AcDbEntity
  8
_U+30EC_U+30A4_U+30E4_U+30FC 1
 62
   179
420
  2234388
370
     9
100
AcDbVertex
100
AcDb2dVertex
 10
91.0488729549275
 20
-127.784965801387
 30
0.0
  0
VERTEX
  5
55
330
53
100
AcDbEntity
  8
_U+30EC_U+30A4_U+30E4_U+30FC 1
 62
   179
420
  2234388
370
     9
100
AcDbVertex
100
AcDb2dVertex
 10
91.54858266440108
 20
-128.6510705233927
 30
0.0
  0
SEQEND
  5
56
330
53
100
AcDbEntity
  8
_U+30EC_U+30A4_U+30E4_U+30FC 1
 62
   179
420
  2234388
370
     9
  0
POLYLINE
  5
57
330
1F
100
AcDbEntity
  8
_U+30EC_U+30A4_U+30E4_U+30FC 1
 62
   179
420
  2234388
370
     9
100
AcDb2dPolyline
 66
     1
 10
0.0
 20
0.0
 30
0.0
  0
VERTEX
  5
58
330
57
100
AcDbEntity
  8
_U+30EC_U+30A4_U+30E4_U+30FC 1
 62
   179
420
  2234388
370
     9
100
AcDbVertex
100
AcDb2dVertex
 10
90.6826543531594
 20
-128.150831634629
 30
0.0
  0
VERTEX
  5
59
330
57
100
AcDbEntity
  8
_U+30EC_U+30A4_U+30E4_U+30FC 1
 62
   179
420
  2234388
370
     9
100
AcDbVertex
100
AcDb2dVertex
 10
91.54858266440108
 20
-128.6510705233927
 30
0.0
  0
SEQEND
  5
5A
330
57
100
AcDbEntity
  8
_U+30EC_U+30A4_U+30E4_U+30FC 1
 62
   179
420
  2234388
370
     9
  0
SPLINE
  5
5B
330
1F
100
AcDbEntity
  8
_U+30EC_U+30A4_U+30E4_U+30FC 1
 62
   179
420
  2234388
370
    25
100
AcDbSpline
210
0.0
220
0.0
230
1.0
 70
     8
 71
     3
 72
     8
 73
     4
 74
     0
 42
0.0000000001
 43
0.0000000001
 12
1.0
 22
0.0
 32
0.0
 13
1.0
 23
0.0
 33
0.0
 40
0.0
 40
0.0
 40
0.0
 40
0.0
 40
1.0
 40
1.0
 40
1.0
 40
1.0
 10
78.44842716528055
 20
-135.5507335772238
 30
0.0
 10
88.60803885053171
 20
-133.6586805221409
 30
0.0
 10
96.55636892553069
 20
-125.7103149685723
 30
0.0
 10
98.44842193281596
 20
-115.5507383044456
 30
0.0
  0
SPLINE
  5
5C
330
1F
100
AcDbEntity
  8
_U+30EC_U+30A4_U+30E4_U+30FC 1
 62
   179
420
  2234388
370
    25
100
AcDbSpline
210
0.0
220
0.0
230
1.0
 70
     8
 71
     3
 72
     8
 73
     4
 74
     0
 42
0.0000000001
 43
0.0000000001
 12
1.0
 22
0.0
 32
0.0
 13
1.0
 23
0.0
 33
0.0
 40
0.0
 40
0.0
 40
0.0
 40
0.0
 40
1.0
 40
1.0
 40
1.0
 40
1.0
 10
98.44842193281596
 20
-130.0509633008206
 30
0.0
 10
95.41121942059176
 20
-130.0509633008206
 30
0.0
 10
92.94868707312588
 20
-132.5128583002053
 30
0.0
 10
92.94868707312588
 20
-135.5507335772238
 30
0.0
  0
SPLINE
  5
5D
330
1F
100
AcDbEntity
  8
_U+30EC_U+30A4_U+30E4_U+30FC 1
 62
   179
420
  2234388
370
    25
100
AcDbSpline
210
0.0
220
0.0
230
1.0
 70
     8
 71
     3
 72
    11
 73
     7
 74
     0
 42
0.0000000001
 43
0.0000000001
 12
1.0
 22
0.0
 32
0.0
 13
1.0
 23
0.0
 33
0.0
 40
0.0
 40
0.0
 40
0.0
 40
0.0
 40
1.0
 40
1.0
 40
1.0
 40
2.0
 40
2.0
 40
2.0
 40
2.0
 10
90.44840991469104
 20
-135.5507335772238
 30
0.0
 10
90.44840991469104
 20
-134.9981424662502
 30
0.0
 10
90.0008760372197
 20
-134.5509613552512
 30
0.0
 10
89.44863771797513
 20
-134.5509613552512
 30
0.0
 10
88.89636412095369
 20
-134.5509613552512
 30
0.0
 10
88.44851274349045
 20
-134.9981424662502
 30
0.0
 10
88.44851274349045
 20
-135.5507335772238
 30
0.0
  0
SPLINE
  5
5E
330
1F
100
AcDbEntity
  8
_U+30EC_U+30A4_U+30E4_U+30FC 1
 62
   179
420
  2234388
370
    25
100
AcDbSpline
210
0.0
220
0.0
230
1.0
 70
     8
 71
     3
 72
    11
 73
     7
 74
     0
 42
0.0000000001
 43
0.0000000001
 12
1.0
 22
0.0
 32
0.0
 13
1.0
 23
0.0
 33
0.0
 40
0.0
 40
0.0
 40
0.0
 40
0.0
 40
1.0
 40
1.0
 40
1.0
 40
2.0
 40
2.0
 40
2.0
 40
2.0
 10
98.44842193281596
 20
-125.5504713575012
 30
0.0
 10
97.89653886441491
 20
-125.5504713575012
 30
0.0
 10
97.44864973610005
 20
-125.9983227462783
 30
0.0
 10
97.44864973610005
 20
-126.5505963572512
 30
0.0
 10
97.44864973610005
 20
-127.1028346904466
 30
0.0
 10
97.89653886441491
 20
-127.5506860792233
 30
0.0
 10
98.44842193281596
 20
-127.5506860792233
 30
0.0
  0
SPLINE
  5
5F
330
1F
100
AcDbEntity
  8
_U+30EC_U+30A4_U+30E4_U+30FC 1
 62
   179
420
  2234388
370
     9
100
AcDbSpline
210
0.0
220
0.0
230
1.0
 70
    11
 71
     3
 72
    17
 73
    13
 74
     0
 42
0.0000000001
 43
0.0000000001
 12
1.0
 22
0.0
 32
0.0
 13
1.0
 23
0.0
 33
0.0
 40
0.0
 40
0.0
 40
0.0
 40
0.0
 40
1.0
 40
1.0
 40
1.0
 40
2.0
 40
2.0
 40
2.0
 40
3.0
 40
3.0
 40
3.0
 40
4.0
 40
4.0
 40
4.0
 40
4.0
 10
102.5487932170957
 20
-135.5507335772238
 30
0.0
 10
102.5487932170957
 20
-135.4955944105707
 30
0.0
 10
102.5039904404609
 20
-135.4508269105815
 30
0.0
 10
102.4488865529778
 20
-135.4508269105815
 30
0.0
 10
102.393044418846
 20
-135.4508269105815
 30
0.0
 10
102.3482743333224
 20
-135.4955944105707
 30
0.0
 10
102.3482743333224
 20
-135.5507335772238
 30
0.0
 10
102.3482743333224
 20
-135.6058374660987
 30
0.0
 10
102.393044418846
 20
-135.6506402438654
 30
0.0
 10
102.4488865529778
 20
-135.6506402438654
 30
0.0
 10
102.5039904404609
 20
-135.6506402438654
 30
0.0
 10
102.5487932170957
 20
-135.6058374660987
 30
0.0
 10
102.5487932170957
 20
-135.5507335772238
 30
0.0
  0
SPLINE
  5
60
330
1F
100
AcDbEntity
  8
_U+30EC_U+30A4_U+30E4_U+30FC 1
 62
   179
420
  2234388
370
     9
100
AcDbSpline
210
0.0
220
0.0
230
1.0
 70
    11
 71
     3
 72
    17
 73
    13
 74
     0
 42
0.0000000001
 43
0.0000000001
 12
1.0
 22
0.0
 32
0.0
 13
1.0
 23
0.0
 33
0.0
 40
0.0
 40
0.0
 40
0.0
 40
0.0
 40
1.0
 40
1.0
 40
1.0
 40
2.0
 40
2.0
 40
2.0
 40
3.0
 40
3.0
 40
3.0
 40
4.0
 40
4.0
 40
4.0
 40
4.0
 10
102.5487932170957
 20
-115.5507383044456
 30
0.0
 10
102.5487932170957
 20
-115.4956344155704
 30
0.0
 10
102.5039904404609
 20
-115.450831637804
 30
0.0
 10
102.4488865529778
 20
-115.450831637804
 30
0.0
 10
102.393044418846
 20
-115.450831637804
 30
0.0
 10
102.3482743333224
 20
-115.4956344155704
 30
0.0
 10
102.3482743333224
 20
-115.5507383044456
 30
0.0
 10
102.3482743333224
 20
-115.6058774710984
 30
0.0
 10
102.393044418846
 20
-115.6506449710873
 30
0.0
 10
102.4488865529778
 20
-115.6506449710873
 30
0.0
 10
102.5039904404609
 20
-115.6506449710873
 30
0.0
 10
102.5487932170957
 20
-115.6058774710984
 30
0.0
 10
102.5487932170957
 20
-115.5507383044456
 30
0.0
  0
SPLINE
  5
61
330
1F
100
AcDbEntity
  8
_U+30EC_U+30A4_U+30E4_U+30FC 1
 62
   179
420
  2234388
370
     9
100
AcDbSpline
210
0.0
220
0.0
230
1.0
 70
    11
 71
     3
 72
    17
 73
    13
 74
     0
 42
0.0000000001
 43
0.0000000001
 12
1.0
 22
0.0
 32
0.0
 13
1.0
 23
0.0
 33
0.0
 40
0.0
 40
0.0
 40
0.0
 40
0.0
 40
1.0
 40
1.0
 40
1.0
 40
2.0
 40
2.0
 40
2.0
 40
3.0
 40
3.0
 40
3.0
 40
4.0
 40
4.0
 40
4.0
 40
4.0
 10
98.54832859693379
 20
-139.55049274289
 30
0.0
 10
98.54832859693379
 20
-139.4953535762376
 30
0.0
 10
98.5035610980759
 20
-139.4505860762484
 30
0.0
 10
98.44842193281596
 20
-139.4505860762484
 30
0.0
 10
98.39331804533289
 20
-139.4505860762484
 30
0.0
 10
98.34851526869812
 20
-139.4953535762376
 30
0.0
 10
98.34851526869812
 20
-139.55049274289
 30
0.0
 10
98.34851526869812
 20
-139.6055966317655
 30
0.0
 10
98.39331804533289
 20
-139.6503994095316
 30
0.0
 10
98.44842193281596
 20
-139.6503994095316
 30
0.0
 10
98.5035610980759
 20
-139.6503994095316
 30
0.0
 10
98.54832859693379
 20
-139.6055966317655
 30
0.0
 10
98.54832859693379
 20
-139.55049274289
 30
0.0
  0
SPLINE
  5
62
330
1F
100
AcDbEntity
  8
_U+30EC_U+30A4_U+30E4_U+30FC 1
 62
   179
420
  2234388
370
     9
100
AcDbSpline
210
0.0
220
0.0
230
1.0
 70
    11
 71
     3
 72
    17
 73
    13
 74
     0
 42
0.0000000001
 43
0.0000000001
 12
1.0
 22
0.0
 32
0.0
 13
1.0
 23
0.0
 33
0.0
 40
0.0
 40
0.0
 40
0.0
 40
0.0
 40
1.0
 40
1.0
 40
1.0
 40
2.0
 40
2.0
 40
2.0
 40
3.0
 40
3.0
 40
3.0
 40
4.0
 40
4.0
 40
4.0
 40
4.0
 10
78.54833382939839
 20
-139.55049274289
 30
0.0
 10
78.54833382939839
 20
-139.4953535762376
 30
0.0
 10
78.50356633054051
 20
-139.4505860762484
 30
0.0
 10
78.44842716528055
 20
-139.4505860762484
 30
0.0
 10
78.39332327779748
 20
-139.4505860762484
 30
0.0
 10
78.34852050116272
 20
-139.4953535762376
 30
0.0
 10
78.34852050116272
 20
-139.55049274289
 30
0.0
 10
78.34852050116272
 20
-139.6055966317655
 30
0.0
 10
78.39332327779748
 20
-139.6503994095316
 30
0.0
 10
78.44842716528055
 20
-139.6503994095316
 30
0.0
 10
78.50356633054051
 20
-139.6503994095316
 30
0.0
 10
78.54833382939839
 20
-139.6055966317655
 30
0.0
 10
78.54833382939839
 20
-139.55049274289
 30
0.0
  0
POLYLINE
  5
63
330
1F
100
AcDbEntity
  8
_U+30EC_U+30A4_U+30E4_U+30FC 1
 62
   179
420
  2234388
370
     9
100
AcDb2dPolyline
 66
     1
 10
0.0
 20
0.0
 30
0.0
  0
VERTEX
  5
64
330
63
100
AcDbEntity
  8
_U+30EC_U+30A4_U+30E4_U+30FC 1
 62
   179
420
  2234388
370
     9
100
AcDbVertex
100
AcDb2dVertex
 10
78.44842716528055
 20
-139.55049274289
 30
0.0
  0
VERTEX
  5
65
330
63
100
AcDbEntity
  8
_U+30EC_U+30A4_U+30E4_U+30FC 1
 62
   179
420
  2234388
370
     9
100
AcDbVertex
100
AcDb2dVertex
 10
98.44842193281596
 20
-139.55049274289
 30
0.0
  0
SEQEND
  5
66
330
63
100
AcDbEntity
  8
_U+30EC_U+30A4_U+30E4_U+30FC 1
 62
   179
420
  2234388
370
     9
  0
POLYLINE
  5
67
330
1F
100
AcDbEntity
  8
_U+30EC_U+30A4_U+30E4_U+30FC 1
 62
   179
420
  2234388
370
     9
100
AcDb2dPolyline
 66
     1
 10
0.0
 20
0.0
 30
0.0
  0
VERTEX
  5
68
330
67
100
AcDbEntity
  8
_U+30EC_U+30A4_U+30E4_U+30FC 1
 62
   179
420
  2234388
370
     9
100
AcDbVertex
100
AcDb2dVertex
 10
78.44842716528055
 20
-138.0904513543663
 30
0.0
  0
VERTEX
  5
69
330
67
100
AcDbEntity
  8
_U+30EC_U+30A4_U+30E4_U+30FC 1
 62
   179
420
  2234388
370
     9
100
AcDbVertex
100
AcDb2dVertex
 10
78.44842716528055
 20
-140.5509352426399
 30
0.0
  0
SEQEND
  5
6A
330
67
100
AcDbEntity
  8
_U+30EC_U+30A4_U+30E4_U+30FC 1
 62
   179
420
  2234388
370
     9
  0
POLYLINE
  5
6B
330
1F
100
AcDbEntity
  8
_U+30EC_U+30A4_U+30E4_U+30FC 1
 62
   179
420
  2234388
370
     9
100
AcDb2dPolyline
 66
     1
 10
0.0
 20
0.0
 30
0.0
  0
VERTEX
  5
6C
330
6B
100
AcDbEntity
  8
_U+30EC_U+30A4_U+30E4_U+30FC 1
 62
   179
420
  2234388
370
     9
100
AcDbVertex
100
AcDb2dVertex
 10
98.44842193281596
 20
-132.5907163557413
 30
0.0
  0
VERTEX
  5
6D
330
6B
100
AcDbEntity
  8
_U+30EC_U+30A4_U+30E4_U+30FC 1
 62
   179
420
  2234388
370
     9
100
AcDbVertex
100
AcDb2dVertex
 10
98.44842193281596
 20
-140.5509352426399
 30
0.0
  0
SEQEND
  5
6E
330
6B
100
AcDbEntity
  8
_U+30EC_U+30A4_U+30E4_U+30FC 1
 62
   179
420
  2234388
370
     9
  0
INSERT
  5
70
330
1F
100
AcDbEntity
  8
_U+30EC_U+30A4_U+30E4_U+30FC 1
100
AcDbBlockReference
  2
block 2
 10
0.0
 20
0.0
 30
0.0
  0
POLYLINE
  5
78
330
1F
100
AcDbEntity
  8
_U+30EC_U+30A4_U+30E4_U+30FC 1
 62
   179
420
  2234388
370
     9
100
AcDb2dPolyline
 66
     1
 10
0.0
 20
0.0
 30
0.0
  0
VERTEX
  5
79
330
78
100
AcDbEntity
  8
_U+30EC_U+30A4_U+30E4_U+30FC 1
 62
   179
420
  2234388
370
     9
100
AcDbVertex
100
AcDb2dVertex
 10
102.4488865529778
 20
-115.5507383044456
 30
0.0
  0
VERTEX
  5
7A
330
78
100
AcDbEntity
  8
_U+30EC_U+30A4_U+30E4_U+30FC 1
 62
   179
420
  2234388
370
     9
100
AcDbVertex
100
AcDb2dVertex
 10
102.4488865529778
 20
-135.5507335772238
 30
0.0
  0
SEQEND
  5
7B
330
78
100
AcDbEntity
  8
_U+30EC_U+30A4_U+30E4_U+30FC 1
 62
   179
420
  2234388
370
     9
  0
POLYLINE
  5
7C
330
1F
100
AcDbEntity
  8
_U+30EC_U+30A4_U+30E4_U+30FC 1
 62
   179
420
  2234388
370
     9
100
AcDb2dPolyline
 66
     1
 10
0.0
 20
0.0
 30
0.0
  0
VERTEX
  5
7D
330
7C
100
AcDbEntity
  8
_U+30EC_U+30A4_U+30E4_U+30FC 1
 62
   179
420
  2234388
370
     9
100
AcDbVertex
100
AcDb2dVertex
 10
100.9888452013377
 20
-115.5507383044456
 30
0.0
  0
VERTEX
  5
7E
330
7C
100
AcDbEntity
  8
_U+30EC_U+30A4_U+30E4_U+30FC 1
 62
   179
420
  2234388
370
     9
100
AcDbVertex
100
AcDb2dVertex
 10
103.4486234719168
 20
-115.5507383044456
 30
0.0
  0
SEQEND
  5
7F
330
7C
100
AcDbEntity
  8
_U+30EC_U+30A4_U+30E4_U+30FC 1
 62
   179
420
  2234388
370
     9
  0
POLYLINE
  5
80
330
1F
100
AcDbEntity
  8
_U+30EC_U+30A4_U+30E4_U+30FC 1
 62
   179
420
  2234388
370
     9
100
AcDb2dPolyline
 66
     1
 10
0.0
 20
0.0
 30
0.0
  0
VERTEX
  5
81
330
80
100
AcDbEntity
  8
_U+30EC_U+30A4_U+30E4_U+30FC 1
 62
   179
420
  2234388
370
     9
100
AcDbVertex
100
AcDb2dVertex
 10
95.48840478611007
 20
-135.5507335772238
 30
0.0
  0
VERTEX
  5
82
330
80
100
AcDbEntity
  8
_U+30EC_U+30A4_U+30E4_U+30FC 1
 62
   179
420
  2234388
370
     9
100
AcDbVertex
100
AcDb2dVertex
 10
103.4486234719168
 20
-135.5507335772238
 30
0.0
  0
SEQEND
  5
83
330
80
100
AcDbEntity
  8
_U+30EC_U+30A4_U+30E4_U+30FC 1
 62
   179
420
  2234388
370
     9
  0
INSERT
  5
85
330
1F
100
AcDbEntity
  8
_U+30EC_U+30A4_U+30E4_U+30FC 1
100
AcDbBlockReference
  2
block 3
 10
0.0
 20
0.0
 30
0.0
  0
POLYLINE
  5
8D
330
1F
100
AcDbEntity
  8
_U+30EC_U+30A4_U+30E4_U+30FC 1
 62
   179
420
  2234388
370
     9
100
AcDb2dPolyline
 66
     1
 10
0.0
 20
0.0
 30
0.0
  0
VERTEX
  5
8E
330
8D
100
AcDbEntity
  8
_U+30EC_U+30A4_U+30E4_U+30FC 1
 62
   179
420
  2234388
370
     9
100
AcDbVertex
100
AcDb2dVertex
 10
91.54858266440108
 20
-128.6510705233927
 30
0.0
  0
VERTEX
  5
8F
330
8D
100
AcDbEntity
  8
_U+30EC_U+30A4_U+30E4_U+30FC 1
 62
   179
420
  2234388
370
     9
100
AcDbVertex
100
AcDb2dVertex
 10
85.2824733798184
 20
-122.3844319138484
 30
0.0
  0
SEQEND
  5
90
330
8D
100
AcDbEntity
  8
_U+30EC_U+30A4_U+30E4_U+30FC 1
 62
   179
420
  2234388
370
     9
  0
POLYLINE
  5
91
330
1F
100
AcDbEntity
  8
_U+30EC_U+30A4_U+30E4_U+30FC 1
 62
   179
420
  2234388
370
     9
100
AcDb2dPolyline
 66
     1
 10
0.0
 20
0.0
 30
0.0
  0
VERTEX
  5
92
330
91
100
AcDbEntity
  8
_U+30EC_U+30A4_U+30E4_U+30FC 1
 62
   179
420
  2234388
370
     9
100
AcDbVertex
100
AcDb2dVertex
 10
85.2824733798184
 20
-122.3844319138484
 30
0.0
  0
VERTEX
  5
93
330
91
100
AcDbEntity
  8
_U+30EC_U+30A4_U+30E4_U+30FC 1
 62
   179
420
  2234388
370
     9
100
AcDbVertex
100
AcDb2dVertex
 10
80.35152211672856
 20
-122.3844319138484
 30
0.0
  0
SEQEND
  5
94
330
91
100
AcDbEntity
  8
_U+30EC_U+30A4_U+30E4_U+30FC 1
 62
   179
420
  2234388
370
     9
  0
INSERT
  5
96
330
1F
100
AcDbEntity
  8
_U+30EC_U+30A4_U+30E4_U+30FC 1
100
AcDbBlockReference
  2
block 4
 10
0.0
 20
0.0
 30
0.0
  0
ENDSEC
  0
SECTION
  2
OBJECTS
  0
DICTIONARY
  5
C
330
0
100
AcDbDictionary
281
     1
  3
ACAD_GROUP
350
D
  3
ACAD_LAYOUT
350
1A
  3
ACAD_MATERIAL
350
3B
  3
ACAD_MLEADERSTYLE
350
A1
  3
ACAD_MLINESTYLE
350
17
  3
ACAD_PLOTSETTINGS
350
19
  3
ACAD_PLOTSTYLENAME
350
E
  3
ACAD_TABLESTYLE
350
A0
  3
ACAD_VISUALSTYLE
350
2A
  0
SUN
  5
3F
330
29
100
AcDbSun
 90
        1
290
     0
 63
     7
421
 16777215
 40
1.0
291
     1
 91
  2455826
 92
 54000000
292
     0
 70
     2
 71
   256
280
     1
  0
DICTIONARY
  5
D
102
{ACAD_REACTORS
330
C
102
}
330
C
100
AcDbDictionary
281
     1
  0
DICTIONARY
  5
1A
102
{ACAD_REACTORS
330
C
102
}
330
C
100
AcDbDictionary
281
     1
  3
Layout1
350
1E
  3
Layout2
350
26
  3
Model
350
22
  0
DICTIONARY
  5
3B
102
{ACAD_REACTORS
330
C
102
}
330
C
100
AcDbDictionary
281
     1
  3
ByBlock
350
3D
  3
ByLayer
350
3C
  3
Global
350
3E
  0
DICTIONARY
  5
A1
102
{ACAD_REACTORS
330
C
102
}
330
C
100
AcDbDictionary
281
     1
  0
DICTIONARY
  5
17
102
{ACAD_REACTORS
330
C
102
}
330
C
100
AcDbDictionary
281
     1
  3
Standard
350
18
  0
DICTIONARY
  5
19
102
{ACAD_REACTORS
330
C
102
}
330
C
100
AcDbDictionary
281
     1
  0
ACDBDICTIONARYWDFLT
  5
E
102
{ACAD_REACTORS
330
C
102
}
330
C
100
AcDbDictionary
281
     1
  3
Normal
350
F
100
AcDbDictionaryWithDefault
340
F
  0
DICTIONARY
  5
A0
102
{ACAD_REACTORS
330
C
102
}
330
C
100
AcDbDictionary
281
     1
  0
DICTIONARY
  5
2A
102
{ACAD_REACTORS
330
C
102
}
330
C
100
AcDbDictionary
281
     1
  3
2dWireframe
350
2F
  3
3D Hidden
350
31
  3
3dWireframe
350
30
  3
Basic
350
32
  3
Brighten
350
36
  3
ColorChange
350
3A
  3
Conceptual
350
34
  3
Dim
350
35
  3
Facepattern
350
39
  3
Flat
350
2B
  3
FlatWithEdges
350
2C
  3
Gouraud
350
2D
  3
GouraudWithEdges
350
2E
  3
Linepattern
350
38
  3
Realistic
350
33
  3
Thicken
350
37
  0
LAYOUT
  5
1E
102
{ACAD_REACTORS
330
1A
102
}
330
1A
100
AcDbPlotSettings
  1

  2
none_device
  4

  6

 40
0.0
 41
0.0
 42
0.0
 43
0.0
 44
0.0
 45
0.0
 46
0.0
 47
0.0
 48
0.0
 49
0.0
140
0.0
141
0.0
142
1.0
143
1.0
 70
   688
 72
     0
 73
     0
 74
     5
  7

 75
    16
 76
     0
 77
     2
 78
   300
147
1.0
148
0.0
149
0.0
100
AcDbLayout
  1
Layout1
 70
     1
 71
     1
 10
0.0
 20
0.0
 11
12.0
 21
9.0
 12
0.0
 22
0.0
 32
0.0
 14
1.000000000000000E+20
 24
1.000000000000000E+20
 34
1.000000000000000E+20
 15
-1.000000000000000E+20
 25
-1.000000000000000E+20
 35
-1.000000000000000E+20
146
0.0
 13
0.0
 23
0.0
 33
0.0
 16
1.0
 26
0.0
 36
0.0
 17
0.0
 27
1.0
 37
0.0
 76
     0
330
1B
  0
LAYOUT
  5
26
102
{ACAD_REACTORS
330
1A
102
}
330
1A
100
AcDbPlotSettings
  1

  2
none_device
  4

  6

 40
0.0
 41
0.0
 42
0.0
 43
0.0
 44
0.0
 45
0.0
 46
0.0
 47
0.0
 48
0.0
 49
0.0
140
0.0
141
0.0
142
1.0
143
1.0
 70
   688
 72
     0
 73
     0
 74
     5
  7

 75
    16
 76
     0
 77
     2
 78
   300
147
1.0
148
0.0
149
0.0
100
AcDbLayout
  1
Layout2
 70
     1
 71
     2
 10
0.0
 20
0.0
 11
0.0
 21
0.0
 12
0.0
 22
0.0
 32
0.0
 14
0.0
 24
0.0
 34
0.0
 15
0.0
 25
0.0
 35
0.0
146
0.0
 13
0.0
 23
0.0
 33
0.0
 16
1.0
 26
0.0
 36
0.0
 17
0.0
 27
1.0
 37
0.0
 76
     0
330
23
  0
LAYOUT
  5
22
102
{ACAD_REACTORS
330
1A
102
}
330
1A
100
AcDbPlotSettings
  1

  2
none_device
  4

  6

 40
0.0
 41
0.0
 42
0.0
 43
0.0
 44
0.0
 45
0.0
 46
0.0
 47
0.0
 48
0.0
 49
0.0
140
0.0
141
0.0
142
1.0
143
1.0
 70
  1712
 72
     0
 73
     0
 74
     0
  7

 75
     0
 76
     0
 77
     2
 78
   300
147
1.0
148
0.0
149
0.0
100
AcDbLayout
  1
Model
 70
     1
 71
     0
 10
0.0
 20
0.0
 11
12.0
 21
9.0
 12
0.0
 22
0.0
 32
0.0
 14
1.000000000000000E+20
 24
1.000000000000000E+20
 34
1.000000000000000E+20
 15
-1.000000000000000E+20
 25
-1.000000000000000E+20
 35
-1.000000000000000E+20
146
0.0
 13
0.0
 23
0.0
 33
0.0
 16
1.0
 26
0.0
 36
0.0
 17
0.0
 27
1.0
 37
0.0
 76
     0
330
1F
331
29
  0
MATERIAL
  5
3D
102
{ACAD_REACTORS
330
3B
102
}
330
3B
100
AcDbMaterial
  1
ByBlock
 72
     1
 94
      127
  0
MATERIAL
  5
3C
102
{ACAD_REACTORS
330
3B
102
}
330
3B
100
AcDbMaterial
  1
ByLayer
 72
     1
 94
      127
  0
MATERIAL
  5
3E
102
{ACAD_REACTORS
330
3B
102
}
330
3B
100
AcDbMaterial
  1
Global
 72
     1
 94
      127
  0
MLINESTYLE
  5
18
102
{ACAD_REACTORS
330
17
102
}
330
17
100
AcDbMlineStyle
  2
Standard
 70
     0
  3

 62
   256
 51
90.0
 52
90.0
 71
     2
 49
0.5
 62
   256
  6
BYLAYER
 49
-0.5
 62
   256
  6
BYLAYER
  0
ACDBPLACEHOLDER
  5
F
102
{ACAD_REACTORS
330
E
102
}
330
E
  0
VISUALSTYLE
  5
2F
102
{ACAD_REACTORS
330
2A
102
}
330
2A
100
AcDbVisualStyle
  2
2dWireframe
 70
     4
177
     2
291
     0
 71
     0
176
     1
 72
     2
176
     1
 73
     0
176
     1
 90
        0
176
     1
 40
-0.6
176
     1
 41
-30.0
176
     1
 62
     5
 63
     7
421
 16777215
176
     1
 74
     1
176
     1
 91
        4
176
     1
 64
     7
176
     1
 65
   257
176
     1
 75
     1
176
     1
175
     1
176
     1
 42
1.0
176
     1
 92
        0
176
     1
 66
   257
176
     1
 43
1.0
176
     1
 76
     1
176
     1
 77
     6
176
     1
 78
     2
176
     1
 67
     7
176
     1
 79
     5
176
     1
170
     0
176
     1
171
     0
176
     1
290
     0
176
     1
 93
        1
176
     1
 44
0.0
176
     1
173
     0
176
     1
  0
VISUALSTYLE
  5
31
102
{ACAD_REACTORS
330
2A
102
}
330
2A
100
AcDbVisualStyle
  2
3D Hidden
 70
     6
177
     2
291
     0
 71
     1
176
     1
 72
     2
176
     1
 73
     2
176
     1
 90
        0
176
     1
 40
-0.6
176
     1
 41
-30.0
176
     1
 62
     5
 63
     7
421
 16777215
176
     1
 74
     2
176
     1
 91
        2
176
     1
 64
     7
176
     1
 65
   257
176
     1
 75
     2
176
     1
175
     1
176
     1
 42
40.0
176
     1
 92
        0
176
     1
 66
   257
176
     1
 43
1.0
176
     1
 76
     1
176
     1
 77
     6
176
     1
 78
     2
176
     1
 67
     7
176
     1
 79
     3
176
     1
170
     0
176
     1
171
     0
176
     1
290
     0
176
     1
 93
        1
176
     1
 44
0.0
176
     1
173
     0
176
     1
  0
VISUALSTYLE
  5
30
102
{ACAD_REACTORS
330
2A
102
}
330
2A
100
AcDbVisualStyle
  2
3dWireframe
 70
     5
177
     2
291
     0
 71
     0
176
     1
 72
     2
176
     1
 73
     0
176
     1
 90
        0
176
     1
 40
-0.6
176
     1
 41
-30.0
176
     1
 62
     5
 63
     7
421
 16777215
176
     1
 74
     1
176
     1
 91
        4
176
     1
 64
     7
176
     1
 65
   257
176
     1
 75
     1
176
     1
175
     1
176
     1
 42
1.0
176
     1
 92
        0
176
     1
 66
   257
176
     1
 43
1.0
176
     1
 76
     1
176
     1
 77
     6
176
     1
 78
     2
176
     1
 67
     7
176
     1
 79
     5
176
     1
170
     0
176
     1
171
     0
176
     1
290
     0
176
     1
 93
        1
176
     1
 44
0.0
176
     1
173
     0
176
     1
  0
VISUALSTYLE
  5
32
102
{ACAD_REACTORS
330
2A
102
}
330
2A
100
AcDbVisualStyle
  2
Basic
 70
     7
177
     2
291
     1
 71
     1
176
     1
 72
     0
176
     1
 73
     1
176
     1
 90
        0
176
     1
 40
-0.6
176
     1
 41
-30.0
176
     1
 62
     5
 63
     7
421
 16777215
176
     1
 74
     0
176
     1
 91
        4
176
     1
 64
     7
176
     1
 65
   257
176
     1
 75
     1
176
     1
175
     1
176
     1
 42
1.0
176
     1
 92
        8
176
     1
 66
     7
176
     1
 43
1.0
176
     1
 76
     1
176
     1
 77
     6
176
     1
 78
     2
176
     1
 67
     7
176
     1
 79
     5
176
     1
170
     0
176
     1
171
     0
176
     1
290
     0
176
     1
 93
        1
176
     1
 44
0.0
176
     1
173
     0
176
     1
  0
VISUALSTYLE
  5
36
102
{ACAD_REACTORS
330
2A
102
}
330
2A
100
AcDbVisualStyle
  2
Brighten
 70
    12
177
     2
291
     1
 71
     2
176
     1
 72
     2
176
     1
 73
     0
176
     1
 90
        0
176
     1
 40
-0.6
176
     1
 41
-30.0
176
     1
 62
     5
 63
     7
421
 16777215
176
     1
 74
     1
176
     1
 91
        4
176
     1
 64
     7
176
     1
 65
   257
176
     1
 75
     1
176
     1
175
     1
176
     1
 42
1.0
176
     1
 92
        8
176
     1
 66
     7
176
     1
 43
1.0
176
     1
 76
     1
176
     1
 77
     6
176
     1
 78
     2
176
     1
 67
     7
176
     1
 79
     5
176
     1
170
     0
176
     1
171
     0
176
     1
290
     0
176
     1
 93
        1
176
     1
 44
50.0
176
     1
173
     0
176
     1
  0
VISUALSTYLE
  5
3A
102
{ACAD_REACTORS
330
2A
102
}
330
2A
100
AcDbVisualStyle
  2
ColorChange
 70
    16
177
     2
291
     1
 71
     2
176
     1
 72
     2
176
     1
 73
     3
176
     1
 90
        0
176
     1
 40
-0.6
176
     1
 41
-30.0
176
     1
 62
     5
 63
     8
421
  8421504
176
     1
 74
     1
176
     1
 91
        4
176
     1
 64
     7
176
     1
 65
   257
176
     1
 75
     1
176
     1
175
     1
176
     1
 42
1.0
176
     1
 92
        8
176
     1
 66
     8
424
  8421504
176
     1
 43
1.0
176
     1
 76
     1
176
     1
 77
     6
176
     1
 78
     2
176
     1
 67
     7
176
     1
 79
     5
176
     1
170
     0
176
     1
171
     0
176
     1
290
     0
176
     1
 93
        1
176
     1
 44
0.0
176
     1
173
     0
176
     1
  0
VISUALSTYLE
  5
34
102
{ACAD_REACTORS
330
2A
102
}
330
2A
100
AcDbVisualStyle
  2
Conceptual
 70
     9
177
     2
291
     0
 71
     3
176
     1
 72
     2
176
     1
 73
     0
176
     1
 90
        0
176
     1
 40
-0.6
176
     1
 41
-30.0
176
     1
 62
     5
 63
     7
421
 16777215
176
     1
 74
     2
176
     1
 91
        2
176
     1
 64
     7
176
     1
 65
   257
176
     1
 75
     1
176
     1
175
     1
176
     1
 42
40.0
176
     1
 92
        8
176
     1
 66
     7
176
     1
 43
1.0
176
     1
 76
     1
176
     1
 77
     6
176
     1
 78
     2
176
     1
 67
     7
176
     1
 79
     3
176
     1
170
     0
176
     1
171
     0
176
     1
290
     0
176
     1
 93
        1
176
     1
 44
0.0
176
     1
173
     0
176
     1
  0
VISUALSTYLE
  5
35
102
{ACAD_REACTORS
330
2A
102
}
330
2A
100
AcDbVisualStyle
  2
Dim
 70
    11
177
     2
291
     1
 71
     2
176
     1
 72
     2
176
     1
 73
     0
176
     1
 90
        0
176
     1
 40
-0.6
176
     1
 41
-30.0
176
     1
 62
     5
 63
     7
421
 16777215
176
     1
 74
     1
176
     1
 91
        4
176
     1
 64
     7
176
     1
 65
   257
176
     1
 75
     1
176
     1
175
     1
176
     1
 42
1.0
176
     1
 92
        8
176
     1
 66
     7
176
     1
 43
1.0
176
     1
 76
     1
176
     1
 77
     6
176
     1
 78
     2
176
     1
 67
     7
176
     1
 79
     5
176
     1
170
     0
176
     1
171
     0
176
     1
290
     0
176
     1
 93
        1
176
     1
 44
-50.0
176
     1
173
     0
176
     1
  0
VISUALSTYLE
  5
39
102
{ACAD_REACTORS
330
2A
102
}
330
2A
100
AcDbVisualStyle
  2
Facepattern
 70
    15
177
     2
291
     1
 71
     2
176
     1
 72
     2
176
     1
 73
     0
176
     1
 90
        0
176
     1
 40
-0.6
176
     1
 41
-30.0
176
     1
 62
     5
 63
     7
421
 16777215
176
     1
 74
     1
176
     1
 91
        4
176
     1
 64
     7
176
     1
 65
   257
176
     1
 75
     1
176
     1
175
     1
176
     1
 42
1.0
176
     1
 92
        8
176
     1
 66
     7
176
     1
 43
1.0
176
     1
 76
     1
176
     1
 77
     6
176
     1
 78
     2
176
     1
 67
     7
176
     1
 79
     5
176
     1
170
     0
176
     1
171
     0
176
     1
290
     0
176
     1
 93
        1
176
     1
 44
0.0
176
     1
173
     0
176
     1
  0
VISUALSTYLE
  5
2B
102
{ACAD_REACTORS
330
2A
102
}
330
2A
100
AcDbVisualStyle
  2
Flat
 70
     0
177
     2
291
     1
 71
     2
176
     1
 72
     1
176
     1
 73
     1
176
     1
 90
        2
176
     1
 40
-0.6
176
     1
 41
30.0
176
     1
 62
     5
 63
     7
421
 16777215
176
     1
 74
     0
176
     1
 91
        4
176
     1
 64
     7
176
     1
 65
   257
176
     1
 75
     1
176
     1
175
     1
176
     1
 42
1.0
176
     1
 92
        8
176
     1
 66
     7
176
     1
 43
1.0
176
     1
 76
     1
176
     1
 77
     6
176
     1
 78
     2
176
     1
 67
     7
176
     1
 79
     5
176
     1
170
     0
176
     1
171
     0
176
     1
290
     0
176
     1
 93
       13
176
     1
 44
0.0
176
     1
173
     0
176
     1
  0
VISUALSTYLE
  5
2C
102
{ACAD_REACTORS
330
2A
102
}
330
2A
100
AcDbVisualStyle
  2
FlatWithEdges
 70
     1
177
     2
291
     1
 71
     2
176
     1
 72
     1
176
     1
 73
     1
176
     1
 90
        2
176
     1
 40
-0.6
176
     1
 41
30.0
176
     1
 62
     5
 63
     7
421
 16777215
176
     1
 74
     1
176
     1
 91
        4
176
     1
 64
     7
176
     1
 65
   257
176
     1
 75
     1
176
     1
175
     1
176
     1
 42
1.0
176
     1
 92
        0
176
     1
 66
   257
176
     1
 43
1.0
176
     1
 76
     1
176
     1
 77
     6
176
     1
 78
     2
176
     1
 67
     7
176
     1
 79
     5
176
     1
170
     0
176
     1
171
     0
176
     1
290
     0
176
     1
 93
       13
176
     1
 44
0.0
176
     1
173
     0
176
     1
  0
VISUALSTYLE
  5
2D
102
{ACAD_REACTORS
330
2A
102
}
330
2A
100
AcDbVisualStyle
  2
Gouraud
 70
     2
177
     2
291
     1
 71
     2
176
     1
 72
     2
176
     1
 73
     1
176
     1
 90
        2
176
     1
 40
-0.6
176
     1
 41
30.0
176
     1
 62
     5
 63
     7
421
 16777215
176
     1
 74
     0
176
     1
 91
        4
176
     1
 64
     7
176
     1
 65
   257
176
     1
 75
     1
176
     1
175
     1
176
     1
 42
1.0
176
     1
 92
        0
176
     1
 66
     7
176
     1
 43
1.0
176
     1
 76
     1
176
     1
 77
     6
176
     1
 78
     2
176
     1
 67
     7
176
     1
 79
     5
176
     1
170
     0
176
     1
171
     0
176
     1
290
     0
176
     1
 93
       13
176
     1
 44
0.0
176
     1
173
     0
176
     1
  0
VISUALSTYLE
  5
2E
102
{ACAD_REACTORS
330
2A
102
}
330
2A
100
AcDbVisualStyle
  2
GouraudWithEdges
 70
     3
177
     2
291
     1
 71
     2
176
     1
 72
     2
176
     1
 73
     1
176
     1
 90
        2
176
     1
 40
-0.6
176
     1
 41
30.0
176
     1
 62
     5
 63
     7
421
 16777215
176
     1
 74
     1
176
     1
 91
        4
176
     1
 64
     7
176
     1
 65
   257
176
     1
 75
     1
176
     1
175
     1
176
     1
 42
1.0
176
     1
 92
        0
176
     1
 66
   257
176
     1
 43
1.0
176
     1
 76
     1
176
     1
 77
     6
176
     1
 78
     2
176
     1
 67
     7
176
     1
 79
     5
176
     1
170
     0
176
     1
171
     0
176
     1
290
     0
176
     1
 93
       13
176
     1
 44
0.0
176
     1
173
     0
176
     1
  0
VISUALSTYLE
  5
38
102
{ACAD_REACTORS
330
2A
102
}
330
2A
100
AcDbVisualStyle
  2
Linepattern
 70
    14
177
     2
291
     1
 71
     2
176
     1
 72
     2
176
     1
 73
     0
176
     1
 90
        0
176
     1
 40
-0.6
176
     1
 41
-30.0
176
     1
 62
     5
 63
     7
421
 16777215
176
     1
 74
     1
176
     1
 91
        4
176
     1
 64
     7
176
     1
 65
   257
176
     1
 75
     7
176
     1
175
     7
176
     1
 42
1.0
176
     1
 92
        8
176
     1
 66
     7
176
     1
 43
1.0
176
     1
 76
     1
176
     1
 77
     6
176
     1
 78
     2
176
     1
 67
     7
176
     1
 79
     5
176
     1
170
     0
176
     1
171
     0
176
     1
290
     0
176
     1
 93
        1
176
     1
 44
0.0
176
     1
173
     0
176
     1
  0
VISUALSTYLE
  5
33
102
{ACAD_REACTORS
330
2A
102
}
330
2A
100
AcDbVisualStyle
  2
Realistic
 70
     8
177
     2
291
     0
 71
     2
176
     1
 72
     2
176
     1
 73
     0
176
     1
 90
        0
176
     1
 40
-0.6
176
     1
 41
-30.0
176
     1
 62
     5
 63
     7
421
 16777215
176
     1
 74
     1
176
     1
 91
        0
176
     1
 64
     7
176
     1
 65
   257
176
     1
 75
     1
176
     1
175
     1
176
     1
 42
1.0
176
     1
 92
        8
176
     1
 66
     8
424
  7895160
176
     1
 43
1.0
176
     1
 76
     1
176
     1
 77
     6
176
     1
 78
     2
176
     1
 67
     7
176
     1
 79
     5
176
     1
170
     0
176
     1
171
     0
176
     1
290
     0
176
     1
 93
       13
176
     1
 44
0.0
176
     1
173
     0
176
     1
  0
VISUALSTYLE
  5
37
102
{ACAD_REACTORS
330
2A
102
}
330
2A
100
AcDbVisualStyle
  2
Thicken
 70
    13
177
     2
291
     1
 71
     2
176
     1
 72
     2
176
     1
 73
     0
176
     1
 90
        0
176
     1
 40
-0.6
176
     1
 41
-30.0
176
     1
 62
     5
 63
     7
421
 16777215
176
     1
 74
     1
176
     1
 91
        4
176
     1
 64
     7
176
     1
 65
   257
176
     1
 75
     1
176
     1
175
     1
176
     1
 42
1.0
176
     1
 92
       12
176
     1
 66
     7
176
     1
 43
1.0
176
     1
 76
     1
176
     1
 77
     6
176
     1
 78
     2
176
     1
 67
     7
176
     1
 79
     5
176
     1
170
     0
176
     1
171
     0
176
     1
290
     0
176
     1
 93
        1
176
     1
 44
0.0
176
     1
173
     0
176
     1
  0
ENDSEC
  0
EOF
