  0
SECTION
  2
HEADER
  9
$ACADVER
  1
AC1024
  9
$ACADMAINTVER
 70
     6
  9
$DWGCODEPAGE
  3
UNDEFINED
  9
$INSBASE
 10
0.0
 20
0.0
 30
0.0
  9
$EXTMIN
 10
1.000000000000000E+20
 20
1.000000000000000E+20
 30
1.000000000000000E+20
  9
$EXTMAX
 10
-1.000000000000000E+20
 20
-1.000000000000000E+20
 30
-1.000000000000000E+20
  9
$LIMMIN
 10
0.0
 20
0.0
  9
$LIMMAX
 10
12.0
 20
9.0
  9
$ORTHOMODE
 70
     0
  9
$REGENMODE
 70
     1
  9
$FILLMODE
 70
     1
  9
$QTEXTMODE
 70
     0
  9
$MIRRTEXT
 70
     1
  9
$LTSCALE
 40
1.0
  9
$ATTMODE
 70
     1
  9
$TEXTSIZE
 40
0.2
  9
$TRACEWID
 40
0.05
  9
$TEXTSTYLE
  7
Standard
  9
$CLAYER
  8
0
  9
$CELTYPE
  6
ByLayer
  9
$CECOLOR
 62
   256
  9
$CELTSCALE
 40
1.0
  9
$DISPSILH
 70
     0
  9
$DIMSCALE
 40
1.0
  9
$DIMASZ
 40
0.18
  9
$DIMEXO
 40
0.0625
  9
$DIMDLI
 40
0.38
  9
$DIMRND
 40
0.0
  9
$DIMDLE
 40
0.0
  9
$DIMEXE
 40
0.18
  9
$DIMTP
 40
0.0
  9
$DIMTM
 40
0.0
  9
$DIMTXT
 40
0.18
  9
$DIMCEN
 40
0.09
  9
$DIMTSZ
 40
0.0
  9
$DIMTOL
 70
     0
  9
$DIMLIM
 70
     0
  9
$DIMTIH
 70
     1
  9
$DIMTOH
 70
     1
  9
$DIMSE1
 70
     0
  9
$DIMSE2
 70
     0
  9
$DIMTAD
 70
     0
  9
$DIMZIN
 70
     0
  9
$DIMBLK
  1

  9
$DIMASO
 70
     1
  9
$DIMSHO
 70
     1
  9
$DIMPOST
  1

  9
$DIMAPOST
  1

  9
$DIMALT
 70
     0
  9
$DIMALTD
 70
     2
  9
$DIMALTF
 40
25.4
  9
$DIMLFAC
 40
1.0
  9
$DIMTOFL
 70
     0
  9
$DIMTVP
 40
0.0
  9
$DIMTIX
 70
     0
  9
$DIMSOXD
 70
     0
  9
$DIMSAH
 70
     0
  9
$DIMBLK1
  1

  9
$DIMBLK2
  1

  9
$DIMSTYLE
  2
Standard
  9
$DIMCLRD
 70
     0
  9
$DIMCLRE
 70
     0
  9
$DIMCLRT
 70
     0
  9
$DIMTFAC
 40
1.0
  9
$DIMGAP
 40
0.09
  9
$DIMJUST
 70
     0
  9
$DIMSD1
 70
     0
  9
$DIMSD2
 70
     0
  9
$DIMTOLJ
 70
     1
  9
$DIMTZIN
 70
     0
  9
$DIMALTZ
 70
     0
  9
$DIMALTTZ
 70
     0
  9
$DIMUPT
 70
     0
  9
$DIMDEC
 70
     4
  9
$DIMTDEC
 70
     4
  9
$DIMALTU
 70
     2
  9
$DIMALTTD
 70
     2
  9
$DIMTXSTY
  7
Standard
  9
$DIMAUNIT
 70
     0
  9
$DIMADEC
 70
     0
  9
$DIMALTRND
 40
0.0
  9
$DIMAZIN
 70
     0
  9
$DIMDSEP
 70
    46
  9
$DIMATFIT
 70
     3
  9
$DIMFRAC
 70
     0
  9
$DIMLDRBLK
  1

  9
$DIMLUNIT
 70
     2
  9
$DIMLWD
 70
    -2
  9
$DIMLWE
 70
    -2
  9
$DIMTMOVE
 70
     0
  9
$DIMFXL
 40
1.0
  9
$DIMFXLON
 70
     0
  9
$DIMJOGANG
 40
0.7853981633974483
  9
$DIMTFILL
 70
     0
  9
$DIMTFILLCLR
 70
     0
  9
$DIMARCSYM
 70
     0
  9
$DIMLTYPE
  6

  9
$DIMLTEX1
  6

  9
$DIMLTEX2
  6

  9
$DIMTXTDIRECTION
 70
     0
  9
$LUNITS
 70
     2
  9
$LUPREC
 70
     4
  9
$SKETCHINC
 40
0.1
  9
$FILLETRAD
 40
0.5
  9
$AUNITS
 70
     0
  9
$AUPREC
 70
     0
  9
$MENU
  1
.
  9
$ELEVATION
 40
0.0
  9
$PELEVATION
 40
0.0
  9
$THICKNESS
 40
0.0
  9
$LIMCHECK
 70
     0
  9
$CHAMFERA
 40
0.5
  9
$CHAMFERB
 40
0.5
  9
$CHAMFERC
 40
1.0
  9
$CHAMFERD
 40
0.0
  9
$SKPOLY
 70
     0
  9
$TDCREATE
 40
2457917.610034722
  9
$TDUCREATE
 40
2457917.235034722
  9
$TDUPDATE
 40
2457917.610034722
  9
$TDUUPDATE
 40
2457917.235034722
  9
$TDINDWG
 40
0.0000000116
  9
$TDUSRTIMER
 40
0.0000000116
  9
$USRTIMER
 70
     1
  9
$ANGBASE
 50
0.0
  9
$ANGDIR
 70
     0
  9
$PDMODE
 70
     0
  9
$PDSIZE
 40
0.0
  9
$PLINEWID
 40
0.0
  9
$SPLFRAME
 70
     0
  9
$SPLINETYPE
 70
     6
  9
$SPLINESEGS
 70
     8
  9
$HANDSEED
  5
A1
  9
$SURFTAB1
 70
     6
  9
$SURFTAB2
 70
     6
  9
$SURFTYPE
 70
     6
  9
$SURFU
 70
     6
  9
$SURFV
 70
     6
  9
$UCSBASE
  2

  9
$UCSNAME
  2

  9
$UCSORG
 10
0.0
 20
0.0
 30
0.0
  9
$UCSXDIR
 10
1.0
 20
0.0
 30
0.0
  9
$UCSYDIR
 10
0.0
 20
1.0
 30
0.0
  9
$UCSORTHOREF
  2

  9
$UCSORTHOVIEW
 70
     0
  9
$UCSORGTOP
 10
0.0
 20
0.0
 30
0.0
  9
$UCSORGBOTTOM
 10
0.0
 20
0.0
 30
0.0
  9
$UCSORGLEFT
 10
0.0
 20
0.0
 30
0.0
  9
$UCSORGRIGHT
 10
0.0
 20
0.0
 30
0.0
  9
$UCSORGFRONT
 10
0.0
 20
0.0
 30
0.0
  9
$UCSORGBACK
 10
0.0
 20
0.0
 30
0.0
  9
$PUCSBASE
  2

  9
$PUCSNAME
  2

  9
$PUCSORG
 10
0.0
 20
0.0
 30
0.0
  9
$PUCSXDIR
 10
1.0
 20
0.0
 30
0.0
  9
$PUCSYDIR
 10
0.0
 20
1.0
 30
0.0
  9
$PUCSORTHOREF
  2

  9
$PUCSORTHOVIEW
 70
     0
  9
$PUCSORGTOP
 10
0.0
 20
0.0
 30
0.0
  9
$PUCSORGBOTTOM
 10
0.0
 20
0.0
 30
0.0
  9
$PUCSORGLEFT
 10
0.0
 20
0.0
 30
0.0
  9
$PUCSORGRIGHT
 10
0.0
 20
0.0
 30
0.0
  9
$PUCSORGFRONT
 10
0.0
 20
0.0
 30
0.0
  9
$PUCSORGBACK
 10
0.0
 20
0.0
 30
0.0
  9
$USERI1
 70
     0
  9
$USERI2
 70
     0
  9
$USERI3
 70
     0
  9
$USERI4
 70
     0
  9
$USERI5
 70
     0
  9
$USERR1
 40
0.0
  9
$USERR2
 40
0.0
  9
$USERR3
 40
0.0
  9
$USERR4
 40
0.0
  9
$USERR5
 40
0.0
  9
$WORLDVIEW
 70
     1
  9
$SHADEDGE
 70
     3
  9
$SHADEDIF
 70
    70
  9
$TILEMODE
 70
     1
  9
$MAXACTVP
 70
    64
  9
$PINSBASE
 10
0.0
 20
0.0
 30
0.0
  9
$PLIMCHECK
 70
     0
  9
$PEXTMIN
 10
1.000000000000000E+20
 20
1.000000000000000E+20
 30
1.000000000000000E+20
  9
$PEXTMAX
 10
-1.000000000000000E+20
 20
-1.000000000000000E+20
 30
-1.000000000000000E+20
  9
$PLIMMIN
 10
0.0
 20
0.0
  9
$PLIMMAX
 10
12.0
 20
9.0
  9
$UNITMODE
 70
     0
  9
$VISRETAIN
 70
     1
  9
$PLINEGEN
 70
     0
  9
$PSLTSCALE
 70
     1
  9
$TREEDEPTH
 70
  3020
  9
$CMLSTYLE
  2
Standard
  9
$CMLJUST
 70
     0
  9
$CMLSCALE
 40
1.0
  9
$PROXYGRAPHICS
 70
     1
  9
$MEASUREMENT
 70
     0
  9
$CELWEIGHT
370
    -1
  9
$ENDCAPS
280
     0
  9
$JOINSTYLE
280
     0
  9
$LWDISPLAY
290
     1
  9
$INSUNITS
 70
     1
  9
$HYPERLINKBASE
  1

  9
$STYLESHEET
  1

  9
$XEDIT
290
     1
  9
$CEPSNTYPE
380
     0
  9
$PSTYLEMODE
290
     1
  9
$FINGERPRINTGUID
  2
{91FAC574-610D-A211-EB0C-1F0EB31F36B8}
  9
$VERSIONGUID
  2
{FAEB1C32-E019-11D5-929B-00C0DF256EC4}
  9
$EXTNAMES
290
     1
  9
$PSVPSCALE
 40
0.0
  9
$OLESTARTUP
290
     0
  9
$SORTENTS
280
   127
  9
$INDEXCTL
280
     0
  9
$HIDETEXT
280
     1
  9
$XCLIPFRAME
280
     2
  9
$HALOGAP
280
     0
  9
$OBSCOLOR
 70
   257
  9
$OBSLTYPE
280
     0
  9
$INTERSECTIONDISPLAY
280
     0
  9
$INTERSECTIONCOLOR
 70
   257
  9
$DIMASSOC
280
     2
  9
$PROJECTNAME
  1

  9
$CAMERADISPLAY
290
     0
  9
$LENSLENGTH
 40
50.0
  9
$CAMERAHEIGHT
 40
0.0
  9
$STEPSPERSEC
 40
2.0
  9
$STEPSIZE
 40
6.0
  9
$3DDWFPREC
 40
2.0
  9
$PSOLWIDTH
 40
0.25
  9
$PSOLHEIGHT
 40
4.0
  9
$LOFTANG1
 40
1.570796326794897
  9
$LOFTANG2
 40
1.570796326794897
  9
$LOFTMAG1
 40
0.0
  9
$LOFTMAG2
 40
0.0
  9
$LOFTPARAM
 70
     7
  9
$LOFTNORMALS
280
     1
  9
$LATITUDE
 40
37.795
  9
$LONGITUDE
 40
-122.394
  9
$NORTHDIRECTION
 40
0.0
  9
$TIMEZONE
 70
 -8000
  9
$LIGHTGLYPHDISPLAY
280
     1
  9
$TILEMODELIGHTSYNCH
280
     1
  9
$CMATERIAL
347
3C
  9
$SOLIDHIST
280
     1
  9
$SHOWHIST
280
     1
  9
$DWFFRAME
280
     2
  9
$DGNFRAME
280
     2
  9
$REALWORLDSCALE
290
     1
  9
$INTERFERECOLOR
 62
   256
  9
$CSHADOW
280
     0
  9
$SHADOWPLANELOCATION
 40
0.0
  0
ENDSEC
  0
SECTION
  2
CLASSES
  0
CLASS
  1
ACDBDICTIONARYWDFLT
  2
AcDbDictionaryWithDefault
  3
ObjectDBX Classes
 90
        0
 91
        4
280
     0
281
     0
  0
CLASS
  1
VISUALSTYLE
  2
AcDbVisualStyle
  3
ObjectDBX Classes
 90
     4095
 91
        4
280
     0
281
     0
  0
CLASS
  1
MATERIAL
  2
AcDbMaterial
  3
ObjectDBX Classes
 90
     1153
 91
        4
280
     0
281
     0
  0
CLASS
  1
SUN
  2
AcDbSun
  3
SCENEOE
 90
     1024
 91
        4
280
     0
281
     0
  0
ENDSEC
  0
SECTION
  2
TABLES
  0
TABLE
  2
VPORT
  5
8
330
0
100
AcDbSymbolTable
 70
     1
  0
VPORT
  5
29
330
8
100
AcDbSymbolTableRecord
100
AcDbViewportTableRecord
  2
*Active
 70
     0
 10
0.0
 20
0.0
 11
1.0
 21
1.0
 12
0.0
 22
0.0
 13
0.0
 23
0.0
 14
0.5
 24
0.5
 15
0.5
 25
0.5
 16
0.0
 26
0.0
 36
1.0
 17
91.00082462281999
 27
-128.4993055234307
 37
0.0
 40
256.9986110468615
 41
0.7081814508812795
 42
50.0
 43
0.0
 44
0.0
 50
0.0
 51
0.0
 71
     0
 72
   100
 73
     1
 74
     3
 75
     0
 76
     0
 77
     0
 78
     0
281
     0
 65
     1
110
0.0
120
0.0
130
0.0
111
1.0
121
0.0
131
0.0
112
0.0
122
1.0
132
0.0
 79
     0
146
0.0
 60
     3
 61
     5
292
     1
282
     1
141
0.0
142
0.0
 63
   250
361
3F
  0
ENDTAB
  0
TABLE
  2
LTYPE
  5
5
330
0
100
AcDbSymbolTable
 70
     1
  0
LTYPE
  5
14
330
5
100
AcDbSymbolTableRecord
100
AcDbLinetypeTableRecord
  2
ByBlock
 70
     0
  3

 72
    65
 73
     0
 40
0.0
  0
LTYPE
  5
15
330
5
100
AcDbSymbolTableRecord
100
AcDbLinetypeTableRecord
  2
ByLayer
 70
     0
  3

 72
    65
 73
     0
 40
0.0
  0
LTYPE
  5
16
330
5
100
AcDbSymbolTableRecord
100
AcDbLinetypeTableRecord
  2
Continuous
 70
     0
  3
Solid line
 72
    65
 73
     0
 40
0.0
  0
ENDTAB
  0
TABLE
  2
LAYER
  5
2
330
0
100
AcDbSymbolTable
 70
     2
  0
LAYER
  5
10
330
2
100
AcDbSymbolTableRecord
100
AcDbLayerTableRecord
  2
0
 70
     0
 62
     7
  6
Continuous
370
    -3
390
F
347
3E
  0
LAYER
  5
40
330
2
100
AcDbSymbolTableRecord
100
AcDbLayerTableRecord
  2
_U+30EC_U+30A4_U+30E4_U+30FC 1
 70
     0
 62
     7
  6
Continuous
370
    -3
390
F
347
3E
  0
ENDTAB
  0
TABLE
  2
STYLE
  5
3
330
0
100
AcDbSymbolTable
 70
     1
  0
STYLE
  5
11
330
3
100
AcDbSymbolTableRecord
100
AcDbTextStyleTableRecord
  2
Standard
 70
     0
 40
0.0
 41
1.0
 50
0.0
 71
     0
 42
0.2
  3
txt
  4

  0
ENDTAB
  0
TABLE
  2
VIEW
  5
6
330
0
100
AcDbSymbolTable
 70
     0
  0
ENDTAB
  0
TABLE
  2
UCS
  5
7
330
0
100
AcDbSymbolTable
 70
     0
  0
ENDTAB
  0
TABLE
  2
APPID
  5
9
330
0
100
AcDbSymbolTable
 70
     1
  0
APPID
  5
12
330
9
100
AcDbSymbolTableRecord
100
AcDbRegAppTableRecord
  2
ACAD
 70
     0
  0
ENDTAB
  0
TABLE
  2
DIMSTYLE
  5
A
330
0
100
AcDbSymbolTable
 70
     1
100
AcDbDimStyleTable
  0
DIMSTYLE
105
27
330
A
100
AcDbSymbolTableRecord
100
AcDbDimStyleTableRecord
  2
Standard
 70
     0
178
     0
340
11
  0
ENDTAB
  0
TABLE
  2
BLOCK_RECORD
  5
1
330
0
100
AcDbSymbolTable
 70
     4
  0
BLOCK_RECORD
  5
1F
330
1
100
AcDbSymbolTableRecord
100
AcDbBlockTableRecord
  2
*Model_Space
340
22
 70
     0
280
     1
281
     0
  0
BLOCK_RECORD
  5
1B
330
1
100
AcDbSymbolTableRecord
100
AcDbBlockTableRecord
  2
*Paper_Space
340
1E
 70
     0
280
     1
281
     0
  0
BLOCK_RECORD
  5
23
330
1
100
AcDbSymbolTableRecord
100
AcDbBlockTableRecord
  2
*Paper_Space0
340
26
 70
     0
280
     1
281
     0
  0
BLOCK_RECORD
  5
6F
330
1
100
AcDbSymbolTableRecord
100
AcDbBlockTableRecord
  2
block 2
340
0
102
{BLKREFS
331
70
102
}
 70
     0
280
     1
281
     0
  0
BLOCK_RECORD
  5
83
330
1
100
AcDbSymbolTableRecord
100
AcDbBlockTableRecord
  2
block 3
340
0
102
{BLKREFS
331
84
102
}
 70
     0
280
     1
281
     0
  0
BLOCK_RECORD
  5
93
330
1
100
AcDbSymbolTableRecord
100
AcDbBlockTableRecord
  2
block 4
340
0
102
{BLKREFS
331
94
102
}
 70
     0
280
     1
281
     0
  0
ENDTAB
  0
ENDSEC
  0
SECTION
  2
BLOCKS
  0
BLOCK
  5
20
330
1F
100
AcDbEntity
  8
0
100
AcDbBlockBegin
  2
*Model_Space
 70
     0
 10
0.0
 20
0.0
 30
0.0
  3
*Model_Space
  1

  0
ENDBLK
  5
21
330
1F
100
AcDbEntity
  8
0
100
AcDbBlockEnd
  0
BLOCK
  5
1C
330
1B
100
AcDbEntity
 67
     1
  8
0
100
AcDbBlockBegin
  2
*Paper_Space
 70
     0
 10
0.0
 20
0.0
 30
0.0
  3
*Paper_Space
  1

  0
ENDBLK
  5
1D
330
1B
100
AcDbEntity
 67
     1
  8
0
100
AcDbBlockEnd
  0
BLOCK
  5
24
330
23
100
AcDbEntity
  8
0
100
AcDbBlockBegin
  2
*Paper_Space0
 70
     0
 10
0.0
 20
0.0
 30
0.0
  3
*Paper_Space0
  1

  0
ENDBLK
  5
25
330
23
100
AcDbEntity
  8
0
100
AcDbBlockEnd
  0
BLOCK
  5
71
330
6F
100
AcDbEntity
  8
0
100
AcDbBlockBegin
  2
block 2
 70
     0
 10
0.0
 20
0.0
 30
0.0
  3
block 2
  1

  0
SPLINE
  5
73
330
6F
100
AcDbEntity
  8
_U+30EC_U+30A4_U+30E4_U+30FC 1
370
     0
100
AcDbSpline
210
0.0
220
0.0
230
1.0
 70
    11
 71
     3
 72
    26
 73
    22
 74
     0
 42
0.0000000001
 43
0.0000000001
 12
1.0
 22
0.0
 32
0.0
 13
1.0
 23
0.0
 33
0.0
 40
0.0
 40
0.0
 40
0.0
 40
0.0
 40
1.0
 40
1.0
 40
1.0
 40
2.0
 40
2.0
 40
2.0
 40
3.0
 40
3.0
 40
3.0
 40
4.0
 40
4.0
 40
4.0
 40
5.0
 40
5.0
 40
5.0
 40
6.0
 40
6.0
 40
6.0
 40
7.0
 40
7.0
 40
7.0
 40
7.0
 10
88.71672089795972
 20
-136.4357719928008
 30
0.0
 10
88.71672089795972
 20
-136.4357719928008
 30
0.0
 10
88.71672089795972
 20
-135.3316188897782
 30
0.0
 10
88.71672089795972
 20
-135.3316188897782
 30
0.0
 10
88.71672089795972
 20
-135.3316188897782
 30
0.0
 10
88.38668075047278
 20
-135.3316188897782
 30
0.0
 10
88.38668075047278
 20
-135.3316188897782
 30
0.0
 10
88.38668075047278
 20
-135.3316188897782
 30
0.0
 10
88.38668075047278
 20
-135.1834797839125
 30
0.0
 10
88.38668075047278
 20
-135.1834797839125
 30
0.0
 10
88.71878795525086
 20
-135.1686658733259
 30
0.0
 10
88.76529674430174
 20
-135.0057128568736
 30
0.0
 10
88.79492456547489
 20
-134.8913356867633
 30
0.0
 10
88.79492456547489
 20
-134.8913356867633
 30
0.0
 10
88.94099661404948
 20
-134.8913356867633
 30
0.0
 10
88.94099661404948
 20
-134.8913356867633
 30
0.0
 10
88.94099661404948
 20
-134.8913356867633
 30
0.0
 10
88.94099661404948
 20
-136.4357719928008
 30
0.0
 10
88.94099661404948
 20
-136.4357719928008
 30
0.0
 10
88.94099661404948
 20
-136.4357719928008
 30
0.0
 10
88.71672089795972
 20
-136.4357719928008
 30
0.0
 10
88.71672089795972
 20
-136.4357719928008
 30
0.0
  0
HATCH
  5
74
330
6F
100
AcDbEntity
  8
_U+30EC_U+30A4_U+30E4_U+30FC 1
 62
   179
420
  2234388
100
AcDbHatch
 10
0.0
 20
0.0
 30
0.0
210
0.0
220
0.0
230
1.0
  2
SOLID
 70
     1
 71
     0
 91
        1
 92
        1
 93
        1
 72
     4
 94
        3
 73
     0
 74
     1
 95
       26
 96
       22
 40
0.0
 40
0.0
 40
0.0
 40
0.0
 40
1.0
 40
1.0
 40
1.0
 40
2.0
 40
2.0
 40
2.0
 40
3.0
 40
3.0
 40
3.0
 40
4.0
 40
4.0
 40
4.0
 40
5.0
 40
5.0
 40
5.0
 40
6.0
 40
6.0
 40
6.0
 40
7.0
 40
7.0
 40
7.0
 40
7.0
 10
88.71672089795972
 20
-136.4357719928008
 10
88.71672089795972
 20
-136.4357719928008
 10
88.71672089795972
 20
-135.3316188897782
 10
88.71672089795972
 20
-135.3316188897782
 10
88.71672089795972
 20
-135.3316188897782
 10
88.38668075047278
 20
-135.3316188897782
 10
88.38668075047278
 20
-135.3316188897782
 10
88.38668075047278
 20
-135.3316188897782
 10
88.38668075047278
 20
-135.1834797839125
 10
88.38668075047278
 20
-135.1834797839125
 10
88.71878795525086
 20
-135.1686658733259
 10
88.76529674430174
 20
-135.0057128568736
 10
88.79492456547489
 20
-134.8913356867633
 10
88.79492456547489
 20
-134.8913356867633
 10
88.94099661404948
 20
-134.8913356867633
 10
88.94099661404948
 20
-134.8913356867633
 10
88.94099661404948
 20
-134.8913356867633
 10
88.94099661404948
 20
-136.4357719928008
 10
88.94099661404948
 20
-136.4357719928008
 10
88.94099661404948
 20
-136.4357719928008
 10
88.71672089795972
 20
-136.4357719928008
 10
88.71672089795972
 20
-136.4357719928008
 97
        0
 97
        0
 75
     2
 76
     1
 98
        0
  0
SPLINE
  5
75
330
6F
100
AcDbEntity
  8
_U+30EC_U+30A4_U+30E4_U+30FC 1
370
     0
100
AcDbSpline
210
0.0
220
0.0
230
1.0
 70
    11
 71
     3
 72
    53
 73
    49
 74
     0
 42
0.0000000001
 43
0.0000000001
 12
1.0
 22
0.0
 32
0.0
 13
1.0
 23
0.0
 33
0.0
 40
0.0
 40
0.0
 40
0.0
 40
0.0
 40
1.0
 40
1.0
 40
1.0
 40
2.0
 40
2.0
 40
2.0
 40
3.0
 40
3.0
 40
3.0
 40
4.0
 40
4.0
 40
4.0
 40
5.0
 40
5.0
 40
5.0
 40
6.0
 40
6.0
 40
6.0
 40
7.0
 40
7.0
 40
7.0
 40
8.0
 40
8.0
 40
8.0
 40
9.0
 40
9.0
 40
9.0
 40
10.0
 40
10.0
 40
10.0
 40
11.0
 40
11.0
 40
11.0
 40
12.0
 40
12.0
 40
12.0
 40
13.0
 40
13.0
 40
13.0
 40
14.0
 40
14.0
 40
14.0
 40
15.0
 40
15.0
 40
15.0
 40
16.0
 40
16.0
 40
16.0
 40
16.0
 10
89.9231933368942
 20
-136.486414896434
 30
0.0
 10
89.84498966937903
 20
-136.486414896434
 30
0.0
 10
89.74335935256417
 20
-136.4695339285562
 30
0.0
 10
89.6417290357493
 20
-136.4061441716276
 30
0.0
 10
89.46826847806696
 20
-136.2962456256482
 30
0.0
 10
89.44708114083268
 20
-136.1649874876601
 30
0.0
 10
89.4281331156638
 20
-136.0571559989718
 30
0.0
 10
89.4281331156638
 20
-136.0571559989718
 30
0.0
 10
89.65034177446242
 20
-136.0571559989718
 30
0.0
 10
89.65034177446242
 20
-136.0571559989718
 30
0.0
 10
89.7051187926779
 20
-136.2559380084707
 30
0.0
 10
89.8322428160836
 20
-136.2855658296439
 30
0.0
 10
89.92526039418536
 20
-136.2855658296439
 30
0.0
 10
90.06478676133797
 20
-136.2855658296439
 30
0.0
 10
90.21705998178602
 20
-136.1860025701202
 30
0.0
 10
90.21705998178602
 20
-135.9534586248658
 30
0.0
 10
90.21705998178602
 20
-135.6974880303117
 30
0.0
 10
90.03722599745598
 20
-135.6275525919612
 30
0.0
 10
89.91664765547223
 20
-135.6275525919612
 30
0.0
 10
89.88495277700794
 20
-135.6275525919612
 30
0.0
 10
89.74335935256417
 20
-135.6275525919612
 30
0.0
 10
89.65447588904472
 20
-135.756743672658
 30
0.0
 10
89.65447588904472
 20
-135.756743672658
 30
0.0
 10
89.47894827407124
 20
-135.7377956474892
 30
0.0
 10
89.47894827407124
 20
-135.7377956474892
 30
0.0
 10
89.47894827407124
 20
-135.7377956474892
 30
0.0
 10
89.59935436128072
 20
-134.8913356867633
 30
0.0
 10
89.59935436128072
 20
-134.8913356867633
 30
0.0
 10
89.59935436128072
 20
-134.8913356867633
 30
0.0
 10
90.37794594094719
 20
-134.8913356867633
 30
0.0
 10
90.37794594094719
 20
-134.8913356867633
 30
0.0
 10
90.37794594094719
 20
-134.8913356867633
 30
0.0
 10
90.37794594094719
 20
-135.0859835816799
 30
0.0
 10
90.37794594094719
 20
-135.0859835816799
 30
0.0
 10
90.37794594094719
 20
-135.0859835816799
 30
0.0
 10
89.76230737773304
 20
-135.0859835816799
 30
0.0
 10
89.76230737773304
 20
-135.0859835816799
 30
0.0
 10
89.76230737773304
 20
-135.0859835816799
 30
0.0
 10
89.6968505635133
 20
-135.5090413072686
 30
0.0
 10
89.6968505635133
 20
-135.5090413072686
 30
0.0
 10
89.75817326315074
 20
-135.4752793715131
 30
0.0
 10
89.8405110452482
 20
-135.4349717543357
 30
0.0
 10
89.95902232994081
 20
-135.4349717543357
 30
0.0
 10
90.21292586720372
 20
-135.4349717543357
 30
0.0
 10
90.44994843658891
 20
-135.6213514200877
 30
0.0
 10
90.44994843658891
 20
-135.9345105996969
 30
0.0
 10
90.44994843658891
 20
-136.2518038938885
 30
0.0
 10
90.22567272049915
 20
-136.486414896434
 30
0.0
 10
89.9231933368942
 20
-136.486414896434
 30
0.0
  0
HATCH
  5
76
330
6F
100
AcDbEntity
  8
_U+30EC_U+30A4_U+30E4_U+30FC 1
 62
   179
420
  2234388
100
AcDbHatch
 10
0.0
 20
0.0
 30
0.0
210
0.0
220
0.0
230
1.0
  2
SOLID
 70
     1
 71
     0
 91
        1
 92
        1
 93
        1
 72
     4
 94
        3
 73
     0
 74
     1
 95
       53
 96
       49
 40
0.0
 40
0.0
 40
0.0
 40
0.0
 40
1.0
 40
1.0
 40
1.0
 40
2.0
 40
2.0
 40
2.0
 40
3.0
 40
3.0
 40
3.0
 40
4.0
 40
4.0
 40
4.0
 40
5.0
 40
5.0
 40
5.0
 40
6.0
 40
6.0
 40
6.0
 40
7.0
 40
7.0
 40
7.0
 40
8.0
 40
8.0
 40
8.0
 40
9.0
 40
9.0
 40
9.0
 40
10.0
 40
10.0
 40
10.0
 40
11.0
 40
11.0
 40
11.0
 40
12.0
 40
12.0
 40
12.0
 40
13.0
 40
13.0
 40
13.0
 40
14.0
 40
14.0
 40
14.0
 40
15.0
 40
15.0
 40
15.0
 40
16.0
 40
16.0
 40
16.0
 40
16.0
 10
89.9231933368942
 20
-136.486414896434
 10
89.84498966937903
 20
-136.486414896434
 10
89.74335935256417
 20
-136.4695339285562
 10
89.6417290357493
 20
-136.4061441716276
 10
89.46826847806696
 20
-136.2962456256482
 10
89.44708114083268
 20
-136.1649874876601
 10
89.4281331156638
 20
-136.0571559989718
 10
89.4281331156638
 20
-136.0571559989718
 10
89.65034177446242
 20
-136.0571559989718
 10
89.65034177446242
 20
-136.0571559989718
 10
89.7051187926779
 20
-136.2559380084707
 10
89.8322428160836
 20
-136.2855658296439
 10
89.92526039418536
 20
-136.2855658296439
 10
90.06478676133797
 20
-136.2855658296439
 10
90.21705998178602
 20
-136.1860025701202
 10
90.21705998178602
 20
-135.9534586248658
 10
90.21705998178602
 20
-135.6974880303117
 10
90.03722599745598
 20
-135.6275525919612
 10
89.91664765547223
 20
-135.6275525919612
 10
89.88495277700794
 20
-135.6275525919612
 10
89.74335935256417
 20
-135.6275525919612
 10
89.65447588904472
 20
-135.756743672658
 10
89.65447588904472
 20
-135.756743672658
 10
89.47894827407124
 20
-135.7377956474892
 10
89.47894827407124
 20
-135.7377956474892
 10
89.47894827407124
 20
-135.7377956474892
 10
89.59935436128072
 20
-134.8913356867633
 10
89.59935436128072
 20
-134.8913356867633
 10
89.59935436128072
 20
-134.8913356867633
 10
90.37794594094719
 20
-134.8913356867633
 10
90.37794594094719
 20
-134.8913356867633
 10
90.37794594094719
 20
-134.8913356867633
 10
90.37794594094719
 20
-135.0859835816799
 10
90.37794594094719
 20
-135.0859835816799
 10
90.37794594094719
 20
-135.0859835816799
 10
89.76230737773304
 20
-135.0859835816799
 10
89.76230737773304
 20
-135.0859835816799
 10
89.76230737773304
 20
-135.0859835816799
 10
89.6968505635133
 20
-135.5090413072686
 10
89.6968505635133
 20
-135.5090413072686
 10
89.75817326315074
 20
-135.4752793715131
 10
89.8405110452482
 20
-135.4349717543357
 10
89.95902232994081
 20
-135.4349717543357
 10
90.21292586720372
 20
-135.4349717543357
 10
90.44994843658891
 20
-135.6213514200877
 10
90.44994843658891
 20
-135.9345105996969
 10
90.44994843658891
 20
-136.2518038938885
 10
90.22567272049915
 20
-136.486414896434
 10
89.9231933368942
 20
-136.486414896434
 97
        0
 97
        0
 75
     2
 76
     1
 98
        0
  0
ENDBLK
  5
72
330
6F
100
AcDbEntity
  8
0
100
AcDbBlockEnd
  0
BLOCK
  5
85
330
83
100
AcDbEntity
  8
0
100
AcDbBlockBegin
  2
block 3
 70
     0
 10
0.0
 20
0.0
 30
0.0
  3
block 3
  1

  0
SPLINE
  5
87
330
83
100
AcDbEntity
  8
_U+30EC_U+30A4_U+30E4_U+30FC 1
370
     0
100
AcDbSpline
210
0.0
220
0.0
230
1.0
 70
    11
 71
     3
 72
    26
 73
    22
 74
     0
 42
0.0000000001
 43
0.0000000001
 12
1.0
 22
0.0
 32
0.0
 13
1.0
 23
0.0
 33
0.0
 40
0.0
 40
0.0
 40
0.0
 40
0.0
 40
1.0
 40
1.0
 40
1.0
 40
2.0
 40
2.0
 40
2.0
 40
3.0
 40
3.0
 40
3.0
 40
4.0
 40
4.0
 40
4.0
 40
5.0
 40
5.0
 40
5.0
 40
6.0
 40
6.0
 40
6.0
 40
7.0
 40
7.0
 40
7.0
 40
7.0
 10
100.2081813985591
 20
-126.2189968217439
 30
0.0
 10
100.2081813985591
 20
-126.2189968217439
 30
0.0
 10
99.1040282955365
 20
-126.2189968217439
 30
0.0
 10
99.1040282955365
 20
-126.2189968217439
 30
0.0
 10
99.1040282955365
 20
-126.2189968217439
 30
0.0
 10
99.1040282955365
 20
-126.5490369692308
 30
0.0
 10
99.1040282955365
 20
-126.5490369692308
 30
0.0
 10
99.1040282955365
 20
-126.5490369692308
 30
0.0
 10
98.95588918967076
 20
-126.5490369692308
 30
0.0
 10
98.95588918967076
 20
-126.5490369692308
 30
0.0
 10
98.94107527908417
 20
-126.2169297644527
 30
0.0
 10
98.77812226263187
 20
-126.1704209754018
 30
0.0
 10
98.66374509252157
 20
-126.1407931542287
 30
0.0
 10
98.66374509252157
 20
-126.1407931542287
 30
0.0
 10
98.66374509252157
 20
-125.9947211056541
 30
0.0
 10
98.66374509252157
 20
-125.9947211056541
 30
0.0
 10
98.66374509252157
 20
-125.9947211056541
 30
0.0
 10
100.2081813985591
 20
-125.9947211056541
 30
0.0
 10
100.2081813985591
 20
-125.9947211056541
 30
0.0
 10
100.2081813985591
 20
-125.9947211056541
 30
0.0
 10
100.2081813985591
 20
-126.2189968217439
 30
0.0
 10
100.2081813985591
 20
-126.2189968217439
 30
0.0
  0
HATCH
  5
88
330
83
100
AcDbEntity
  8
_U+30EC_U+30A4_U+30E4_U+30FC 1
 62
   179
420
  2234388
100
AcDbHatch
 10
0.0
 20
0.0
 30
0.0
210
0.0
220
0.0
230
1.0
  2
SOLID
 70
     1
 71
     0
 91
        1
 92
        1
 93
        1
 72
     4
 94
        3
 73
     0
 74
     1
 95
       26
 96
       22
 40
0.0
 40
0.0
 40
0.0
 40
0.0
 40
1.0
 40
1.0
 40
1.0
 40
2.0
 40
2.0
 40
2.0
 40
3.0
 40
3.0
 40
3.0
 40
4.0
 40
4.0
 40
4.0
 40
5.0
 40
5.0
 40
5.0
 40
6.0
 40
6.0
 40
6.0
 40
7.0
 40
7.0
 40
7.0
 40
7.0
 10
100.2081813985591
 20
-126.2189968217439
 10
100.2081813985591
 20
-126.2189968217439
 10
99.1040282955365
 20
-126.2189968217439
 10
99.1040282955365
 20
-126.2189968217439
 10
99.1040282955365
 20
-126.2189968217439
 10
99.1040282955365
 20
-126.5490369692308
 10
99.1040282955365
 20
-126.5490369692308
 10
99.1040282955365
 20
-126.5490369692308
 10
98.95588918967076
 20
-126.5490369692308
 10
98.95588918967076
 20
-126.5490369692308
 10
98.94107527908417
 20
-126.2169297644527
 10
98.77812226263187
 20
-126.1704209754018
 10
98.66374509252157
 20
-126.1407931542287
 10
98.66374509252157
 20
-126.1407931542287
 10
98.66374509252157
 20
-125.9947211056541
 10
98.66374509252157
 20
-125.9947211056541
 10
98.66374509252157
 20
-125.9947211056541
 10
100.2081813985591
 20
-125.9947211056541
 10
100.2081813985591
 20
-125.9947211056541
 10
100.2081813985591
 20
-125.9947211056541
 10
100.2081813985591
 20
-126.2189968217439
 10
100.2081813985591
 20
-126.2189968217439
 97
        0
 97
        0
 75
     2
 76
     1
 98
        0
  0
SPLINE
  5
89
330
83
100
AcDbEntity
  8
_U+30EC_U+30A4_U+30E4_U+30FC 1
370
     0
100
AcDbSpline
210
0.0
220
0.0
230
1.0
 70
    11
 71
     3
 72
    53
 73
    49
 74
     0
 42
0.0000000001
 43
0.0000000001
 12
1.0
 22
0.0
 32
0.0
 13
1.0
 23
0.0
 33
0.0
 40
0.0
 40
0.0
 40
0.0
 40
0.0
 40
1.0
 40
1.0
 40
1.0
 40
2.0
 40
2.0
 40
2.0
 40
3.0
 40
3.0
 40
3.0
 40
4.0
 40
4.0
 40
4.0
 40
5.0
 40
5.0
 40
5.0
 40
6.0
 40
6.0
 40
6.0
 40
7.0
 40
7.0
 40
7.0
 40
8.0
 40
8.0
 40
8.0
 40
9.0
 40
9.0
 40
9.0
 40
10.0
 40
10.0
 40
10.0
 40
11.0
 40
11.0
 40
11.0
 40
12.0
 40
12.0
 40
12.0
 40
13.0
 40
13.0
 40
13.0
 40
14.0
 40
14.0
 40
14.0
 40
15.0
 40
15.0
 40
15.0
 40
16.0
 40
16.0
 40
16.0
 40
16.0
 10
100.2588243021922
 20
-125.0125243828094
 30
0.0
 10
100.2588243021922
 20
-125.0907280503245
 30
0.0
 10
100.2419433343145
 20
-125.1923583671394
 30
0.0
 10
100.1785535773859
 20
-125.2939886839543
 30
0.0
 10
100.0686550314065
 20
-125.4672769868624
 30
0.0
 10
99.93739689341844
 20
-125.4886365788709
 30
0.0
 10
99.82956540473012
 20
-125.5075846040398
 30
0.0
 10
99.82956540473012
 20
-125.5075846040398
 30
0.0
 10
99.82956540473012
 20
-125.2853759452412
 30
0.0
 10
99.82956540473012
 20
-125.2853759452412
 30
0.0
 10
100.028347414229
 20
-125.2305989270257
 30
0.0
 10
100.0579752354022
 20
-125.10347490362
 30
0.0
 10
100.0579752354022
 20
-125.0104573255182
 30
0.0
 10
100.0579752354022
 20
-124.8709309583656
 30
0.0
 10
99.95841197587846
 20
-124.7186577379176
 30
0.0
 10
99.7258680306241
 20
-124.7186577379176
 30
0.0
 10
99.46989743607003
 20
-124.7186577379176
 30
0.0
 10
99.39996199771946
 20
-124.8984917222476
 30
0.0
 10
99.39996199771946
 20
-125.0190700642313
 30
0.0
 10
99.39996199771946
 20
-125.0507649426957
 30
0.0
 10
99.39996199771946
 20
-125.1923583671394
 30
0.0
 10
99.52915307841633
 20
-125.2812418306589
 30
0.0
 10
99.52915307841633
 20
-125.2812418306589
 30
0.0
 10
99.51020505324745
 20
-125.4569417004066
 30
0.0
 10
99.51020505324745
 20
-125.4569417004066
 30
0.0
 10
99.51020505324745
 20
-125.4569417004066
 30
0.0
 10
98.66374509252157
 20
-125.3363633584229
 30
0.0
 10
98.66374509252157
 20
-125.3363633584229
 30
0.0
 10
98.66374509252157
 20
-125.3363633584229
 30
0.0
 10
98.66374509252157
 20
-124.5577717787564
 30
0.0
 10
98.66374509252157
 20
-124.5577717787564
 30
0.0
 10
98.66374509252157
 20
-124.5577717787564
 30
0.0
 10
98.85839298743818
 20
-124.5577717787564
 30
0.0
 10
98.85839298743818
 20
-124.5577717787564
 30
0.0
 10
98.85839298743818
 20
-124.5577717787564
 30
0.0
 10
98.85839298743818
 20
-125.1734103419705
 30
0.0
 10
98.85839298743818
 20
-125.1734103419705
 30
0.0
 10
98.85839298743818
 20
-125.1734103419705
 30
0.0
 10
99.28145071302687
 20
-125.2388671561903
 30
0.0
 10
99.28145071302687
 20
-125.2388671561903
 30
0.0
 10
99.24768877727142
 20
-125.1775444565528
 30
0.0
 10
99.20738116009399
 20
-125.0952066744554
 30
0.0
 10
99.20738116009399
 20
-124.9766953897628
 30
0.0
 10
99.20738116009399
 20
-124.7227918524999
 30
0.0
 10
99.393760825846
 20
-124.4857692831147
 30
0.0
 10
99.70692000545522
 20
-124.4857692831147
 30
0.0
 10
100.0242132996467
 20
-124.4857692831147
 30
0.0
 10
100.2588243021922
 20
-124.7100449992044
 30
0.0
 10
100.2588243021922
 20
-125.0125243828094
 30
0.0
  0
HATCH
  5
8A
330
83
100
AcDbEntity
  8
_U+30EC_U+30A4_U+30E4_U+30FC 1
 62
   179
420
  2234388
100
AcDbHatch
 10
0.0
 20
0.0
 30
0.0
210
0.0
220
0.0
230
1.0
  2
SOLID
 70
     1
 71
     0
 91
        1
 92
        1
 93
        1
 72
     4
 94
        3
 73
     0
 74
     1
 95
       53
 96
       49
 40
0.0
 40
0.0
 40
0.0
 40
0.0
 40
1.0
 40
1.0
 40
1.0
 40
2.0
 40
2.0
 40
2.0
 40
3.0
 40
3.0
 40
3.0
 40
4.0
 40
4.0
 40
4.0
 40
5.0
 40
5.0
 40
5.0
 40
6.0
 40
6.0
 40
6.0
 40
7.0
 40
7.0
 40
7.0
 40
8.0
 40
8.0
 40
8.0
 40
9.0
 40
9.0
 40
9.0
 40
10.0
 40
10.0
 40
10.0
 40
11.0
 40
11.0
 40
11.0
 40
12.0
 40
12.0
 40
12.0
 40
13.0
 40
13.0
 40
13.0
 40
14.0
 40
14.0
 40
14.0
 40
15.0
 40
15.0
 40
15.0
 40
16.0
 40
16.0
 40
16.0
 40
16.0
 10
100.2588243021922
 20
-125.0125243828094
 10
100.2588243021922
 20
-125.0907280503245
 10
100.2419433343145
 20
-125.1923583671394
 10
100.1785535773859
 20
-125.2939886839543
 10
100.0686550314065
 20
-125.4672769868624
 10
99.93739689341844
 20
-125.4886365788709
 10
99.82956540473012
 20
-125.5075846040398
 10
99.82956540473012
 20
-125.5075846040398
 10
99.82956540473012
 20
-125.2853759452412
 10
99.82956540473012
 20
-125.2853759452412
 10
100.028347414229
 20
-125.2305989270257
 10
100.0579752354022
 20
-125.10347490362
 10
100.0579752354022
 20
-125.0104573255182
 10
100.0579752354022
 20
-124.8709309583656
 10
99.95841197587846
 20
-124.7186577379176
 10
99.7258680306241
 20
-124.7186577379176
 10
99.46989743607003
 20
-124.7186577379176
 10
99.39996199771946
 20
-124.8984917222476
 10
99.39996199771946
 20
-125.0190700642313
 10
99.39996199771946
 20
-125.0507649426957
 10
99.39996199771946
 20
-125.1923583671394
 10
99.52915307841633
 20
-125.2812418306589
 10
99.52915307841633
 20
-125.2812418306589
 10
99.51020505324745
 20
-125.4569417004066
 10
99.51020505324745
 20
-125.4569417004066
 10
99.51020505324745
 20
-125.4569417004066
 10
98.66374509252157
 20
-125.3363633584229
 10
98.66374509252157
 20
-125.3363633584229
 10
98.66374509252157
 20
-125.3363633584229
 10
98.66374509252157
 20
-124.5577717787564
 10
98.66374509252157
 20
-124.5577717787564
 10
98.66374509252157
 20
-124.5577717787564
 10
98.85839298743818
 20
-124.5577717787564
 10
98.85839298743818
 20
-124.5577717787564
 10
98.85839298743818
 20
-124.5577717787564
 10
98.85839298743818
 20
-125.1734103419705
 10
98.85839298743818
 20
-125.1734103419705
 10
98.85839298743818
 20
-125.1734103419705
 10
99.28145071302687
 20
-125.2388671561903
 10
99.28145071302687
 20
-125.2388671561903
 10
99.24768877727142
 20
-125.1775444565528
 10
99.20738116009399
 20
-125.0952066744554
 10
99.20738116009399
 20
-124.9766953897628
 10
99.20738116009399
 20
-124.7227918524999
 10
99.393760825846
 20
-124.4857692831147
 10
99.70692000545522
 20
-124.4857692831147
 10
100.0242132996467
 20
-124.4857692831147
 10
100.2588243021922
 20
-124.7100449992044
 10
100.2588243021922
 20
-125.0125243828094
 97
        0
 97
        0
 75
     2
 76
     1
 98
        0
  0
ENDBLK
  5
86
330
83
100
AcDbEntity
  8
0
100
AcDbBlockEnd
  0
BLOCK
  5
95
330
93
100
AcDbEntity
  8
0
100
AcDbBlockBegin
  2
block 4
 70
     0
 10
0.0
 20
0.0
 30
0.0
  3
block 4
  1

  0
SPLINE
  5
97
330
93
100
AcDbEntity
  8
_U+30EC_U+30A4_U+30E4_U+30FC 1
370
     0
100
AcDbSpline
210
0.0
220
0.0
230
1.0
 70
    11
 71
     3
 72
    44
 73
    40
 74
     0
 42
0.0000000001
 43
0.0000000001
 12
1.0
 22
0.0
 32
0.0
 13
1.0
 23
0.0
 33
0.0
 40
0.0
 40
0.0
 40
0.0
 40
0.0
 40
1.0
 40
1.0
 40
1.0
 40
2.0
 40
2.0
 40
2.0
 40
3.0
 40
3.0
 40
3.0
 40
4.0
 40
4.0
 40
4.0
 40
5.0
 40
5.0
 40
5.0
 40
6.0
 40
6.0
 40
6.0
 40
7.0
 40
7.0
 40
7.0
 40
8.0
 40
8.0
 40
8.0
 40
9.0
 40
9.0
 40
9.0
 40
10.0
 40
10.0
 40
10.0
 40
11.0
 40
11.0
 40
11.0
 40
12.0
 40
12.0
 40
12.0
 40
13.0
 40
13.0
 40
13.0
 40
13.0
 10
83.12274710378529
 20
-121.9265801018968
 30
0.0
 10
82.90484481434324
 20
-122.0852267489926
 30
0.0
 10
82.81165498146723
 20
-122.1592963019255
 30
0.0
 10
82.76307913512521
 20
-122.3031290384346
 30
0.0
 10
82.76307913512521
 20
-122.3031290384346
 30
0.0
 10
83.54149846001741
 20
-122.3031290384346
 30
0.0
 10
83.54149846001741
 20
-122.3031290384346
 30
0.0
 10
83.54149846001741
 20
-122.3031290384346
 30
0.0
 10
83.54149846001741
 20
-122.5082844745813
 30
0.0
 10
83.54149846001741
 20
-122.5082844745813
 30
0.0
 10
83.54149846001741
 20
-122.5082844745813
 30
0.0
 10
82.51348196721885
 20
-122.5082844745813
 30
0.0
 10
82.51348196721885
 20
-122.5082844745813
 30
0.0
 10
82.54517684568316
 20
-122.1506835632123
 30
0.0
 10
82.6106336599029
 20
-122.0724798956972
 30
0.0
 10
82.99579533515383
 20
-121.7741346266745
 30
0.0
 10
83.2517659297079
 20
-121.5753526171756
 30
0.0
 10
83.31722274392764
 20
-121.5076564908905
 30
0.0
 10
83.31722274392764
 20
-121.370197181029
 30
0.0
 10
83.31722274392764
 20
-121.2516858963364
 30
0.0
 10
83.24539250306019
 20
-121.1206000131226
 30
0.0
 10
83.04867755085242
 20
-121.1206000131226
 30
0.0
 10
82.78840058694179
 20
-121.1206000131226
 30
0.0
 10
82.77996010300294
 20
-121.3510769010858
 30
0.0
 10
82.77565373364637
 20
-121.4675211284873
 30
0.0
 10
82.77565373364637
 20
-121.4675211284873
 30
0.0
 10
82.55155027233087
 20
-121.4675211284873
 30
0.0
 10
82.55155027233087
 20
-121.4675211284873
 30
0.0
 10
82.55999075626973
 20
-121.3405693598558
 30
0.0
 10
82.57049829749974
 20
-121.228431501811
 30
0.0
 10
82.65094127708032
 20
-121.1099202171184
 30
0.0
 10
82.7608398230598
 20
-120.9492065127315
 30
0.0
 10
82.94704723403754
 20
-120.9152723222017
 30
0.0
 10
83.06349146143899
 20
-120.9152723222017
 30
0.0
 10
83.34064939322734
 20
-120.9152723222017
 30
0.0
 10
83.54787188666512
 20
-121.0994126758883
 30
0.0
 10
83.54787188666512
 20
-121.3722642383201
 30
0.0
 10
83.54787188666512
 20
-121.6006740689922
 30
0.0
 10
83.43159991403793
 20
-121.7002373285159
 30
0.0
 10
83.12274710378529
 20
-121.9265801018968
 30
0.0
  0
HATCH
  5
98
330
93
100
AcDbEntity
  8
_U+30EC_U+30A4_U+30E4_U+30FC 1
 62
   179
420
  2234388
100
AcDbHatch
 10
0.0
 20
0.0
 30
0.0
210
0.0
220
0.0
230
1.0
  2
SOLID
 70
     1
 71
     0
 91
        1
 92
        1
 93
        1
 72
     4
 94
        3
 73
     0
 74
     1
 95
       44
 96
       40
 40
0.0
 40
0.0
 40
0.0
 40
0.0
 40
1.0
 40
1.0
 40
1.0
 40
2.0
 40
2.0
 40
2.0
 40
3.0
 40
3.0
 40
3.0
 40
4.0
 40
4.0
 40
4.0
 40
5.0
 40
5.0
 40
5.0
 40
6.0
 40
6.0
 40
6.0
 40
7.0
 40
7.0
 40
7.0
 40
8.0
 40
8.0
 40
8.0
 40
9.0
 40
9.0
 40
9.0
 40
10.0
 40
10.0
 40
10.0
 40
11.0
 40
11.0
 40
11.0
 40
12.0
 40
12.0
 40
12.0
 40
13.0
 40
13.0
 40
13.0
 40
13.0
 10
83.12274710378529
 20
-121.9265801018968
 10
82.90484481434324
 20
-122.0852267489926
 10
82.81165498146723
 20
-122.1592963019255
 10
82.76307913512521
 20
-122.3031290384346
 10
82.76307913512521
 20
-122.3031290384346
 10
83.54149846001741
 20
-122.3031290384346
 10
83.54149846001741
 20
-122.3031290384346
 10
83.54149846001741
 20
-122.3031290384346
 10
83.54149846001741
 20
-122.5082844745813
 10
83.54149846001741
 20
-122.5082844745813
 10
83.54149846001741
 20
-122.5082844745813
 10
82.51348196721885
 20
-122.5082844745813
 10
82.51348196721885
 20
-122.5082844745813
 10
82.54517684568316
 20
-122.1506835632123
 10
82.6106336599029
 20
-122.0724798956972
 10
82.99579533515383
 20
-121.7741346266745
 10
83.2517659297079
 20
-121.5753526171756
 10
83.31722274392764
 20
-121.5076564908905
 10
83.31722274392764
 20
-121.370197181029
 10
83.31722274392764
 20
-121.2516858963364
 10
83.24539250306019
 20
-121.1206000131226
 10
83.04867755085242
 20
-121.1206000131226
 10
82.78840058694179
 20
-121.1206000131226
 10
82.77996010300294
 20
-121.3510769010858
 10
82.77565373364637
 20
-121.4675211284873
 10
82.77565373364637
 20
-121.4675211284873
 10
82.55155027233087
 20
-121.4675211284873
 10
82.55155027233087
 20
-121.4675211284873
 10
82.55999075626973
 20
-121.3405693598558
 10
82.57049829749974
 20
-121.228431501811
 10
82.65094127708032
 20
-121.1099202171184
 10
82.7608398230598
 20
-120.9492065127315
 10
82.94704723403754
 20
-120.9152723222017
 10
83.06349146143899
 20
-120.9152723222017
 10
83.34064939322734
 20
-120.9152723222017
 10
83.54787188666512
 20
-121.0994126758883
 10
83.54787188666512
 20
-121.3722642383201
 10
83.54787188666512
 20
-121.6006740689922
 10
83.43159991403793
 20
-121.7002373285159
 10
83.12274710378529
 20
-121.9265801018968
 97
        0
 97
        0
 75
     2
 76
     1
 98
        0
  0
SPLINE
  5
99
330
93
100
AcDbEntity
  8
_U+30EC_U+30A4_U+30E4_U+30FC 1
370
     0
100
AcDbSpline
210
0.0
220
0.0
230
1.0
 70
    11
 71
     3
 72
    29
 73
    25
 74
     0
 42
0.0000000001
 43
0.0000000001
 12
1.0
 22
0.0
 32
0.0
 13
1.0
 23
0.0
 33
0.0
 40
0.0
 40
0.0
 40
0.0
 40
0.0
 40
1.0
 40
1.0
 40
1.0
 40
2.0
 40
2.0
 40
2.0
 40
3.0
 40
3.0
 40
3.0
 40
4.0
 40
4.0
 40
4.0
 40
5.0
 40
5.0
 40
5.0
 40
6.0
 40
6.0
 40
6.0
 40
7.0
 40
7.0
 40
7.0
 40
8.0
 40
8.0
 40
8.0
 40
8.0
 10
84.60413816244272
 20
-122.3305175475424
 30
0.0
 10
84.4963066737544
 20
-122.5399793530456
 30
0.0
 10
84.32284611607207
 20
-122.5590996329887
 30
0.0
 10
84.20640188867063
 20
-122.5590996329887
 30
0.0
 10
84.04568818428372
 20
-122.5590996329887
 30
0.0
 10
83.9039225050657
 20
-122.5125908439378
 30
0.0
 10
83.80866561489853
 20
-122.3305175475424
 30
0.0
 10
83.70514049556678
 20
-122.1358696526258
 30
0.0
 10
83.68602021562364
 20
-121.8990193380148
 30
0.0
 10
83.68602021562364
 20
-121.7360663215625
 30
0.0
 10
83.68602021562364
 20
-121.5922335850533
 30
0.0
 10
83.70290118350137
 20
-121.3405693598558
 30
0.0
 10
83.80866561489853
 20
-121.1416150955827
 30
0.0
 10
83.91666935836112
 20
-120.9385267167272
 30
0.0
 10
84.07738306274801
 20
-120.9152723222017
 30
0.0
 10
84.20640188867063
 20
-120.9152723222017
 30
0.0
 10
84.36504853576638
 20
-120.9152723222017
 30
0.0
 10
84.50888127227556
 20
-120.9597140539615
 30
0.0
 10
84.60413816244272
 20
-121.1416150955827
 30
0.0
 10
84.70352916719217
 20
-121.3341959332081
 30
0.0
 10
84.72678356171761
 20
-121.5626057638802
 30
0.0
 10
84.72678356171761
 20
-121.7360663215625
 30
0.0
 10
84.72678356171761
 20
-121.9074598219537
 30
0.0
 10
84.70576847925759
 20
-122.1381089646912
 30
0.0
 10
84.60413816244272
 20
-122.3305175475424
 30
0.0
  0
SPLINE
  5
9A
330
93
100
AcDbEntity
  8
_U+30EC_U+30A4_U+30E4_U+30FC 1
370
     0
100
AcDbSpline
210
0.0
220
0.0
230
1.0
 70
    11
 71
     3
 72
    17
 73
    13
 74
     0
 42
0.0000000001
 43
0.0000000001
 12
1.0
 22
0.0
 32
0.0
 13
1.0
 23
0.0
 33
0.0
 40
0.0
 40
0.0
 40
0.0
 40
0.0
 40
1.0
 40
1.0
 40
1.0
 40
2.0
 40
2.0
 40
2.0
 40
3.0
 40
3.0
 40
3.0
 40
4.0
 40
4.0
 40
4.0
 40
4.0
 10
84.20640188867063
 20
-121.1078531598272
 30
0.0
 10
83.95680472076427
 20
-121.1078531598272
 30
0.0
 10
83.9102959317134
 20
-121.3913845182633
 30
0.0
 10
83.9102959317134
 20
-121.7360663215625
 30
0.0
 10
83.9102959317134
 20
-122.0555989278194
 30
0.0
 10
83.94629717953427
 20
-122.3644517380721
 30
0.0
 10
84.20640188867063
 20
-122.3644517380721
 30
0.0
 10
84.45393199928583
 20
-122.3644517380721
 30
0.0
 10
84.50268010040212
 20
-122.0829874369272
 30
0.0
 10
84.50268010040212
 20
-121.7360663215625
 30
0.0
 10
84.50268010040212
 20
-121.4167059700799
 30
0.0
 10
84.46443954051584
 20
-121.1078531598272
 30
0.0
 10
84.20640188867063
 20
-121.1078531598272
 30
0.0
  0
HATCH
  5
9B
330
93
100
AcDbEntity
  8
_U+30EC_U+30A4_U+30E4_U+30FC 1
 62
   179
420
  2234388
100
AcDbHatch
 10
0.0
 20
0.0
 30
0.0
210
0.0
220
0.0
230
1.0
  2
SOLID
 70
     1
 71
     0
 91
        2
 92
        1
 93
        1
 72
     4
 94
        3
 73
     0
 74
     1
 95
       29
 96
       25
 40
0.0
 40
0.0
 40
0.0
 40
0.0
 40
1.0
 40
1.0
 40
1.0
 40
2.0
 40
2.0
 40
2.0
 40
3.0
 40
3.0
 40
3.0
 40
4.0
 40
4.0
 40
4.0
 40
5.0
 40
5.0
 40
5.0
 40
6.0
 40
6.0
 40
6.0
 40
7.0
 40
7.0
 40
7.0
 40
8.0
 40
8.0
 40
8.0
 40
8.0
 10
84.60413816244272
 20
-122.3305175475424
 10
84.4963066737544
 20
-122.5399793530456
 10
84.32284611607207
 20
-122.5590996329887
 10
84.20640188867063
 20
-122.5590996329887
 10
84.04568818428372
 20
-122.5590996329887
 10
83.9039225050657
 20
-122.5125908439378
 10
83.80866561489853
 20
-122.3305175475424
 10
83.70514049556678
 20
-122.1358696526258
 10
83.68602021562364
 20
-121.8990193380148
 10
83.68602021562364
 20
-121.7360663215625
 10
83.68602021562364
 20
-121.5922335850533
 10
83.70290118350137
 20
-121.3405693598558
 10
83.80866561489853
 20
-121.1416150955827
 10
83.91666935836112
 20
-120.9385267167272
 10
84.07738306274801
 20
-120.9152723222017
 10
84.20640188867063
 20
-120.9152723222017
 10
84.36504853576638
 20
-120.9152723222017
 10
84.50888127227556
 20
-120.9597140539615
 10
84.60413816244272
 20
-121.1416150955827
 10
84.70352916719217
 20
-121.3341959332081
 10
84.72678356171761
 20
-121.5626057638802
 10
84.72678356171761
 20
-121.7360663215625
 10
84.72678356171761
 20
-121.9074598219537
 10
84.70576847925759
 20
-122.1381089646912
 10
84.60413816244272
 20
-122.3305175475424
 97
        0
 97
        0
 92
        1
 93
        1
 72
     4
 94
        3
 73
     0
 74
     1
 95
       17
 96
       13
 40
0.0
 40
0.0
 40
0.0
 40
0.0
 40
1.0
 40
1.0
 40
1.0
 40
2.0
 40
2.0
 40
2.0
 40
3.0
 40
3.0
 40
3.0
 40
4.0
 40
4.0
 40
4.0
 40
4.0
 10
84.20640188867063
 20
-121.1078531598272
 10
83.95680472076427
 20
-121.1078531598272
 10
83.9102959317134
 20
-121.3913845182633
 10
83.9102959317134
 20
-121.7360663215625
 10
83.9102959317134
 20
-122.0555989278194
 10
83.94629717953427
 20
-122.3644517380721
 10
84.20640188867063
 20
-122.3644517380721
 10
84.45393199928583
 20
-122.3644517380721
 10
84.50268010040212
 20
-122.0829874369272
 10
84.50268010040212
 20
-121.7360663215625
 10
84.50268010040212
 20
-121.4167059700799
 10
84.46443954051584
 20
-121.1078531598272
 10
84.20640188867063
 20
-121.1078531598272
 97
        0
 97
        0
 75
     2
 76
     1
 98
        0
  0
SPLINE
  5
9C
330
93
100
AcDbEntity
  8
_U+30EC_U+30A4_U+30E4_U+30FC 1
370
     0
100
AcDbSpline
210
0.0
220
0.0
230
1.0
 70
    11
 71
     3
 72
    44
 73
    40
 74
     0
 42
0.0000000001
 43
0.0000000001
 12
1.0
 22
0.0
 32
0.0
 13
1.0
 23
0.0
 33
0.0
 40
0.0
 40
0.0
 40
0.0
 40
0.0
 40
1.0
 40
1.0
 40
1.0
 40
2.0
 40
2.0
 40
2.0
 40
3.0
 40
3.0
 40
3.0
 40
4.0
 40
4.0
 40
4.0
 40
5.0
 40
5.0
 40
5.0
 40
6.0
 40
6.0
 40
6.0
 40
7.0
 40
7.0
 40
7.0
 40
8.0
 40
8.0
 40
8.0
 40
9.0
 40
9.0
 40
9.0
 40
10.0
 40
10.0
 40
10.0
 40
11.0
 40
11.0
 40
11.0
 40
12.0
 40
12.0
 40
12.0
 40
13.0
 40
13.0
 40
13.0
 40
13.0
 10
85.89742700760551
 20
-122.5082844745813
 30
0.0
 10
85.8740003583058
 20
-122.4638427428215
 30
0.0
 10
85.85298527584578
 20
-122.410960527123
 30
0.0
 10
85.85074596378037
 20
-122.1803113843855
 30
0.0
 10
85.84661184919807
 20
-121.9370876431268
 30
0.0
 10
85.78735620685178
 20
-121.8673244595505
 30
0.0
 10
85.60958927981288
 20
-121.8673244595505
 30
0.0
 10
85.60958927981288
 20
-121.8673244595505
 30
0.0
 10
85.20134546481079
 20
-121.8673244595505
 30
0.0
 10
85.20134546481079
 20
-121.8673244595505
 30
0.0
 10
85.20134546481079
 20
-121.8673244595505
 30
0.0
 10
85.20134546481079
 20
-122.5082844745813
 30
0.0
 10
85.20134546481079
 20
-122.5082844745813
 30
0.0
 10
85.20134546481079
 20
-122.5082844745813
 30
0.0
 10
84.96656220749101
 20
-122.5082844745813
 30
0.0
 10
84.96656220749101
 20
-122.5082844745813
 30
0.0
 10
84.96656220749101
 20
-122.5082844745813
 30
0.0
 10
84.96656220749101
 20
-120.964020423318
 30
0.0
 10
84.96656220749101
 20
-120.964020423318
 30
0.0
 10
84.96656220749101
 20
-120.964020423318
 30
0.0
 10
85.64128415827719
 20
-120.964020423318
 30
0.0
 10
85.64128415827719
 20
-120.964020423318
 30
0.0
 10
85.94806991123868
 20
-120.964020423318
 30
0.0
 10
86.11532929704757
 20
-121.1352416689349
 30
0.0
 10
86.11532929704757
 20
-121.3913845182633
 30
0.0
 10
86.11532929704757
 20
-121.4420274218964
 30
0.0
 10
86.10671655833444
 20
-121.5245374587682
 30
0.0
 10
86.06227482657471
 20
-121.6049804383488
 30
0.0
 10
86.00319143900268
 20
-121.7086778124548
 30
0.0
 10
85.93756237000866
 20
-121.7276258376236
 30
0.0
 10
85.87623967037122
 20
-121.7445068055014
 30
0.0
 10
86.01369898023269
 20
-121.7868814799699
 30
0.0
 10
86.08139510651785
 20
-121.8356295810862
 30
0.0
 10
86.08570147587442
 20
-122.1506835632123
 30
0.0
 10
86.08983559045672
 20
-122.421468068353
 30
0.0
 10
86.12583683827758
 20
-122.4533352015915
 30
0.0
 10
86.19353296456273
 20
-122.5082844745813
 30
0.0
 10
86.19353296456273
 20
-122.5082844745813
 30
0.0
 10
85.89742700760551
 20
-122.5082844745813
 30
0.0
 10
85.89742700760551
 20
-122.5082844745813
 30
0.0
  0
SPLINE
  5
9D
330
93
100
AcDbEntity
  8
_U+30EC_U+30A4_U+30E4_U+30FC 1
370
     0
100
AcDbSpline
210
0.0
220
0.0
230
1.0
 70
    11
 71
     3
 72
    20
 73
    16
 74
     0
 42
0.0000000001
 43
0.0000000001
 12
1.0
 22
0.0
 32
0.0
 13
1.0
 23
0.0
 33
0.0
 40
0.0
 40
0.0
 40
0.0
 40
0.0
 40
1.0
 40
1.0
 40
1.0
 40
2.0
 40
2.0
 40
2.0
 40
3.0
 40
3.0
 40
3.0
 40
4.0
 40
4.0
 40
4.0
 40
5.0
 40
5.0
 40
5.0
 40
5.0
 10
85.64559052763374
 20
-121.1755492861124
 30
0.0
 10
85.64559052763374
 20
-121.1755492861124
 30
0.0
 10
85.20134546481079
 20
-121.1755492861124
 30
0.0
 10
85.20134546481079
 20
-121.1755492861124
 30
0.0
 10
85.20134546481079
 20
-121.1755492861124
 30
0.0
 10
85.20134546481079
 20
-121.6557955967562
 30
0.0
 10
85.20134546481079
 20
-121.6557955967562
 30
0.0
 10
85.20134546481079
 20
-121.6557955967562
 30
0.0
 10
85.6435234703426
 20
-121.6557955967562
 30
0.0
 10
85.6435234703426
 20
-121.6557955967562
 30
0.0
 10
85.74291447509205
 20
-121.6557955967562
 30
0.0
 10
85.87830672766238
 20
-121.5796589865322
 30
0.0
 10
85.87830672766238
 20
-121.408265486141
 30
0.0
 10
85.87830672766238
 20
-121.3298895638516
 30
0.0
 10
85.84454479190693
 20
-121.1755492861124
 30
0.0
 10
85.64559052763374
 20
-121.1755492861124
 30
0.0
  0
HATCH
  5
9E
330
93
100
AcDbEntity
  8
_U+30EC_U+30A4_U+30E4_U+30FC 1
 62
   179
420
  2234388
100
AcDbHatch
 10
0.0
 20
0.0
 30
0.0
210
0.0
220
0.0
230
1.0
  2
SOLID
 70
     1
 71
     0
 91
        2
 92
        1
 93
        1
 72
     4
 94
        3
 73
     0
 74
     1
 95
       44
 96
       40
 40
0.0
 40
0.0
 40
0.0
 40
0.0
 40
1.0
 40
1.0
 40
1.0
 40
2.0
 40
2.0
 40
2.0
 40
3.0
 40
3.0
 40
3.0
 40
4.0
 40
4.0
 40
4.0
 40
5.0
 40
5.0
 40
5.0
 40
6.0
 40
6.0
 40
6.0
 40
7.0
 40
7.0
 40
7.0
 40
8.0
 40
8.0
 40
8.0
 40
9.0
 40
9.0
 40
9.0
 40
10.0
 40
10.0
 40
10.0
 40
11.0
 40
11.0
 40
11.0
 40
12.0
 40
12.0
 40
12.0
 40
13.0
 40
13.0
 40
13.0
 40
13.0
 10
85.89742700760551
 20
-122.5082844745813
 10
85.8740003583058
 20
-122.4638427428215
 10
85.85298527584578
 20
-122.410960527123
 10
85.85074596378037
 20
-122.1803113843855
 10
85.84661184919807
 20
-121.9370876431268
 10
85.78735620685178
 20
-121.8673244595505
 10
85.60958927981288
 20
-121.8673244595505
 10
85.60958927981288
 20
-121.8673244595505
 10
85.20134546481079
 20
-121.8673244595505
 10
85.20134546481079
 20
-121.8673244595505
 10
85.20134546481079
 20
-121.8673244595505
 10
85.20134546481079
 20
-122.5082844745813
 10
85.20134546481079
 20
-122.5082844745813
 10
85.20134546481079
 20
-122.5082844745813
 10
84.96656220749101
 20
-122.5082844745813
 10
84.96656220749101
 20
-122.5082844745813
 10
84.96656220749101
 20
-122.5082844745813
 10
84.96656220749101
 20
-120.964020423318
 10
84.96656220749101
 20
-120.964020423318
 10
84.96656220749101
 20
-120.964020423318
 10
85.64128415827719
 20
-120.964020423318
 10
85.64128415827719
 20
-120.964020423318
 10
85.94806991123868
 20
-120.964020423318
 10
86.11532929704757
 20
-121.1352416689349
 10
86.11532929704757
 20
-121.3913845182633
 10
86.11532929704757
 20
-121.4420274218964
 10
86.10671655833444
 20
-121.5245374587682
 10
86.06227482657471
 20
-121.6049804383488
 10
86.00319143900268
 20
-121.7086778124548
 10
85.93756237000866
 20
-121.7276258376236
 10
85.87623967037122
 20
-121.7445068055014
 10
86.01369898023269
 20
-121.7868814799699
 10
86.08139510651785
 20
-121.8356295810862
 10
86.08570147587442
 20
-122.1506835632123
 10
86.08983559045672
 20
-122.421468068353
 10
86.12583683827758
 20
-122.4533352015915
 10
86.19353296456273
 20
-122.5082844745813
 10
86.19353296456273
 20
-122.5082844745813
 10
85.89742700760551
 20
-122.5082844745813
 10
85.89742700760551
 20
-122.5082844745813
 97
        0
 97
        0
 92
        1
 93
        1
 72
     4
 94
        3
 73
     0
 74
     1
 95
       20
 96
       16
 40
0.0
 40
0.0
 40
0.0
 40
0.0
 40
1.0
 40
1.0
 40
1.0
 40
2.0
 40
2.0
 40
2.0
 40
3.0
 40
3.0
 40
3.0
 40
4.0
 40
4.0
 40
4.0
 40
5.0
 40
5.0
 40
5.0
 40
5.0
 10
85.64559052763374
 20
-121.1755492861124
 10
85.64559052763374
 20
-121.1755492861124
 10
85.20134546481079
 20
-121.1755492861124
 10
85.20134546481079
 20
-121.1755492861124
 10
85.20134546481079
 20
-121.1755492861124
 10
85.20134546481079
 20
-121.6557955967562
 10
85.20134546481079
 20
-121.6557955967562
 10
85.20134546481079
 20
-121.6557955967562
 10
85.6435234703426
 20
-121.6557955967562
 10
85.6435234703426
 20
-121.6557955967562
 10
85.74291447509205
 20
-121.6557955967562
 10
85.87830672766238
 20
-121.5796589865322
 10
85.87830672766238
 20
-121.408265486141
 10
85.87830672766238
 20
-121.3298895638516
 10
85.84454479190693
 20
-121.1755492861124
 10
85.64559052763374
 20
-121.1755492861124
 97
        0
 97
        0
 75
     2
 76
     1
 98
        0
  0
ENDBLK
  5
96
330
93
100
AcDbEntity
  8
0
100
AcDbBlockEnd
  0
ENDSEC
  0
SECTION
  2
ENTITIES
  0
SPLINE
  5
41
330
1F
100
AcDbEntity
  8
_U+30EC_U+30A4_U+30E4_U+30FC 1
370
     0
100
AcDbSpline
210
0.0
220
0.0
230
1.0
 70
    11
 71
     3
 72
    44
 73
    40
 74
     0
 42
0.0000000001
 43
0.0000000001
 12
1.0
 22
0.0
 32
0.0
 13
1.0
 23
0.0
 33
0.0
 40
0.0
 40
0.0
 40
0.0
 40
0.0
 40
1.0
 40
1.0
 40
1.0
 40
2.0
 40
2.0
 40
2.0
 40
3.0
 40
3.0
 40
3.0
 40
4.0
 40
4.0
 40
4.0
 40
5.0
 40
5.0
 40
5.0
 40
6.0
 40
6.0
 40
6.0
 40
7.0
 40
7.0
 40
7.0
 40
8.0
 40
8.0
 40
8.0
 40
9.0
 40
9.0
 40
9.0
 40
10.0
 40
10.0
 40
10.0
 40
11.0
 40
11.0
 40
11.0
 40
12.0
 40
12.0
 40
12.0
 40
13.0
 40
13.0
 40
13.0
 40
13.0
 10
91.50656683213965
 20
-127.7341658013999
 30
0.0
 10
91.50656683213965
 20
-127.7341658013999
 30
0.0
 10
91.50656683213965
 20
-127.7341658013999
 30
0.0
 10
91.50656683213965
 20
-127.7341658013999
 30
0.0
 10
91.50656683213965
 20
-127.7341658013999
 30
0.0
 10
91.50656683213965
 20
-127.7341658013999
 30
0.0
 10
91.50656683213965
 20
-127.7341658013999
 30
0.0
 10
88.90363134299052
 20
-130.336924967416
 30
0.0
 10
85.58321642770136
 20
-132.2227691336112
 30
0.0
 10
81.8540731895064
 20
-133.0816419111738
 30
0.0
 10
81.8540731895064
 20
-133.0816419111738
 30
0.0
 10
90.35418297265053
 20
-133.0816419111738
 30
0.0
 10
90.35418297265053
 20
-133.0816419111738
 30
0.0
 10
90.35418297265053
 20
-132.6671985779445
 30
0.0
 10
90.68970990853497
 20
-132.3312835780285
 30
0.0
 10
91.10415553277937
 20
-132.3312835780285
 30
0.0
 10
91.51827905406307
 20
-132.3312835780285
 30
0.0
 10
91.8541610881475
 20
-132.6671985779445
 30
0.0
 10
91.8541610881475
 20
-133.0816419111738
 30
0.0
 10
91.8541610881475
 20
-133.0816419111738
 30
0.0
 10
93.35417219888376
 20
-133.0816419111738
 30
0.0
 10
93.35417219888376
 20
-133.0816419111738
 30
0.0
 10
93.35417219888376
 20
-131.1485960783239
 30
0.0
 10
94.92099702280807
 20
-129.5814160787157
 30
0.0
 10
96.85404280682529
 20
-129.5814160787157
 30
0.0
 10
96.85404280682529
 20
-129.5814160787157
 30
0.0
 10
96.85404280682529
 20
-128.0814049679798
 30
0.0
 10
96.85404280682529
 20
-128.0814049679798
 30
0.0
 10
96.43991942033432
 20
-128.0814049679798
 30
0.0
 10
96.10403727040396
 20
-127.7455252458414
 30
0.0
 10
96.10403727040396
 20
-127.3314346903895
 30
0.0
 10
96.10403727040396
 20
-126.9173088571595
 30
0.0
 10
96.43991942033432
 20
-126.5814291350214
 30
0.0
 10
96.85404280682529
 20
-126.5814291350214
 30
0.0
 10
96.85404280682529
 20
-126.5814291350214
 30
0.0
 10
96.85404280682529
 20
-118.081354414924
 30
0.0
 10
96.85404280682529
 20
-118.081354414924
 30
0.0
 10
95.9948172731904
 20
-121.8104977473252
 30
0.0
 10
94.10967871017318
 20
-125.1310185798285
 30
0.0
 10
91.50656683213965
 20
-127.7341658013999
 30
0.0
  0
HATCH
  5
42
330
1F
100
AcDbEntity
  8
_U+30EC_U+30A4_U+30E4_U+30FC 1
 62
     9
420
 13224394
100
AcDbHatch
 10
0.0
 20
0.0
 30
0.0
210
0.0
220
0.0
230
1.0
  2
SOLID
 70
     1
 71
     0
 91
        1
 92
        1
 93
        1
 72
     4
 94
        3
 73
     0
 74
     1
 95
       44
 96
       40
 40
0.0
 40
0.0
 40
0.0
 40
0.0
 40
1.0
 40
1.0
 40
1.0
 40
2.0
 40
2.0
 40
2.0
 40
3.0
 40
3.0
 40
3.0
 40
4.0
 40
4.0
 40
4.0
 40
5.0
 40
5.0
 40
5.0
 40
6.0
 40
6.0
 40
6.0
 40
7.0
 40
7.0
 40
7.0
 40
8.0
 40
8.0
 40
8.0
 40
9.0
 40
9.0
 40
9.0
 40
10.0
 40
10.0
 40
10.0
 40
11.0
 40
11.0
 40
11.0
 40
12.0
 40
12.0
 40
12.0
 40
13.0
 40
13.0
 40
13.0
 40
13.0
 10
91.50656683213965
 20
-127.7341658013999
 10
91.50656683213965
 20
-127.7341658013999
 10
91.50656683213965
 20
-127.7341658013999
 10
91.50656683213965
 20
-127.7341658013999
 10
91.50656683213965
 20
-127.7341658013999
 10
91.50656683213965
 20
-127.7341658013999
 10
91.50656683213965
 20
-127.7341658013999
 10
88.90363134299052
 20
-130.336924967416
 10
85.58321642770136
 20
-132.2227691336112
 10
81.8540731895064
 20
-133.0816419111738
 10
81.8540731895064
 20
-133.0816419111738
 10
90.35418297265053
 20
-133.0816419111738
 10
90.35418297265053
 20
-133.0816419111738
 10
90.35418297265053
 20
-132.6671985779445
 10
90.68970990853497
 20
-132.3312835780285
 10
91.10415553277937
 20
-132.3312835780285
 10
91.51827905406307
 20
-132.3312835780285
 10
91.8541610881475
 20
-132.6671985779445
 10
91.8541610881475
 20
-133.0816419111738
 10
91.8541610881475
 20
-133.0816419111738
 10
93.35417219888376
 20
-133.0816419111738
 10
93.35417219888376
 20
-133.0816419111738
 10
93.35417219888376
 20
-131.1485960783239
 10
94.92099702280807
 20
-129.5814160787157
 10
96.85404280682529
 20
-129.5814160787157
 10
96.85404280682529
 20
-129.5814160787157
 10
96.85404280682529
 20
-128.0814049679798
 10
96.85404280682529
 20
-128.0814049679798
 10
96.43991942033432
 20
-128.0814049679798
 10
96.10403727040396
 20
-127.7455252458414
 10
96.10403727040396
 20
-127.3314346903895
 10
96.10403727040396
 20
-126.9173088571595
 10
96.43991942033432
 20
-126.5814291350214
 10
96.85404280682529
 20
-126.5814291350214
 10
96.85404280682529
 20
-126.5814291350214
 10
96.85404280682529
 20
-118.081354414924
 10
96.85404280682529
 20
-118.081354414924
 10
95.9948172731904
 20
-121.8104977473252
 10
94.10967871017318
 20
-125.1310185798285
 10
91.50656683213965
 20
-127.7341658013999
 97
        0
 97
        0
 75
     2
 76
     1
 98
        0
  0
POLYLINE
  5
43
330
1F
100
AcDbEntity
  8
_U+30EC_U+30A4_U+30E4_U+30FC 1
 62
   179
420
  2234388
370
    25
100
AcDb2dPolyline
 66
     1
 10
0.0
 20
0.0
 30
0.0
  0
VERTEX
  5
44
330
43
100
AcDbEntity
  8
_U+30EC_U+30A4_U+30E4_U+30FC 1
 62
   179
420
  2234388
370
    25
100
AcDbVertex
100
AcDb2dVertex
 10
81.8540731895064
 20
-133.0816419111738
 30
0.0
  0
VERTEX
  5
45
330
43
100
AcDbEntity
  8
_U+30EC_U+30A4_U+30E4_U+30FC 1
 62
   179
420
  2234388
370
    25
100
AcDbVertex
100
AcDb2dVertex
 10
90.35418297265053
 20
-133.0816419111738
 30
0.0
  0
SEQEND
  5
46
330
43
100
AcDbEntity
  8
_U+30EC_U+30A4_U+30E4_U+30FC 1
 62
   179
420
  2234388
370
    25
  0
POLYLINE
  5
47
330
1F
100
AcDbEntity
  8
_U+30EC_U+30A4_U+30E4_U+30FC 1
 62
   179
420
  2234388
370
    25
100
AcDb2dPolyline
 66
     1
 10
0.0
 20
0.0
 30
0.0
  0
VERTEX
  5
48
330
47
100
AcDbEntity
  8
_U+30EC_U+30A4_U+30E4_U+30FC 1
 62
   179
420
  2234388
370
    25
100
AcDbVertex
100
AcDb2dVertex
 10
91.8541610881475
 20
-133.0816419111738
 30
0.0
  0
VERTEX
  5
49
330
47
100
AcDbEntity
  8
_U+30EC_U+30A4_U+30E4_U+30FC 1
 62
   179
420
  2234388
370
    25
100
AcDbVertex
100
AcDb2dVertex
 10
93.35417219888376
 20
-133.0816419111738
 30
0.0
  0
SEQEND
  5
4A
330
47
100
AcDbEntity
  8
_U+30EC_U+30A4_U+30E4_U+30FC 1
 62
   179
420
  2234388
370
    25
  0
POLYLINE
  5
4B
330
1F
100
AcDbEntity
  8
_U+30EC_U+30A4_U+30E4_U+30FC 1
 62
   179
420
  2234388
370
    25
100
AcDb2dPolyline
 66
     1
 10
0.0
 20
0.0
 30
0.0
  0
VERTEX
  5
4C
330
4B
100
AcDbEntity
  8
_U+30EC_U+30A4_U+30E4_U+30FC 1
 62
   179
420
  2234388
370
    25
100
AcDbVertex
100
AcDb2dVertex
 10
96.85404280682529
 20
-128.0814049679798
 30
0.0
  0
VERTEX
  5
4D
330
4B
100
AcDbEntity
  8
_U+30EC_U+30A4_U+30E4_U+30FC 1
 62
   179
420
  2234388
370
    25
100
AcDbVertex
100
AcDb2dVertex
 10
96.85404280682529
 20
-129.5814160787157
 30
0.0
  0
SEQEND
  5
4E
330
4B
100
AcDbEntity
  8
_U+30EC_U+30A4_U+30E4_U+30FC 1
 62
   179
420
  2234388
370
    25
  0
POLYLINE
  5
4F
330
1F
100
AcDbEntity
  8
_U+30EC_U+30A4_U+30E4_U+30FC 1
 62
   179
420
  2234388
370
    25
100
AcDb2dPolyline
 66
     1
 10
0.0
 20
0.0
 30
0.0
  0
VERTEX
  5
50
330
4F
100
AcDbEntity
  8
_U+30EC_U+30A4_U+30E4_U+30FC 1
 62
   179
420
  2234388
370
    25
100
AcDbVertex
100
AcDb2dVertex
 10
96.85404280682529
 20
-118.081354414924
 30
0.0
  0
VERTEX
  5
51
330
4F
100
AcDbEntity
  8
_U+30EC_U+30A4_U+30E4_U+30FC 1
 62
   179
420
  2234388
370
    25
100
AcDbVertex
100
AcDb2dVertex
 10
96.85404280682529
 20
-126.5814291350214
 30
0.0
  0
SEQEND
  5
52
330
4F
100
AcDbEntity
  8
_U+30EC_U+30A4_U+30E4_U+30FC 1
 62
   179
420
  2234388
370
    25
  0
POLYLINE
  5
53
330
1F
100
AcDbEntity
  8
_U+30EC_U+30A4_U+30E4_U+30FC 1
 62
   179
420
  2234388
370
     9
100
AcDb2dPolyline
 66
     1
 10
0.0
 20
0.0
 30
0.0
  0
VERTEX
  5
54
330
53
100
AcDbEntity
  8
_U+30EC_U+30A4_U+30E4_U+30FC 1
 62
   179
420
  2234388
370
     9
100
AcDbVertex
100
AcDb2dVertex
 10
90.64046213201361
 20
-127.2339269126359
 30
0.0
  0
VERTEX
  5
55
330
53
100
AcDbEntity
  8
_U+30EC_U+30A4_U+30E4_U+30FC 1
 62
   179
420
  2234388
370
     9
100
AcDbVertex
100
AcDb2dVertex
 10
91.50656683213965
 20
-127.7341658013999
 30
0.0
  0
SEQEND
  5
56
330
53
100
AcDbEntity
  8
_U+30EC_U+30A4_U+30E4_U+30FC 1
 62
   179
420
  2234388
370
     9
  0
POLYLINE
  5
57
330
1F
100
AcDbEntity
  8
_U+30EC_U+30A4_U+30E4_U+30FC 1
 62
   179
420
  2234388
370
     9
100
AcDb2dPolyline
 66
     1
 10
0.0
 20
0.0
 30
0.0
  0
VERTEX
  5
58
330
57
100
AcDbEntity
  8
_U+30EC_U+30A4_U+30E4_U+30FC 1
 62
   179
420
  2234388
370
     9
100
AcDbVertex
100
AcDb2dVertex
 10
91.0066807337817
 20
-126.8680610793942
 30
0.0
  0
VERTEX
  5
59
330
57
100
AcDbEntity
  8
_U+30EC_U+30A4_U+30E4_U+30FC 1
 62
   179
420
  2234388
370
     9
100
AcDbVertex
100
AcDb2dVertex
 10
91.50656683213965
 20
-127.7341658013999
 30
0.0
  0
SEQEND
  5
5A
330
57
100
AcDbEntity
  8
_U+30EC_U+30A4_U+30E4_U+30FC 1
 62
   179
420
  2234388
370
     9
  0
SPLINE
  5
5B
330
1F
100
AcDbEntity
  8
_U+30EC_U+30A4_U+30E4_U+30FC 1
 62
   179
420
  2234388
370
    25
100
AcDbSpline
210
0.0
220
0.0
230
1.0
 70
     8
 71
     3
 72
     8
 73
     4
 74
     0
 42
0.0000000001
 43
0.0000000001
 12
1.0
 22
0.0
 32
0.0
 13
1.0
 23
0.0
 33
0.0
 40
0.0
 40
0.0
 40
0.0
 40
0.0
 40
1.0
 40
1.0
 40
1.0
 40
1.0
 10
81.8540731895064
 20
-133.0816419111738
 30
0.0
 10
89.31235966589632
 20
-131.3635435782702
 30
0.0
 10
95.13597979510118
 20
-125.5396410797261
 30
0.0
 10
96.85404280682529
 20
-118.081354414924
 30
0.0
  0
SPLINE
  5
5C
330
1F
100
AcDbEntity
  8
_U+30EC_U+30A4_U+30E4_U+30FC 1
 62
   179
420
  2234388
370
    25
100
AcDbSpline
210
0.0
220
0.0
230
1.0
 70
     8
 71
     3
 72
     8
 73
     4
 74
     0
 42
0.0000000001
 43
0.0000000001
 12
1.0
 22
0.0
 32
0.0
 13
1.0
 23
0.0
 33
0.0
 40
0.0
 40
0.0
 40
0.0
 40
0.0
 40
1.0
 40
1.0
 40
1.0
 40
1.0
 10
96.85404280682529
 20
-129.5814160787157
 30
0.0
 10
94.92099702280807
 20
-129.5814160787157
 30
0.0
 10
93.35417219888376
 20
-131.1485960783239
 30
0.0
 10
93.35417219888376
 20
-133.0816419111738
 30
0.0
  0
SPLINE
  5
5D
330
1F
100
AcDbEntity
  8
_U+30EC_U+30A4_U+30E4_U+30FC 1
 62
   179
420
  2234388
370
    25
100
AcDbSpline
210
0.0
220
0.0
230
1.0
 70
     8
 71
     3
 72
    11
 73
     7
 74
     0
 42
0.0000000001
 43
0.0000000001
 12
1.0
 22
0.0
 32
0.0
 13
1.0
 23
0.0
 33
0.0
 40
0.0
 40
0.0
 40
0.0
 40
0.0
 40
1.0
 40
1.0
 40
1.0
 40
2.0
 40
2.0
 40
2.0
 40
2.0
 10
91.8541610881475
 20
-133.0816419111738
 30
0.0
 10
91.8541610881475
 20
-132.6671985779445
 30
0.0
 10
91.51827905406307
 20
-132.3312835780285
 30
0.0
 10
91.10415553277937
 20
-132.3312835780285
 30
0.0
 10
90.68970990853497
 20
-132.3312835780285
 30
0.0
 10
90.35418297265053
 20
-132.6671985779445
 30
0.0
 10
90.35418297265053
 20
-133.0816419111738
 30
0.0
  0
SPLINE
  5
5E
330
1F
100
AcDbEntity
  8
_U+30EC_U+30A4_U+30E4_U+30FC 1
 62
   179
420
  2234388
370
    25
100
AcDbSpline
210
0.0
220
0.0
230
1.0
 70
     8
 71
     3
 72
    11
 73
     7
 74
     0
 42
0.0000000001
 43
0.0000000001
 12
1.0
 22
0.0
 32
0.0
 13
1.0
 23
0.0
 33
0.0
 40
0.0
 40
0.0
 40
0.0
 40
0.0
 40
1.0
 40
1.0
 40
1.0
 40
2.0
 40
2.0
 40
2.0
 40
2.0
 10
96.85404280682529
 20
-126.5814291350214
 30
0.0
 10
96.43991942033432
 20
-126.5814291350214
 30
0.0
 10
96.10403727040396
 20
-126.9173088571595
 30
0.0
 10
96.10403727040396
 20
-127.3314346903895
 30
0.0
 10
96.10403727040396
 20
-127.7455252458414
 30
0.0
 10
96.43991942033432
 20
-128.0814049679798
 30
0.0
 10
96.85404280682529
 20
-128.0814049679798
 30
0.0
  0
SPLINE
  5
5F
330
1F
100
AcDbEntity
  8
_U+30EC_U+30A4_U+30E4_U+30FC 1
 62
   179
420
  2234388
370
     9
100
AcDbSpline
210
0.0
220
0.0
230
1.0
 70
    11
 71
     3
 72
    17
 73
    13
 74
     0
 42
0.0000000001
 43
0.0000000001
 12
1.0
 22
0.0
 32
0.0
 13
1.0
 23
0.0
 33
0.0
 40
0.0
 40
0.0
 40
0.0
 40
0.0
 40
1.0
 40
1.0
 40
1.0
 40
2.0
 40
2.0
 40
2.0
 40
3.0
 40
3.0
 40
3.0
 40
4.0
 40
4.0
 40
4.0
 40
4.0
 10
100.9540260355593
 20
-118.081354414924
 30
0.0
 10
100.9540260355593
 20
-118.0262152482712
 30
0.0
 10
100.9092610858836
 20
-117.9814124705045
 30
0.0
 10
100.8541193714415
 20
-117.9814124705045
 30
0.0
 10
100.7990154839584
 20
-117.9814124705045
 30
0.0
 10
100.7542127073237
 20
-118.0262152482712
 30
0.0
 10
100.7542127073237
 20
-118.081354414924
 30
0.0
 10
100.7542127073237
 20
-118.1364583037992
 30
0.0
 10
100.7990154839584
 20
-118.1812610815659
 30
0.0
 10
100.8541193714415
 20
-118.1812610815659
 30
0.0
 10
100.9092610858836
 20
-118.1812610815659
 30
0.0
 10
100.9540260355593
 20
-118.1364583037992
 30
0.0
 10
100.9540260355593
 20
-118.081354414924
 30
0.0
  0
SPLINE
  5
60
330
1F
100
AcDbEntity
  8
_U+30EC_U+30A4_U+30E4_U+30FC 1
 62
   179
420
  2234388
370
     9
100
AcDbSpline
210
0.0
220
0.0
230
1.0
 70
    11
 71
     3
 72
    17
 73
    13
 74
     0
 42
0.0000000001
 43
0.0000000001
 12
1.0
 22
0.0
 32
0.0
 13
1.0
 23
0.0
 33
0.0
 40
0.0
 40
0.0
 40
0.0
 40
0.0
 40
1.0
 40
1.0
 40
1.0
 40
2.0
 40
2.0
 40
2.0
 40
3.0
 40
3.0
 40
3.0
 40
4.0
 40
4.0
 40
4.0
 40
4.0
 10
100.9540260355593
 20
-133.0816419111738
 30
0.0
 10
100.9540260355593
 20
-133.0261499667436
 30
0.0
 10
100.9092610858836
 20
-132.9813824667544
 30
0.0
 10
100.8541193714415
 20
-132.9813824667544
 30
0.0
 10
100.7990154839584
 20
-132.9813824667544
 30
0.0
 10
100.7542127073237
 20
-133.0261499667436
 30
0.0
 10
100.7542127073237
 20
-133.0816419111738
 30
0.0
 10
100.7542127073237
 20
-133.1367458000493
 30
0.0
 10
100.7990154839584
 20
-133.1815485778154
 30
0.0
 10
100.8541193714415
 20
-133.1815485778154
 30
0.0
 10
100.9092610858836
 20
-133.1815485778154
 30
0.0
 10
100.9540260355593
 20
-133.1367458000493
 30
0.0
 10
100.9540260355593
 20
-133.0816419111738
 30
0.0
  0
SPLINE
  5
61
330
1F
100
AcDbEntity
  8
_U+30EC_U+30A4_U+30E4_U+30FC 1
 62
   179
420
  2234388
370
     9
100
AcDbSpline
210
0.0
220
0.0
230
1.0
 70
    11
 71
     3
 72
    17
 73
    13
 74
     0
 42
0.0000000001
 43
0.0000000001
 12
1.0
 22
0.0
 32
0.0
 13
1.0
 23
0.0
 33
0.0
 40
0.0
 40
0.0
 40
0.0
 40
0.0
 40
1.0
 40
1.0
 40
1.0
 40
2.0
 40
2.0
 40
2.0
 40
3.0
 40
3.0
 40
3.0
 40
4.0
 40
4.0
 40
4.0
 40
4.0
 10
96.95394947094313
 20
-137.0813657990631
 30
0.0
 10
96.95394947094313
 20
-137.0262619101876
 30
0.0
 10
96.90914669430836
 20
-136.9814591324215
 30
0.0
 10
96.85404280682529
 20
-136.9814591324215
 30
0.0
 10
96.79890364156535
 20
-136.9814591324215
 30
0.0
 10
96.75413614270745
 20
-137.0262619101876
 30
0.0
 10
96.75413614270745
 20
-137.0813657990631
 30
0.0
 10
96.75413614270745
 20
-137.1368577434934
 30
0.0
 10
96.79890364156535
 20
-137.1813077434823
 30
0.0
 10
96.85404280682529
 20
-137.1813077434823
 30
0.0
 10
96.90914669430836
 20
-137.1813077434823
 30
0.0
 10
96.95394947094313
 20
-137.1368577434934
 30
0.0
 10
96.95394947094313
 20
-137.0813657990631
 30
0.0
  0
SPLINE
  5
62
330
1F
100
AcDbEntity
  8
_U+30EC_U+30A4_U+30E4_U+30FC 1
 62
   179
420
  2234388
370
     9
100
AcDbSpline
210
0.0
220
0.0
230
1.0
 70
    11
 71
     3
 72
    17
 73
    13
 74
     0
 42
0.0000000001
 43
0.0000000001
 12
1.0
 22
0.0
 32
0.0
 13
1.0
 23
0.0
 33
0.0
 40
0.0
 40
0.0
 40
0.0
 40
0.0
 40
1.0
 40
1.0
 40
1.0
 40
2.0
 40
2.0
 40
2.0
 40
3.0
 40
3.0
 40
3.0
 40
4.0
 40
4.0
 40
4.0
 40
4.0
 10
81.95433263139302
 20
-137.0813657990631
 30
0.0
 10
81.95433263139302
 20
-137.0262619101876
 30
0.0
 10
81.90956513253512
 20
-136.9814591324215
 30
0.0
 10
81.8540731895064
 20
-136.9814591324215
 30
0.0
 10
81.79861652425454
 20
-136.9814591324215
 30
0.0
 10
81.75416652538856
 20
-137.0262619101876
 30
0.0
 10
81.75416652538856
 20
-137.0813657990631
 30
0.0
 10
81.75416652538856
 20
-137.1368577434934
 30
0.0
 10
81.79861652425454
 20
-137.1813077434823
 30
0.0
 10
81.8540731895064
 20
-137.1813077434823
 30
0.0
 10
81.90956513253512
 20
-137.1813077434823
 30
0.0
 10
81.95433263139302
 20
-137.1368577434934
 30
0.0
 10
81.95433263139302
 20
-137.0813657990631
 30
0.0
  0
POLYLINE
  5
63
330
1F
100
AcDbEntity
  8
_U+30EC_U+30A4_U+30E4_U+30FC 1
 62
   179
420
  2234388
370
     9
100
AcDb2dPolyline
 66
     1
 10
0.0
 20
0.0
 30
0.0
  0
VERTEX
  5
64
330
63
100
AcDbEntity
  8
_U+30EC_U+30A4_U+30E4_U+30FC 1
 62
   179
420
  2234388
370
     9
100
AcDbVertex
100
AcDb2dVertex
 10
81.8540731895064
 20
-137.0813657990631
 30
0.0
  0
VERTEX
  5
65
330
63
100
AcDbEntity
  8
_U+30EC_U+30A4_U+30E4_U+30FC 1
 62
   179
420
  2234388
370
     9
100
AcDbVertex
100
AcDb2dVertex
 10
96.85404280682529
 20
-137.0813657990631
 30
0.0
  0
SEQEND
  5
66
330
63
100
AcDbEntity
  8
_U+30EC_U+30A4_U+30E4_U+30FC 1
 62
   179
420
  2234388
370
     9
  0
POLYLINE
  5
67
330
1F
100
AcDbEntity
  8
_U+30EC_U+30A4_U+30E4_U+30FC 1
 62
   179
420
  2234388
370
     9
100
AcDb2dPolyline
 66
     1
 10
0.0
 20
0.0
 30
0.0
  0
VERTEX
  5
68
330
67
100
AcDbEntity
  8
_U+30EC_U+30A4_U+30E4_U+30FC 1
 62
   179
420
  2234388
370
     9
100
AcDbVertex
100
AcDb2dVertex
 10
81.8540731895064
 20
-135.621359688317
 30
0.0
  0
VERTEX
  5
69
330
67
100
AcDbEntity
  8
_U+30EC_U+30A4_U+30E4_U+30FC 1
 62
   179
420
  2234388
370
     9
100
AcDbVertex
100
AcDb2dVertex
 10
81.8540731895064
 20
-138.0814907988128
 30
0.0
  0
SEQEND
  5
6A
330
67
100
AcDbEntity
  8
_U+30EC_U+30A4_U+30E4_U+30FC 1
 62
   179
420
  2234388
370
     9
  0
POLYLINE
  5
6B
330
1F
100
AcDbEntity
  8
_U+30EC_U+30A4_U+30E4_U+30FC 1
 62
   179
420
  2234388
370
     9
100
AcDb2dPolyline
 66
     1
 10
0.0
 20
0.0
 30
0.0
  0
VERTEX
  5
6C
330
6B
100
AcDbEntity
  8
_U+30EC_U+30A4_U+30E4_U+30FC 1
 62
   179
420
  2234388
370
     9
100
AcDbVertex
100
AcDb2dVertex
 10
96.85404280682529
 20
-132.121486633636
 30
0.0
  0
VERTEX
  5
6D
330
6B
100
AcDbEntity
  8
_U+30EC_U+30A4_U+30E4_U+30FC 1
 62
   179
420
  2234388
370
     9
100
AcDbVertex
100
AcDb2dVertex
 10
96.85404280682529
 20
-138.0814907988128
 30
0.0
  0
SEQEND
  5
6E
330
6B
100
AcDbEntity
  8
_U+30EC_U+30A4_U+30E4_U+30FC 1
 62
   179
420
  2234388
370
     9
  0
INSERT
  5
70
330
1F
100
AcDbEntity
  8
_U+30EC_U+30A4_U+30E4_U+30FC 1
100
AcDbBlockReference
  2
block 2
 10
0.0
 20
0.0
 30
0.0
  0
POLYLINE
  5
77
330
1F
100
AcDbEntity
  8
_U+30EC_U+30A4_U+30E4_U+30FC 1
 62
   179
420
  2234388
370
     9
100
AcDb2dPolyline
 66
     1
 10
0.0
 20
0.0
 30
0.0
  0
VERTEX
  5
78
330
77
100
AcDbEntity
  8
_U+30EC_U+30A4_U+30E4_U+30FC 1
 62
   179
420
  2234388
370
     9
100
AcDbVertex
100
AcDb2dVertex
 10
100.8541193714415
 20
-133.0816419111738
 30
0.0
  0
VERTEX
  5
79
330
77
100
AcDbEntity
  8
_U+30EC_U+30A4_U+30E4_U+30FC 1
 62
   179
420
  2234388
370
     9
100
AcDbVertex
100
AcDb2dVertex
 10
100.8541193714415
 20
-118.081354414924
 30
0.0
  0
SEQEND
  5
7A
330
77
100
AcDbEntity
  8
_U+30EC_U+30A4_U+30E4_U+30FC 1
 62
   179
420
  2234388
370
     9
  0
POLYLINE
  5
7B
330
1F
100
AcDbEntity
  8
_U+30EC_U+30A4_U+30E4_U+30FC 1
 62
   179
420
  2234388
370
     9
100
AcDb2dPolyline
 66
     1
 10
0.0
 20
0.0
 30
0.0
  0
VERTEX
  5
7C
330
7B
100
AcDbEntity
  8
_U+30EC_U+30A4_U+30E4_U+30FC 1
 62
   179
420
  2234388
370
     9
100
AcDbVertex
100
AcDb2dVertex
 10
95.89424033131189
 20
-133.0816419111738
 30
0.0
  0
VERTEX
  5
7D
330
7B
100
AcDbEntity
  8
_U+30EC_U+30A4_U+30E4_U+30FC 1
 62
   179
420
  2234388
370
     9
100
AcDbVertex
100
AcDb2dVertex
 10
101.8542443459262
 20
-133.0816419111738
 30
0.0
  0
SEQEND
  5
7E
330
7B
100
AcDbEntity
  8
_U+30EC_U+30A4_U+30E4_U+30FC 1
 62
   179
420
  2234388
370
     9
  0
POLYLINE
  5
7F
330
1F
100
AcDbEntity
  8
_U+30EC_U+30A4_U+30E4_U+30FC 1
 62
   179
420
  2234388
370
     9
100
AcDb2dPolyline
 66
     1
 10
0.0
 20
0.0
 30
0.0
  0
VERTEX
  5
80
330
7F
100
AcDbEntity
  8
_U+30EC_U+30A4_U+30E4_U+30FC 1
 62
   179
420
  2234388
370
     9
100
AcDbVertex
100
AcDb2dVertex
 10
99.39411329757824
 20
-118.081354414924
 30
0.0
  0
VERTEX
  5
81
330
7F
100
AcDbEntity
  8
_U+30EC_U+30A4_U+30E4_U+30FC 1
 62
   179
420
  2234388
370
     9
100
AcDbVertex
100
AcDb2dVertex
 10
101.8542443459262
 20
-118.081354414924
 30
0.0
  0
SEQEND
  5
82
330
7F
100
AcDbEntity
  8
_U+30EC_U+30A4_U+30E4_U+30FC 1
 62
   179
420
  2234388
370
     9
  0
INSERT
  5
84
330
1F
100
AcDbEntity
  8
_U+30EC_U+30A4_U+30E4_U+30FC 1
100
AcDbBlockReference
  2
block 3
 10
0.0
 20
0.0
 30
0.0
  0
POLYLINE
  5
8B
330
1F
100
AcDbEntity
  8
_U+30EC_U+30A4_U+30E4_U+30FC 1
 62
   179
420
  2234388
370
     9
100
AcDb2dPolyline
 66
     1
 10
0.0
 20
0.0
 30
0.0
  0
VERTEX
  5
8C
330
8B
100
AcDbEntity
  8
_U+30EC_U+30A4_U+30E4_U+30FC 1
 62
   179
420
  2234388
370
     9
100
AcDbVertex
100
AcDb2dVertex
 10
91.50656683213965
 20
-127.7341658013999
 30
0.0
  0
VERTEX
  5
8D
330
8B
100
AcDbEntity
  8
_U+30EC_U+30A4_U+30E4_U+30FC 1
 62
   179
420
  2234388
370
     9
100
AcDbVertex
100
AcDb2dVertex
 10
86.92666472676046
 20
-123.153910802545
 30
0.0
  0
SEQEND
  5
8E
330
8B
100
AcDbEntity
  8
_U+30EC_U+30A4_U+30E4_U+30FC 1
 62
   179
420
  2234388
370
     9
  0
POLYLINE
  5
8F
330
1F
100
AcDbEntity
  8
_U+30EC_U+30A4_U+30E4_U+30FC 1
 62
   179
420
  2234388
370
     9
100
AcDb2dPolyline
 66
     1
 10
0.0
 20
0.0
 30
0.0
  0
VERTEX
  5
90
330
8F
100
AcDbEntity
  8
_U+30EC_U+30A4_U+30E4_U+30FC 1
 62
   179
420
  2234388
370
     9
100
AcDbVertex
100
AcDb2dVertex
 10
86.92666472676046
 20
-123.153910802545
 30
0.0
  0
VERTEX
  5
91
330
8F
100
AcDbEntity
  8
_U+30EC_U+30A4_U+30E4_U+30FC 1
 62
   179
420
  2234388
370
     9
100
AcDbVertex
100
AcDb2dVertex
 10
82.0852484613864
 20
-123.153910802545
 30
0.0
  0
SEQEND
  5
92
330
8F
100
AcDbEntity
  8
_U+30EC_U+30A4_U+30E4_U+30FC 1
 62
   179
420
  2234388
370
     9
  0
INSERT
  5
94
330
1F
100
AcDbEntity
  8
_U+30EC_U+30A4_U+30E4_U+30FC 1
100
AcDbBlockReference
  2
block 4
 10
0.0
 20
0.0
 30
0.0
  0
ENDSEC
  0
SECTION
  2
OBJECTS
  0
DICTIONARY
  5
C
330
0
100
AcDbDictionary
281
     1
  3
ACAD_GROUP
350
D
  3
ACAD_LAYOUT
350
1A
  3
ACAD_MATERIAL
350
3B
  3
ACAD_MLEADERSTYLE
350
A0
  3
ACAD_MLINESTYLE
350
17
  3
ACAD_PLOTSETTINGS
350
19
  3
ACAD_PLOTSTYLENAME
350
E
  3
ACAD_TABLESTYLE
350
9F
  3
ACAD_VISUALSTYLE
350
2A
  0
SUN
  5
3F
330
29
100
AcDbSun
 90
        1
290
     0
 63
     7
421
 16777215
 40
1.0
291
     1
 91
  2455826
 92
 54000000
292
     0
 70
     2
 71
   256
280
     1
  0
DICTIONARY
  5
D
102
{ACAD_REACTORS
330
C
102
}
330
C
100
AcDbDictionary
281
     1
  0
DICTIONARY
  5
1A
102
{ACAD_REACTORS
330
C
102
}
330
C
100
AcDbDictionary
281
     1
  3
Layout1
350
1E
  3
Layout2
350
26
  3
Model
350
22
  0
DICTIONARY
  5
3B
102
{ACAD_REACTORS
330
C
102
}
330
C
100
AcDbDictionary
281
     1
  3
ByBlock
350
3D
  3
ByLayer
350
3C
  3
Global
350
3E
  0
DICTIONARY
  5
A0
102
{ACAD_REACTORS
330
C
102
}
330
C
100
AcDbDictionary
281
     1
  0
DICTIONARY
  5
17
102
{ACAD_REACTORS
330
C
102
}
330
C
100
AcDbDictionary
281
     1
  3
Standard
350
18
  0
DICTIONARY
  5
19
102
{ACAD_REACTORS
330
C
102
}
330
C
100
AcDbDictionary
281
     1
  0
ACDBDICTIONARYWDFLT
  5
E
102
{ACAD_REACTORS
330
C
102
}
330
C
100
AcDbDictionary
281
     1
  3
Normal
350
F
100
AcDbDictionaryWithDefault
340
F
  0
DICTIONARY
  5
9F
102
{ACAD_REACTORS
330
C
102
}
330
C
100
AcDbDictionary
281
     1
  0
DICTIONARY
  5
2A
102
{ACAD_REACTORS
330
C
102
}
330
C
100
AcDbDictionary
281
     1
  3
2dWireframe
350
2F
  3
3D Hidden
350
31
  3
3dWireframe
350
30
  3
Basic
350
32
  3
Brighten
350
36
  3
ColorChange
350
3A
  3
Conceptual
350
34
  3
Dim
350
35
  3
Facepattern
350
39
  3
Flat
350
2B
  3
FlatWithEdges
350
2C
  3
Gouraud
350
2D
  3
GouraudWithEdges
350
2E
  3
Linepattern
350
38
  3
Realistic
350
33
  3
Thicken
350
37
  0
LAYOUT
  5
1E
102
{ACAD_REACTORS
330
1A
102
}
330
1A
100
AcDbPlotSettings
  1

  2
none_device
  4

  6

 40
0.0
 41
0.0
 42
0.0
 43
0.0
 44
0.0
 45
0.0
 46
0.0
 47
0.0
 48
0.0
 49
0.0
140
0.0
141
0.0
142
1.0
143
1.0
 70
   688
 72
     0
 73
     0
 74
     5
  7

 75
    16
 76
     0
 77
     2
 78
   300
147
1.0
148
0.0
149
0.0
100
AcDbLayout
  1
Layout1
 70
     1
 71
     1
 10
0.0
 20
0.0
 11
12.0
 21
9.0
 12
0.0
 22
0.0
 32
0.0
 14
1.000000000000000E+20
 24
1.000000000000000E+20
 34
1.000000000000000E+20
 15
-1.000000000000000E+20
 25
-1.000000000000000E+20
 35
-1.000000000000000E+20
146
0.0
 13
0.0
 23
0.0
 33
0.0
 16
1.0
 26
0.0
 36
0.0
 17
0.0
 27
1.0
 37
0.0
 76
     0
330
1B
  0
LAYOUT
  5
26
102
{ACAD_REACTORS
330
1A
102
}
330
1A
100
AcDbPlotSettings
  1

  2
none_device
  4

  6

 40
0.0
 41
0.0
 42
0.0
 43
0.0
 44
0.0
 45
0.0
 46
0.0
 47
0.0
 48
0.0
 49
0.0
140
0.0
141
0.0
142
1.0
143
1.0
 70
   688
 72
     0
 73
     0
 74
     5
  7

 75
    16
 76
     0
 77
     2
 78
   300
147
1.0
148
0.0
149
0.0
100
AcDbLayout
  1
Layout2
 70
     1
 71
     2
 10
0.0
 20
0.0
 11
0.0
 21
0.0
 12
0.0
 22
0.0
 32
0.0
 14
0.0
 24
0.0
 34
0.0
 15
0.0
 25
0.0
 35
0.0
146
0.0
 13
0.0
 23
0.0
 33
0.0
 16
1.0
 26
0.0
 36
0.0
 17
0.0
 27
1.0
 37
0.0
 76
     0
330
23
  0
LAYOUT
  5
22
102
{ACAD_REACTORS
330
1A
102
}
330
1A
100
AcDbPlotSettings
  1

  2
none_device
  4

  6

 40
0.0
 41
0.0
 42
0.0
 43
0.0
 44
0.0
 45
0.0
 46
0.0
 47
0.0
 48
0.0
 49
0.0
140
0.0
141
0.0
142
1.0
143
1.0
 70
  1712
 72
     0
 73
     0
 74
     0
  7

 75
     0
 76
     0
 77
     2
 78
   300
147
1.0
148
0.0
149
0.0
100
AcDbLayout
  1
Model
 70
     1
 71
     0
 10
0.0
 20
0.0
 11
12.0
 21
9.0
 12
0.0
 22
0.0
 32
0.0
 14
1.000000000000000E+20
 24
1.000000000000000E+20
 34
1.000000000000000E+20
 15
-1.000000000000000E+20
 25
-1.000000000000000E+20
 35
-1.000000000000000E+20
146
0.0
 13
0.0
 23
0.0
 33
0.0
 16
1.0
 26
0.0
 36
0.0
 17
0.0
 27
1.0
 37
0.0
 76
     0
330
1F
331
29
  0
MATERIAL
  5
3D
102
{ACAD_REACTORS
330
3B
102
}
330
3B
100
AcDbMaterial
  1
ByBlock
 72
     1
 94
      127
  0
MATERIAL
  5
3C
102
{ACAD_REACTORS
330
3B
102
}
330
3B
100
AcDbMaterial
  1
ByLayer
 72
     1
 94
      127
  0
MATERIAL
  5
3E
102
{ACAD_REACTORS
330
3B
102
}
330
3B
100
AcDbMaterial
  1
Global
 72
     1
 94
      127
  0
MLINESTYLE
  5
18
102
{ACAD_REACTORS
330
17
102
}
330
17
100
AcDbMlineStyle
  2
Standard
 70
     0
  3

 62
   256
 51
90.0
 52
90.0
 71
     2
 49
0.5
 62
   256
  6
BYLAYER
 49
-0.5
 62
   256
  6
BYLAYER
  0
ACDBPLACEHOLDER
  5
F
102
{ACAD_REACTORS
330
E
102
}
330
E
  0
VISUALSTYLE
  5
2F
102
{ACAD_REACTORS
330
2A
102
}
330
2A
100
AcDbVisualStyle
  2
2dWireframe
 70
     4
177
     2
291
     0
 71
     0
176
     1
 72
     2
176
     1
 73
     0
176
     1
 90
        0
176
     1
 40
-0.6
176
     1
 41
-30.0
176
     1
 62
     5
 63
     7
421
 16777215
176
     1
 74
     1
176
     1
 91
        4
176
     1
 64
     7
176
     1
 65
   257
176
     1
 75
     1
176
     1
175
     1
176
     1
 42
1.0
176
     1
 92
        0
176
     1
 66
   257
176
     1
 43
1.0
176
     1
 76
     1
176
     1
 77
     6
176
     1
 78
     2
176
     1
 67
     7
176
     1
 79
     5
176
     1
170
     0
176
     1
171
     0
176
     1
290
     0
176
     1
 93
        1
176
     1
 44
0.0
176
     1
173
     0
176
     1
  0
VISUALSTYLE
  5
31
102
{ACAD_REACTORS
330
2A
102
}
330
2A
100
AcDbVisualStyle
  2
3D Hidden
 70
     6
177
     2
291
     0
 71
     1
176
     1
 72
     2
176
     1
 73
     2
176
     1
 90
        0
176
     1
 40
-0.6
176
     1
 41
-30.0
176
     1
 62
     5
 63
     7
421
 16777215
176
     1
 74
     2
176
     1
 91
        2
176
     1
 64
     7
176
     1
 65
   257
176
     1
 75
     2
176
     1
175
     1
176
     1
 42
40.0
176
     1
 92
        0
176
     1
 66
   257
176
     1
 43
1.0
176
     1
 76
     1
176
     1
 77
     6
176
     1
 78
     2
176
     1
 67
     7
176
     1
 79
     3
176
     1
170
     0
176
     1
171
     0
176
     1
290
     0
176
     1
 93
        1
176
     1
 44
0.0
176
     1
173
     0
176
     1
  0
VISUALSTYLE
  5
30
102
{ACAD_REACTORS
330
2A
102
}
330
2A
100
AcDbVisualStyle
  2
3dWireframe
 70
     5
177
     2
291
     0
 71
     0
176
     1
 72
     2
176
     1
 73
     0
176
     1
 90
        0
176
     1
 40
-0.6
176
     1
 41
-30.0
176
     1
 62
     5
 63
     7
421
 16777215
176
     1
 74
     1
176
     1
 91
        4
176
     1
 64
     7
176
     1
 65
   257
176
     1
 75
     1
176
     1
175
     1
176
     1
 42
1.0
176
     1
 92
        0
176
     1
 66
   257
176
     1
 43
1.0
176
     1
 76
     1
176
     1
 77
     6
176
     1
 78
     2
176
     1
 67
     7
176
     1
 79
     5
176
     1
170
     0
176
     1
171
     0
176
     1
290
     0
176
     1
 93
        1
176
     1
 44
0.0
176
     1
173
     0
176
     1
  0
VISUALSTYLE
  5
32
102
{ACAD_REACTORS
330
2A
102
}
330
2A
100
AcDbVisualStyle
  2
Basic
 70
     7
177
     2
291
     1
 71
     1
176
     1
 72
     0
176
     1
 73
     1
176
     1
 90
        0
176
     1
 40
-0.6
176
     1
 41
-30.0
176
     1
 62
     5
 63
     7
421
 16777215
176
     1
 74
     0
176
     1
 91
        4
176
     1
 64
     7
176
     1
 65
   257
176
     1
 75
     1
176
     1
175
     1
176
     1
 42
1.0
176
     1
 92
        8
176
     1
 66
     7
176
     1
 43
1.0
176
     1
 76
     1
176
     1
 77
     6
176
     1
 78
     2
176
     1
 67
     7
176
     1
 79
     5
176
     1
170
     0
176
     1
171
     0
176
     1
290
     0
176
     1
 93
        1
176
     1
 44
0.0
176
     1
173
     0
176
     1
  0
VISUALSTYLE
  5
36
102
{ACAD_REACTORS
330
2A
102
}
330
2A
100
AcDbVisualStyle
  2
Brighten
 70
    12
177
     2
291
     1
 71
     2
176
     1
 72
     2
176
     1
 73
     0
176
     1
 90
        0
176
     1
 40
-0.6
176
     1
 41
-30.0
176
     1
 62
     5
 63
     7
421
 16777215
176
     1
 74
     1
176
     1
 91
        4
176
     1
 64
     7
176
     1
 65
   257
176
     1
 75
     1
176
     1
175
     1
176
     1
 42
1.0
176
     1
 92
        8
176
     1
 66
     7
176
     1
 43
1.0
176
     1
 76
     1
176
     1
 77
     6
176
     1
 78
     2
176
     1
 67
     7
176
     1
 79
     5
176
     1
170
     0
176
     1
171
     0
176
     1
290
     0
176
     1
 93
        1
176
     1
 44
50.0
176
     1
173
     0
176
     1
  0
VISUALSTYLE
  5
3A
102
{ACAD_REACTORS
330
2A
102
}
330
2A
100
AcDbVisualStyle
  2
ColorChange
 70
    16
177
     2
291
     1
 71
     2
176
     1
 72
     2
176
     1
 73
     3
176
     1
 90
        0
176
     1
 40
-0.6
176
     1
 41
-30.0
176
     1
 62
     5
 63
     8
421
  8421504
176
     1
 74
     1
176
     1
 91
        4
176
     1
 64
     7
176
     1
 65
   257
176
     1
 75
     1
176
     1
175
     1
176
     1
 42
1.0
176
     1
 92
        8
176
     1
 66
     8
424
  8421504
176
     1
 43
1.0
176
     1
 76
     1
176
     1
 77
     6
176
     1
 78
     2
176
     1
 67
     7
176
     1
 79
     5
176
     1
170
     0
176
     1
171
     0
176
     1
290
     0
176
     1
 93
        1
176
     1
 44
0.0
176
     1
173
     0
176
     1
  0
VISUALSTYLE
  5
34
102
{ACAD_REACTORS
330
2A
102
}
330
2A
100
AcDbVisualStyle
  2
Conceptual
 70
     9
177
     2
291
     0
 71
     3
176
     1
 72
     2
176
     1
 73
     0
176
     1
 90
        0
176
     1
 40
-0.6
176
     1
 41
-30.0
176
     1
 62
     5
 63
     7
421
 16777215
176
     1
 74
     2
176
     1
 91
        2
176
     1
 64
     7
176
     1
 65
   257
176
     1
 75
     1
176
     1
175
     1
176
     1
 42
40.0
176
     1
 92
        8
176
     1
 66
     7
176
     1
 43
1.0
176
     1
 76
     1
176
     1
 77
     6
176
     1
 78
     2
176
     1
 67
     7
176
     1
 79
     3
176
     1
170
     0
176
     1
171
     0
176
     1
290
     0
176
     1
 93
        1
176
     1
 44
0.0
176
     1
173
     0
176
     1
  0
VISUALSTYLE
  5
35
102
{ACAD_REACTORS
330
2A
102
}
330
2A
100
AcDbVisualStyle
  2
Dim
 70
    11
177
     2
291
     1
 71
     2
176
     1
 72
     2
176
     1
 73
     0
176
     1
 90
        0
176
     1
 40
-0.6
176
     1
 41
-30.0
176
     1
 62
     5
 63
     7
421
 16777215
176
     1
 74
     1
176
     1
 91
        4
176
     1
 64
     7
176
     1
 65
   257
176
     1
 75
     1
176
     1
175
     1
176
     1
 42
1.0
176
     1
 92
        8
176
     1
 66
     7
176
     1
 43
1.0
176
     1
 76
     1
176
     1
 77
     6
176
     1
 78
     2
176
     1
 67
     7
176
     1
 79
     5
176
     1
170
     0
176
     1
171
     0
176
     1
290
     0
176
     1
 93
        1
176
     1
 44
-50.0
176
     1
173
     0
176
     1
  0
VISUALSTYLE
  5
39
102
{ACAD_REACTORS
330
2A
102
}
330
2A
100
AcDbVisualStyle
  2
Facepattern
 70
    15
177
     2
291
     1
 71
     2
176
     1
 72
     2
176
     1
 73
     0
176
     1
 90
        0
176
     1
 40
-0.6
176
     1
 41
-30.0
176
     1
 62
     5
 63
     7
421
 16777215
176
     1
 74
     1
176
     1
 91
        4
176
     1
 64
     7
176
     1
 65
   257
176
     1
 75
     1
176
     1
175
     1
176
     1
 42
1.0
176
     1
 92
        8
176
     1
 66
     7
176
     1
 43
1.0
176
     1
 76
     1
176
     1
 77
     6
176
     1
 78
     2
176
     1
 67
     7
176
     1
 79
     5
176
     1
170
     0
176
     1
171
     0
176
     1
290
     0
176
     1
 93
        1
176
     1
 44
0.0
176
     1
173
     0
176
     1
  0
VISUALSTYLE
  5
2B
102
{ACAD_REACTORS
330
2A
102
}
330
2A
100
AcDbVisualStyle
  2
Flat
 70
     0
177
     2
291
     1
 71
     2
176
     1
 72
     1
176
     1
 73
     1
176
     1
 90
        2
176
     1
 40
-0.6
176
     1
 41
30.0
176
     1
 62
     5
 63
     7
421
 16777215
176
     1
 74
     0
176
     1
 91
        4
176
     1
 64
     7
176
     1
 65
   257
176
     1
 75
     1
176
     1
175
     1
176
     1
 42
1.0
176
     1
 92
        8
176
     1
 66
     7
176
     1
 43
1.0
176
     1
 76
     1
176
     1
 77
     6
176
     1
 78
     2
176
     1
 67
     7
176
     1
 79
     5
176
     1
170
     0
176
     1
171
     0
176
     1
290
     0
176
     1
 93
       13
176
     1
 44
0.0
176
     1
173
     0
176
     1
  0
VISUALSTYLE
  5
2C
102
{ACAD_REACTORS
330
2A
102
}
330
2A
100
AcDbVisualStyle
  2
FlatWithEdges
 70
     1
177
     2
291
     1
 71
     2
176
     1
 72
     1
176
     1
 73
     1
176
     1
 90
        2
176
     1
 40
-0.6
176
     1
 41
30.0
176
     1
 62
     5
 63
     7
421
 16777215
176
     1
 74
     1
176
     1
 91
        4
176
     1
 64
     7
176
     1
 65
   257
176
     1
 75
     1
176
     1
175
     1
176
     1
 42
1.0
176
     1
 92
        0
176
     1
 66
   257
176
     1
 43
1.0
176
     1
 76
     1
176
     1
 77
     6
176
     1
 78
     2
176
     1
 67
     7
176
     1
 79
     5
176
     1
170
     0
176
     1
171
     0
176
     1
290
     0
176
     1
 93
       13
176
     1
 44
0.0
176
     1
173
     0
176
     1
  0
VISUALSTYLE
  5
2D
102
{ACAD_REACTORS
330
2A
102
}
330
2A
100
AcDbVisualStyle
  2
Gouraud
 70
     2
177
     2
291
     1
 71
     2
176
     1
 72
     2
176
     1
 73
     1
176
     1
 90
        2
176
     1
 40
-0.6
176
     1
 41
30.0
176
     1
 62
     5
 63
     7
421
 16777215
176
     1
 74
     0
176
     1
 91
        4
176
     1
 64
     7
176
     1
 65
   257
176
     1
 75
     1
176
     1
175
     1
176
     1
 42
1.0
176
     1
 92
        0
176
     1
 66
     7
176
     1
 43
1.0
176
     1
 76
     1
176
     1
 77
     6
176
     1
 78
     2
176
     1
 67
     7
176
     1
 79
     5
176
     1
170
     0
176
     1
171
     0
176
     1
290
     0
176
     1
 93
       13
176
     1
 44
0.0
176
     1
173
     0
176
     1
  0
VISUALSTYLE
  5
2E
102
{ACAD_REACTORS
330
2A
102
}
330
2A
100
AcDbVisualStyle
  2
GouraudWithEdges
 70
     3
177
     2
291
     1
 71
     2
176
     1
 72
     2
176
     1
 73
     1
176
     1
 90
        2
176
     1
 40
-0.6
176
     1
 41
30.0
176
     1
 62
     5
 63
     7
421
 16777215
176
     1
 74
     1
176
     1
 91
        4
176
     1
 64
     7
176
     1
 65
   257
176
     1
 75
     1
176
     1
175
     1
176
     1
 42
1.0
176
     1
 92
        0
176
     1
 66
   257
176
     1
 43
1.0
176
     1
 76
     1
176
     1
 77
     6
176
     1
 78
     2
176
     1
 67
     7
176
     1
 79
     5
176
     1
170
     0
176
     1
171
     0
176
     1
290
     0
176
     1
 93
       13
176
     1
 44
0.0
176
     1
173
     0
176
     1
  0
VISUALSTYLE
  5
38
102
{ACAD_REACTORS
330
2A
102
}
330
2A
100
AcDbVisualStyle
  2
Linepattern
 70
    14
177
     2
291
     1
 71
     2
176
     1
 72
     2
176
     1
 73
     0
176
     1
 90
        0
176
     1
 40
-0.6
176
     1
 41
-30.0
176
     1
 62
     5
 63
     7
421
 16777215
176
     1
 74
     1
176
     1
 91
        4
176
     1
 64
     7
176
     1
 65
   257
176
     1
 75
     7
176
     1
175
     7
176
     1
 42
1.0
176
     1
 92
        8
176
     1
 66
     7
176
     1
 43
1.0
176
     1
 76
     1
176
     1
 77
     6
176
     1
 78
     2
176
     1
 67
     7
176
     1
 79
     5
176
     1
170
     0
176
     1
171
     0
176
     1
290
     0
176
     1
 93
        1
176
     1
 44
0.0
176
     1
173
     0
176
     1
  0
VISUALSTYLE
  5
33
102
{ACAD_REACTORS
330
2A
102
}
330
2A
100
AcDbVisualStyle
  2
Realistic
 70
     8
177
     2
291
     0
 71
     2
176
     1
 72
     2
176
     1
 73
     0
176
     1
 90
        0
176
     1
 40
-0.6
176
     1
 41
-30.0
176
     1
 62
     5
 63
     7
421
 16777215
176
     1
 74
     1
176
     1
 91
        0
176
     1
 64
     7
176
     1
 65
   257
176
     1
 75
     1
176
     1
175
     1
176
     1
 42
1.0
176
     1
 92
        8
176
     1
 66
     8
424
  7895160
176
     1
 43
1.0
176
     1
 76
     1
176
     1
 77
     6
176
     1
 78
     2
176
     1
 67
     7
176
     1
 79
     5
176
     1
170
     0
176
     1
171
     0
176
     1
290
     0
176
     1
 93
       13
176
     1
 44
0.0
176
     1
173
     0
176
     1
  0
VISUALSTYLE
  5
37
102
{ACAD_REACTORS
330
2A
102
}
330
2A
100
AcDbVisualStyle
  2
Thicken
 70
    13
177
     2
291
     1
 71
     2
176
     1
 72
     2
176
     1
 73
     0
176
     1
 90
        0
176
     1
 40
-0.6
176
     1
 41
-30.0
176
     1
 62
     5
 63
     7
421
 16777215
176
     1
 74
     1
176
     1
 91
        4
176
     1
 64
     7
176
     1
 65
   257
176
     1
 75
     1
176
     1
175
     1
176
     1
 42
1.0
176
     1
 92
       12
176
     1
 66
     7
176
     1
 43
1.0
176
     1
 76
     1
176
     1
 77
     6
176
     1
 78
     2
176
     1
 67
     7
176
     1
 79
     5
176
     1
170
     0
176
     1
171
     0
176
     1
290
     0
176
     1
 93
        1
176
     1
 44
0.0
176
     1
173
     0
176
     1
  0
ENDSEC
  0
EOF
