  0
SECTION
  2
HEADER
  9
$ACADVER
  1
AC1024
  9
$ACADMAINTVER
 70
     6
  9
$DWGCODEPAGE
  3
UNDEFINED
  9
$INSBASE
 10
0.0
 20
0.0
 30
0.0
  9
$EXTMIN
 10
1.000000000000000E+20
 20
1.000000000000000E+20
 30
1.000000000000000E+20
  9
$EXTMAX
 10
-1.000000000000000E+20
 20
-1.000000000000000E+20
 30
-1.000000000000000E+20
  9
$LIMMIN
 10
0.0
 20
0.0
  9
$LIMMAX
 10
12.0
 20
9.0
  9
$ORTHOMODE
 70
     0
  9
$REGENMODE
 70
     1
  9
$FILLMODE
 70
     1
  9
$QTEXTMODE
 70
     0
  9
$MIRRTEXT
 70
     1
  9
$LTSCALE
 40
1.0
  9
$ATTMODE
 70
     1
  9
$TEXTSIZE
 40
0.2
  9
$TRACEWID
 40
0.05
  9
$TEXTSTYLE
  7
Standard
  9
$CLAYER
  8
0
  9
$CELTYPE
  6
ByLayer
  9
$CECOLOR
 62
   256
  9
$CELTSCALE
 40
1.0
  9
$DISPSILH
 70
     0
  9
$DIMSCALE
 40
1.0
  9
$DIMASZ
 40
0.18
  9
$DIMEXO
 40
0.0625
  9
$DIMDLI
 40
0.38
  9
$DIMRND
 40
0.0
  9
$DIMDLE
 40
0.0
  9
$DIMEXE
 40
0.18
  9
$DIMTP
 40
0.0
  9
$DIMTM
 40
0.0
  9
$DIMTXT
 40
0.18
  9
$DIMCEN
 40
0.09
  9
$DIMTSZ
 40
0.0
  9
$DIMTOL
 70
     0
  9
$DIMLIM
 70
     0
  9
$DIMTIH
 70
     1
  9
$DIMTOH
 70
     1
  9
$DIMSE1
 70
     0
  9
$DIMSE2
 70
     0
  9
$DIMTAD
 70
     0
  9
$DIMZIN
 70
     0
  9
$DIMBLK
  1

  9
$DIMASO
 70
     1
  9
$DIMSHO
 70
     1
  9
$DIMPOST
  1

  9
$DIMAPOST
  1

  9
$DIMALT
 70
     0
  9
$DIMALTD
 70
     2
  9
$DIMALTF
 40
25.4
  9
$DIMLFAC
 40
1.0
  9
$DIMTOFL
 70
     0
  9
$DIMTVP
 40
0.0
  9
$DIMTIX
 70
     0
  9
$DIMSOXD
 70
     0
  9
$DIMSAH
 70
     0
  9
$DIMBLK1
  1

  9
$DIMBLK2
  1

  9
$DIMSTYLE
  2
Standard
  9
$DIMCLRD
 70
     0
  9
$DIMCLRE
 70
     0
  9
$DIMCLRT
 70
     0
  9
$DIMTFAC
 40
1.0
  9
$DIMGAP
 40
0.09
  9
$DIMJUST
 70
     0
  9
$DIMSD1
 70
     0
  9
$DIMSD2
 70
     0
  9
$DIMTOLJ
 70
     1
  9
$DIMTZIN
 70
     0
  9
$DIMALTZ
 70
     0
  9
$DIMALTTZ
 70
     0
  9
$DIMUPT
 70
     0
  9
$DIMDEC
 70
     4
  9
$DIMTDEC
 70
     4
  9
$DIMALTU
 70
     2
  9
$DIMALTTD
 70
     2
  9
$DIMTXSTY
  7
Standard
  9
$DIMAUNIT
 70
     0
  9
$DIMADEC
 70
     0
  9
$DIMALTRND
 40
0.0
  9
$DIMAZIN
 70
     0
  9
$DIMDSEP
 70
    46
  9
$DIMATFIT
 70
     3
  9
$DIMFRAC
 70
     0
  9
$DIMLDRBLK
  1

  9
$DIMLUNIT
 70
     2
  9
$DIMLWD
 70
    -2
  9
$DIMLWE
 70
    -2
  9
$DIMTMOVE
 70
     0
  9
$DIMFXL
 40
1.0
  9
$DIMFXLON
 70
     0
  9
$DIMJOGANG
 40
0.7853981633974483
  9
$DIMTFILL
 70
     0
  9
$DIMTFILLCLR
 70
     0
  9
$DIMARCSYM
 70
     0
  9
$DIMLTYPE
  6

  9
$DIMLTEX1
  6

  9
$DIMLTEX2
  6

  9
$DIMTXTDIRECTION
 70
     0
  9
$LUNITS
 70
     2
  9
$LUPREC
 70
     4
  9
$SKETCHINC
 40
0.1
  9
$FILLETRAD
 40
0.5
  9
$AUNITS
 70
     0
  9
$AUPREC
 70
     0
  9
$MENU
  1
.
  9
$ELEVATION
 40
0.0
  9
$PELEVATION
 40
0.0
  9
$THICKNESS
 40
0.0
  9
$LIMCHECK
 70
     0
  9
$CHAMFERA
 40
0.5
  9
$CHAMFERB
 40
0.5
  9
$CHAMFERC
 40
1.0
  9
$CHAMFERD
 40
0.0
  9
$SKPOLY
 70
     0
  9
$TDCREATE
 40
2457917.609988414
  9
$TDUCREATE
 40
2457917.234988426
  9
$TDUPDATE
 40
2457917.609988414
  9
$TDUUPDATE
 40
2457917.234988426
  9
$TDINDWG
 40
0.0000000116
  9
$TDUSRTIMER
 40
0.0000000116
  9
$USRTIMER
 70
     1
  9
$ANGBASE
 50
0.0
  9
$ANGDIR
 70
     0
  9
$PDMODE
 70
     0
  9
$PDSIZE
 40
0.0
  9
$PLINEWID
 40
0.0
  9
$SPLFRAME
 70
     0
  9
$SPLINETYPE
 70
     6
  9
$SPLINESEGS
 70
     8
  9
$HANDSEED
  5
9B
  9
$SURFTAB1
 70
     6
  9
$SURFTAB2
 70
     6
  9
$SURFTYPE
 70
     6
  9
$SURFU
 70
     6
  9
$SURFV
 70
     6
  9
$UCSBASE
  2

  9
$UCSNAME
  2

  9
$UCSORG
 10
0.0
 20
0.0
 30
0.0
  9
$UCSXDIR
 10
1.0
 20
0.0
 30
0.0
  9
$UCSYDIR
 10
0.0
 20
1.0
 30
0.0
  9
$UCSORTHOREF
  2

  9
$UCSORTHOVIEW
 70
     0
  9
$UCSORGTOP
 10
0.0
 20
0.0
 30
0.0
  9
$UCSORGBOTTOM
 10
0.0
 20
0.0
 30
0.0
  9
$UCSORGLEFT
 10
0.0
 20
0.0
 30
0.0
  9
$UCSORGRIGHT
 10
0.0
 20
0.0
 30
0.0
  9
$UCSORGFRONT
 10
0.0
 20
0.0
 30
0.0
  9
$UCSORGBACK
 10
0.0
 20
0.0
 30
0.0
  9
$PUCSBASE
  2

  9
$PUCSNAME
  2

  9
$PUCSORG
 10
0.0
 20
0.0
 30
0.0
  9
$PUCSXDIR
 10
1.0
 20
0.0
 30
0.0
  9
$PUCSYDIR
 10
0.0
 20
1.0
 30
0.0
  9
$PUCSORTHOREF
  2

  9
$PUCSORTHOVIEW
 70
     0
  9
$PUCSORGTOP
 10
0.0
 20
0.0
 30
0.0
  9
$PUCSORGBOTTOM
 10
0.0
 20
0.0
 30
0.0
  9
$PUCSORGLEFT
 10
0.0
 20
0.0
 30
0.0
  9
$PUCSORGRIGHT
 10
0.0
 20
0.0
 30
0.0
  9
$PUCSORGFRONT
 10
0.0
 20
0.0
 30
0.0
  9
$PUCSORGBACK
 10
0.0
 20
0.0
 30
0.0
  9
$USERI1
 70
     0
  9
$USERI2
 70
     0
  9
$USERI3
 70
     0
  9
$USERI4
 70
     0
  9
$USERI5
 70
     0
  9
$USERR1
 40
0.0
  9
$USERR2
 40
0.0
  9
$USERR3
 40
0.0
  9
$USERR4
 40
0.0
  9
$USERR5
 40
0.0
  9
$WORLDVIEW
 70
     1
  9
$SHADEDGE
 70
     3
  9
$SHADEDIF
 70
    70
  9
$TILEMODE
 70
     1
  9
$MAXACTVP
 70
    64
  9
$PINSBASE
 10
0.0
 20
0.0
 30
0.0
  9
$PLIMCHECK
 70
     0
  9
$PEXTMIN
 10
1.000000000000000E+20
 20
1.000000000000000E+20
 30
1.000000000000000E+20
  9
$PEXTMAX
 10
-1.000000000000000E+20
 20
-1.000000000000000E+20
 30
-1.000000000000000E+20
  9
$PLIMMIN
 10
0.0
 20
0.0
  9
$PLIMMAX
 10
12.0
 20
9.0
  9
$UNITMODE
 70
     0
  9
$VISRETAIN
 70
     1
  9
$PLINEGEN
 70
     0
  9
$PSLTSCALE
 70
     1
  9
$TREEDEPTH
 70
  3020
  9
$CMLSTYLE
  2
Standard
  9
$CMLJUST
 70
     0
  9
$CMLSCALE
 40
1.0
  9
$PROXYGRAPHICS
 70
     1
  9
$MEASUREMENT
 70
     0
  9
$CELWEIGHT
370
    -1
  9
$ENDCAPS
280
     0
  9
$JOINSTYLE
280
     0
  9
$LWDISPLAY
290
     1
  9
$INSUNITS
 70
     1
  9
$HYPERLINKBASE
  1

  9
$STYLESHEET
  1

  9
$XEDIT
290
     1
  9
$CEPSNTYPE
380
     0
  9
$PSTYLEMODE
290
     1
  9
$FINGERPRINTGUID
  2
{00511ABF-43B8-2150-579D-10E50B3AB6D6}
  9
$VERSIONGUID
  2
{FAEB1C32-E019-11D5-929B-00C0DF256EC4}
  9
$EXTNAMES
290
     1
  9
$PSVPSCALE
 40
0.0
  9
$OLESTARTUP
290
     0
  9
$SORTENTS
280
   127
  9
$INDEXCTL
280
     0
  9
$HIDETEXT
280
     1
  9
$XCLIPFRAME
280
     2
  9
$HALOGAP
280
     0
  9
$OBSCOLOR
 70
   257
  9
$OBSLTYPE
280
     0
  9
$INTERSECTIONDISPLAY
280
     0
  9
$INTERSECTIONCOLOR
 70
   257
  9
$DIMASSOC
280
     2
  9
$PROJECTNAME
  1

  9
$CAMERADISPLAY
290
     0
  9
$LENSLENGTH
 40
50.0
  9
$CAMERAHEIGHT
 40
0.0
  9
$STEPSPERSEC
 40
2.0
  9
$STEPSIZE
 40
6.0
  9
$3DDWFPREC
 40
2.0
  9
$PSOLWIDTH
 40
0.25
  9
$PSOLHEIGHT
 40
4.0
  9
$LOFTANG1
 40
1.570796326794897
  9
$LOFTANG2
 40
1.570796326794897
  9
$LOFTMAG1
 40
0.0
  9
$LOFTMAG2
 40
0.0
  9
$LOFTPARAM
 70
     7
  9
$LOFTNORMALS
280
     1
  9
$LATITUDE
 40
37.795
  9
$LONGITUDE
 40
-122.394
  9
$NORTHDIRECTION
 40
0.0
  9
$TIMEZONE
 70
 -8000
  9
$LIGHTGLYPHDISPLAY
280
     1
  9
$TILEMODELIGHTSYNCH
280
     1
  9
$CMATERIAL
347
3C
  9
$SOLIDHIST
280
     1
  9
$SHOWHIST
280
     1
  9
$DWFFRAME
280
     2
  9
$DGNFRAME
280
     2
  9
$REALWORLDSCALE
290
     1
  9
$INTERFERECOLOR
 62
   256
  9
$CSHADOW
280
     0
  9
$SHADOWPLANELOCATION
 40
0.0
  0
ENDSEC
  0
SECTION
  2
CLASSES
  0
CLASS
  1
ACDBDICTIONARYWDFLT
  2
AcDbDictionaryWithDefault
  3
ObjectDBX Classes
 90
        0
 91
        4
280
     0
281
     0
  0
CLASS
  1
VISUALSTYLE
  2
AcDbVisualStyle
  3
ObjectDBX Classes
 90
     4095
 91
        4
280
     0
281
     0
  0
CLASS
  1
MATERIAL
  2
AcDbMaterial
  3
ObjectDBX Classes
 90
     1153
 91
        4
280
     0
281
     0
  0
CLASS
  1
SUN
  2
AcDbSun
  3
SCENEOE
 90
     1024
 91
        4
280
     0
281
     0
  0
ENDSEC
  0
SECTION
  2
TABLES
  0
TABLE
  2
VPORT
  5
8
330
0
100
AcDbSymbolTable
 70
     1
  0
VPORT
  5
29
330
8
100
AcDbSymbolTableRecord
100
AcDbViewportTableRecord
  2
*Active
 70
     0
 10
0.0
 20
0.0
 11
1.0
 21
1.0
 12
0.0
 22
0.0
 13
0.0
 23
0.0
 14
0.5
 24
0.5
 15
0.5
 25
0.5
 16
0.0
 26
0.0
 36
1.0
 17
91.00082462281999
 27
-128.4993055234307
 37
0.0
 40
256.9986110468615
 41
0.7081814508812795
 42
50.0
 43
0.0
 44
0.0
 50
0.0
 51
0.0
 71
     0
 72
   100
 73
     1
 74
     3
 75
     0
 76
     0
 77
     0
 78
     0
281
     0
 65
     1
110
0.0
120
0.0
130
0.0
111
1.0
121
0.0
131
0.0
112
0.0
122
1.0
132
0.0
 79
     0
146
0.0
 60
     3
 61
     5
292
     1
282
     1
141
0.0
142
0.0
 63
   250
361
3F
  0
ENDTAB
  0
TABLE
  2
LTYPE
  5
5
330
0
100
AcDbSymbolTable
 70
     1
  0
LTYPE
  5
14
330
5
100
AcDbSymbolTableRecord
100
AcDbLinetypeTableRecord
  2
ByBlock
 70
     0
  3

 72
    65
 73
     0
 40
0.0
  0
LTYPE
  5
15
330
5
100
AcDbSymbolTableRecord
100
AcDbLinetypeTableRecord
  2
ByLayer
 70
     0
  3

 72
    65
 73
     0
 40
0.0
  0
LTYPE
  5
16
330
5
100
AcDbSymbolTableRecord
100
AcDbLinetypeTableRecord
  2
Continuous
 70
     0
  3
Solid line
 72
    65
 73
     0
 40
0.0
  0
ENDTAB
  0
TABLE
  2
LAYER
  5
2
330
0
100
AcDbSymbolTable
 70
     2
  0
LAYER
  5
10
330
2
100
AcDbSymbolTableRecord
100
AcDbLayerTableRecord
  2
0
 70
     0
 62
     7
  6
Continuous
370
    -3
390
F
347
3E
  0
LAYER
  5
40
330
2
100
AcDbSymbolTableRecord
100
AcDbLayerTableRecord
  2
_U+30EC_U+30A4_U+30E4_U+30FC 1
 70
     0
 62
     7
  6
Continuous
370
    -3
390
F
347
3E
  0
ENDTAB
  0
TABLE
  2
STYLE
  5
3
330
0
100
AcDbSymbolTable
 70
     1
  0
STYLE
  5
11
330
3
100
AcDbSymbolTableRecord
100
AcDbTextStyleTableRecord
  2
Standard
 70
     0
 40
0.0
 41
1.0
 50
0.0
 71
     0
 42
0.2
  3
txt
  4

  0
ENDTAB
  0
TABLE
  2
VIEW
  5
6
330
0
100
AcDbSymbolTable
 70
     0
  0
ENDTAB
  0
TABLE
  2
UCS
  5
7
330
0
100
AcDbSymbolTable
 70
     0
  0
ENDTAB
  0
TABLE
  2
APPID
  5
9
330
0
100
AcDbSymbolTable
 70
     1
  0
APPID
  5
12
330
9
100
AcDbSymbolTableRecord
100
AcDbRegAppTableRecord
  2
ACAD
 70
     0
  0
ENDTAB
  0
TABLE
  2
DIMSTYLE
  5
A
330
0
100
AcDbSymbolTable
 70
     1
100
AcDbDimStyleTable
  0
DIMSTYLE
105
27
330
A
100
AcDbSymbolTableRecord
100
AcDbDimStyleTableRecord
  2
Standard
 70
     0
178
     0
340
11
  0
ENDTAB
  0
TABLE
  2
BLOCK_RECORD
  5
1
330
0
100
AcDbSymbolTable
 70
     4
  0
BLOCK_RECORD
  5
1F
330
1
100
AcDbSymbolTableRecord
100
AcDbBlockTableRecord
  2
*Model_Space
340
22
 70
     0
280
     1
281
     0
  0
BLOCK_RECORD
  5
1B
330
1
100
AcDbSymbolTableRecord
100
AcDbBlockTableRecord
  2
*Paper_Space
340
1E
 70
     0
280
     1
281
     0
  0
BLOCK_RECORD
  5
23
330
1
100
AcDbSymbolTableRecord
100
AcDbBlockTableRecord
  2
*Paper_Space0
340
26
 70
     0
280
     1
281
     0
  0
BLOCK_RECORD
  5
42
330
1
100
AcDbSymbolTableRecord
100
AcDbBlockTableRecord
  2
block 2
340
0
102
{BLKREFS
331
43
102
}
 70
     0
280
     1
281
     0
  0
BLOCK_RECORD
  5
68
330
1
100
AcDbSymbolTableRecord
100
AcDbBlockTableRecord
  2
block 3
340
0
102
{BLKREFS
331
69
102
}
 70
     0
280
     1
281
     0
  0
BLOCK_RECORD
  5
88
330
1
100
AcDbSymbolTableRecord
100
AcDbBlockTableRecord
  2
block 4
340
0
102
{BLKREFS
331
89
102
}
 70
     0
280
     1
281
     0
  0
ENDTAB
  0
ENDSEC
  0
SECTION
  2
BLOCKS
  0
BLOCK
  5
20
330
1F
100
AcDbEntity
  8
0
100
AcDbBlockBegin
  2
*Model_Space
 70
     0
 10
0.0
 20
0.0
 30
0.0
  3
*Model_Space
  1

  0
ENDBLK
  5
21
330
1F
100
AcDbEntity
  8
0
100
AcDbBlockEnd
  0
BLOCK
  5
1C
330
1B
100
AcDbEntity
 67
     1
  8
0
100
AcDbBlockBegin
  2
*Paper_Space
 70
     0
 10
0.0
 20
0.0
 30
0.0
  3
*Paper_Space
  1

  0
ENDBLK
  5
1D
330
1B
100
AcDbEntity
 67
     1
  8
0
100
AcDbBlockEnd
  0
BLOCK
  5
24
330
23
100
AcDbEntity
  8
0
100
AcDbBlockBegin
  2
*Paper_Space0
 70
     0
 10
0.0
 20
0.0
 30
0.0
  3
*Paper_Space0
  1

  0
ENDBLK
  5
25
330
23
100
AcDbEntity
  8
0
100
AcDbBlockEnd
  0
BLOCK
  5
44
330
42
100
AcDbEntity
  8
0
100
AcDbBlockBegin
  2
block 2
 70
     0
 10
0.0
 20
0.0
 30
0.0
  3
block 2
  1

  0
SPLINE
  5
46
330
42
100
AcDbEntity
  8
_U+30EC_U+30A4_U+30E4_U+30FC 1
370
     0
100
AcDbSpline
210
0.0
220
0.0
230
1.0
 70
    11
 71
     3
 72
    44
 73
    40
 74
     0
 42
0.0000000001
 43
0.0000000001
 12
1.0
 22
0.0
 32
0.0
 13
1.0
 23
0.0
 33
0.0
 40
0.0
 40
0.0
 40
0.0
 40
0.0
 40
1.0
 40
1.0
 40
1.0
 40
2.0
 40
2.0
 40
2.0
 40
3.0
 40
3.0
 40
3.0
 40
4.0
 40
4.0
 40
4.0
 40
5.0
 40
5.0
 40
5.0
 40
6.0
 40
6.0
 40
6.0
 40
7.0
 40
7.0
 40
7.0
 40
8.0
 40
8.0
 40
8.0
 40
9.0
 40
9.0
 40
9.0
 40
10.0
 40
10.0
 40
10.0
 40
11.0
 40
11.0
 40
11.0
 40
12.0
 40
12.0
 40
12.0
 40
13.0
 40
13.0
 40
13.0
 40
13.0
 10
84.721788173264
 20
-127.7958170253427
 30
0.0
 10
84.69836152396431
 20
-127.751375293583
 30
0.0
 10
84.67734644150428
 20
-127.6984930778844
 30
0.0
 10
84.67510712943887
 20
-127.4678439351469
 30
0.0
 10
84.67097301485657
 20
-127.2246201938883
 30
0.0
 10
84.61171737251027
 20
-127.154857010312
 30
0.0
 10
84.43395044547138
 20
-127.154857010312
 30
0.0
 10
84.43395044547138
 20
-127.154857010312
 30
0.0
 10
84.02570663046927
 20
-127.154857010312
 30
0.0
 10
84.02570663046927
 20
-127.154857010312
 30
0.0
 10
84.02570663046927
 20
-127.154857010312
 30
0.0
 10
84.02570663046927
 20
-127.7958170253427
 30
0.0
 10
84.02570663046927
 20
-127.7958170253427
 30
0.0
 10
84.02570663046927
 20
-127.7958170253427
 30
0.0
 10
83.7909233731495
 20
-127.7958170253427
 30
0.0
 10
83.7909233731495
 20
-127.7958170253427
 30
0.0
 10
83.7909233731495
 20
-127.7958170253427
 30
0.0
 10
83.7909233731495
 20
-126.2515529740795
 30
0.0
 10
83.7909233731495
 20
-126.2515529740795
 30
0.0
 10
83.7909233731495
 20
-126.2515529740795
 30
0.0
 10
84.46564532393568
 20
-126.2515529740795
 30
0.0
 10
84.46564532393568
 20
-126.2515529740795
 30
0.0
 10
84.77243107689718
 20
-126.2515529740795
 30
0.0
 10
84.93969046270605
 20
-126.4227742196964
 30
0.0
 10
84.93969046270605
 20
-126.6789170690247
 30
0.0
 10
84.93969046270605
 20
-126.7295599726579
 30
0.0
 10
84.93107772399293
 20
-126.8120700095296
 30
0.0
 10
84.88663599223321
 20
-126.8925129891102
 30
0.0
 10
84.82755260466116
 20
-126.9962103632162
 30
0.0
 10
84.76192353566717
 20
-127.0151583883851
 30
0.0
 10
84.70060083602972
 20
-127.0320393562628
 30
0.0
 10
84.83806014589118
 20
-127.0744140307314
 30
0.0
 10
84.90575627217635
 20
-127.1231621318477
 30
0.0
 10
84.9100626415329
 20
-127.4382161139738
 30
0.0
 10
84.9141967561152
 20
-127.7090006191144
 30
0.0
 10
84.95019800393607
 20
-127.740867752353
 30
0.0
 10
85.01789413022122
 20
-127.7958170253427
 30
0.0
 10
85.01789413022122
 20
-127.7958170253427
 30
0.0
 10
84.721788173264
 20
-127.7958170253427
 30
0.0
 10
84.721788173264
 20
-127.7958170253427
 30
0.0
  0
SPLINE
  5
47
330
42
100
AcDbEntity
  8
_U+30EC_U+30A4_U+30E4_U+30FC 1
370
     0
100
AcDbSpline
210
0.0
220
0.0
230
1.0
 70
    11
 71
     3
 72
    20
 73
    16
 74
     0
 42
0.0000000001
 43
0.0000000001
 12
1.0
 22
0.0
 32
0.0
 13
1.0
 23
0.0
 33
0.0
 40
0.0
 40
0.0
 40
0.0
 40
0.0
 40
1.0
 40
1.0
 40
1.0
 40
2.0
 40
2.0
 40
2.0
 40
3.0
 40
3.0
 40
3.0
 40
4.0
 40
4.0
 40
4.0
 40
5.0
 40
5.0
 40
5.0
 40
5.0
 10
84.46995169329224
 20
-126.4630818368738
 30
0.0
 10
84.46995169329224
 20
-126.4630818368738
 30
0.0
 10
84.02570663046927
 20
-126.4630818368738
 30
0.0
 10
84.02570663046927
 20
-126.4630818368738
 30
0.0
 10
84.02570663046927
 20
-126.4630818368738
 30
0.0
 10
84.02570663046927
 20
-126.9433281475176
 30
0.0
 10
84.02570663046927
 20
-126.9433281475176
 30
0.0
 10
84.02570663046927
 20
-126.9433281475176
 30
0.0
 10
84.46788463600109
 20
-126.9433281475176
 30
0.0
 10
84.46788463600109
 20
-126.9433281475176
 30
0.0
 10
84.56727564075055
 20
-126.9433281475176
 30
0.0
 10
84.70266789332086
 20
-126.8671915372936
 30
0.0
 10
84.70266789332086
 20
-126.6957980369024
 30
0.0
 10
84.70266789332086
 20
-126.617422114613
 30
0.0
 10
84.66890595756541
 20
-126.4630818368738
 30
0.0
 10
84.46995169329224
 20
-126.4630818368738
 30
0.0
  0
HATCH
  5
48
330
42
100
AcDbEntity
  8
_U+30EC_U+30A4_U+30E4_U+30FC 1
 62
   179
420
  2234388
100
AcDbHatch
 10
0.0
 20
0.0
 30
0.0
210
0.0
220
0.0
230
1.0
  2
SOLID
 70
     1
 71
     0
 91
        2
 92
        1
 93
        1
 72
     4
 94
        3
 73
     0
 74
     1
 95
       44
 96
       40
 40
0.0
 40
0.0
 40
0.0
 40
0.0
 40
1.0
 40
1.0
 40
1.0
 40
2.0
 40
2.0
 40
2.0
 40
3.0
 40
3.0
 40
3.0
 40
4.0
 40
4.0
 40
4.0
 40
5.0
 40
5.0
 40
5.0
 40
6.0
 40
6.0
 40
6.0
 40
7.0
 40
7.0
 40
7.0
 40
8.0
 40
8.0
 40
8.0
 40
9.0
 40
9.0
 40
9.0
 40
10.0
 40
10.0
 40
10.0
 40
11.0
 40
11.0
 40
11.0
 40
12.0
 40
12.0
 40
12.0
 40
13.0
 40
13.0
 40
13.0
 40
13.0
 10
84.721788173264
 20
-127.7958170253427
 10
84.69836152396431
 20
-127.751375293583
 10
84.67734644150428
 20
-127.6984930778844
 10
84.67510712943887
 20
-127.4678439351469
 10
84.67097301485657
 20
-127.2246201938883
 10
84.61171737251027
 20
-127.154857010312
 10
84.43395044547138
 20
-127.154857010312
 10
84.43395044547138
 20
-127.154857010312
 10
84.02570663046927
 20
-127.154857010312
 10
84.02570663046927
 20
-127.154857010312
 10
84.02570663046927
 20
-127.154857010312
 10
84.02570663046927
 20
-127.7958170253427
 10
84.02570663046927
 20
-127.7958170253427
 10
84.02570663046927
 20
-127.7958170253427
 10
83.7909233731495
 20
-127.7958170253427
 10
83.7909233731495
 20
-127.7958170253427
 10
83.7909233731495
 20
-127.7958170253427
 10
83.7909233731495
 20
-126.2515529740795
 10
83.7909233731495
 20
-126.2515529740795
 10
83.7909233731495
 20
-126.2515529740795
 10
84.46564532393568
 20
-126.2515529740795
 10
84.46564532393568
 20
-126.2515529740795
 10
84.77243107689718
 20
-126.2515529740795
 10
84.93969046270605
 20
-126.4227742196964
 10
84.93969046270605
 20
-126.6789170690247
 10
84.93969046270605
 20
-126.7295599726579
 10
84.93107772399293
 20
-126.8120700095296
 10
84.88663599223321
 20
-126.8925129891102
 10
84.82755260466116
 20
-126.9962103632162
 10
84.76192353566717
 20
-127.0151583883851
 10
84.70060083602972
 20
-127.0320393562628
 10
84.83806014589118
 20
-127.0744140307314
 10
84.90575627217635
 20
-127.1231621318477
 10
84.9100626415329
 20
-127.4382161139738
 10
84.9141967561152
 20
-127.7090006191144
 10
84.95019800393607
 20
-127.740867752353
 10
85.01789413022122
 20
-127.7958170253427
 10
85.01789413022122
 20
-127.7958170253427
 10
84.721788173264
 20
-127.7958170253427
 10
84.721788173264
 20
-127.7958170253427
 97
        0
 97
        0
 92
        1
 93
        1
 72
     4
 94
        3
 73
     0
 74
     1
 95
       20
 96
       16
 40
0.0
 40
0.0
 40
0.0
 40
0.0
 40
1.0
 40
1.0
 40
1.0
 40
2.0
 40
2.0
 40
2.0
 40
3.0
 40
3.0
 40
3.0
 40
4.0
 40
4.0
 40
4.0
 40
5.0
 40
5.0
 40
5.0
 40
5.0
 10
84.46995169329224
 20
-126.4630818368738
 10
84.46995169329224
 20
-126.4630818368738
 10
84.02570663046927
 20
-126.4630818368738
 10
84.02570663046927
 20
-126.4630818368738
 10
84.02570663046927
 20
-126.4630818368738
 10
84.02570663046927
 20
-126.9433281475176
 10
84.02570663046927
 20
-126.9433281475176
 10
84.02570663046927
 20
-126.9433281475176
 10
84.46788463600109
 20
-126.9433281475176
 10
84.46788463600109
 20
-126.9433281475176
 10
84.56727564075055
 20
-126.9433281475176
 10
84.70266789332086
 20
-126.8671915372936
 10
84.70266789332086
 20
-126.6957980369024
 10
84.70266789332086
 20
-126.617422114613
 10
84.66890595756541
 20
-126.4630818368738
 10
84.46995169329224
 20
-126.4630818368738
 97
        0
 97
        0
 75
     2
 76
     1
 98
        0
  0
SPLINE
  5
49
330
42
100
AcDbEntity
  8
_U+30EC_U+30A4_U+30E4_U+30FC 1
370
     0
100
AcDbSpline
210
0.0
220
0.0
230
1.0
 70
    11
 71
     3
 72
    26
 73
    22
 74
     0
 42
0.0000000001
 43
0.0000000001
 12
1.0
 22
0.0
 32
0.0
 13
1.0
 23
0.0
 33
0.0
 40
0.0
 40
0.0
 40
0.0
 40
0.0
 40
1.0
 40
1.0
 40
1.0
 40
2.0
 40
2.0
 40
2.0
 40
3.0
 40
3.0
 40
3.0
 40
4.0
 40
4.0
 40
4.0
 40
5.0
 40
5.0
 40
5.0
 40
6.0
 40
6.0
 40
6.0
 40
7.0
 40
7.0
 40
7.0
 40
7.0
 10
85.60890026071583
 20
-127.7958170253427
 30
0.0
 10
85.60890026071583
 20
-127.7958170253427
 30
0.0
 10
85.60890026071583
 20
-126.6914916675459
 30
0.0
 10
85.60890026071583
 20
-126.6914916675459
 30
0.0
 10
85.60890026071583
 20
-126.6914916675459
 30
0.0
 10
85.2788601132289
 20
-126.6914916675459
 30
0.0
 10
85.2788601132289
 20
-126.6914916675459
 30
0.0
 10
85.2788601132289
 20
-126.6914916675459
 30
0.0
 10
85.2788601132289
 20
-126.5435248164544
 30
0.0
 10
85.2788601132289
 20
-126.5435248164544
 30
0.0
 10
85.61096731800698
 20
-126.5287109058678
 30
0.0
 10
85.65747610705786
 20
-126.3657578894155
 30
0.0
 10
85.68710392823101
 20
-126.2515529740795
 30
0.0
 10
85.68710392823101
 20
-126.2515529740795
 30
0.0
 10
85.83317597680559
 20
-126.2515529740795
 30
0.0
 10
85.83317597680559
 20
-126.2515529740795
 30
0.0
 10
85.83317597680559
 20
-126.2515529740795
 30
0.0
 10
85.83317597680559
 20
-127.7958170253427
 30
0.0
 10
85.83317597680559
 20
-127.7958170253427
 30
0.0
 10
85.83317597680559
 20
-127.7958170253427
 30
0.0
 10
85.60890026071583
 20
-127.7958170253427
 30
0.0
 10
85.60890026071583
 20
-127.7958170253427
 30
0.0
  0
HATCH
  5
4A
330
42
100
AcDbEntity
  8
_U+30EC_U+30A4_U+30E4_U+30FC 1
 62
   179
420
  2234388
100
AcDbHatch
 10
0.0
 20
0.0
 30
0.0
210
0.0
220
0.0
230
1.0
  2
SOLID
 70
     1
 71
     0
 91
        1
 92
        1
 93
        1
 72
     4
 94
        3
 73
     0
 74
     1
 95
       26
 96
       22
 40
0.0
 40
0.0
 40
0.0
 40
0.0
 40
1.0
 40
1.0
 40
1.0
 40
2.0
 40
2.0
 40
2.0
 40
3.0
 40
3.0
 40
3.0
 40
4.0
 40
4.0
 40
4.0
 40
5.0
 40
5.0
 40
5.0
 40
6.0
 40
6.0
 40
6.0
 40
7.0
 40
7.0
 40
7.0
 40
7.0
 10
85.60890026071583
 20
-127.7958170253427
 10
85.60890026071583
 20
-127.7958170253427
 10
85.60890026071583
 20
-126.6914916675459
 10
85.60890026071583
 20
-126.6914916675459
 10
85.60890026071583
 20
-126.6914916675459
 10
85.2788601132289
 20
-126.6914916675459
 10
85.2788601132289
 20
-126.6914916675459
 10
85.2788601132289
 20
-126.6914916675459
 10
85.2788601132289
 20
-126.5435248164544
 10
85.2788601132289
 20
-126.5435248164544
 10
85.61096731800698
 20
-126.5287109058678
 10
85.65747610705786
 20
-126.3657578894155
 10
85.68710392823101
 20
-126.2515529740795
 10
85.68710392823101
 20
-126.2515529740795
 10
85.83317597680559
 20
-126.2515529740795
 10
85.83317597680559
 20
-126.2515529740795
 10
85.83317597680559
 20
-126.2515529740795
 10
85.83317597680559
 20
-127.7958170253427
 10
85.83317597680559
 20
-127.7958170253427
 10
85.83317597680559
 20
-127.7958170253427
 10
85.60890026071583
 20
-127.7958170253427
 10
85.60890026071583
 20
-127.7958170253427
 97
        0
 97
        0
 75
     2
 76
     1
 98
        0
  0
SPLINE
  5
4B
330
42
100
AcDbEntity
  8
_U+30EC_U+30A4_U+30E4_U+30FC 1
370
     0
100
AcDbSpline
210
0.0
220
0.0
230
1.0
 70
    11
 71
     3
 72
    29
 73
    25
 74
     0
 42
0.0000000001
 43
0.0000000001
 12
1.0
 22
0.0
 32
0.0
 13
1.0
 23
0.0
 33
0.0
 40
0.0
 40
0.0
 40
0.0
 40
0.0
 40
1.0
 40
1.0
 40
1.0
 40
2.0
 40
2.0
 40
2.0
 40
3.0
 40
3.0
 40
3.0
 40
4.0
 40
4.0
 40
4.0
 40
5.0
 40
5.0
 40
5.0
 40
6.0
 40
6.0
 40
6.0
 40
7.0
 40
7.0
 40
7.0
 40
8.0
 40
8.0
 40
8.0
 40
8.0
 10
87.23205699859129
 20
-127.6180500983038
 30
0.0
 10
87.12422550990297
 20
-127.827511903807
 30
0.0
 10
86.95076495222065
 20
-127.8466321837502
 30
0.0
 10
86.83432072481921
 20
-127.8466321837502
 30
0.0
 10
86.6736070204323
 20
-127.8466321837502
 30
0.0
 10
86.53184134121426
 20
-127.8001233946993
 30
0.0
 10
86.43658445104711
 20
-127.6180500983038
 30
0.0
 10
86.33305933171535
 20
-127.4234022033872
 30
0.0
 10
86.31393905177221
 20
-127.1865518887763
 30
0.0
 10
86.31393905177221
 20
-127.023598872324
 30
0.0
 10
86.31393905177221
 20
-126.8797661358148
 30
0.0
 10
86.33082001964993
 20
-126.6281019106173
 30
0.0
 10
86.43658445104711
 20
-126.4291476463441
 30
0.0
 10
86.54458819450969
 20
-126.2260592674886
 30
0.0
 10
86.7053018988966
 20
-126.2028048729632
 30
0.0
 10
86.83432072481921
 20
-126.2028048729632
 30
0.0
 10
86.99296737191496
 20
-126.2028048729632
 30
0.0
 10
87.13680010842414
 20
-126.2472466047229
 30
0.0
 10
87.23205699859129
 20
-126.4291476463441
 30
0.0
 10
87.33144800334075
 20
-126.6217284839696
 30
0.0
 10
87.35470239786619
 20
-126.8501383146416
 30
0.0
 10
87.35470239786619
 20
-127.023598872324
 30
0.0
 10
87.35470239786619
 20
-127.1949923727151
 30
0.0
 10
87.33368731540617
 20
-127.4256415154526
 30
0.0
 10
87.23205699859129
 20
-127.6180500983038
 30
0.0
  0
SPLINE
  5
4C
330
42
100
AcDbEntity
  8
_U+30EC_U+30A4_U+30E4_U+30FC 1
370
     0
100
AcDbSpline
210
0.0
220
0.0
230
1.0
 70
    11
 71
     3
 72
    17
 73
    13
 74
     0
 42
0.0000000001
 43
0.0000000001
 12
1.0
 22
0.0
 32
0.0
 13
1.0
 23
0.0
 33
0.0
 40
0.0
 40
0.0
 40
0.0
 40
0.0
 40
1.0
 40
1.0
 40
1.0
 40
2.0
 40
2.0
 40
2.0
 40
3.0
 40
3.0
 40
3.0
 40
4.0
 40
4.0
 40
4.0
 40
4.0
 10
86.83432072481921
 20
-126.3953857105887
 30
0.0
 10
86.58472355691285
 20
-126.3953857105887
 30
0.0
 10
86.53821476786197
 20
-126.6789170690247
 30
0.0
 10
86.53821476786197
 20
-127.023598872324
 30
0.0
 10
86.53821476786197
 20
-127.3431314785809
 30
0.0
 10
86.57421601568284
 20
-127.6519842888335
 30
0.0
 10
86.83432072481921
 20
-127.6519842888335
 30
0.0
 10
87.08185083543441
 20
-127.6519842888335
 30
0.0
 10
87.13059893655068
 20
-127.3705199876886
 30
0.0
 10
87.13059893655068
 20
-127.023598872324
 30
0.0
 10
87.13059893655068
 20
-126.7042385208413
 30
0.0
 10
87.09253063143868
 20
-126.3953857105887
 30
0.0
 10
86.83432072481921
 20
-126.3953857105887
 30
0.0
  0
HATCH
  5
4D
330
42
100
AcDbEntity
  8
_U+30EC_U+30A4_U+30E4_U+30FC 1
 62
   179
420
  2234388
100
AcDbHatch
 10
0.0
 20
0.0
 30
0.0
210
0.0
220
0.0
230
1.0
  2
SOLID
 70
     1
 71
     0
 91
        2
 92
        1
 93
        1
 72
     4
 94
        3
 73
     0
 74
     1
 95
       29
 96
       25
 40
0.0
 40
0.0
 40
0.0
 40
0.0
 40
1.0
 40
1.0
 40
1.0
 40
2.0
 40
2.0
 40
2.0
 40
3.0
 40
3.0
 40
3.0
 40
4.0
 40
4.0
 40
4.0
 40
5.0
 40
5.0
 40
5.0
 40
6.0
 40
6.0
 40
6.0
 40
7.0
 40
7.0
 40
7.0
 40
8.0
 40
8.0
 40
8.0
 40
8.0
 10
87.23205699859129
 20
-127.6180500983038
 10
87.12422550990297
 20
-127.827511903807
 10
86.95076495222065
 20
-127.8466321837502
 10
86.83432072481921
 20
-127.8466321837502
 10
86.6736070204323
 20
-127.8466321837502
 10
86.53184134121426
 20
-127.8001233946993
 10
86.43658445104711
 20
-127.6180500983038
 10
86.33305933171535
 20
-127.4234022033872
 10
86.31393905177221
 20
-127.1865518887763
 10
86.31393905177221
 20
-127.023598872324
 10
86.31393905177221
 20
-126.8797661358148
 10
86.33082001964993
 20
-126.6281019106173
 10
86.43658445104711
 20
-126.4291476463441
 10
86.54458819450969
 20
-126.2260592674886
 10
86.7053018988966
 20
-126.2028048729632
 10
86.83432072481921
 20
-126.2028048729632
 10
86.99296737191496
 20
-126.2028048729632
 10
87.13680010842414
 20
-126.2472466047229
 10
87.23205699859129
 20
-126.4291476463441
 10
87.33144800334075
 20
-126.6217284839696
 10
87.35470239786619
 20
-126.8501383146416
 10
87.35470239786619
 20
-127.023598872324
 10
87.35470239786619
 20
-127.1949923727151
 10
87.33368731540617
 20
-127.4256415154526
 10
87.23205699859129
 20
-127.6180500983038
 97
        0
 97
        0
 92
        1
 93
        1
 72
     4
 94
        3
 73
     0
 74
     1
 95
       17
 96
       13
 40
0.0
 40
0.0
 40
0.0
 40
0.0
 40
1.0
 40
1.0
 40
1.0
 40
2.0
 40
2.0
 40
2.0
 40
3.0
 40
3.0
 40
3.0
 40
4.0
 40
4.0
 40
4.0
 40
4.0
 10
86.83432072481921
 20
-126.3953857105887
 10
86.58472355691285
 20
-126.3953857105887
 10
86.53821476786197
 20
-126.6789170690247
 10
86.53821476786197
 20
-127.023598872324
 10
86.53821476786197
 20
-127.3431314785809
 10
86.57421601568284
 20
-127.6519842888335
 10
86.83432072481921
 20
-127.6519842888335
 10
87.08185083543441
 20
-127.6519842888335
 10
87.13059893655068
 20
-127.3705199876886
 10
87.13059893655068
 20
-127.023598872324
 10
87.13059893655068
 20
-126.7042385208413
 10
87.09253063143868
 20
-126.3953857105887
 10
86.83432072481921
 20
-126.3953857105887
 97
        0
 97
        0
 75
     2
 76
     1
 98
        0
  0
ENDBLK
  5
45
330
42
100
AcDbEntity
  8
0
100
AcDbBlockEnd
  0
BLOCK
  5
6A
330
68
100
AcDbEntity
  8
0
100
AcDbBlockBegin
  2
block 3
 70
     0
 10
0.0
 20
0.0
 30
0.0
  3
block 3
  1

  0
SPLINE
  5
6C
330
68
100
AcDbEntity
  8
_U+30EC_U+30A4_U+30E4_U+30FC 1
370
     0
100
AcDbSpline
210
0.0
220
0.0
230
1.0
 70
    11
 71
     3
 72
    29
 73
    25
 74
     0
 42
0.0000000001
 43
0.0000000001
 12
1.0
 22
0.0
 32
0.0
 13
1.0
 23
0.0
 33
0.0
 40
0.0
 40
0.0
 40
0.0
 40
0.0
 40
1.0
 40
1.0
 40
1.0
 40
2.0
 40
2.0
 40
2.0
 40
3.0
 40
3.0
 40
3.0
 40
4.0
 40
4.0
 40
4.0
 40
5.0
 40
5.0
 40
5.0
 40
6.0
 40
6.0
 40
6.0
 40
7.0
 40
7.0
 40
7.0
 40
8.0
 40
8.0
 40
8.0
 40
8.0
 10
95.34611814022597
 20
-119.5391289306187
 30
0.0
 10
95.23794214198912
 20
-119.7485907361219
 30
0.0
 10
95.06465383908106
 20
-119.767711016065
 30
0.0
 10
94.94820961167962
 20
-119.767711016065
 30
0.0
 10
94.78732365251845
 20
-119.767711016065
 30
0.0
 10
94.64573022807468
 20
-119.7212022270141
 30
0.0
 10
94.55064559268179
 20
-119.5391289306187
 30
0.0
 10
94.44694821857577
 20
-119.3446532904763
 30
0.0
 10
94.42800019340689
 20
-119.1076307210912
 30
0.0
 10
94.42800019340689
 20
-118.9446777046388
 30
0.0
 10
94.42800019340689
 20
-118.8008449681297
 30
0.0
 10
94.44488116128461
 20
-118.5491807429322
 30
0.0
 10
94.55064559268179
 20
-118.350226478659
 30
0.0
 10
94.65847708137011
 20
-118.1471380998035
 30
0.0
 10
94.81936304053127
 20
-118.1238837052781
 30
0.0
 10
94.94820961167962
 20
-118.1238837052781
 30
0.0
 10
95.10702851354964
 20
-118.1238837052781
 30
0.0
 10
95.25068899528455
 20
-118.1683254370378
 30
0.0
 10
95.34611814022597
 20
-118.350226478659
 30
0.0
 10
95.44533689020118
 20
-118.5428073162844
 30
0.0
 10
95.46876353950087
 20
-118.7712171469565
 30
0.0
 10
95.46876353950087
 20
-118.9446777046388
 30
0.0
 10
95.46876353950087
 20
-119.11607120503
 30
0.0
 10
95.44740394749232
 20
-119.3467203477675
 30
0.0
 10
95.34611814022597
 20
-119.5391289306187
 30
0.0
  0
SPLINE
  5
6D
330
68
100
AcDbEntity
  8
_U+30EC_U+30A4_U+30E4_U+30FC 1
370
     0
100
AcDbSpline
210
0.0
220
0.0
230
1.0
 70
    11
 71
     3
 72
    17
 73
    13
 74
     0
 42
0.0000000001
 43
0.0000000001
 12
1.0
 22
0.0
 32
0.0
 13
1.0
 23
0.0
 33
0.0
 40
0.0
 40
0.0
 40
0.0
 40
0.0
 40
1.0
 40
1.0
 40
1.0
 40
2.0
 40
2.0
 40
2.0
 40
3.0
 40
3.0
 40
3.0
 40
4.0
 40
4.0
 40
4.0
 40
4.0
 10
94.94820961167962
 20
-118.3164645429035
 30
0.0
 10
94.69878469854753
 20
-118.3164645429035
 30
0.0
 10
94.65193139994813
 20
-118.5998236465653
 30
0.0
 10
94.65193139994813
 20
-118.9446777046388
 30
0.0
 10
94.65193139994813
 20
-119.2642103108958
 30
0.0
 10
94.68810490254326
 20
-119.5730631211484
 30
0.0
 10
94.94820961167962
 20
-119.5730631211484
 30
0.0
 10
95.19591197706909
 20
-119.5730631211484
 30
0.0
 10
95.2444878234111
 20
-119.2915988200035
 30
0.0
 10
95.2444878234111
 20
-118.9446777046388
 30
0.0
 10
95.2444878234111
 20
-118.6253173531562
 30
0.0
 10
95.20624726352483
 20
-118.3164645429035
 30
0.0
 10
94.94820961167962
 20
-118.3164645429035
 30
0.0
  0
HATCH
  5
6E
330
68
100
AcDbEntity
  8
_U+30EC_U+30A4_U+30E4_U+30FC 1
 62
     7
420
 16777215
100
AcDbHatch
 10
0.0
 20
0.0
 30
0.0
210
0.0
220
0.0
230
1.0
  2
SOLID
 70
     1
 71
     0
 91
        2
 92
        1
 93
        1
 72
     4
 94
        3
 73
     0
 74
     1
 95
       29
 96
       25
 40
0.0
 40
0.0
 40
0.0
 40
0.0
 40
1.0
 40
1.0
 40
1.0
 40
2.0
 40
2.0
 40
2.0
 40
3.0
 40
3.0
 40
3.0
 40
4.0
 40
4.0
 40
4.0
 40
5.0
 40
5.0
 40
5.0
 40
6.0
 40
6.0
 40
6.0
 40
7.0
 40
7.0
 40
7.0
 40
8.0
 40
8.0
 40
8.0
 40
8.0
 10
95.34611814022597
 20
-119.5391289306187
 10
95.23794214198912
 20
-119.7485907361219
 10
95.06465383908106
 20
-119.767711016065
 10
94.94820961167962
 20
-119.767711016065
 10
94.78732365251845
 20
-119.767711016065
 10
94.64573022807468
 20
-119.7212022270141
 10
94.55064559268179
 20
-119.5391289306187
 10
94.44694821857577
 20
-119.3446532904763
 10
94.42800019340689
 20
-119.1076307210912
 10
94.42800019340689
 20
-118.9446777046388
 10
94.42800019340689
 20
-118.8008449681297
 10
94.44488116128461
 20
-118.5491807429322
 10
94.55064559268179
 20
-118.350226478659
 10
94.65847708137011
 20
-118.1471380998035
 10
94.81936304053127
 20
-118.1238837052781
 10
94.94820961167962
 20
-118.1238837052781
 10
95.10702851354964
 20
-118.1238837052781
 10
95.25068899528455
 20
-118.1683254370378
 10
95.34611814022597
 20
-118.350226478659
 10
95.44533689020118
 20
-118.5428073162844
 10
95.46876353950087
 20
-118.7712171469565
 10
95.46876353950087
 20
-118.9446777046388
 10
95.46876353950087
 20
-119.11607120503
 10
95.44740394749232
 20
-119.3467203477675
 10
95.34611814022597
 20
-119.5391289306187
 97
        0
 97
        0
 92
        1
 93
        1
 72
     4
 94
        3
 73
     0
 74
     1
 95
       17
 96
       13
 40
0.0
 40
0.0
 40
0.0
 40
0.0
 40
1.0
 40
1.0
 40
1.0
 40
2.0
 40
2.0
 40
2.0
 40
3.0
 40
3.0
 40
3.0
 40
4.0
 40
4.0
 40
4.0
 40
4.0
 10
94.94820961167962
 20
-118.3164645429035
 10
94.69878469854753
 20
-118.3164645429035
 10
94.65193139994813
 20
-118.5998236465653
 10
94.65193139994813
 20
-118.9446777046388
 10
94.65193139994813
 20
-119.2642103108958
 10
94.68810490254326
 20
-119.5730631211484
 10
94.94820961167962
 20
-119.5730631211484
 10
95.19591197706909
 20
-119.5730631211484
 10
95.2444878234111
 20
-119.2915988200035
 10
95.2444878234111
 20
-118.9446777046388
 10
95.2444878234111
 20
-118.6253173531562
 10
95.20624726352483
 20
-118.3164645429035
 10
94.94820961167962
 20
-118.3164645429035
 97
        0
 97
        0
 75
     2
 76
     1
 98
        0
  0
POLYLINE
  5
6F
330
68
100
AcDbEntity
  8
_U+30EC_U+30A4_U+30E4_U+30FC 1
370
     0
100
AcDb2dPolyline
 66
     1
 10
0.0
 20
0.0
 30
0.0
  0
VERTEX
  5
70
330
6F
100
AcDbEntity
  8
_U+30EC_U+30A4_U+30E4_U+30FC 1
370
     0
100
AcDbVertex
100
AcDb2dVertex
 10
95.68511553597456
 20
-119.7168958576576
 30
0.0
  0
VERTEX
  5
71
330
6F
100
AcDbEntity
  8
_U+30EC_U+30A4_U+30E4_U+30FC 1
370
     0
100
AcDbVertex
100
AcDb2dVertex
 10
95.68511553597456
 20
-119.4652316324601
 30
0.0
  0
VERTEX
  5
72
330
6F
100
AcDbEntity
  8
_U+30EC_U+30A4_U+30E4_U+30FC 1
370
     0
100
AcDbVertex
100
AcDb2dVertex
 10
95.93695201594632
 20
-119.4652316324601
 30
0.0
  0
VERTEX
  5
73
330
6F
100
AcDbEntity
  8
_U+30EC_U+30A4_U+30E4_U+30FC 1
370
     0
100
AcDbVertex
100
AcDb2dVertex
 10
95.93695201594632
 20
-119.7168958576576
 30
0.0
  0
VERTEX
  5
74
330
6F
100
AcDbEntity
  8
_U+30EC_U+30A4_U+30E4_U+30FC 1
370
     0
100
AcDbVertex
100
AcDb2dVertex
 10
95.68511553597456
 20
-119.7168958576576
 30
0.0
  0
SEQEND
  5
75
330
6F
100
AcDbEntity
  8
_U+30EC_U+30A4_U+30E4_U+30FC 1
370
     0
  0
HATCH
  5
76
330
68
100
AcDbEntity
  8
_U+30EC_U+30A4_U+30E4_U+30FC 1
 62
     7
420
 16777215
100
AcDbHatch
 10
0.0
 20
0.0
 30
0.0
210
0.0
220
0.0
230
1.0
  2
SOLID
 70
     1
 71
     0
 91
        1
 92
        1
 93
        4
 72
     1
 10
95.68511553597456
 20
-119.7168958576576
 11
95.68511553597456
 21
-119.4652316324601
 72
     1
 10
95.68511553597456
 20
-119.4652316324601
 11
95.93695201594632
 21
-119.4652316324601
 72
     1
 10
95.93695201594632
 20
-119.4652316324601
 11
95.93695201594632
 21
-119.7168958576576
 72
     1
 10
95.93695201594632
 20
-119.7168958576576
 11
95.68511553597456
 21
-119.7168958576576
 97
        0
 75
     2
 76
     1
 98
        0
  0
SPLINE
  5
77
330
68
100
AcDbEntity
  8
_U+30EC_U+30A4_U+30E4_U+30FC 1
370
     0
100
AcDbSpline
210
0.0
220
0.0
230
1.0
 70
    11
 71
     3
 72
    32
 73
    28
 74
     0
 42
0.0000000001
 43
0.0000000001
 12
1.0
 22
0.0
 32
0.0
 13
1.0
 23
0.0
 33
0.0
 40
0.0
 40
0.0
 40
0.0
 40
0.0
 40
1.0
 40
1.0
 40
1.0
 40
2.0
 40
2.0
 40
2.0
 40
3.0
 40
3.0
 40
3.0
 40
4.0
 40
4.0
 40
4.0
 40
5.0
 40
5.0
 40
5.0
 40
6.0
 40
6.0
 40
6.0
 40
7.0
 40
7.0
 40
7.0
 40
8.0
 40
8.0
 40
8.0
 40
9.0
 40
9.0
 40
9.0
 40
9.0
 10
96.67764754527504
 20
-119.767711016065
 30
0.0
 10
96.16122773203608
 20
-119.767711016065
 30
0.0
 10
96.15295950287148
 20
-119.2133951524883
 30
0.0
 10
96.15295950287148
 20
-118.9997992324028
 30
0.0
 10
96.15295950287148
 20
-118.7691500896654
 30
0.0
 10
96.17190752804036
 20
-118.1218166479869
 30
0.0
 10
96.71554359561279
 20
-118.1218166479869
 30
0.0
 10
96.88917640806937
 20
-118.1218166479869
 30
0.0
 10
97.13446720661916
 20
-118.1915798315632
 30
0.0
 10
97.17270776650544
 20
-118.5236870363413
 30
0.0
 10
97.17270776650544
 20
-118.5236870363413
 30
0.0
 10
96.95876733687142
 20
-118.5236870363413
 30
0.0
 10
96.95876733687142
 20
-118.5236870363413
 30
0.0
 10
96.94843205041568
 20
-118.4666707060604
 30
0.0
 10
96.91673717195138
 20
-118.3185316001947
 30
0.0
 10
96.71347653832163
 20
-118.3185316001947
 30
0.0
 10
96.42167695072098
 20
-118.3185316001947
 30
0.0
 10
96.38136933354355
 20
-118.6465046903905
 30
0.0
 10
96.36862248024812
 20
-118.8516601265371
 30
0.0
 10
96.46164005834987
 20
-118.7734564590219
 30
0.0
 10
96.5295084394093
 20
-118.7142008166756
 30
0.0
 10
96.71140948103049
 20
-118.7142008166756
 30
0.0
 10
96.89124346536053
 20
-118.7142008166756
 30
0.0
 10
97.19372284896546
 20
-118.8220323053639
 30
0.0
 10
97.19372284896546
 20
-119.2282090630749
 30
0.0
 10
97.19372284896546
 20
-119.5475694145576
 30
0.0
 10
96.99494083946655
 20
-119.767711016065
 30
0.0
 10
96.67764754527504
 20
-119.767711016065
 30
0.0
  0
SPLINE
  5
78
330
68
100
AcDbEntity
  8
_U+30EC_U+30A4_U+30E4_U+30FC 1
370
     0
100
AcDbSpline
210
0.0
220
0.0
230
1.0
 70
    11
 71
     3
 72
    17
 73
    13
 74
     0
 42
0.0000000001
 43
0.0000000001
 12
1.0
 22
0.0
 32
0.0
 13
1.0
 23
0.0
 33
0.0
 40
0.0
 40
0.0
 40
0.0
 40
0.0
 40
1.0
 40
1.0
 40
1.0
 40
2.0
 40
2.0
 40
2.0
 40
3.0
 40
3.0
 40
3.0
 40
4.0
 40
4.0
 40
4.0
 40
4.0
 10
96.69452851315276
 20
-118.9088487115922
 30
0.0
 10
96.43201223717672
 20
-118.9088487115922
 30
0.0
 10
96.39411618683897
 20
-119.1203775743866
 30
0.0
 10
96.39411618683897
 20
-119.2366495470138
 30
0.0
 10
96.39411618683897
 20
-119.4121771619872
 30
0.0
 10
96.48920082223187
 20
-119.5751301784396
 30
0.0
 10
96.67316892114421
 20
-119.5751301784396
 30
0.0
 10
96.79374726312795
 20
-119.5751301784396
 30
0.0
 10
96.9694471328757
 20
-119.5158745360933
 30
0.0
 10
96.9694471328757
 20
-119.230276120366
 30
0.0
 10
96.9694471328757
 20
-119.0060004042763
 30
0.0
 10
96.82992076572307
 20
-118.9088487115922
 30
0.0
 10
96.69452851315276
 20
-118.9088487115922
 30
0.0
  0
HATCH
  5
79
330
68
100
AcDbEntity
  8
_U+30EC_U+30A4_U+30E4_U+30FC 1
 62
     7
420
 16777215
100
AcDbHatch
 10
0.0
 20
0.0
 30
0.0
210
0.0
220
0.0
230
1.0
  2
SOLID
 70
     1
 71
     0
 91
        2
 92
        1
 93
        1
 72
     4
 94
        3
 73
     0
 74
     1
 95
       32
 96
       28
 40
0.0
 40
0.0
 40
0.0
 40
0.0
 40
1.0
 40
1.0
 40
1.0
 40
2.0
 40
2.0
 40
2.0
 40
3.0
 40
3.0
 40
3.0
 40
4.0
 40
4.0
 40
4.0
 40
5.0
 40
5.0
 40
5.0
 40
6.0
 40
6.0
 40
6.0
 40
7.0
 40
7.0
 40
7.0
 40
8.0
 40
8.0
 40
8.0
 40
9.0
 40
9.0
 40
9.0
 40
9.0
 10
96.67764754527504
 20
-119.767711016065
 10
96.16122773203608
 20
-119.767711016065
 10
96.15295950287148
 20
-119.2133951524883
 10
96.15295950287148
 20
-118.9997992324028
 10
96.15295950287148
 20
-118.7691500896654
 10
96.17190752804036
 20
-118.1218166479869
 10
96.71554359561279
 20
-118.1218166479869
 10
96.88917640806937
 20
-118.1218166479869
 10
97.13446720661916
 20
-118.1915798315632
 10
97.17270776650544
 20
-118.5236870363413
 10
97.17270776650544
 20
-118.5236870363413
 10
96.95876733687142
 20
-118.5236870363413
 10
96.95876733687142
 20
-118.5236870363413
 10
96.94843205041568
 20
-118.4666707060604
 10
96.91673717195138
 20
-118.3185316001947
 10
96.71347653832163
 20
-118.3185316001947
 10
96.42167695072098
 20
-118.3185316001947
 10
96.38136933354355
 20
-118.6465046903905
 10
96.36862248024812
 20
-118.8516601265371
 10
96.46164005834987
 20
-118.7734564590219
 10
96.5295084394093
 20
-118.7142008166756
 10
96.71140948103049
 20
-118.7142008166756
 10
96.89124346536053
 20
-118.7142008166756
 10
97.19372284896546
 20
-118.8220323053639
 10
97.19372284896546
 20
-119.2282090630749
 10
97.19372284896546
 20
-119.5475694145576
 10
96.99494083946655
 20
-119.767711016065
 10
96.67764754527504
 20
-119.767711016065
 97
        0
 97
        0
 92
        1
 93
        1
 72
     4
 94
        3
 73
     0
 74
     1
 95
       17
 96
       13
 40
0.0
 40
0.0
 40
0.0
 40
0.0
 40
1.0
 40
1.0
 40
1.0
 40
2.0
 40
2.0
 40
2.0
 40
3.0
 40
3.0
 40
3.0
 40
4.0
 40
4.0
 40
4.0
 40
4.0
 10
96.69452851315276
 20
-118.9088487115922
 10
96.43201223717672
 20
-118.9088487115922
 10
96.39411618683897
 20
-119.1203775743866
 10
96.39411618683897
 20
-119.2366495470138
 10
96.39411618683897
 20
-119.4121771619872
 10
96.48920082223187
 20
-119.5751301784396
 10
96.67316892114421
 20
-119.5751301784396
 10
96.79374726312795
 20
-119.5751301784396
 10
96.9694471328757
 20
-119.5158745360933
 10
96.9694471328757
 20
-119.230276120366
 10
96.9694471328757
 20
-119.0060004042763
 10
96.82992076572307
 20
-118.9088487115922
 10
96.69452851315276
 20
-118.9088487115922
 97
        0
 97
        0
 75
     2
 76
     1
 98
        0
  0
ENDBLK
  5
6B
330
68
100
AcDbEntity
  8
0
100
AcDbBlockEnd
  0
BLOCK
  5
8A
330
88
100
AcDbEntity
  8
0
100
AcDbBlockBegin
  2
block 4
 70
     0
 10
0.0
 20
0.0
 30
0.0
  3
block 4
  1

  0
SPLINE
  5
8C
330
88
100
AcDbEntity
  8
_U+30EC_U+30A4_U+30E4_U+30FC 1
370
     0
100
AcDbSpline
210
0.0
220
0.0
230
1.0
 70
    11
 71
     3
 72
    32
 73
    28
 74
     0
 42
0.0000000001
 43
0.0000000001
 12
1.0
 22
0.0
 32
0.0
 13
1.0
 23
0.0
 33
0.0
 40
0.0
 40
0.0
 40
0.0
 40
0.0
 40
1.0
 40
1.0
 40
1.0
 40
2.0
 40
2.0
 40
2.0
 40
3.0
 40
3.0
 40
3.0
 40
4.0
 40
4.0
 40
4.0
 40
5.0
 40
5.0
 40
5.0
 40
6.0
 40
6.0
 40
6.0
 40
7.0
 40
7.0
 40
7.0
 40
8.0
 40
8.0
 40
8.0
 40
9.0
 40
9.0
 40
9.0
 40
9.0
 10
88.26834172055445
 20
-137.4441514413334
 30
0.0
 10
88.09470890809786
 20
-137.4441514413334
 30
0.0
 10
87.84941810954807
 20
-137.3745605125314
 30
0.0
 10
87.81134980443606
 20
-137.0424533077533
 30
0.0
 10
87.81134980443606
 20
-137.0424533077533
 30
0.0
 10
88.02494572452154
 20
-137.0424533077533
 30
0.0
 10
88.02494572452154
 20
-137.0424533077533
 30
0.0
 10
88.03562552052583
 20
-137.1017089500996
 30
0.0
 10
88.06732039899012
 20
-137.2495035464168
 30
0.0
 10
88.2704087778456
 20
-137.2495035464168
 30
0.0
 10
88.56238062022052
 20
-137.2495035464168
 30
0.0
 10
88.60044892533253
 20
-136.9198079084784
 30
0.0
 10
88.6130235238537
 20
-136.7144802175575
 30
0.0
 10
88.52207300304309
 20
-136.7947509423638
 30
0.0
 10
88.45437687675793
 20
-136.851939527419
 30
0.0
 10
88.27247583513675
 20
-136.851939527419
 30
0.0
 10
88.0926418508067
 20
-136.851939527419
 30
0.0
 10
87.79016246720177
 20
-136.7461750960218
 30
0.0
 10
87.79016246720177
 20
-136.3399983383108
 30
0.0
 10
87.79016246720177
 20
-136.0206379868282
 30
0.0
 10
87.98894447670068
 20
-135.8004963853207
 30
0.0
 10
88.30641002566645
 20
-135.8004963853207
 30
0.0
 10
88.82041827206574
 20
-135.8004963853207
 30
0.0
 10
88.83092581329575
 20
-136.3548122488974
 30
0.0
 10
88.83092581329575
 20
-136.5684081689829
 30
0.0
 10
88.83092581329575
 20
-136.7988850569461
 30
0.0
 10
88.81197778812687
 20
-137.4441514413334
 30
0.0
 10
88.26834172055445
 20
-137.4441514413334
 30
0.0
  0
SPLINE
  5
8D
330
88
100
AcDbEntity
  8
_U+30EC_U+30A4_U+30E4_U+30FC 1
370
     0
100
AcDbSpline
210
0.0
220
0.0
230
1.0
 70
    11
 71
     3
 72
    17
 73
    13
 74
     0
 42
0.0000000001
 43
0.0000000001
 12
1.0
 22
0.0
 32
0.0
 13
1.0
 23
0.0
 33
0.0
 40
0.0
 40
0.0
 40
0.0
 40
0.0
 40
1.0
 40
1.0
 40
1.0
 40
2.0
 40
2.0
 40
2.0
 40
3.0
 40
3.0
 40
3.0
 40
4.0
 40
4.0
 40
4.0
 40
4.0
 10
88.30847708295761
 20
-135.9930772229462
 30
0.0
 10
88.189965798265
 20
-135.9930772229462
 30
0.0
 10
88.01443818329153
 20
-136.0502658080013
 30
0.0
 10
88.01443818329153
 20
-136.3358642237285
 30
0.0
 10
88.01443818329153
 20
-136.5622069971095
 30
0.0
 10
88.15396455044416
 20
-136.6572916325024
 30
0.0
 10
88.28935680301447
 20
-136.6572916325024
 30
0.0
 10
88.55170082421624
 20
-136.6572916325024
 30
0.0
 10
88.58976912932826
 20
-136.4478298269992
 30
0.0
 10
88.58976912932826
 20
-136.3313855995977
 30
0.0
 10
88.58976912932826
 20
-136.1560302393985
 30
0.0
 10
88.49468449393537
 20
-135.9930772229462
 30
0.0
 10
88.30847708295761
 20
-135.9930772229462
 30
0.0
  0
HATCH
  5
8E
330
88
100
AcDbEntity
  8
_U+30EC_U+30A4_U+30E4_U+30FC 1
 62
     7
420
 16777215
100
AcDbHatch
 10
0.0
 20
0.0
 30
0.0
210
0.0
220
0.0
230
1.0
  2
SOLID
 70
     1
 71
     0
 91
        2
 92
        1
 93
        1
 72
     4
 94
        3
 73
     0
 74
     1
 95
       32
 96
       28
 40
0.0
 40
0.0
 40
0.0
 40
0.0
 40
1.0
 40
1.0
 40
1.0
 40
2.0
 40
2.0
 40
2.0
 40
3.0
 40
3.0
 40
3.0
 40
4.0
 40
4.0
 40
4.0
 40
5.0
 40
5.0
 40
5.0
 40
6.0
 40
6.0
 40
6.0
 40
7.0
 40
7.0
 40
7.0
 40
8.0
 40
8.0
 40
8.0
 40
9.0
 40
9.0
 40
9.0
 40
9.0
 10
88.26834172055445
 20
-137.4441514413334
 10
88.09470890809786
 20
-137.4441514413334
 10
87.84941810954807
 20
-137.3745605125314
 10
87.81134980443606
 20
-137.0424533077533
 10
87.81134980443606
 20
-137.0424533077533
 10
88.02494572452154
 20
-137.0424533077533
 10
88.02494572452154
 20
-137.0424533077533
 10
88.03562552052583
 20
-137.1017089500996
 10
88.06732039899012
 20
-137.2495035464168
 10
88.2704087778456
 20
-137.2495035464168
 10
88.56238062022052
 20
-137.2495035464168
 10
88.60044892533253
 20
-136.9198079084784
 10
88.6130235238537
 20
-136.7144802175575
 10
88.52207300304309
 20
-136.7947509423638
 10
88.45437687675793
 20
-136.851939527419
 10
88.27247583513675
 20
-136.851939527419
 10
88.0926418508067
 20
-136.851939527419
 10
87.79016246720177
 20
-136.7461750960218
 10
87.79016246720177
 20
-136.3399983383108
 10
87.79016246720177
 20
-136.0206379868282
 10
87.98894447670068
 20
-135.8004963853207
 10
88.30641002566645
 20
-135.8004963853207
 10
88.82041827206574
 20
-135.8004963853207
 10
88.83092581329575
 20
-136.3548122488974
 10
88.83092581329575
 20
-136.5684081689829
 10
88.83092581329575
 20
-136.7988850569461
 10
88.81197778812687
 20
-137.4441514413334
 10
88.26834172055445
 20
-137.4441514413334
 97
        0
 97
        0
 92
        1
 93
        1
 72
     4
 94
        3
 73
     0
 74
     1
 95
       17
 96
       13
 40
0.0
 40
0.0
 40
0.0
 40
0.0
 40
1.0
 40
1.0
 40
1.0
 40
2.0
 40
2.0
 40
2.0
 40
3.0
 40
3.0
 40
3.0
 40
4.0
 40
4.0
 40
4.0
 40
4.0
 10
88.30847708295761
 20
-135.9930772229462
 10
88.189965798265
 20
-135.9930772229462
 10
88.01443818329153
 20
-136.0502658080013
 10
88.01443818329153
 20
-136.3358642237285
 10
88.01443818329153
 20
-136.5622069971095
 10
88.15396455044416
 20
-136.6572916325024
 10
88.28935680301447
 20
-136.6572916325024
 10
88.55170082421624
 20
-136.6572916325024
 10
88.58976912932826
 20
-136.4478298269992
 10
88.58976912932826
 20
-136.3313855995977
 10
88.58976912932826
 20
-136.1560302393985
 10
88.49468449393537
 20
-135.9930772229462
 10
88.30847708295761
 20
-135.9930772229462
 97
        0
 97
        0
 75
     2
 76
     1
 98
        0
  0
POLYLINE
  5
8F
330
88
100
AcDbEntity
  8
_U+30EC_U+30A4_U+30E4_U+30FC 1
370
     0
100
AcDb2dPolyline
 66
     1
 10
0.0
 20
0.0
 30
0.0
  0
VERTEX
  5
90
330
8F
100
AcDbEntity
  8
_U+30EC_U+30A4_U+30E4_U+30FC 1
370
     0
100
AcDbVertex
100
AcDb2dVertex
 10
89.0474500645437
 20
-137.3935085377002
 30
0.0
  0
VERTEX
  5
91
330
8F
100
AcDbEntity
  8
_U+30EC_U+30A4_U+30E4_U+30FC 1
370
     0
100
AcDbVertex
100
AcDb2dVertex
 10
89.0474500645437
 20
-137.1416720577285
 30
0.0
  0
VERTEX
  5
92
330
8F
100
AcDbEntity
  8
_U+30EC_U+30A4_U+30E4_U+30FC 1
370
     0
100
AcDbVertex
100
AcDb2dVertex
 10
89.2991142897412
 20
-137.1416720577285
 30
0.0
  0
VERTEX
  5
93
330
8F
100
AcDbEntity
  8
_U+30EC_U+30A4_U+30E4_U+30FC 1
370
     0
100
AcDbVertex
100
AcDb2dVertex
 10
89.2991142897412
 20
-137.3935085377002
 30
0.0
  0
VERTEX
  5
94
330
8F
100
AcDbEntity
  8
_U+30EC_U+30A4_U+30E4_U+30FC 1
370
     0
100
AcDbVertex
100
AcDb2dVertex
 10
89.0474500645437
 20
-137.3935085377002
 30
0.0
  0
SEQEND
  5
95
330
8F
100
AcDbEntity
  8
_U+30EC_U+30A4_U+30E4_U+30FC 1
370
     0
  0
HATCH
  5
96
330
88
100
AcDbEntity
  8
_U+30EC_U+30A4_U+30E4_U+30FC 1
 62
     7
420
 16777215
100
AcDbHatch
 10
0.0
 20
0.0
 30
0.0
210
0.0
220
0.0
230
1.0
  2
SOLID
 70
     1
 71
     0
 91
        1
 92
        1
 93
        4
 72
     1
 10
89.0474500645437
 20
-137.3935085377002
 11
89.0474500645437
 21
-137.1416720577285
 72
     1
 10
89.0474500645437
 20
-137.1416720577285
 11
89.2991142897412
 21
-137.1416720577285
 72
     1
 10
89.2991142897412
 20
-137.1416720577285
 11
89.2991142897412
 21
-137.3935085377002
 72
     1
 10
89.2991142897412
 20
-137.3935085377002
 11
89.0474500645437
 21
-137.3935085377002
 97
        0
 75
     2
 76
     1
 98
        0
  0
SPLINE
  5
97
330
88
100
AcDbEntity
  8
_U+30EC_U+30A4_U+30E4_U+30FC 1
370
     0
100
AcDbSpline
210
0.0
220
0.0
230
1.0
 70
    11
 71
     3
 72
    53
 73
    49
 74
     0
 42
0.0000000001
 43
0.0000000001
 12
1.0
 22
0.0
 32
0.0
 13
1.0
 23
0.0
 33
0.0
 40
0.0
 40
0.0
 40
0.0
 40
0.0
 40
1.0
 40
1.0
 40
1.0
 40
2.0
 40
2.0
 40
2.0
 40
3.0
 40
3.0
 40
3.0
 40
4.0
 40
4.0
 40
4.0
 40
5.0
 40
5.0
 40
5.0
 40
6.0
 40
6.0
 40
6.0
 40
7.0
 40
7.0
 40
7.0
 40
8.0
 40
8.0
 40
8.0
 40
9.0
 40
9.0
 40
9.0
 40
10.0
 40
10.0
 40
10.0
 40
11.0
 40
11.0
 40
11.0
 40
12.0
 40
12.0
 40
12.0
 40
13.0
 40
13.0
 40
13.0
 40
14.0
 40
14.0
 40
14.0
 40
15.0
 40
15.0
 40
15.0
 40
16.0
 40
16.0
 40
16.0
 40
16.0
 10
90.01672767931873
 20
-137.4441514413334
 30
0.0
 10
89.93852401180357
 20
-137.4441514413334
 30
0.0
 10
89.8368936949887
 20
-137.4272704734557
 30
0.0
 10
89.73526337817383
 20
-137.3638807165271
 30
0.0
 10
89.56197507526576
 20
-137.2539821705476
 30
0.0
 10
89.54061548325721
 20
-137.1227240325596
 30
0.0
 10
89.52166745808833
 20
-137.0148925438713
 30
0.0
 10
89.52166745808833
 20
-137.0148925438713
 30
0.0
 10
89.74387611688695
 20
-137.0148925438713
 30
0.0
 10
89.74387611688695
 20
-137.0148925438713
 30
0.0
 10
89.79865313510243
 20
-137.2136745533702
 30
0.0
 10
89.92577715850814
 20
-137.2433023745433
 30
0.0
 10
90.01879473660989
 20
-137.2433023745433
 30
0.0
 10
90.1583211037625
 20
-137.2433023745433
 30
0.0
 10
90.31059432421056
 20
-137.1437391150196
 30
0.0
 10
90.31059432421056
 20
-136.9111951697653
 30
0.0
 10
90.31059432421056
 20
-136.6552245752112
 30
0.0
 10
90.13076033988051
 20
-136.5852891368606
 30
0.0
 10
90.01018199789677
 20
-136.5852891368606
 30
0.0
 10
89.97848711943247
 20
-136.5852891368606
 30
0.0
 10
89.8368936949887
 20
-136.5852891368606
 30
0.0
 10
89.74801023146925
 20
-136.7144802175575
 30
0.0
 10
89.74801023146925
 20
-136.7144802175575
 30
0.0
 10
89.5723103617215
 20
-136.6955321923886
 30
0.0
 10
89.5723103617215
 20
-136.6955321923886
 30
0.0
 10
89.5723103617215
 20
-136.6955321923886
 30
0.0
 10
89.69288870370525
 20
-135.8490722316627
 30
0.0
 10
89.69288870370525
 20
-135.8490722316627
 30
0.0
 10
89.69288870370525
 20
-135.8490722316627
 30
0.0
 10
90.47148028337172
 20
-135.8490722316627
 30
0.0
 10
90.47148028337172
 20
-135.8490722316627
 30
0.0
 10
90.47148028337172
 20
-135.8490722316627
 30
0.0
 10
90.47148028337172
 20
-136.0437201265794
 30
0.0
 10
90.47148028337172
 20
-136.0437201265794
 30
0.0
 10
90.47148028337172
 20
-136.0437201265794
 30
0.0
 10
89.85584172015757
 20
-136.0437201265794
 30
0.0
 10
89.85584172015757
 20
-136.0437201265794
 30
0.0
 10
89.85584172015757
 20
-136.0437201265794
 30
0.0
 10
89.79038490593783
 20
-136.466777852168
 30
0.0
 10
89.79038490593783
 20
-136.466777852168
 30
0.0
 10
89.85170760557527
 20
-136.4330159164126
 30
0.0
 10
89.93404538767274
 20
-136.3927082992352
 30
0.0
 10
90.05255667236534
 20
-136.3927082992352
 30
0.0
 10
90.30646020962826
 20
-136.3927082992352
 30
0.0
 10
90.54348277901344
 20
-136.5790879649872
 30
0.0
 10
90.54348277901344
 20
-136.8922471445964
 30
0.0
 10
90.54348277901344
 20
-137.2095404387879
 30
0.0
 10
90.31920706292368
 20
-137.4441514413334
 30
0.0
 10
90.01672767931873
 20
-137.4441514413334
 30
0.0
  0
HATCH
  5
98
330
88
100
AcDbEntity
  8
_U+30EC_U+30A4_U+30E4_U+30FC 1
 62
     7
420
 16777215
100
AcDbHatch
 10
0.0
 20
0.0
 30
0.0
210
0.0
220
0.0
230
1.0
  2
SOLID
 70
     1
 71
     0
 91
        1
 92
        1
 93
        1
 72
     4
 94
        3
 73
     0
 74
     1
 95
       53
 96
       49
 40
0.0
 40
0.0
 40
0.0
 40
0.0
 40
1.0
 40
1.0
 40
1.0
 40
2.0
 40
2.0
 40
2.0
 40
3.0
 40
3.0
 40
3.0
 40
4.0
 40
4.0
 40
4.0
 40
5.0
 40
5.0
 40
5.0
 40
6.0
 40
6.0
 40
6.0
 40
7.0
 40
7.0
 40
7.0
 40
8.0
 40
8.0
 40
8.0
 40
9.0
 40
9.0
 40
9.0
 40
10.0
 40
10.0
 40
10.0
 40
11.0
 40
11.0
 40
11.0
 40
12.0
 40
12.0
 40
12.0
 40
13.0
 40
13.0
 40
13.0
 40
14.0
 40
14.0
 40
14.0
 40
15.0
 40
15.0
 40
15.0
 40
16.0
 40
16.0
 40
16.0
 40
16.0
 10
90.01672767931873
 20
-137.4441514413334
 10
89.93852401180357
 20
-137.4441514413334
 10
89.8368936949887
 20
-137.4272704734557
 10
89.73526337817383
 20
-137.3638807165271
 10
89.56197507526576
 20
-137.2539821705476
 10
89.54061548325721
 20
-137.1227240325596
 10
89.52166745808833
 20
-137.0148925438713
 10
89.52166745808833
 20
-137.0148925438713
 10
89.74387611688695
 20
-137.0148925438713
 10
89.74387611688695
 20
-137.0148925438713
 10
89.79865313510243
 20
-137.2136745533702
 10
89.92577715850814
 20
-137.2433023745433
 10
90.01879473660989
 20
-137.2433023745433
 10
90.1583211037625
 20
-137.2433023745433
 10
90.31059432421056
 20
-137.1437391150196
 10
90.31059432421056
 20
-136.9111951697653
 10
90.31059432421056
 20
-136.6552245752112
 10
90.13076033988051
 20
-136.5852891368606
 10
90.01018199789677
 20
-136.5852891368606
 10
89.97848711943247
 20
-136.5852891368606
 10
89.8368936949887
 20
-136.5852891368606
 10
89.74801023146925
 20
-136.7144802175575
 10
89.74801023146925
 20
-136.7144802175575
 10
89.5723103617215
 20
-136.6955321923886
 10
89.5723103617215
 20
-136.6955321923886
 10
89.5723103617215
 20
-136.6955321923886
 10
89.69288870370525
 20
-135.8490722316627
 10
89.69288870370525
 20
-135.8490722316627
 10
89.69288870370525
 20
-135.8490722316627
 10
90.47148028337172
 20
-135.8490722316627
 10
90.47148028337172
 20
-135.8490722316627
 10
90.47148028337172
 20
-135.8490722316627
 10
90.47148028337172
 20
-136.0437201265794
 10
90.47148028337172
 20
-136.0437201265794
 10
90.47148028337172
 20
-136.0437201265794
 10
89.85584172015757
 20
-136.0437201265794
 10
89.85584172015757
 20
-136.0437201265794
 10
89.85584172015757
 20
-136.0437201265794
 10
89.79038490593783
 20
-136.466777852168
 10
89.79038490593783
 20
-136.466777852168
 10
89.85170760557527
 20
-136.4330159164126
 10
89.93404538767274
 20
-136.3927082992352
 10
90.05255667236534
 20
-136.3927082992352
 10
90.30646020962826
 20
-136.3927082992352
 10
90.54348277901344
 20
-136.5790879649872
 10
90.54348277901344
 20
-136.8922471445964
 10
90.54348277901344
 20
-137.2095404387879
 10
90.31920706292368
 20
-137.4441514413334
 10
90.01672767931873
 20
-137.4441514413334
 97
        0
 97
        0
 75
     2
 76
     1
 98
        0
  0
ENDBLK
  5
8B
330
88
100
AcDbEntity
  8
0
100
AcDbBlockEnd
  0
ENDSEC
  0
SECTION
  2
ENTITIES
  0
SPLINE
  5
41
330
1F
100
AcDbEntity
  8
_U+30EC_U+30A4_U+30E4_U+30FC 1
 62
   179
420
  2234388
370
    25
100
AcDbSpline
210
0.0
220
0.0
230
1.0
 70
    11
 71
     3
 72
    62
 73
    58
 74
     0
 42
0.0000000001
 43
0.0000000001
 12
1.0
 22
0.0
 32
0.0
 13
1.0
 23
0.0
 33
0.0
 40
0.0
 40
0.0
 40
0.0
 40
0.0
 40
1.0
 40
1.0
 40
1.0
 40
2.0
 40
2.0
 40
2.0
 40
3.0
 40
3.0
 40
3.0
 40
4.0
 40
4.0
 40
4.0
 40
5.0
 40
5.0
 40
5.0
 40
6.0
 40
6.0
 40
6.0
 40
7.0
 40
7.0
 40
7.0
 40
8.0
 40
8.0
 40
8.0
 40
9.0
 40
9.0
 40
9.0
 40
10.0
 40
10.0
 40
10.0
 40
11.0
 40
11.0
 40
11.0
 40
12.0
 40
12.0
 40
12.0
 40
13.0
 40
13.0
 40
13.0
 40
14.0
 40
14.0
 40
14.0
 40
15.0
 40
15.0
 40
15.0
 40
16.0
 40
16.0
 40
16.0
 40
17.0
 40
17.0
 40
17.0
 40
18.0
 40
18.0
 40
18.0
 40
19.0
 40
19.0
 40
19.0
 40
19.0
 10
93.82339955081011
 20
-132.9985980223058
 30
0.0
 10
93.82339955081011
 20
-132.9985980223058
 30
0.0
 10
93.1233473464477
 20
-132.2985458002588
 30
0.0
 10
93.1233473464477
 20
-132.2985458002588
 30
0.0
 10
93.1233473464477
 20
-132.2985458002588
 30
0.0
 10
93.82339955081011
 20
-131.5985288559893
 30
0.0
 10
93.82339955081011
 20
-131.5985288559893
 30
0.0
 10
93.82339955081011
 20
-131.5985288559893
 30
0.0
 10
93.12370012421648
 20
-130.8988294117195
 30
0.0
 10
93.12370012421648
 20
-130.8988294117195
 30
0.0
 10
93.12370012421648
 20
-130.8988294117195
 30
0.0
 10
93.82339955081011
 20
-130.1991299674503
 30
0.0
 10
93.82339955081011
 20
-130.1991299674503
 30
0.0
 10
93.82339955081011
 20
-130.1991299674503
 30
0.0
 10
93.12401762420838
 20
-129.4997480231806
 30
0.0
 10
93.12401762420838
 20
-129.4997480231806
 30
0.0
 10
93.12401762420838
 20
-129.4997480231806
 30
0.0
 10
93.82339955081011
 20
-128.8004013566885
 30
0.0
 10
93.82339955081011
 20
-128.8004013566885
 30
0.0
 10
93.82339955081011
 20
-128.8004013566885
 30
0.0
 10
93.82339955081011
 20
-124.4885396911001
 30
0.0
 10
93.82339955081011
 20
-124.4885396911001
 30
0.0
 10
93.49196483704348
 20
-124.4885396911001
 30
0.0
 10
93.22325401056554
 20
-124.7572505243663
 30
0.0
 10
93.22325401056554
 20
-125.088649968728
 30
0.0
 10
93.22325401056554
 20
-127.416842190368
 30
0.0
 10
92.42742497689308
 20
-129.5590146898324
 30
0.0
 10
91.09349934267789
 20
-131.2584863560741
 30
0.0
 10
89.39402771936835
 20
-132.5924096890744
 30
0.0
 10
87.25185527401972
 20
-133.3882410777638
 30
0.0
 10
84.92366311119463
 20
-133.3882410777638
 30
0.0
 10
84.59226367520489
 20
-133.3882410777638
 30
0.0
 10
84.32351757095006
 20
-133.6569519110302
 30
0.0
 10
84.32351757095006
 20
-133.9883866331697
 30
0.0
 10
84.32351757095006
 20
-133.9883866331697
 30
0.0
 10
88.63541664450781
 20
-133.9883866331697
 30
0.0
 10
88.63541664450781
 20
-133.9883866331697
 30
0.0
 10
88.63541664450781
 20
-133.9883866331697
 30
0.0
 10
89.3347610542137
 20
-133.2890046889001
 30
0.0
 10
89.3347610542137
 20
-133.2890046889001
 30
0.0
 10
89.3347610542137
 20
-133.2890046889001
 30
0.0
 10
90.03410770303856
 20
-133.9883866331697
 30
0.0
 10
90.03410770303856
 20
-133.9883866331697
 30
0.0
 10
90.03410770303856
 20
-133.9883866331697
 30
0.0
 10
90.73380712963217
 20
-133.2886871888999
 30
0.0
 10
90.73380712963217
 20
-133.2886871888999
 30
0.0
 10
90.73380712963217
 20
-133.2886871888999
 30
0.0
 10
91.4335065562258
 20
-133.9883866331697
 30
0.0
 10
91.4335065562258
 20
-133.9883866331697
 30
0.0
 10
91.4335065562258
 20
-133.9883866331697
 30
0.0
 10
92.13356108807746
 20
-133.2883344111221
 30
0.0
 10
92.13356108807746
 20
-133.2883344111221
 30
0.0
 10
92.13356108807746
 20
-133.2883344111221
 30
0.0
 10
92.83361096495061
 20
-133.9883866331697
 30
0.0
 10
92.83361096495061
 20
-133.9883866331697
 30
0.0
 10
92.83361096495061
 20
-133.9883866331697
 30
0.0
 10
93.82339955081011
 20
-132.9985980223058
 30
0.0
 10
93.82339955081011
 20
-132.9985980223058
 30
0.0
  0
INSERT
  5
43
330
1F
100
AcDbEntity
  8
_U+30EC_U+30A4_U+30E4_U+30FC 1
100
AcDbBlockReference
  2
block 2
 10
0.0
 20
0.0
 30
0.0
  0
POLYLINE
  5
4E
330
1F
100
AcDbEntity
  8
_U+30EC_U+30A4_U+30E4_U+30FC 1
 62
   179
420
  2234388
370
     9
100
AcDb2dPolyline
 66
     1
 10
0.0
 20
0.0
 30
0.0
  0
VERTEX
  5
4F
330
4E
100
AcDbEntity
  8
_U+30EC_U+30A4_U+30E4_U+30FC 1
 62
   179
420
  2234388
370
     9
100
AcDbVertex
100
AcDb2dVertex
 10
87.82511914828343
 20
-127.9901060791135
 30
0.0
  0
VERTEX
  5
50
330
4E
100
AcDbEntity
  8
_U+30EC_U+30A4_U+30E4_U+30FC 1
 62
   179
420
  2234388
370
     9
100
AcDbVertex
100
AcDb2dVertex
 10
90.82337740512483
 20
-130.9883996894754
 30
0.0
  0
SEQEND
  5
51
330
4E
100
AcDbEntity
  8
_U+30EC_U+30A4_U+30E4_U+30FC 1
 62
   179
420
  2234388
370
     9
  0
POLYLINE
  5
52
330
1F
100
AcDbEntity
  8
_U+30EC_U+30A4_U+30E4_U+30FC 1
 62
   179
420
  2234388
370
     9
100
AcDb2dPolyline
 66
     1
 10
0.0
 20
0.0
 30
0.0
  0
VERTEX
  5
53
330
52
100
AcDbEntity
  8
_U+30EC_U+30A4_U+30E4_U+30FC 1
 62
   179
420
  2234388
370
     9
100
AcDbVertex
100
AcDb2dVertex
 10
90.82337740512483
 20
-130.9883996894754
 30
0.0
  0
VERTEX
  5
54
330
52
100
AcDbEntity
  8
_U+30EC_U+30A4_U+30E4_U+30FC 1
 62
   179
420
  2234388
370
     9
100
AcDbVertex
100
AcDb2dVertex
 10
90.31696491804449
 20
-130.0764691341475
 30
0.0
  0
SEQEND
  5
55
330
52
100
AcDbEntity
  8
_U+30EC_U+30A4_U+30E4_U+30FC 1
 62
   179
420
  2234388
370
     9
  0
POLYLINE
  5
56
330
1F
100
AcDbEntity
  8
_U+30EC_U+30A4_U+30E4_U+30FC 1
 62
   179
420
  2234388
370
     9
100
AcDb2dPolyline
 66
     1
 10
0.0
 20
0.0
 30
0.0
  0
VERTEX
  5
57
330
56
100
AcDbEntity
  8
_U+30EC_U+30A4_U+30E4_U+30FC 1
 62
   179
420
  2234388
370
     9
100
AcDbVertex
100
AcDb2dVertex
 10
90.82337740512483
 20
-130.9883996894754
 30
0.0
  0
VERTEX
  5
58
330
56
100
AcDbEntity
  8
_U+30EC_U+30A4_U+30E4_U+30FC 1
 62
   179
420
  2234388
370
     9
100
AcDbVertex
100
AcDb2dVertex
 10
89.9294055330731
 20
-130.4509427451649
 30
0.0
  0
SEQEND
  5
59
330
56
100
AcDbEntity
  8
_U+30EC_U+30A4_U+30E4_U+30FC 1
 62
   179
420
  2234388
370
     9
  0
SPLINE
  5
5A
330
1F
100
AcDbEntity
  8
_U+30EC_U+30A4_U+30E4_U+30FC 1
 62
     7
420
 16777215
370
     9
100
AcDbSpline
210
0.0
220
0.0
230
1.0
 70
    11
 71
     3
 72
    17
 73
    13
 74
     0
 42
0.0000000001
 43
0.0000000001
 12
1.0
 22
0.0
 32
0.0
 13
1.0
 23
0.0
 33
0.0
 40
0.0
 40
0.0
 40
0.0
 40
0.0
 40
1.0
 40
1.0
 40
1.0
 40
2.0
 40
2.0
 40
2.0
 40
3.0
 40
3.0
 40
3.0
 40
4.0
 40
4.0
 40
4.0
 40
4.0
 10
93.92330621492795
 20
-120.3130619143661
 30
0.0
 10
93.92330621492795
 20
-120.2579580254912
 30
0.0
 10
93.87850343829318
 20
-120.2131552477245
 30
0.0
 10
93.82339955081011
 20
-120.2131552477245
 30
0.0
 10
93.76759010778947
 20
-120.2131552477245
 30
0.0
 10
93.72278733115472
 20
-120.2579580254912
 30
0.0
 10
93.72278733115472
 20
-120.3130619143661
 30
0.0
 10
93.72278733115472
 20
-120.3682010810192
 30
0.0
 10
93.76759010778947
 20
-120.4129685810078
 30
0.0
 10
93.82339955081011
 20
-120.4129685810078
 30
0.0
 10
93.87850343829318
 20
-120.4129685810078
 30
0.0
 10
93.92330621492795
 20
-120.3682010810192
 30
0.0
 10
93.92330621492795
 20
-120.3130619143661
 30
0.0
  0
POLYLINE
  5
5B
330
1F
100
AcDbEntity
  8
_U+30EC_U+30A4_U+30E4_U+30FC 1
 62
     7
420
 16777215
370
     9
100
AcDb2dPolyline
 66
     1
 10
0.0
 20
0.0
 30
0.0
  0
VERTEX
  5
5C
330
5B
100
AcDbEntity
  8
_U+30EC_U+30A4_U+30E4_U+30FC 1
 62
     7
420
 16777215
370
     9
100
AcDbVertex
100
AcDb2dVertex
 10
93.22325401056554
 20
-120.3130619143661
 30
0.0
  0
VERTEX
  5
5D
330
5B
100
AcDbEntity
  8
_U+30EC_U+30A4_U+30E4_U+30FC 1
 62
     7
420
 16777215
370
     9
100
AcDbVertex
100
AcDb2dVertex
 10
97.60126386448889
 20
-120.3130619143661
 30
0.0
  0
SEQEND
  5
5E
330
5B
100
AcDbEntity
  8
_U+30EC_U+30A4_U+30E4_U+30FC 1
 62
     7
420
 16777215
370
     9
  0
POLYLINE
  5
5F
330
1F
100
AcDbEntity
  8
_U+30EC_U+30A4_U+30E4_U+30FC 1
 62
     7
420
 16777215
370
     9
100
AcDb2dPolyline
 66
     1
 10
0.0
 20
0.0
 30
0.0
  0
VERTEX
  5
60
330
5F
100
AcDbEntity
  8
_U+30EC_U+30A4_U+30E4_U+30FC 1
 62
     7
420
 16777215
370
     9
100
AcDbVertex
100
AcDb2dVertex
 10
93.82339955081011
 20
-122.4886424693779
 30
0.0
  0
VERTEX
  5
61
330
5F
100
AcDbEntity
  8
_U+30EC_U+30A4_U+30E4_U+30FC 1
 62
     7
420
 16777215
370
     9
100
AcDbVertex
100
AcDb2dVertex
 10
93.82339955081011
 20
-119.3132896923939
 30
0.0
  0
SEQEND
  5
62
330
5F
100
AcDbEntity
  8
_U+30EC_U+30A4_U+30E4_U+30FC 1
 62
     7
420
 16777215
370
     9
  0
SPLINE
  5
63
330
1F
100
AcDbEntity
  8
_U+30EC_U+30A4_U+30E4_U+30FC 1
 62
     7
420
 16777215
370
     9
100
AcDbSpline
210
0.0
220
0.0
230
1.0
 70
    11
 71
     3
 72
    17
 73
    13
 74
     0
 42
0.0000000001
 43
0.0000000001
 12
1.0
 22
0.0
 32
0.0
 13
1.0
 23
0.0
 33
0.0
 40
0.0
 40
0.0
 40
0.0
 40
0.0
 40
1.0
 40
1.0
 40
1.0
 40
2.0
 40
2.0
 40
2.0
 40
3.0
 40
3.0
 40
3.0
 40
4.0
 40
4.0
 40
4.0
 40
4.0
 10
93.32316067468338
 20
-120.3130619143661
 30
0.0
 10
93.32316067468338
 20
-120.2579580254912
 30
0.0
 10
93.27835789804861
 20
-120.2131552477245
 30
0.0
 10
93.22325401056554
 20
-120.2131552477245
 30
0.0
 10
93.16744456754492
 20
-120.2131552477245
 30
0.0
 10
93.12264179091015
 20
-120.2579580254912
 30
0.0
 10
93.12264179091015
 20
-120.3130619143661
 30
0.0
 10
93.12264179091015
 20
-120.3682010810192
 30
0.0
 10
93.16744456754492
 20
-120.4129685810078
 30
0.0
 10
93.22325401056554
 20
-120.4129685810078
 30
0.0
 10
93.27835789804861
 20
-120.4129685810078
 30
0.0
 10
93.32316067468338
 20
-120.3682010810192
 30
0.0
 10
93.32316067468338
 20
-120.3130619143661
 30
0.0
  0
POLYLINE
  5
64
330
1F
100
AcDbEntity
  8
_U+30EC_U+30A4_U+30E4_U+30FC 1
 62
     7
420
 16777215
370
     9
100
AcDb2dPolyline
 66
     1
 10
0.0
 20
0.0
 30
0.0
  0
VERTEX
  5
65
330
64
100
AcDbEntity
  8
_U+30EC_U+30A4_U+30E4_U+30FC 1
 62
     7
420
 16777215
370
     9
100
AcDbVertex
100
AcDb2dVertex
 10
93.22325401056554
 20
-122.4886424693779
 30
0.0
  0
VERTEX
  5
66
330
64
100
AcDbEntity
  8
_U+30EC_U+30A4_U+30E4_U+30FC 1
 62
     7
420
 16777215
370
     9
100
AcDbVertex
100
AcDb2dVertex
 10
93.22325401056554
 20
-119.3132896923939
 30
0.0
  0
SEQEND
  5
67
330
64
100
AcDbEntity
  8
_U+30EC_U+30A4_U+30E4_U+30FC 1
 62
     7
420
 16777215
370
     9
  0
INSERT
  5
69
330
1F
100
AcDbEntity
  8
_U+30EC_U+30A4_U+30E4_U+30FC 1
100
AcDbBlockReference
  2
block 3
 10
0.0
 20
0.0
 30
0.0
  0
SPLINE
  5
7A
330
1F
100
AcDbEntity
  8
_U+30EC_U+30A4_U+30E4_U+30FC 1
 62
     7
420
 16777215
370
     9
100
AcDbSpline
210
0.0
220
0.0
230
1.0
 70
    11
 71
     3
 72
    17
 73
    13
 74
     0
 42
0.0000000001
 43
0.0000000001
 12
1.0
 22
0.0
 32
0.0
 13
1.0
 23
0.0
 33
0.0
 40
0.0
 40
0.0
 40
0.0
 40
0.0
 40
1.0
 40
1.0
 40
1.0
 40
2.0
 40
2.0
 40
2.0
 40
3.0
 40
3.0
 40
3.0
 40
4.0
 40
4.0
 40
4.0
 40
4.0
 10
93.92330621492795
 20
-137.9901919099469
 30
0.0
 10
93.92330621492795
 20
-137.935088021072
 30
0.0
 10
93.87850343829318
 20
-137.8902852433052
 30
0.0
 10
93.82339955081011
 20
-137.8902852433052
 30
0.0
 10
93.76826038555016
 20
-137.8902852433052
 30
0.0
 10
93.72349288669227
 20
-137.935088021072
 30
0.0
 10
93.72349288669227
 20
-137.9901919099469
 30
0.0
 10
93.72349288669227
 20
-138.0453310766
 30
0.0
 10
93.76826038555016
 20
-138.0900985765885
 30
0.0
 10
93.82339955081011
 20
-138.0900985765885
 30
0.0
 10
93.87850343829318
 20
-138.0900985765885
 30
0.0
 10
93.92330621492795
 20
-138.0453310766
 30
0.0
 10
93.92330621492795
 20
-137.9901919099469
 30
0.0
  0
SPLINE
  5
7B
330
1F
100
AcDbEntity
  8
_U+30EC_U+30A4_U+30E4_U+30FC 1
 62
     7
420
 16777215
370
     9
100
AcDbSpline
210
0.0
220
0.0
230
1.0
 70
    11
 71
     3
 72
    17
 73
    13
 74
     0
 42
0.0000000001
 43
0.0000000001
 12
1.0
 22
0.0
 32
0.0
 13
1.0
 23
0.0
 33
0.0
 40
0.0
 40
0.0
 40
0.0
 40
0.0
 40
1.0
 40
1.0
 40
1.0
 40
2.0
 40
2.0
 40
2.0
 40
3.0
 40
3.0
 40
3.0
 40
4.0
 40
4.0
 40
4.0
 40
4.0
 10
84.42412979060545
 20
-137.9901919099469
 30
0.0
 10
84.42412979060545
 20
-137.935088021072
 30
0.0
 10
84.3793270139707
 20
-137.8902852433052
 30
0.0
 10
84.32351757095006
 20
-137.8902852433052
 30
0.0
 10
84.26841368346699
 20
-137.8902852433052
 30
0.0
 10
84.22361090683223
 20
-137.935088021072
 30
0.0
 10
84.22361090683223
 20
-137.9901919099469
 30
0.0
 10
84.22361090683223
 20
-138.0453310766
 30
0.0
 10
84.26841368346699
 20
-138.0900985765885
 30
0.0
 10
84.32351757095006
 20
-138.0900985765885
 30
0.0
 10
84.3793270139707
 20
-138.0900985765885
 30
0.0
 10
84.42412979060545
 20
-138.0453310766
 30
0.0
 10
84.42412979060545
 20
-137.9901919099469
 30
0.0
  0
POLYLINE
  5
7C
330
1F
100
AcDbEntity
  8
_U+30EC_U+30A4_U+30E4_U+30FC 1
 62
     7
420
 16777215
370
     9
100
AcDb2dPolyline
 66
     1
 10
0.0
 20
0.0
 30
0.0
  0
VERTEX
  5
7D
330
7C
100
AcDbEntity
  8
_U+30EC_U+30A4_U+30E4_U+30FC 1
 62
     7
420
 16777215
370
     9
100
AcDbVertex
100
AcDb2dVertex
 10
84.32351757095006
 20
-137.9901919099469
 30
0.0
  0
VERTEX
  5
7E
330
7C
100
AcDbEntity
  8
_U+30EC_U+30A4_U+30E4_U+30FC 1
 62
     7
420
 16777215
370
     9
100
AcDbVertex
100
AcDb2dVertex
 10
93.82269399527254
 20
-137.9901919099469
 30
0.0
  0
SEQEND
  5
7F
330
7C
100
AcDbEntity
  8
_U+30EC_U+30A4_U+30E4_U+30FC 1
 62
     7
420
 16777215
370
     9
  0
POLYLINE
  5
80
330
1F
100
AcDbEntity
  8
_U+30EC_U+30A4_U+30E4_U+30FC 1
 62
     7
420
 16777215
370
     9
100
AcDb2dPolyline
 66
     1
 10
0.0
 20
0.0
 30
0.0
  0
VERTEX
  5
81
330
80
100
AcDbEntity
  8
_U+30EC_U+30A4_U+30E4_U+30FC 1
 62
     7
420
 16777215
370
     9
100
AcDbVertex
100
AcDb2dVertex
 10
93.82339955081011
 20
-136.5301505214232
 30
0.0
  0
VERTEX
  5
82
330
80
100
AcDbEntity
  8
_U+30EC_U+30A4_U+30E4_U+30FC 1
 62
     7
420
 16777215
370
     9
100
AcDbVertex
100
AcDb2dVertex
 10
93.82339955081011
 20
-138.9899641319194
 30
0.0
  0
SEQEND
  5
83
330
80
100
AcDbEntity
  8
_U+30EC_U+30A4_U+30E4_U+30FC 1
 62
     7
420
 16777215
370
     9
  0
POLYLINE
  5
84
330
1F
100
AcDbEntity
  8
_U+30EC_U+30A4_U+30E4_U+30FC 1
 62
     7
420
 16777215
370
     9
100
AcDb2dPolyline
 66
     1
 10
0.0
 20
0.0
 30
0.0
  0
VERTEX
  5
85
330
84
100
AcDbEntity
  8
_U+30EC_U+30A4_U+30E4_U+30FC 1
 62
     7
420
 16777215
370
     9
100
AcDbVertex
100
AcDb2dVertex
 10
84.32351757095006
 20
-136.5301505214232
 30
0.0
  0
VERTEX
  5
86
330
84
100
AcDbEntity
  8
_U+30EC_U+30A4_U+30E4_U+30FC 1
 62
     7
420
 16777215
370
     9
100
AcDbVertex
100
AcDb2dVertex
 10
84.32351757095006
 20
-138.9899641319194
 30
0.0
  0
SEQEND
  5
87
330
84
100
AcDbEntity
  8
_U+30EC_U+30A4_U+30E4_U+30FC 1
 62
     7
420
 16777215
370
     9
  0
INSERT
  5
89
330
1F
100
AcDbEntity
  8
_U+30EC_U+30A4_U+30E4_U+30FC 1
100
AcDbBlockReference
  2
block 4
 10
0.0
 20
0.0
 30
0.0
  0
ENDSEC
  0
SECTION
  2
OBJECTS
  0
DICTIONARY
  5
C
330
0
100
AcDbDictionary
281
     1
  3
ACAD_GROUP
350
D
  3
ACAD_LAYOUT
350
1A
  3
ACAD_MATERIAL
350
3B
  3
ACAD_MLEADERSTYLE
350
9A
  3
ACAD_MLINESTYLE
350
17
  3
ACAD_PLOTSETTINGS
350
19
  3
ACAD_PLOTSTYLENAME
350
E
  3
ACAD_TABLESTYLE
350
99
  3
ACAD_VISUALSTYLE
350
2A
  0
SUN
  5
3F
330
29
100
AcDbSun
 90
        1
290
     0
 63
     7
421
 16777215
 40
1.0
291
     1
 91
  2455826
 92
 54000000
292
     0
 70
     2
 71
   256
280
     1
  0
DICTIONARY
  5
D
102
{ACAD_REACTORS
330
C
102
}
330
C
100
AcDbDictionary
281
     1
  0
DICTIONARY
  5
1A
102
{ACAD_REACTORS
330
C
102
}
330
C
100
AcDbDictionary
281
     1
  3
Layout1
350
1E
  3
Layout2
350
26
  3
Model
350
22
  0
DICTIONARY
  5
3B
102
{ACAD_REACTORS
330
C
102
}
330
C
100
AcDbDictionary
281
     1
  3
ByBlock
350
3D
  3
ByLayer
350
3C
  3
Global
350
3E
  0
DICTIONARY
  5
9A
102
{ACAD_REACTORS
330
C
102
}
330
C
100
AcDbDictionary
281
     1
  0
DICTIONARY
  5
17
102
{ACAD_REACTORS
330
C
102
}
330
C
100
AcDbDictionary
281
     1
  3
Standard
350
18
  0
DICTIONARY
  5
19
102
{ACAD_REACTORS
330
C
102
}
330
C
100
AcDbDictionary
281
     1
  0
ACDBDICTIONARYWDFLT
  5
E
102
{ACAD_REACTORS
330
C
102
}
330
C
100
AcDbDictionary
281
     1
  3
Normal
350
F
100
AcDbDictionaryWithDefault
340
F
  0
DICTIONARY
  5
99
102
{ACAD_REACTORS
330
C
102
}
330
C
100
AcDbDictionary
281
     1
  0
DICTIONARY
  5
2A
102
{ACAD_REACTORS
330
C
102
}
330
C
100
AcDbDictionary
281
     1
  3
2dWireframe
350
2F
  3
3D Hidden
350
31
  3
3dWireframe
350
30
  3
Basic
350
32
  3
Brighten
350
36
  3
ColorChange
350
3A
  3
Conceptual
350
34
  3
Dim
350
35
  3
Facepattern
350
39
  3
Flat
350
2B
  3
FlatWithEdges
350
2C
  3
Gouraud
350
2D
  3
GouraudWithEdges
350
2E
  3
Linepattern
350
38
  3
Realistic
350
33
  3
Thicken
350
37
  0
LAYOUT
  5
1E
102
{ACAD_REACTORS
330
1A
102
}
330
1A
100
AcDbPlotSettings
  1

  2
none_device
  4

  6

 40
0.0
 41
0.0
 42
0.0
 43
0.0
 44
0.0
 45
0.0
 46
0.0
 47
0.0
 48
0.0
 49
0.0
140
0.0
141
0.0
142
1.0
143
1.0
 70
   688
 72
     0
 73
     0
 74
     5
  7

 75
    16
 76
     0
 77
     2
 78
   300
147
1.0
148
0.0
149
0.0
100
AcDbLayout
  1
Layout1
 70
     1
 71
     1
 10
0.0
 20
0.0
 11
12.0
 21
9.0
 12
0.0
 22
0.0
 32
0.0
 14
1.000000000000000E+20
 24
1.000000000000000E+20
 34
1.000000000000000E+20
 15
-1.000000000000000E+20
 25
-1.000000000000000E+20
 35
-1.000000000000000E+20
146
0.0
 13
0.0
 23
0.0
 33
0.0
 16
1.0
 26
0.0
 36
0.0
 17
0.0
 27
1.0
 37
0.0
 76
     0
330
1B
  0
LAYOUT
  5
26
102
{ACAD_REACTORS
330
1A
102
}
330
1A
100
AcDbPlotSettings
  1

  2
none_device
  4

  6

 40
0.0
 41
0.0
 42
0.0
 43
0.0
 44
0.0
 45
0.0
 46
0.0
 47
0.0
 48
0.0
 49
0.0
140
0.0
141
0.0
142
1.0
143
1.0
 70
   688
 72
     0
 73
     0
 74
     5
  7

 75
    16
 76
     0
 77
     2
 78
   300
147
1.0
148
0.0
149
0.0
100
AcDbLayout
  1
Layout2
 70
     1
 71
     2
 10
0.0
 20
0.0
 11
0.0
 21
0.0
 12
0.0
 22
0.0
 32
0.0
 14
0.0
 24
0.0
 34
0.0
 15
0.0
 25
0.0
 35
0.0
146
0.0
 13
0.0
 23
0.0
 33
0.0
 16
1.0
 26
0.0
 36
0.0
 17
0.0
 27
1.0
 37
0.0
 76
     0
330
23
  0
LAYOUT
  5
22
102
{ACAD_REACTORS
330
1A
102
}
330
1A
100
AcDbPlotSettings
  1

  2
none_device
  4

  6

 40
0.0
 41
0.0
 42
0.0
 43
0.0
 44
0.0
 45
0.0
 46
0.0
 47
0.0
 48
0.0
 49
0.0
140
0.0
141
0.0
142
1.0
143
1.0
 70
  1712
 72
     0
 73
     0
 74
     0
  7

 75
     0
 76
     0
 77
     2
 78
   300
147
1.0
148
0.0
149
0.0
100
AcDbLayout
  1
Model
 70
     1
 71
     0
 10
0.0
 20
0.0
 11
12.0
 21
9.0
 12
0.0
 22
0.0
 32
0.0
 14
1.000000000000000E+20
 24
1.000000000000000E+20
 34
1.000000000000000E+20
 15
-1.000000000000000E+20
 25
-1.000000000000000E+20
 35
-1.000000000000000E+20
146
0.0
 13
0.0
 23
0.0
 33
0.0
 16
1.0
 26
0.0
 36
0.0
 17
0.0
 27
1.0
 37
0.0
 76
     0
330
1F
331
29
  0
MATERIAL
  5
3D
102
{ACAD_REACTORS
330
3B
102
}
330
3B
100
AcDbMaterial
  1
ByBlock
 72
     1
 94
      127
  0
MATERIAL
  5
3C
102
{ACAD_REACTORS
330
3B
102
}
330
3B
100
AcDbMaterial
  1
ByLayer
 72
     1
 94
      127
  0
MATERIAL
  5
3E
102
{ACAD_REACTORS
330
3B
102
}
330
3B
100
AcDbMaterial
  1
Global
 72
     1
 94
      127
  0
MLINESTYLE
  5
18
102
{ACAD_REACTORS
330
17
102
}
330
17
100
AcDbMlineStyle
  2
Standard
 70
     0
  3

 62
   256
 51
90.0
 52
90.0
 71
     2
 49
0.5
 62
   256
  6
BYLAYER
 49
-0.5
 62
   256
  6
BYLAYER
  0
ACDBPLACEHOLDER
  5
F
102
{ACAD_REACTORS
330
E
102
}
330
E
  0
VISUALSTYLE
  5
2F
102
{ACAD_REACTORS
330
2A
102
}
330
2A
100
AcDbVisualStyle
  2
2dWireframe
 70
     4
177
     2
291
     0
 71
     0
176
     1
 72
     2
176
     1
 73
     0
176
     1
 90
        0
176
     1
 40
-0.6
176
     1
 41
-30.0
176
     1
 62
     5
 63
     7
421
 16777215
176
     1
 74
     1
176
     1
 91
        4
176
     1
 64
     7
176
     1
 65
   257
176
     1
 75
     1
176
     1
175
     1
176
     1
 42
1.0
176
     1
 92
        0
176
     1
 66
   257
176
     1
 43
1.0
176
     1
 76
     1
176
     1
 77
     6
176
     1
 78
     2
176
     1
 67
     7
176
     1
 79
     5
176
     1
170
     0
176
     1
171
     0
176
     1
290
     0
176
     1
 93
        1
176
     1
 44
0.0
176
     1
173
     0
176
     1
  0
VISUALSTYLE
  5
31
102
{ACAD_REACTORS
330
2A
102
}
330
2A
100
AcDbVisualStyle
  2
3D Hidden
 70
     6
177
     2
291
     0
 71
     1
176
     1
 72
     2
176
     1
 73
     2
176
     1
 90
        0
176
     1
 40
-0.6
176
     1
 41
-30.0
176
     1
 62
     5
 63
     7
421
 16777215
176
     1
 74
     2
176
     1
 91
        2
176
     1
 64
     7
176
     1
 65
   257
176
     1
 75
     2
176
     1
175
     1
176
     1
 42
40.0
176
     1
 92
        0
176
     1
 66
   257
176
     1
 43
1.0
176
     1
 76
     1
176
     1
 77
     6
176
     1
 78
     2
176
     1
 67
     7
176
     1
 79
     3
176
     1
170
     0
176
     1
171
     0
176
     1
290
     0
176
     1
 93
        1
176
     1
 44
0.0
176
     1
173
     0
176
     1
  0
VISUALSTYLE
  5
30
102
{ACAD_REACTORS
330
2A
102
}
330
2A
100
AcDbVisualStyle
  2
3dWireframe
 70
     5
177
     2
291
     0
 71
     0
176
     1
 72
     2
176
     1
 73
     0
176
     1
 90
        0
176
     1
 40
-0.6
176
     1
 41
-30.0
176
     1
 62
     5
 63
     7
421
 16777215
176
     1
 74
     1
176
     1
 91
        4
176
     1
 64
     7
176
     1
 65
   257
176
     1
 75
     1
176
     1
175
     1
176
     1
 42
1.0
176
     1
 92
        0
176
     1
 66
   257
176
     1
 43
1.0
176
     1
 76
     1
176
     1
 77
     6
176
     1
 78
     2
176
     1
 67
     7
176
     1
 79
     5
176
     1
170
     0
176
     1
171
     0
176
     1
290
     0
176
     1
 93
        1
176
     1
 44
0.0
176
     1
173
     0
176
     1
  0
VISUALSTYLE
  5
32
102
{ACAD_REACTORS
330
2A
102
}
330
2A
100
AcDbVisualStyle
  2
Basic
 70
     7
177
     2
291
     1
 71
     1
176
     1
 72
     0
176
     1
 73
     1
176
     1
 90
        0
176
     1
 40
-0.6
176
     1
 41
-30.0
176
     1
 62
     5
 63
     7
421
 16777215
176
     1
 74
     0
176
     1
 91
        4
176
     1
 64
     7
176
     1
 65
   257
176
     1
 75
     1
176
     1
175
     1
176
     1
 42
1.0
176
     1
 92
        8
176
     1
 66
     7
176
     1
 43
1.0
176
     1
 76
     1
176
     1
 77
     6
176
     1
 78
     2
176
     1
 67
     7
176
     1
 79
     5
176
     1
170
     0
176
     1
171
     0
176
     1
290
     0
176
     1
 93
        1
176
     1
 44
0.0
176
     1
173
     0
176
     1
  0
VISUALSTYLE
  5
36
102
{ACAD_REACTORS
330
2A
102
}
330
2A
100
AcDbVisualStyle
  2
Brighten
 70
    12
177
     2
291
     1
 71
     2
176
     1
 72
     2
176
     1
 73
     0
176
     1
 90
        0
176
     1
 40
-0.6
176
     1
 41
-30.0
176
     1
 62
     5
 63
     7
421
 16777215
176
     1
 74
     1
176
     1
 91
        4
176
     1
 64
     7
176
     1
 65
   257
176
     1
 75
     1
176
     1
175
     1
176
     1
 42
1.0
176
     1
 92
        8
176
     1
 66
     7
176
     1
 43
1.0
176
     1
 76
     1
176
     1
 77
     6
176
     1
 78
     2
176
     1
 67
     7
176
     1
 79
     5
176
     1
170
     0
176
     1
171
     0
176
     1
290
     0
176
     1
 93
        1
176
     1
 44
50.0
176
     1
173
     0
176
     1
  0
VISUALSTYLE
  5
3A
102
{ACAD_REACTORS
330
2A
102
}
330
2A
100
AcDbVisualStyle
  2
ColorChange
 70
    16
177
     2
291
     1
 71
     2
176
     1
 72
     2
176
     1
 73
     3
176
     1
 90
        0
176
     1
 40
-0.6
176
     1
 41
-30.0
176
     1
 62
     5
 63
     8
421
  8421504
176
     1
 74
     1
176
     1
 91
        4
176
     1
 64
     7
176
     1
 65
   257
176
     1
 75
     1
176
     1
175
     1
176
     1
 42
1.0
176
     1
 92
        8
176
     1
 66
     8
424
  8421504
176
     1
 43
1.0
176
     1
 76
     1
176
     1
 77
     6
176
     1
 78
     2
176
     1
 67
     7
176
     1
 79
     5
176
     1
170
     0
176
     1
171
     0
176
     1
290
     0
176
     1
 93
        1
176
     1
 44
0.0
176
     1
173
     0
176
     1
  0
VISUALSTYLE
  5
34
102
{ACAD_REACTORS
330
2A
102
}
330
2A
100
AcDbVisualStyle
  2
Conceptual
 70
     9
177
     2
291
     0
 71
     3
176
     1
 72
     2
176
     1
 73
     0
176
     1
 90
        0
176
     1
 40
-0.6
176
     1
 41
-30.0
176
     1
 62
     5
 63
     7
421
 16777215
176
     1
 74
     2
176
     1
 91
        2
176
     1
 64
     7
176
     1
 65
   257
176
     1
 75
     1
176
     1
175
     1
176
     1
 42
40.0
176
     1
 92
        8
176
     1
 66
     7
176
     1
 43
1.0
176
     1
 76
     1
176
     1
 77
     6
176
     1
 78
     2
176
     1
 67
     7
176
     1
 79
     3
176
     1
170
     0
176
     1
171
     0
176
     1
290
     0
176
     1
 93
        1
176
     1
 44
0.0
176
     1
173
     0
176
     1
  0
VISUALSTYLE
  5
35
102
{ACAD_REACTORS
330
2A
102
}
330
2A
100
AcDbVisualStyle
  2
Dim
 70
    11
177
     2
291
     1
 71
     2
176
     1
 72
     2
176
     1
 73
     0
176
     1
 90
        0
176
     1
 40
-0.6
176
     1
 41
-30.0
176
     1
 62
     5
 63
     7
421
 16777215
176
     1
 74
     1
176
     1
 91
        4
176
     1
 64
     7
176
     1
 65
   257
176
     1
 75
     1
176
     1
175
     1
176
     1
 42
1.0
176
     1
 92
        8
176
     1
 66
     7
176
     1
 43
1.0
176
     1
 76
     1
176
     1
 77
     6
176
     1
 78
     2
176
     1
 67
     7
176
     1
 79
     5
176
     1
170
     0
176
     1
171
     0
176
     1
290
     0
176
     1
 93
        1
176
     1
 44
-50.0
176
     1
173
     0
176
     1
  0
VISUALSTYLE
  5
39
102
{ACAD_REACTORS
330
2A
102
}
330
2A
100
AcDbVisualStyle
  2
Facepattern
 70
    15
177
     2
291
     1
 71
     2
176
     1
 72
     2
176
     1
 73
     0
176
     1
 90
        0
176
     1
 40
-0.6
176
     1
 41
-30.0
176
     1
 62
     5
 63
     7
421
 16777215
176
     1
 74
     1
176
     1
 91
        4
176
     1
 64
     7
176
     1
 65
   257
176
     1
 75
     1
176
     1
175
     1
176
     1
 42
1.0
176
     1
 92
        8
176
     1
 66
     7
176
     1
 43
1.0
176
     1
 76
     1
176
     1
 77
     6
176
     1
 78
     2
176
     1
 67
     7
176
     1
 79
     5
176
     1
170
     0
176
     1
171
     0
176
     1
290
     0
176
     1
 93
        1
176
     1
 44
0.0
176
     1
173
     0
176
     1
  0
VISUALSTYLE
  5
2B
102
{ACAD_REACTORS
330
2A
102
}
330
2A
100
AcDbVisualStyle
  2
Flat
 70
     0
177
     2
291
     1
 71
     2
176
     1
 72
     1
176
     1
 73
     1
176
     1
 90
        2
176
     1
 40
-0.6
176
     1
 41
30.0
176
     1
 62
     5
 63
     7
421
 16777215
176
     1
 74
     0
176
     1
 91
        4
176
     1
 64
     7
176
     1
 65
   257
176
     1
 75
     1
176
     1
175
     1
176
     1
 42
1.0
176
     1
 92
        8
176
     1
 66
     7
176
     1
 43
1.0
176
     1
 76
     1
176
     1
 77
     6
176
     1
 78
     2
176
     1
 67
     7
176
     1
 79
     5
176
     1
170
     0
176
     1
171
     0
176
     1
290
     0
176
     1
 93
       13
176
     1
 44
0.0
176
     1
173
     0
176
     1
  0
VISUALSTYLE
  5
2C
102
{ACAD_REACTORS
330
2A
102
}
330
2A
100
AcDbVisualStyle
  2
FlatWithEdges
 70
     1
177
     2
291
     1
 71
     2
176
     1
 72
     1
176
     1
 73
     1
176
     1
 90
        2
176
     1
 40
-0.6
176
     1
 41
30.0
176
     1
 62
     5
 63
     7
421
 16777215
176
     1
 74
     1
176
     1
 91
        4
176
     1
 64
     7
176
     1
 65
   257
176
     1
 75
     1
176
     1
175
     1
176
     1
 42
1.0
176
     1
 92
        0
176
     1
 66
   257
176
     1
 43
1.0
176
     1
 76
     1
176
     1
 77
     6
176
     1
 78
     2
176
     1
 67
     7
176
     1
 79
     5
176
     1
170
     0
176
     1
171
     0
176
     1
290
     0
176
     1
 93
       13
176
     1
 44
0.0
176
     1
173
     0
176
     1
  0
VISUALSTYLE
  5
2D
102
{ACAD_REACTORS
330
2A
102
}
330
2A
100
AcDbVisualStyle
  2
Gouraud
 70
     2
177
     2
291
     1
 71
     2
176
     1
 72
     2
176
     1
 73
     1
176
     1
 90
        2
176
     1
 40
-0.6
176
     1
 41
30.0
176
     1
 62
     5
 63
     7
421
 16777215
176
     1
 74
     0
176
     1
 91
        4
176
     1
 64
     7
176
     1
 65
   257
176
     1
 75
     1
176
     1
175
     1
176
     1
 42
1.0
176
     1
 92
        0
176
     1
 66
     7
176
     1
 43
1.0
176
     1
 76
     1
176
     1
 77
     6
176
     1
 78
     2
176
     1
 67
     7
176
     1
 79
     5
176
     1
170
     0
176
     1
171
     0
176
     1
290
     0
176
     1
 93
       13
176
     1
 44
0.0
176
     1
173
     0
176
     1
  0
VISUALSTYLE
  5
2E
102
{ACAD_REACTORS
330
2A
102
}
330
2A
100
AcDbVisualStyle
  2
GouraudWithEdges
 70
     3
177
     2
291
     1
 71
     2
176
     1
 72
     2
176
     1
 73
     1
176
     1
 90
        2
176
     1
 40
-0.6
176
     1
 41
30.0
176
     1
 62
     5
 63
     7
421
 16777215
176
     1
 74
     1
176
     1
 91
        4
176
     1
 64
     7
176
     1
 65
   257
176
     1
 75
     1
176
     1
175
     1
176
     1
 42
1.0
176
     1
 92
        0
176
     1
 66
   257
176
     1
 43
1.0
176
     1
 76
     1
176
     1
 77
     6
176
     1
 78
     2
176
     1
 67
     7
176
     1
 79
     5
176
     1
170
     0
176
     1
171
     0
176
     1
290
     0
176
     1
 93
       13
176
     1
 44
0.0
176
     1
173
     0
176
     1
  0
VISUALSTYLE
  5
38
102
{ACAD_REACTORS
330
2A
102
}
330
2A
100
AcDbVisualStyle
  2
Linepattern
 70
    14
177
     2
291
     1
 71
     2
176
     1
 72
     2
176
     1
 73
     0
176
     1
 90
        0
176
     1
 40
-0.6
176
     1
 41
-30.0
176
     1
 62
     5
 63
     7
421
 16777215
176
     1
 74
     1
176
     1
 91
        4
176
     1
 64
     7
176
     1
 65
   257
176
     1
 75
     7
176
     1
175
     7
176
     1
 42
1.0
176
     1
 92
        8
176
     1
 66
     7
176
     1
 43
1.0
176
     1
 76
     1
176
     1
 77
     6
176
     1
 78
     2
176
     1
 67
     7
176
     1
 79
     5
176
     1
170
     0
176
     1
171
     0
176
     1
290
     0
176
     1
 93
        1
176
     1
 44
0.0
176
     1
173
     0
176
     1
  0
VISUALSTYLE
  5
33
102
{ACAD_REACTORS
330
2A
102
}
330
2A
100
AcDbVisualStyle
  2
Realistic
 70
     8
177
     2
291
     0
 71
     2
176
     1
 72
     2
176
     1
 73
     0
176
     1
 90
        0
176
     1
 40
-0.6
176
     1
 41
-30.0
176
     1
 62
     5
 63
     7
421
 16777215
176
     1
 74
     1
176
     1
 91
        0
176
     1
 64
     7
176
     1
 65
   257
176
     1
 75
     1
176
     1
175
     1
176
     1
 42
1.0
176
     1
 92
        8
176
     1
 66
     8
424
  7895160
176
     1
 43
1.0
176
     1
 76
     1
176
     1
 77
     6
176
     1
 78
     2
176
     1
 67
     7
176
     1
 79
     5
176
     1
170
     0
176
     1
171
     0
176
     1
290
     0
176
     1
 93
       13
176
     1
 44
0.0
176
     1
173
     0
176
     1
  0
VISUALSTYLE
  5
37
102
{ACAD_REACTORS
330
2A
102
}
330
2A
100
AcDbVisualStyle
  2
Thicken
 70
    13
177
     2
291
     1
 71
     2
176
     1
 72
     2
176
     1
 73
     0
176
     1
 90
        0
176
     1
 40
-0.6
176
     1
 41
-30.0
176
     1
 62
     5
 63
     7
421
 16777215
176
     1
 74
     1
176
     1
 91
        4
176
     1
 64
     7
176
     1
 65
   257
176
     1
 75
     1
176
     1
175
     1
176
     1
 42
1.0
176
     1
 92
       12
176
     1
 66
     7
176
     1
 43
1.0
176
     1
 76
     1
176
     1
 77
     6
176
     1
 78
     2
176
     1
 67
     7
176
     1
 79
     5
176
     1
170
     0
176
     1
171
     0
176
     1
290
     0
176
     1
 93
        1
176
     1
 44
0.0
176
     1
173
     0
176
     1
  0
ENDSEC
  0
EOF
