  0
SECTION
  2
HEADER
  9
$ACADVER
  1
AC1024
  9
$ACADMAINTVER
 70
     6
  9
$DWGCODEPAGE
  3
UNDEFINED
  9
$INSBASE
 10
0.0
 20
0.0
 30
0.0
  9
$EXTMIN
 10
1.000000000000000E+20
 20
1.000000000000000E+20
 30
1.000000000000000E+20
  9
$EXTMAX
 10
-1.000000000000000E+20
 20
-1.000000000000000E+20
 30
-1.000000000000000E+20
  9
$LIMMIN
 10
0.0
 20
0.0
  9
$LIMMAX
 10
12.0
 20
9.0
  9
$ORTHOMODE
 70
     0
  9
$REGENMODE
 70
     1
  9
$FILLMODE
 70
     1
  9
$QTEXTMODE
 70
     0
  9
$MIRRTEXT
 70
     1
  9
$LTSCALE
 40
1.0
  9
$ATTMODE
 70
     1
  9
$TEXTSIZE
 40
0.2
  9
$TRACEWID
 40
0.05
  9
$TEXTSTYLE
  7
Standard
  9
$CLAYER
  8
0
  9
$CELTYPE
  6
ByLayer
  9
$CECOLOR
 62
   256
  9
$CELTSCALE
 40
1.0
  9
$DISPSILH
 70
     0
  9
$DIMSCALE
 40
1.0
  9
$DIMASZ
 40
0.18
  9
$DIMEXO
 40
0.0625
  9
$DIMDLI
 40
0.38
  9
$DIMRND
 40
0.0
  9
$DIMDLE
 40
0.0
  9
$DIMEXE
 40
0.18
  9
$DIMTP
 40
0.0
  9
$DIMTM
 40
0.0
  9
$DIMTXT
 40
0.18
  9
$DIMCEN
 40
0.09
  9
$DIMTSZ
 40
0.0
  9
$DIMTOL
 70
     0
  9
$DIMLIM
 70
     0
  9
$DIMTIH
 70
     1
  9
$DIMTOH
 70
     1
  9
$DIMSE1
 70
     0
  9
$DIMSE2
 70
     0
  9
$DIMTAD
 70
     0
  9
$DIMZIN
 70
     0
  9
$DIMBLK
  1

  9
$DIMASO
 70
     1
  9
$DIMSHO
 70
     1
  9
$DIMPOST
  1

  9
$DIMAPOST
  1

  9
$DIMALT
 70
     0
  9
$DIMALTD
 70
     2
  9
$DIMALTF
 40
25.4
  9
$DIMLFAC
 40
1.0
  9
$DIMTOFL
 70
     0
  9
$DIMTVP
 40
0.0
  9
$DIMTIX
 70
     0
  9
$DIMSOXD
 70
     0
  9
$DIMSAH
 70
     0
  9
$DIMBLK1
  1

  9
$DIMBLK2
  1

  9
$DIMSTYLE
  2
Standard
  9
$DIMCLRD
 70
     0
  9
$DIMCLRE
 70
     0
  9
$DIMCLRT
 70
     0
  9
$DIMTFAC
 40
1.0
  9
$DIMGAP
 40
0.09
  9
$DIMJUST
 70
     0
  9
$DIMSD1
 70
     0
  9
$DIMSD2
 70
     0
  9
$DIMTOLJ
 70
     1
  9
$DIMTZIN
 70
     0
  9
$DIMALTZ
 70
     0
  9
$DIMALTTZ
 70
     0
  9
$DIMUPT
 70
     0
  9
$DIMDEC
 70
     4
  9
$DIMTDEC
 70
     4
  9
$DIMALTU
 70
     2
  9
$DIMALTTD
 70
     2
  9
$DIMTXSTY
  7
Standard
  9
$DIMAUNIT
 70
     0
  9
$DIMADEC
 70
     0
  9
$DIMALTRND
 40
0.0
  9
$DIMAZIN
 70
     0
  9
$DIMDSEP
 70
    46
  9
$DIMATFIT
 70
     3
  9
$DIMFRAC
 70
     0
  9
$DIMLDRBLK
  1

  9
$DIMLUNIT
 70
     2
  9
$DIMLWD
 70
    -2
  9
$DIMLWE
 70
    -2
  9
$DIMTMOVE
 70
     0
  9
$DIMFXL
 40
1.0
  9
$DIMFXLON
 70
     0
  9
$DIMJOGANG
 40
0.7853981633974483
  9
$DIMTFILL
 70
     0
  9
$DIMTFILLCLR
 70
     0
  9
$DIMARCSYM
 70
     0
  9
$DIMLTYPE
  6

  9
$DIMLTEX1
  6

  9
$DIMLTEX2
  6

  9
$DIMTXTDIRECTION
 70
     0
  9
$LUNITS
 70
     2
  9
$LUPREC
 70
     4
  9
$SKETCHINC
 40
0.1
  9
$FILLETRAD
 40
0.5
  9
$AUNITS
 70
     0
  9
$AUPREC
 70
     0
  9
$MENU
  1
.
  9
$ELEVATION
 40
0.0
  9
$PELEVATION
 40
0.0
  9
$THICKNESS
 40
0.0
  9
$LIMCHECK
 70
     0
  9
$CHAMFERA
 40
0.5
  9
$CHAMFERB
 40
0.5
  9
$CHAMFERC
 40
1.0
  9
$CHAMFERD
 40
0.0
  9
$SKPOLY
 70
     0
  9
$TDCREATE
 40
2457917.60997684
  9
$TDUCREATE
 40
2457917.234976852
  9
$TDUPDATE
 40
2457917.60997684
  9
$TDUUPDATE
 40
2457917.234976852
  9
$TDINDWG
 40
0.0000000116
  9
$TDUSRTIMER
 40
0.0000000116
  9
$USRTIMER
 70
     1
  9
$ANGBASE
 50
0.0
  9
$ANGDIR
 70
     0
  9
$PDMODE
 70
     0
  9
$PDSIZE
 40
0.0
  9
$PLINEWID
 40
0.0
  9
$SPLFRAME
 70
     0
  9
$SPLINETYPE
 70
     6
  9
$SPLINESEGS
 70
     8
  9
$HANDSEED
  5
78
  9
$SURFTAB1
 70
     6
  9
$SURFTAB2
 70
     6
  9
$SURFTYPE
 70
     6
  9
$SURFU
 70
     6
  9
$SURFV
 70
     6
  9
$UCSBASE
  2

  9
$UCSNAME
  2

  9
$UCSORG
 10
0.0
 20
0.0
 30
0.0
  9
$UCSXDIR
 10
1.0
 20
0.0
 30
0.0
  9
$UCSYDIR
 10
0.0
 20
1.0
 30
0.0
  9
$UCSORTHOREF
  2

  9
$UCSORTHOVIEW
 70
     0
  9
$UCSORGTOP
 10
0.0
 20
0.0
 30
0.0
  9
$UCSORGBOTTOM
 10
0.0
 20
0.0
 30
0.0
  9
$UCSORGLEFT
 10
0.0
 20
0.0
 30
0.0
  9
$UCSORGRIGHT
 10
0.0
 20
0.0
 30
0.0
  9
$UCSORGFRONT
 10
0.0
 20
0.0
 30
0.0
  9
$UCSORGBACK
 10
0.0
 20
0.0
 30
0.0
  9
$PUCSBASE
  2

  9
$PUCSNAME
  2

  9
$PUCSORG
 10
0.0
 20
0.0
 30
0.0
  9
$PUCSXDIR
 10
1.0
 20
0.0
 30
0.0
  9
$PUCSYDIR
 10
0.0
 20
1.0
 30
0.0
  9
$PUCSORTHOREF
  2

  9
$PUCSORTHOVIEW
 70
     0
  9
$PUCSORGTOP
 10
0.0
 20
0.0
 30
0.0
  9
$PUCSORGBOTTOM
 10
0.0
 20
0.0
 30
0.0
  9
$PUCSORGLEFT
 10
0.0
 20
0.0
 30
0.0
  9
$PUCSORGRIGHT
 10
0.0
 20
0.0
 30
0.0
  9
$PUCSORGFRONT
 10
0.0
 20
0.0
 30
0.0
  9
$PUCSORGBACK
 10
0.0
 20
0.0
 30
0.0
  9
$USERI1
 70
     0
  9
$USERI2
 70
     0
  9
$USERI3
 70
     0
  9
$USERI4
 70
     0
  9
$USERI5
 70
     0
  9
$USERR1
 40
0.0
  9
$USERR2
 40
0.0
  9
$USERR3
 40
0.0
  9
$USERR4
 40
0.0
  9
$USERR5
 40
0.0
  9
$WORLDVIEW
 70
     1
  9
$SHADEDGE
 70
     3
  9
$SHADEDIF
 70
    70
  9
$TILEMODE
 70
     1
  9
$MAXACTVP
 70
    64
  9
$PINSBASE
 10
0.0
 20
0.0
 30
0.0
  9
$PLIMCHECK
 70
     0
  9
$PEXTMIN
 10
1.000000000000000E+20
 20
1.000000000000000E+20
 30
1.000000000000000E+20
  9
$PEXTMAX
 10
-1.000000000000000E+20
 20
-1.000000000000000E+20
 30
-1.000000000000000E+20
  9
$PLIMMIN
 10
0.0
 20
0.0
  9
$PLIMMAX
 10
12.0
 20
9.0
  9
$UNITMODE
 70
     0
  9
$VISRETAIN
 70
     1
  9
$PLINEGEN
 70
     0
  9
$PSLTSCALE
 70
     1
  9
$TREEDEPTH
 70
  3020
  9
$CMLSTYLE
  2
Standard
  9
$CMLJUST
 70
     0
  9
$CMLSCALE
 40
1.0
  9
$PROXYGRAPHICS
 70
     1
  9
$MEASUREMENT
 70
     0
  9
$CELWEIGHT
370
    -1
  9
$ENDCAPS
280
     0
  9
$JOINSTYLE
280
     0
  9
$LWDISPLAY
290
     1
  9
$INSUNITS
 70
     1
  9
$HYPERLINKBASE
  1

  9
$STYLESHEET
  1

  9
$XEDIT
290
     1
  9
$CEPSNTYPE
380
     0
  9
$PSTYLEMODE
290
     1
  9
$FINGERPRINTGUID
  2
{1CBB5E8F-813A-F228-85EE-C1C858B4764E}
  9
$VERSIONGUID
  2
{FAEB1C32-E019-11D5-929B-00C0DF256EC4}
  9
$EXTNAMES
290
     1
  9
$PSVPSCALE
 40
0.0
  9
$OLESTARTUP
290
     0
  9
$SORTENTS
280
   127
  9
$INDEXCTL
280
     0
  9
$HIDETEXT
280
     1
  9
$XCLIPFRAME
280
     2
  9
$HALOGAP
280
     0
  9
$OBSCOLOR
 70
   257
  9
$OBSLTYPE
280
     0
  9
$INTERSECTIONDISPLAY
280
     0
  9
$INTERSECTIONCOLOR
 70
   257
  9
$DIMASSOC
280
     2
  9
$PROJECTNAME
  1

  9
$CAMERADISPLAY
290
     0
  9
$LENSLENGTH
 40
50.0
  9
$CAMERAHEIGHT
 40
0.0
  9
$STEPSPERSEC
 40
2.0
  9
$STEPSIZE
 40
6.0
  9
$3DDWFPREC
 40
2.0
  9
$PSOLWIDTH
 40
0.25
  9
$PSOLHEIGHT
 40
4.0
  9
$LOFTANG1
 40
1.570796326794897
  9
$LOFTANG2
 40
1.570796326794897
  9
$LOFTMAG1
 40
0.0
  9
$LOFTMAG2
 40
0.0
  9
$LOFTPARAM
 70
     7
  9
$LOFTNORMALS
280
     1
  9
$LATITUDE
 40
37.795
  9
$LONGITUDE
 40
-122.394
  9
$NORTHDIRECTION
 40
0.0
  9
$TIMEZONE
 70
 -8000
  9
$LIGHTGLYPHDISPLAY
280
     1
  9
$TILEMODELIGHTSYNCH
280
     1
  9
$CMATERIAL
347
3C
  9
$SOLIDHIST
280
     1
  9
$SHOWHIST
280
     1
  9
$DWFFRAME
280
     2
  9
$DGNFRAME
280
     2
  9
$REALWORLDSCALE
290
     1
  9
$INTERFERECOLOR
 62
   256
  9
$CSHADOW
280
     0
  9
$SHADOWPLANELOCATION
 40
0.0
  0
ENDSEC
  0
SECTION
  2
CLASSES
  0
CLASS
  1
ACDBDICTIONARYWDFLT
  2
AcDbDictionaryWithDefault
  3
ObjectDBX Classes
 90
        0
 91
        4
280
     0
281
     0
  0
CLASS
  1
VISUALSTYLE
  2
AcDbVisualStyle
  3
ObjectDBX Classes
 90
     4095
 91
        4
280
     0
281
     0
  0
CLASS
  1
MATERIAL
  2
AcDbMaterial
  3
ObjectDBX Classes
 90
     1153
 91
        4
280
     0
281
     0
  0
CLASS
  1
SUN
  2
AcDbSun
  3
SCENEOE
 90
     1024
 91
        4
280
     0
281
     0
  0
ENDSEC
  0
SECTION
  2
TABLES
  0
TABLE
  2
VPORT
  5
8
330
0
100
AcDbSymbolTable
 70
     1
  0
VPORT
  5
29
330
8
100
AcDbSymbolTableRecord
100
AcDbViewportTableRecord
  2
*Active
 70
     0
 10
0.0
 20
0.0
 11
1.0
 21
1.0
 12
0.0
 22
0.0
 13
0.0
 23
0.0
 14
0.5
 24
0.5
 15
0.5
 25
0.5
 16
0.0
 26
0.0
 36
1.0
 17
91.00082462281999
 27
-128.4993055234307
 37
0.0
 40
256.9986110468615
 41
0.7081814508812795
 42
50.0
 43
0.0
 44
0.0
 50
0.0
 51
0.0
 71
     0
 72
   100
 73
     1
 74
     3
 75
     0
 76
     0
 77
     0
 78
     0
281
     0
 65
     1
110
0.0
120
0.0
130
0.0
111
1.0
121
0.0
131
0.0
112
0.0
122
1.0
132
0.0
 79
     0
146
0.0
 60
     3
 61
     5
292
     1
282
     1
141
0.0
142
0.0
 63
   250
361
3F
  0
ENDTAB
  0
TABLE
  2
LTYPE
  5
5
330
0
100
AcDbSymbolTable
 70
     1
  0
LTYPE
  5
14
330
5
100
AcDbSymbolTableRecord
100
AcDbLinetypeTableRecord
  2
ByBlock
 70
     0
  3

 72
    65
 73
     0
 40
0.0
  0
LTYPE
  5
15
330
5
100
AcDbSymbolTableRecord
100
AcDbLinetypeTableRecord
  2
ByLayer
 70
     0
  3

 72
    65
 73
     0
 40
0.0
  0
LTYPE
  5
16
330
5
100
AcDbSymbolTableRecord
100
AcDbLinetypeTableRecord
  2
Continuous
 70
     0
  3
Solid line
 72
    65
 73
     0
 40
0.0
  0
ENDTAB
  0
TABLE
  2
LAYER
  5
2
330
0
100
AcDbSymbolTable
 70
     2
  0
LAYER
  5
10
330
2
100
AcDbSymbolTableRecord
100
AcDbLayerTableRecord
  2
0
 70
     0
 62
     7
  6
Continuous
370
    -3
390
F
347
3E
  0
LAYER
  5
40
330
2
100
AcDbSymbolTableRecord
100
AcDbLayerTableRecord
  2
_U+30EC_U+30A4_U+30E4_U+30FC 1
 70
     0
 62
     7
  6
Continuous
370
    -3
390
F
347
3E
  0
ENDTAB
  0
TABLE
  2
STYLE
  5
3
330
0
100
AcDbSymbolTable
 70
     1
  0
STYLE
  5
11
330
3
100
AcDbSymbolTableRecord
100
AcDbTextStyleTableRecord
  2
Standard
 70
     0
 40
0.0
 41
1.0
 50
0.0
 71
     0
 42
0.2
  3
txt
  4

  0
ENDTAB
  0
TABLE
  2
VIEW
  5
6
330
0
100
AcDbSymbolTable
 70
     0
  0
ENDTAB
  0
TABLE
  2
UCS
  5
7
330
0
100
AcDbSymbolTable
 70
     0
  0
ENDTAB
  0
TABLE
  2
APPID
  5
9
330
0
100
AcDbSymbolTable
 70
     1
  0
APPID
  5
12
330
9
100
AcDbSymbolTableRecord
100
AcDbRegAppTableRecord
  2
ACAD
 70
     0
  0
ENDTAB
  0
TABLE
  2
DIMSTYLE
  5
A
330
0
100
AcDbSymbolTable
 70
     1
100
AcDbDimStyleTable
  0
DIMSTYLE
105
27
330
A
100
AcDbSymbolTableRecord
100
AcDbDimStyleTableRecord
  2
Standard
 70
     0
178
     0
340
11
  0
ENDTAB
  0
TABLE
  2
BLOCK_RECORD
  5
1
330
0
100
AcDbSymbolTable
 70
     3
  0
BLOCK_RECORD
  5
1F
330
1
100
AcDbSymbolTableRecord
100
AcDbBlockTableRecord
  2
*Model_Space
340
22
 70
     0
280
     1
281
     0
  0
BLOCK_RECORD
  5
1B
330
1
100
AcDbSymbolTableRecord
100
AcDbBlockTableRecord
  2
*Paper_Space
340
1E
 70
     0
280
     1
281
     0
  0
BLOCK_RECORD
  5
23
330
1
100
AcDbSymbolTableRecord
100
AcDbBlockTableRecord
  2
*Paper_Space0
340
26
 70
     0
280
     1
281
     0
  0
BLOCK_RECORD
  5
51
330
1
100
AcDbSymbolTableRecord
100
AcDbBlockTableRecord
  2
block 2
340
0
102
{BLKREFS
331
52
102
}
 70
     0
280
     1
281
     0
  0
BLOCK_RECORD
  5
64
330
1
100
AcDbSymbolTableRecord
100
AcDbBlockTableRecord
  2
block 3
340
0
102
{BLKREFS
331
65
102
}
 70
     0
280
     1
281
     0
  0
ENDTAB
  0
ENDSEC
  0
SECTION
  2
BLOCKS
  0
BLOCK
  5
20
330
1F
100
AcDbEntity
  8
0
100
AcDbBlockBegin
  2
*Model_Space
 70
     0
 10
0.0
 20
0.0
 30
0.0
  3
*Model_Space
  1

  0
ENDBLK
  5
21
330
1F
100
AcDbEntity
  8
0
100
AcDbBlockEnd
  0
BLOCK
  5
1C
330
1B
100
AcDbEntity
 67
     1
  8
0
100
AcDbBlockBegin
  2
*Paper_Space
 70
     0
 10
0.0
 20
0.0
 30
0.0
  3
*Paper_Space
  1

  0
ENDBLK
  5
1D
330
1B
100
AcDbEntity
 67
     1
  8
0
100
AcDbBlockEnd
  0
BLOCK
  5
24
330
23
100
AcDbEntity
  8
0
100
AcDbBlockBegin
  2
*Paper_Space0
 70
     0
 10
0.0
 20
0.0
 30
0.0
  3
*Paper_Space0
  1

  0
ENDBLK
  5
25
330
23
100
AcDbEntity
  8
0
100
AcDbBlockEnd
  0
BLOCK
  5
53
330
51
100
AcDbEntity
  8
0
100
AcDbBlockBegin
  2
block 2
 70
     0
 10
0.0
 20
0.0
 30
0.0
  3
block 2
  1

  0
SPLINE
  5
55
330
51
100
AcDbEntity
  8
_U+30EC_U+30A4_U+30E4_U+30FC 1
370
     0
100
AcDbSpline
210
0.0
220
0.0
230
1.0
 70
    11
 71
     3
 72
    62
 73
    58
 74
     0
 42
0.0000000001
 43
0.0000000001
 12
1.0
 22
0.0
 32
0.0
 13
1.0
 23
0.0
 33
0.0
 40
0.0
 40
0.0
 40
0.0
 40
0.0
 40
1.0
 40
1.0
 40
1.0
 40
2.0
 40
2.0
 40
2.0
 40
3.0
 40
3.0
 40
3.0
 40
4.0
 40
4.0
 40
4.0
 40
5.0
 40
5.0
 40
5.0
 40
6.0
 40
6.0
 40
6.0
 40
7.0
 40
7.0
 40
7.0
 40
8.0
 40
8.0
 40
8.0
 40
9.0
 40
9.0
 40
9.0
 40
10.0
 40
10.0
 40
10.0
 40
11.0
 40
11.0
 40
11.0
 40
12.0
 40
12.0
 40
12.0
 40
13.0
 40
13.0
 40
13.0
 40
14.0
 40
14.0
 40
14.0
 40
15.0
 40
15.0
 40
15.0
 40
16.0
 40
16.0
 40
16.0
 40
17.0
 40
17.0
 40
17.0
 40
18.0
 40
18.0
 40
18.0
 40
19.0
 40
19.0
 40
19.0
 40
19.0
 10
75.87650551488504
 20
-126.4617037986797
 30
0.0
 10
75.87650551488504
 20
-126.5569606888469
 30
0.0
 10
75.85531817765076
 20
-126.7748629782889
 30
0.0
 10
75.669110766673
 20
-126.899575434855
 30
0.0
 10
75.55697290862813
 20
-126.9736449877878
 30
0.0
 10
75.45758190387866
 20
-126.9779513571444
 30
0.0
 10
75.37300480971578
 20
-126.9820854717267
 30
0.0
 10
75.37300480971578
 20
-126.9820854717267
 30
0.0
 10
75.37300480971578
 20
-126.7621161249935
 30
0.0
 10
75.37300480971578
 20
-126.7621161249935
 30
0.0
 10
75.44707436264865
 20
-126.7600490677024
 30
0.0
 10
75.68185761996843
 20
-126.7493692716981
 30
0.0
 10
75.68185761996843
 20
-126.4660101680363
 30
0.0
 10
75.68185761996843
 20
-126.3283786034006
 30
0.0
 10
75.61209443639211
 20
-126.1761053829525
 30
0.0
 10
75.3835123509458
 20
-126.1761053829525
 30
0.0
 10
75.2672403783186
 20
-126.1761053829525
 30
0.0
 10
75.21849227720233
 20
-126.2141736880645
 30
0.0
 10
75.18679739873802
 20
-126.2458685665288
 30
0.0
 10
75.11272784580515
 20
-126.3199381194617
 30
0.0
 10
75.100153247284
 20
-126.4363823468631
 30
0.0
 10
75.100153247284
 20
-126.4913316198529
 30
0.0
 10
75.100153247284
 20
-126.5102796450217
 30
0.0
 10
75.10222030457514
 20
-126.5462808928426
 30
0.0
 10
75.10652667393171
 20
-126.5738416567246
 30
0.0
 10
75.10652667393171
 20
-126.5738416567246
 30
0.0
 10
74.91187877901508
 20
-126.5738416567246
 30
0.0
 10
74.91187877901508
 20
-126.5738416567246
 30
0.0
 10
74.9182522056628
 20
-126.5357733516126
 30
0.0
 10
74.92031926295395
 20
-126.493398677144
 30
0.0
 10
74.92031926295395
 20
-126.4870252504963
 30
0.0
 10
74.92031926295395
 20
-126.4215684362766
 30
0.0
 10
74.89913192571966
 20
-126.2226141720034
 30
0.0
 10
74.66210935633448
 20
-126.2226141720034
 30
0.0
 10
74.48451468406985
 20
-126.2226141720034
 30
0.0
 10
74.4295654110801
 20
-126.3538723099914
 30
0.0
 10
74.4295654110801
 20
-126.4637708559709
 30
0.0
 10
74.4295654110801
 20
-126.7281819344638
 30
0.0
 10
74.66210935633448
 20
-126.7367946731769
 30
0.0
 10
74.7341118519762
 20
-126.7409287877592
 30
0.0
 10
74.7341118519762
 20
-126.7409287877592
 30
0.0
 10
74.7341118519762
 20
-126.9440171666147
 30
0.0
 10
74.7341118519762
 20
-126.9440171666147
 30
0.0
 10
74.6092271406359
 20
-126.9355766826758
 30
0.0
 10
74.23267820409808
 20
-126.9080159187938
 30
0.0
 10
74.23267820409808
 20
-126.4511962574497
 30
0.0
 10
74.23267820409808
 20
-126.2269205413599
 30
0.0
 10
74.35962997272954
 20
-125.9857638573925
 30
0.0
 10
74.65590818446103
 20
-125.9857638573925
 30
0.0
 10
74.84194334066451
 20
-125.9857638573925
 30
0.0
 10
74.92445337753625
 20
-126.0808484927853
 30
0.0
 10
74.98594833194797
 20
-126.1804117523091
 30
0.0
 10
75.0133368410557
 20
-126.1189167978974
 30
0.0
 10
75.09377982063629
 20
-125.9370157562762
 30
0.0
 10
75.37093775242462
 20
-125.9370157562762
 30
0.0
 10
75.70941838385043
 20
-125.9370157562762
 30
0.0
 10
75.87650551488504
 20
-126.1845458668914
 30
0.0
 10
75.87650551488504
 20
-126.4617037986797
 30
0.0
  0
HATCH
  5
56
330
51
100
AcDbEntity
  8
_U+30EC_U+30A4_U+30E4_U+30FC 1
 62
   179
420
  2234388
100
AcDbHatch
 10
0.0
 20
0.0
 30
0.0
210
0.0
220
0.0
230
1.0
  2
SOLID
 70
     1
 71
     0
 91
        1
 92
        1
 93
        1
 72
     4
 94
        3
 73
     0
 74
     1
 95
       62
 96
       58
 40
0.0
 40
0.0
 40
0.0
 40
0.0
 40
1.0
 40
1.0
 40
1.0
 40
2.0
 40
2.0
 40
2.0
 40
3.0
 40
3.0
 40
3.0
 40
4.0
 40
4.0
 40
4.0
 40
5.0
 40
5.0
 40
5.0
 40
6.0
 40
6.0
 40
6.0
 40
7.0
 40
7.0
 40
7.0
 40
8.0
 40
8.0
 40
8.0
 40
9.0
 40
9.0
 40
9.0
 40
10.0
 40
10.0
 40
10.0
 40
11.0
 40
11.0
 40
11.0
 40
12.0
 40
12.0
 40
12.0
 40
13.0
 40
13.0
 40
13.0
 40
14.0
 40
14.0
 40
14.0
 40
15.0
 40
15.0
 40
15.0
 40
16.0
 40
16.0
 40
16.0
 40
17.0
 40
17.0
 40
17.0
 40
18.0
 40
18.0
 40
18.0
 40
19.0
 40
19.0
 40
19.0
 40
19.0
 10
75.87650551488504
 20
-126.4617037986797
 10
75.87650551488504
 20
-126.5569606888469
 10
75.85531817765076
 20
-126.7748629782889
 10
75.669110766673
 20
-126.899575434855
 10
75.55697290862813
 20
-126.9736449877878
 10
75.45758190387866
 20
-126.9779513571444
 10
75.37300480971578
 20
-126.9820854717267
 10
75.37300480971578
 20
-126.9820854717267
 10
75.37300480971578
 20
-126.7621161249935
 10
75.37300480971578
 20
-126.7621161249935
 10
75.44707436264865
 20
-126.7600490677024
 10
75.68185761996843
 20
-126.7493692716981
 10
75.68185761996843
 20
-126.4660101680363
 10
75.68185761996843
 20
-126.3283786034006
 10
75.61209443639211
 20
-126.1761053829525
 10
75.3835123509458
 20
-126.1761053829525
 10
75.2672403783186
 20
-126.1761053829525
 10
75.21849227720233
 20
-126.2141736880645
 10
75.18679739873802
 20
-126.2458685665288
 10
75.11272784580515
 20
-126.3199381194617
 10
75.100153247284
 20
-126.4363823468631
 10
75.100153247284
 20
-126.4913316198529
 10
75.100153247284
 20
-126.5102796450217
 10
75.10222030457514
 20
-126.5462808928426
 10
75.10652667393171
 20
-126.5738416567246
 10
75.10652667393171
 20
-126.5738416567246
 10
74.91187877901508
 20
-126.5738416567246
 10
74.91187877901508
 20
-126.5738416567246
 10
74.9182522056628
 20
-126.5357733516126
 10
74.92031926295395
 20
-126.493398677144
 10
74.92031926295395
 20
-126.4870252504963
 10
74.92031926295395
 20
-126.4215684362766
 10
74.89913192571966
 20
-126.2226141720034
 10
74.66210935633448
 20
-126.2226141720034
 10
74.48451468406985
 20
-126.2226141720034
 10
74.4295654110801
 20
-126.3538723099914
 10
74.4295654110801
 20
-126.4637708559709
 10
74.4295654110801
 20
-126.7281819344638
 10
74.66210935633448
 20
-126.7367946731769
 10
74.7341118519762
 20
-126.7409287877592
 10
74.7341118519762
 20
-126.7409287877592
 10
74.7341118519762
 20
-126.9440171666147
 10
74.7341118519762
 20
-126.9440171666147
 10
74.6092271406359
 20
-126.9355766826758
 10
74.23267820409808
 20
-126.9080159187938
 10
74.23267820409808
 20
-126.4511962574497
 10
74.23267820409808
 20
-126.2269205413599
 10
74.35962997272954
 20
-125.9857638573925
 10
74.65590818446103
 20
-125.9857638573925
 10
74.84194334066451
 20
-125.9857638573925
 10
74.92445337753625
 20
-126.0808484927853
 10
74.98594833194797
 20
-126.1804117523091
 10
75.0133368410557
 20
-126.1189167978974
 10
75.09377982063629
 20
-125.9370157562762
 10
75.37093775242462
 20
-125.9370157562762
 10
75.70941838385043
 20
-125.9370157562762
 10
75.87650551488504
 20
-126.1845458668914
 10
75.87650551488504
 20
-126.4617037986797
 97
        0
 97
        0
 75
     2
 76
     1
 98
        0
  0
ENDBLK
  5
54
330
51
100
AcDbEntity
  8
0
100
AcDbBlockEnd
  0
BLOCK
  5
66
330
64
100
AcDbEntity
  8
0
100
AcDbBlockBegin
  2
block 3
 70
     0
 10
0.0
 20
0.0
 30
0.0
  3
block 3
  1

  0
SPLINE
  5
68
330
64
100
AcDbEntity
  8
_U+30EC_U+30A4_U+30E4_U+30FC 1
370
     0
100
AcDbSpline
210
0.0
220
0.0
230
1.0
 70
    11
 71
     3
 72
    62
 73
    58
 74
     0
 42
0.0000000001
 43
0.0000000001
 12
1.0
 22
0.0
 32
0.0
 13
1.0
 23
0.0
 33
0.0
 40
0.0
 40
0.0
 40
0.0
 40
0.0
 40
1.0
 40
1.0
 40
1.0
 40
2.0
 40
2.0
 40
2.0
 40
3.0
 40
3.0
 40
3.0
 40
4.0
 40
4.0
 40
4.0
 40
5.0
 40
5.0
 40
5.0
 40
6.0
 40
6.0
 40
6.0
 40
7.0
 40
7.0
 40
7.0
 40
8.0
 40
8.0
 40
8.0
 40
9.0
 40
9.0
 40
9.0
 40
10.0
 40
10.0
 40
10.0
 40
11.0
 40
11.0
 40
11.0
 40
12.0
 40
12.0
 40
12.0
 40
13.0
 40
13.0
 40
13.0
 40
14.0
 40
14.0
 40
14.0
 40
15.0
 40
15.0
 40
15.0
 40
16.0
 40
16.0
 40
16.0
 40
17.0
 40
17.0
 40
17.0
 40
18.0
 40
18.0
 40
18.0
 40
19.0
 40
19.0
 40
19.0
 40
19.0
 10
94.60576712044579
 20
-131.6308973195228
 30
0.0
 10
94.51068248505288
 20
-131.6308973195228
 30
0.0
 10
94.29260794083658
 20
-131.6098822370628
 30
0.0
 10
94.16789548427053
 20
-131.4235025713108
 30
0.0
 10
94.09382593133766
 20
-131.3115369680402
 30
0.0
 10
94.08969181675536
 20
-131.2119737085165
 30
0.0
 10
94.08521319262454
 20
-131.1272243595793
 30
0.0
 10
94.08521319262454
 20
-131.1272243595793
 30
0.0
 10
94.305354794132
 20
-131.1272243595793
 30
0.0
 10
94.305354794132
 20
-131.1272243595793
 30
0.0
 10
94.30742185142314
 20
-131.2012939125122
 30
0.0
 10
94.31810164742743
 20
-131.4362494246062
 30
0.0
 10
94.60163300586349
 20
-131.4362494246062
 30
0.0
 10
94.73909231572496
 20
-131.4362494246062
 30
0.0
 10
94.891365536173
 20
-131.3663139862556
 30
0.0
 10
94.891365536173
 20
-131.1379041555836
 30
0.0
 10
94.891365536173
 20
-131.0214599281821
 30
0.0
 10
94.85312497628672
 20
-130.9728840818401
 30
0.0
 10
94.82143009782243
 20
-130.9411892033758
 30
0.0
 10
94.74736054488956
 20
-130.867119650443
 30
0.0
 10
94.63126082703663
 20
-130.8543727971475
 30
0.0
 10
94.57613929927264
 20
-130.8543727971475
 30
0.0
 10
94.55719127410376
 20
-130.8543727971475
 30
0.0
 10
94.52101777150864
 20
-130.8564398544387
 30
0.0
 10
94.49380151717517
 20
-130.8609184785695
 30
0.0
 10
94.49380151717517
 20
-130.8609184785695
 30
0.0
 10
94.49380151717517
 20
-130.6662705836529
 30
0.0
 10
94.49380151717517
 20
-130.6662705836529
 30
0.0
 10
94.53169756751291
 20
-130.6724717555263
 30
0.0
 10
94.57407224198148
 20
-130.6745388128175
 30
0.0
 10
94.58027341385494
 20
-130.6745388128175
 30
0.0
 10
94.64607473762321
 20
-130.6745388128175
 30
0.0
 10
94.84485674712212
 20
-130.6535237303574
 30
0.0
 10
94.84485674712212
 20
-130.4165011609723
 30
0.0
 10
94.84485674712212
 20
-130.2387342339334
 30
0.0
 10
94.71359860913411
 20
-130.1839572157179
 30
0.0
 10
94.60370006315463
 20
-130.1839572157179
 30
0.0
 10
94.33911672988745
 20
-130.1839572157179
 30
0.0
 10
94.33084850072285
 20
-130.4165011609723
 30
0.0
 10
94.32636987659203
 20
-130.488503656614
 30
0.0
 10
94.32636987659203
 20
-130.488503656614
 30
0.0
 10
94.12345375251081
 20
-130.488503656614
 30
0.0
 10
94.12345375251081
 20
-130.488503656614
 30
0.0
 10
94.13172198167541
 20
-130.363791200048
 30
0.0
 10
94.1592827455574
 20
-129.9872422635101
 30
0.0
 10
94.61644691645006
 20
-129.9872422635101
 30
0.0
 10
94.84072263253982
 20
-129.9872422635101
 30
0.0
 10
95.08187931650731
 20
-130.1140217773673
 30
0.0
 10
95.08187931650731
 20
-130.4102999890988
 30
0.0
 10
95.08187931650731
 20
-130.5963351453023
 30
0.0
 10
94.98645017156589
 20
-130.6790174369483
 30
0.0
 10
94.8872314215907
 20
-130.7403401365858
 30
0.0
 10
94.94855412122814
 20
-130.7679009004678
 30
0.0
 10
95.13045516284933
 20
-130.8481716252741
 30
0.0
 10
95.13045516284933
 20
-131.1251573022882
 30
0.0
 10
95.13045516284933
 20
-131.4638101884882
 30
0.0
 10
94.88275279745987
 20
-131.6308973195228
 30
0.0
 10
94.60576712044579
 20
-131.6308973195228
 30
0.0
  0
HATCH
  5
69
330
64
100
AcDbEntity
  8
_U+30EC_U+30A4_U+30E4_U+30FC 1
 62
   179
420
  2234388
100
AcDbHatch
 10
0.0
 20
0.0
 30
0.0
210
0.0
220
0.0
230
1.0
  2
SOLID
 70
     1
 71
     0
 91
        1
 92
        1
 93
        1
 72
     4
 94
        3
 73
     0
 74
     1
 95
       62
 96
       58
 40
0.0
 40
0.0
 40
0.0
 40
0.0
 40
1.0
 40
1.0
 40
1.0
 40
2.0
 40
2.0
 40
2.0
 40
3.0
 40
3.0
 40
3.0
 40
4.0
 40
4.0
 40
4.0
 40
5.0
 40
5.0
 40
5.0
 40
6.0
 40
6.0
 40
6.0
 40
7.0
 40
7.0
 40
7.0
 40
8.0
 40
8.0
 40
8.0
 40
9.0
 40
9.0
 40
9.0
 40
10.0
 40
10.0
 40
10.0
 40
11.0
 40
11.0
 40
11.0
 40
12.0
 40
12.0
 40
12.0
 40
13.0
 40
13.0
 40
13.0
 40
14.0
 40
14.0
 40
14.0
 40
15.0
 40
15.0
 40
15.0
 40
16.0
 40
16.0
 40
16.0
 40
17.0
 40
17.0
 40
17.0
 40
18.0
 40
18.0
 40
18.0
 40
19.0
 40
19.0
 40
19.0
 40
19.0
 10
94.60576712044579
 20
-131.6308973195228
 10
94.51068248505288
 20
-131.6308973195228
 10
94.29260794083658
 20
-131.6098822370628
 10
94.16789548427053
 20
-131.4235025713108
 10
94.09382593133766
 20
-131.3115369680402
 10
94.08969181675536
 20
-131.2119737085165
 10
94.08521319262454
 20
-131.1272243595793
 10
94.08521319262454
 20
-131.1272243595793
 10
94.305354794132
 20
-131.1272243595793
 10
94.305354794132
 20
-131.1272243595793
 10
94.30742185142314
 20
-131.2012939125122
 10
94.31810164742743
 20
-131.4362494246062
 10
94.60163300586349
 20
-131.4362494246062
 10
94.73909231572496
 20
-131.4362494246062
 10
94.891365536173
 20
-131.3663139862556
 10
94.891365536173
 20
-131.1379041555836
 10
94.891365536173
 20
-131.0214599281821
 10
94.85312497628672
 20
-130.9728840818401
 10
94.82143009782243
 20
-130.9411892033758
 10
94.74736054488956
 20
-130.867119650443
 10
94.63126082703663
 20
-130.8543727971475
 10
94.57613929927264
 20
-130.8543727971475
 10
94.55719127410376
 20
-130.8543727971475
 10
94.52101777150864
 20
-130.8564398544387
 10
94.49380151717517
 20
-130.8609184785695
 10
94.49380151717517
 20
-130.8609184785695
 10
94.49380151717517
 20
-130.6662705836529
 10
94.49380151717517
 20
-130.6662705836529
 10
94.53169756751291
 20
-130.6724717555263
 10
94.57407224198148
 20
-130.6745388128175
 10
94.58027341385494
 20
-130.6745388128175
 10
94.64607473762321
 20
-130.6745388128175
 10
94.84485674712212
 20
-130.6535237303574
 10
94.84485674712212
 20
-130.4165011609723
 10
94.84485674712212
 20
-130.2387342339334
 10
94.71359860913411
 20
-130.1839572157179
 10
94.60370006315463
 20
-130.1839572157179
 10
94.33911672988745
 20
-130.1839572157179
 10
94.33084850072285
 20
-130.4165011609723
 10
94.32636987659203
 20
-130.488503656614
 10
94.32636987659203
 20
-130.488503656614
 10
94.12345375251081
 20
-130.488503656614
 10
94.12345375251081
 20
-130.488503656614
 10
94.13172198167541
 20
-130.363791200048
 10
94.1592827455574
 20
-129.9872422635101
 10
94.61644691645006
 20
-129.9872422635101
 10
94.84072263253982
 20
-129.9872422635101
 10
95.08187931650731
 20
-130.1140217773673
 10
95.08187931650731
 20
-130.4102999890988
 10
95.08187931650731
 20
-130.5963351453023
 10
94.98645017156589
 20
-130.6790174369483
 10
94.8872314215907
 20
-130.7403401365858
 10
94.94855412122814
 20
-130.7679009004678
 10
95.13045516284933
 20
-130.8481716252741
 10
95.13045516284933
 20
-131.1251573022882
 10
95.13045516284933
 20
-131.4638101884882
 10
94.88275279745987
 20
-131.6308973195228
 10
94.60576712044579
 20
-131.6308973195228
 97
        0
 97
        0
 75
     2
 76
     1
 98
        0
  0
SPLINE
  5
6A
330
64
100
AcDbEntity
  8
_U+30EC_U+30A4_U+30E4_U+30FC 1
370
     0
100
AcDbSpline
210
0.0
220
0.0
230
1.0
 70
    11
 71
     3
 72
    29
 73
    25
 74
     0
 42
0.0000000001
 43
0.0000000001
 12
1.0
 22
0.0
 32
0.0
 13
1.0
 23
0.0
 33
0.0
 40
0.0
 40
0.0
 40
0.0
 40
0.0
 40
1.0
 40
1.0
 40
1.0
 40
2.0
 40
2.0
 40
2.0
 40
3.0
 40
3.0
 40
3.0
 40
4.0
 40
4.0
 40
4.0
 40
5.0
 40
5.0
 40
5.0
 40
6.0
 40
6.0
 40
6.0
 40
7.0
 40
7.0
 40
7.0
 40
8.0
 40
8.0
 40
8.0
 40
8.0
 10
96.18878849591809
 20
-131.4024874888508
 30
0.0
 10
96.08095700722977
 20
-131.611949294354
 30
0.0
 10
95.90732419477317
 20
-131.6308973195228
 30
0.0
 10
95.79122447692025
 20
-131.6308973195228
 30
0.0
 10
95.63033851775909
 20
-131.6308973195228
 30
0.0
 10
95.48840058376679
 20
-131.584388530472
 30
0.0
 10
95.3933159483739
 20
-131.4024874888508
 30
0.0
 10
95.28961857426788
 20
-131.2078395939342
 30
0.0
 10
95.27067054909901
 20
-130.970817024549
 30
0.0
 10
95.27067054909901
 20
-130.8078640080967
 30
0.0
 10
95.27067054909901
 20
-130.6642035263617
 30
0.0
 10
95.28755151697673
 20
-130.41236704639
 30
0.0
 10
95.3933159483739
 20
-130.2135850368911
 30
0.0
 10
95.50114743706222
 20
-130.0103244032613
 30
0.0
 10
95.66203339622338
 20
-129.9872422635101
 30
0.0
 10
95.79122447692025
 20
-129.9872422635101
 30
0.0
 10
95.94969886924174
 20
-129.9872422635101
 30
0.0
 10
96.0937038605252
 20
-130.0316839952699
 30
0.0
 10
96.18878849591809
 20
-130.2135850368911
 30
0.0
 10
96.28835175544181
 20
-130.4061658745165
 30
0.0
 10
96.31143389519298
 20
-130.6345757051886
 30
0.0
 10
96.31143389519298
 20
-130.8078640080967
 30
0.0
 10
96.31143389519298
 20
-130.9794297632621
 30
0.0
 10
96.29041881273295
 20
-131.2099066512253
 30
0.0
 10
96.18878849591809
 20
-131.4024874888508
 30
0.0
  0
SPLINE
  5
6B
330
64
100
AcDbEntity
  8
_U+30EC_U+30A4_U+30E4_U+30FC 1
370
     0
100
AcDbSpline
210
0.0
220
0.0
230
1.0
 70
    11
 71
     3
 72
    17
 73
    13
 74
     0
 42
0.0000000001
 43
0.0000000001
 12
1.0
 22
0.0
 32
0.0
 13
1.0
 23
0.0
 33
0.0
 40
0.0
 40
0.0
 40
0.0
 40
0.0
 40
1.0
 40
1.0
 40
1.0
 40
2.0
 40
2.0
 40
2.0
 40
3.0
 40
3.0
 40
3.0
 40
4.0
 40
4.0
 40
4.0
 40
4.0
 10
95.79122447692025
 20
-130.1798231011356
 30
0.0
 10
95.54145505423963
 20
-130.1798231011356
 30
0.0
 10
95.49494626518877
 20
-130.4630099500231
 30
0.0
 10
95.49494626518877
 20
-130.8078640080967
 30
0.0
 10
95.49494626518877
 20
-131.1272243595793
 30
0.0
 10
95.53077525823537
 20
-131.4362494246062
 30
0.0
 10
95.79122447692025
 20
-131.4362494246062
 30
0.0
 10
96.0385823327612
 20
-131.4362494246062
 30
0.0
 10
96.08715817910321
 20
-131.1547851234613
 30
0.0
 10
96.08715817910321
 20
-130.8078640080967
 30
0.0
 10
96.08715817910321
 20
-130.488503656614
 30
0.0
 10
96.04926212876546
 20
-130.1798231011356
 30
0.0
 10
95.79122447692025
 20
-130.1798231011356
 30
0.0
  0
HATCH
  5
6C
330
64
100
AcDbEntity
  8
_U+30EC_U+30A4_U+30E4_U+30FC 1
 62
   179
420
  2234388
100
AcDbHatch
 10
0.0
 20
0.0
 30
0.0
210
0.0
220
0.0
230
1.0
  2
SOLID
 70
     1
 71
     0
 91
        2
 92
        1
 93
        1
 72
     4
 94
        3
 73
     0
 74
     1
 95
       29
 96
       25
 40
0.0
 40
0.0
 40
0.0
 40
0.0
 40
1.0
 40
1.0
 40
1.0
 40
2.0
 40
2.0
 40
2.0
 40
3.0
 40
3.0
 40
3.0
 40
4.0
 40
4.0
 40
4.0
 40
5.0
 40
5.0
 40
5.0
 40
6.0
 40
6.0
 40
6.0
 40
7.0
 40
7.0
 40
7.0
 40
8.0
 40
8.0
 40
8.0
 40
8.0
 10
96.18878849591809
 20
-131.4024874888508
 10
96.08095700722977
 20
-131.611949294354
 10
95.90732419477317
 20
-131.6308973195228
 10
95.79122447692025
 20
-131.6308973195228
 10
95.63033851775909
 20
-131.6308973195228
 10
95.48840058376679
 20
-131.584388530472
 10
95.3933159483739
 20
-131.4024874888508
 10
95.28961857426788
 20
-131.2078395939342
 10
95.27067054909901
 20
-130.970817024549
 10
95.27067054909901
 20
-130.8078640080967
 10
95.27067054909901
 20
-130.6642035263617
 10
95.28755151697673
 20
-130.41236704639
 10
95.3933159483739
 20
-130.2135850368911
 10
95.50114743706222
 20
-130.0103244032613
 10
95.66203339622338
 20
-129.9872422635101
 10
95.79122447692025
 20
-129.9872422635101
 10
95.94969886924174
 20
-129.9872422635101
 10
96.0937038605252
 20
-130.0316839952699
 10
96.18878849591809
 20
-130.2135850368911
 10
96.28835175544181
 20
-130.4061658745165
 10
96.31143389519298
 20
-130.6345757051886
 10
96.31143389519298
 20
-130.8078640080967
 10
96.31143389519298
 20
-130.9794297632621
 10
96.29041881273295
 20
-131.2099066512253
 10
96.18878849591809
 20
-131.4024874888508
 97
        0
 97
        0
 92
        1
 93
        1
 72
     4
 94
        3
 73
     0
 74
     1
 95
       17
 96
       13
 40
0.0
 40
0.0
 40
0.0
 40
0.0
 40
1.0
 40
1.0
 40
1.0
 40
2.0
 40
2.0
 40
2.0
 40
3.0
 40
3.0
 40
3.0
 40
4.0
 40
4.0
 40
4.0
 40
4.0
 10
95.79122447692025
 20
-130.1798231011356
 10
95.54145505423963
 20
-130.1798231011356
 10
95.49494626518877
 20
-130.4630099500231
 10
95.49494626518877
 20
-130.8078640080967
 10
95.49494626518877
 20
-131.1272243595793
 10
95.53077525823537
 20
-131.4362494246062
 10
95.79122447692025
 20
-131.4362494246062
 10
96.0385823327612
 20
-131.4362494246062
 10
96.08715817910321
 20
-131.1547851234613
 10
96.08715817910321
 20
-130.8078640080967
 10
96.08715817910321
 20
-130.488503656614
 10
96.04926212876546
 20
-130.1798231011356
 10
95.79122447692025
 20
-130.1798231011356
 97
        0
 97
        0
 75
     2
 76
     1
 98
        0
  0
ENDBLK
  5
67
330
64
100
AcDbEntity
  8
0
100
AcDbBlockEnd
  0
ENDSEC
  0
SECTION
  2
ENTITIES
  0
SPLINE
  5
41
330
1F
100
AcDbEntity
  8
_U+30EC_U+30A4_U+30E4_U+30FC 1
 62
   179
420
  2234388
370
     9
100
AcDbSpline
210
0.0
220
0.0
230
1.0
 70
    11
 71
     3
 72
    17
 73
    13
 74
     0
 42
0.0000000001
 43
0.0000000001
 12
1.0
 22
0.0
 32
0.0
 13
1.0
 23
0.0
 33
0.0
 40
0.0
 40
0.0
 40
0.0
 40
0.0
 40
1.0
 40
1.0
 40
1.0
 40
2.0
 40
2.0
 40
2.0
 40
3.0
 40
3.0
 40
3.0
 40
4.0
 40
4.0
 40
4.0
 40
4.0
 10
76.29817610902691
 20
-124.9529363576506
 30
0.0
 10
76.29817610902691
 20
-124.8977971909978
 30
0.0
 10
76.25340861016903
 20
-124.853029691009
 30
0.0
 10
76.19826944490909
 20
-124.853029691009
 30
0.0
 10
76.14316555742602
 20
-124.853029691009
 30
0.0
 10
76.09836278079125
 20
-124.8977971909978
 30
0.0
 10
76.09836278079125
 20
-124.9529363576506
 30
0.0
 10
76.09836278079125
 20
-125.0080402465258
 30
0.0
 10
76.14316555742602
 20
-125.0528430242922
 30
0.0
 10
76.19826944490909
 20
-125.0528430242922
 30
0.0
 10
76.25340861016903
 20
-125.0528430242922
 30
0.0
 10
76.29817610902691
 20
-125.0080402465258
 30
0.0
 10
76.29817610902691
 20
-124.9529363576506
 30
0.0
  0
SPLINE
  5
42
330
1F
100
AcDbEntity
  8
_U+30EC_U+30A4_U+30E4_U+30FC 1
 62
   179
420
  2234388
370
     9
100
AcDbSpline
210
0.0
220
0.0
230
1.0
 70
    11
 71
     3
 72
    17
 73
    13
 74
     0
 42
0.0000000001
 43
0.0000000001
 12
1.0
 22
0.0
 32
0.0
 13
1.0
 23
0.0
 33
0.0
 40
0.0
 40
0.0
 40
0.0
 40
0.0
 40
1.0
 40
1.0
 40
1.0
 40
2.0
 40
2.0
 40
2.0
 40
3.0
 40
3.0
 40
3.0
 40
4.0
 40
4.0
 40
4.0
 40
4.0
 10
76.29817610902691
 20
-127.9532408013452
 30
0.0
 10
76.29817610902691
 20
-127.8981369124699
 30
0.0
 10
76.25340861016903
 20
-127.8533341347032
 30
0.0
 10
76.19826944490909
 20
-127.8533341347032
 30
0.0
 10
76.14316555742602
 20
-127.8533341347032
 30
0.0
 10
76.09836278079125
 20
-127.8981369124699
 30
0.0
 10
76.09836278079125
 20
-127.9532408013452
 30
0.0
 10
76.09836278079125
 20
-128.0083799679979
 30
0.0
 10
76.14316555742602
 20
-128.0531827457643
 30
0.0
 10
76.19826944490909
 20
-128.0531827457643
 30
0.0
 10
76.25340861016903
 20
-128.0531827457643
 30
0.0
 10
76.29817610902691
 20
-128.0083799679979
 30
0.0
 10
76.29817610902691
 20
-127.9532408013452
 30
0.0
  0
SPLINE
  5
43
330
1F
100
AcDbEntity
  8
_U+30EC_U+30A4_U+30E4_U+30FC 1
 62
   179
420
  2234388
370
     9
100
AcDbSpline
210
0.0
220
0.0
230
1.0
 70
    11
 71
     3
 72
    17
 73
    13
 74
     0
 42
0.0000000001
 43
0.0000000001
 12
1.0
 22
0.0
 32
0.0
 13
1.0
 23
0.0
 33
0.0
 40
0.0
 40
0.0
 40
0.0
 40
0.0
 40
1.0
 40
1.0
 40
1.0
 40
2.0
 40
2.0
 40
2.0
 40
3.0
 40
3.0
 40
3.0
 40
4.0
 40
4.0
 40
4.0
 40
4.0
 10
80.29828795142001
 20
-131.9529999670121
 30
0.0
 10
80.29828795142001
 20
-131.8978960781365
 30
0.0
 10
80.25348517478524
 20
-131.8530933003698
 30
0.0
 10
80.19838331328368
 20
-131.8530933003698
 30
0.0
 10
80.14292462205032
 20
-131.8530933003698
 30
0.0
 10
80.09812184541556
 20
-131.8978960781365
 30
0.0
 10
80.09812184541556
 20
-131.9529999670121
 30
0.0
 10
80.09812184541556
 20
-132.0081391336645
 30
0.0
 10
80.14292462205032
 20
-132.0529066336537
 30
0.0
 10
80.19838331328368
 20
-132.0529066336537
 30
0.0
 10
80.25348517478524
 20
-132.0529066336537
 30
0.0
 10
80.29828795142001
 20
-132.0081391336645
 30
0.0
 10
80.29828795142001
 20
-131.9529999670121
 30
0.0
  0
SPLINE
  5
44
330
1F
100
AcDbEntity
  8
_U+30EC_U+30A4_U+30E4_U+30FC 1
 62
   179
420
  2234388
370
     9
100
AcDbSpline
210
0.0
220
0.0
230
1.0
 70
    11
 71
     3
 72
    17
 73
    13
 74
     0
 42
0.0000000001
 43
0.0000000001
 12
1.0
 22
0.0
 32
0.0
 13
1.0
 23
0.0
 33
0.0
 40
0.0
 40
0.0
 40
0.0
 40
0.0
 40
1.0
 40
1.0
 40
1.0
 40
2.0
 40
2.0
 40
2.0
 40
3.0
 40
3.0
 40
3.0
 40
4.0
 40
4.0
 40
4.0
 40
4.0
 10
110.3074699635998
 20
-131.9529999670121
 30
0.0
 10
110.3074699635998
 20
-131.8978960781365
 30
0.0
 10
110.2627024647419
 20
-131.8530933003698
 30
0.0
 10
110.2075632994819
 20
-131.8530933003698
 30
0.0
 10
110.1517538564613
 20
-131.8530933003698
 30
0.0
 10
110.1069863576034
 20
-131.8978960781365
 30
0.0
 10
110.1069863576034
 20
-131.9529999670121
 30
0.0
 10
110.1069863576034
 20
-132.0081391336645
 30
0.0
 10
110.1517538564613
 20
-132.0529066336537
 30
0.0
 10
110.2075632994819
 20
-132.0529066336537
 30
0.0
 10
110.2627024647419
 20
-132.0529066336537
 30
0.0
 10
110.3074699635998
 20
-132.0081391336645
 30
0.0
 10
110.3074699635998
 20
-131.9529999670121
 30
0.0
  0
POLYLINE
  5
45
330
1F
100
AcDbEntity
  8
_U+30EC_U+30A4_U+30E4_U+30FC 1
 62
   179
420
  2234388
370
     9
100
AcDb2dPolyline
 66
     1
 10
0.0
 20
0.0
 30
0.0
  0
VERTEX
  5
46
330
45
100
AcDbEntity
  8
_U+30EC_U+30A4_U+30E4_U+30FC 1
 62
   179
420
  2234388
370
     9
100
AcDbVertex
100
AcDb2dVertex
 10
76.19826944490909
 20
-124.9529363576506
 30
0.0
  0
VERTEX
  5
47
330
45
100
AcDbEntity
  8
_U+30EC_U+30A4_U+30E4_U+30FC 1
 62
   179
420
  2234388
370
     9
100
AcDbVertex
100
AcDb2dVertex
 10
76.19826944490909
 20
-127.9532408013452
 30
0.0
  0
SEQEND
  5
48
330
45
100
AcDbEntity
  8
_U+30EC_U+30A4_U+30E4_U+30FC 1
 62
   179
420
  2234388
370
     9
  0
POLYLINE
  5
49
330
1F
100
AcDbEntity
  8
_U+30EC_U+30A4_U+30E4_U+30FC 1
 62
   179
420
  2234388
370
     9
100
AcDb2dPolyline
 66
     1
 10
0.0
 20
0.0
 30
0.0
  0
VERTEX
  5
4A
330
49
100
AcDbEntity
  8
_U+30EC_U+30A4_U+30E4_U+30FC 1
 62
   179
420
  2234388
370
     9
100
AcDbVertex
100
AcDb2dVertex
 10
82.15827345952337
 20
-124.9529363576506
 30
0.0
  0
VERTEX
  5
4B
330
49
100
AcDbEntity
  8
_U+30EC_U+30A4_U+30E4_U+30FC 1
 62
   179
420
  2234388
370
     9
100
AcDbVertex
100
AcDb2dVertex
 10
75.19817974820127
 20
-124.9529363576506
 30
0.0
  0
SEQEND
  5
4C
330
49
100
AcDbEntity
  8
_U+30EC_U+30A4_U+30E4_U+30FC 1
 62
   179
420
  2234388
370
     9
  0
POLYLINE
  5
4D
330
1F
100
AcDbEntity
  8
_U+30EC_U+30A4_U+30E4_U+30FC 1
 62
   179
420
  2234388
370
     9
100
AcDb2dPolyline
 66
     1
 10
0.0
 20
0.0
 30
0.0
  0
VERTEX
  5
4E
330
4D
100
AcDbEntity
  8
_U+30EC_U+30A4_U+30E4_U+30FC 1
 62
   179
420
  2234388
370
     9
100
AcDbVertex
100
AcDb2dVertex
 10
77.65831079654922
 20
-127.9532408013452
 30
0.0
  0
VERTEX
  5
4F
330
4D
100
AcDbEntity
  8
_U+30EC_U+30A4_U+30E4_U+30FC 1
 62
   179
420
  2234388
370
     9
100
AcDbVertex
100
AcDb2dVertex
 10
75.19817974820127
 20
-127.9532408013452
 30
0.0
  0
SEQEND
  5
50
330
4D
100
AcDbEntity
  8
_U+30EC_U+30A4_U+30E4_U+30FC 1
 62
   179
420
  2234388
370
     9
  0
INSERT
  5
52
330
1F
100
AcDbEntity
  8
_U+30EC_U+30A4_U+30E4_U+30FC 1
100
AcDbBlockReference
  2
block 2
 10
0.0
 20
0.0
 30
0.0
  0
SPLINE
  5
57
330
1F
100
AcDbEntity
  8
_U+30EC_U+30A4_U+30E4_U+30FC 1
 62
   179
420
  2234388
370
     9
100
AcDbSpline
210
0.0
220
0.0
230
1.0
 70
    11
 71
     3
 72
    17
 73
    13
 74
     0
 42
0.0000000001
 43
0.0000000001
 12
1.0
 22
0.0
 32
0.0
 13
1.0
 23
0.0
 33
0.0
 40
0.0
 40
0.0
 40
0.0
 40
0.0
 40
1.0
 40
1.0
 40
1.0
 40
2.0
 40
2.0
 40
2.0
 40
3.0
 40
3.0
 40
3.0
 40
4.0
 40
4.0
 40
4.0
 40
4.0
 10
76.23340611067934
 20
-127.9532408013452
 30
0.0
 10
76.23340611067934
 20
-127.9725377457847
 30
0.0
 10
76.21756638886121
 20
-127.9884127457807
 30
0.0
 10
76.19826944490909
 20
-127.9884127457807
 30
0.0
 10
76.17865500096504
 20
-127.9884127457807
 30
0.0
 10
76.16278000137005
 20
-127.9725377457847
 30
0.0
 10
76.16278000137005
 20
-127.9532408013452
 30
0.0
 10
76.16278000137005
 20
-127.9332735791277
 30
0.0
 10
76.17865500096504
 20
-127.9174338569095
 30
0.0
 10
76.19826944490909
 20
-127.9174338569095
 30
0.0
 10
76.21756638886121
 20
-127.9174338569095
 30
0.0
 10
76.23340611067934
 20
-127.9332735791277
 30
0.0
 10
76.23340611067934
 20
-127.9532408013452
 30
0.0
  0
POLYLINE
  5
58
330
1F
100
AcDbEntity
  8
_U+30EC_U+30A4_U+30E4_U+30FC 1
 62
   179
420
  2234388
370
     9
100
AcDb2dPolyline
 66
     1
 10
0.0
 20
0.0
 30
0.0
  0
VERTEX
  5
59
330
58
100
AcDbEntity
  8
_U+30EC_U+30A4_U+30E4_U+30FC 1
 62
   179
420
  2234388
370
     9
100
AcDbVertex
100
AcDb2dVertex
 10
80.19838331328368
 20
-131.9529999670121
 30
0.0
  0
VERTEX
  5
5A
330
58
100
AcDbEntity
  8
_U+30EC_U+30A4_U+30E4_U+30FC 1
 62
   179
420
  2234388
370
     9
100
AcDbVertex
100
AcDb2dVertex
 10
110.2075632994819
 20
-131.9529999670121
 30
0.0
  0
SEQEND
  5
5B
330
58
100
AcDbEntity
  8
_U+30EC_U+30A4_U+30E4_U+30FC 1
 62
   179
420
  2234388
370
     9
  0
POLYLINE
  5
5C
330
1F
100
AcDbEntity
  8
_U+30EC_U+30A4_U+30E4_U+30FC 1
 62
   179
420
  2234388
370
     9
100
AcDb2dPolyline
 66
     1
 10
0.0
 20
0.0
 30
0.0
  0
VERTEX
  5
5D
330
5C
100
AcDbEntity
  8
_U+30EC_U+30A4_U+30E4_U+30FC 1
 62
   179
420
  2234388
370
     9
100
AcDbVertex
100
AcDb2dVertex
 10
80.19838331328368
 20
-130.4929938562659
 30
0.0
  0
VERTEX
  5
5E
330
5C
100
AcDbEntity
  8
_U+30EC_U+30A4_U+30E4_U+30FC 1
 62
   179
420
  2234388
370
     9
100
AcDbVertex
100
AcDb2dVertex
 10
80.19838331328368
 20
-132.952772188984
 30
0.0
  0
SEQEND
  5
5F
330
5C
100
AcDbEntity
  8
_U+30EC_U+30A4_U+30E4_U+30FC 1
 62
   179
420
  2234388
370
     9
  0
POLYLINE
  5
60
330
1F
100
AcDbEntity
  8
_U+30EC_U+30A4_U+30E4_U+30FC 1
 62
   179
420
  2234388
370
     9
100
AcDb2dPolyline
 66
     1
 10
0.0
 20
0.0
 30
0.0
  0
VERTEX
  5
61
330
60
100
AcDbEntity
  8
_U+30EC_U+30A4_U+30E4_U+30FC 1
 62
   179
420
  2234388
370
     9
100
AcDbVertex
100
AcDb2dVertex
 10
110.2075632994819
 20
-130.4929938562659
 30
0.0
  0
VERTEX
  5
62
330
60
100
AcDbEntity
  8
_U+30EC_U+30A4_U+30E4_U+30FC 1
 62
   179
420
  2234388
370
     9
100
AcDbVertex
100
AcDb2dVertex
 10
110.2075632994819
 20
-132.952772188984
 30
0.0
  0
SEQEND
  5
63
330
60
100
AcDbEntity
  8
_U+30EC_U+30A4_U+30E4_U+30FC 1
 62
   179
420
  2234388
370
     9
  0
INSERT
  5
65
330
1F
100
AcDbEntity
  8
_U+30EC_U+30A4_U+30E4_U+30FC 1
100
AcDbBlockReference
  2
block 3
 10
0.0
 20
0.0
 30
0.0
  0
SPLINE
  5
6D
330
1F
100
AcDbEntity
  8
_U+30EC_U+30A4_U+30E4_U+30FC 1
 62
   179
420
  2234388
370
     9
100
AcDbSpline
210
0.0
220
0.0
230
1.0
 70
    11
 71
     3
 72
    17
 73
    13
 74
     0
 42
0.0000000001
 43
0.0000000001
 12
1.0
 22
0.0
 32
0.0
 13
1.0
 23
0.0
 33
0.0
 40
0.0
 40
0.0
 40
0.0
 40
0.0
 40
1.0
 40
1.0
 40
1.0
 40
2.0
 40
2.0
 40
2.0
 40
3.0
 40
3.0
 40
3.0
 40
4.0
 40
4.0
 40
4.0
 40
4.0
 10
110.242702750217
 20
-131.9529999670121
 30
0.0
 10
110.242702750217
 20
-131.9722969114513
 30
0.0
 10
110.2268602434341
 20
-131.9881366336698
 30
0.0
 10
110.2075632994819
 20
-131.9881366336698
 30
0.0
 10
110.1875960777691
 20
-131.9881366336698
 30
0.0
 10
110.171756355951
 20
-131.9722969114513
 30
0.0
 10
110.171756355951
 20
-131.9529999670121
 30
0.0
 10
110.171756355951
 20
-131.9337383003497
 30
0.0
 10
110.1875960777691
 20
-131.9178633003537
 30
0.0
 10
110.2075632994819
 20
-131.9178633003537
 30
0.0
 10
110.2268602434341
 20
-131.9178633003537
 30
0.0
 10
110.242702750217
 20
-131.9337383003497
 30
0.0
 10
110.242702750217
 20
-131.9529999670121
 30
0.0
  0
SPLINE
  5
6E
330
1F
100
AcDbEntity
  8
_U+30EC_U+30A4_U+30E4_U+30FC 1
 62
   179
420
  2234388
370
    25
100
AcDbSpline
210
0.0
220
0.0
230
1.0
 70
    11
 71
     3
 72
    17
 73
    13
 74
     0
 42
0.0000000001
 43
0.0000000001
 12
1.0
 22
0.0
 32
0.0
 13
1.0
 23
0.0
 33
0.0
 40
0.0
 40
0.0
 40
0.0
 40
0.0
 40
1.0
 40
1.0
 40
1.0
 40
2.0
 40
2.0
 40
2.0
 40
3.0
 40
3.0
 40
3.0
 40
4.0
 40
4.0
 40
4.0
 40
4.0
 10
80.23524656413943
 20
-127.9529233013453
 30
0.0
 10
80.23524656413943
 20
-127.9722202457848
 30
0.0
 10
80.21940684232132
 20
-127.988059968003
 30
0.0
 10
80.20010989836918
 20
-127.988059968003
 30
0.0
 10
80.18046017664827
 20
-127.988059968003
 30
0.0
 10
80.16462045483014
 20
-127.9722202457848
 30
0.0
 10
80.16462045483014
 20
-127.9529233013453
 30
0.0
 10
80.16462045483014
 20
-127.9329208013502
 30
0.0
 10
80.18046017664827
 20
-127.9170810791317
 30
0.0
 10
80.20010989836918
 20
-127.9170810791317
 30
0.0
 10
80.21940684232132
 20
-127.9170810791317
 30
0.0
 10
80.23524656413943
 20
-127.9329208013502
 30
0.0
 10
80.23524656413943
 20
-127.9529233013453
 30
0.0
  0
SPLINE
  5
6F
330
1F
100
AcDbEntity
  8
_U+30EC_U+30A4_U+30E4_U+30FC 1
 62
   179
420
  2234388
370
    25
100
AcDbSpline
210
0.0
220
0.0
230
1.0
 70
    11
 71
     3
 72
    17
 73
    13
 74
     0
 42
0.0000000001
 43
0.0000000001
 12
1.0
 22
0.0
 32
0.0
 13
1.0
 23
0.0
 33
0.0
 40
0.0
 40
0.0
 40
0.0
 40
0.0
 40
1.0
 40
1.0
 40
1.0
 40
2.0
 40
2.0
 40
2.0
 40
3.0
 40
3.0
 40
3.0
 40
4.0
 40
4.0
 40
4.0
 40
4.0
 10
110.2344449654628
 20
-127.9529233013453
 30
0.0
 10
110.2344449654628
 20
-127.9722202457848
 30
0.0
 10
110.2186052436447
 20
-127.988059968003
 30
0.0
 10
110.1993110835614
 20
-127.988059968003
 30
0.0
 10
110.1796585779716
 20
-127.988059968003
 30
0.0
 10
110.1638188561535
 20
-127.9722202457848
 30
0.0
 10
110.1638188561535
 20
-127.9529233013453
 30
0.0
 10
110.1638188561535
 20
-127.9329208013502
 30
0.0
 10
110.1796585779716
 20
-127.9170810791317
 30
0.0
 10
110.1993110835614
 20
-127.9170810791317
 30
0.0
 10
110.2186052436447
 20
-127.9170810791317
 30
0.0
 10
110.2344449654628
 20
-127.9329208013502
 30
0.0
 10
110.2344449654628
 20
-127.9529233013453
 30
0.0
  0
SPLINE
  5
70
330
1F
100
AcDbEntity
  8
_U+30EC_U+30A4_U+30E4_U+30FC 1
 62
   179
420
  2234388
370
    25
100
AcDbSpline
210
0.0
220
0.0
230
1.0
 70
     8
 71
     3
 72
    20
 73
    16
 74
     0
 42
0.0000000001
 43
0.0000000001
 12
1.0
 22
0.0
 32
0.0
 13
1.0
 23
0.0
 33
0.0
 40
0.0
 40
0.0
 40
0.0
 40
0.0
 40
1.0
 40
1.0
 40
1.0
 40
2.0
 40
2.0
 40
2.0
 40
3.0
 40
3.0
 40
3.0
 40
4.0
 40
4.0
 40
4.0
 40
5.0
 40
5.0
 40
5.0
 40
5.0
 10
80.20010989836918
 20
-127.9525705235675
 30
0.0
 10
80.20010989836918
 20
-127.9525705235675
 30
0.0
 10
80.20010989836918
 20
-125.4521169130813
 30
0.0
 10
80.20010989836918
 20
-125.4521169130813
 30
0.0
 10
80.20010989836918
 20
-125.1761741353727
 30
0.0
 10
80.42401794821237
 20
-124.9522308020954
 30
0.0
 10
80.69999599672714
 20
-124.9522308020954
 30
0.0
 10
80.69999599672714
 20
-124.9522308020954
 30
0.0
 10
109.6990721947977
 20
-124.9522308020954
 30
0.0
 10
109.6990721947977
 20
-124.9522308020954
 30
0.0
 10
109.9750121943037
 20
-124.9522308020954
 30
0.0
 10
110.1989583057836
 20
-125.1761741353727
 30
0.0
 10
110.1989583057836
 20
-125.4521169130813
 30
0.0
 10
110.1989583057836
 20
-125.4521169130813
 30
0.0
 10
110.1989583057836
 20
-127.9525705235675
 30
0.0
 10
110.1989583057836
 20
-127.9525705235675
 30
0.0
  0
POLYLINE
  5
71
330
1F
100
AcDbEntity
  8
_U+30EC_U+30A4_U+30E4_U+30FC 1
 62
   179
420
  2234388
370
     9
100
AcDb2dPolyline
 66
     1
 10
0.0
 20
0.0
 30
0.0
  0
VERTEX
  5
72
330
71
100
AcDbEntity
  8
_U+30EC_U+30A4_U+30E4_U+30FC 1
 62
   179
420
  2234388
370
     9
100
AcDbVertex
100
AcDb2dVertex
 10
80.20010989836918
 20
-127.9525705235675
 30
0.0
  0
VERTEX
  5
73
330
71
100
AcDbEntity
  8
_U+30EC_U+30A4_U+30E4_U+30FC 1
 62
   179
420
  2234388
370
     9
100
AcDbVertex
100
AcDb2dVertex
 10
110.1975796886255
 20
-127.9525705235675
 30
0.0
  0
SEQEND
  5
74
330
71
100
AcDbEntity
  8
_U+30EC_U+30A4_U+30E4_U+30FC 1
 62
   179
420
  2234388
370
     9
  0
SPLINE
  5
75
330
1F
100
AcDbEntity
  8
_U+30EC_U+30A4_U+30E4_U+30FC 1
 62
   179
420
  2234388
370
    25
100
AcDbSpline
210
0.0
220
0.0
230
1.0
 70
    11
 71
     3
 72
    17
 73
    13
 74
     0
 42
0.0000000001
 43
0.0000000001
 12
1.0
 22
0.0
 32
0.0
 13
1.0
 23
0.0
 33
0.0
 40
0.0
 40
0.0
 40
0.0
 40
0.0
 40
1.0
 40
1.0
 40
1.0
 40
2.0
 40
2.0
 40
2.0
 40
3.0
 40
3.0
 40
3.0
 40
4.0
 40
4.0
 40
4.0
 40
4.0
 10
95.25035275396526
 20
-124.9491263576515
 30
0.0
 10
95.25035275396526
 20
-124.9684233020914
 30
0.0
 10
95.23451062592078
 20
-124.9842630243096
 30
0.0
 10
95.21521368196863
 20
-124.9842630243096
 30
0.0
 10
95.19591673801649
 20
-124.9842630243096
 30
0.0
 10
95.18007701619838
 20
-124.9684233020914
 30
0.0
 10
95.18007701619838
 20
-124.9491263576515
 30
0.0
 10
95.18007701619838
 20
-124.9291591354343
 30
0.0
 10
95.19591673801649
 20
-124.9133194132161
 30
0.0
 10
95.21521368196863
 20
-124.9133194132161
 30
0.0
 10
95.23451062592078
 20
-124.9133194132161
 30
0.0
 10
95.25035275396526
 20
-124.9291591354343
 30
0.0
 10
95.25035275396526
 20
-124.9491263576515
 30
0.0
  0
ENDSEC
  0
SECTION
  2
OBJECTS
  0
DICTIONARY
  5
C
330
0
100
AcDbDictionary
281
     1
  3
ACAD_GROUP
350
D
  3
ACAD_LAYOUT
350
1A
  3
ACAD_MATERIAL
350
3B
  3
ACAD_MLEADERSTYLE
350
77
  3
ACAD_MLINESTYLE
350
17
  3
ACAD_PLOTSETTINGS
350
19
  3
ACAD_PLOTSTYLENAME
350
E
  3
ACAD_TABLESTYLE
350
76
  3
ACAD_VISUALSTYLE
350
2A
  0
SUN
  5
3F
330
29
100
AcDbSun
 90
        1
290
     0
 63
     7
421
 16777215
 40
1.0
291
     1
 91
  2455826
 92
 54000000
292
     0
 70
     2
 71
   256
280
     1
  0
DICTIONARY
  5
D
102
{ACAD_REACTORS
330
C
102
}
330
C
100
AcDbDictionary
281
     1
  0
DICTIONARY
  5
1A
102
{ACAD_REACTORS
330
C
102
}
330
C
100
AcDbDictionary
281
     1
  3
Layout1
350
1E
  3
Layout2
350
26
  3
Model
350
22
  0
DICTIONARY
  5
3B
102
{ACAD_REACTORS
330
C
102
}
330
C
100
AcDbDictionary
281
     1
  3
ByBlock
350
3D
  3
ByLayer
350
3C
  3
Global
350
3E
  0
DICTIONARY
  5
77
102
{ACAD_REACTORS
330
C
102
}
330
C
100
AcDbDictionary
281
     1
  0
DICTIONARY
  5
17
102
{ACAD_REACTORS
330
C
102
}
330
C
100
AcDbDictionary
281
     1
  3
Standard
350
18
  0
DICTIONARY
  5
19
102
{ACAD_REACTORS
330
C
102
}
330
C
100
AcDbDictionary
281
     1
  0
ACDBDICTIONARYWDFLT
  5
E
102
{ACAD_REACTORS
330
C
102
}
330
C
100
AcDbDictionary
281
     1
  3
Normal
350
F
100
AcDbDictionaryWithDefault
340
F
  0
DICTIONARY
  5
76
102
{ACAD_REACTORS
330
C
102
}
330
C
100
AcDbDictionary
281
     1
  0
DICTIONARY
  5
2A
102
{ACAD_REACTORS
330
C
102
}
330
C
100
AcDbDictionary
281
     1
  3
2dWireframe
350
2F
  3
3D Hidden
350
31
  3
3dWireframe
350
30
  3
Basic
350
32
  3
Brighten
350
36
  3
ColorChange
350
3A
  3
Conceptual
350
34
  3
Dim
350
35
  3
Facepattern
350
39
  3
Flat
350
2B
  3
FlatWithEdges
350
2C
  3
Gouraud
350
2D
  3
GouraudWithEdges
350
2E
  3
Linepattern
350
38
  3
Realistic
350
33
  3
Thicken
350
37
  0
LAYOUT
  5
1E
102
{ACAD_REACTORS
330
1A
102
}
330
1A
100
AcDbPlotSettings
  1

  2
none_device
  4

  6

 40
0.0
 41
0.0
 42
0.0
 43
0.0
 44
0.0
 45
0.0
 46
0.0
 47
0.0
 48
0.0
 49
0.0
140
0.0
141
0.0
142
1.0
143
1.0
 70
   688
 72
     0
 73
     0
 74
     5
  7

 75
    16
 76
     0
 77
     2
 78
   300
147
1.0
148
0.0
149
0.0
100
AcDbLayout
  1
Layout1
 70
     1
 71
     1
 10
0.0
 20
0.0
 11
12.0
 21
9.0
 12
0.0
 22
0.0
 32
0.0
 14
1.000000000000000E+20
 24
1.000000000000000E+20
 34
1.000000000000000E+20
 15
-1.000000000000000E+20
 25
-1.000000000000000E+20
 35
-1.000000000000000E+20
146
0.0
 13
0.0
 23
0.0
 33
0.0
 16
1.0
 26
0.0
 36
0.0
 17
0.0
 27
1.0
 37
0.0
 76
     0
330
1B
  0
LAYOUT
  5
26
102
{ACAD_REACTORS
330
1A
102
}
330
1A
100
AcDbPlotSettings
  1

  2
none_device
  4

  6

 40
0.0
 41
0.0
 42
0.0
 43
0.0
 44
0.0
 45
0.0
 46
0.0
 47
0.0
 48
0.0
 49
0.0
140
0.0
141
0.0
142
1.0
143
1.0
 70
   688
 72
     0
 73
     0
 74
     5
  7

 75
    16
 76
     0
 77
     2
 78
   300
147
1.0
148
0.0
149
0.0
100
AcDbLayout
  1
Layout2
 70
     1
 71
     2
 10
0.0
 20
0.0
 11
0.0
 21
0.0
 12
0.0
 22
0.0
 32
0.0
 14
0.0
 24
0.0
 34
0.0
 15
0.0
 25
0.0
 35
0.0
146
0.0
 13
0.0
 23
0.0
 33
0.0
 16
1.0
 26
0.0
 36
0.0
 17
0.0
 27
1.0
 37
0.0
 76
     0
330
23
  0
LAYOUT
  5
22
102
{ACAD_REACTORS
330
1A
102
}
330
1A
100
AcDbPlotSettings
  1

  2
none_device
  4

  6

 40
0.0
 41
0.0
 42
0.0
 43
0.0
 44
0.0
 45
0.0
 46
0.0
 47
0.0
 48
0.0
 49
0.0
140
0.0
141
0.0
142
1.0
143
1.0
 70
  1712
 72
     0
 73
     0
 74
     0
  7

 75
     0
 76
     0
 77
     2
 78
   300
147
1.0
148
0.0
149
0.0
100
AcDbLayout
  1
Model
 70
     1
 71
     0
 10
0.0
 20
0.0
 11
12.0
 21
9.0
 12
0.0
 22
0.0
 32
0.0
 14
1.000000000000000E+20
 24
1.000000000000000E+20
 34
1.000000000000000E+20
 15
-1.000000000000000E+20
 25
-1.000000000000000E+20
 35
-1.000000000000000E+20
146
0.0
 13
0.0
 23
0.0
 33
0.0
 16
1.0
 26
0.0
 36
0.0
 17
0.0
 27
1.0
 37
0.0
 76
     0
330
1F
331
29
  0
MATERIAL
  5
3D
102
{ACAD_REACTORS
330
3B
102
}
330
3B
100
AcDbMaterial
  1
ByBlock
 72
     1
 94
      127
  0
MATERIAL
  5
3C
102
{ACAD_REACTORS
330
3B
102
}
330
3B
100
AcDbMaterial
  1
ByLayer
 72
     1
 94
      127
  0
MATERIAL
  5
3E
102
{ACAD_REACTORS
330
3B
102
}
330
3B
100
AcDbMaterial
  1
Global
 72
     1
 94
      127
  0
MLINESTYLE
  5
18
102
{ACAD_REACTORS
330
17
102
}
330
17
100
AcDbMlineStyle
  2
Standard
 70
     0
  3

 62
   256
 51
90.0
 52
90.0
 71
     2
 49
0.5
 62
   256
  6
BYLAYER
 49
-0.5
 62
   256
  6
BYLAYER
  0
ACDBPLACEHOLDER
  5
F
102
{ACAD_REACTORS
330
E
102
}
330
E
  0
VISUALSTYLE
  5
2F
102
{ACAD_REACTORS
330
2A
102
}
330
2A
100
AcDbVisualStyle
  2
2dWireframe
 70
     4
177
     2
291
     0
 71
     0
176
     1
 72
     2
176
     1
 73
     0
176
     1
 90
        0
176
     1
 40
-0.6
176
     1
 41
-30.0
176
     1
 62
     5
 63
     7
421
 16777215
176
     1
 74
     1
176
     1
 91
        4
176
     1
 64
     7
176
     1
 65
   257
176
     1
 75
     1
176
     1
175
     1
176
     1
 42
1.0
176
     1
 92
        0
176
     1
 66
   257
176
     1
 43
1.0
176
     1
 76
     1
176
     1
 77
     6
176
     1
 78
     2
176
     1
 67
     7
176
     1
 79
     5
176
     1
170
     0
176
     1
171
     0
176
     1
290
     0
176
     1
 93
        1
176
     1
 44
0.0
176
     1
173
     0
176
     1
  0
VISUALSTYLE
  5
31
102
{ACAD_REACTORS
330
2A
102
}
330
2A
100
AcDbVisualStyle
  2
3D Hidden
 70
     6
177
     2
291
     0
 71
     1
176
     1
 72
     2
176
     1
 73
     2
176
     1
 90
        0
176
     1
 40
-0.6
176
     1
 41
-30.0
176
     1
 62
     5
 63
     7
421
 16777215
176
     1
 74
     2
176
     1
 91
        2
176
     1
 64
     7
176
     1
 65
   257
176
     1
 75
     2
176
     1
175
     1
176
     1
 42
40.0
176
     1
 92
        0
176
     1
 66
   257
176
     1
 43
1.0
176
     1
 76
     1
176
     1
 77
     6
176
     1
 78
     2
176
     1
 67
     7
176
     1
 79
     3
176
     1
170
     0
176
     1
171
     0
176
     1
290
     0
176
     1
 93
        1
176
     1
 44
0.0
176
     1
173
     0
176
     1
  0
VISUALSTYLE
  5
30
102
{ACAD_REACTORS
330
2A
102
}
330
2A
100
AcDbVisualStyle
  2
3dWireframe
 70
     5
177
     2
291
     0
 71
     0
176
     1
 72
     2
176
     1
 73
     0
176
     1
 90
        0
176
     1
 40
-0.6
176
     1
 41
-30.0
176
     1
 62
     5
 63
     7
421
 16777215
176
     1
 74
     1
176
     1
 91
        4
176
     1
 64
     7
176
     1
 65
   257
176
     1
 75
     1
176
     1
175
     1
176
     1
 42
1.0
176
     1
 92
        0
176
     1
 66
   257
176
     1
 43
1.0
176
     1
 76
     1
176
     1
 77
     6
176
     1
 78
     2
176
     1
 67
     7
176
     1
 79
     5
176
     1
170
     0
176
     1
171
     0
176
     1
290
     0
176
     1
 93
        1
176
     1
 44
0.0
176
     1
173
     0
176
     1
  0
VISUALSTYLE
  5
32
102
{ACAD_REACTORS
330
2A
102
}
330
2A
100
AcDbVisualStyle
  2
Basic
 70
     7
177
     2
291
     1
 71
     1
176
     1
 72
     0
176
     1
 73
     1
176
     1
 90
        0
176
     1
 40
-0.6
176
     1
 41
-30.0
176
     1
 62
     5
 63
     7
421
 16777215
176
     1
 74
     0
176
     1
 91
        4
176
     1
 64
     7
176
     1
 65
   257
176
     1
 75
     1
176
     1
175
     1
176
     1
 42
1.0
176
     1
 92
        8
176
     1
 66
     7
176
     1
 43
1.0
176
     1
 76
     1
176
     1
 77
     6
176
     1
 78
     2
176
     1
 67
     7
176
     1
 79
     5
176
     1
170
     0
176
     1
171
     0
176
     1
290
     0
176
     1
 93
        1
176
     1
 44
0.0
176
     1
173
     0
176
     1
  0
VISUALSTYLE
  5
36
102
{ACAD_REACTORS
330
2A
102
}
330
2A
100
AcDbVisualStyle
  2
Brighten
 70
    12
177
     2
291
     1
 71
     2
176
     1
 72
     2
176
     1
 73
     0
176
     1
 90
        0
176
     1
 40
-0.6
176
     1
 41
-30.0
176
     1
 62
     5
 63
     7
421
 16777215
176
     1
 74
     1
176
     1
 91
        4
176
     1
 64
     7
176
     1
 65
   257
176
     1
 75
     1
176
     1
175
     1
176
     1
 42
1.0
176
     1
 92
        8
176
     1
 66
     7
176
     1
 43
1.0
176
     1
 76
     1
176
     1
 77
     6
176
     1
 78
     2
176
     1
 67
     7
176
     1
 79
     5
176
     1
170
     0
176
     1
171
     0
176
     1
290
     0
176
     1
 93
        1
176
     1
 44
50.0
176
     1
173
     0
176
     1
  0
VISUALSTYLE
  5
3A
102
{ACAD_REACTORS
330
2A
102
}
330
2A
100
AcDbVisualStyle
  2
ColorChange
 70
    16
177
     2
291
     1
 71
     2
176
     1
 72
     2
176
     1
 73
     3
176
     1
 90
        0
176
     1
 40
-0.6
176
     1
 41
-30.0
176
     1
 62
     5
 63
     8
421
  8421504
176
     1
 74
     1
176
     1
 91
        4
176
     1
 64
     7
176
     1
 65
   257
176
     1
 75
     1
176
     1
175
     1
176
     1
 42
1.0
176
     1
 92
        8
176
     1
 66
     8
424
  8421504
176
     1
 43
1.0
176
     1
 76
     1
176
     1
 77
     6
176
     1
 78
     2
176
     1
 67
     7
176
     1
 79
     5
176
     1
170
     0
176
     1
171
     0
176
     1
290
     0
176
     1
 93
        1
176
     1
 44
0.0
176
     1
173
     0
176
     1
  0
VISUALSTYLE
  5
34
102
{ACAD_REACTORS
330
2A
102
}
330
2A
100
AcDbVisualStyle
  2
Conceptual
 70
     9
177
     2
291
     0
 71
     3
176
     1
 72
     2
176
     1
 73
     0
176
     1
 90
        0
176
     1
 40
-0.6
176
     1
 41
-30.0
176
     1
 62
     5
 63
     7
421
 16777215
176
     1
 74
     2
176
     1
 91
        2
176
     1
 64
     7
176
     1
 65
   257
176
     1
 75
     1
176
     1
175
     1
176
     1
 42
40.0
176
     1
 92
        8
176
     1
 66
     7
176
     1
 43
1.0
176
     1
 76
     1
176
     1
 77
     6
176
     1
 78
     2
176
     1
 67
     7
176
     1
 79
     3
176
     1
170
     0
176
     1
171
     0
176
     1
290
     0
176
     1
 93
        1
176
     1
 44
0.0
176
     1
173
     0
176
     1
  0
VISUALSTYLE
  5
35
102
{ACAD_REACTORS
330
2A
102
}
330
2A
100
AcDbVisualStyle
  2
Dim
 70
    11
177
     2
291
     1
 71
     2
176
     1
 72
     2
176
     1
 73
     0
176
     1
 90
        0
176
     1
 40
-0.6
176
     1
 41
-30.0
176
     1
 62
     5
 63
     7
421
 16777215
176
     1
 74
     1
176
     1
 91
        4
176
     1
 64
     7
176
     1
 65
   257
176
     1
 75
     1
176
     1
175
     1
176
     1
 42
1.0
176
     1
 92
        8
176
     1
 66
     7
176
     1
 43
1.0
176
     1
 76
     1
176
     1
 77
     6
176
     1
 78
     2
176
     1
 67
     7
176
     1
 79
     5
176
     1
170
     0
176
     1
171
     0
176
     1
290
     0
176
     1
 93
        1
176
     1
 44
-50.0
176
     1
173
     0
176
     1
  0
VISUALSTYLE
  5
39
102
{ACAD_REACTORS
330
2A
102
}
330
2A
100
AcDbVisualStyle
  2
Facepattern
 70
    15
177
     2
291
     1
 71
     2
176
     1
 72
     2
176
     1
 73
     0
176
     1
 90
        0
176
     1
 40
-0.6
176
     1
 41
-30.0
176
     1
 62
     5
 63
     7
421
 16777215
176
     1
 74
     1
176
     1
 91
        4
176
     1
 64
     7
176
     1
 65
   257
176
     1
 75
     1
176
     1
175
     1
176
     1
 42
1.0
176
     1
 92
        8
176
     1
 66
     7
176
     1
 43
1.0
176
     1
 76
     1
176
     1
 77
     6
176
     1
 78
     2
176
     1
 67
     7
176
     1
 79
     5
176
     1
170
     0
176
     1
171
     0
176
     1
290
     0
176
     1
 93
        1
176
     1
 44
0.0
176
     1
173
     0
176
     1
  0
VISUALSTYLE
  5
2B
102
{ACAD_REACTORS
330
2A
102
}
330
2A
100
AcDbVisualStyle
  2
Flat
 70
     0
177
     2
291
     1
 71
     2
176
     1
 72
     1
176
     1
 73
     1
176
     1
 90
        2
176
     1
 40
-0.6
176
     1
 41
30.0
176
     1
 62
     5
 63
     7
421
 16777215
176
     1
 74
     0
176
     1
 91
        4
176
     1
 64
     7
176
     1
 65
   257
176
     1
 75
     1
176
     1
175
     1
176
     1
 42
1.0
176
     1
 92
        8
176
     1
 66
     7
176
     1
 43
1.0
176
     1
 76
     1
176
     1
 77
     6
176
     1
 78
     2
176
     1
 67
     7
176
     1
 79
     5
176
     1
170
     0
176
     1
171
     0
176
     1
290
     0
176
     1
 93
       13
176
     1
 44
0.0
176
     1
173
     0
176
     1
  0
VISUALSTYLE
  5
2C
102
{ACAD_REACTORS
330
2A
102
}
330
2A
100
AcDbVisualStyle
  2
FlatWithEdges
 70
     1
177
     2
291
     1
 71
     2
176
     1
 72
     1
176
     1
 73
     1
176
     1
 90
        2
176
     1
 40
-0.6
176
     1
 41
30.0
176
     1
 62
     5
 63
     7
421
 16777215
176
     1
 74
     1
176
     1
 91
        4
176
     1
 64
     7
176
     1
 65
   257
176
     1
 75
     1
176
     1
175
     1
176
     1
 42
1.0
176
     1
 92
        0
176
     1
 66
   257
176
     1
 43
1.0
176
     1
 76
     1
176
     1
 77
     6
176
     1
 78
     2
176
     1
 67
     7
176
     1
 79
     5
176
     1
170
     0
176
     1
171
     0
176
     1
290
     0
176
     1
 93
       13
176
     1
 44
0.0
176
     1
173
     0
176
     1
  0
VISUALSTYLE
  5
2D
102
{ACAD_REACTORS
330
2A
102
}
330
2A
100
AcDbVisualStyle
  2
Gouraud
 70
     2
177
     2
291
     1
 71
     2
176
     1
 72
     2
176
     1
 73
     1
176
     1
 90
        2
176
     1
 40
-0.6
176
     1
 41
30.0
176
     1
 62
     5
 63
     7
421
 16777215
176
     1
 74
     0
176
     1
 91
        4
176
     1
 64
     7
176
     1
 65
   257
176
     1
 75
     1
176
     1
175
     1
176
     1
 42
1.0
176
     1
 92
        0
176
     1
 66
     7
176
     1
 43
1.0
176
     1
 76
     1
176
     1
 77
     6
176
     1
 78
     2
176
     1
 67
     7
176
     1
 79
     5
176
     1
170
     0
176
     1
171
     0
176
     1
290
     0
176
     1
 93
       13
176
     1
 44
0.0
176
     1
173
     0
176
     1
  0
VISUALSTYLE
  5
2E
102
{ACAD_REACTORS
330
2A
102
}
330
2A
100
AcDbVisualStyle
  2
GouraudWithEdges
 70
     3
177
     2
291
     1
 71
     2
176
     1
 72
     2
176
     1
 73
     1
176
     1
 90
        2
176
     1
 40
-0.6
176
     1
 41
30.0
176
     1
 62
     5
 63
     7
421
 16777215
176
     1
 74
     1
176
     1
 91
        4
176
     1
 64
     7
176
     1
 65
   257
176
     1
 75
     1
176
     1
175
     1
176
     1
 42
1.0
176
     1
 92
        0
176
     1
 66
   257
176
     1
 43
1.0
176
     1
 76
     1
176
     1
 77
     6
176
     1
 78
     2
176
     1
 67
     7
176
     1
 79
     5
176
     1
170
     0
176
     1
171
     0
176
     1
290
     0
176
     1
 93
       13
176
     1
 44
0.0
176
     1
173
     0
176
     1
  0
VISUALSTYLE
  5
38
102
{ACAD_REACTORS
330
2A
102
}
330
2A
100
AcDbVisualStyle
  2
Linepattern
 70
    14
177
     2
291
     1
 71
     2
176
     1
 72
     2
176
     1
 73
     0
176
     1
 90
        0
176
     1
 40
-0.6
176
     1
 41
-30.0
176
     1
 62
     5
 63
     7
421
 16777215
176
     1
 74
     1
176
     1
 91
        4
176
     1
 64
     7
176
     1
 65
   257
176
     1
 75
     7
176
     1
175
     7
176
     1
 42
1.0
176
     1
 92
        8
176
     1
 66
     7
176
     1
 43
1.0
176
     1
 76
     1
176
     1
 77
     6
176
     1
 78
     2
176
     1
 67
     7
176
     1
 79
     5
176
     1
170
     0
176
     1
171
     0
176
     1
290
     0
176
     1
 93
        1
176
     1
 44
0.0
176
     1
173
     0
176
     1
  0
VISUALSTYLE
  5
33
102
{ACAD_REACTORS
330
2A
102
}
330
2A
100
AcDbVisualStyle
  2
Realistic
 70
     8
177
     2
291
     0
 71
     2
176
     1
 72
     2
176
     1
 73
     0
176
     1
 90
        0
176
     1
 40
-0.6
176
     1
 41
-30.0
176
     1
 62
     5
 63
     7
421
 16777215
176
     1
 74
     1
176
     1
 91
        0
176
     1
 64
     7
176
     1
 65
   257
176
     1
 75
     1
176
     1
175
     1
176
     1
 42
1.0
176
     1
 92
        8
176
     1
 66
     8
424
  7895160
176
     1
 43
1.0
176
     1
 76
     1
176
     1
 77
     6
176
     1
 78
     2
176
     1
 67
     7
176
     1
 79
     5
176
     1
170
     0
176
     1
171
     0
176
     1
290
     0
176
     1
 93
       13
176
     1
 44
0.0
176
     1
173
     0
176
     1
  0
VISUALSTYLE
  5
37
102
{ACAD_REACTORS
330
2A
102
}
330
2A
100
AcDbVisualStyle
  2
Thicken
 70
    13
177
     2
291
     1
 71
     2
176
     1
 72
     2
176
     1
 73
     0
176
     1
 90
        0
176
     1
 40
-0.6
176
     1
 41
-30.0
176
     1
 62
     5
 63
     7
421
 16777215
176
     1
 74
     1
176
     1
 91
        4
176
     1
 64
     7
176
     1
 65
   257
176
     1
 75
     1
176
     1
175
     1
176
     1
 42
1.0
176
     1
 92
       12
176
     1
 66
     7
176
     1
 43
1.0
176
     1
 76
     1
176
     1
 77
     6
176
     1
 78
     2
176
     1
 67
     7
176
     1
 79
     5
176
     1
170
     0
176
     1
171
     0
176
     1
290
     0
176
     1
 93
        1
176
     1
 44
0.0
176
     1
173
     0
176
     1
  0
ENDSEC
  0
EOF
