  0
SECTION
  2
HEADER
  9
$ACADVER
  1
AC1024
  9
$ACADMAINTVER
 70
     6
  9
$DWGCODEPAGE
  3
UNDEFINED
  9
$INSBASE
 10
0.0
 20
0.0
 30
0.0
  9
$EXTMIN
 10
1.000000000000000E+20
 20
1.000000000000000E+20
 30
1.000000000000000E+20
  9
$EXTMAX
 10
-1.000000000000000E+20
 20
-1.000000000000000E+20
 30
-1.000000000000000E+20
  9
$LIMMIN
 10
0.0
 20
0.0
  9
$LIMMAX
 10
12.0
 20
9.0
  9
$ORTHOMODE
 70
     0
  9
$REGENMODE
 70
     1
  9
$FILLMODE
 70
     1
  9
$QTEXTMODE
 70
     0
  9
$MIRRTEXT
 70
     1
  9
$LTSCALE
 40
1.0
  9
$ATTMODE
 70
     1
  9
$TEXTSIZE
 40
0.2
  9
$TRACEWID
 40
0.05
  9
$TEXTSTYLE
  7
Standard
  9
$CLAYER
  8
0
  9
$CELTYPE
  6
ByLayer
  9
$CECOLOR
 62
   256
  9
$CELTSCALE
 40
1.0
  9
$DISPSILH
 70
     0
  9
$DIMSCALE
 40
1.0
  9
$DIMASZ
 40
0.18
  9
$DIMEXO
 40
0.0625
  9
$DIMDLI
 40
0.38
  9
$DIMRND
 40
0.0
  9
$DIMDLE
 40
0.0
  9
$DIMEXE
 40
0.18
  9
$DIMTP
 40
0.0
  9
$DIMTM
 40
0.0
  9
$DIMTXT
 40
0.18
  9
$DIMCEN
 40
0.09
  9
$DIMTSZ
 40
0.0
  9
$DIMTOL
 70
     0
  9
$DIMLIM
 70
     0
  9
$DIMTIH
 70
     1
  9
$DIMTOH
 70
     1
  9
$DIMSE1
 70
     0
  9
$DIMSE2
 70
     0
  9
$DIMTAD
 70
     0
  9
$DIMZIN
 70
     0
  9
$DIMBLK
  1

  9
$DIMASO
 70
     1
  9
$DIMSHO
 70
     1
  9
$DIMPOST
  1

  9
$DIMAPOST
  1

  9
$DIMALT
 70
     0
  9
$DIMALTD
 70
     2
  9
$DIMALTF
 40
25.4
  9
$DIMLFAC
 40
1.0
  9
$DIMTOFL
 70
     0
  9
$DIMTVP
 40
0.0
  9
$DIMTIX
 70
     0
  9
$DIMSOXD
 70
     0
  9
$DIMSAH
 70
     0
  9
$DIMBLK1
  1

  9
$DIMBLK2
  1

  9
$DIMSTYLE
  2
Standard
  9
$DIMCLRD
 70
     0
  9
$DIMCLRE
 70
     0
  9
$DIMCLRT
 70
     0
  9
$DIMTFAC
 40
1.0
  9
$DIMGAP
 40
0.09
  9
$DIMJUST
 70
     0
  9
$DIMSD1
 70
     0
  9
$DIMSD2
 70
     0
  9
$DIMTOLJ
 70
     1
  9
$DIMTZIN
 70
     0
  9
$DIMALTZ
 70
     0
  9
$DIMALTTZ
 70
     0
  9
$DIMUPT
 70
     0
  9
$DIMDEC
 70
     4
  9
$DIMTDEC
 70
     4
  9
$DIMALTU
 70
     2
  9
$DIMALTTD
 70
     2
  9
$DIMTXSTY
  7
Standard
  9
$DIMAUNIT
 70
     0
  9
$DIMADEC
 70
     0
  9
$DIMALTRND
 40
0.0
  9
$DIMAZIN
 70
     0
  9
$DIMDSEP
 70
    46
  9
$DIMATFIT
 70
     3
  9
$DIMFRAC
 70
     0
  9
$DIMLDRBLK
  1

  9
$DIMLUNIT
 70
     2
  9
$DIMLWD
 70
    -2
  9
$DIMLWE
 70
    -2
  9
$DIMTMOVE
 70
     0
  9
$DIMFXL
 40
1.0
  9
$DIMFXLON
 70
     0
  9
$DIMJOGANG
 40
0.7853981633974483
  9
$DIMTFILL
 70
     0
  9
$DIMTFILLCLR
 70
     0
  9
$DIMARCSYM
 70
     0
  9
$DIMLTYPE
  6

  9
$DIMLTEX1
  6

  9
$DIMLTEX2
  6

  9
$DIMTXTDIRECTION
 70
     0
  9
$LUNITS
 70
     2
  9
$LUPREC
 70
     4
  9
$SKETCHINC
 40
0.1
  9
$FILLETRAD
 40
0.5
  9
$AUNITS
 70
     0
  9
$AUPREC
 70
     0
  9
$MENU
  1
.
  9
$ELEVATION
 40
0.0
  9
$PELEVATION
 40
0.0
  9
$THICKNESS
 40
0.0
  9
$LIMCHECK
 70
     0
  9
$CHAMFERA
 40
0.5
  9
$CHAMFERB
 40
0.5
  9
$CHAMFERC
 40
1.0
  9
$CHAMFERD
 40
0.0
  9
$SKPOLY
 70
     0
  9
$TDCREATE
 40
2457917.609594908
  9
$TDUCREATE
 40
2457917.234594908
  9
$TDUPDATE
 40
2457917.609594908
  9
$TDUUPDATE
 40
2457917.234594908
  9
$TDINDWG
 40
0.0000000116
  9
$TDUSRTIMER
 40
0.0000000116
  9
$USRTIMER
 70
     1
  9
$ANGBASE
 50
0.0
  9
$ANGDIR
 70
     0
  9
$PDMODE
 70
     0
  9
$PDSIZE
 40
0.0
  9
$PLINEWID
 40
0.0
  9
$SPLFRAME
 70
     0
  9
$SPLINETYPE
 70
     6
  9
$SPLINESEGS
 70
     8
  9
$HANDSEED
  5
C8
  9
$SURFTAB1
 70
     6
  9
$SURFTAB2
 70
     6
  9
$SURFTYPE
 70
     6
  9
$SURFU
 70
     6
  9
$SURFV
 70
     6
  9
$UCSBASE
  2

  9
$UCSNAME
  2

  9
$UCSORG
 10
0.0
 20
0.0
 30
0.0
  9
$UCSXDIR
 10
1.0
 20
0.0
 30
0.0
  9
$UCSYDIR
 10
0.0
 20
1.0
 30
0.0
  9
$UCSORTHOREF
  2

  9
$UCSORTHOVIEW
 70
     0
  9
$UCSORGTOP
 10
0.0
 20
0.0
 30
0.0
  9
$UCSORGBOTTOM
 10
0.0
 20
0.0
 30
0.0
  9
$UCSORGLEFT
 10
0.0
 20
0.0
 30
0.0
  9
$UCSORGRIGHT
 10
0.0
 20
0.0
 30
0.0
  9
$UCSORGFRONT
 10
0.0
 20
0.0
 30
0.0
  9
$UCSORGBACK
 10
0.0
 20
0.0
 30
0.0
  9
$PUCSBASE
  2

  9
$PUCSNAME
  2

  9
$PUCSORG
 10
0.0
 20
0.0
 30
0.0
  9
$PUCSXDIR
 10
1.0
 20
0.0
 30
0.0
  9
$PUCSYDIR
 10
0.0
 20
1.0
 30
0.0
  9
$PUCSORTHOREF
  2

  9
$PUCSORTHOVIEW
 70
     0
  9
$PUCSORGTOP
 10
0.0
 20
0.0
 30
0.0
  9
$PUCSORGBOTTOM
 10
0.0
 20
0.0
 30
0.0
  9
$PUCSORGLEFT
 10
0.0
 20
0.0
 30
0.0
  9
$PUCSORGRIGHT
 10
0.0
 20
0.0
 30
0.0
  9
$PUCSORGFRONT
 10
0.0
 20
0.0
 30
0.0
  9
$PUCSORGBACK
 10
0.0
 20
0.0
 30
0.0
  9
$USERI1
 70
     0
  9
$USERI2
 70
     0
  9
$USERI3
 70
     0
  9
$USERI4
 70
     0
  9
$USERI5
 70
     0
  9
$USERR1
 40
0.0
  9
$USERR2
 40
0.0
  9
$USERR3
 40
0.0
  9
$USERR4
 40
0.0
  9
$USERR5
 40
0.0
  9
$WORLDVIEW
 70
     1
  9
$SHADEDGE
 70
     3
  9
$SHADEDIF
 70
    70
  9
$TILEMODE
 70
     1
  9
$MAXACTVP
 70
    64
  9
$PINSBASE
 10
0.0
 20
0.0
 30
0.0
  9
$PLIMCHECK
 70
     0
  9
$PEXTMIN
 10
1.000000000000000E+20
 20
1.000000000000000E+20
 30
1.000000000000000E+20
  9
$PEXTMAX
 10
-1.000000000000000E+20
 20
-1.000000000000000E+20
 30
-1.000000000000000E+20
  9
$PLIMMIN
 10
0.0
 20
0.0
  9
$PLIMMAX
 10
12.0
 20
9.0
  9
$UNITMODE
 70
     0
  9
$VISRETAIN
 70
     1
  9
$PLINEGEN
 70
     0
  9
$PSLTSCALE
 70
     1
  9
$TREEDEPTH
 70
  3020
  9
$CMLSTYLE
  2
Standard
  9
$CMLJUST
 70
     0
  9
$CMLSCALE
 40
1.0
  9
$PROXYGRAPHICS
 70
     1
  9
$MEASUREMENT
 70
     0
  9
$CELWEIGHT
370
    -1
  9
$ENDCAPS
280
     0
  9
$JOINSTYLE
280
     0
  9
$LWDISPLAY
290
     1
  9
$INSUNITS
 70
     1
  9
$HYPERLINKBASE
  1

  9
$STYLESHEET
  1

  9
$XEDIT
290
     1
  9
$CEPSNTYPE
380
     0
  9
$PSTYLEMODE
290
     1
  9
$FINGERPRINTGUID
  2
{4C18A400-D71B-9BA9-1DF8-125E25CAC4DE}
  9
$VERSIONGUID
  2
{FAEB1C32-E019-11D5-929B-00C0DF256EC4}
  9
$EXTNAMES
290
     1
  9
$PSVPSCALE
 40
0.0
  9
$OLESTARTUP
290
     0
  9
$SORTENTS
280
   127
  9
$INDEXCTL
280
     0
  9
$HIDETEXT
280
     1
  9
$XCLIPFRAME
280
     2
  9
$HALOGAP
280
     0
  9
$OBSCOLOR
 70
   257
  9
$OBSLTYPE
280
     0
  9
$INTERSECTIONDISPLAY
280
     0
  9
$INTERSECTIONCOLOR
 70
   257
  9
$DIMASSOC
280
     2
  9
$PROJECTNAME
  1

  9
$CAMERADISPLAY
290
     0
  9
$LENSLENGTH
 40
50.0
  9
$CAMERAHEIGHT
 40
0.0
  9
$STEPSPERSEC
 40
2.0
  9
$STEPSIZE
 40
6.0
  9
$3DDWFPREC
 40
2.0
  9
$PSOLWIDTH
 40
0.25
  9
$PSOLHEIGHT
 40
4.0
  9
$LOFTANG1
 40
1.570796326794897
  9
$LOFTANG2
 40
1.570796326794897
  9
$LOFTMAG1
 40
0.0
  9
$LOFTMAG2
 40
0.0
  9
$LOFTPARAM
 70
     7
  9
$LOFTNORMALS
280
     1
  9
$LATITUDE
 40
37.795
  9
$LONGITUDE
 40
-122.394
  9
$NORTHDIRECTION
 40
0.0
  9
$TIMEZONE
 70
 -8000
  9
$LIGHTGLYPHDISPLAY
280
     1
  9
$TILEMODELIGHTSYNCH
280
     1
  9
$CMATERIAL
347
3C
  9
$SOLIDHIST
280
     1
  9
$SHOWHIST
280
     1
  9
$DWFFRAME
280
     2
  9
$DGNFRAME
280
     2
  9
$REALWORLDSCALE
290
     1
  9
$INTERFERECOLOR
 62
   256
  9
$CSHADOW
280
     0
  9
$SHADOWPLANELOCATION
 40
0.0
  0
ENDSEC
  0
SECTION
  2
CLASSES
  0
CLASS
  1
ACDBDICTIONARYWDFLT
  2
AcDbDictionaryWithDefault
  3
ObjectDBX Classes
 90
        0
 91
        4
280
     0
281
     0
  0
CLASS
  1
VISUALSTYLE
  2
AcDbVisualStyle
  3
ObjectDBX Classes
 90
     4095
 91
        4
280
     0
281
     0
  0
CLASS
  1
MATERIAL
  2
AcDbMaterial
  3
ObjectDBX Classes
 90
     1153
 91
        4
280
     0
281
     0
  0
CLASS
  1
SUN
  2
AcDbSun
  3
SCENEOE
 90
     1024
 91
        4
280
     0
281
     0
  0
ENDSEC
  0
SECTION
  2
TABLES
  0
TABLE
  2
VPORT
  5
8
330
0
100
AcDbSymbolTable
 70
     1
  0
VPORT
  5
29
330
8
100
AcDbSymbolTableRecord
100
AcDbViewportTableRecord
  2
*Active
 70
     0
 10
0.0
 20
0.0
 11
1.0
 21
1.0
 12
0.0
 22
0.0
 13
0.0
 23
0.0
 14
0.5
 24
0.5
 15
0.5
 25
0.5
 16
0.0
 26
0.0
 36
1.0
 17
91.00082462281999
 27
-128.4993055234307
 37
0.0
 40
256.9986110468615
 41
0.7081814508812795
 42
50.0
 43
0.0
 44
0.0
 50
0.0
 51
0.0
 71
     0
 72
   100
 73
     1
 74
     3
 75
     0
 76
     0
 77
     0
 78
     0
281
     0
 65
     1
110
0.0
120
0.0
130
0.0
111
1.0
121
0.0
131
0.0
112
0.0
122
1.0
132
0.0
 79
     0
146
0.0
 60
     3
 61
     5
292
     1
282
     1
141
0.0
142
0.0
 63
   250
361
3F
  0
ENDTAB
  0
TABLE
  2
LTYPE
  5
5
330
0
100
AcDbSymbolTable
 70
     1
  0
LTYPE
  5
14
330
5
100
AcDbSymbolTableRecord
100
AcDbLinetypeTableRecord
  2
ByBlock
 70
     0
  3

 72
    65
 73
     0
 40
0.0
  0
LTYPE
  5
15
330
5
100
AcDbSymbolTableRecord
100
AcDbLinetypeTableRecord
  2
ByLayer
 70
     0
  3

 72
    65
 73
     0
 40
0.0
  0
LTYPE
  5
16
330
5
100
AcDbSymbolTableRecord
100
AcDbLinetypeTableRecord
  2
Continuous
 70
     0
  3
Solid line
 72
    65
 73
     0
 40
0.0
  0
ENDTAB
  0
TABLE
  2
LAYER
  5
2
330
0
100
AcDbSymbolTable
 70
     2
  0
LAYER
  5
10
330
2
100
AcDbSymbolTableRecord
100
AcDbLayerTableRecord
  2
0
 70
     0
 62
     7
  6
Continuous
370
    -3
390
F
347
3E
  0
LAYER
  5
40
330
2
100
AcDbSymbolTableRecord
100
AcDbLayerTableRecord
  2
_U+30EC_U+30A4_U+30E4_U+30FC 1
 70
     0
 62
     7
  6
Continuous
370
    -3
390
F
347
3E
  0
ENDTAB
  0
TABLE
  2
STYLE
  5
3
330
0
100
AcDbSymbolTable
 70
     1
  0
STYLE
  5
11
330
3
100
AcDbSymbolTableRecord
100
AcDbTextStyleTableRecord
  2
Standard
 70
     0
 40
0.0
 41
1.0
 50
0.0
 71
     0
 42
0.2
  3
txt
  4

  0
ENDTAB
  0
TABLE
  2
VIEW
  5
6
330
0
100
AcDbSymbolTable
 70
     0
  0
ENDTAB
  0
TABLE
  2
UCS
  5
7
330
0
100
AcDbSymbolTable
 70
     0
  0
ENDTAB
  0
TABLE
  2
APPID
  5
9
330
0
100
AcDbSymbolTable
 70
     1
  0
APPID
  5
12
330
9
100
AcDbSymbolTableRecord
100
AcDbRegAppTableRecord
  2
ACAD
 70
     0
  0
ENDTAB
  0
TABLE
  2
DIMSTYLE
  5
A
330
0
100
AcDbSymbolTable
 70
     1
100
AcDbDimStyleTable
  0
DIMSTYLE
105
27
330
A
100
AcDbSymbolTableRecord
100
AcDbDimStyleTableRecord
  2
Standard
 70
     0
178
     0
340
11
  0
ENDTAB
  0
TABLE
  2
BLOCK_RECORD
  5
1
330
0
100
AcDbSymbolTable
 70
     4
  0
BLOCK_RECORD
  5
1F
330
1
100
AcDbSymbolTableRecord
100
AcDbBlockTableRecord
  2
*Model_Space
340
22
 70
     0
280
     1
281
     0
  0
BLOCK_RECORD
  5
1B
330
1
100
AcDbSymbolTableRecord
100
AcDbBlockTableRecord
  2
*Paper_Space
340
1E
 70
     0
280
     1
281
     0
  0
BLOCK_RECORD
  5
23
330
1
100
AcDbSymbolTableRecord
100
AcDbBlockTableRecord
  2
*Paper_Space0
340
26
 70
     0
280
     1
281
     0
  0
BLOCK_RECORD
  5
6F
330
1
100
AcDbSymbolTableRecord
100
AcDbBlockTableRecord
  2
block 2
340
0
102
{BLKREFS
331
70
102
}
 70
     0
280
     1
281
     0
  0
BLOCK_RECORD
  5
90
330
1
100
AcDbSymbolTableRecord
100
AcDbBlockTableRecord
  2
block 3
340
0
102
{BLKREFS
331
91
102
}
 70
     0
280
     1
281
     0
  0
BLOCK_RECORD
  5
B1
330
1
100
AcDbSymbolTableRecord
100
AcDbBlockTableRecord
  2
block 4
340
0
102
{BLKREFS
331
B2
102
}
 70
     0
280
     1
281
     0
  0
ENDTAB
  0
ENDSEC
  0
SECTION
  2
BLOCKS
  0
BLOCK
  5
20
330
1F
100
AcDbEntity
  8
0
100
AcDbBlockBegin
  2
*Model_Space
 70
     0
 10
0.0
 20
0.0
 30
0.0
  3
*Model_Space
  1

  0
ENDBLK
  5
21
330
1F
100
AcDbEntity
  8
0
100
AcDbBlockEnd
  0
BLOCK
  5
1C
330
1B
100
AcDbEntity
 67
     1
  8
0
100
AcDbBlockBegin
  2
*Paper_Space
 70
     0
 10
0.0
 20
0.0
 30
0.0
  3
*Paper_Space
  1

  0
ENDBLK
  5
1D
330
1B
100
AcDbEntity
 67
     1
  8
0
100
AcDbBlockEnd
  0
BLOCK
  5
24
330
23
100
AcDbEntity
  8
0
100
AcDbBlockBegin
  2
*Paper_Space0
 70
     0
 10
0.0
 20
0.0
 30
0.0
  3
*Paper_Space0
  1

  0
ENDBLK
  5
25
330
23
100
AcDbEntity
  8
0
100
AcDbBlockEnd
  0
BLOCK
  5
71
330
6F
100
AcDbEntity
  8
0
100
AcDbBlockBegin
  2
block 2
 70
     0
 10
0.0
 20
0.0
 30
0.0
  3
block 2
  1

  0
SPLINE
  5
73
330
6F
100
AcDbEntity
  8
_U+30EC_U+30A4_U+30E4_U+30FC 1
370
     0
100
AcDbSpline
210
0.0
220
0.0
230
1.0
 70
    11
 71
     3
 72
    26
 73
    22
 74
     0
 42
0.0000000001
 43
0.0000000001
 12
1.0
 22
0.0
 32
0.0
 13
1.0
 23
0.0
 33
0.0
 40
0.0
 40
0.0
 40
0.0
 40
0.0
 40
1.0
 40
1.0
 40
1.0
 40
2.0
 40
2.0
 40
2.0
 40
3.0
 40
3.0
 40
3.0
 40
4.0
 40
4.0
 40
4.0
 40
5.0
 40
5.0
 40
5.0
 40
6.0
 40
6.0
 40
6.0
 40
7.0
 40
7.0
 40
7.0
 40
7.0
 10
103.3156575262544
 20
-129.5686631620523
 30
0.0
 10
103.3156575262544
 20
-129.5686631620523
 30
0.0
 10
102.2111599136833
 20
-129.5686631620523
 30
0.0
 10
102.2111599136833
 20
-129.5686631620523
 30
0.0
 10
102.2111599136833
 20
-129.5686631620523
 30
0.0
 10
102.2111599136833
 20
-129.8987033095392
 30
0.0
 10
102.2111599136833
 20
-129.8987033095392
 30
0.0
 10
102.2111599136833
 20
-129.8987033095392
 30
0.0
 10
102.0630208078176
 20
-129.8987033095392
 30
0.0
 10
102.0630208078176
 20
-129.8987033095392
 30
0.0
 10
102.048206897231
 20
-129.5665961047611
 30
0.0
 10
101.8855983903272
 20
-129.5200873157103
 30
0.0
 10
101.7712212202169
 20
-129.4904594945371
 30
0.0
 10
101.7712212202169
 20
-129.4904594945371
 30
0.0
 10
101.7712212202169
 20
-129.3443874459625
 30
0.0
 10
101.7712212202169
 20
-129.3443874459625
 30
0.0
 10
101.7712212202169
 20
-129.3443874459625
 30
0.0
 10
103.3156575262544
 20
-129.3443874459625
 30
0.0
 10
103.3156575262544
 20
-129.3443874459625
 30
0.0
 10
103.3156575262544
 20
-129.3443874459625
 30
0.0
 10
103.3156575262544
 20
-129.5686631620523
 30
0.0
 10
103.3156575262544
 20
-129.5686631620523
 30
0.0
  0
HATCH
  5
74
330
6F
100
AcDbEntity
  8
_U+30EC_U+30A4_U+30E4_U+30FC 1
 62
   179
420
  2234388
100
AcDbHatch
 10
0.0
 20
0.0
 30
0.0
210
0.0
220
0.0
230
1.0
  2
SOLID
 70
     1
 71
     0
 91
        1
 92
        1
 93
        1
 72
     4
 94
        3
 73
     0
 74
     1
 95
       26
 96
       22
 40
0.0
 40
0.0
 40
0.0
 40
0.0
 40
1.0
 40
1.0
 40
1.0
 40
2.0
 40
2.0
 40
2.0
 40
3.0
 40
3.0
 40
3.0
 40
4.0
 40
4.0
 40
4.0
 40
5.0
 40
5.0
 40
5.0
 40
6.0
 40
6.0
 40
6.0
 40
7.0
 40
7.0
 40
7.0
 40
7.0
 10
103.3156575262544
 20
-129.5686631620523
 10
103.3156575262544
 20
-129.5686631620523
 10
102.2111599136833
 20
-129.5686631620523
 10
102.2111599136833
 20
-129.5686631620523
 10
102.2111599136833
 20
-129.5686631620523
 10
102.2111599136833
 20
-129.8987033095392
 10
102.2111599136833
 20
-129.8987033095392
 10
102.2111599136833
 20
-129.8987033095392
 10
102.0630208078176
 20
-129.8987033095392
 10
102.0630208078176
 20
-129.8987033095392
 10
102.048206897231
 20
-129.5665961047611
 10
101.8855983903272
 20
-129.5200873157103
 10
101.7712212202169
 20
-129.4904594945371
 10
101.7712212202169
 20
-129.4904594945371
 10
101.7712212202169
 20
-129.3443874459625
 10
101.7712212202169
 20
-129.3443874459625
 10
101.7712212202169
 20
-129.3443874459625
 10
103.3156575262544
 20
-129.3443874459625
 10
103.3156575262544
 20
-129.3443874459625
 10
103.3156575262544
 20
-129.3443874459625
 10
103.3156575262544
 20
-129.5686631620523
 10
103.3156575262544
 20
-129.5686631620523
 97
        0
 97
        0
 75
     2
 76
     1
 98
        0
  0
POLYLINE
  5
75
330
6F
100
AcDbEntity
  8
_U+30EC_U+30A4_U+30E4_U+30FC 1
370
     0
100
AcDb2dPolyline
 66
     1
 10
0.0
 20
0.0
 30
0.0
  0
VERTEX
  5
76
330
75
100
AcDbEntity
  8
_U+30EC_U+30A4_U+30E4_U+30FC 1
370
     0
100
AcDbVertex
100
AcDb2dVertex
 10
103.3156575262544
 20
-128.7831813914153
 30
0.0
  0
VERTEX
  5
77
330
75
100
AcDbEntity
  8
_U+30EC_U+30A4_U+30E4_U+30FC 1
370
     0
100
AcDbVertex
100
AcDb2dVertex
 10
103.0638210462827
 20
-128.7831813914153
 30
0.0
  0
VERTEX
  5
78
330
75
100
AcDbEntity
  8
_U+30EC_U+30A4_U+30E4_U+30FC 1
370
     0
100
AcDbVertex
100
AcDb2dVertex
 10
103.0638210462827
 20
-128.5313449114436
 30
0.0
  0
VERTEX
  5
79
330
75
100
AcDbEntity
  8
_U+30EC_U+30A4_U+30E4_U+30FC 1
370
     0
100
AcDbVertex
100
AcDb2dVertex
 10
103.3156575262544
 20
-128.5313449114436
 30
0.0
  0
VERTEX
  5
7A
330
75
100
AcDbEntity
  8
_U+30EC_U+30A4_U+30E4_U+30FC 1
370
     0
100
AcDbVertex
100
AcDb2dVertex
 10
103.3156575262544
 20
-128.7831813914153
 30
0.0
  0
SEQEND
  5
7B
330
75
100
AcDbEntity
  8
_U+30EC_U+30A4_U+30E4_U+30FC 1
370
     0
  0
HATCH
  5
7C
330
6F
100
AcDbEntity
  8
_U+30EC_U+30A4_U+30E4_U+30FC 1
 62
   179
420
  2234388
100
AcDbHatch
 10
0.0
 20
0.0
 30
0.0
210
0.0
220
0.0
230
1.0
  2
SOLID
 70
     1
 71
     0
 91
        1
 92
        1
 93
        4
 72
     1
 10
103.3156575262544
 20
-128.7831813914153
 11
103.0638210462827
 21
-128.7831813914153
 72
     1
 10
103.0638210462827
 20
-128.7831813914153
 11
103.0638210462827
 21
-128.5313449114436
 72
     1
 10
103.0638210462827
 20
-128.5313449114436
 11
103.3156575262544
 21
-128.5313449114436
 72
     1
 10
103.3156575262544
 20
-128.5313449114436
 11
103.3156575262544
 21
-128.7831813914153
 97
        0
 75
     2
 76
     1
 98
        0
  0
SPLINE
  5
7D
330
6F
100
AcDbEntity
  8
_U+30EC_U+30A4_U+30E4_U+30FC 1
370
     0
100
AcDbSpline
210
0.0
220
0.0
230
1.0
 70
    11
 71
     3
 72
    29
 73
    25
 74
     0
 42
0.0000000001
 43
0.0000000001
 12
1.0
 22
0.0
 32
0.0
 13
1.0
 23
0.0
 33
0.0
 40
0.0
 40
0.0
 40
0.0
 40
0.0
 40
1.0
 40
1.0
 40
1.0
 40
2.0
 40
2.0
 40
2.0
 40
3.0
 40
3.0
 40
3.0
 40
4.0
 40
4.0
 40
4.0
 40
5.0
 40
5.0
 40
5.0
 40
6.0
 40
6.0
 40
6.0
 40
7.0
 40
7.0
 40
7.0
 40
8.0
 40
8.0
 40
8.0
 40
8.0
 10
103.3663004298876
 20
-127.7949557514714
 30
0.0
 10
103.3663004298876
 20
-128.0614338872555
 30
0.0
 10
103.2288411200261
 20
-128.3153374245184
 30
0.0
 10
102.8798529473703
 20
-128.3153374245184
 30
0.0
 10
102.6238823528163
 20
-128.3153374245184
 30
0.0
 10
102.5284532078748
 20
-128.1735717453004
 30
0.0
 10
102.4671305082374
 20
-128.0678073139032
 30
0.0
 10
102.4078748658911
 20
-128.1925197704692
 30
0.0
 10
102.2938422053293
 20
-128.2688286354675
 30
0.0
 10
102.1329562461681
 20
-128.2688286354675
 30
0.0
 10
101.8580376264452
 20
-128.2688286354675
 30
0.0
 10
101.7226453738749
 20
-128.0698743711943
 30
0.0
 10
101.7226453738749
 20
-127.7949557514714
 30
0.0
 10
101.7226453738749
 20
-127.5114243930353
 30
0.0
 10
101.8663058556098
 20
-127.3210828674753
 30
0.0
 10
102.1329562461681
 20
-127.3210828674753
 30
0.0
 10
102.2938422053293
 20
-127.3210828674753
 30
0.0
 10
102.4078748658911
 20
-127.3992865349905
 30
0.0
 10
102.4671305082374
 20
-127.5241712463308
 30
0.0
 10
102.5181179214191
 20
-127.4352877828113
 30
0.0
 10
102.613202556812
 20
-127.2766411357156
 30
0.0
 10
102.8753743232395
 20
-127.2766411357156
 30
0.0
 10
103.2498562024862
 20
-127.2766411357156
 30
0.0
 10
103.3663004298876
 20
-127.5558661247951
 30
0.0
 10
103.3663004298876
 20
-127.7949557514714
 30
0.0
  0
SPLINE
  5
7E
330
6F
100
AcDbEntity
  8
_U+30EC_U+30A4_U+30E4_U+30FC 1
370
     0
100
AcDbSpline
210
0.0
220
0.0
230
1.0
 70
    11
 71
     3
 72
    17
 73
    13
 74
     0
 42
0.0000000001
 43
0.0000000001
 12
1.0
 22
0.0
 32
0.0
 13
1.0
 23
0.0
 33
0.0
 40
0.0
 40
0.0
 40
0.0
 40
0.0
 40
1.0
 40
1.0
 40
1.0
 40
2.0
 40
2.0
 40
2.0
 40
3.0
 40
3.0
 40
3.0
 40
4.0
 40
4.0
 40
4.0
 40
4.0
 10
101.9148817019518
 20
-127.7949557514714
 30
0.0
 10
101.9148817019518
 20
-127.9599758252149
 30
0.0
 10
102.0103108468933
 20
-128.0445529193778
 30
0.0
 10
102.1457030994636
 20
-128.0445529193778
 30
0.0
 10
102.2683484987385
 20
-128.0445529193778
 30
0.0
 10
102.3868597834311
 20
-127.972550423736
 30
0.0
 10
102.3868597834311
 20
-127.7949557514714
 30
0.0
 10
102.3868597834311
 20
-127.6171888244325
 30
0.0
 10
102.2683484987385
 20
-127.5451863287908
 30
0.0
 10
102.1457030994636
 20
-127.5451863287908
 30
0.0
 10
102.0103108468933
 20
-127.5451863287908
 30
0.0
 10
101.9148817019518
 20
-127.6320027350191
 30
0.0
 10
101.9148817019518
 20
-127.7949557514714
 30
0.0
  0
SPLINE
  5
7F
330
6F
100
AcDbEntity
  8
_U+30EC_U+30A4_U+30E4_U+30FC 1
370
     0
100
AcDbSpline
210
0.0
220
0.0
230
1.0
 70
    11
 71
     3
 72
    17
 73
    13
 74
     0
 42
0.0000000001
 43
0.0000000001
 12
1.0
 22
0.0
 32
0.0
 13
1.0
 23
0.0
 33
0.0
 40
0.0
 40
0.0
 40
0.0
 40
0.0
 40
1.0
 40
1.0
 40
1.0
 40
2.0
 40
2.0
 40
2.0
 40
3.0
 40
3.0
 40
3.0
 40
4.0
 40
4.0
 40
4.0
 40
4.0
 10
102.5749619969257
 20
-127.7949557514714
 30
0.0
 10
102.5749619969257
 20
-127.9387884879806
 30
0.0
 10
102.661778403154
 20
-128.0910617084286
 30
0.0
 10
102.8650390367837
 20
-128.0910617084286
 30
0.0
 10
103.0700222181561
 20
-128.0910617084286
 30
0.0
 10
103.171652534971
 20
-127.9641099397972
 30
0.0
 10
103.171652534971
 20
-127.7949557514714
 30
0.0
 10
103.171652534971
 20
-127.6087483404936
 30
0.0
 10
103.0490071356961
 20
-127.4986775397399
 30
0.0
 10
102.8712402086572
 20
-127.4986775397399
 30
0.0
 10
102.6490315498586
 20
-127.4986775397399
 30
0.0
 10
102.5749619969257
 20
-127.6616305561922
 30
0.0
 10
102.5749619969257
 20
-127.7949557514714
 30
0.0
  0
HATCH
  5
80
330
6F
100
AcDbEntity
  8
_U+30EC_U+30A4_U+30E4_U+30FC 1
 62
   179
420
  2234388
100
AcDbHatch
 10
0.0
 20
0.0
 30
0.0
210
0.0
220
0.0
230
1.0
  2
SOLID
 70
     1
 71
     0
 91
        3
 92
        1
 93
        1
 72
     4
 94
        3
 73
     0
 74
     1
 95
       29
 96
       25
 40
0.0
 40
0.0
 40
0.0
 40
0.0
 40
1.0
 40
1.0
 40
1.0
 40
2.0
 40
2.0
 40
2.0
 40
3.0
 40
3.0
 40
3.0
 40
4.0
 40
4.0
 40
4.0
 40
5.0
 40
5.0
 40
5.0
 40
6.0
 40
6.0
 40
6.0
 40
7.0
 40
7.0
 40
7.0
 40
8.0
 40
8.0
 40
8.0
 40
8.0
 10
103.3663004298876
 20
-127.7949557514714
 10
103.3663004298876
 20
-128.0614338872555
 10
103.2288411200261
 20
-128.3153374245184
 10
102.8798529473703
 20
-128.3153374245184
 10
102.6238823528163
 20
-128.3153374245184
 10
102.5284532078748
 20
-128.1735717453004
 10
102.4671305082374
 20
-128.0678073139032
 10
102.4078748658911
 20
-128.1925197704692
 10
102.2938422053293
 20
-128.2688286354675
 10
102.1329562461681
 20
-128.2688286354675
 10
101.8580376264452
 20
-128.2688286354675
 10
101.7226453738749
 20
-128.0698743711943
 10
101.7226453738749
 20
-127.7949557514714
 10
101.7226453738749
 20
-127.5114243930353
 10
101.8663058556098
 20
-127.3210828674753
 10
102.1329562461681
 20
-127.3210828674753
 10
102.2938422053293
 20
-127.3210828674753
 10
102.4078748658911
 20
-127.3992865349905
 10
102.4671305082374
 20
-127.5241712463308
 10
102.5181179214191
 20
-127.4352877828113
 10
102.613202556812
 20
-127.2766411357156
 10
102.8753743232395
 20
-127.2766411357156
 10
103.2498562024862
 20
-127.2766411357156
 10
103.3663004298876
 20
-127.5558661247951
 10
103.3663004298876
 20
-127.7949557514714
 97
        0
 97
        0
 92
        1
 93
        1
 72
     4
 94
        3
 73
     0
 74
     1
 95
       17
 96
       13
 40
0.0
 40
0.0
 40
0.0
 40
0.0
 40
1.0
 40
1.0
 40
1.0
 40
2.0
 40
2.0
 40
2.0
 40
3.0
 40
3.0
 40
3.0
 40
4.0
 40
4.0
 40
4.0
 40
4.0
 10
101.9148817019518
 20
-127.7949557514714
 10
101.9148817019518
 20
-127.9599758252149
 10
102.0103108468933
 20
-128.0445529193778
 10
102.1457030994636
 20
-128.0445529193778
 10
102.2683484987385
 20
-128.0445529193778
 10
102.3868597834311
 20
-127.972550423736
 10
102.3868597834311
 20
-127.7949557514714
 10
102.3868597834311
 20
-127.6171888244325
 10
102.2683484987385
 20
-127.5451863287908
 10
102.1457030994636
 20
-127.5451863287908
 10
102.0103108468933
 20
-127.5451863287908
 10
101.9148817019518
 20
-127.6320027350191
 10
101.9148817019518
 20
-127.7949557514714
 97
        0
 97
        0
 92
        1
 93
        1
 72
     4
 94
        3
 73
     0
 74
     1
 95
       17
 96
       13
 40
0.0
 40
0.0
 40
0.0
 40
0.0
 40
1.0
 40
1.0
 40
1.0
 40
2.0
 40
2.0
 40
2.0
 40
3.0
 40
3.0
 40
3.0
 40
4.0
 40
4.0
 40
4.0
 40
4.0
 10
102.5749619969257
 20
-127.7949557514714
 10
102.5749619969257
 20
-127.9387884879806
 10
102.661778403154
 20
-128.0910617084286
 10
102.8650390367837
 20
-128.0910617084286
 10
103.0700222181561
 20
-128.0910617084286
 10
103.171652534971
 20
-127.9641099397972
 10
103.171652534971
 20
-127.7949557514714
 10
103.171652534971
 20
-127.6087483404936
 10
103.0490071356961
 20
-127.4986775397399
 10
102.8712402086572
 20
-127.4986775397399
 10
102.6490315498586
 20
-127.4986775397399
 10
102.5749619969257
 20
-127.6616305561922
 10
102.5749619969257
 20
-127.7949557514714
 97
        0
 97
        0
 75
     2
 76
     1
 98
        0
  0
ENDBLK
  5
72
330
6F
100
AcDbEntity
  8
0
100
AcDbBlockEnd
  0
BLOCK
  5
92
330
90
100
AcDbEntity
  8
0
100
AcDbBlockBegin
  2
block 3
 70
     0
 10
0.0
 20
0.0
 30
0.0
  3
block 3
  1

  0
SPLINE
  5
94
330
90
100
AcDbEntity
  8
_U+30EC_U+30A4_U+30E4_U+30FC 1
370
     0
100
AcDbSpline
210
0.0
220
0.0
230
1.0
 70
    11
 71
     3
 72
    26
 73
    22
 74
     0
 42
0.0000000001
 43
0.0000000001
 12
1.0
 22
0.0
 32
0.0
 13
1.0
 23
0.0
 33
0.0
 40
0.0
 40
0.0
 40
0.0
 40
0.0
 40
1.0
 40
1.0
 40
1.0
 40
2.0
 40
2.0
 40
2.0
 40
3.0
 40
3.0
 40
3.0
 40
4.0
 40
4.0
 40
4.0
 40
5.0
 40
5.0
 40
5.0
 40
6.0
 40
6.0
 40
6.0
 40
7.0
 40
7.0
 40
7.0
 40
7.0
 10
80.01595999518699
 20
-127.3066134664372
 30
0.0
 10
80.01595999518699
 20
-127.3066134664372
 30
0.0
 10
78.91163463739015
 20
-127.3066134664372
 30
0.0
 10
78.91163463739015
 20
-127.3066134664372
 30
0.0
 10
78.91163463739015
 20
-127.3066134664372
 30
0.0
 10
78.91163463739015
 20
-127.6366536139242
 30
0.0
 10
78.91163463739015
 20
-127.6366536139242
 30
0.0
 10
78.91163463739015
 20
-127.6366536139242
 30
0.0
 10
78.76366778629867
 20
-127.6366536139242
 30
0.0
 10
78.76366778629867
 20
-127.6366536139242
 30
0.0
 10
78.7488538757121
 20
-127.3043741543718
 30
0.0
 10
78.58590085925978
 20
-127.257865365321
 30
0.0
 10
78.47169594392375
 20
-127.2282375441478
 30
0.0
 10
78.47169594392375
 20
-127.2282375441478
 30
0.0
 10
78.47169594392375
 20
-127.0823377503475
 30
0.0
 10
78.47169594392375
 20
-127.0823377503475
 30
0.0
 10
78.47169594392375
 20
-127.0823377503475
 30
0.0
 10
80.01595999518699
 20
-127.0823377503475
 30
0.0
 10
80.01595999518699
 20
-127.0823377503475
 30
0.0
 10
80.01595999518699
 20
-127.0823377503475
 30
0.0
 10
80.01595999518699
 20
-127.3066134664372
 30
0.0
 10
80.01595999518699
 20
-127.3066134664372
 30
0.0
  0
HATCH
  5
95
330
90
100
AcDbEntity
  8
_U+30EC_U+30A4_U+30E4_U+30FC 1
 62
   179
420
  2234388
100
AcDbHatch
 10
0.0
 20
0.0
 30
0.0
210
0.0
220
0.0
230
1.0
  2
SOLID
 70
     1
 71
     0
 91
        1
 92
        1
 93
        1
 72
     4
 94
        3
 73
     0
 74
     1
 95
       26
 96
       22
 40
0.0
 40
0.0
 40
0.0
 40
0.0
 40
1.0
 40
1.0
 40
1.0
 40
2.0
 40
2.0
 40
2.0
 40
3.0
 40
3.0
 40
3.0
 40
4.0
 40
4.0
 40
4.0
 40
5.0
 40
5.0
 40
5.0
 40
6.0
 40
6.0
 40
6.0
 40
7.0
 40
7.0
 40
7.0
 40
7.0
 10
80.01595999518699
 20
-127.3066134664372
 10
80.01595999518699
 20
-127.3066134664372
 10
78.91163463739015
 20
-127.3066134664372
 10
78.91163463739015
 20
-127.3066134664372
 10
78.91163463739015
 20
-127.3066134664372
 10
78.91163463739015
 20
-127.6366536139242
 10
78.91163463739015
 20
-127.6366536139242
 10
78.91163463739015
 20
-127.6366536139242
 10
78.76366778629867
 20
-127.6366536139242
 10
78.76366778629867
 20
-127.6366536139242
 10
78.7488538757121
 20
-127.3043741543718
 10
78.58590085925978
 20
-127.257865365321
 10
78.47169594392375
 20
-127.2282375441478
 10
78.47169594392375
 20
-127.2282375441478
 10
78.47169594392375
 20
-127.0823377503475
 10
78.47169594392375
 20
-127.0823377503475
 10
78.47169594392375
 20
-127.0823377503475
 10
80.01595999518699
 20
-127.0823377503475
 10
80.01595999518699
 20
-127.0823377503475
 10
80.01595999518699
 20
-127.0823377503475
 10
80.01595999518699
 20
-127.3066134664372
 10
80.01595999518699
 20
-127.3066134664372
 97
        0
 97
        0
 75
     2
 76
     1
 98
        0
  0
SPLINE
  5
96
330
90
100
AcDbEntity
  8
_U+30EC_U+30A4_U+30E4_U+30FC 1
370
     0
100
AcDbSpline
210
0.0
220
0.0
230
1.0
 70
    11
 71
     3
 72
    53
 73
    49
 74
     0
 42
0.0000000001
 43
0.0000000001
 12
1.0
 22
0.0
 32
0.0
 13
1.0
 23
0.0
 33
0.0
 40
0.0
 40
0.0
 40
0.0
 40
0.0
 40
1.0
 40
1.0
 40
1.0
 40
2.0
 40
2.0
 40
2.0
 40
3.0
 40
3.0
 40
3.0
 40
4.0
 40
4.0
 40
4.0
 40
5.0
 40
5.0
 40
5.0
 40
6.0
 40
6.0
 40
6.0
 40
7.0
 40
7.0
 40
7.0
 40
8.0
 40
8.0
 40
8.0
 40
9.0
 40
9.0
 40
9.0
 40
10.0
 40
10.0
 40
10.0
 40
11.0
 40
11.0
 40
11.0
 40
12.0
 40
12.0
 40
12.0
 40
13.0
 40
13.0
 40
13.0
 40
14.0
 40
14.0
 40
14.0
 40
15.0
 40
15.0
 40
15.0
 40
16.0
 40
16.0
 40
16.0
 40
16.0
 10
80.06677515359442
 20
-126.1001410275027
 30
0.0
 10
80.06677515359442
 20
-126.1783446950179
 30
0.0
 10
80.0498941857167
 20
-126.2799750118328
 30
0.0
 10
79.98633217401384
 20
-126.3814330738734
 30
0.0
 10
79.87643362803436
 20
-126.5548936315557
 30
0.0
 10
79.74517549004635
 20
-126.57608096879
 30
0.0
 10
79.63734400135803
 20
-126.5950289939589
 30
0.0
 10
79.63734400135803
 20
-126.5950289939589
 30
0.0
 10
79.63734400135803
 20
-126.3729925899345
 30
0.0
 10
79.63734400135803
 20
-126.3729925899345
 30
0.0
 10
79.83612601085694
 20
-126.3180433169448
 30
0.0
 10
79.8657538320301
 20
-126.1910915483133
 30
0.0
 10
79.8657538320301
 20
-126.0979017154373
 30
0.0
 10
79.8657538320301
 20
-125.9583753482847
 30
0.0
 10
79.76636282728063
 20
-125.8061021278367
 30
0.0
 10
79.53364662725201
 20
-125.8061021278367
 30
0.0
 10
79.27767603269794
 20
-125.8061021278367
 30
0.0
 10
79.20791284912164
 20
-125.9857638573925
 30
0.0
 10
79.20791284912164
 20
-126.1063421993762
 30
0.0
 10
79.20791284912164
 20
-126.1382093326148
 30
0.0
 10
79.20791284912164
 20
-126.2799750118328
 30
0.0
 10
79.33693167504424
 20
-126.368686220578
 30
0.0
 10
79.33693167504424
 20
-126.368686220578
 30
0.0
 10
79.3178113951011
 20
-126.5443860903257
 30
0.0
 10
79.3178113951011
 20
-126.5443860903257
 30
0.0
 10
79.3178113951011
 20
-126.5443860903257
 30
0.0
 10
78.47169594392375
 20
-126.423807748342
 30
0.0
 10
78.47169594392375
 20
-126.423807748342
 30
0.0
 10
78.47169594392375
 20
-126.423807748342
 30
0.0
 10
78.47169594392375
 20
-125.6452161686755
 30
0.0
 10
78.47169594392375
 20
-125.6452161686755
 30
0.0
 10
78.47169594392375
 20
-125.6452161686755
 30
0.0
 10
78.66634383884036
 20
-125.6452161686755
 30
0.0
 10
78.66634383884036
 20
-125.6452161686755
 30
0.0
 10
78.66634383884036
 20
-125.6452161686755
 30
0.0
 10
78.66634383884036
 20
-126.2608547318897
 30
0.0
 10
78.66634383884036
 20
-126.2608547318897
 30
0.0
 10
78.66634383884036
 20
-126.2608547318897
 30
0.0
 10
79.08940156442904
 20
-126.3264838008837
 30
0.0
 10
79.08940156442904
 20
-126.3264838008837
 30
0.0
 10
79.05563962867359
 20
-126.2651611012462
 30
0.0
 10
79.01533201149617
 20
-126.1826510643745
 30
0.0
 10
79.01533201149617
 20
-126.0641397796819
 30
0.0
 10
79.01533201149617
 20
-125.810236242419
 30
0.0
 10
79.20153942247393
 20
-125.573385927808
 30
0.0
 10
79.51469860208313
 20
-125.573385927808
 30
0.0
 10
79.83199189627464
 20
-125.573385927808
 30
0.0
 10
80.06677515359442
 20
-125.7974893891236
 30
0.0
 10
80.06677515359442
 20
-126.1001410275027
 30
0.0
  0
HATCH
  5
97
330
90
100
AcDbEntity
  8
_U+30EC_U+30A4_U+30E4_U+30FC 1
 62
   179
420
  2234388
100
AcDbHatch
 10
0.0
 20
0.0
 30
0.0
210
0.0
220
0.0
230
1.0
  2
SOLID
 70
     1
 71
     0
 91
        1
 92
        1
 93
        1
 72
     4
 94
        3
 73
     0
 74
     1
 95
       53
 96
       49
 40
0.0
 40
0.0
 40
0.0
 40
0.0
 40
1.0
 40
1.0
 40
1.0
 40
2.0
 40
2.0
 40
2.0
 40
3.0
 40
3.0
 40
3.0
 40
4.0
 40
4.0
 40
4.0
 40
5.0
 40
5.0
 40
5.0
 40
6.0
 40
6.0
 40
6.0
 40
7.0
 40
7.0
 40
7.0
 40
8.0
 40
8.0
 40
8.0
 40
9.0
 40
9.0
 40
9.0
 40
10.0
 40
10.0
 40
10.0
 40
11.0
 40
11.0
 40
11.0
 40
12.0
 40
12.0
 40
12.0
 40
13.0
 40
13.0
 40
13.0
 40
14.0
 40
14.0
 40
14.0
 40
15.0
 40
15.0
 40
15.0
 40
16.0
 40
16.0
 40
16.0
 40
16.0
 10
80.06677515359442
 20
-126.1001410275027
 10
80.06677515359442
 20
-126.1783446950179
 10
80.0498941857167
 20
-126.2799750118328
 10
79.98633217401384
 20
-126.3814330738734
 10
79.87643362803436
 20
-126.5548936315557
 10
79.74517549004635
 20
-126.57608096879
 10
79.63734400135803
 20
-126.5950289939589
 10
79.63734400135803
 20
-126.5950289939589
 10
79.63734400135803
 20
-126.3729925899345
 10
79.63734400135803
 20
-126.3729925899345
 10
79.83612601085694
 20
-126.3180433169448
 10
79.8657538320301
 20
-126.1910915483133
 10
79.8657538320301
 20
-126.0979017154373
 10
79.8657538320301
 20
-125.9583753482847
 10
79.76636282728063
 20
-125.8061021278367
 10
79.53364662725201
 20
-125.8061021278367
 10
79.27767603269794
 20
-125.8061021278367
 10
79.20791284912164
 20
-125.9857638573925
 10
79.20791284912164
 20
-126.1063421993762
 10
79.20791284912164
 20
-126.1382093326148
 10
79.20791284912164
 20
-126.2799750118328
 10
79.33693167504424
 20
-126.368686220578
 10
79.33693167504424
 20
-126.368686220578
 10
79.3178113951011
 20
-126.5443860903257
 10
79.3178113951011
 20
-126.5443860903257
 10
79.3178113951011
 20
-126.5443860903257
 10
78.47169594392375
 20
-126.423807748342
 10
78.47169594392375
 20
-126.423807748342
 10
78.47169594392375
 20
-126.423807748342
 10
78.47169594392375
 20
-125.6452161686755
 10
78.47169594392375
 20
-125.6452161686755
 10
78.47169594392375
 20
-125.6452161686755
 10
78.66634383884036
 20
-125.6452161686755
 10
78.66634383884036
 20
-125.6452161686755
 10
78.66634383884036
 20
-125.6452161686755
 10
78.66634383884036
 20
-126.2608547318897
 10
78.66634383884036
 20
-126.2608547318897
 10
78.66634383884036
 20
-126.2608547318897
 10
79.08940156442904
 20
-126.3264838008837
 10
79.08940156442904
 20
-126.3264838008837
 10
79.05563962867359
 20
-126.2651611012462
 10
79.01533201149617
 20
-126.1826510643745
 10
79.01533201149617
 20
-126.0641397796819
 10
79.01533201149617
 20
-125.810236242419
 10
79.20153942247393
 20
-125.573385927808
 10
79.51469860208313
 20
-125.573385927808
 10
79.83199189627464
 20
-125.573385927808
 10
80.06677515359442
 20
-125.7974893891236
 10
80.06677515359442
 20
-126.1001410275027
 97
        0
 97
        0
 75
     2
 76
     1
 98
        0
  0
POLYLINE
  5
98
330
90
100
AcDbEntity
  8
_U+30EC_U+30A4_U+30E4_U+30FC 1
370
     0
100
AcDb2dPolyline
 66
     1
 10
0.0
 20
0.0
 30
0.0
  0
VERTEX
  5
99
330
98
100
AcDbEntity
  8
_U+30EC_U+30A4_U+30E4_U+30FC 1
370
     0
100
AcDbVertex
100
AcDb2dVertex
 10
80.01595999518699
 20
-125.3441148232647
 30
0.0
  0
VERTEX
  5
9A
330
98
100
AcDbEntity
  8
_U+30EC_U+30A4_U+30E4_U+30FC 1
370
     0
100
AcDbVertex
100
AcDb2dVertex
 10
79.76429576998949
 20
-125.3441148232647
 30
0.0
  0
VERTEX
  5
9B
330
98
100
AcDbEntity
  8
_U+30EC_U+30A4_U+30E4_U+30FC 1
370
     0
100
AcDbVertex
100
AcDb2dVertex
 10
79.76429576998949
 20
-125.0924505980672
 30
0.0
  0
VERTEX
  5
9C
330
98
100
AcDbEntity
  8
_U+30EC_U+30A4_U+30E4_U+30FC 1
370
     0
100
AcDbVertex
100
AcDb2dVertex
 10
80.01595999518699
 20
-125.0924505980672
 30
0.0
  0
VERTEX
  5
9D
330
98
100
AcDbEntity
  8
_U+30EC_U+30A4_U+30E4_U+30FC 1
370
     0
100
AcDbVertex
100
AcDb2dVertex
 10
80.01595999518699
 20
-125.3441148232647
 30
0.0
  0
SEQEND
  5
9E
330
98
100
AcDbEntity
  8
_U+30EC_U+30A4_U+30E4_U+30FC 1
370
     0
  0
HATCH
  5
9F
330
90
100
AcDbEntity
  8
_U+30EC_U+30A4_U+30E4_U+30FC 1
 62
   179
420
  2234388
100
AcDbHatch
 10
0.0
 20
0.0
 30
0.0
210
0.0
220
0.0
230
1.0
  2
SOLID
 70
     1
 71
     0
 91
        1
 92
        1
 93
        4
 72
     1
 10
80.01595999518699
 20
-125.3441148232647
 11
79.76429576998949
 21
-125.3441148232647
 72
     1
 10
79.76429576998949
 20
-125.3441148232647
 11
79.76429576998949
 21
-125.0924505980672
 72
     1
 10
79.76429576998949
 20
-125.0924505980672
 11
80.01595999518699
 21
-125.0924505980672
 72
     1
 10
80.01595999518699
 20
-125.0924505980672
 11
80.01595999518699
 21
-125.3441148232647
 97
        0
 75
     2
 76
     1
 98
        0
  0
SPLINE
  5
A0
330
90
100
AcDbEntity
  8
_U+30EC_U+30A4_U+30E4_U+30FC 1
370
     0
100
AcDbSpline
210
0.0
220
0.0
230
1.0
 70
    11
 71
     3
 72
    62
 73
    58
 74
     0
 42
0.0000000001
 43
0.0000000001
 12
1.0
 22
0.0
 32
0.0
 13
1.0
 23
0.0
 33
0.0
 40
0.0
 40
0.0
 40
0.0
 40
0.0
 40
1.0
 40
1.0
 40
1.0
 40
2.0
 40
2.0
 40
2.0
 40
3.0
 40
3.0
 40
3.0
 40
4.0
 40
4.0
 40
4.0
 40
5.0
 40
5.0
 40
5.0
 40
6.0
 40
6.0
 40
6.0
 40
7.0
 40
7.0
 40
7.0
 40
8.0
 40
8.0
 40
8.0
 40
9.0
 40
9.0
 40
9.0
 40
10.0
 40
10.0
 40
10.0
 40
11.0
 40
11.0
 40
11.0
 40
12.0
 40
12.0
 40
12.0
 40
13.0
 40
13.0
 40
13.0
 40
14.0
 40
14.0
 40
14.0
 40
15.0
 40
15.0
 40
15.0
 40
16.0
 40
16.0
 40
16.0
 40
17.0
 40
17.0
 40
17.0
 40
18.0
 40
18.0
 40
18.0
 40
19.0
 40
19.0
 40
19.0
 40
19.0
 10
80.06677515359442
 20
-124.3645019220339
 30
0.0
 10
80.06677515359442
 20
-124.4595865574268
 30
0.0
 10
80.04558781636014
 20
-124.6774888468688
 30
0.0
 10
79.85938040538238
 20
-124.8023735582091
 30
0.0
 10
79.74724254733749
 20
-124.876443111142
 30
0.0
 10
79.64785154258804
 20
-124.8805772257243
 30
0.0
 10
79.56327444842516
 20
-124.8848835950809
 30
0.0
 10
79.56327444842516
 20
-124.8848835950809
 30
0.0
 10
79.56327444842516
 20
-124.6649142483477
 30
0.0
 10
79.56327444842516
 20
-124.6649142483477
 30
0.0
 10
79.63734400135803
 20
-124.6626749362823
 30
0.0
 10
79.8721272586778
 20
-124.6521673950522
 30
0.0
 10
79.8721272586778
 20
-124.3686360366162
 30
0.0
 10
79.8721272586778
 20
-124.2311767267547
 30
0.0
 10
79.8023640751015
 20
-124.0789035063067
 30
0.0
 10
79.57378198965517
 20
-124.0789035063067
 30
0.0
 10
79.45751001702799
 20
-124.0789035063067
 30
0.0
 10
79.4087619159117
 20
-124.1169718114187
 30
0.0
 10
79.3770670374474
 20
-124.148666689883
 30
0.0
 10
79.30299748451453
 20
-124.2227362428159
 30
0.0
 10
79.29042288599337
 20
-124.339008215443
 30
0.0
 10
79.29042288599337
 20
-124.394129743207
 30
0.0
 10
79.29042288599337
 20
-124.4130777683759
 30
0.0
 10
79.29248994328452
 20
-124.4490790161968
 30
0.0
 10
79.29679631264108
 20
-124.4766397800788
 30
0.0
 10
79.29679631264108
 20
-124.4766397800788
 30
0.0
 10
79.10214841772446
 20
-124.4766397800788
 30
0.0
 10
79.10214841772446
 20
-124.4766397800788
 30
0.0
 10
79.10852184437218
 20
-124.4385714749667
 30
0.0
 10
79.11058890166333
 20
-124.3961968004982
 30
0.0
 10
79.11058890166333
 20
-124.3898233738505
 30
0.0
 10
79.11058890166333
 20
-124.3241943048565
 30
0.0
 10
79.08940156442904
 20
-124.1254122953575
 30
0.0
 10
78.85237899504385
 20
-124.1254122953575
 30
0.0
 10
78.67478432277922
 20
-124.1254122953575
 30
0.0
 10
78.61983504978949
 20
-124.2564981785713
 30
0.0
 10
78.61983504978949
 20
-124.366568979325
 30
0.0
 10
78.61983504978949
 20
-124.630980057818
 30
0.0
 10
78.85237899504385
 20
-124.6394205417568
 30
0.0
 10
78.92438149068558
 20
-124.6437269111134
 30
0.0
 10
78.92438149068558
 20
-124.6437269111134
 30
0.0
 10
78.92438149068558
 20
-124.8468152899689
 30
0.0
 10
78.92438149068558
 20
-124.8468152899689
 30
0.0
 10
78.79949677934526
 20
-124.83837480603
 30
0.0
 10
78.42294784280746
 20
-124.810814042148
 30
0.0
 10
78.42294784280746
 20
-124.3538221260296
 30
0.0
 10
78.42294784280746
 20
-124.1295464099398
 30
0.0
 10
78.54989961143892
 20
-123.8883897259724
 30
0.0
 10
78.84617782317041
 20
-123.8883897259724
 30
0.0
 10
79.0322129793739
 20
-123.8883897259724
 30
0.0
 10
79.11472301624563
 20
-123.9836466161395
 30
0.0
 10
79.17621797065733
 20
-124.083037620889
 30
0.0
 10
79.20360647976507
 20
-124.0217149212515
 30
0.0
 10
79.28404945934565
 20
-123.8398138796303
 30
0.0
 10
79.561207391134
 20
-123.8398138796303
 30
0.0
 10
79.8996880225598
 20
-123.8398138796303
 30
0.0
 10
80.06677515359442
 20
-124.0873439902455
 30
0.0
 10
80.06677515359442
 20
-124.3645019220339
 30
0.0
  0
HATCH
  5
A1
330
90
100
AcDbEntity
  8
_U+30EC_U+30A4_U+30E4_U+30FC 1
 62
   179
420
  2234388
100
AcDbHatch
 10
0.0
 20
0.0
 30
0.0
210
0.0
220
0.0
230
1.0
  2
SOLID
 70
     1
 71
     0
 91
        1
 92
        1
 93
        1
 72
     4
 94
        3
 73
     0
 74
     1
 95
       62
 96
       58
 40
0.0
 40
0.0
 40
0.0
 40
0.0
 40
1.0
 40
1.0
 40
1.0
 40
2.0
 40
2.0
 40
2.0
 40
3.0
 40
3.0
 40
3.0
 40
4.0
 40
4.0
 40
4.0
 40
5.0
 40
5.0
 40
5.0
 40
6.0
 40
6.0
 40
6.0
 40
7.0
 40
7.0
 40
7.0
 40
8.0
 40
8.0
 40
8.0
 40
9.0
 40
9.0
 40
9.0
 40
10.0
 40
10.0
 40
10.0
 40
11.0
 40
11.0
 40
11.0
 40
12.0
 40
12.0
 40
12.0
 40
13.0
 40
13.0
 40
13.0
 40
14.0
 40
14.0
 40
14.0
 40
15.0
 40
15.0
 40
15.0
 40
16.0
 40
16.0
 40
16.0
 40
17.0
 40
17.0
 40
17.0
 40
18.0
 40
18.0
 40
18.0
 40
19.0
 40
19.0
 40
19.0
 40
19.0
 10
80.06677515359442
 20
-124.3645019220339
 10
80.06677515359442
 20
-124.4595865574268
 10
80.04558781636014
 20
-124.6774888468688
 10
79.85938040538238
 20
-124.8023735582091
 10
79.74724254733749
 20
-124.876443111142
 10
79.64785154258804
 20
-124.8805772257243
 10
79.56327444842516
 20
-124.8848835950809
 10
79.56327444842516
 20
-124.8848835950809
 10
79.56327444842516
 20
-124.6649142483477
 10
79.56327444842516
 20
-124.6649142483477
 10
79.63734400135803
 20
-124.6626749362823
 10
79.8721272586778
 20
-124.6521673950522
 10
79.8721272586778
 20
-124.3686360366162
 10
79.8721272586778
 20
-124.2311767267547
 10
79.8023640751015
 20
-124.0789035063067
 10
79.57378198965517
 20
-124.0789035063067
 10
79.45751001702799
 20
-124.0789035063067
 10
79.4087619159117
 20
-124.1169718114187
 10
79.3770670374474
 20
-124.148666689883
 10
79.30299748451453
 20
-124.2227362428159
 10
79.29042288599337
 20
-124.339008215443
 10
79.29042288599337
 20
-124.394129743207
 10
79.29042288599337
 20
-124.4130777683759
 10
79.29248994328452
 20
-124.4490790161968
 10
79.29679631264108
 20
-124.4766397800788
 10
79.29679631264108
 20
-124.4766397800788
 10
79.10214841772446
 20
-124.4766397800788
 10
79.10214841772446
 20
-124.4766397800788
 10
79.10852184437218
 20
-124.4385714749667
 10
79.11058890166333
 20
-124.3961968004982
 10
79.11058890166333
 20
-124.3898233738505
 10
79.11058890166333
 20
-124.3241943048565
 10
79.08940156442904
 20
-124.1254122953575
 10
78.85237899504385
 20
-124.1254122953575
 10
78.67478432277922
 20
-124.1254122953575
 10
78.61983504978949
 20
-124.2564981785713
 10
78.61983504978949
 20
-124.366568979325
 10
78.61983504978949
 20
-124.630980057818
 10
78.85237899504385
 20
-124.6394205417568
 10
78.92438149068558
 20
-124.6437269111134
 10
78.92438149068558
 20
-124.6437269111134
 10
78.92438149068558
 20
-124.8468152899689
 10
78.92438149068558
 20
-124.8468152899689
 10
78.79949677934526
 20
-124.83837480603
 10
78.42294784280746
 20
-124.810814042148
 10
78.42294784280746
 20
-124.3538221260296
 10
78.42294784280746
 20
-124.1295464099398
 10
78.54989961143892
 20
-123.8883897259724
 10
78.84617782317041
 20
-123.8883897259724
 10
79.0322129793739
 20
-123.8883897259724
 10
79.11472301624563
 20
-123.9836466161395
 10
79.17621797065733
 20
-124.083037620889
 10
79.20360647976507
 20
-124.0217149212515
 10
79.28404945934565
 20
-123.8398138796303
 10
79.561207391134
 20
-123.8398138796303
 10
79.8996880225598
 20
-123.8398138796303
 10
80.06677515359442
 20
-124.0873439902455
 10
80.06677515359442
 20
-124.3645019220339
 97
        0
 97
        0
 75
     2
 76
     1
 98
        0
  0
ENDBLK
  5
93
330
90
100
AcDbEntity
  8
0
100
AcDbBlockEnd
  0
BLOCK
  5
B3
330
B1
100
AcDbEntity
  8
0
100
AcDbBlockBegin
  2
block 4
 70
     0
 10
0.0
 20
0.0
 30
0.0
  3
block 4
  1

  0
SPLINE
  5
B5
330
B1
100
AcDbEntity
  8
_U+30EC_U+30A4_U+30E4_U+30FC 1
370
     0
100
AcDbSpline
210
0.0
220
0.0
230
1.0
 70
    11
 71
     3
 72
    26
 73
    22
 74
     0
 42
0.0000000001
 43
0.0000000001
 12
1.0
 22
0.0
 32
0.0
 13
1.0
 23
0.0
 33
0.0
 40
0.0
 40
0.0
 40
0.0
 40
0.0
 40
1.0
 40
1.0
 40
1.0
 40
2.0
 40
2.0
 40
2.0
 40
3.0
 40
3.0
 40
3.0
 40
4.0
 40
4.0
 40
4.0
 40
5.0
 40
5.0
 40
5.0
 40
6.0
 40
6.0
 40
6.0
 40
7.0
 40
7.0
 40
7.0
 40
7.0
 10
90.54382728856197
 20
-136.4478298269992
 30
0.0
 10
90.54382728856197
 20
-136.4478298269992
 30
0.0
 10
90.54382728856197
 20
-135.3433322144281
 30
0.0
 10
90.54382728856197
 20
-135.3433322144281
 30
0.0
 10
90.54382728856197
 20
-135.3433322144281
 30
0.0
 10
90.21378714107503
 20
-135.3433322144281
 30
0.0
 10
90.21378714107503
 20
-135.3433322144281
 30
0.0
 10
90.21378714107503
 20
-135.3433322144281
 30
0.0
 10
90.21378714107503
 20
-135.1951931085623
 30
0.0
 10
90.21378714107503
 20
-135.1951931085623
 30
0.0
 10
90.54606660062737
 20
-135.1803791979758
 30
0.0
 10
90.59257538967825
 20
-135.0177706910719
 30
0.0
 10
90.6222032108514
 20
-134.9033935209617
 30
0.0
 10
90.6222032108514
 20
-134.9033935209617
 30
0.0
 10
90.76810300465173
 20
-134.9033935209617
 30
0.0
 10
90.76810300465173
 20
-134.9033935209617
 30
0.0
 10
90.76810300465173
 20
-134.9033935209617
 30
0.0
 10
90.76810300465173
 20
-136.4478298269992
 30
0.0
 10
90.76810300465173
 20
-136.4478298269992
 30
0.0
 10
90.76810300465173
 20
-136.4478298269992
 30
0.0
 10
90.54382728856197
 20
-136.4478298269992
 30
0.0
 10
90.54382728856197
 20
-136.4478298269992
 30
0.0
  0
HATCH
  5
B6
330
B1
100
AcDbEntity
  8
_U+30EC_U+30A4_U+30E4_U+30FC 1
 62
   179
420
  2234388
100
AcDbHatch
 10
0.0
 20
0.0
 30
0.0
210
0.0
220
0.0
230
1.0
  2
SOLID
 70
     1
 71
     0
 91
        1
 92
        1
 93
        1
 72
     4
 94
        3
 73
     0
 74
     1
 95
       26
 96
       22
 40
0.0
 40
0.0
 40
0.0
 40
0.0
 40
1.0
 40
1.0
 40
1.0
 40
2.0
 40
2.0
 40
2.0
 40
3.0
 40
3.0
 40
3.0
 40
4.0
 40
4.0
 40
4.0
 40
5.0
 40
5.0
 40
5.0
 40
6.0
 40
6.0
 40
6.0
 40
7.0
 40
7.0
 40
7.0
 40
7.0
 10
90.54382728856197
 20
-136.4478298269992
 10
90.54382728856197
 20
-136.4478298269992
 10
90.54382728856197
 20
-135.3433322144281
 10
90.54382728856197
 20
-135.3433322144281
 10
90.54382728856197
 20
-135.3433322144281
 10
90.21378714107503
 20
-135.3433322144281
 10
90.21378714107503
 20
-135.3433322144281
 10
90.21378714107503
 20
-135.3433322144281
 10
90.21378714107503
 20
-135.1951931085623
 10
90.21378714107503
 20
-135.1951931085623
 10
90.54606660062737
 20
-135.1803791979758
 10
90.59257538967825
 20
-135.0177706910719
 10
90.6222032108514
 20
-134.9033935209617
 10
90.6222032108514
 20
-134.9033935209617
 10
90.76810300465173
 20
-134.9033935209617
 10
90.76810300465173
 20
-134.9033935209617
 10
90.76810300465173
 20
-134.9033935209617
 10
90.76810300465173
 20
-136.4478298269992
 10
90.76810300465173
 20
-136.4478298269992
 10
90.76810300465173
 20
-136.4478298269992
 10
90.54382728856197
 20
-136.4478298269992
 10
90.54382728856197
 20
-136.4478298269992
 97
        0
 97
        0
 75
     2
 76
     1
 98
        0
  0
SPLINE
  5
B7
330
B1
100
AcDbEntity
  8
_U+30EC_U+30A4_U+30E4_U+30FC 1
370
     0
100
AcDbSpline
210
0.0
220
0.0
230
1.0
 70
    11
 71
     3
 72
    53
 73
    49
 74
     0
 42
0.0000000001
 43
0.0000000001
 12
1.0
 22
0.0
 32
0.0
 13
1.0
 23
0.0
 33
0.0
 40
0.0
 40
0.0
 40
0.0
 40
0.0
 40
1.0
 40
1.0
 40
1.0
 40
2.0
 40
2.0
 40
2.0
 40
3.0
 40
3.0
 40
3.0
 40
4.0
 40
4.0
 40
4.0
 40
5.0
 40
5.0
 40
5.0
 40
6.0
 40
6.0
 40
6.0
 40
7.0
 40
7.0
 40
7.0
 40
8.0
 40
8.0
 40
8.0
 40
9.0
 40
9.0
 40
9.0
 40
10.0
 40
10.0
 40
10.0
 40
11.0
 40
11.0
 40
11.0
 40
12.0
 40
12.0
 40
12.0
 40
13.0
 40
13.0
 40
13.0
 40
14.0
 40
14.0
 40
14.0
 40
15.0
 40
15.0
 40
15.0
 40
16.0
 40
16.0
 40
16.0
 40
16.0
 10
91.75047198227072
 20
-136.4984727306323
 30
0.0
 10
91.67192380520703
 20
-136.4984727306323
 30
0.0
 10
91.57063799794068
 20
-136.4815917627546
 30
0.0
 10
91.4690076811258
 20
-136.418202005826
 30
0.0
 10
91.29554712344348
 20
-136.307958950298
 30
0.0
 10
91.27435978620919
 20
-136.1770453218585
 30
0.0
 10
91.25541176104032
 20
-136.0688693236217
 30
0.0
 10
91.25541176104032
 20
-136.0688693236217
 30
0.0
 10
91.47762041983893
 20
-136.0688693236217
 30
0.0
 10
91.47762041983893
 20
-136.0688693236217
 30
0.0
 10
91.5323974380544
 20
-136.2679958426691
 30
0.0
 10
91.65952146146013
 20
-136.2976236638423
 30
0.0
 10
91.75253903956187
 20
-136.2976236638423
 30
0.0
 10
91.8920654067145
 20
-136.2976236638423
 30
0.0
 10
92.04433862716253
 20
-136.1980604043185
 30
0.0
 10
92.04433862716253
 20
-135.9655164590642
 30
0.0
 10
92.04433862716253
 20
-135.7095458645101
 30
0.0
 10
91.86450464283249
 20
-135.6396104261595
 30
0.0
 10
91.74392630084874
 20
-135.6396104261595
 30
0.0
 10
91.71223142238445
 20
-135.6396104261595
 30
0.0
 10
91.57063799794068
 20
-135.6396104261595
 30
0.0
 10
91.48175453442123
 20
-135.7684569973079
 30
0.0
 10
91.48175453442123
 20
-135.7684569973079
 30
0.0
 10
91.3060546646735
 20
-135.749508972139
 30
0.0
 10
91.3060546646735
 20
-135.749508972139
 30
0.0
 10
91.3060546646735
 20
-135.749508972139
 30
0.0
 10
91.42663300665724
 20
-134.9033935209617
 30
0.0
 10
91.42663300665724
 20
-134.9033935209617
 30
0.0
 10
91.42663300665724
 20
-134.9033935209617
 30
0.0
 10
92.2052245863237
 20
-134.9033935209617
 30
0.0
 10
92.2052245863237
 20
-134.9033935209617
 30
0.0
 10
92.2052245863237
 20
-134.9033935209617
 30
0.0
 10
92.2052245863237
 20
-135.0980414158783
 30
0.0
 10
92.2052245863237
 20
-135.0980414158783
 30
0.0
 10
92.2052245863237
 20
-135.0980414158783
 30
0.0
 10
91.58958602310955
 20
-135.0980414158783
 30
0.0
 10
91.58958602310955
 20
-135.0980414158783
 30
0.0
 10
91.58958602310955
 20
-135.0980414158783
 30
0.0
 10
91.5241292088898
 20
-135.5210991414669
 30
0.0
 10
91.5241292088898
 20
-135.5210991414669
 30
0.0
 10
91.58545190852725
 20
-135.4873372057115
 30
0.0
 10
91.66778969062473
 20
-135.4470295885341
 30
0.0
 10
91.78630097531732
 20
-135.4470295885341
 30
0.0
 10
92.04020451258023
 20
-135.4470295885341
 30
0.0
 10
92.27722708196542
 20
-135.6330647447376
 30
0.0
 10
92.27722708196542
 20
-135.9462239243468
 30
0.0
 10
92.27722708196542
 20
-136.2635172185383
 30
0.0
 10
92.05295136587566
 20
-136.4984727306323
 30
0.0
 10
91.75047198227072
 20
-136.4984727306323
 30
0.0
  0
HATCH
  5
B8
330
B1
100
AcDbEntity
  8
_U+30EC_U+30A4_U+30E4_U+30FC 1
 62
   179
420
  2234388
100
AcDbHatch
 10
0.0
 20
0.0
 30
0.0
210
0.0
220
0.0
230
1.0
  2
SOLID
 70
     1
 71
     0
 91
        1
 92
        1
 93
        1
 72
     4
 94
        3
 73
     0
 74
     1
 95
       53
 96
       49
 40
0.0
 40
0.0
 40
0.0
 40
0.0
 40
1.0
 40
1.0
 40
1.0
 40
2.0
 40
2.0
 40
2.0
 40
3.0
 40
3.0
 40
3.0
 40
4.0
 40
4.0
 40
4.0
 40
5.0
 40
5.0
 40
5.0
 40
6.0
 40
6.0
 40
6.0
 40
7.0
 40
7.0
 40
7.0
 40
8.0
 40
8.0
 40
8.0
 40
9.0
 40
9.0
 40
9.0
 40
10.0
 40
10.0
 40
10.0
 40
11.0
 40
11.0
 40
11.0
 40
12.0
 40
12.0
 40
12.0
 40
13.0
 40
13.0
 40
13.0
 40
14.0
 40
14.0
 40
14.0
 40
15.0
 40
15.0
 40
15.0
 40
16.0
 40
16.0
 40
16.0
 40
16.0
 10
91.75047198227072
 20
-136.4984727306323
 10
91.67192380520703
 20
-136.4984727306323
 10
91.57063799794068
 20
-136.4815917627546
 10
91.4690076811258
 20
-136.418202005826
 10
91.29554712344348
 20
-136.307958950298
 10
91.27435978620919
 20
-136.1770453218585
 10
91.25541176104032
 20
-136.0688693236217
 10
91.25541176104032
 20
-136.0688693236217
 10
91.47762041983893
 20
-136.0688693236217
 10
91.47762041983893
 20
-136.0688693236217
 10
91.5323974380544
 20
-136.2679958426691
 10
91.65952146146013
 20
-136.2976236638423
 10
91.75253903956187
 20
-136.2976236638423
 10
91.8920654067145
 20
-136.2976236638423
 10
92.04433862716253
 20
-136.1980604043185
 10
92.04433862716253
 20
-135.9655164590642
 10
92.04433862716253
 20
-135.7095458645101
 10
91.86450464283249
 20
-135.6396104261595
 10
91.74392630084874
 20
-135.6396104261595
 10
91.71223142238445
 20
-135.6396104261595
 10
91.57063799794068
 20
-135.6396104261595
 10
91.48175453442123
 20
-135.7684569973079
 10
91.48175453442123
 20
-135.7684569973079
 10
91.3060546646735
 20
-135.749508972139
 10
91.3060546646735
 20
-135.749508972139
 10
91.3060546646735
 20
-135.749508972139
 10
91.42663300665724
 20
-134.9033935209617
 10
91.42663300665724
 20
-134.9033935209617
 10
91.42663300665724
 20
-134.9033935209617
 10
92.2052245863237
 20
-134.9033935209617
 10
92.2052245863237
 20
-134.9033935209617
 10
92.2052245863237
 20
-134.9033935209617
 10
92.2052245863237
 20
-135.0980414158783
 10
92.2052245863237
 20
-135.0980414158783
 10
92.2052245863237
 20
-135.0980414158783
 10
91.58958602310955
 20
-135.0980414158783
 10
91.58958602310955
 20
-135.0980414158783
 10
91.58958602310955
 20
-135.0980414158783
 10
91.5241292088898
 20
-135.5210991414669
 10
91.5241292088898
 20
-135.5210991414669
 10
91.58545190852725
 20
-135.4873372057115
 10
91.66778969062473
 20
-135.4470295885341
 10
91.78630097531732
 20
-135.4470295885341
 10
92.04020451258023
 20
-135.4470295885341
 10
92.27722708196542
 20
-135.6330647447376
 10
92.27722708196542
 20
-135.9462239243468
 10
92.27722708196542
 20
-136.2635172185383
 10
92.05295136587566
 20
-136.4984727306323
 10
91.75047198227072
 20
-136.4984727306323
 97
        0
 97
        0
 75
     2
 76
     1
 98
        0
  0
POLYLINE
  5
B9
330
B1
100
AcDbEntity
  8
_U+30EC_U+30A4_U+30E4_U+30FC 1
370
     0
100
AcDb2dPolyline
 66
     1
 10
0.0
 20
0.0
 30
0.0
  0
VERTEX
  5
BA
330
B9
100
AcDbEntity
  8
_U+30EC_U+30A4_U+30E4_U+30FC 1
370
     0
100
AcDbVertex
100
AcDb2dVertex
 10
92.50632593173454
 20
-136.4478298269992
 30
0.0
  0
VERTEX
  5
BB
330
B9
100
AcDbEntity
  8
_U+30EC_U+30A4_U+30E4_U+30FC 1
370
     0
100
AcDbVertex
100
AcDb2dVertex
 10
92.50632593173454
 20
-136.1959933470274
 30
0.0
  0
VERTEX
  5
BC
330
B9
100
AcDbEntity
  8
_U+30EC_U+30A4_U+30E4_U+30FC 1
370
     0
100
AcDbVertex
100
AcDb2dVertex
 10
92.75781790215777
 20
-136.1959933470274
 30
0.0
  0
VERTEX
  5
BD
330
B9
100
AcDbEntity
  8
_U+30EC_U+30A4_U+30E4_U+30FC 1
370
     0
100
AcDbVertex
100
AcDb2dVertex
 10
92.75781790215777
 20
-136.4478298269992
 30
0.0
  0
VERTEX
  5
BE
330
B9
100
AcDbEntity
  8
_U+30EC_U+30A4_U+30E4_U+30FC 1
370
     0
100
AcDbVertex
100
AcDb2dVertex
 10
92.50632593173454
 20
-136.4478298269992
 30
0.0
  0
SEQEND
  5
BF
330
B9
100
AcDbEntity
  8
_U+30EC_U+30A4_U+30E4_U+30FC 1
370
     0
  0
HATCH
  5
C0
330
B1
100
AcDbEntity
  8
_U+30EC_U+30A4_U+30E4_U+30FC 1
 62
   179
420
  2234388
100
AcDbHatch
 10
0.0
 20
0.0
 30
0.0
210
0.0
220
0.0
230
1.0
  2
SOLID
 70
     1
 71
     0
 91
        1
 92
        1
 93
        4
 72
     1
 10
92.50632593173454
 20
-136.4478298269992
 11
92.50632593173454
 21
-136.1959933470274
 72
     1
 10
92.50632593173454
 20
-136.1959933470274
 11
92.75781790215777
 21
-136.1959933470274
 72
     1
 10
92.75781790215777
 20
-136.1959933470274
 11
92.75781790215777
 21
-136.4478298269992
 72
     1
 10
92.75781790215777
 20
-136.4478298269992
 11
92.50632593173454
 21
-136.4478298269992
 97
        0
 75
     2
 76
     1
 98
        0
  0
SPLINE
  5
C1
330
B1
100
AcDbEntity
  8
_U+30EC_U+30A4_U+30E4_U+30FC 1
370
     0
100
AcDbSpline
210
0.0
220
0.0
230
1.0
 70
    11
 71
     3
 72
    62
 73
    58
 74
     0
 42
0.0000000001
 43
0.0000000001
 12
1.0
 22
0.0
 32
0.0
 13
1.0
 23
0.0
 33
0.0
 40
0.0
 40
0.0
 40
0.0
 40
0.0
 40
1.0
 40
1.0
 40
1.0
 40
2.0
 40
2.0
 40
2.0
 40
3.0
 40
3.0
 40
3.0
 40
4.0
 40
4.0
 40
4.0
 40
5.0
 40
5.0
 40
5.0
 40
6.0
 40
6.0
 40
6.0
 40
7.0
 40
7.0
 40
7.0
 40
8.0
 40
8.0
 40
8.0
 40
9.0
 40
9.0
 40
9.0
 40
10.0
 40
10.0
 40
10.0
 40
11.0
 40
11.0
 40
11.0
 40
12.0
 40
12.0
 40
12.0
 40
13.0
 40
13.0
 40
13.0
 40
14.0
 40
14.0
 40
14.0
 40
15.0
 40
15.0
 40
15.0
 40
16.0
 40
16.0
 40
16.0
 40
17.0
 40
17.0
 40
17.0
 40
18.0
 40
18.0
 40
18.0
 40
19.0
 40
19.0
 40
19.0
 40
19.0
 10
93.48611108773959
 20
-136.4984727306323
 30
0.0
 10
93.39068194279817
 20
-136.4984727306323
 30
0.0
 10
93.17295190813037
 20
-136.4774576481723
 30
0.0
 10
93.04823945156433
 20
-136.2910779824203
 30
0.0
 10
92.97416989863146
 20
-136.1791123791497
 30
0.0
 10
92.96969127450063
 20
-136.079549119626
 30
0.0
 10
92.96555715991833
 20
-135.9951442802373
 30
0.0
 10
92.96555715991833
 20
-135.9951442802373
 30
0.0
 10
93.1856987614258
 20
-135.9951442802373
 30
0.0
 10
93.1856987614258
 20
-135.9951442802373
 30
0.0
 10
93.18776581871695
 20
-136.0688693236217
 30
0.0
 10
93.19844561472122
 20
-136.3038248357157
 30
0.0
 10
93.48163246360876
 20
-136.3038248357157
 30
0.0
 10
93.61943628301876
 20
-136.3038248357157
 30
0.0
 10
93.7717095034668
 20
-136.2338893973651
 30
0.0
 10
93.7717095034668
 20
-136.0054795666931
 30
0.0
 10
93.7717095034668
 20
-135.8890353392916
 30
0.0
 10
93.73346894358052
 20
-135.8404594929496
 30
0.0
 10
93.70177406511623
 20
-135.8087646144853
 30
0.0
 10
93.62770451218336
 20
-135.7346950615525
 30
0.0
 10
93.51126028478191
 20
-135.721948208257
 30
0.0
 10
93.45648326656644
 20
-135.721948208257
 30
0.0
 10
93.43719073184904
 20
-135.721948208257
 30
0.0
 10
93.40136173880244
 20
-135.7243597750967
 30
0.0
 10
93.37380097492044
 20
-135.728493889679
 30
0.0
 10
93.37380097492044
 20
-135.728493889679
 30
0.0
 10
93.37380097492044
 20
-135.5338459947624
 30
0.0
 10
93.37380097492044
 20
-135.5338459947624
 30
0.0
 10
93.41204153480672
 20
-135.5400471666358
 30
0.0
 10
93.4544162092753
 20
-135.542114223927
 30
0.0
 10
93.46061738114874
 20
-135.542114223927
 30
0.0
 10
93.52607419536848
 20
-135.542114223927
 30
0.0
 10
93.72520071441592
 20
-135.5210991414669
 30
0.0
 10
93.72520071441592
 20
-135.2840765720818
 30
0.0
 10
93.72520071441592
 20
-135.1063096450429
 30
0.0
 10
93.5939425764279
 20
-135.0515326268274
 30
0.0
 10
93.48404403044844
 20
-135.0515326268274
 30
0.0
 10
93.21946069718125
 20
-135.0515326268274
 30
0.0
 10
93.21084795846812
 20
-135.2840765720818
 30
0.0
 10
93.20671384388582
 20
-135.3560790677235
 30
0.0
 10
93.20671384388582
 20
-135.3560790677235
 30
0.0
 10
93.00379771980461
 20
-135.3560790677235
 30
0.0
 10
93.00379771980461
 20
-135.3560790677235
 30
0.0
 10
93.01206594896921
 20
-135.2313666111575
 30
0.0
 10
93.0396267128512
 20
-134.8548176746196
 30
0.0
 10
93.49644637419534
 20
-134.8548176746196
 30
0.0
 10
93.72072209028511
 20
-134.8548176746196
 30
0.0
 10
93.9618787742526
 20
-134.9815971884768
 30
0.0
 10
93.9618787742526
 20
-135.2778754002083
 30
0.0
 10
93.9618787742526
 20
-135.4639105564118
 30
0.0
 10
93.86679413885969
 20
-135.5465928480578
 30
0.0
 10
93.76723087933597
 20
-135.6079155476953
 30
0.0
 10
93.82855357897343
 20
-135.6354763115772
 30
0.0
 10
94.01079913014314
 20
-135.7157470363836
 30
0.0
 10
94.01079913014314
 20
-135.9927327133977
 30
0.0
 10
94.01079913014314
 20
-136.3313855995977
 30
0.0
 10
93.76309676475367
 20
-136.4984727306323
 30
0.0
 10
93.48611108773959
 20
-136.4984727306323
 30
0.0
  0
HATCH
  5
C2
330
B1
100
AcDbEntity
  8
_U+30EC_U+30A4_U+30E4_U+30FC 1
 62
   179
420
  2234388
100
AcDbHatch
 10
0.0
 20
0.0
 30
0.0
210
0.0
220
0.0
230
1.0
  2
SOLID
 70
     1
 71
     0
 91
        1
 92
        1
 93
        1
 72
     4
 94
        3
 73
     0
 74
     1
 95
       62
 96
       58
 40
0.0
 40
0.0
 40
0.0
 40
0.0
 40
1.0
 40
1.0
 40
1.0
 40
2.0
 40
2.0
 40
2.0
 40
3.0
 40
3.0
 40
3.0
 40
4.0
 40
4.0
 40
4.0
 40
5.0
 40
5.0
 40
5.0
 40
6.0
 40
6.0
 40
6.0
 40
7.0
 40
7.0
 40
7.0
 40
8.0
 40
8.0
 40
8.0
 40
9.0
 40
9.0
 40
9.0
 40
10.0
 40
10.0
 40
10.0
 40
11.0
 40
11.0
 40
11.0
 40
12.0
 40
12.0
 40
12.0
 40
13.0
 40
13.0
 40
13.0
 40
14.0
 40
14.0
 40
14.0
 40
15.0
 40
15.0
 40
15.0
 40
16.0
 40
16.0
 40
16.0
 40
17.0
 40
17.0
 40
17.0
 40
18.0
 40
18.0
 40
18.0
 40
19.0
 40
19.0
 40
19.0
 40
19.0
 10
93.48611108773959
 20
-136.4984727306323
 10
93.39068194279817
 20
-136.4984727306323
 10
93.17295190813037
 20
-136.4774576481723
 10
93.04823945156433
 20
-136.2910779824203
 10
92.97416989863146
 20
-136.1791123791497
 10
92.96969127450063
 20
-136.079549119626
 10
92.96555715991833
 20
-135.9951442802373
 10
92.96555715991833
 20
-135.9951442802373
 10
93.1856987614258
 20
-135.9951442802373
 10
93.1856987614258
 20
-135.9951442802373
 10
93.18776581871695
 20
-136.0688693236217
 10
93.19844561472122
 20
-136.3038248357157
 10
93.48163246360876
 20
-136.3038248357157
 10
93.61943628301876
 20
-136.3038248357157
 10
93.7717095034668
 20
-136.2338893973651
 10
93.7717095034668
 20
-136.0054795666931
 10
93.7717095034668
 20
-135.8890353392916
 10
93.73346894358052
 20
-135.8404594929496
 10
93.70177406511623
 20
-135.8087646144853
 10
93.62770451218336
 20
-135.7346950615525
 10
93.51126028478191
 20
-135.721948208257
 10
93.45648326656644
 20
-135.721948208257
 10
93.43719073184904
 20
-135.721948208257
 10
93.40136173880244
 20
-135.7243597750967
 10
93.37380097492044
 20
-135.728493889679
 10
93.37380097492044
 20
-135.728493889679
 10
93.37380097492044
 20
-135.5338459947624
 10
93.37380097492044
 20
-135.5338459947624
 10
93.41204153480672
 20
-135.5400471666358
 10
93.4544162092753
 20
-135.542114223927
 10
93.46061738114874
 20
-135.542114223927
 10
93.52607419536848
 20
-135.542114223927
 10
93.72520071441592
 20
-135.5210991414669
 10
93.72520071441592
 20
-135.2840765720818
 10
93.72520071441592
 20
-135.1063096450429
 10
93.5939425764279
 20
-135.0515326268274
 10
93.48404403044844
 20
-135.0515326268274
 10
93.21946069718125
 20
-135.0515326268274
 10
93.21084795846812
 20
-135.2840765720818
 10
93.20671384388582
 20
-135.3560790677235
 10
93.20671384388582
 20
-135.3560790677235
 10
93.00379771980461
 20
-135.3560790677235
 10
93.00379771980461
 20
-135.3560790677235
 10
93.01206594896921
 20
-135.2313666111575
 10
93.0396267128512
 20
-134.8548176746196
 10
93.49644637419534
 20
-134.8548176746196
 10
93.72072209028511
 20
-134.8548176746196
 10
93.9618787742526
 20
-134.9815971884768
 10
93.9618787742526
 20
-135.2778754002083
 10
93.9618787742526
 20
-135.4639105564118
 10
93.86679413885969
 20
-135.5465928480578
 10
93.76723087933597
 20
-135.6079155476953
 10
93.82855357897343
 20
-135.6354763115772
 10
94.01079913014314
 20
-135.7157470363836
 10
94.01079913014314
 20
-135.9927327133977
 10
94.01079913014314
 20
-136.3313855995977
 10
93.76309676475367
 20
-136.4984727306323
 10
93.48611108773959
 20
-136.4984727306323
 97
        0
 97
        0
 75
     2
 76
     1
 98
        0
  0
ENDBLK
  5
B4
330
B1
100
AcDbEntity
  8
0
100
AcDbBlockEnd
  0
ENDSEC
  0
SECTION
  2
ENTITIES
  0
POLYLINE
  5
41
330
1F
100
AcDbEntity
  8
_U+30EC_U+30A4_U+30E4_U+30FC 1
 62
   179
420
  2234388
370
    25
100
AcDb2dPolyline
 66
     1
 10
0.0
 20
0.0
 30
0.0
  0
VERTEX
  5
42
330
41
100
AcDbEntity
  8
_U+30EC_U+30A4_U+30E4_U+30FC 1
 62
   179
420
  2234388
370
    25
100
AcDbVertex
100
AcDb2dVertex
 10
84.38864034706643
 20
-118.456674692608
 30
0.0
  0
VERTEX
  5
43
330
41
100
AcDbEntity
  8
_U+30EC_U+30A4_U+30E4_U+30FC 1
 62
   179
420
  2234388
370
    25
100
AcDbVertex
100
AcDb2dVertex
 10
84.38864034706643
 20
-133.4567857999692
 30
0.0
  0
SEQEND
  5
44
330
41
100
AcDbEntity
  8
_U+30EC_U+30A4_U+30E4_U+30FC 1
 62
   179
420
  2234388
370
    25
  0
POLYLINE
  5
45
330
1F
100
AcDbEntity
  8
_U+30EC_U+30A4_U+30E4_U+30FC 1
 62
   179
420
  2234388
370
    25
100
AcDb2dPolyline
 66
     1
 10
0.0
 20
0.0
 30
0.0
  0
VERTEX
  5
46
330
45
100
AcDbEntity
  8
_U+30EC_U+30A4_U+30E4_U+30FC 1
 62
   179
420
  2234388
370
    25
100
AcDbVertex
100
AcDb2dVertex
 10
84.38864034706643
 20
-133.4567857999692
 30
0.0
  0
VERTEX
  5
47
330
45
100
AcDbEntity
  8
_U+30EC_U+30A4_U+30E4_U+30FC 1
 62
   179
420
  2234388
370
    25
100
AcDbVertex
100
AcDb2dVertex
 10
99.57082219732938
 20
-133.4567857999692
 30
0.0
  0
SEQEND
  5
48
330
45
100
AcDbEntity
  8
_U+30EC_U+30A4_U+30E4_U+30FC 1
 62
   179
420
  2234388
370
    25
  0
POLYLINE
  5
49
330
1F
100
AcDbEntity
  8
_U+30EC_U+30A4_U+30E4_U+30FC 1
 62
   179
420
  2234388
370
     9
100
AcDb2dPolyline
 66
     1
 10
0.0
 20
0.0
 30
0.0
  0
VERTEX
  5
4A
330
49
100
AcDbEntity
  8
_U+30EC_U+30A4_U+30E4_U+30FC 1
 62
   179
420
  2234388
370
     9
100
AcDbVertex
100
AcDb2dVertex
 10
86.19955446753282
 20
-131.6612174670849
 30
0.0
  0
VERTEX
  5
4B
330
49
100
AcDbEntity
  8
_U+30EC_U+30A4_U+30E4_U+30FC 1
 62
   179
420
  2234388
370
     9
100
AcDbVertex
100
AcDb2dVertex
 10
99.5701494041983
 20
-131.6612174670849
 30
0.0
  0
SEQEND
  5
4C
330
49
100
AcDbEntity
  8
_U+30EC_U+30A4_U+30E4_U+30FC 1
 62
   179
420
  2234388
370
     9
  0
POLYLINE
  5
4D
330
1F
100
AcDbEntity
  8
_U+30EC_U+30A4_U+30E4_U+30FC 1
 62
   179
420
  2234388
370
     9
100
AcDb2dPolyline
 66
     1
 10
0.0
 20
0.0
 30
0.0
  0
VERTEX
  5
4E
330
4D
100
AcDbEntity
  8
_U+30EC_U+30A4_U+30E4_U+30FC 1
 62
   179
420
  2234388
370
     9
100
AcDbVertex
100
AcDb2dVertex
 10
86.1938747454555
 20
-118.4568510814969
 30
0.0
  0
VERTEX
  5
4F
330
4D
100
AcDbEntity
  8
_U+30EC_U+30A4_U+30E4_U+30FC 1
 62
   179
420
  2234388
370
     9
100
AcDbVertex
100
AcDb2dVertex
 10
86.1938747454555
 20
-131.6557141337527
 30
0.0
  0
SEQEND
  5
50
330
4D
100
AcDbEntity
  8
_U+30EC_U+30A4_U+30E4_U+30FC 1
 62
   179
420
  2234388
370
     9
  0
POLYLINE
  5
51
330
1F
100
AcDbEntity
  8
_U+30EC_U+30A4_U+30E4_U+30FC 1
 62
   179
420
  2234388
370
    25
100
AcDb2dPolyline
 66
     1
 10
0.0
 20
0.0
 30
0.0
  0
VERTEX
  5
52
330
51
100
AcDbEntity
  8
_U+30EC_U+30A4_U+30E4_U+30FC 1
 62
   179
420
  2234388
370
    25
100
AcDbVertex
100
AcDb2dVertex
 10
99.69418606770053
 20
-131.7556208003943
 30
0.0
  0
VERTEX
  5
53
330
51
100
AcDbEntity
  8
_U+30EC_U+30A4_U+30E4_U+30FC 1
 62
   179
420
  2234388
370
    25
100
AcDbVertex
100
AcDb2dVertex
 10
99.69418606770053
 20
-133.4567857999692
 30
0.0
  0
SEQEND
  5
54
330
51
100
AcDbEntity
  8
_U+30EC_U+30A4_U+30E4_U+30FC 1
 62
   179
420
  2234388
370
    25
  0
POLYLINE
  5
55
330
1F
100
AcDbEntity
  8
_U+30EC_U+30A4_U+30E4_U+30FC 1
 62
   179
420
  2234388
370
    25
100
AcDb2dPolyline
 66
     1
 10
0.0
 20
0.0
 30
0.0
  0
VERTEX
  5
56
330
55
100
AcDbEntity
  8
_U+30EC_U+30A4_U+30E4_U+30FC 1
 62
   179
420
  2234388
370
    25
100
AcDbVertex
100
AcDb2dVertex
 10
84.38881673595081
 20
-118.3772644148502
 30
0.0
  0
VERTEX
  5
57
330
55
100
AcDbEntity
  8
_U+30EC_U+30A4_U+30E4_U+30FC 1
 62
   179
420
  2234388
370
    25
100
AcDbVertex
100
AcDb2dVertex
 10
86.09982419229938
 20
-118.3772644148502
 30
0.0
  0
SEQEND
  5
58
330
55
100
AcDbEntity
  8
_U+30EC_U+30A4_U+30E4_U+30FC 1
 62
   179
420
  2234388
370
    25
  0
SPLINE
  5
59
330
1F
100
AcDbEntity
  8
_U+30EC_U+30A4_U+30E4_U+30FC 1
 62
   179
420
  2234388
370
     9
100
AcDbSpline
210
0.0
220
0.0
230
1.0
 70
    11
 71
     3
 72
    17
 73
    13
 74
     0
 42
0.0000000001
 43
0.0000000001
 12
1.0
 22
0.0
 32
0.0
 13
1.0
 23
0.0
 33
0.0
 40
0.0
 40
0.0
 40
0.0
 40
0.0
 40
1.0
 40
1.0
 40
1.0
 40
2.0
 40
2.0
 40
2.0
 40
3.0
 40
3.0
 40
3.0
 40
4.0
 40
4.0
 40
4.0
 40
4.0
 10
84.48854701118425
 20
-136.8198869102395
 30
0.0
 10
84.48854701118425
 20
-136.7647830213646
 30
0.0
 10
84.44377951232637
 20
-136.7199802435979
 30
0.0
 10
84.38864034706643
 20
-136.7199802435979
 30
0.0
 10
84.33318368181457
 20
-136.7199802435979
 30
0.0
 10
84.2883809051798
 20
-136.7647830213646
 30
0.0
 10
84.2883809051798
 20
-136.8198869102395
 30
0.0
 10
84.2883809051798
 20
-136.8756963546699
 30
0.0
 10
84.33318368181457
 20
-136.9204991324366
 30
0.0
 10
84.38864034706643
 20
-136.9204991324366
 30
0.0
 10
84.44377951232637
 20
-136.9204991324366
 30
0.0
 10
84.48854701118425
 20
-136.8756963546699
 30
0.0
 10
84.48854701118425
 20
-136.8198869102395
 30
0.0
  0
SPLINE
  5
5A
330
1F
100
AcDbEntity
  8
_U+30EC_U+30A4_U+30E4_U+30FC 1
 62
   179
420
  2234388
370
     9
100
AcDbSpline
210
0.0
220
0.0
230
1.0
 70
    11
 71
     3
 72
    17
 73
    13
 74
     0
 42
0.0000000001
 43
0.0000000001
 12
1.0
 22
0.0
 32
0.0
 13
1.0
 23
0.0
 33
0.0
 40
0.0
 40
0.0
 40
0.0
 40
0.0
 40
1.0
 40
1.0
 40
1.0
 40
2.0
 40
2.0
 40
2.0
 40
3.0
 40
3.0
 40
3.0
 40
4.0
 40
4.0
 40
4.0
 40
4.0
 10
80.48847044656804
 20
-133.4567857999692
 30
0.0
 10
80.48847044656804
 20
-133.4016819110943
 30
0.0
 10
80.44366766993328
 20
-133.3568791333276
 30
0.0
 10
80.38853053545829
 20
-133.3568791333276
 30
0.0
 10
80.33342461719026
 20
-133.3568791333276
 30
0.0
 10
80.28862184055549
 20
-133.4016819110943
 30
0.0
 10
80.28862184055549
 20
-133.4567857999692
 30
0.0
 10
80.28862184055549
 20
-133.5119249666223
 30
0.0
 10
80.33342461719026
 20
-133.5566924666109
 30
0.0
 10
80.38853053545829
 20
-133.5566924666109
 30
0.0
 10
80.44366766993328
 20
-133.5566924666109
 30
0.0
 10
80.48847044656804
 20
-133.5119249666223
 30
0.0
 10
80.48847044656804
 20
-133.4567857999692
 30
0.0
  0
SPLINE
  5
5B
330
1F
100
AcDbEntity
  8
_U+30EC_U+30A4_U+30E4_U+30FC 1
 62
   179
420
  2234388
370
     9
100
AcDbSpline
210
0.0
220
0.0
230
1.0
 70
    11
 71
     3
 72
    17
 73
    13
 74
     0
 42
0.0000000001
 43
0.0000000001
 12
1.0
 22
0.0
 32
0.0
 13
1.0
 23
0.0
 33
0.0
 40
0.0
 40
0.0
 40
0.0
 40
0.0
 40
1.0
 40
1.0
 40
1.0
 40
2.0
 40
2.0
 40
2.0
 40
3.0
 40
3.0
 40
3.0
 40
4.0
 40
4.0
 40
4.0
 40
4.0
 10
80.48861155767555
 20
-118.3569444148552
 30
0.0
 10
80.48861155767555
 20
-118.3014877482025
 30
0.0
 10
80.44384405881767
 20
-118.2566849704358
 30
0.0
 10
80.38870489355772
 20
-118.2566849704358
 30
0.0
 10
80.33360100607464
 20
-118.2566849704358
 30
0.0
 10
80.28879822943989
 20
-118.3014877482025
 30
0.0
 10
80.28879822943989
 20
-118.3569444148552
 30
0.0
 10
80.28879822943989
 20
-118.412083581508
 30
0.0
 10
80.33360100607464
 20
-118.4568510814969
 30
0.0
 10
80.38870489355772
 20
-118.4568510814969
 30
0.0
 10
80.44384405881767
 20
-118.4568510814969
 30
0.0
 10
80.48861155767555
 20
-118.412083581508
 30
0.0
 10
80.48861155767555
 20
-118.3569444148552
 30
0.0
  0
SPLINE
  5
5C
330
1F
100
AcDbEntity
  8
_U+30EC_U+30A4_U+30E4_U+30FC 1
 62
   179
420
  2234388
370
     9
100
AcDbSpline
210
0.0
220
0.0
230
1.0
 70
    11
 71
     3
 72
    17
 73
    13
 74
     0
 42
0.0000000001
 43
0.0000000001
 12
1.0
 22
0.0
 32
0.0
 13
1.0
 23
0.0
 33
0.0
 40
0.0
 40
0.0
 40
0.0
 40
0.0
 40
1.0
 40
1.0
 40
1.0
 40
2.0
 40
2.0
 40
2.0
 40
3.0
 40
3.0
 40
3.0
 40
4.0
 40
4.0
 40
4.0
 40
4.0
 10
99.78855412084856
 20
-136.8198869102395
 30
0.0
 10
99.78855412084856
 20
-136.7647830213646
 30
0.0
 10
99.74378662199067
 20
-136.7199802435979
 30
0.0
 10
99.68864997507796
 20
-136.7199802435979
 30
0.0
 10
99.6328380137101
 20
-136.7199802435979
 30
0.0
 10
99.5880705148522
 20
-136.7647830213646
 30
0.0
 10
99.5880705148522
 20
-136.8198869102395
 30
0.0
 10
99.5880705148522
 20
-136.8756963546699
 30
0.0
 10
99.6328380137101
 20
-136.9204991324366
 30
0.0
 10
99.68864997507796
 20
-136.9204991324366
 30
0.0
 10
99.74378662199067
 20
-136.9204991324366
 30
0.0
 10
99.78855412084856
 20
-136.8756963546699
 30
0.0
 10
99.78855412084856
 20
-136.8198869102395
 30
0.0
  0
SPLINE
  5
5D
330
1F
100
AcDbEntity
  8
_U+30EC_U+30A4_U+30E4_U+30FC 1
 62
   179
420
  2234388
370
     9
100
AcDbSpline
210
0.0
220
0.0
230
1.0
 70
    11
 71
     3
 72
    17
 73
    13
 74
     0
 42
0.0000000001
 43
0.0000000001
 12
1.0
 22
0.0
 32
0.0
 13
1.0
 23
0.0
 33
0.0
 40
0.0
 40
0.0
 40
0.0
 40
0.0
 40
1.0
 40
1.0
 40
1.0
 40
2.0
 40
2.0
 40
2.0
 40
3.0
 40
3.0
 40
3.0
 40
4.0
 40
4.0
 40
4.0
 40
4.0
 10
103.7883131854729
 20
-133.4567857999692
 30
0.0
 10
103.7883131854729
 20
-133.4016819110943
 30
0.0
 10
103.743545686615
 20
-133.3568791333276
 30
0.0
 10
103.688406521355
 20
-133.3568791333276
 30
0.0
 10
103.633302633872
 20
-133.3568791333276
 30
0.0
 10
103.5884998572372
 20
-133.4016819110943
 30
0.0
 10
103.5884998572372
 20
-133.4567857999692
 30
0.0
 10
103.5884998572372
 20
-133.5119249666223
 30
0.0
 10
103.633302633872
 20
-133.5566924666109
 30
0.0
 10
103.688406521355
 20
-133.5566924666109
 30
0.0
 10
103.743545686615
 20
-133.5566924666109
 30
0.0
 10
103.7883131854729
 20
-133.5119249666223
 30
0.0
 10
103.7883131854729
 20
-133.4567857999692
 30
0.0
  0
SPLINE
  5
5E
330
1F
100
AcDbEntity
  8
_U+30EC_U+30A4_U+30E4_U+30FC 1
 62
   179
420
  2234388
370
     9
100
AcDbSpline
210
0.0
220
0.0
230
1.0
 70
    11
 71
     3
 72
    17
 73
    13
 74
     0
 42
0.0000000001
 43
0.0000000001
 12
1.0
 22
0.0
 32
0.0
 13
1.0
 23
0.0
 33
0.0
 40
0.0
 40
0.0
 40
0.0
 40
0.0
 40
1.0
 40
1.0
 40
1.0
 40
2.0
 40
2.0
 40
2.0
 40
3.0
 40
3.0
 40
3.0
 40
4.0
 40
4.0
 40
4.0
 40
4.0
 10
103.7883131854729
 20
-131.6570899670856
 30
0.0
 10
103.7883131854729
 20
-131.6012805226551
 30
0.0
 10
103.743545686615
 20
-131.5564777448884
 30
0.0
 10
103.688406521355
 20
-131.5564777448884
 30
0.0
 10
103.633302633872
 20
-131.5564777448884
 30
0.0
 10
103.5884998572372
 20
-131.6012805226551
 30
0.0
 10
103.5884998572372
 20
-131.6570899670856
 30
0.0
 10
103.5884998572372
 20
-131.7121938559611
 30
0.0
 10
103.633302633872
 20
-131.7569966337272
 30
0.0
 10
103.688406521355
 20
-131.7569966337272
 30
0.0
 10
103.743545686615
 20
-131.7569966337272
 30
0.0
 10
103.7883131854729
 20
-131.7121938559611
 30
0.0
 10
103.7883131854729
 20
-131.6570899670856
 30
0.0
  0
POLYLINE
  5
5F
330
1F
100
AcDbEntity
  8
_U+30EC_U+30A4_U+30E4_U+30FC 1
 62
   179
420
  2234388
370
     9
100
AcDb2dPolyline
 66
     1
 10
0.0
 20
0.0
 30
0.0
  0
VERTEX
  5
60
330
5F
100
AcDbEntity
  8
_U+30EC_U+30A4_U+30E4_U+30FC 1
 62
   179
420
  2234388
370
     9
100
AcDbVertex
100
AcDb2dVertex
 10
103.688406521355
 20
-131.6570899670856
 30
0.0
  0
VERTEX
  5
61
330
5F
100
AcDbEntity
  8
_U+30EC_U+30A4_U+30E4_U+30FC 1
 62
   179
420
  2234388
370
     9
100
AcDbVertex
100
AcDb2dVertex
 10
103.688406521355
 20
-126.3988313572892
 30
0.0
  0
SEQEND
  5
62
330
5F
100
AcDbEntity
  8
_U+30EC_U+30A4_U+30E4_U+30FC 1
 62
   179
420
  2234388
370
     9
  0
POLYLINE
  5
63
330
1F
100
AcDbEntity
  8
_U+30EC_U+30A4_U+30E4_U+30FC 1
 62
   179
420
  2234388
370
     9
100
AcDb2dPolyline
 66
     1
 10
0.0
 20
0.0
 30
0.0
  0
VERTEX
  5
64
330
63
100
AcDbEntity
  8
_U+30EC_U+30A4_U+30E4_U+30FC 1
 62
   179
420
  2234388
370
     9
100
AcDbVertex
100
AcDb2dVertex
 10
103.688406521355
 20
-131.6570899670856
 30
0.0
  0
VERTEX
  5
65
330
63
100
AcDbEntity
  8
_U+30EC_U+30A4_U+30E4_U+30FC 1
 62
   179
420
  2234388
370
     9
100
AcDbVertex
100
AcDb2dVertex
 10
103.688406521355
 20
-133.4567857999692
 30
0.0
  0
SEQEND
  5
66
330
63
100
AcDbEntity
  8
_U+30EC_U+30A4_U+30E4_U+30FC 1
 62
   179
420
  2234388
370
     9
  0
POLYLINE
  5
67
330
1F
100
AcDbEntity
  8
_U+30EC_U+30A4_U+30E4_U+30FC 1
 62
   179
420
  2234388
370
     9
100
AcDb2dPolyline
 66
     1
 10
0.0
 20
0.0
 30
0.0
  0
VERTEX
  5
68
330
67
100
AcDbEntity
  8
_U+30EC_U+30A4_U+30E4_U+30FC 1
 62
   179
420
  2234388
370
     9
100
AcDbVertex
100
AcDb2dVertex
 10
102.2284004474918
 20
-131.6570899670856
 30
0.0
  0
VERTEX
  5
69
330
67
100
AcDbEntity
  8
_U+30EC_U+30A4_U+30E4_U+30FC 1
 62
   179
420
  2234388
370
     9
100
AcDbVertex
100
AcDb2dVertex
 10
104.6881787180709
 20
-131.6570899670856
 30
0.0
  0
SEQEND
  5
6A
330
67
100
AcDbEntity
  8
_U+30EC_U+30A4_U+30E4_U+30FC 1
 62
   179
420
  2234388
370
     9
  0
POLYLINE
  5
6B
330
1F
100
AcDbEntity
  8
_U+30EC_U+30A4_U+30E4_U+30FC 1
 62
   179
420
  2234388
370
     9
100
AcDb2dPolyline
 66
     1
 10
0.0
 20
0.0
 30
0.0
  0
VERTEX
  5
6C
330
6B
100
AcDbEntity
  8
_U+30EC_U+30A4_U+30E4_U+30FC 1
 62
   179
420
  2234388
370
     9
100
AcDbVertex
100
AcDb2dVertex
 10
102.2284004474918
 20
-133.4567857999692
 30
0.0
  0
VERTEX
  5
6D
330
6B
100
AcDbEntity
  8
_U+30EC_U+30A4_U+30E4_U+30FC 1
 62
   179
420
  2234388
370
     9
100
AcDbVertex
100
AcDb2dVertex
 10
104.6881787180709
 20
-133.4567857999692
 30
0.0
  0
SEQEND
  5
6E
330
6B
100
AcDbEntity
  8
_U+30EC_U+30A4_U+30E4_U+30FC 1
 62
   179
420
  2234388
370
     9
  0
INSERT
  5
70
330
1F
100
AcDbEntity
  8
_U+30EC_U+30A4_U+30E4_U+30FC 1
100
AcDbBlockReference
  2
block 2
 10
0.0
 20
0.0
 30
0.0
  0
SPLINE
  5
81
330
1F
100
AcDbEntity
  8
_U+30EC_U+30A4_U+30E4_U+30FC 1
 62
   179
420
  2234388
370
     9
100
AcDbSpline
210
0.0
220
0.0
230
1.0
 70
    11
 71
     3
 72
    17
 73
    13
 74
     0
 42
0.0000000001
 43
0.0000000001
 12
1.0
 22
0.0
 32
0.0
 13
1.0
 23
0.0
 33
0.0
 40
0.0
 40
0.0
 40
0.0
 40
0.0
 40
1.0
 40
1.0
 40
1.0
 40
2.0
 40
2.0
 40
2.0
 40
3.0
 40
3.0
 40
3.0
 40
4.0
 40
4.0
 40
4.0
 40
4.0
 10
99.72932273347078
 20
-131.659841633752
 30
0.0
 10
99.72932273347078
 20
-131.6791385781912
 30
0.0
 10
99.7134477338758
 20
-131.6949783004097
 30
0.0
 10
99.69418606770053
 20
-131.6949783004097
 30
0.0
 10
99.67418608619231
 20
-131.6949783004097
 30
0.0
 10
99.65834384639273
 20
-131.6791385781912
 30
0.0
 10
99.65834384639273
 20
-131.659841633752
 30
0.0
 10
99.65834384639273
 20
-131.6398391337566
 30
0.0
 10
99.67418608619231
 20
-131.6239994115387
 30
0.0
 10
99.69418606770053
 20
-131.6239994115387
 30
0.0
 10
99.7134477338758
 20
-131.6239994115387
 30
0.0
 10
99.72932273347078
 20
-131.6398391337566
 30
0.0
 10
99.72932273347078
 20
-131.659841633752
 30
0.0
  0
SPLINE
  5
82
330
1F
100
AcDbEntity
  8
_U+30EC_U+30A4_U+30E4_U+30FC 1
 62
   179
420
  2234388
370
    25
100
AcDbSpline
210
0.0
220
0.0
230
1.0
 70
    11
 71
     3
 72
    17
 73
    13
 74
     0
 42
0.0000000001
 43
0.0000000001
 12
1.0
 22
0.0
 32
0.0
 13
1.0
 23
0.0
 33
0.0
 40
0.0
 40
0.0
 40
0.0
 40
0.0
 40
1.0
 40
1.0
 40
1.0
 40
2.0
 40
2.0
 40
2.0
 40
3.0
 40
3.0
 40
3.0
 40
4.0
 40
4.0
 40
4.0
 40
4.0
 10
99.72932273347078
 20
-133.4567857999692
 30
0.0
 10
99.72932273347078
 20
-133.476082744409
 30
0.0
 10
99.7134477338758
 20
-133.4919224666269
 30
0.0
 10
99.69418606770053
 20
-133.4919224666269
 30
0.0
 10
99.67418608619231
 20
-133.4919224666269
 30
0.0
 10
99.65834384639273
 20
-133.476082744409
 30
0.0
 10
99.65834384639273
 20
-133.4567857999692
 30
0.0
 10
99.65834384639273
 20
-133.4374888555294
 30
0.0
 10
99.67418608619231
 20
-133.4216491333115
 30
0.0
 10
99.69418606770053
 20
-133.4216491333115
 30
0.0
 10
99.7134477338758
 20
-133.4216491333115
 30
0.0
 10
99.72932273347078
 20
-133.4374888555294
 30
0.0
 10
99.72932273347078
 20
-133.4567857999692
 30
0.0
  0
SPLINE
  5
83
330
1F
100
AcDbEntity
  8
_U+30EC_U+30A4_U+30E4_U+30FC 1
 62
   179
420
  2234388
370
     9
100
AcDbSpline
210
0.0
220
0.0
230
1.0
 70
    11
 71
     3
 72
    17
 73
    13
 74
     0
 42
0.0000000001
 43
0.0000000001
 12
1.0
 22
0.0
 32
0.0
 13
1.0
 23
0.0
 33
0.0
 40
0.0
 40
0.0
 40
0.0
 40
0.0
 40
1.0
 40
1.0
 40
1.0
 40
2.0
 40
2.0
 40
2.0
 40
3.0
 40
3.0
 40
3.0
 40
4.0
 40
4.0
 40
4.0
 40
4.0
 10
103.7235431871253
 20
-133.4567857999692
 30
0.0
 10
103.7235431871253
 20
-133.476082744409
 30
0.0
 10
103.7077034653072
 20
-133.4919224666269
 30
0.0
 10
103.688406521355
 20
-133.4919224666269
 30
0.0
 10
103.6691095774029
 20
-133.4919224666269
 30
0.0
 10
103.6532698555848
 20
-133.476082744409
 30
0.0
 10
103.6532698555848
 20
-133.4567857999692
 30
0.0
 10
103.6532698555848
 20
-133.4374888555294
 30
0.0
 10
103.6691095774029
 20
-133.4216491333115
 30
0.0
 10
103.688406521355
 20
-133.4216491333115
 30
0.0
 10
103.7077034653072
 20
-133.4216491333115
 30
0.0
 10
103.7235431871253
 20
-133.4374888555294
 30
0.0
 10
103.7235431871253
 20
-133.4567857999692
 30
0.0
  0
POLYLINE
  5
84
330
1F
100
AcDbEntity
  8
_U+30EC_U+30A4_U+30E4_U+30FC 1
 62
   179
420
  2234388
370
     9
100
AcDb2dPolyline
 66
     1
 10
0.0
 20
0.0
 30
0.0
  0
VERTEX
  5
85
330
84
100
AcDbEntity
  8
_U+30EC_U+30A4_U+30E4_U+30FC 1
 62
   179
420
  2234388
370
     9
100
AcDbVertex
100
AcDb2dVertex
 10
80.38853053545829
 20
-118.456674692608
 30
0.0
  0
VERTEX
  5
86
330
84
100
AcDbEntity
  8
_U+30EC_U+30A4_U+30E4_U+30FC 1
 62
   179
420
  2234388
370
     9
100
AcDbVertex
100
AcDb2dVertex
 10
80.38853053545829
 20
-133.4567857999692
 30
0.0
  0
SEQEND
  5
87
330
84
100
AcDbEntity
  8
_U+30EC_U+30A4_U+30E4_U+30FC 1
 62
   179
420
  2234388
370
     9
  0
POLYLINE
  5
88
330
1F
100
AcDbEntity
  8
_U+30EC_U+30A4_U+30E4_U+30FC 1
 62
   179
420
  2234388
370
     9
100
AcDb2dPolyline
 66
     1
 10
0.0
 20
0.0
 30
0.0
  0
VERTEX
  5
89
330
88
100
AcDbEntity
  8
_U+30EC_U+30A4_U+30E4_U+30FC 1
 62
   179
420
  2234388
370
     9
100
AcDbVertex
100
AcDb2dVertex
 10
81.84874624519786
 20
-118.3569444148552
 30
0.0
  0
VERTEX
  5
8A
330
88
100
AcDbEntity
  8
_U+30EC_U+30A4_U+30E4_U+30FC 1
 62
   179
420
  2234388
370
     9
100
AcDbVertex
100
AcDb2dVertex
 10
79.38861519684991
 20
-118.3569444148552
 30
0.0
  0
SEQEND
  5
8B
330
88
100
AcDbEntity
  8
_U+30EC_U+30A4_U+30E4_U+30FC 1
 62
   179
420
  2234388
370
     9
  0
POLYLINE
  5
8C
330
1F
100
AcDbEntity
  8
_U+30EC_U+30A4_U+30E4_U+30FC 1
 62
   179
420
  2234388
370
     9
100
AcDb2dPolyline
 66
     1
 10
0.0
 20
0.0
 30
0.0
  0
VERTEX
  5
8D
330
8C
100
AcDbEntity
  8
_U+30EC_U+30A4_U+30E4_U+30FC 1
 62
   179
420
  2234388
370
     9
100
AcDbVertex
100
AcDb2dVertex
 10
81.84856985631346
 20
-133.4567857999692
 30
0.0
  0
VERTEX
  5
8E
330
8C
100
AcDbEntity
  8
_U+30EC_U+30A4_U+30E4_U+30FC 1
 62
   179
420
  2234388
370
     9
100
AcDbVertex
100
AcDb2dVertex
 10
79.38843880796553
 20
-133.4567857999692
 30
0.0
  0
SEQEND
  5
8F
330
8C
100
AcDbEntity
  8
_U+30EC_U+30A4_U+30E4_U+30FC 1
 62
   179
420
  2234388
370
     9
  0
INSERT
  5
91
330
1F
100
AcDbEntity
  8
_U+30EC_U+30A4_U+30E4_U+30FC 1
100
AcDbBlockReference
  2
block 3
 10
0.0
 20
0.0
 30
0.0
  0
SPLINE
  5
A2
330
1F
100
AcDbEntity
  8
_U+30EC_U+30A4_U+30E4_U+30FC 1
 62
   179
420
  2234388
370
    25
100
AcDbSpline
210
0.0
220
0.0
230
1.0
 70
    11
 71
     3
 72
    17
 73
    13
 74
     0
 42
0.0000000001
 43
0.0000000001
 12
1.0
 22
0.0
 32
0.0
 13
1.0
 23
0.0
 33
0.0
 40
0.0
 40
0.0
 40
0.0
 40
0.0
 40
1.0
 40
1.0
 40
1.0
 40
2.0
 40
2.0
 40
2.0
 40
3.0
 40
3.0
 40
3.0
 40
4.0
 40
4.0
 40
4.0
 40
4.0
 10
84.42395553444953
 20
-118.3772644148502
 30
0.0
 10
84.42395553444953
 20
-118.3965613592897
 30
0.0
 10
84.40811367990295
 20
-118.4124010815079
 30
0.0
 10
84.38881673595081
 20
-118.4124010815079
 30
0.0
 10
84.3691670142299
 20
-118.4124010815079
 30
0.0
 10
84.35332729241178
 20
-118.3965613592897
 30
0.0
 10
84.35332729241178
 20
-118.3772644148502
 30
0.0
 10
84.35332729241178
 20
-118.3576499704107
 30
0.0
 10
84.3691670142299
 20
-118.3417749704147
 30
0.0
 10
84.38881673595081
 20
-118.3417749704147
 30
0.0
 10
84.40811367990295
 20
-118.3417749704147
 30
0.0
 10
84.42395553444953
 20
-118.3576499704107
 30
0.0
 10
84.42395553444953
 20
-118.3772644148502
 30
0.0
  0
SPLINE
  5
A3
330
1F
100
AcDbEntity
  8
_U+30EC_U+30A4_U+30E4_U+30FC 1
 62
   179
420
  2234388
370
    25
100
AcDbSpline
210
0.0
220
0.0
230
1.0
 70
    11
 71
     3
 72
    17
 73
    13
 74
     0
 42
0.0000000001
 43
0.0000000001
 12
1.0
 22
0.0
 32
0.0
 13
1.0
 23
0.0
 33
0.0
 40
0.0
 40
0.0
 40
0.0
 40
0.0
 40
1.0
 40
1.0
 40
1.0
 40
2.0
 40
2.0
 40
2.0
 40
3.0
 40
3.0
 40
3.0
 40
4.0
 40
4.0
 40
4.0
 40
4.0
 10
84.42377701283668
 20
-133.4567857999692
 30
0.0
 10
84.42377701283668
 20
-133.476082744409
 30
0.0
 10
84.40793729101856
 20
-133.4919224666269
 30
0.0
 10
84.38864034706643
 20
-133.4919224666269
 30
0.0
 10
84.36902590312238
 20
-133.4919224666269
 30
0.0
 10
84.35315090352739
 20
-133.476082744409
 30
0.0
 10
84.35315090352739
 20
-133.4567857999692
 30
0.0
 10
84.35315090352739
 20
-133.4374888555294
 30
0.0
 10
84.36902590312238
 20
-133.4216491333115
 30
0.0
 10
84.38864034706643
 20
-133.4216491333115
 30
0.0
 10
84.40793729101856
 20
-133.4216491333115
 30
0.0
 10
84.42377701283668
 20
-133.4374888555294
 30
0.0
 10
84.42377701283668
 20
-133.4567857999692
 30
0.0
  0
SPLINE
  5
A4
330
1F
100
AcDbEntity
  8
_U+30EC_U+30A4_U+30E4_U+30FC 1
 62
   179
420
  2234388
370
     9
100
AcDbSpline
210
0.0
220
0.0
230
1.0
 70
    11
 71
     3
 72
    17
 73
    13
 74
     0
 42
0.0000000001
 43
0.0000000001
 12
1.0
 22
0.0
 32
0.0
 13
1.0
 23
0.0
 33
0.0
 40
0.0
 40
0.0
 40
0.0
 40
0.0
 40
1.0
 40
1.0
 40
1.0
 40
2.0
 40
2.0
 40
2.0
 40
3.0
 40
3.0
 40
3.0
 40
4.0
 40
4.0
 40
4.0
 40
4.0
 10
80.42370044822047
 20
-133.4567857999692
 30
0.0
 10
80.42370044822047
 20
-133.476082744409
 30
0.0
 10
80.40782544862547
 20
-133.4919224666269
 30
0.0
 10
80.38853053545829
 20
-133.4919224666269
 30
0.0
 10
80.3689140607293
 20
-133.4919224666269
 30
0.0
 10
80.35339183890308
 20
-133.476082744409
 30
0.0
 10
80.35339183890308
 20
-133.4567857999692
 30
0.0
 10
80.35339183890308
 20
-133.4374888555294
 30
0.0
 10
80.3689140607293
 20
-133.4216491333115
 30
0.0
 10
80.38853053545829
 20
-133.4216491333115
 30
0.0
 10
80.40782544862547
 20
-133.4216491333115
 30
0.0
 10
80.42370044822047
 20
-133.4374888555294
 30
0.0
 10
80.42370044822047
 20
-133.4567857999692
 30
0.0
  0
POLYLINE
  5
A5
330
1F
100
AcDbEntity
  8
_U+30EC_U+30A4_U+30E4_U+30FC 1
 62
   179
420
  2234388
370
     9
100
AcDb2dPolyline
 66
     1
 10
0.0
 20
0.0
 30
0.0
  0
VERTEX
  5
A6
330
A5
100
AcDbEntity
  8
_U+30EC_U+30A4_U+30E4_U+30FC 1
 62
   179
420
  2234388
370
     9
100
AcDbVertex
100
AcDb2dVertex
 10
84.39382618026745
 20
-136.8198869102395
 30
0.0
  0
VERTEX
  5
A7
330
A5
100
AcDbEntity
  8
_U+30EC_U+30A4_U+30E4_U+30FC 1
 62
   179
420
  2234388
370
     9
100
AcDbVertex
100
AcDb2dVertex
 10
99.69418606770053
 20
-136.8198869102395
 30
0.0
  0
SEQEND
  5
A8
330
A5
100
AcDbEntity
  8
_U+30EC_U+30A4_U+30E4_U+30FC 1
 62
   179
420
  2234388
370
     9
  0
POLYLINE
  5
A9
330
1F
100
AcDbEntity
  8
_U+30EC_U+30A4_U+30E4_U+30FC 1
 62
   179
420
  2234388
370
     9
100
AcDb2dPolyline
 66
     1
 10
0.0
 20
0.0
 30
0.0
  0
VERTEX
  5
AA
330
A9
100
AcDbEntity
  8
_U+30EC_U+30A4_U+30E4_U+30FC 1
 62
   179
420
  2234388
370
     9
100
AcDbVertex
100
AcDb2dVertex
 10
84.39382618026745
 20
-135.3598807994933
 30
0.0
  0
VERTEX
  5
AB
330
A9
100
AcDbEntity
  8
_U+30EC_U+30A4_U+30E4_U+30FC 1
 62
   179
420
  2234388
370
     9
100
AcDbVertex
100
AcDb2dVertex
 10
84.39382618026745
 20
-137.8203646877669
 30
0.0
  0
SEQEND
  5
AC
330
A9
100
AcDbEntity
  8
_U+30EC_U+30A4_U+30E4_U+30FC 1
 62
   179
420
  2234388
370
     9
  0
POLYLINE
  5
AD
330
1F
100
AcDbEntity
  8
_U+30EC_U+30A4_U+30E4_U+30FC 1
 62
   179
420
  2234388
370
     9
100
AcDb2dPolyline
 66
     1
 10
0.0
 20
0.0
 30
0.0
  0
VERTEX
  5
AE
330
AD
100
AcDbEntity
  8
_U+30EC_U+30A4_U+30E4_U+30FC 1
 62
   179
420
  2234388
370
     9
100
AcDbVertex
100
AcDb2dVertex
 10
99.69418606770053
 20
-135.3598807994933
 30
0.0
  0
VERTEX
  5
AF
330
AD
100
AcDbEntity
  8
_U+30EC_U+30A4_U+30E4_U+30FC 1
 62
   179
420
  2234388
370
     9
100
AcDbVertex
100
AcDb2dVertex
 10
99.69418606770053
 20
-137.8203646877669
 30
0.0
  0
SEQEND
  5
B0
330
AD
100
AcDbEntity
  8
_U+30EC_U+30A4_U+30E4_U+30FC 1
 62
   179
420
  2234388
370
     9
  0
INSERT
  5
B2
330
1F
100
AcDbEntity
  8
_U+30EC_U+30A4_U+30E4_U+30FC 1
100
AcDbBlockReference
  2
block 4
 10
0.0
 20
0.0
 30
0.0
  0
SPLINE
  5
C3
330
1F
100
AcDbEntity
  8
_U+30EC_U+30A4_U+30E4_U+30FC 1
 62
   179
420
  2234388
370
    25
100
AcDbSpline
210
0.0
220
0.0
230
1.0
 70
    11
 71
     3
 72
    17
 73
    13
 74
     0
 42
0.0000000001
 43
0.0000000001
 12
1.0
 22
0.0
 32
0.0
 13
1.0
 23
0.0
 33
0.0
 40
0.0
 40
0.0
 40
0.0
 40
0.0
 40
1.0
 40
1.0
 40
1.0
 40
2.0
 40
2.0
 40
2.0
 40
3.0
 40
3.0
 40
3.0
 40
4.0
 40
4.0
 40
4.0
 40
4.0
 10
84.4289628460377
 20
-132.8201277445726
 30
0.0
 10
84.4289628460377
 20
-132.8394246890124
 30
0.0
 10
84.4131231242196
 20
-132.8552996890085
 30
0.0
 10
84.39382618026745
 20
-132.8552996890085
 30
0.0
 10
84.37417645854654
 20
-132.8552996890085
 30
0.0
 10
84.35833886779938
 20
-132.8394246890124
 30
0.0
 10
84.35833886779938
 20
-132.8201277445726
 30
0.0
 10
84.35833886779938
 20
-132.8008660779109
 30
0.0
 10
84.37417645854654
 20
-132.7849910779149
 30
0.0
 10
84.39382618026745
 20
-132.7849910779149
 30
0.0
 10
84.4131231242196
 20
-132.7849910779149
 30
0.0
 10
84.4289628460377
 20
-132.8008660779109
 30
0.0
 10
84.4289628460377
 20
-132.8201277445726
 30
0.0
  0
SPLINE
  5
C4
330
1F
100
AcDbEntity
  8
_U+30EC_U+30A4_U+30E4_U+30FC 1
 62
   179
420
  2234388
370
    25
100
AcDbSpline
210
0.0
220
0.0
230
1.0
 70
    11
 71
     3
 72
    17
 73
    13
 74
     0
 42
0.0000000001
 43
0.0000000001
 12
1.0
 22
0.0
 32
0.0
 13
1.0
 23
0.0
 33
0.0
 40
0.0
 40
0.0
 40
0.0
 40
0.0
 40
1.0
 40
1.0
 40
1.0
 40
2.0
 40
2.0
 40
2.0
 40
3.0
 40
3.0
 40
3.0
 40
4.0
 40
4.0
 40
4.0
 40
4.0
 10
99.73482606666371
 20
-132.8201277445726
 30
0.0
 10
99.73482606666371
 20
-132.8394246890124
 30
0.0
 10
99.71898886395903
 20
-132.8552996890085
 30
0.0
 10
99.69968940089346
 20
-132.8552996890085
 30
0.0
 10
99.67968690140377
 20
-132.8552996890085
 30
0.0
 10
99.66384717958564
 20
-132.8394246890124
 30
0.0
 10
99.66384717958564
 20
-132.8201277445726
 30
0.0
 10
99.66384717958564
 20
-132.8008660779109
 30
0.0
 10
99.67968690140377
 20
-132.7849910779149
 30
0.0
 10
99.69968940089346
 20
-132.7849910779149
 30
0.0
 10
99.71898886395903
 20
-132.7849910779149
 30
0.0
 10
99.73482606666371
 20
-132.8008660779109
 30
0.0
 10
99.73482606666371
 20
-132.8201277445726
 30
0.0
  0
SPLINE
  5
C5
330
1F
100
AcDbEntity
  8
_U+30EC_U+30A4_U+30E4_U+30FC 1
 62
   179
420
  2234388
370
     9
100
AcDbSpline
210
0.0
220
0.0
230
1.0
 70
    11
 71
     3
 72
    17
 73
    13
 74
     0
 42
0.0000000001
 43
0.0000000001
 12
1.0
 22
0.0
 32
0.0
 13
1.0
 23
0.0
 33
0.0
 40
0.0
 40
0.0
 40
0.0
 40
0.0
 40
1.0
 40
1.0
 40
1.0
 40
2.0
 40
2.0
 40
2.0
 40
3.0
 40
3.0
 40
3.0
 40
4.0
 40
4.0
 40
4.0
 40
4.0
 10
99.72932273347078
 20
-136.8198869102395
 30
0.0
 10
99.72932273347078
 20
-136.8398894102342
 30
0.0
 10
99.7134477338758
 20
-136.8557291324528
 30
0.0
 10
99.69418606770053
 20
-136.8557291324528
 30
0.0
 10
99.67418608619231
 20
-136.8557291324528
 30
0.0
 10
99.65834384639273
 20
-136.8398894102342
 30
0.0
 10
99.65834384639273
 20
-136.8198869102395
 30
0.0
 10
99.65834384639273
 20
-136.8006252435778
 30
0.0
 10
99.67418608619231
 20
-136.7847502435818
 30
0.0
 10
99.69418606770053
 20
-136.7847502435818
 30
0.0
 10
99.7134477338758
 20
-136.7847502435818
 30
0.0
 10
99.72932273347078
 20
-136.8006252435778
 30
0.0
 10
99.72932273347078
 20
-136.8198869102395
 30
0.0
  0
ENDSEC
  0
SECTION
  2
OBJECTS
  0
DICTIONARY
  5
C
330
0
100
AcDbDictionary
281
     1
  3
ACAD_GROUP
350
D
  3
ACAD_LAYOUT
350
1A
  3
ACAD_MATERIAL
350
3B
  3
ACAD_MLEADERSTYLE
350
C7
  3
ACAD_MLINESTYLE
350
17
  3
ACAD_PLOTSETTINGS
350
19
  3
ACAD_PLOTSTYLENAME
350
E
  3
ACAD_TABLESTYLE
350
C6
  3
ACAD_VISUALSTYLE
350
2A
  0
SUN
  5
3F
330
29
100
AcDbSun
 90
        1
290
     0
 63
     7
421
 16777215
 40
1.0
291
     1
 91
  2455826
 92
 54000000
292
     0
 70
     2
 71
   256
280
     1
  0
DICTIONARY
  5
D
102
{ACAD_REACTORS
330
C
102
}
330
C
100
AcDbDictionary
281
     1
  0
DICTIONARY
  5
1A
102
{ACAD_REACTORS
330
C
102
}
330
C
100
AcDbDictionary
281
     1
  3
Layout1
350
1E
  3
Layout2
350
26
  3
Model
350
22
  0
DICTIONARY
  5
3B
102
{ACAD_REACTORS
330
C
102
}
330
C
100
AcDbDictionary
281
     1
  3
ByBlock
350
3D
  3
ByLayer
350
3C
  3
Global
350
3E
  0
DICTIONARY
  5
C7
102
{ACAD_REACTORS
330
C
102
}
330
C
100
AcDbDictionary
281
     1
  0
DICTIONARY
  5
17
102
{ACAD_REACTORS
330
C
102
}
330
C
100
AcDbDictionary
281
     1
  3
Standard
350
18
  0
DICTIONARY
  5
19
102
{ACAD_REACTORS
330
C
102
}
330
C
100
AcDbDictionary
281
     1
  0
ACDBDICTIONARYWDFLT
  5
E
102
{ACAD_REACTORS
330
C
102
}
330
C
100
AcDbDictionary
281
     1
  3
Normal
350
F
100
AcDbDictionaryWithDefault
340
F
  0
DICTIONARY
  5
C6
102
{ACAD_REACTORS
330
C
102
}
330
C
100
AcDbDictionary
281
     1
  0
DICTIONARY
  5
2A
102
{ACAD_REACTORS
330
C
102
}
330
C
100
AcDbDictionary
281
     1
  3
2dWireframe
350
2F
  3
3D Hidden
350
31
  3
3dWireframe
350
30
  3
Basic
350
32
  3
Brighten
350
36
  3
ColorChange
350
3A
  3
Conceptual
350
34
  3
Dim
350
35
  3
Facepattern
350
39
  3
Flat
350
2B
  3
FlatWithEdges
350
2C
  3
Gouraud
350
2D
  3
GouraudWithEdges
350
2E
  3
Linepattern
350
38
  3
Realistic
350
33
  3
Thicken
350
37
  0
LAYOUT
  5
1E
102
{ACAD_REACTORS
330
1A
102
}
330
1A
100
AcDbPlotSettings
  1

  2
none_device
  4

  6

 40
0.0
 41
0.0
 42
0.0
 43
0.0
 44
0.0
 45
0.0
 46
0.0
 47
0.0
 48
0.0
 49
0.0
140
0.0
141
0.0
142
1.0
143
1.0
 70
   688
 72
     0
 73
     0
 74
     5
  7

 75
    16
 76
     0
 77
     2
 78
   300
147
1.0
148
0.0
149
0.0
100
AcDbLayout
  1
Layout1
 70
     1
 71
     1
 10
0.0
 20
0.0
 11
12.0
 21
9.0
 12
0.0
 22
0.0
 32
0.0
 14
1.000000000000000E+20
 24
1.000000000000000E+20
 34
1.000000000000000E+20
 15
-1.000000000000000E+20
 25
-1.000000000000000E+20
 35
-1.000000000000000E+20
146
0.0
 13
0.0
 23
0.0
 33
0.0
 16
1.0
 26
0.0
 36
0.0
 17
0.0
 27
1.0
 37
0.0
 76
     0
330
1B
  0
LAYOUT
  5
26
102
{ACAD_REACTORS
330
1A
102
}
330
1A
100
AcDbPlotSettings
  1

  2
none_device
  4

  6

 40
0.0
 41
0.0
 42
0.0
 43
0.0
 44
0.0
 45
0.0
 46
0.0
 47
0.0
 48
0.0
 49
0.0
140
0.0
141
0.0
142
1.0
143
1.0
 70
   688
 72
     0
 73
     0
 74
     5
  7

 75
    16
 76
     0
 77
     2
 78
   300
147
1.0
148
0.0
149
0.0
100
AcDbLayout
  1
Layout2
 70
     1
 71
     2
 10
0.0
 20
0.0
 11
0.0
 21
0.0
 12
0.0
 22
0.0
 32
0.0
 14
0.0
 24
0.0
 34
0.0
 15
0.0
 25
0.0
 35
0.0
146
0.0
 13
0.0
 23
0.0
 33
0.0
 16
1.0
 26
0.0
 36
0.0
 17
0.0
 27
1.0
 37
0.0
 76
     0
330
23
  0
LAYOUT
  5
22
102
{ACAD_REACTORS
330
1A
102
}
330
1A
100
AcDbPlotSettings
  1

  2
none_device
  4

  6

 40
0.0
 41
0.0
 42
0.0
 43
0.0
 44
0.0
 45
0.0
 46
0.0
 47
0.0
 48
0.0
 49
0.0
140
0.0
141
0.0
142
1.0
143
1.0
 70
  1712
 72
     0
 73
     0
 74
     0
  7

 75
     0
 76
     0
 77
     2
 78
   300
147
1.0
148
0.0
149
0.0
100
AcDbLayout
  1
Model
 70
     1
 71
     0
 10
0.0
 20
0.0
 11
12.0
 21
9.0
 12
0.0
 22
0.0
 32
0.0
 14
1.000000000000000E+20
 24
1.000000000000000E+20
 34
1.000000000000000E+20
 15
-1.000000000000000E+20
 25
-1.000000000000000E+20
 35
-1.000000000000000E+20
146
0.0
 13
0.0
 23
0.0
 33
0.0
 16
1.0
 26
0.0
 36
0.0
 17
0.0
 27
1.0
 37
0.0
 76
     0
330
1F
331
29
  0
MATERIAL
  5
3D
102
{ACAD_REACTORS
330
3B
102
}
330
3B
100
AcDbMaterial
  1
ByBlock
 72
     1
 94
      127
  0
MATERIAL
  5
3C
102
{ACAD_REACTORS
330
3B
102
}
330
3B
100
AcDbMaterial
  1
ByLayer
 72
     1
 94
      127
  0
MATERIAL
  5
3E
102
{ACAD_REACTORS
330
3B
102
}
330
3B
100
AcDbMaterial
  1
Global
 72
     1
 94
      127
  0
MLINESTYLE
  5
18
102
{ACAD_REACTORS
330
17
102
}
330
17
100
AcDbMlineStyle
  2
Standard
 70
     0
  3

 62
   256
 51
90.0
 52
90.0
 71
     2
 49
0.5
 62
   256
  6
BYLAYER
 49
-0.5
 62
   256
  6
BYLAYER
  0
ACDBPLACEHOLDER
  5
F
102
{ACAD_REACTORS
330
E
102
}
330
E
  0
VISUALSTYLE
  5
2F
102
{ACAD_REACTORS
330
2A
102
}
330
2A
100
AcDbVisualStyle
  2
2dWireframe
 70
     4
177
     2
291
     0
 71
     0
176
     1
 72
     2
176
     1
 73
     0
176
     1
 90
        0
176
     1
 40
-0.6
176
     1
 41
-30.0
176
     1
 62
     5
 63
     7
421
 16777215
176
     1
 74
     1
176
     1
 91
        4
176
     1
 64
     7
176
     1
 65
   257
176
     1
 75
     1
176
     1
175
     1
176
     1
 42
1.0
176
     1
 92
        0
176
     1
 66
   257
176
     1
 43
1.0
176
     1
 76
     1
176
     1
 77
     6
176
     1
 78
     2
176
     1
 67
     7
176
     1
 79
     5
176
     1
170
     0
176
     1
171
     0
176
     1
290
     0
176
     1
 93
        1
176
     1
 44
0.0
176
     1
173
     0
176
     1
  0
VISUALSTYLE
  5
31
102
{ACAD_REACTORS
330
2A
102
}
330
2A
100
AcDbVisualStyle
  2
3D Hidden
 70
     6
177
     2
291
     0
 71
     1
176
     1
 72
     2
176
     1
 73
     2
176
     1
 90
        0
176
     1
 40
-0.6
176
     1
 41
-30.0
176
     1
 62
     5
 63
     7
421
 16777215
176
     1
 74
     2
176
     1
 91
        2
176
     1
 64
     7
176
     1
 65
   257
176
     1
 75
     2
176
     1
175
     1
176
     1
 42
40.0
176
     1
 92
        0
176
     1
 66
   257
176
     1
 43
1.0
176
     1
 76
     1
176
     1
 77
     6
176
     1
 78
     2
176
     1
 67
     7
176
     1
 79
     3
176
     1
170
     0
176
     1
171
     0
176
     1
290
     0
176
     1
 93
        1
176
     1
 44
0.0
176
     1
173
     0
176
     1
  0
VISUALSTYLE
  5
30
102
{ACAD_REACTORS
330
2A
102
}
330
2A
100
AcDbVisualStyle
  2
3dWireframe
 70
     5
177
     2
291
     0
 71
     0
176
     1
 72
     2
176
     1
 73
     0
176
     1
 90
        0
176
     1
 40
-0.6
176
     1
 41
-30.0
176
     1
 62
     5
 63
     7
421
 16777215
176
     1
 74
     1
176
     1
 91
        4
176
     1
 64
     7
176
     1
 65
   257
176
     1
 75
     1
176
     1
175
     1
176
     1
 42
1.0
176
     1
 92
        0
176
     1
 66
   257
176
     1
 43
1.0
176
     1
 76
     1
176
     1
 77
     6
176
     1
 78
     2
176
     1
 67
     7
176
     1
 79
     5
176
     1
170
     0
176
     1
171
     0
176
     1
290
     0
176
     1
 93
        1
176
     1
 44
0.0
176
     1
173
     0
176
     1
  0
VISUALSTYLE
  5
32
102
{ACAD_REACTORS
330
2A
102
}
330
2A
100
AcDbVisualStyle
  2
Basic
 70
     7
177
     2
291
     1
 71
     1
176
     1
 72
     0
176
     1
 73
     1
176
     1
 90
        0
176
     1
 40
-0.6
176
     1
 41
-30.0
176
     1
 62
     5
 63
     7
421
 16777215
176
     1
 74
     0
176
     1
 91
        4
176
     1
 64
     7
176
     1
 65
   257
176
     1
 75
     1
176
     1
175
     1
176
     1
 42
1.0
176
     1
 92
        8
176
     1
 66
     7
176
     1
 43
1.0
176
     1
 76
     1
176
     1
 77
     6
176
     1
 78
     2
176
     1
 67
     7
176
     1
 79
     5
176
     1
170
     0
176
     1
171
     0
176
     1
290
     0
176
     1
 93
        1
176
     1
 44
0.0
176
     1
173
     0
176
     1
  0
VISUALSTYLE
  5
36
102
{ACAD_REACTORS
330
2A
102
}
330
2A
100
AcDbVisualStyle
  2
Brighten
 70
    12
177
     2
291
     1
 71
     2
176
     1
 72
     2
176
     1
 73
     0
176
     1
 90
        0
176
     1
 40
-0.6
176
     1
 41
-30.0
176
     1
 62
     5
 63
     7
421
 16777215
176
     1
 74
     1
176
     1
 91
        4
176
     1
 64
     7
176
     1
 65
   257
176
     1
 75
     1
176
     1
175
     1
176
     1
 42
1.0
176
     1
 92
        8
176
     1
 66
     7
176
     1
 43
1.0
176
     1
 76
     1
176
     1
 77
     6
176
     1
 78
     2
176
     1
 67
     7
176
     1
 79
     5
176
     1
170
     0
176
     1
171
     0
176
     1
290
     0
176
     1
 93
        1
176
     1
 44
50.0
176
     1
173
     0
176
     1
  0
VISUALSTYLE
  5
3A
102
{ACAD_REACTORS
330
2A
102
}
330
2A
100
AcDbVisualStyle
  2
ColorChange
 70
    16
177
     2
291
     1
 71
     2
176
     1
 72
     2
176
     1
 73
     3
176
     1
 90
        0
176
     1
 40
-0.6
176
     1
 41
-30.0
176
     1
 62
     5
 63
     8
421
  8421504
176
     1
 74
     1
176
     1
 91
        4
176
     1
 64
     7
176
     1
 65
   257
176
     1
 75
     1
176
     1
175
     1
176
     1
 42
1.0
176
     1
 92
        8
176
     1
 66
     8
424
  8421504
176
     1
 43
1.0
176
     1
 76
     1
176
     1
 77
     6
176
     1
 78
     2
176
     1
 67
     7
176
     1
 79
     5
176
     1
170
     0
176
     1
171
     0
176
     1
290
     0
176
     1
 93
        1
176
     1
 44
0.0
176
     1
173
     0
176
     1
  0
VISUALSTYLE
  5
34
102
{ACAD_REACTORS
330
2A
102
}
330
2A
100
AcDbVisualStyle
  2
Conceptual
 70
     9
177
     2
291
     0
 71
     3
176
     1
 72
     2
176
     1
 73
     0
176
     1
 90
        0
176
     1
 40
-0.6
176
     1
 41
-30.0
176
     1
 62
     5
 63
     7
421
 16777215
176
     1
 74
     2
176
     1
 91
        2
176
     1
 64
     7
176
     1
 65
   257
176
     1
 75
     1
176
     1
175
     1
176
     1
 42
40.0
176
     1
 92
        8
176
     1
 66
     7
176
     1
 43
1.0
176
     1
 76
     1
176
     1
 77
     6
176
     1
 78
     2
176
     1
 67
     7
176
     1
 79
     3
176
     1
170
     0
176
     1
171
     0
176
     1
290
     0
176
     1
 93
        1
176
     1
 44
0.0
176
     1
173
     0
176
     1
  0
VISUALSTYLE
  5
35
102
{ACAD_REACTORS
330
2A
102
}
330
2A
100
AcDbVisualStyle
  2
Dim
 70
    11
177
     2
291
     1
 71
     2
176
     1
 72
     2
176
     1
 73
     0
176
     1
 90
        0
176
     1
 40
-0.6
176
     1
 41
-30.0
176
     1
 62
     5
 63
     7
421
 16777215
176
     1
 74
     1
176
     1
 91
        4
176
     1
 64
     7
176
     1
 65
   257
176
     1
 75
     1
176
     1
175
     1
176
     1
 42
1.0
176
     1
 92
        8
176
     1
 66
     7
176
     1
 43
1.0
176
     1
 76
     1
176
     1
 77
     6
176
     1
 78
     2
176
     1
 67
     7
176
     1
 79
     5
176
     1
170
     0
176
     1
171
     0
176
     1
290
     0
176
     1
 93
        1
176
     1
 44
-50.0
176
     1
173
     0
176
     1
  0
VISUALSTYLE
  5
39
102
{ACAD_REACTORS
330
2A
102
}
330
2A
100
AcDbVisualStyle
  2
Facepattern
 70
    15
177
     2
291
     1
 71
     2
176
     1
 72
     2
176
     1
 73
     0
176
     1
 90
        0
176
     1
 40
-0.6
176
     1
 41
-30.0
176
     1
 62
     5
 63
     7
421
 16777215
176
     1
 74
     1
176
     1
 91
        4
176
     1
 64
     7
176
     1
 65
   257
176
     1
 75
     1
176
     1
175
     1
176
     1
 42
1.0
176
     1
 92
        8
176
     1
 66
     7
176
     1
 43
1.0
176
     1
 76
     1
176
     1
 77
     6
176
     1
 78
     2
176
     1
 67
     7
176
     1
 79
     5
176
     1
170
     0
176
     1
171
     0
176
     1
290
     0
176
     1
 93
        1
176
     1
 44
0.0
176
     1
173
     0
176
     1
  0
VISUALSTYLE
  5
2B
102
{ACAD_REACTORS
330
2A
102
}
330
2A
100
AcDbVisualStyle
  2
Flat
 70
     0
177
     2
291
     1
 71
     2
176
     1
 72
     1
176
     1
 73
     1
176
     1
 90
        2
176
     1
 40
-0.6
176
     1
 41
30.0
176
     1
 62
     5
 63
     7
421
 16777215
176
     1
 74
     0
176
     1
 91
        4
176
     1
 64
     7
176
     1
 65
   257
176
     1
 75
     1
176
     1
175
     1
176
     1
 42
1.0
176
     1
 92
        8
176
     1
 66
     7
176
     1
 43
1.0
176
     1
 76
     1
176
     1
 77
     6
176
     1
 78
     2
176
     1
 67
     7
176
     1
 79
     5
176
     1
170
     0
176
     1
171
     0
176
     1
290
     0
176
     1
 93
       13
176
     1
 44
0.0
176
     1
173
     0
176
     1
  0
VISUALSTYLE
  5
2C
102
{ACAD_REACTORS
330
2A
102
}
330
2A
100
AcDbVisualStyle
  2
FlatWithEdges
 70
     1
177
     2
291
     1
 71
     2
176
     1
 72
     1
176
     1
 73
     1
176
     1
 90
        2
176
     1
 40
-0.6
176
     1
 41
30.0
176
     1
 62
     5
 63
     7
421
 16777215
176
     1
 74
     1
176
     1
 91
        4
176
     1
 64
     7
176
     1
 65
   257
176
     1
 75
     1
176
     1
175
     1
176
     1
 42
1.0
176
     1
 92
        0
176
     1
 66
   257
176
     1
 43
1.0
176
     1
 76
     1
176
     1
 77
     6
176
     1
 78
     2
176
     1
 67
     7
176
     1
 79
     5
176
     1
170
     0
176
     1
171
     0
176
     1
290
     0
176
     1
 93
       13
176
     1
 44
0.0
176
     1
173
     0
176
     1
  0
VISUALSTYLE
  5
2D
102
{ACAD_REACTORS
330
2A
102
}
330
2A
100
AcDbVisualStyle
  2
Gouraud
 70
     2
177
     2
291
     1
 71
     2
176
     1
 72
     2
176
     1
 73
     1
176
     1
 90
        2
176
     1
 40
-0.6
176
     1
 41
30.0
176
     1
 62
     5
 63
     7
421
 16777215
176
     1
 74
     0
176
     1
 91
        4
176
     1
 64
     7
176
     1
 65
   257
176
     1
 75
     1
176
     1
175
     1
176
     1
 42
1.0
176
     1
 92
        0
176
     1
 66
     7
176
     1
 43
1.0
176
     1
 76
     1
176
     1
 77
     6
176
     1
 78
     2
176
     1
 67
     7
176
     1
 79
     5
176
     1
170
     0
176
     1
171
     0
176
     1
290
     0
176
     1
 93
       13
176
     1
 44
0.0
176
     1
173
     0
176
     1
  0
VISUALSTYLE
  5
2E
102
{ACAD_REACTORS
330
2A
102
}
330
2A
100
AcDbVisualStyle
  2
GouraudWithEdges
 70
     3
177
     2
291
     1
 71
     2
176
     1
 72
     2
176
     1
 73
     1
176
     1
 90
        2
176
     1
 40
-0.6
176
     1
 41
30.0
176
     1
 62
     5
 63
     7
421
 16777215
176
     1
 74
     1
176
     1
 91
        4
176
     1
 64
     7
176
     1
 65
   257
176
     1
 75
     1
176
     1
175
     1
176
     1
 42
1.0
176
     1
 92
        0
176
     1
 66
   257
176
     1
 43
1.0
176
     1
 76
     1
176
     1
 77
     6
176
     1
 78
     2
176
     1
 67
     7
176
     1
 79
     5
176
     1
170
     0
176
     1
171
     0
176
     1
290
     0
176
     1
 93
       13
176
     1
 44
0.0
176
     1
173
     0
176
     1
  0
VISUALSTYLE
  5
38
102
{ACAD_REACTORS
330
2A
102
}
330
2A
100
AcDbVisualStyle
  2
Linepattern
 70
    14
177
     2
291
     1
 71
     2
176
     1
 72
     2
176
     1
 73
     0
176
     1
 90
        0
176
     1
 40
-0.6
176
     1
 41
-30.0
176
     1
 62
     5
 63
     7
421
 16777215
176
     1
 74
     1
176
     1
 91
        4
176
     1
 64
     7
176
     1
 65
   257
176
     1
 75
     7
176
     1
175
     7
176
     1
 42
1.0
176
     1
 92
        8
176
     1
 66
     7
176
     1
 43
1.0
176
     1
 76
     1
176
     1
 77
     6
176
     1
 78
     2
176
     1
 67
     7
176
     1
 79
     5
176
     1
170
     0
176
     1
171
     0
176
     1
290
     0
176
     1
 93
        1
176
     1
 44
0.0
176
     1
173
     0
176
     1
  0
VISUALSTYLE
  5
33
102
{ACAD_REACTORS
330
2A
102
}
330
2A
100
AcDbVisualStyle
  2
Realistic
 70
     8
177
     2
291
     0
 71
     2
176
     1
 72
     2
176
     1
 73
     0
176
     1
 90
        0
176
     1
 40
-0.6
176
     1
 41
-30.0
176
     1
 62
     5
 63
     7
421
 16777215
176
     1
 74
     1
176
     1
 91
        0
176
     1
 64
     7
176
     1
 65
   257
176
     1
 75
     1
176
     1
175
     1
176
     1
 42
1.0
176
     1
 92
        8
176
     1
 66
     8
424
  7895160
176
     1
 43
1.0
176
     1
 76
     1
176
     1
 77
     6
176
     1
 78
     2
176
     1
 67
     7
176
     1
 79
     5
176
     1
170
     0
176
     1
171
     0
176
     1
290
     0
176
     1
 93
       13
176
     1
 44
0.0
176
     1
173
     0
176
     1
  0
VISUALSTYLE
  5
37
102
{ACAD_REACTORS
330
2A
102
}
330
2A
100
AcDbVisualStyle
  2
Thicken
 70
    13
177
     2
291
     1
 71
     2
176
     1
 72
     2
176
     1
 73
     0
176
     1
 90
        0
176
     1
 40
-0.6
176
     1
 41
-30.0
176
     1
 62
     5
 63
     7
421
 16777215
176
     1
 74
     1
176
     1
 91
        4
176
     1
 64
     7
176
     1
 65
   257
176
     1
 75
     1
176
     1
175
     1
176
     1
 42
1.0
176
     1
 92
       12
176
     1
 66
     7
176
     1
 43
1.0
176
     1
 76
     1
176
     1
 77
     6
176
     1
 78
     2
176
     1
 67
     7
176
     1
 79
     5
176
     1
170
     0
176
     1
171
     0
176
     1
290
     0
176
     1
 93
        1
176
     1
 44
0.0
176
     1
173
     0
176
     1
  0
ENDSEC
  0
EOF
