  0
SECTION
  2
HEADER
  9
$ACADVER
  1
AC1024
  9
$ACADMAINTVER
 70
     6
  9
$DWGCODEPAGE
  3
UNDEFINED
  9
$INSBASE
 10
0.0
 20
0.0
 30
0.0
  9
$EXTMIN
 10
1.000000000000000E+20
 20
1.000000000000000E+20
 30
1.000000000000000E+20
  9
$EXTMAX
 10
-1.000000000000000E+20
 20
-1.000000000000000E+20
 30
-1.000000000000000E+20
  9
$LIMMIN
 10
0.0
 20
0.0
  9
$LIMMAX
 10
12.0
 20
9.0
  9
$ORTHOMODE
 70
     0
  9
$REGENMODE
 70
     1
  9
$FILLMODE
 70
     1
  9
$QTEXTMODE
 70
     0
  9
$MIRRTEXT
 70
     1
  9
$LTSCALE
 40
1.0
  9
$ATTMODE
 70
     1
  9
$TEXTSIZE
 40
0.2
  9
$TRACEWID
 40
0.05
  9
$TEXTSTYLE
  7
Standard
  9
$CLAYER
  8
0
  9
$CELTYPE
  6
ByLayer
  9
$CECOLOR
 62
   256
  9
$CELTSCALE
 40
1.0
  9
$DISPSILH
 70
     0
  9
$DIMSCALE
 40
1.0
  9
$DIMASZ
 40
0.18
  9
$DIMEXO
 40
0.0625
  9
$DIMDLI
 40
0.38
  9
$DIMRND
 40
0.0
  9
$DIMDLE
 40
0.0
  9
$DIMEXE
 40
0.18
  9
$DIMTP
 40
0.0
  9
$DIMTM
 40
0.0
  9
$DIMTXT
 40
0.18
  9
$DIMCEN
 40
0.09
  9
$DIMTSZ
 40
0.0
  9
$DIMTOL
 70
     0
  9
$DIMLIM
 70
     0
  9
$DIMTIH
 70
     1
  9
$DIMTOH
 70
     1
  9
$DIMSE1
 70
     0
  9
$DIMSE2
 70
     0
  9
$DIMTAD
 70
     0
  9
$DIMZIN
 70
     0
  9
$DIMBLK
  1

  9
$DIMASO
 70
     1
  9
$DIMSHO
 70
     1
  9
$DIMPOST
  1

  9
$DIMAPOST
  1

  9
$DIMALT
 70
     0
  9
$DIMALTD
 70
     2
  9
$DIMALTF
 40
25.4
  9
$DIMLFAC
 40
1.0
  9
$DIMTOFL
 70
     0
  9
$DIMTVP
 40
0.0
  9
$DIMTIX
 70
     0
  9
$DIMSOXD
 70
     0
  9
$DIMSAH
 70
     0
  9
$DIMBLK1
  1

  9
$DIMBLK2
  1

  9
$DIMSTYLE
  2
Standard
  9
$DIMCLRD
 70
     0
  9
$DIMCLRE
 70
     0
  9
$DIMCLRT
 70
     0
  9
$DIMTFAC
 40
1.0
  9
$DIMGAP
 40
0.09
  9
$DIMJUST
 70
     0
  9
$DIMSD1
 70
     0
  9
$DIMSD2
 70
     0
  9
$DIMTOLJ
 70
     1
  9
$DIMTZIN
 70
     0
  9
$DIMALTZ
 70
     0
  9
$DIMALTTZ
 70
     0
  9
$DIMUPT
 70
     0
  9
$DIMDEC
 70
     4
  9
$DIMTDEC
 70
     4
  9
$DIMALTU
 70
     2
  9
$DIMALTTD
 70
     2
  9
$DIMTXSTY
  7
Standard
  9
$DIMAUNIT
 70
     0
  9
$DIMADEC
 70
     0
  9
$DIMALTRND
 40
0.0
  9
$DIMAZIN
 70
     0
  9
$DIMDSEP
 70
    46
  9
$DIMATFIT
 70
     3
  9
$DIMFRAC
 70
     0
  9
$DIMLDRBLK
  1

  9
$DIMLUNIT
 70
     2
  9
$DIMLWD
 70
    -2
  9
$DIMLWE
 70
    -2
  9
$DIMTMOVE
 70
     0
  9
$DIMFXL
 40
1.0
  9
$DIMFXLON
 70
     0
  9
$DIMJOGANG
 40
0.7853981633974483
  9
$DIMTFILL
 70
     0
  9
$DIMTFILLCLR
 70
     0
  9
$DIMARCSYM
 70
     0
  9
$DIMLTYPE
  6

  9
$DIMLTEX1
  6

  9
$DIMLTEX2
  6

  9
$DIMTXTDIRECTION
 70
     0
  9
$LUNITS
 70
     2
  9
$LUPREC
 70
     4
  9
$SKETCHINC
 40
0.1
  9
$FILLETRAD
 40
0.5
  9
$AUNITS
 70
     0
  9
$AUPREC
 70
     0
  9
$MENU
  1
.
  9
$ELEVATION
 40
0.0
  9
$PELEVATION
 40
0.0
  9
$THICKNESS
 40
0.0
  9
$LIMCHECK
 70
     0
  9
$CHAMFERA
 40
0.5
  9
$CHAMFERB
 40
0.5
  9
$CHAMFERC
 40
1.0
  9
$CHAMFERD
 40
0.0
  9
$SKPOLY
 70
     0
  9
$TDCREATE
 40
2457917.609074063
  9
$TDUCREATE
 40
2457917.234074074
  9
$TDUPDATE
 40
2457917.609074063
  9
$TDUUPDATE
 40
2457917.234074074
  9
$TDINDWG
 40
0.0000000116
  9
$TDUSRTIMER
 40
0.0000000116
  9
$USRTIMER
 70
     1
  9
$ANGBASE
 50
0.0
  9
$ANGDIR
 70
     0
  9
$PDMODE
 70
     0
  9
$PDSIZE
 40
0.0
  9
$PLINEWID
 40
0.0
  9
$SPLFRAME
 70
     0
  9
$SPLINETYPE
 70
     6
  9
$SPLINESEGS
 70
     8
  9
$HANDSEED
  5
F5
  9
$SURFTAB1
 70
     6
  9
$SURFTAB2
 70
     6
  9
$SURFTYPE
 70
     6
  9
$SURFU
 70
     6
  9
$SURFV
 70
     6
  9
$UCSBASE
  2

  9
$UCSNAME
  2

  9
$UCSORG
 10
0.0
 20
0.0
 30
0.0
  9
$UCSXDIR
 10
1.0
 20
0.0
 30
0.0
  9
$UCSYDIR
 10
0.0
 20
1.0
 30
0.0
  9
$UCSORTHOREF
  2

  9
$UCSORTHOVIEW
 70
     0
  9
$UCSORGTOP
 10
0.0
 20
0.0
 30
0.0
  9
$UCSORGBOTTOM
 10
0.0
 20
0.0
 30
0.0
  9
$UCSORGLEFT
 10
0.0
 20
0.0
 30
0.0
  9
$UCSORGRIGHT
 10
0.0
 20
0.0
 30
0.0
  9
$UCSORGFRONT
 10
0.0
 20
0.0
 30
0.0
  9
$UCSORGBACK
 10
0.0
 20
0.0
 30
0.0
  9
$PUCSBASE
  2

  9
$PUCSNAME
  2

  9
$PUCSORG
 10
0.0
 20
0.0
 30
0.0
  9
$PUCSXDIR
 10
1.0
 20
0.0
 30
0.0
  9
$PUCSYDIR
 10
0.0
 20
1.0
 30
0.0
  9
$PUCSORTHOREF
  2

  9
$PUCSORTHOVIEW
 70
     0
  9
$PUCSORGTOP
 10
0.0
 20
0.0
 30
0.0
  9
$PUCSORGBOTTOM
 10
0.0
 20
0.0
 30
0.0
  9
$PUCSORGLEFT
 10
0.0
 20
0.0
 30
0.0
  9
$PUCSORGRIGHT
 10
0.0
 20
0.0
 30
0.0
  9
$PUCSORGFRONT
 10
0.0
 20
0.0
 30
0.0
  9
$PUCSORGBACK
 10
0.0
 20
0.0
 30
0.0
  9
$USERI1
 70
     0
  9
$USERI2
 70
     0
  9
$USERI3
 70
     0
  9
$USERI4
 70
     0
  9
$USERI5
 70
     0
  9
$USERR1
 40
0.0
  9
$USERR2
 40
0.0
  9
$USERR3
 40
0.0
  9
$USERR4
 40
0.0
  9
$USERR5
 40
0.0
  9
$WORLDVIEW
 70
     1
  9
$SHADEDGE
 70
     3
  9
$SHADEDIF
 70
    70
  9
$TILEMODE
 70
     1
  9
$MAXACTVP
 70
    64
  9
$PINSBASE
 10
0.0
 20
0.0
 30
0.0
  9
$PLIMCHECK
 70
     0
  9
$PEXTMIN
 10
1.000000000000000E+20
 20
1.000000000000000E+20
 30
1.000000000000000E+20
  9
$PEXTMAX
 10
-1.000000000000000E+20
 20
-1.000000000000000E+20
 30
-1.000000000000000E+20
  9
$PLIMMIN
 10
0.0
 20
0.0
  9
$PLIMMAX
 10
12.0
 20
9.0
  9
$UNITMODE
 70
     0
  9
$VISRETAIN
 70
     1
  9
$PLINEGEN
 70
     0
  9
$PSLTSCALE
 70
     1
  9
$TREEDEPTH
 70
  3020
  9
$CMLSTYLE
  2
Standard
  9
$CMLJUST
 70
     0
  9
$CMLSCALE
 40
1.0
  9
$PROXYGRAPHICS
 70
     1
  9
$MEASUREMENT
 70
     0
  9
$CELWEIGHT
370
    -1
  9
$ENDCAPS
280
     0
  9
$JOINSTYLE
280
     0
  9
$LWDISPLAY
290
     1
  9
$INSUNITS
 70
     1
  9
$HYPERLINKBASE
  1

  9
$STYLESHEET
  1

  9
$XEDIT
290
     1
  9
$CEPSNTYPE
380
     0
  9
$PSTYLEMODE
290
     1
  9
$FINGERPRINTGUID
  2
{A38D6DEB-C93E-CEA4-731D-86ED64CF021F}
  9
$VERSIONGUID
  2
{FAEB1C32-E019-11D5-929B-00C0DF256EC4}
  9
$EXTNAMES
290
     1
  9
$PSVPSCALE
 40
0.0
  9
$OLESTARTUP
290
     0
  9
$SORTENTS
280
   127
  9
$INDEXCTL
280
     0
  9
$HIDETEXT
280
     1
  9
$XCLIPFRAME
280
     2
  9
$HALOGAP
280
     0
  9
$OBSCOLOR
 70
   257
  9
$OBSLTYPE
280
     0
  9
$INTERSECTIONDISPLAY
280
     0
  9
$INTERSECTIONCOLOR
 70
   257
  9
$DIMASSOC
280
     2
  9
$PROJECTNAME
  1

  9
$CAMERADISPLAY
290
     0
  9
$LENSLENGTH
 40
50.0
  9
$CAMERAHEIGHT
 40
0.0
  9
$STEPSPERSEC
 40
2.0
  9
$STEPSIZE
 40
6.0
  9
$3DDWFPREC
 40
2.0
  9
$PSOLWIDTH
 40
0.25
  9
$PSOLHEIGHT
 40
4.0
  9
$LOFTANG1
 40
1.570796326794897
  9
$LOFTANG2
 40
1.570796326794897
  9
$LOFTMAG1
 40
0.0
  9
$LOFTMAG2
 40
0.0
  9
$LOFTPARAM
 70
     7
  9
$LOFTNORMALS
280
     1
  9
$LATITUDE
 40
37.795
  9
$LONGITUDE
 40
-122.394
  9
$NORTHDIRECTION
 40
0.0
  9
$TIMEZONE
 70
 -8000
  9
$LIGHTGLYPHDISPLAY
280
     1
  9
$TILEMODELIGHTSYNCH
280
     1
  9
$CMATERIAL
347
3C
  9
$SOLIDHIST
280
     1
  9
$SHOWHIST
280
     1
  9
$DWFFRAME
280
     2
  9
$DGNFRAME
280
     2
  9
$REALWORLDSCALE
290
     1
  9
$INTERFERECOLOR
 62
   256
  9
$CSHADOW
280
     0
  9
$SHADOWPLANELOCATION
 40
0.0
  0
ENDSEC
  0
SECTION
  2
CLASSES
  0
CLASS
  1
ACDBDICTIONARYWDFLT
  2
AcDbDictionaryWithDefault
  3
ObjectDBX Classes
 90
        0
 91
        4
280
     0
281
     0
  0
CLASS
  1
VISUALSTYLE
  2
AcDbVisualStyle
  3
ObjectDBX Classes
 90
     4095
 91
        4
280
     0
281
     0
  0
CLASS
  1
MATERIAL
  2
AcDbMaterial
  3
ObjectDBX Classes
 90
     1153
 91
        4
280
     0
281
     0
  0
CLASS
  1
SUN
  2
AcDbSun
  3
SCENEOE
 90
     1024
 91
        4
280
     0
281
     0
  0
ENDSEC
  0
SECTION
  2
TABLES
  0
TABLE
  2
VPORT
  5
8
330
0
100
AcDbSymbolTable
 70
     1
  0
VPORT
  5
29
330
8
100
AcDbSymbolTableRecord
100
AcDbViewportTableRecord
  2
*Active
 70
     0
 10
0.0
 20
0.0
 11
1.0
 21
1.0
 12
0.0
 22
0.0
 13
0.0
 23
0.0
 14
0.5
 24
0.5
 15
0.5
 25
0.5
 16
0.0
 26
0.0
 36
1.0
 17
91.00082462281999
 27
-128.4993055234307
 37
0.0
 40
256.9986110468615
 41
0.7081814508812795
 42
50.0
 43
0.0
 44
0.0
 50
0.0
 51
0.0
 71
     0
 72
   100
 73
     1
 74
     3
 75
     0
 76
     0
 77
     0
 78
     0
281
     0
 65
     1
110
0.0
120
0.0
130
0.0
111
1.0
121
0.0
131
0.0
112
0.0
122
1.0
132
0.0
 79
     0
146
0.0
 60
     3
 61
     5
292
     1
282
     1
141
0.0
142
0.0
 63
   250
361
3F
  0
ENDTAB
  0
TABLE
  2
LTYPE
  5
5
330
0
100
AcDbSymbolTable
 70
     1
  0
LTYPE
  5
14
330
5
100
AcDbSymbolTableRecord
100
AcDbLinetypeTableRecord
  2
ByBlock
 70
     0
  3

 72
    65
 73
     0
 40
0.0
  0
LTYPE
  5
15
330
5
100
AcDbSymbolTableRecord
100
AcDbLinetypeTableRecord
  2
ByLayer
 70
     0
  3

 72
    65
 73
     0
 40
0.0
  0
LTYPE
  5
16
330
5
100
AcDbSymbolTableRecord
100
AcDbLinetypeTableRecord
  2
Continuous
 70
     0
  3
Solid line
 72
    65
 73
     0
 40
0.0
  0
ENDTAB
  0
TABLE
  2
LAYER
  5
2
330
0
100
AcDbSymbolTable
 70
     2
  0
LAYER
  5
10
330
2
100
AcDbSymbolTableRecord
100
AcDbLayerTableRecord
  2
0
 70
     0
 62
     7
  6
Continuous
370
    -3
390
F
347
3E
  0
LAYER
  5
40
330
2
100
AcDbSymbolTableRecord
100
AcDbLayerTableRecord
  2
_U+30EC_U+30A4_U+30E4_U+30FC 1
 70
     0
 62
     7
  6
Continuous
370
    -3
390
F
347
3E
  0
ENDTAB
  0
TABLE
  2
STYLE
  5
3
330
0
100
AcDbSymbolTable
 70
     1
  0
STYLE
  5
11
330
3
100
AcDbSymbolTableRecord
100
AcDbTextStyleTableRecord
  2
Standard
 70
     0
 40
0.0
 41
1.0
 50
0.0
 71
     0
 42
0.2
  3
txt
  4

  0
ENDTAB
  0
TABLE
  2
VIEW
  5
6
330
0
100
AcDbSymbolTable
 70
     0
  0
ENDTAB
  0
TABLE
  2
UCS
  5
7
330
0
100
AcDbSymbolTable
 70
     0
  0
ENDTAB
  0
TABLE
  2
APPID
  5
9
330
0
100
AcDbSymbolTable
 70
     1
  0
APPID
  5
12
330
9
100
AcDbSymbolTableRecord
100
AcDbRegAppTableRecord
  2
ACAD
 70
     0
  0
ENDTAB
  0
TABLE
  2
DIMSTYLE
  5
A
330
0
100
AcDbSymbolTable
 70
     1
100
AcDbDimStyleTable
  0
DIMSTYLE
105
27
330
A
100
AcDbSymbolTableRecord
100
AcDbDimStyleTableRecord
  2
Standard
 70
     0
178
     0
340
11
  0
ENDTAB
  0
TABLE
  2
BLOCK_RECORD
  5
1
330
0
100
AcDbSymbolTable
 70
     4
  0
BLOCK_RECORD
  5
1F
330
1
100
AcDbSymbolTableRecord
100
AcDbBlockTableRecord
  2
*Model_Space
340
22
 70
     0
280
     1
281
     0
  0
BLOCK_RECORD
  5
1B
330
1
100
AcDbSymbolTableRecord
100
AcDbBlockTableRecord
  2
*Paper_Space
340
1E
 70
     0
280
     1
281
     0
  0
BLOCK_RECORD
  5
23
330
1
100
AcDbSymbolTableRecord
100
AcDbBlockTableRecord
  2
*Paper_Space0
340
26
 70
     0
280
     1
281
     0
  0
BLOCK_RECORD
  5
98
330
1
100
AcDbSymbolTableRecord
100
AcDbBlockTableRecord
  2
block 2
340
0
102
{BLKREFS
331
99
102
}
 70
     0
280
     1
281
     0
  0
BLOCK_RECORD
  5
BA
330
1
100
AcDbSymbolTableRecord
100
AcDbBlockTableRecord
  2
block 3
340
0
102
{BLKREFS
331
BB
102
}
 70
     0
280
     1
281
     0
  0
BLOCK_RECORD
  5
E4
330
1
100
AcDbSymbolTableRecord
100
AcDbBlockTableRecord
  2
block 4
340
0
102
{BLKREFS
331
E5
102
}
 70
     0
280
     1
281
     0
  0
ENDTAB
  0
ENDSEC
  0
SECTION
  2
BLOCKS
  0
BLOCK
  5
20
330
1F
100
AcDbEntity
  8
0
100
AcDbBlockBegin
  2
*Model_Space
 70
     0
 10
0.0
 20
0.0
 30
0.0
  3
*Model_Space
  1

  0
ENDBLK
  5
21
330
1F
100
AcDbEntity
  8
0
100
AcDbBlockEnd
  0
BLOCK
  5
1C
330
1B
100
AcDbEntity
 67
     1
  8
0
100
AcDbBlockBegin
  2
*Paper_Space
 70
     0
 10
0.0
 20
0.0
 30
0.0
  3
*Paper_Space
  1

  0
ENDBLK
  5
1D
330
1B
100
AcDbEntity
 67
     1
  8
0
100
AcDbBlockEnd
  0
BLOCK
  5
24
330
23
100
AcDbEntity
  8
0
100
AcDbBlockBegin
  2
*Paper_Space0
 70
     0
 10
0.0
 20
0.0
 30
0.0
  3
*Paper_Space0
  1

  0
ENDBLK
  5
25
330
23
100
AcDbEntity
  8
0
100
AcDbBlockEnd
  0
BLOCK
  5
9A
330
98
100
AcDbEntity
  8
0
100
AcDbBlockBegin
  2
block 2
 70
     0
 10
0.0
 20
0.0
 30
0.0
  3
block 2
  1

  0
SPLINE
  5
9C
330
98
100
AcDbEntity
  8
_U+30EC_U+30A4_U+30E4_U+30FC 1
370
     0
100
AcDbSpline
210
0.0
220
0.0
230
1.0
 70
    11
 71
     3
 72
    26
 73
    22
 74
     0
 42
0.0000000001
 43
0.0000000001
 12
1.0
 22
0.0
 32
0.0
 13
1.0
 23
0.0
 33
0.0
 40
0.0
 40
0.0
 40
0.0
 40
0.0
 40
1.0
 40
1.0
 40
1.0
 40
2.0
 40
2.0
 40
2.0
 40
3.0
 40
3.0
 40
3.0
 40
4.0
 40
4.0
 40
4.0
 40
5.0
 40
5.0
 40
5.0
 40
6.0
 40
6.0
 40
6.0
 40
7.0
 40
7.0
 40
7.0
 40
7.0
 10
93.71555444705723
 20
-140.161987269647
 30
0.0
 10
93.71555444705723
 20
-140.161987269647
 30
0.0
 10
93.71555444705723
 20
-139.0574896570759
 30
0.0
 10
93.71555444705723
 20
-139.0574896570759
 30
0.0
 10
93.71555444705723
 20
-139.0574896570759
 30
0.0
 10
93.39757213376866
 20
-139.0574896570759
 30
0.0
 10
93.39757213376866
 20
-139.0574896570759
 30
0.0
 10
93.39757213376866
 20
-139.0574896570759
 30
0.0
 10
93.39757213376866
 20
-138.9093505512102
 30
0.0
 10
93.39757213376866
 20
-138.9093505512102
 30
0.0
 10
93.71762150434837
 20
-138.8945366406236
 30
0.0
 10
93.76275225520514
 20
-138.7319281337198
 30
0.0
 10
93.79134654773273
 20
-138.6175509636095
 30
0.0
 10
93.79134654773273
 20
-138.6175509636095
 30
0.0
 10
93.93190644353092
 20
-138.6175509636095
 30
0.0
 10
93.93190644353092
 20
-138.6175509636095
 30
0.0
 10
93.93190644353092
 20
-138.6175509636095
 30
0.0
 10
93.93190644353092
 20
-140.161987269647
 30
0.0
 10
93.93190644353092
 20
-140.161987269647
 30
0.0
 10
93.93190644353092
 20
-140.161987269647
 30
0.0
 10
93.71555444705723
 20
-140.161987269647
 30
0.0
 10
93.71555444705723
 20
-140.161987269647
 30
0.0
  0
HATCH
  5
9D
330
98
100
AcDbEntity
  8
_U+30EC_U+30A4_U+30E4_U+30FC 1
 62
   179
420
  2234388
100
AcDbHatch
 10
0.0
 20
0.0
 30
0.0
210
0.0
220
0.0
230
1.0
  2
SOLID
 70
     1
 71
     0
 91
        1
 92
        1
 93
        1
 72
     4
 94
        3
 73
     0
 74
     1
 95
       26
 96
       22
 40
0.0
 40
0.0
 40
0.0
 40
0.0
 40
1.0
 40
1.0
 40
1.0
 40
2.0
 40
2.0
 40
2.0
 40
3.0
 40
3.0
 40
3.0
 40
4.0
 40
4.0
 40
4.0
 40
5.0
 40
5.0
 40
5.0
 40
6.0
 40
6.0
 40
6.0
 40
7.0
 40
7.0
 40
7.0
 40
7.0
 10
93.71555444705723
 20
-140.161987269647
 10
93.71555444705723
 20
-140.161987269647
 10
93.71555444705723
 20
-139.0574896570759
 10
93.71555444705723
 20
-139.0574896570759
 10
93.71555444705723
 20
-139.0574896570759
 10
93.39757213376866
 20
-139.0574896570759
 10
93.39757213376866
 20
-139.0574896570759
 10
93.39757213376866
 20
-139.0574896570759
 10
93.39757213376866
 20
-138.9093505512102
 10
93.39757213376866
 20
-138.9093505512102
 10
93.71762150434837
 20
-138.8945366406236
 10
93.76275225520514
 20
-138.7319281337198
 10
93.79134654773273
 20
-138.6175509636095
 10
93.79134654773273
 20
-138.6175509636095
 10
93.93190644353092
 20
-138.6175509636095
 10
93.93190644353092
 20
-138.6175509636095
 10
93.93190644353092
 20
-138.6175509636095
 10
93.93190644353092
 20
-140.161987269647
 10
93.93190644353092
 20
-140.161987269647
 10
93.93190644353092
 20
-140.161987269647
 10
93.71555444705723
 20
-140.161987269647
 10
93.71555444705723
 20
-140.161987269647
 97
        0
 97
        0
 75
     2
 76
     1
 98
        0
  0
SPLINE
  5
9E
330
98
100
AcDbEntity
  8
_U+30EC_U+30A4_U+30E4_U+30FC 1
370
     0
100
AcDbSpline
210
0.0
220
0.0
230
1.0
 70
    11
 71
     3
 72
    32
 73
    28
 74
     0
 42
0.0000000001
 43
0.0000000001
 12
1.0
 22
0.0
 32
0.0
 13
1.0
 23
0.0
 33
0.0
 40
0.0
 40
0.0
 40
0.0
 40
0.0
 40
1.0
 40
1.0
 40
1.0
 40
2.0
 40
2.0
 40
2.0
 40
3.0
 40
3.0
 40
3.0
 40
4.0
 40
4.0
 40
4.0
 40
5.0
 40
5.0
 40
5.0
 40
6.0
 40
6.0
 40
6.0
 40
7.0
 40
7.0
 40
7.0
 40
8.0
 40
8.0
 40
8.0
 40
9.0
 40
9.0
 40
9.0
 40
9.0
 10
94.85519203357788
 20
-140.2126301732802
 30
0.0
 10
94.68810490254326
 20
-140.2126301732802
 30
0.0
 10
94.4514268427066
 20
-140.1426947349296
 30
0.0
 10
94.41456432101442
 20
-139.8105875301515
 30
0.0
 10
94.41456432101442
 20
-139.8105875301515
 30
0.0
 10
94.62058103103236
 20
-139.8105875301515
 30
0.0
 10
94.62058103103236
 20
-139.8105875301515
 30
0.0
 10
94.63091631748811
 20
-139.8698431724978
 30
0.0
 10
94.66157766730683
 20
-140.0179822783636
 30
0.0
 10
94.85725909086902
 20
-140.0179822783636
 30
0.0
 10
95.13872339201393
 20
-140.0179822783636
 30
0.0
 10
95.1755859137061
 20
-139.6879421308766
 30
0.0
 10
95.18764374790449
 20
-139.4826144399557
 30
0.0
 10
95.10013832257914
 20
-139.5632296743106
 30
0.0
 10
95.03468150835938
 20
-139.6204182593657
 30
0.0
 10
94.85932614816018
 20
-139.6204182593657
 30
0.0
 10
94.6860378452521
 20
-139.6204182593657
 30
0.0
 10
94.39423825765145
 20
-139.5146538279686
 30
0.0
 10
94.39423825765145
 20
-139.1084770702576
 30
0.0
 10
94.39423825765145
 20
-138.7887722092264
 30
0.0
 10
94.58578556663133
 20
-138.5689751172675
 30
0.0
 10
94.89205455527005
 20
-138.5689751172675
 30
0.0
 10
95.38780379559749
 20
-138.5689751172675
 30
0.0
 10
95.39779457250472
 20
-139.1232909808442
 30
0.0
 10
95.39779457250472
 20
-139.3368869009297
 30
0.0
 10
95.39779457250472
 20
-139.5673637888929
 30
0.0
 10
95.37953556643289
 20
-140.2126301732802
 30
0.0
 10
94.85519203357788
 20
-140.2126301732802
 30
0.0
  0
SPLINE
  5
9F
330
98
100
AcDbEntity
  8
_U+30EC_U+30A4_U+30E4_U+30FC 1
370
     0
100
AcDbSpline
210
0.0
220
0.0
230
1.0
 70
    11
 71
     3
 72
    17
 73
    13
 74
     0
 42
0.0000000001
 43
0.0000000001
 12
1.0
 22
0.0
 32
0.0
 13
1.0
 23
0.0
 33
0.0
 40
0.0
 40
0.0
 40
0.0
 40
0.0
 40
1.0
 40
1.0
 40
1.0
 40
2.0
 40
2.0
 40
2.0
 40
3.0
 40
3.0
 40
3.0
 40
4.0
 40
4.0
 40
4.0
 40
4.0
 10
94.8941216125612
 20
-138.7615559548929
 30
0.0
 10
94.7797444424509
 20
-138.7615559548929
 30
0.0
 10
94.61059025412513
 20
-138.8184000303996
 30
0.0
 10
94.61059025412513
 20
-139.1039984461268
 30
0.0
 10
94.61059025412513
 20
-139.3303412195077
 30
0.0
 10
94.74494897804988
 20
-139.4257703644491
 30
0.0
 10
94.87551809694085
 20
-139.4257703644491
 30
0.0
 10
95.12873261510671
 20
-139.4257703644491
 30
0.0
 10
95.16525062725036
 20
-139.2163085589459
 30
0.0
 10
95.16525062725036
 20
-139.0998643315445
 30
0.0
 10
95.16525062725036
 20
-138.9241644617967
 30
0.0
 10
95.07361108734271
 20
-138.7615559548929
 30
0.0
 10
94.8941216125612
 20
-138.7615559548929
 30
0.0
  0
HATCH
  5
A0
330
98
100
AcDbEntity
  8
_U+30EC_U+30A4_U+30E4_U+30FC 1
 62
   179
420
  2234388
100
AcDbHatch
 10
0.0
 20
0.0
 30
0.0
210
0.0
220
0.0
230
1.0
  2
SOLID
 70
     1
 71
     0
 91
        2
 92
        1
 93
        1
 72
     4
 94
        3
 73
     0
 74
     1
 95
       32
 96
       28
 40
0.0
 40
0.0
 40
0.0
 40
0.0
 40
1.0
 40
1.0
 40
1.0
 40
2.0
 40
2.0
 40
2.0
 40
3.0
 40
3.0
 40
3.0
 40
4.0
 40
4.0
 40
4.0
 40
5.0
 40
5.0
 40
5.0
 40
6.0
 40
6.0
 40
6.0
 40
7.0
 40
7.0
 40
7.0
 40
8.0
 40
8.0
 40
8.0
 40
9.0
 40
9.0
 40
9.0
 40
9.0
 10
94.85519203357788
 20
-140.2126301732802
 10
94.68810490254326
 20
-140.2126301732802
 10
94.4514268427066
 20
-140.1426947349296
 10
94.41456432101442
 20
-139.8105875301515
 10
94.41456432101442
 20
-139.8105875301515
 10
94.62058103103236
 20
-139.8105875301515
 10
94.62058103103236
 20
-139.8105875301515
 10
94.63091631748811
 20
-139.8698431724978
 10
94.66157766730683
 20
-140.0179822783636
 10
94.85725909086902
 20
-140.0179822783636
 10
95.13872339201393
 20
-140.0179822783636
 10
95.1755859137061
 20
-139.6879421308766
 10
95.18764374790449
 20
-139.4826144399557
 10
95.10013832257914
 20
-139.5632296743106
 10
95.03468150835938
 20
-139.6204182593657
 10
94.85932614816018
 20
-139.6204182593657
 10
94.6860378452521
 20
-139.6204182593657
 10
94.39423825765145
 20
-139.5146538279686
 10
94.39423825765145
 20
-139.1084770702576
 10
94.39423825765145
 20
-138.7887722092264
 10
94.58578556663133
 20
-138.5689751172675
 10
94.89205455527005
 20
-138.5689751172675
 10
95.38780379559749
 20
-138.5689751172675
 10
95.39779457250472
 20
-139.1232909808442
 10
95.39779457250472
 20
-139.3368869009297
 10
95.39779457250472
 20
-139.5673637888929
 10
95.37953556643289
 20
-140.2126301732802
 10
94.85519203357788
 20
-140.2126301732802
 97
        0
 97
        0
 92
        1
 93
        1
 72
     4
 94
        3
 73
     0
 74
     1
 95
       17
 96
       13
 40
0.0
 40
0.0
 40
0.0
 40
0.0
 40
1.0
 40
1.0
 40
1.0
 40
2.0
 40
2.0
 40
2.0
 40
3.0
 40
3.0
 40
3.0
 40
4.0
 40
4.0
 40
4.0
 40
4.0
 10
94.8941216125612
 20
-138.7615559548929
 10
94.7797444424509
 20
-138.7615559548929
 10
94.61059025412513
 20
-138.8184000303996
 10
94.61059025412513
 20
-139.1039984461268
 10
94.61059025412513
 20
-139.3303412195077
 10
94.74494897804988
 20
-139.4257703644491
 10
94.87551809694085
 20
-139.4257703644491
 10
95.12873261510671
 20
-139.4257703644491
 10
95.16525062725036
 20
-139.2163085589459
 10
95.16525062725036
 20
-139.0998643315445
 10
95.16525062725036
 20
-138.9241644617967
 10
95.07361108734271
 20
-138.7615559548929
 10
94.8941216125612
 20
-138.7615559548929
 97
        0
 97
        0
 75
     2
 76
     1
 98
        0
  0
POLYLINE
  5
A1
330
98
100
AcDbEntity
  8
_U+30EC_U+30A4_U+30E4_U+30FC 1
370
     0
100
AcDb2dPolyline
 66
     1
 10
0.0
 20
0.0
 30
0.0
  0
VERTEX
  5
A2
330
A1
100
AcDbEntity
  8
_U+30EC_U+30A4_U+30E4_U+30FC 1
370
     0
100
AcDbVertex
100
AcDb2dVertex
 10
95.60518932071676
 20
-140.161987269647
 30
0.0
  0
VERTEX
  5
A3
330
A1
100
AcDbEntity
  8
_U+30EC_U+30A4_U+30E4_U+30FC 1
370
     0
100
AcDbVertex
100
AcDb2dVertex
 10
95.60518932071676
 20
-139.9101507896752
 30
0.0
  0
VERTEX
  5
A4
330
A1
100
AcDbEntity
  8
_U+30EC_U+30A4_U+30E4_U+30FC 1
370
     0
100
AcDbVertex
100
AcDb2dVertex
 10
95.84772404287835
 20
-139.9101507896752
 30
0.0
  0
VERTEX
  5
A5
330
A1
100
AcDbEntity
  8
_U+30EC_U+30A4_U+30E4_U+30FC 1
370
     0
100
AcDbVertex
100
AcDb2dVertex
 10
95.84772404287835
 20
-140.161987269647
 30
0.0
  0
VERTEX
  5
A6
330
A1
100
AcDbEntity
  8
_U+30EC_U+30A4_U+30E4_U+30FC 1
370
     0
100
AcDbVertex
100
AcDb2dVertex
 10
95.60518932071676
 20
-140.161987269647
 30
0.0
  0
SEQEND
  5
A7
330
A1
100
AcDbEntity
  8
_U+30EC_U+30A4_U+30E4_U+30FC 1
370
     0
  0
HATCH
  5
A8
330
98
100
AcDbEntity
  8
_U+30EC_U+30A4_U+30E4_U+30FC 1
 62
   179
420
  2234388
100
AcDbHatch
 10
0.0
 20
0.0
 30
0.0
210
0.0
220
0.0
230
1.0
  2
SOLID
 70
     1
 71
     0
 91
        1
 92
        1
 93
        4
 72
     1
 10
95.60518932071676
 20
-140.161987269647
 11
95.60518932071676
 21
-139.9101507896752
 72
     1
 10
95.60518932071676
 20
-139.9101507896752
 11
95.84772404287835
 21
-139.9101507896752
 72
     1
 10
95.84772404287835
 20
-139.9101507896752
 11
95.84772404287835
 21
-140.161987269647
 72
     1
 10
95.84772404287835
 20
-140.161987269647
 11
95.60518932071676
 21
-140.161987269647
 97
        0
 75
     2
 76
     1
 98
        0
  0
SPLINE
  5
A9
330
98
100
AcDbEntity
  8
_U+30EC_U+30A4_U+30E4_U+30FC 1
370
     0
100
AcDbSpline
210
0.0
220
0.0
230
1.0
 70
    11
 71
     3
 72
    53
 73
    49
 74
     0
 42
0.0000000001
 43
0.0000000001
 12
1.0
 22
0.0
 32
0.0
 13
1.0
 23
0.0
 33
0.0
 40
0.0
 40
0.0
 40
0.0
 40
0.0
 40
1.0
 40
1.0
 40
1.0
 40
2.0
 40
2.0
 40
2.0
 40
3.0
 40
3.0
 40
3.0
 40
4.0
 40
4.0
 40
4.0
 40
5.0
 40
5.0
 40
5.0
 40
6.0
 40
6.0
 40
6.0
 40
7.0
 40
7.0
 40
7.0
 40
8.0
 40
8.0
 40
8.0
 40
9.0
 40
9.0
 40
9.0
 40
10.0
 40
10.0
 40
10.0
 40
11.0
 40
11.0
 40
11.0
 40
12.0
 40
12.0
 40
12.0
 40
13.0
 40
13.0
 40
13.0
 40
14.0
 40
14.0
 40
14.0
 40
15.0
 40
15.0
 40
15.0
 40
16.0
 40
16.0
 40
16.0
 40
16.0
 10
96.53915470676799
 20
-140.2126301732802
 30
0.0
 10
96.46370711564103
 20
-140.2126301732802
 30
0.0
 10
96.3655218943114
 20
-140.1957492054024
 30
0.0
 10
96.26768118253031
 20
-140.1323594484739
 30
0.0
 10
96.10024954194716
 20
-140.0221163929459
 30
0.0
 10
96.07992347858419
 20
-139.8912027645064
 30
0.0
 10
96.06166447251236
 20
-139.7830267662695
 30
0.0
 10
96.06166447251236
 20
-139.7830267662695
 30
0.0
 10
96.27594941169491
 20
-139.7830267662695
 30
0.0
 10
96.27594941169491
 20
-139.7830267662695
 30
0.0
 10
96.32900388216775
 20
-139.982153285317
 30
0.0
 10
96.45130477189413
 20
-140.0117811064901
 30
0.0
 10
96.54122176405915
 20
-140.0117811064901
 30
0.0
 10
96.6755804879839
 20
-140.0117811064901
 30
0.0
 10
96.82268606520405
 20
-139.9122178469664
 30
0.0
 10
96.82268606520405
 20
-139.679673901712
 30
0.0
 10
96.82268606520405
 20
-139.423703307158
 30
0.0
 10
96.64905325274746
 20
-139.3537678688074
 30
0.0
 10
96.53295353489455
 20
-139.3537678688074
 30
0.0
 10
96.50229218507582
 20
-139.3537678688074
 30
0.0
 10
96.3655218943114
 20
-139.3537678688074
 30
0.0
 10
96.28008352627721
 20
-139.4826144399557
 30
0.0
 10
96.28008352627721
 20
-139.4826144399557
 30
0.0
 10
96.11058482840292
 20
-139.4636664147869
 30
0.0
 10
96.11058482840292
 20
-139.4636664147869
 30
0.0
 10
96.11058482840292
 20
-139.4636664147869
 30
0.0
 10
96.22702905580435
 20
-138.6175509636095
 30
0.0
 10
96.22702905580435
 20
-138.6175509636095
 30
0.0
 10
96.22702905580435
 20
-138.6175509636095
 30
0.0
 10
96.9777153620403
 20
-138.6175509636095
 30
0.0
 10
96.9777153620403
 20
-138.6175509636095
 30
0.0
 10
96.9777153620403
 20
-138.6175509636095
 30
0.0
 10
96.9777153620403
 20
-138.8121988585261
 30
0.0
 10
96.9777153620403
 20
-138.8121988585261
 30
0.0
 10
96.9777153620403
 20
-138.8121988585261
 30
0.0
 10
96.38412540993176
 20
-138.8121988585261
 30
0.0
 10
96.38412540993176
 20
-138.8121988585261
 30
0.0
 10
96.38412540993176
 20
-138.8121988585261
 30
0.0
 10
96.32073565300315
 20
-139.2352565841148
 30
0.0
 10
96.32073565300315
 20
-139.2352565841148
 30
0.0
 10
96.37999129534946
 20
-139.2014946483594
 30
0.0
 10
96.45957300105873
 20
-139.1611870311819
 30
0.0
 10
96.57360566162049
 20
-139.1611870311819
 30
0.0
 10
96.81855195062175
 20
-139.1611870311819
 30
0.0
 10
97.04696178129382
 20
-139.3472221873854
 30
0.0
 10
97.04696178129382
 20
-139.6603813669946
 30
0.0
 10
97.04696178129382
 20
-139.9776746611861
 30
0.0
 10
96.83060978482013
 20
-140.2126301732802
 30
0.0
 10
96.53915470676799
 20
-140.2126301732802
 30
0.0
  0
HATCH
  5
AA
330
98
100
AcDbEntity
  8
_U+30EC_U+30A4_U+30E4_U+30FC 1
 62
   179
420
  2234388
100
AcDbHatch
 10
0.0
 20
0.0
 30
0.0
210
0.0
220
0.0
230
1.0
  2
SOLID
 70
     1
 71
     0
 91
        1
 92
        1
 93
        1
 72
     4
 94
        3
 73
     0
 74
     1
 95
       53
 96
       49
 40
0.0
 40
0.0
 40
0.0
 40
0.0
 40
1.0
 40
1.0
 40
1.0
 40
2.0
 40
2.0
 40
2.0
 40
3.0
 40
3.0
 40
3.0
 40
4.0
 40
4.0
 40
4.0
 40
5.0
 40
5.0
 40
5.0
 40
6.0
 40
6.0
 40
6.0
 40
7.0
 40
7.0
 40
7.0
 40
8.0
 40
8.0
 40
8.0
 40
9.0
 40
9.0
 40
9.0
 40
10.0
 40
10.0
 40
10.0
 40
11.0
 40
11.0
 40
11.0
 40
12.0
 40
12.0
 40
12.0
 40
13.0
 40
13.0
 40
13.0
 40
14.0
 40
14.0
 40
14.0
 40
15.0
 40
15.0
 40
15.0
 40
16.0
 40
16.0
 40
16.0
 40
16.0
 10
96.53915470676799
 20
-140.2126301732802
 10
96.46370711564103
 20
-140.2126301732802
 10
96.3655218943114
 20
-140.1957492054024
 10
96.26768118253031
 20
-140.1323594484739
 10
96.10024954194716
 20
-140.0221163929459
 10
96.07992347858419
 20
-139.8912027645064
 10
96.06166447251236
 20
-139.7830267662695
 10
96.06166447251236
 20
-139.7830267662695
 10
96.27594941169491
 20
-139.7830267662695
 10
96.27594941169491
 20
-139.7830267662695
 10
96.32900388216775
 20
-139.982153285317
 10
96.45130477189413
 20
-140.0117811064901
 10
96.54122176405915
 20
-140.0117811064901
 10
96.6755804879839
 20
-140.0117811064901
 10
96.82268606520405
 20
-139.9122178469664
 10
96.82268606520405
 20
-139.679673901712
 10
96.82268606520405
 20
-139.423703307158
 10
96.64905325274746
 20
-139.3537678688074
 10
96.53295353489455
 20
-139.3537678688074
 10
96.50229218507582
 20
-139.3537678688074
 10
96.3655218943114
 20
-139.3537678688074
 10
96.28008352627721
 20
-139.4826144399557
 10
96.28008352627721
 20
-139.4826144399557
 10
96.11058482840292
 20
-139.4636664147869
 10
96.11058482840292
 20
-139.4636664147869
 10
96.11058482840292
 20
-139.4636664147869
 10
96.22702905580435
 20
-138.6175509636095
 10
96.22702905580435
 20
-138.6175509636095
 10
96.22702905580435
 20
-138.6175509636095
 10
96.9777153620403
 20
-138.6175509636095
 10
96.9777153620403
 20
-138.6175509636095
 10
96.9777153620403
 20
-138.6175509636095
 10
96.9777153620403
 20
-138.8121988585261
 10
96.9777153620403
 20
-138.8121988585261
 10
96.9777153620403
 20
-138.8121988585261
 10
96.38412540993176
 20
-138.8121988585261
 10
96.38412540993176
 20
-138.8121988585261
 10
96.38412540993176
 20
-138.8121988585261
 10
96.32073565300315
 20
-139.2352565841148
 10
96.32073565300315
 20
-139.2352565841148
 10
96.37999129534946
 20
-139.2014946483594
 10
96.45957300105873
 20
-139.1611870311819
 10
96.57360566162049
 20
-139.1611870311819
 10
96.81855195062175
 20
-139.1611870311819
 10
97.04696178129382
 20
-139.3472221873854
 10
97.04696178129382
 20
-139.6603813669946
 10
97.04696178129382
 20
-139.9776746611861
 10
96.83060978482013
 20
-140.2126301732802
 10
96.53915470676799
 20
-140.2126301732802
 97
        0
 97
        0
 75
     2
 76
     1
 98
        0
  0
ENDBLK
  5
9B
330
98
100
AcDbEntity
  8
0
100
AcDbBlockEnd
  0
BLOCK
  5
BC
330
BA
100
AcDbEntity
  8
0
100
AcDbBlockBegin
  2
block 3
 70
     0
 10
0.0
 20
0.0
 30
0.0
  3
block 3
  1

  0
SPLINE
  5
BE
330
BA
100
AcDbEntity
  8
_U+30EC_U+30A4_U+30E4_U+30FC 1
370
     0
100
AcDbSpline
210
0.0
220
0.0
230
1.0
 70
    11
 71
     3
 72
    26
 73
    22
 74
     0
 42
0.0000000001
 43
0.0000000001
 12
1.0
 22
0.0
 32
0.0
 13
1.0
 23
0.0
 33
0.0
 40
0.0
 40
0.0
 40
0.0
 40
0.0
 40
1.0
 40
1.0
 40
1.0
 40
2.0
 40
2.0
 40
2.0
 40
3.0
 40
3.0
 40
3.0
 40
4.0
 40
4.0
 40
4.0
 40
5.0
 40
5.0
 40
5.0
 40
6.0
 40
6.0
 40
6.0
 40
7.0
 40
7.0
 40
7.0
 40
7.0
 10
80.28708900987615
 20
-130.1474392035743
 30
0.0
 10
80.28708900987615
 20
-130.1474392035743
 30
0.0
 10
79.18276365207932
 20
-130.1474392035743
 30
0.0
 10
79.18276365207932
 20
-130.1474392035743
 30
0.0
 10
79.18276365207932
 20
-130.1474392035743
 30
0.0
 10
79.18276365207932
 20
-130.4654215168628
 30
0.0
 10
79.18276365207932
 20
-130.4654215168628
 30
0.0
 10
79.18276365207932
 20
-130.4654215168628
 30
0.0
 10
79.03479680098783
 20
-130.4654215168628
 30
0.0
 10
79.03479680098783
 20
-130.4654215168628
 30
0.0
 10
79.01998289040125
 20
-130.1453721462831
 30
0.0
 10
78.85702987394895
 20
-130.1002413954263
 30
0.0
 10
78.74282495861291
 20
-130.0716471028988
 30
0.0
 10
78.74282495861291
 20
-130.0716471028988
 30
0.0
 10
78.74282495861291
 20
-129.9310872071006
 30
0.0
 10
78.74282495861291
 20
-129.9310872071006
 30
0.0
 10
78.74282495861291
 20
-129.9310872071006
 30
0.0
 10
80.28708900987615
 20
-129.9310872071006
 30
0.0
 10
80.28708900987615
 20
-129.9310872071006
 30
0.0
 10
80.28708900987615
 20
-129.9310872071006
 30
0.0
 10
80.28708900987615
 20
-130.1474392035743
 30
0.0
 10
80.28708900987615
 20
-130.1474392035743
 30
0.0
  0
HATCH
  5
BF
330
BA
100
AcDbEntity
  8
_U+30EC_U+30A4_U+30E4_U+30FC 1
 62
   179
420
  2234388
100
AcDbHatch
 10
0.0
 20
0.0
 30
0.0
210
0.0
220
0.0
230
1.0
  2
SOLID
 70
     1
 71
     0
 91
        1
 92
        1
 93
        1
 72
     4
 94
        3
 73
     0
 74
     1
 95
       26
 96
       22
 40
0.0
 40
0.0
 40
0.0
 40
0.0
 40
1.0
 40
1.0
 40
1.0
 40
2.0
 40
2.0
 40
2.0
 40
3.0
 40
3.0
 40
3.0
 40
4.0
 40
4.0
 40
4.0
 40
5.0
 40
5.0
 40
5.0
 40
6.0
 40
6.0
 40
6.0
 40
7.0
 40
7.0
 40
7.0
 40
7.0
 10
80.28708900987615
 20
-130.1474392035743
 10
80.28708900987615
 20
-130.1474392035743
 10
79.18276365207932
 20
-130.1474392035743
 10
79.18276365207932
 20
-130.1474392035743
 10
79.18276365207932
 20
-130.1474392035743
 10
79.18276365207932
 20
-130.4654215168628
 10
79.18276365207932
 20
-130.4654215168628
 10
79.18276365207932
 20
-130.4654215168628
 10
79.03479680098783
 20
-130.4654215168628
 10
79.03479680098783
 20
-130.4654215168628
 10
79.01998289040125
 20
-130.1453721462831
 10
78.85702987394895
 20
-130.1002413954263
 10
78.74282495861291
 20
-130.0716471028988
 10
78.74282495861291
 20
-130.0716471028988
 10
78.74282495861291
 20
-129.9310872071006
 10
78.74282495861291
 20
-129.9310872071006
 10
78.74282495861291
 20
-129.9310872071006
 10
80.28708900987615
 20
-129.9310872071006
 10
80.28708900987615
 20
-129.9310872071006
 10
80.28708900987615
 20
-129.9310872071006
 10
80.28708900987615
 20
-130.1474392035743
 10
80.28708900987615
 20
-130.1474392035743
 97
        0
 97
        0
 75
     2
 76
     1
 98
        0
  0
POLYLINE
  5
C0
330
BA
100
AcDbEntity
  8
_U+30EC_U+30A4_U+30E4_U+30FC 1
370
     0
100
AcDb2dPolyline
 66
     1
 10
0.0
 20
0.0
 30
0.0
  0
VERTEX
  5
C1
330
C0
100
AcDbEntity
  8
_U+30EC_U+30A4_U+30E4_U+30FC 1
370
     0
100
AcDbVertex
100
AcDb2dVertex
 10
79.94016789451149
 20
-128.6467556101994
 30
0.0
  0
VERTEX
  5
C2
330
C0
100
AcDbEntity
  8
_U+30EC_U+30A4_U+30E4_U+30FC 1
370
     0
100
AcDbVertex
100
AcDb2dVertex
 10
80.28708900987615
 20
-128.6467556101994
 30
0.0
  0
VERTEX
  5
C3
330
C0
100
AcDbEntity
  8
_U+30EC_U+30A4_U+30E4_U+30FC 1
370
     0
100
AcDbVertex
100
AcDb2dVertex
 10
80.28708900987615
 20
-128.8569064347997
 30
0.0
  0
VERTEX
  5
C4
330
C0
100
AcDbEntity
  8
_U+30EC_U+30A4_U+30E4_U+30FC 1
370
     0
100
AcDbVertex
100
AcDb2dVertex
 10
79.94016789451149
 20
-128.8569064347997
 30
0.0
  0
VERTEX
  5
C5
330
C0
100
AcDbEntity
  8
_U+30EC_U+30A4_U+30E4_U+30FC 1
370
     0
100
AcDbVertex
100
AcDb2dVertex
 10
79.94016789451149
 20
-129.4894259658915
 30
0.0
  0
VERTEX
  5
C6
330
C0
100
AcDbEntity
  8
_U+30EC_U+30A4_U+30E4_U+30FC 1
370
     0
100
AcDbVertex
100
AcDb2dVertex
 10
79.71589217842173
 20
-129.4894259658915
 30
0.0
  0
VERTEX
  5
C7
330
C0
100
AcDbEntity
  8
_U+30EC_U+30A4_U+30E4_U+30FC 1
370
     0
100
AcDbVertex
100
AcDb2dVertex
 10
78.74282495861291
 20
-128.8345133141455
 30
0.0
  0
VERTEX
  5
C8
330
C0
100
AcDbEntity
  8
_U+30EC_U+30A4_U+30E4_U+30FC 1
370
     0
100
AcDbVertex
100
AcDb2dVertex
 10
78.74282495861291
 20
-128.6467556101994
 30
0.0
  0
VERTEX
  5
C9
330
C0
100
AcDbEntity
  8
_U+30EC_U+30A4_U+30E4_U+30FC 1
370
     0
100
AcDbVertex
100
AcDb2dVertex
 10
79.74138588501258
 20
-128.6467556101994
 30
0.0
  0
VERTEX
  5
CA
330
C0
100
AcDbEntity
  8
_U+30EC_U+30A4_U+30E4_U+30FC 1
370
     0
100
AcDbVertex
100
AcDb2dVertex
 10
79.74138588501258
 20
-128.4467678172807
 30
0.0
  0
VERTEX
  5
CB
330
C0
100
AcDbEntity
  8
_U+30EC_U+30A4_U+30E4_U+30FC 1
370
     0
100
AcDbVertex
100
AcDb2dVertex
 10
79.94016789451149
 20
-128.4467678172807
 30
0.0
  0
VERTEX
  5
CC
330
C0
100
AcDbEntity
  8
_U+30EC_U+30A4_U+30E4_U+30FC 1
370
     0
100
AcDbVertex
100
AcDb2dVertex
 10
79.94016789451149
 20
-128.6467556101994
 30
0.0
  0
SEQEND
  5
CD
330
C0
100
AcDbEntity
  8
_U+30EC_U+30A4_U+30E4_U+30FC 1
370
     0
  0
POLYLINE
  5
CE
330
BA
100
AcDbEntity
  8
_U+30EC_U+30A4_U+30E4_U+30FC 1
370
     0
100
AcDb2dPolyline
 66
     1
 10
0.0
 20
0.0
 30
0.0
  0
VERTEX
  5
CF
330
CE
100
AcDbEntity
  8
_U+30EC_U+30A4_U+30E4_U+30FC 1
370
     0
100
AcDbVertex
100
AcDb2dVertex
 10
79.08543970462101
 20
-128.8569064347997
 30
0.0
  0
VERTEX
  5
D0
330
CE
100
AcDbEntity
  8
_U+30EC_U+30A4_U+30E4_U+30FC 1
370
     0
100
AcDbVertex
100
AcDb2dVertex
 10
79.74138588501258
 20
-129.2975341473631
 30
0.0
  0
VERTEX
  5
D1
330
CE
100
AcDbEntity
  8
_U+30EC_U+30A4_U+30E4_U+30FC 1
370
     0
100
AcDbVertex
100
AcDb2dVertex
 10
79.74138588501258
 20
-128.8569064347997
 30
0.0
  0
VERTEX
  5
D2
330
CE
100
AcDbEntity
  8
_U+30EC_U+30A4_U+30E4_U+30FC 1
370
     0
100
AcDbVertex
100
AcDb2dVertex
 10
79.08543970462101
 20
-128.8569064347997
 30
0.0
  0
SEQEND
  5
D3
330
CE
100
AcDbEntity
  8
_U+30EC_U+30A4_U+30E4_U+30FC 1
370
     0
  0
HATCH
  5
D4
330
BA
100
AcDbEntity
  8
_U+30EC_U+30A4_U+30E4_U+30FC 1
 62
   179
420
  2234388
100
AcDbHatch
 10
0.0
 20
0.0
 30
0.0
210
0.0
220
0.0
230
1.0
  2
SOLID
 70
     1
 71
     0
 91
        2
 92
        1
 93
       11
 72
     1
 10
79.94016789451149
 20
-128.6467556101994
 11
80.28708900987615
 21
-128.6467556101994
 72
     1
 10
80.28708900987615
 20
-128.6467556101994
 11
80.28708900987615
 21
-128.8569064347997
 72
     1
 10
80.28708900987615
 20
-128.8569064347997
 11
79.94016789451149
 21
-128.8569064347997
 72
     1
 10
79.94016789451149
 20
-128.8569064347997
 11
79.94016789451149
 21
-129.4894259658915
 72
     1
 10
79.94016789451149
 20
-129.4894259658915
 11
79.71589217842173
 21
-129.4894259658915
 72
     1
 10
79.71589217842173
 20
-129.4894259658915
 11
78.74282495861291
 21
-128.8345133141455
 72
     1
 10
78.74282495861291
 20
-128.8345133141455
 11
78.74282495861291
 21
-128.6467556101994
 72
     1
 10
78.74282495861291
 20
-128.6467556101994
 11
79.74138588501258
 21
-128.6467556101994
 72
     1
 10
79.74138588501258
 20
-128.6467556101994
 11
79.74138588501258
 21
-128.4467678172807
 72
     1
 10
79.74138588501258
 20
-128.4467678172807
 11
79.94016789451149
 21
-128.4467678172807
 72
     1
 10
79.94016789451149
 20
-128.4467678172807
 11
79.94016789451149
 21
-128.6467556101994
 97
        0
 92
        1
 93
        3
 72
     1
 10
79.08543970462101
 20
-128.8569064347997
 11
79.74138588501258
 21
-129.2975341473631
 72
     1
 10
79.74138588501258
 20
-129.2975341473631
 11
79.74138588501258
 21
-128.8569064347997
 72
     1
 10
79.74138588501258
 20
-128.8569064347997
 11
79.08543970462101
 21
-128.8569064347997
 97
        0
 75
     2
 76
     1
 98
        0
  0
ENDBLK
  5
BD
330
BA
100
AcDbEntity
  8
0
100
AcDbBlockEnd
  0
BLOCK
  5
E6
330
E4
100
AcDbEntity
  8
0
100
AcDbBlockBegin
  2
block 4
 70
     0
 10
0.0
 20
0.0
 30
0.0
  3
block 4
  1

  0
SPLINE
  5
E8
330
E4
100
AcDbEntity
  8
_U+30EC_U+30A4_U+30E4_U+30FC 1
370
     0
100
AcDbSpline
210
0.0
220
0.0
230
1.0
 70
    11
 71
     3
 72
    44
 73
    40
 74
     0
 42
0.0000000001
 43
0.0000000001
 12
1.0
 22
0.0
 32
0.0
 13
1.0
 23
0.0
 33
0.0
 40
0.0
 40
0.0
 40
0.0
 40
0.0
 40
1.0
 40
1.0
 40
1.0
 40
2.0
 40
2.0
 40
2.0
 40
3.0
 40
3.0
 40
3.0
 40
4.0
 40
4.0
 40
4.0
 40
5.0
 40
5.0
 40
5.0
 40
6.0
 40
6.0
 40
6.0
 40
7.0
 40
7.0
 40
7.0
 40
8.0
 40
8.0
 40
8.0
 40
9.0
 40
9.0
 40
9.0
 40
10.0
 40
10.0
 40
10.0
 40
11.0
 40
11.0
 40
11.0
 40
12.0
 40
12.0
 40
12.0
 40
13.0
 40
13.0
 40
13.0
 40
13.0
 10
94.68293725931538
 20
-117.5797308733829
 30
0.0
 10
94.47278643471515
 20
-117.7383775204786
 30
0.0
 10
94.38321395209864
 20
-117.8124470734115
 30
0.0
 10
94.33636065349924
 20
-117.9562798099207
 30
0.0
 10
94.33636065349924
 20
-117.9562798099207
 30
0.0
 10
95.08704695973519
 20
-117.9562798099207
 30
0.0
 10
95.08704695973519
 20
-117.9562798099207
 30
0.0
 10
95.08704695973519
 20
-117.9562798099207
 30
0.0
 10
95.08704695973519
 20
-118.1614352460673
 30
0.0
 10
95.08704695973519
 20
-118.1614352460673
 30
0.0
 10
95.08704695973519
 20
-118.1614352460673
 30
0.0
 10
94.09554847908028
 20
-118.1614352460673
 30
0.0
 10
94.09554847908028
 20
-118.1614352460673
 30
0.0
 10
94.12620982889901
 20
-117.8040065894726
 30
0.0
 10
94.18925507627908
 20
-117.7256306671832
 30
0.0
 10
94.560636369589
 20
-117.4274576529348
 30
0.0
 10
94.80764971588142
 20
-117.2285033886616
 30
0.0
 10
94.8706949632615
 20
-117.1608072623765
 30
0.0
 10
94.8706949632615
 20
-117.023347952515
 30
0.0
 10
94.8706949632615
 20
-116.9048366678224
 30
0.0
 10
94.80144854400798
 20
-116.7737507846087
 30
0.0
 10
94.6116237827707
 20
-116.7737507846087
 30
0.0
 10
94.36082083144453
 20
-116.7737507846087
 30
0.0
 10
94.35255260227993
 20
-117.0042276725719
 30
0.0
 10
94.34841848769763
 20
-117.1206718999733
 30
0.0
 10
94.34841848769763
 20
-117.1206718999733
 30
0.0
 10
94.13241100077246
 20
-117.1206718999733
 30
0.0
 10
94.13241100077246
 20
-117.1206718999733
 30
0.0
 10
94.14033472038854
 20
-116.9937201313419
 30
0.0
 10
94.15067000684428
 20
-116.881582273297
 30
0.0
 10
94.2281846552624
 20
-116.7630709886044
 30
0.0
 10
94.3342935962081
 20
-116.6023572842175
 30
0.0
 10
94.51378307098962
 20
-116.5684230936878
 30
0.0
 10
94.62609318380876
 20
-116.5684230936878
 30
0.0
 10
94.89308808391561
 20
-116.5684230936878
 30
0.0
 10
95.09324813160863
 20
-116.7525634473744
 30
0.0
 10
95.09324813160863
 20
-117.0254150098062
 30
0.0
 10
95.09324813160863
 20
-117.2539970952525
 30
0.0
 10
94.98093801878949
 20
-117.3533881000019
 30
0.0
 10
94.68293725931538
 20
-117.5797308733829
 30
0.0
  0
HATCH
  5
E9
330
E4
100
AcDbEntity
  8
_U+30EC_U+30A4_U+30E4_U+30FC 1
 62
   179
420
  2234388
100
AcDbHatch
 10
0.0
 20
0.0
 30
0.0
210
0.0
220
0.0
230
1.0
  2
SOLID
 70
     1
 71
     0
 91
        1
 92
        1
 93
        1
 72
     4
 94
        3
 73
     0
 74
     1
 95
       44
 96
       40
 40
0.0
 40
0.0
 40
0.0
 40
0.0
 40
1.0
 40
1.0
 40
1.0
 40
2.0
 40
2.0
 40
2.0
 40
3.0
 40
3.0
 40
3.0
 40
4.0
 40
4.0
 40
4.0
 40
5.0
 40
5.0
 40
5.0
 40
6.0
 40
6.0
 40
6.0
 40
7.0
 40
7.0
 40
7.0
 40
8.0
 40
8.0
 40
8.0
 40
9.0
 40
9.0
 40
9.0
 40
10.0
 40
10.0
 40
10.0
 40
11.0
 40
11.0
 40
11.0
 40
12.0
 40
12.0
 40
12.0
 40
13.0
 40
13.0
 40
13.0
 40
13.0
 10
94.68293725931538
 20
-117.5797308733829
 10
94.47278643471515
 20
-117.7383775204786
 10
94.38321395209864
 20
-117.8124470734115
 10
94.33636065349924
 20
-117.9562798099207
 10
94.33636065349924
 20
-117.9562798099207
 10
95.08704695973519
 20
-117.9562798099207
 10
95.08704695973519
 20
-117.9562798099207
 10
95.08704695973519
 20
-117.9562798099207
 10
95.08704695973519
 20
-118.1614352460673
 10
95.08704695973519
 20
-118.1614352460673
 10
95.08704695973519
 20
-118.1614352460673
 10
94.09554847908028
 20
-118.1614352460673
 10
94.09554847908028
 20
-118.1614352460673
 10
94.12620982889901
 20
-117.8040065894726
 10
94.18925507627908
 20
-117.7256306671832
 10
94.560636369589
 20
-117.4274576529348
 10
94.80764971588142
 20
-117.2285033886616
 10
94.8706949632615
 20
-117.1608072623765
 10
94.8706949632615
 20
-117.023347952515
 10
94.8706949632615
 20
-116.9048366678224
 10
94.80144854400798
 20
-116.7737507846087
 10
94.6116237827707
 20
-116.7737507846087
 10
94.36082083144453
 20
-116.7737507846087
 10
94.35255260227993
 20
-117.0042276725719
 10
94.34841848769763
 20
-117.1206718999733
 10
94.34841848769763
 20
-117.1206718999733
 10
94.13241100077246
 20
-117.1206718999733
 10
94.13241100077246
 20
-117.1206718999733
 10
94.14033472038854
 20
-116.9937201313419
 10
94.15067000684428
 20
-116.881582273297
 10
94.2281846552624
 20
-116.7630709886044
 10
94.3342935962081
 20
-116.6023572842175
 10
94.51378307098962
 20
-116.5684230936878
 10
94.62609318380876
 20
-116.5684230936878
 10
94.89308808391561
 20
-116.5684230936878
 10
95.09324813160863
 20
-116.7525634473744
 10
95.09324813160863
 20
-117.0254150098062
 10
95.09324813160863
 20
-117.2539970952525
 10
94.98093801878949
 20
-117.3533881000019
 10
94.68293725931538
 20
-117.5797308733829
 97
        0
 97
        0
 75
     2
 76
     1
 98
        0
  0
SPLINE
  5
EA
330
E4
100
AcDbEntity
  8
_U+30EC_U+30A4_U+30E4_U+30FC 1
370
     0
100
AcDbSpline
210
0.0
220
0.0
230
1.0
 70
    11
 71
     3
 72
    26
 73
    22
 74
     0
 42
0.0000000001
 43
0.0000000001
 12
1.0
 22
0.0
 32
0.0
 13
1.0
 23
0.0
 33
0.0
 40
0.0
 40
0.0
 40
0.0
 40
0.0
 40
1.0
 40
1.0
 40
1.0
 40
2.0
 40
2.0
 40
2.0
 40
3.0
 40
3.0
 40
3.0
 40
4.0
 40
4.0
 40
4.0
 40
5.0
 40
5.0
 40
5.0
 40
6.0
 40
6.0
 40
6.0
 40
7.0
 40
7.0
 40
7.0
 40
7.0
 10
95.67994789274668
 20
-118.1614352460673
 30
0.0
 10
95.67994789274668
 20
-118.1614352460673
 30
0.0
 10
95.67994789274668
 20
-117.0571098882704
 30
0.0
 10
95.67994789274668
 20
-117.0571098882704
 30
0.0
 10
95.67994789274668
 20
-117.0571098882704
 30
0.0
 10
95.3616210699096
 20
-117.0571098882704
 30
0.0
 10
95.3616210699096
 20
-117.0571098882704
 30
0.0
 10
95.3616210699096
 20
-117.0571098882704
 30
0.0
 10
95.3616210699096
 20
-116.909143037179
 30
0.0
 10
95.3616210699096
 20
-116.909143037179
 30
0.0
 10
95.68201495003784
 20
-116.8943291265924
 30
0.0
 10
95.72680119134608
 20
-116.7313761101401
 30
0.0
 10
95.75539548387366
 20
-116.617171194804
 30
0.0
 10
95.75539548387366
 20
-116.617171194804
 30
0.0
 10
95.89595537967185
 20
-116.617171194804
 30
0.0
 10
95.89595537967185
 20
-116.617171194804
 30
0.0
 10
95.89595537967185
 20
-116.617171194804
 30
0.0
 10
95.89595537967185
 20
-118.1614352460673
 30
0.0
 10
95.89595537967185
 20
-118.1614352460673
 30
0.0
 10
95.89595537967185
 20
-118.1614352460673
 30
0.0
 10
95.67994789274668
 20
-118.1614352460673
 30
0.0
 10
95.67994789274668
 20
-118.1614352460673
 30
0.0
  0
HATCH
  5
EB
330
E4
100
AcDbEntity
  8
_U+30EC_U+30A4_U+30E4_U+30FC 1
 62
   179
420
  2234388
100
AcDbHatch
 10
0.0
 20
0.0
 30
0.0
210
0.0
220
0.0
230
1.0
  2
SOLID
 70
     1
 71
     0
 91
        1
 92
        1
 93
        1
 72
     4
 94
        3
 73
     0
 74
     1
 95
       26
 96
       22
 40
0.0
 40
0.0
 40
0.0
 40
0.0
 40
1.0
 40
1.0
 40
1.0
 40
2.0
 40
2.0
 40
2.0
 40
3.0
 40
3.0
 40
3.0
 40
4.0
 40
4.0
 40
4.0
 40
5.0
 40
5.0
 40
5.0
 40
6.0
 40
6.0
 40
6.0
 40
7.0
 40
7.0
 40
7.0
 40
7.0
 10
95.67994789274668
 20
-118.1614352460673
 10
95.67994789274668
 20
-118.1614352460673
 10
95.67994789274668
 20
-117.0571098882704
 10
95.67994789274668
 20
-117.0571098882704
 10
95.67994789274668
 20
-117.0571098882704
 10
95.3616210699096
 20
-117.0571098882704
 10
95.3616210699096
 20
-117.0571098882704
 10
95.3616210699096
 20
-117.0571098882704
 10
95.3616210699096
 20
-116.909143037179
 10
95.3616210699096
 20
-116.909143037179
 10
95.68201495003784
 20
-116.8943291265924
 10
95.72680119134608
 20
-116.7313761101401
 10
95.75539548387366
 20
-116.617171194804
 10
95.75539548387366
 20
-116.617171194804
 10
95.89595537967185
 20
-116.617171194804
 10
95.89595537967185
 20
-116.617171194804
 10
95.89595537967185
 20
-116.617171194804
 10
95.89595537967185
 20
-118.1614352460673
 10
95.89595537967185
 20
-118.1614352460673
 10
95.89595537967185
 20
-118.1614352460673
 10
95.67994789274668
 20
-118.1614352460673
 10
95.67994789274668
 20
-118.1614352460673
 97
        0
 97
        0
 75
     2
 76
     1
 98
        0
  0
ENDBLK
  5
E7
330
E4
100
AcDbEntity
  8
0
100
AcDbBlockEnd
  0
ENDSEC
  0
SECTION
  2
ENTITIES
  0
POLYLINE
  5
41
330
1F
100
AcDbEntity
  8
_U+30EC_U+30A4_U+30E4_U+30FC 1
 62
   179
420
  2234388
370
    25
100
AcDb2dPolyline
 66
     1
 10
0.0
 20
0.0
 30
0.0
  0
VERTEX
  5
42
330
41
100
AcDbEntity
  8
_U+30EC_U+30A4_U+30E4_U+30FC 1
 62
   179
420
  2234388
370
    25
100
AcDbVertex
100
AcDb2dVertex
 10
85.40975559879338
 20
-136.5343132992
 30
0.0
  0
VERTEX
  5
43
330
41
100
AcDbEntity
  8
_U+30EC_U+30A4_U+30E4_U+30FC 1
 62
   179
420
  2234388
370
    25
100
AcDbVertex
100
AcDb2dVertex
 10
104.9096878790864
 20
-136.5343132992
 30
0.0
  0
SEQEND
  5
44
330
41
100
AcDbEntity
  8
_U+30EC_U+30A4_U+30E4_U+30FC 1
 62
   179
420
  2234388
370
    25
  0
POLYLINE
  5
45
330
1F
100
AcDbEntity
  8
_U+30EC_U+30A4_U+30E4_U+30FC 1
 62
   179
420
  2234388
370
    25
100
AcDb2dPolyline
 66
     1
 10
0.0
 20
0.0
 30
0.0
  0
VERTEX
  5
46
330
45
100
AcDbEntity
  8
_U+30EC_U+30A4_U+30E4_U+30FC 1
 62
   179
420
  2234388
370
    25
100
AcDbVertex
100
AcDb2dVertex
 10
84.67908228410107
 20
-127.2785533015137
 30
0.0
  0
VERTEX
  5
47
330
45
100
AcDbEntity
  8
_U+30EC_U+30A4_U+30E4_U+30FC 1
 62
   179
420
  2234388
370
    25
100
AcDbVertex
100
AcDb2dVertex
 10
84.97569997875615
 20
-131.0362716339075
 30
0.0
  0
SEQEND
  5
48
330
45
100
AcDbEntity
  8
_U+30EC_U+30A4_U+30E4_U+30FC 1
 62
   179
420
  2234388
370
    25
  0
POLYLINE
  5
49
330
1F
100
AcDbEntity
  8
_U+30EC_U+30A4_U+30E4_U+30FC 1
 62
   179
420
  2234388
370
    25
100
AcDb2dPolyline
 66
     1
 10
0.0
 20
0.0
 30
0.0
  0
VERTEX
  5
4A
330
49
100
AcDbEntity
  8
_U+30EC_U+30A4_U+30E4_U+30FC 1
 62
   179
420
  2234388
370
    25
100
AcDbVertex
100
AcDb2dVertex
 10
86.68102775610754
 20
-127.225495523749
 30
0.0
  0
VERTEX
  5
4B
330
49
100
AcDbEntity
  8
_U+30EC_U+30A4_U+30E4_U+30FC 1
 62
   179
420
  2234388
370
    25
100
AcDbVertex
100
AcDb2dVertex
 10
86.79917084112422
 20
-128.7213438567085
 30
0.0
  0
SEQEND
  5
4C
330
49
100
AcDbEntity
  8
_U+30EC_U+30A4_U+30E4_U+30FC 1
 62
   179
420
  2234388
370
    25
  0
POLYLINE
  5
4D
330
1F
100
AcDbEntity
  8
_U+30EC_U+30A4_U+30E4_U+30FC 1
 62
   179
420
  2234388
370
    25
100
AcDb2dPolyline
 66
     1
 10
0.0
 20
0.0
 30
0.0
  0
VERTEX
  5
4E
330
4D
100
AcDbEntity
  8
_U+30EC_U+30A4_U+30E4_U+30FC 1
 62
   179
420
  2234388
370
    25
100
AcDbVertex
100
AcDb2dVertex
 10
87.27355110679954
 20
-134.7345821885388
 30
0.0
  0
VERTEX
  5
4F
330
4D
100
AcDbEntity
  8
_U+30EC_U+30A4_U+30E4_U+30FC 1
 62
   179
420
  2234388
370
    25
100
AcDbVertex
100
AcDb2dVertex
 10
94.53445842155837
 20
-134.7345821885388
 30
0.0
  0
SEQEND
  5
50
330
4D
100
AcDbEntity
  8
_U+30EC_U+30A4_U+30E4_U+30FC 1
 62
   179
420
  2234388
370
    25
  0
POLYLINE
  5
51
330
1F
100
AcDbEntity
  8
_U+30EC_U+30A4_U+30E4_U+30FC 1
 62
   179
420
  2234388
370
    25
100
AcDb2dPolyline
 66
     1
 10
0.0
 20
0.0
 30
0.0
  0
VERTEX
  5
52
330
51
100
AcDbEntity
  8
_U+30EC_U+30A4_U+30E4_U+30FC 1
 62
   179
420
  2234388
370
    25
100
AcDbVertex
100
AcDb2dVertex
 10
84.84132477996192
 20
-126.8692605238382
 30
0.0
  0
VERTEX
  5
53
330
51
100
AcDbEntity
  8
_U+30EC_U+30A4_U+30E4_U+30FC 1
 62
   179
420
  2234388
370
    25
100
AcDbVertex
100
AcDb2dVertex
 10
89.40573994129177
 20
-122.7289546915401
 30
0.0
  0
SEQEND
  5
54
330
51
100
AcDbEntity
  8
_U+30EC_U+30A4_U+30E4_U+30FC 1
 62
   179
420
  2234388
370
    25
  0
POLYLINE
  5
55
330
1F
100
AcDbEntity
  8
_U+30EC_U+30A4_U+30E4_U+30FC 1
 62
   179
420
  2234388
370
    25
100
AcDb2dPolyline
 66
     1
 10
0.0
 20
0.0
 30
0.0
  0
VERTEX
  5
56
330
55
100
AcDbEntity
  8
_U+30EC_U+30A4_U+30E4_U+30FC 1
 62
   179
420
  2234388
370
    25
100
AcDbVertex
100
AcDb2dVertex
 10
86.68102775610754
 20
-127.225495523749
 30
0.0
  0
VERTEX
  5
57
330
55
100
AcDbEntity
  8
_U+30EC_U+30A4_U+30E4_U+30FC 1
 62
   179
420
  2234388
370
    25
100
AcDbVertex
100
AcDb2dVertex
 10
90.4134166440633
 20
-123.839640246818
 30
0.0
  0
SEQEND
  5
58
330
55
100
AcDbEntity
  8
_U+30EC_U+30A4_U+30E4_U+30FC 1
 62
   179
420
  2234388
370
    25
  0
POLYLINE
  5
59
330
1F
100
AcDbEntity
  8
_U+30EC_U+30A4_U+30E4_U+30FC 1
 62
   179
420
  2234388
370
    25
100
AcDb2dPolyline
 66
     1
 10
0.0
 20
0.0
 30
0.0
  0
VERTEX
  5
5A
330
59
100
AcDbEntity
  8
_U+30EC_U+30A4_U+30E4_U+30FC 1
 62
   179
420
  2234388
370
    25
100
AcDbVertex
100
AcDb2dVertex
 10
85.09352775650441
 20
-132.5318024668673
 30
0.0
  0
VERTEX
  5
5B
330
59
100
AcDbEntity
  8
_U+30EC_U+30A4_U+30E4_U+30FC 1
 62
   179
420
  2234388
370
    25
100
AcDbVertex
100
AcDb2dVertex
 10
85.40975559879338
 20
-136.5343132992
 30
0.0
  0
SEQEND
  5
5C
330
59
100
AcDbEntity
  8
_U+30EC_U+30A4_U+30E4_U+30FC 1
 62
   179
420
  2234388
370
    25
  0
POLYLINE
  5
5D
330
1F
100
AcDbEntity
  8
_U+30EC_U+30A4_U+30E4_U+30FC 1
 62
   179
420
  2234388
370
    25
100
AcDb2dPolyline
 66
     1
 10
0.0
 20
0.0
 30
0.0
  0
VERTEX
  5
5E
330
5D
100
AcDbEntity
  8
_U+30EC_U+30A4_U+30E4_U+30FC 1
 62
   179
420
  2234388
370
    25
100
AcDbVertex
100
AcDb2dVertex
 10
87.19502497820137
 20
-133.737561633232
 30
0.0
  0
VERTEX
  5
5F
330
5D
100
AcDbEntity
  8
_U+30EC_U+30A4_U+30E4_U+30FC 1
 62
   179
420
  2234388
370
    25
100
AcDbVertex
100
AcDb2dVertex
 10
87.27355110679954
 20
-134.7345821885388
 30
0.0
  0
SEQEND
  5
60
330
5D
100
AcDbEntity
  8
_U+30EC_U+30A4_U+30E4_U+30FC 1
 62
   179
420
  2234388
370
    25
  0
POLYLINE
  5
61
330
1F
100
AcDbEntity
  8
_U+30EC_U+30A4_U+30E4_U+30FC 1
 62
   179
420
  2234388
370
    25
100
AcDb2dPolyline
 66
     1
 10
0.0
 20
0.0
 30
0.0
  0
VERTEX
  5
62
330
61
100
AcDbEntity
  8
_U+30EC_U+30A4_U+30E4_U+30FC 1
 62
   179
420
  2234388
370
    25
100
AcDbVertex
100
AcDb2dVertex
 10
105.6403964715556
 20
-127.2785533015137
 30
0.0
  0
VERTEX
  5
63
330
61
100
AcDbEntity
  8
_U+30EC_U+30A4_U+30E4_U+30FC 1
 62
   179
420
  2234388
370
    25
100
AcDbVertex
100
AcDb2dVertex
 10
105.3437809235674
 20
-131.0362716339075
 30
0.0
  0
SEQEND
  5
64
330
61
100
AcDbEntity
  8
_U+30EC_U+30A4_U+30E4_U+30FC 1
 62
   179
420
  2234388
370
    25
  0
POLYLINE
  5
65
330
1F
100
AcDbEntity
  8
_U+30EC_U+30A4_U+30E4_U+30FC 1
 62
   179
420
  2234388
370
    25
100
AcDb2dPolyline
 66
     1
 10
0.0
 20
0.0
 30
0.0
  0
VERTEX
  5
66
330
65
100
AcDbEntity
  8
_U+30EC_U+30A4_U+30E4_U+30FC 1
 62
   179
420
  2234388
370
    25
100
AcDbVertex
100
AcDb2dVertex
 10
103.1241032024183
 20
-133.737561633232
 30
0.0
  0
VERTEX
  5
67
330
65
100
AcDbEntity
  8
_U+30EC_U+30A4_U+30E4_U+30FC 1
 62
   179
420
  2234388
370
    25
100
AcDbVertex
100
AcDb2dVertex
 10
103.0455748710884
 20
-134.7345821885388
 30
0.0
  0
SEQEND
  5
68
330
65
100
AcDbEntity
  8
_U+30EC_U+30A4_U+30E4_U+30FC 1
 62
   179
420
  2234388
370
    25
  0
POLYLINE
  5
69
330
1F
100
AcDbEntity
  8
_U+30EC_U+30A4_U+30E4_U+30FC 1
 62
   179
420
  2234388
370
    25
100
AcDb2dPolyline
 66
     1
 10
0.0
 20
0.0
 30
0.0
  0
VERTEX
  5
6A
330
69
100
AcDbEntity
  8
_U+30EC_U+30A4_U+30E4_U+30FC 1
 62
   179
420
  2234388
370
    25
100
AcDbVertex
100
AcDb2dVertex
 10
103.6381004115273
 20
-127.225495523749
 30
0.0
  0
VERTEX
  5
6B
330
69
100
AcDbEntity
  8
_U+30EC_U+30A4_U+30E4_U+30FC 1
 62
   179
420
  2234388
370
    25
100
AcDbVertex
100
AcDb2dVertex
 10
103.5203079145325
 20
-128.7213438567085
 30
0.0
  0
SEQEND
  5
6C
330
69
100
AcDbEntity
  8
_U+30EC_U+30A4_U+30E4_U+30FC 1
 62
   179
420
  2234388
370
    25
  0
POLYLINE
  5
6D
330
1F
100
AcDbEntity
  8
_U+30EC_U+30A4_U+30E4_U+30FC 1
 62
   179
420
  2234388
370
    25
100
AcDb2dPolyline
 66
     1
 10
0.0
 20
0.0
 30
0.0
  0
VERTEX
  5
6E
330
6D
100
AcDbEntity
  8
_U+30EC_U+30A4_U+30E4_U+30FC 1
 62
   179
420
  2234388
370
    25
100
AcDbVertex
100
AcDb2dVertex
 10
105.477801197926
 20
-126.8692605238382
 30
0.0
  0
VERTEX
  5
6F
330
6D
100
AcDbEntity
  8
_U+30EC_U+30A4_U+30E4_U+30FC 1
 62
   179
420
  2234388
370
    25
100
AcDbVertex
100
AcDb2dVertex
 10
100.9133860365962
 20
-122.7289546915401
 30
0.0
  0
SEQEND
  5
70
330
6D
100
AcDbEntity
  8
_U+30EC_U+30A4_U+30E4_U+30FC 1
 62
   179
420
  2234388
370
    25
  0
POLYLINE
  5
71
330
1F
100
AcDbEntity
  8
_U+30EC_U+30A4_U+30E4_U+30FC 1
 62
   179
420
  2234388
370
    25
100
AcDb2dPolyline
 66
     1
 10
0.0
 20
0.0
 30
0.0
  0
VERTEX
  5
72
330
71
100
AcDbEntity
  8
_U+30EC_U+30A4_U+30E4_U+30FC 1
 62
   179
420
  2234388
370
    25
100
AcDbVertex
100
AcDb2dVertex
 10
105.2256003710268
 20
-132.5318024668673
 30
0.0
  0
VERTEX
  5
73
330
71
100
AcDbEntity
  8
_U+30EC_U+30A4_U+30E4_U+30FC 1
 62
   179
420
  2234388
370
    25
100
AcDbVertex
100
AcDb2dVertex
 10
104.9096878790864
 20
-136.5343132992
 30
0.0
  0
SEQEND
  5
74
330
71
100
AcDbEntity
  8
_U+30EC_U+30A4_U+30E4_U+30FC 1
 62
   179
420
  2234388
370
    25
  0
POLYLINE
  5
75
330
1F
100
AcDbEntity
  8
_U+30EC_U+30A4_U+30E4_U+30FC 1
 62
   179
420
  2234388
370
    25
100
AcDb2dPolyline
 66
     1
 10
0.0
 20
0.0
 30
0.0
  0
VERTEX
  5
76
330
75
100
AcDbEntity
  8
_U+30EC_U+30A4_U+30E4_U+30FC 1
 62
   179
420
  2234388
370
    25
100
AcDbVertex
100
AcDb2dVertex
 10
103.6381004115273
 20
-127.225495523749
 30
0.0
  0
VERTEX
  5
77
330
75
100
AcDbEntity
  8
_U+30EC_U+30A4_U+30E4_U+30FC 1
 62
   179
420
  2234388
370
    25
100
AcDbVertex
100
AcDb2dVertex
 10
99.90571161785962
 20
-123.839640246818
 30
0.0
  0
SEQEND
  5
78
330
75
100
AcDbEntity
  8
_U+30EC_U+30A4_U+30E4_U+30FC 1
 62
   179
420
  2234388
370
    25
  0
POLYLINE
  5
79
330
1F
100
AcDbEntity
  8
_U+30EC_U+30A4_U+30E4_U+30FC 1
 62
   179
420
  2234388
370
    25
100
AcDb2dPolyline
 66
     1
 10
0.0
 20
0.0
 30
0.0
  0
VERTEX
  5
7A
330
79
100
AcDbEntity
  8
_U+30EC_U+30A4_U+30E4_U+30FC 1
 62
   179
420
  2234388
370
    25
100
AcDbVertex
100
AcDb2dVertex
 10
95.78466755632955
 20
-134.7345821885388
 30
0.0
  0
VERTEX
  5
7B
330
79
100
AcDbEntity
  8
_U+30EC_U+30A4_U+30E4_U+30FC 1
 62
   179
420
  2234388
370
    25
100
AcDbVertex
100
AcDb2dVertex
 10
103.0455748710884
 20
-134.7345821885388
 30
0.0
  0
SEQEND
  5
7C
330
79
100
AcDbEntity
  8
_U+30EC_U+30A4_U+30E4_U+30FC 1
 62
   179
420
  2234388
370
    25
  0
SPLINE
  5
7D
330
1F
100
AcDbEntity
  8
_U+30EC_U+30A4_U+30E4_U+30FC 1
 62
   179
420
  2234388
370
    25
100
AcDbSpline
210
0.0
220
0.0
230
1.0
 70
     8
 71
     3
 72
    11
 73
     7
 74
     0
 42
0.0000000001
 43
0.0000000001
 12
1.0
 22
0.0
 32
0.0
 13
1.0
 23
0.0
 33
0.0
 40
0.0
 40
0.0
 40
0.0
 40
0.0
 40
1.0
 40
1.0
 40
1.0
 40
2.0
 40
2.0
 40
2.0
 40
2.0
 10
90.4134166440633
 20
-123.839640246818
 30
0.0
 10
90.72040157441863
 20
-123.5612633024431
 30
0.0
 10
90.74347324049668
 20
-123.0872358025615
 30
0.0
 10
90.46509630315423
 20
-122.779931080416
 30
0.0
 10
90.18675464358864
 20
-122.473331913826
 30
0.0
 10
89.71233910013645
 20
-122.4505777471652
 30
0.0
 10
89.40573994129177
 20
-122.7289546915401
 30
0.0
  0
SPLINE
  5
7E
330
1F
100
AcDbEntity
  8
_U+30EC_U+30A4_U+30E4_U+30FC 1
 62
   179
420
  2234388
370
    25
100
AcDbSpline
210
0.0
220
0.0
230
1.0
 70
     8
 71
     3
 72
    11
 73
     7
 74
     0
 42
0.0000000001
 43
0.0000000001
 12
1.0
 22
0.0
 32
0.0
 13
1.0
 23
0.0
 33
0.0
 40
0.0
 40
0.0
 40
0.0
 40
0.0
 40
1.0
 40
1.0
 40
1.0
 40
2.0
 40
2.0
 40
2.0
 40
2.0
 10
85.09352775650441
 20
-132.5318024668673
 30
0.0
 10
85.50659309632285
 20
-132.4994174668754
 30
0.0
 10
85.81492086623453
 20
-132.1383494114097
 30
0.0
 10
85.78218308929196
 20
-131.725634689291
 30
0.0
 10
85.74979809011818
 20
-131.3118969116166
 30
0.0
 10
85.38841254378234
 20
-131.0038866339156
 30
0.0
 10
84.97569997875615
 20
-131.0362716339075
 30
0.0
  0
SPLINE
  5
7F
330
1F
100
AcDbEntity
  8
_U+30EC_U+30A4_U+30E4_U+30FC 1
 62
   179
420
  2234388
370
    25
100
AcDbSpline
210
0.0
220
0.0
230
1.0
 70
     8
 71
     3
 72
    11
 73
     7
 74
     0
 42
0.0000000001
 43
0.0000000001
 12
1.0
 22
0.0
 32
0.0
 13
1.0
 23
0.0
 33
0.0
 40
0.0
 40
0.0
 40
0.0
 40
0.0
 40
1.0
 40
1.0
 40
1.0
 40
2.0
 40
2.0
 40
2.0
 40
2.0
 10
87.19502497820137
 20
-133.737561633232
 30
0.0
 10
88.49451496453905
 20
-132.5428091335311
 30
0.0
 10
88.57960496236824
 20
-130.5208985784808
 30
0.0
 10
87.3848524928489
 20
-129.2214063565833
 30
0.0
 10
87.21050971951898
 20
-129.0312238566309
 30
0.0
 10
87.01380083564855
 20
-128.8631252455622
 30
0.0
 10
86.79917084112422
 20
-128.7213438567085
 30
0.0
  0
SPLINE
  5
80
330
1F
100
AcDbEntity
  8
_U+30EC_U+30A4_U+30E4_U+30FC 1
 62
   179
420
  2234388
370
    25
100
AcDbSpline
210
0.0
220
0.0
230
1.0
 70
     8
 71
     3
 72
     8
 73
     4
 74
     0
 42
0.0000000001
 43
0.0000000001
 12
1.0
 22
0.0
 32
0.0
 13
1.0
 23
0.0
 33
0.0
 40
0.0
 40
0.0
 40
0.0
 40
0.0
 40
1.0
 40
1.0
 40
1.0
 40
1.0
 10
84.84132477996192
 20
-126.8692605238382
 30
0.0
 10
84.72660144955543
 20
-126.9732946904788
 30
0.0
 10
84.6666666455
 20
-127.1242130237745
 30
0.0
 10
84.67908228410107
 20
-127.2785533015137
 30
0.0
  0
SPLINE
  5
81
330
1F
100
AcDbEntity
  8
_U+30EC_U+30A4_U+30E4_U+30FC 1
 62
   179
420
  2234388
370
    25
100
AcDbSpline
210
0.0
220
0.0
230
1.0
 70
     8
 71
     3
 72
    11
 73
     7
 74
     0
 42
0.0000000001
 43
0.0000000001
 12
1.0
 22
0.0
 32
0.0
 13
1.0
 23
0.0
 33
0.0
 40
0.0
 40
0.0
 40
0.0
 40
0.0
 40
1.0
 40
1.0
 40
1.0
 40
2.0
 40
2.0
 40
2.0
 40
2.0
 10
103.5203079145325
 20
-128.7213438567085
 30
0.0
 10
102.0492246187296
 20
-129.6968096897981
 30
0.0
 10
101.64822212896
 20
-131.6808671893018
 30
0.0
 10
102.6238643262915
 20
-133.1512096889344
 30
0.0
 10
102.7664923782084
 20
-133.3661924666582
 30
0.0
 10
102.934273485039
 20
-133.5632541332757
 30
0.0
 10
103.1241032024183
 20
-133.737561633232
 30
0.0
  0
SPLINE
  5
82
330
1F
100
AcDbEntity
  8
_U+30EC_U+30A4_U+30E4_U+30FC 1
 62
   179
420
  2234388
370
    25
100
AcDbSpline
210
0.0
220
0.0
230
1.0
 70
     8
 71
     3
 72
    11
 73
     7
 74
     0
 42
0.0000000001
 43
0.0000000001
 12
1.0
 22
0.0
 32
0.0
 13
1.0
 23
0.0
 33
0.0
 40
0.0
 40
0.0
 40
0.0
 40
0.0
 40
1.0
 40
1.0
 40
1.0
 40
2.0
 40
2.0
 40
2.0
 40
2.0
 10
105.3437809235674
 20
-131.0362716339075
 30
0.0
 10
104.9307134341056
 20
-131.0038866339156
 30
0.0
 10
104.5696833071908
 20
-131.3118969116166
 30
0.0
 10
104.536942888596
 20
-131.725634689291
 30
0.0
 10
104.5042051116534
 20
-132.1383494114097
 30
0.0
 10
104.8125328815651
 20
-132.4994174668754
 30
0.0
 10
105.2256003710268
 20
-132.5318024668673
 30
0.0
  0
SPLINE
  5
83
330
1F
100
AcDbEntity
  8
_U+30EC_U+30A4_U+30E4_U+30FC 1
 62
   179
420
  2234388
370
    25
100
AcDbSpline
210
0.0
220
0.0
230
1.0
 70
     8
 71
     3
 72
    11
 73
     7
 74
     0
 42
0.0000000001
 43
0.0000000001
 12
1.0
 22
0.0
 32
0.0
 13
1.0
 23
0.0
 33
0.0
 40
0.0
 40
0.0
 40
0.0
 40
0.0
 40
1.0
 40
1.0
 40
1.0
 40
2.0
 40
2.0
 40
2.0
 40
2.0
 10
100.9133860365962
 20
-122.7289546915401
 30
0.0
 10
100.6067868777515
 20
-122.4505777471652
 30
0.0
 10
100.1323713342993
 20
-122.473331913826
 30
0.0
 10
99.8540296747337
 20
-122.779931080416
 30
0.0
 10
99.57565273739124
 20
-123.0872358025615
 30
0.0
 10
99.59872440346929
 20
-123.5612633024431
 30
0.0
 10
99.90571161785962
 20
-123.839640246818
 30
0.0
  0
SPLINE
  5
84
330
1F
100
AcDbEntity
  8
_U+30EC_U+30A4_U+30E4_U+30FC 1
 62
   179
420
  2234388
370
    25
100
AcDbSpline
210
0.0
220
0.0
230
1.0
 70
     8
 71
     3
 72
     8
 73
     4
 74
     0
 42
0.0000000001
 43
0.0000000001
 12
1.0
 22
0.0
 32
0.0
 13
1.0
 23
0.0
 33
0.0
 40
0.0
 40
0.0
 40
0.0
 40
0.0
 40
1.0
 40
1.0
 40
1.0
 40
1.0
 10
105.6403964715556
 20
-127.2785533015137
 30
0.0
 10
105.6524614712478
 20
-127.1242130237745
 30
0.0
 10
105.5925245283325
 20
-126.9732946904788
 30
0.0
 10
105.477801197926
 20
-126.8692605238382
 30
0.0
  0
SPLINE
  5
85
330
1F
100
AcDbEntity
  8
_U+30EC_U+30A4_U+30E4_U+30FC 1
 62
   179
420
  2234388
370
     9
100
AcDbSpline
210
0.0
220
0.0
230
1.0
 70
    11
 71
     3
 72
    17
 73
    13
 74
     0
 42
0.0000000001
 43
0.0000000001
 12
1.0
 22
0.0
 32
0.0
 13
1.0
 23
0.0
 33
0.0
 40
0.0
 40
0.0
 40
0.0
 40
0.0
 40
1.0
 40
1.0
 40
1.0
 40
2.0
 40
2.0
 40
2.0
 40
3.0
 40
3.0
 40
3.0
 40
4.0
 40
4.0
 40
4.0
 40
4.0
 10
84.75969200426677
 20
-118.5341799703666
 30
0.0
 10
84.75969200426677
 20
-118.4790760814913
 30
0.0
 10
84.71488922763201
 20
-118.4342733037246
 30
0.0
 10
84.65978534014894
 20
-118.4342733037246
 30
0.0
 10
84.60429339712022
 20
-118.4342733037246
 30
0.0
 10
84.55952589826232
 20
-118.4790760814913
 30
0.0
 10
84.55952589826232
 20
-118.5341799703666
 30
0.0
 10
84.55952589826232
 20
-118.5893191370193
 30
0.0
 10
84.60429339712022
 20
-118.6340866370082
 30
0.0
 10
84.65978534014894
 20
-118.6340866370082
 30
0.0
 10
84.71488922763201
 20
-118.6340866370082
 30
0.0
 10
84.75969200426677
 20
-118.5893191370193
 30
0.0
 10
84.75969200426677
 20
-118.5341799703666
 30
0.0
  0
SPLINE
  5
86
330
1F
100
AcDbEntity
  8
_U+30EC_U+30A4_U+30E4_U+30FC 1
 62
   179
420
  2234388
370
     9
100
AcDbSpline
210
0.0
220
0.0
230
1.0
 70
    11
 71
     3
 72
    17
 73
    13
 74
     0
 42
0.0000000001
 43
0.0000000001
 12
1.0
 22
0.0
 32
0.0
 13
1.0
 23
0.0
 33
0.0
 40
0.0
 40
0.0
 40
0.0
 40
0.0
 40
1.0
 40
1.0
 40
1.0
 40
2.0
 40
2.0
 40
2.0
 40
3.0
 40
3.0
 40
3.0
 40
4.0
 40
4.0
 40
4.0
 40
4.0
 10
80.75958016187369
 20
-122.5339391360331
 30
0.0
 10
80.75958016187369
 20
-122.4788352471582
 30
0.0
 10
80.71481266301579
 20
-122.4340324693915
 30
0.0
 10
80.65967349775585
 20
-122.4340324693915
 30
0.0
 10
80.60456961027278
 20
-122.4340324693915
 30
0.0
 10
80.55976683363801
 20
-122.4788352471582
 30
0.0
 10
80.55976683363801
 20
-122.5339391360331
 30
0.0
 10
80.55976683363801
 20
-122.5890783026862
 30
0.0
 10
80.60456961027278
 20
-122.6338458026748
 30
0.0
 10
80.65967349775585
 20
-122.6338458026748
 30
0.0
 10
80.71481266301579
 20
-122.6338458026748
 30
0.0
 10
80.75958016187369
 20
-122.5890783026862
 30
0.0
 10
80.75958016187369
 20
-122.5339391360331
 30
0.0
  0
SPLINE
  5
87
330
1F
100
AcDbEntity
  8
_U+30EC_U+30A4_U+30E4_U+30FC 1
 62
   179
420
  2234388
370
     9
100
AcDbSpline
210
0.0
220
0.0
230
1.0
 70
    11
 71
     3
 72
    17
 73
    13
 74
     0
 42
0.0000000001
 43
0.0000000001
 12
1.0
 22
0.0
 32
0.0
 13
1.0
 23
0.0
 33
0.0
 40
0.0
 40
0.0
 40
0.0
 40
0.0
 40
1.0
 40
1.0
 40
1.0
 40
2.0
 40
2.0
 40
2.0
 40
3.0
 40
3.0
 40
3.0
 40
4.0
 40
4.0
 40
4.0
 40
4.0
 10
105.7596027513376
 20
-118.5341799703666
 30
0.0
 10
105.7596027513376
 20
-118.4790760814913
 30
0.0
 10
105.7148325807677
 20
-118.4342733037246
 30
0.0
 10
105.6596934155078
 20
-118.4342733037246
 30
0.0
 10
105.6042367502559
 20
-118.4342733037246
 30
0.0
 10
105.5594339736211
 20
-118.4790760814913
 30
0.0
 10
105.5594339736211
 20
-118.5341799703666
 30
0.0
 10
105.5594339736211
 20
-118.5893191370193
 30
0.0
 10
105.6042367502559
 20
-118.6340866370082
 30
0.0
 10
105.6596934155078
 20
-118.6340866370082
 30
0.0
 10
105.7148325807677
 20
-118.6340866370082
 30
0.0
 10
105.7596027513376
 20
-118.5893191370193
 30
0.0
 10
105.7596027513376
 20
-118.5341799703666
 30
0.0
  0
SPLINE
  5
88
330
1F
100
AcDbEntity
  8
_U+30EC_U+30A4_U+30E4_U+30FC 1
 62
   179
420
  2234388
370
     9
100
AcDbSpline
210
0.0
220
0.0
230
1.0
 70
    11
 71
     3
 72
    17
 73
    13
 74
     0
 42
0.0000000001
 43
0.0000000001
 12
1.0
 22
0.0
 32
0.0
 13
1.0
 23
0.0
 33
0.0
 40
0.0
 40
0.0
 40
0.0
 40
0.0
 40
1.0
 40
1.0
 40
1.0
 40
2.0
 40
2.0
 40
2.0
 40
3.0
 40
3.0
 40
3.0
 40
4.0
 40
4.0
 40
4.0
 40
4.0
 10
80.75958016187369
 20
-136.5343132992
 30
0.0
 10
80.75958016187369
 20
-136.4791741325469
 30
0.0
 10
80.71481266301579
 20
-136.4344066325584
 30
0.0
 10
80.65967349775585
 20
-136.4344066325584
 30
0.0
 10
80.60456961027278
 20
-136.4344066325584
 30
0.0
 10
80.55976683363801
 20
-136.4791741325469
 30
0.0
 10
80.55976683363801
 20
-136.5343132992
 30
0.0
 10
80.55976683363801
 20
-136.5894171880749
 30
0.0
 10
80.60456961027278
 20
-136.6342199658416
 30
0.0
 10
80.65967349775585
 20
-136.6342199658416
 30
0.0
 10
80.71481266301579
 20
-136.6342199658416
 30
0.0
 10
80.75958016187369
 20
-136.5894171880749
 30
0.0
 10
80.75958016187369
 20
-136.5343132992
 30
0.0
  0
SPLINE
  5
89
330
1F
100
AcDbEntity
  8
_U+30EC_U+30A4_U+30E4_U+30FC 1
 62
   179
420
  2234388
370
     9
100
AcDbSpline
210
0.0
220
0.0
230
1.0
 70
    11
 71
     3
 72
    17
 73
    13
 74
     0
 42
0.0000000001
 43
0.0000000001
 12
1.0
 22
0.0
 32
0.0
 13
1.0
 23
0.0
 33
0.0
 40
0.0
 40
0.0
 40
0.0
 40
0.0
 40
1.0
 40
1.0
 40
1.0
 40
2.0
 40
2.0
 40
2.0
 40
3.0
 40
3.0
 40
3.0
 40
4.0
 40
4.0
 40
4.0
 40
4.0
 10
85.50966226291122
 20
-140.5340724648662
 30
0.0
 10
85.50966226291122
 20
-140.4789332982138
 30
0.0
 10
85.46489476405333
 20
-140.4341657982246
 30
0.0
 10
85.40975559879338
 20
-140.4341657982246
 30
0.0
 10
85.35429893354153
 20
-140.4341657982246
 30
0.0
 10
85.30953143468365
 20
-140.4789332982138
 30
0.0
 10
85.30953143468365
 20
-140.5340724648662
 30
0.0
 10
85.30953143468365
 20
-140.5898819092967
 30
0.0
 10
85.35429893354153
 20
-140.6346494092859
 30
0.0
 10
85.40975559879338
 20
-140.6346494092859
 30
0.0
 10
85.46489476405333
 20
-140.6346494092859
 30
0.0
 10
85.50966226291122
 20
-140.5898819092967
 30
0.0
 10
85.50966226291122
 20
-140.5340724648662
 30
0.0
  0
SPLINE
  5
8A
330
1F
100
AcDbEntity
  8
_U+30EC_U+30A4_U+30E4_U+30FC 1
 62
   179
420
  2234388
370
     9
100
AcDbSpline
210
0.0
220
0.0
230
1.0
 70
    11
 71
     3
 72
    17
 73
    13
 74
     0
 42
0.0000000001
 43
0.0000000001
 12
1.0
 22
0.0
 32
0.0
 13
1.0
 23
0.0
 33
0.0
 40
0.0
 40
0.0
 40
0.0
 40
0.0
 40
1.0
 40
1.0
 40
1.0
 40
2.0
 40
2.0
 40
2.0
 40
3.0
 40
3.0
 40
3.0
 40
4.0
 40
4.0
 40
4.0
 40
4.0
 10
105.0095971959701
 20
-140.5340724648662
 30
0.0
 10
105.0095971959701
 20
-140.4789332982138
 30
0.0
 10
104.9648270443464
 20
-140.4341657982246
 30
0.0
 10
104.9096878790864
 20
-140.4341657982246
 30
0.0
 10
104.8542312138346
 20
-140.4341657982246
 30
0.0
 10
104.8094637149767
 20
-140.4789332982138
 30
0.0
 10
104.8094637149767
 20
-140.5340724648662
 30
0.0
 10
104.8094637149767
 20
-140.5898819092967
 30
0.0
 10
104.8542312138346
 20
-140.6346494092859
 30
0.0
 10
104.9096878790864
 20
-140.6346494092859
 30
0.0
 10
104.9648270443464
 20
-140.6346494092859
 30
0.0
 10
105.0095971959701
 20
-140.5898819092967
 30
0.0
 10
105.0095971959701
 20
-140.5340724648662
 30
0.0
  0
SPLINE
  5
8B
330
1F
100
AcDbEntity
  8
_U+30EC_U+30A4_U+30E4_U+30FC 1
 62
   179
420
  2234388
370
    25
100
AcDbSpline
210
0.0
220
0.0
230
1.0
 70
     8
 71
     3
 72
    11
 73
     7
 74
     0
 42
0.0000000001
 43
0.0000000001
 12
1.0
 22
0.0
 32
0.0
 13
1.0
 23
0.0
 33
0.0
 40
0.0
 40
0.0
 40
0.0
 40
0.0
 40
1.0
 40
1.0
 40
1.0
 40
2.0
 40
2.0
 40
2.0
 40
2.0
 10
94.53445842155837
 20
-134.7345821885388
 30
0.0
 10
94.69394925082275
 20
-135.0797752440078
 30
0.0
 10
95.10253886511337
 20
-135.2299880217484
 30
0.0
 10
95.44772950936999
 20
-135.0708146884543
 30
0.0
 10
95.59656645001729
 20
-135.0026227440273
 30
0.0
 10
95.71612283585604
 20
-134.8827135773903
 30
0.0
 10
95.78466755632955
 20
-134.7345821885388
 30
0.0
  0
POLYLINE
  5
8C
330
1F
100
AcDbEntity
  8
_U+30EC_U+30A4_U+30E4_U+30FC 1
 62
   179
420
  2234388
370
     9
100
AcDb2dPolyline
 66
     1
 10
0.0
 20
0.0
 30
0.0
  0
VERTEX
  5
8D
330
8C
100
AcDbEntity
  8
_U+30EC_U+30A4_U+30E4_U+30FC 1
 62
   179
420
  2234388
370
     9
100
AcDbVertex
100
AcDb2dVertex
 10
85.40975559879338
 20
-140.5340724648662
 30
0.0
  0
VERTEX
  5
8E
330
8C
100
AcDbEntity
  8
_U+30EC_U+30A4_U+30E4_U+30FC 1
 62
   179
420
  2234388
370
     9
100
AcDbVertex
100
AcDb2dVertex
 10
104.9096878790864
 20
-140.5340724648662
 30
0.0
  0
SEQEND
  5
8F
330
8C
100
AcDbEntity
  8
_U+30EC_U+30A4_U+30E4_U+30FC 1
 62
   179
420
  2234388
370
     9
  0
POLYLINE
  5
90
330
1F
100
AcDbEntity
  8
_U+30EC_U+30A4_U+30E4_U+30FC 1
 62
   179
420
  2234388
370
     9
100
AcDb2dPolyline
 66
     1
 10
0.0
 20
0.0
 30
0.0
  0
VERTEX
  5
91
330
90
100
AcDbEntity
  8
_U+30EC_U+30A4_U+30E4_U+30FC 1
 62
   179
420
  2234388
370
     9
100
AcDbVertex
100
AcDb2dVertex
 10
85.40975559879338
 20
-139.0740310763425
 30
0.0
  0
VERTEX
  5
92
330
90
100
AcDbEntity
  8
_U+30EC_U+30A4_U+30E4_U+30FC 1
 62
   179
420
  2234388
370
     9
100
AcDbVertex
100
AcDb2dVertex
 10
85.40975559879338
 20
-141.5345149646161
 30
0.0
  0
SEQEND
  5
93
330
90
100
AcDbEntity
  8
_U+30EC_U+30A4_U+30E4_U+30FC 1
 62
   179
420
  2234388
370
     9
  0
POLYLINE
  5
94
330
1F
100
AcDbEntity
  8
_U+30EC_U+30A4_U+30E4_U+30FC 1
 62
   179
420
  2234388
370
     9
100
AcDb2dPolyline
 66
     1
 10
0.0
 20
0.0
 30
0.0
  0
VERTEX
  5
95
330
94
100
AcDbEntity
  8
_U+30EC_U+30A4_U+30E4_U+30FC 1
 62
   179
420
  2234388
370
     9
100
AcDbVertex
100
AcDb2dVertex
 10
104.9096878790864
 20
-139.0740310763425
 30
0.0
  0
VERTEX
  5
96
330
94
100
AcDbEntity
  8
_U+30EC_U+30A4_U+30E4_U+30FC 1
 62
   179
420
  2234388
370
     9
100
AcDbVertex
100
AcDb2dVertex
 10
104.9096878790864
 20
-141.5345149646161
 30
0.0
  0
SEQEND
  5
97
330
94
100
AcDbEntity
  8
_U+30EC_U+30A4_U+30E4_U+30FC 1
 62
   179
420
  2234388
370
     9
  0
INSERT
  5
99
330
1F
100
AcDbEntity
  8
_U+30EC_U+30A4_U+30E4_U+30FC 1
100
AcDbBlockReference
  2
block 2
 10
0.0
 20
0.0
 30
0.0
  0
SPLINE
  5
AB
330
1F
100
AcDbEntity
  8
_U+30EC_U+30A4_U+30E4_U+30FC 1
 62
   179
420
  2234388
370
    25
100
AcDbSpline
210
0.0
220
0.0
230
1.0
 70
    11
 71
     3
 72
    17
 73
    13
 74
     0
 42
0.0000000001
 43
0.0000000001
 12
1.0
 22
0.0
 32
0.0
 13
1.0
 23
0.0
 33
0.0
 40
0.0
 40
0.0
 40
0.0
 40
0.0
 40
1.0
 40
1.0
 40
1.0
 40
2.0
 40
2.0
 40
2.0
 40
3.0
 40
3.0
 40
3.0
 40
4.0
 40
4.0
 40
4.0
 40
4.0
 10
85.44492754234051
 20
-136.5343132992
 30
0.0
 10
85.44492754234051
 20
-136.5536102436392
 30
0.0
 10
85.42905254274552
 20
-136.5694499658577
 30
0.0
 10
85.40975559879338
 20
-136.5694499658577
 30
0.0
 10
85.39014115484935
 20
-136.5694499658577
 30
0.0
 10
85.37430143303122
 20
-136.5536102436392
 30
0.0
 10
85.37430143303122
 20
-136.5343132992
 30
0.0
 10
85.37430143303122
 20
-136.5150163547601
 30
0.0
 10
85.39014115484935
 20
-136.4991766325416
 30
0.0
 10
85.40975559879338
 20
-136.4991766325416
 30
0.0
 10
85.42905254274552
 20
-136.4991766325416
 30
0.0
 10
85.44492754234051
 20
-136.5150163547601
 30
0.0
 10
85.44492754234051
 20
-136.5343132992
 30
0.0
  0
SPLINE
  5
AC
330
1F
100
AcDbEntity
  8
_U+30EC_U+30A4_U+30E4_U+30FC 1
 62
   179
420
  2234388
370
    25
100
AcDbSpline
210
0.0
220
0.0
230
1.0
 70
    11
 71
     3
 72
    17
 73
    13
 74
     0
 42
0.0000000001
 43
0.0000000001
 12
1.0
 22
0.0
 32
0.0
 13
1.0
 23
0.0
 33
0.0
 40
0.0
 40
0.0
 40
0.0
 40
0.0
 40
1.0
 40
1.0
 40
1.0
 40
2.0
 40
2.0
 40
2.0
 40
3.0
 40
3.0
 40
3.0
 40
4.0
 40
4.0
 40
4.0
 40
4.0
 10
104.9448245448567
 20
-136.5343132992
 30
0.0
 10
104.9448245448567
 20
-136.5536102436392
 30
0.0
 10
104.9289848230386
 20
-136.5694499658577
 30
0.0
 10
104.9096878790864
 20
-136.5694499658577
 30
0.0
 10
104.8900734351424
 20
-136.5694499658577
 30
0.0
 10
104.8742337133243
 20
-136.5536102436392
 30
0.0
 10
104.8742337133243
 20
-136.5343132992
 30
0.0
 10
104.8742337133243
 20
-136.5150163547601
 30
0.0
 10
104.8900734351424
 20
-136.4991766325416
 30
0.0
 10
104.9096878790864
 20
-136.4991766325416
 30
0.0
 10
104.9289848230386
 20
-136.4991766325416
 30
0.0
 10
104.9448245448567
 20
-136.5150163547601
 30
0.0
 10
104.9448245448567
 20
-136.5343132992
 30
0.0
  0
SPLINE
  5
AD
330
1F
100
AcDbEntity
  8
_U+30EC_U+30A4_U+30E4_U+30FC 1
 62
   179
420
  2234388
370
     9
100
AcDbSpline
210
0.0
220
0.0
230
1.0
 70
    11
 71
     3
 72
    17
 73
    13
 74
     0
 42
0.0000000001
 43
0.0000000001
 12
1.0
 22
0.0
 32
0.0
 13
1.0
 23
0.0
 33
0.0
 40
0.0
 40
0.0
 40
0.0
 40
0.0
 40
1.0
 40
1.0
 40
1.0
 40
2.0
 40
2.0
 40
2.0
 40
3.0
 40
3.0
 40
3.0
 40
4.0
 40
4.0
 40
4.0
 40
4.0
 10
104.9448245448567
 20
-140.5340724648662
 30
0.0
 10
104.9448245448567
 20
-140.5540396870834
 30
0.0
 10
104.9289848230386
 20
-140.569879409302
 30
0.0
 10
104.9096878790864
 20
-140.569879409302
 30
0.0
 10
104.8900734351424
 20
-140.569879409302
 30
0.0
 10
104.8742337133243
 20
-140.5540396870834
 30
0.0
 10
104.8742337133243
 20
-140.5340724648662
 30
0.0
 10
104.8742337133243
 20
-140.514775520427
 30
0.0
 10
104.8900734351424
 20
-140.498900520431
 30
0.0
 10
104.9096878790864
 20
-140.498900520431
 30
0.0
 10
104.9289848230386
 20
-140.498900520431
 30
0.0
 10
104.9448245448567
 20
-140.514775520427
 30
0.0
 10
104.9448245448567
 20
-140.5340724648662
 30
0.0
  0
POLYLINE
  5
AE
330
1F
100
AcDbEntity
  8
_U+30EC_U+30A4_U+30E4_U+30FC 1
 62
   179
420
  2234388
370
     9
100
AcDb2dPolyline
 66
     1
 10
0.0
 20
0.0
 30
0.0
  0
VERTEX
  5
AF
330
AE
100
AcDbEntity
  8
_U+30EC_U+30A4_U+30E4_U+30FC 1
 62
   179
420
  2234388
370
     9
100
AcDbVertex
100
AcDb2dVertex
 10
80.65967349775585
 20
-122.5339391360331
 30
0.0
  0
VERTEX
  5
B0
330
AE
100
AcDbEntity
  8
_U+30EC_U+30A4_U+30E4_U+30FC 1
 62
   179
420
  2234388
370
     9
100
AcDbVertex
100
AcDb2dVertex
 10
80.65967349775585
 20
-136.5343132992
 30
0.0
  0
SEQEND
  5
B1
330
AE
100
AcDbEntity
  8
_U+30EC_U+30A4_U+30E4_U+30FC 1
 62
   179
420
  2234388
370
     9
  0
POLYLINE
  5
B2
330
1F
100
AcDbEntity
  8
_U+30EC_U+30A4_U+30E4_U+30FC 1
 62
   179
420
  2234388
370
     9
100
AcDb2dPolyline
 66
     1
 10
0.0
 20
0.0
 30
0.0
  0
VERTEX
  5
B3
330
B2
100
AcDbEntity
  8
_U+30EC_U+30A4_U+30E4_U+30FC 1
 62
   179
420
  2234388
370
     9
100
AcDbVertex
100
AcDb2dVertex
 10
87.36968304879146
 20
-122.5339391360331
 30
0.0
  0
VERTEX
  5
B4
330
B2
100
AcDbEntity
  8
_U+30EC_U+30A4_U+30E4_U+30FC 1
 62
   179
420
  2234388
370
     9
100
AcDbVertex
100
AcDb2dVertex
 10
79.65954852327116
 20
-122.5339391360331
 30
0.0
  0
SEQEND
  5
B5
330
B2
100
AcDbEntity
  8
_U+30EC_U+30A4_U+30E4_U+30FC 1
 62
   179
420
  2234388
370
     9
  0
POLYLINE
  5
B6
330
1F
100
AcDbEntity
  8
_U+30EC_U+30A4_U+30E4_U+30FC 1
 62
   179
420
  2234388
370
     9
100
AcDb2dPolyline
 66
     1
 10
0.0
 20
0.0
 30
0.0
  0
VERTEX
  5
B7
330
B6
100
AcDbEntity
  8
_U+30EC_U+30A4_U+30E4_U+30FC 1
 62
   179
420
  2234388
370
     9
100
AcDbVertex
100
AcDb2dVertex
 10
82.8697203858173
 20
-136.5343132992
 30
0.0
  0
VERTEX
  5
B8
330
B6
100
AcDbEntity
  8
_U+30EC_U+30A4_U+30E4_U+30FC 1
 62
   179
420
  2234388
370
     9
100
AcDbVertex
100
AcDb2dVertex
 10
79.65954852327116
 20
-136.5343132992
 30
0.0
  0
SEQEND
  5
B9
330
B6
100
AcDbEntity
  8
_U+30EC_U+30A4_U+30E4_U+30FC 1
 62
   179
420
  2234388
370
     9
  0
INSERT
  5
BB
330
1F
100
AcDbEntity
  8
_U+30EC_U+30A4_U+30E4_U+30FC 1
100
AcDbBlockReference
  2
block 3
 10
0.0
 20
0.0
 30
0.0
  0
SPLINE
  5
D5
330
1F
100
AcDbEntity
  8
_U+30EC_U+30A4_U+30E4_U+30FC 1
 62
   179
420
  2234388
370
    25
100
AcDbSpline
210
0.0
220
0.0
230
1.0
 70
    11
 71
     3
 72
    17
 73
    13
 74
     0
 42
0.0000000001
 43
0.0000000001
 12
1.0
 22
0.0
 32
0.0
 13
1.0
 23
0.0
 33
0.0
 40
0.0
 40
0.0
 40
0.0
 40
0.0
 40
1.0
 40
1.0
 40
1.0
 40
2.0
 40
2.0
 40
2.0
 40
3.0
 40
3.0
 40
3.0
 40
4.0
 40
4.0
 40
4.0
 40
4.0
 10
89.94489020531468
 20
-122.5339391360331
 30
0.0
 10
89.94489020531468
 20
-122.5539416360282
 30
0.0
 10
89.92905275529564
 20
-122.5690758026912
 30
0.0
 10
89.90975353954443
 20
-122.5690758026912
 30
0.0
 10
89.8901038178235
 20
-122.5690758026912
 30
0.0
 10
89.87426409600539
 20
-122.5539416360282
 30
0.0
 10
89.87426409600539
 20
-122.5339391360331
 30
0.0
 10
89.87426409600539
 20
-122.5146421915936
 30
0.0
 10
89.8901038178235
 20
-122.4988024693754
 30
0.0
 10
89.90975353954443
 20
-122.4988024693754
 30
0.0
 10
89.92905275529564
 20
-122.4988024693754
 30
0.0
 10
89.94489020531468
 20
-122.5146421915936
 30
0.0
 10
89.94489020531468
 20
-122.5339391360331
 30
0.0
  0
SPLINE
  5
D6
330
1F
100
AcDbEntity
  8
_U+30EC_U+30A4_U+30E4_U+30FC 1
 62
   179
420
  2234388
370
    25
100
AcDbSpline
210
0.0
220
0.0
230
1.0
 70
    11
 71
     3
 72
    17
 73
    13
 74
     0
 42
0.0000000001
 43
0.0000000001
 12
1.0
 22
0.0
 32
0.0
 13
1.0
 23
0.0
 33
0.0
 40
0.0
 40
0.0
 40
0.0
 40
0.0
 40
1.0
 40
1.0
 40
1.0
 40
2.0
 40
2.0
 40
2.0
 40
3.0
 40
3.0
 40
3.0
 40
4.0
 40
4.0
 40
4.0
 40
4.0
 10
85.44492754234051
 20
-136.5343132992
 30
0.0
 10
85.44492754234051
 20
-136.5536102436392
 30
0.0
 10
85.42905254274552
 20
-136.5694499658577
 30
0.0
 10
85.40975559879338
 20
-136.5694499658577
 30
0.0
 10
85.39014115484935
 20
-136.5694499658577
 30
0.0
 10
85.37430143303122
 20
-136.5536102436392
 30
0.0
 10
85.37430143303122
 20
-136.5343132992
 30
0.0
 10
85.37430143303122
 20
-136.5150163547601
 30
0.0
 10
85.39014115484935
 20
-136.4991766325416
 30
0.0
 10
85.40975559879338
 20
-136.4991766325416
 30
0.0
 10
85.42905254274552
 20
-136.4991766325416
 30
0.0
 10
85.44492754234051
 20
-136.5150163547601
 30
0.0
 10
85.44492754234051
 20
-136.5343132992
 30
0.0
  0
SPLINE
  5
D7
330
1F
100
AcDbEntity
  8
_U+30EC_U+30A4_U+30E4_U+30FC 1
 62
   179
420
  2234388
370
     9
100
AcDbSpline
210
0.0
220
0.0
230
1.0
 70
    11
 71
     3
 72
    17
 73
    13
 74
     0
 42
0.0000000001
 43
0.0000000001
 12
1.0
 22
0.0
 32
0.0
 13
1.0
 23
0.0
 33
0.0
 40
0.0
 40
0.0
 40
0.0
 40
0.0
 40
1.0
 40
1.0
 40
1.0
 40
2.0
 40
2.0
 40
2.0
 40
3.0
 40
3.0
 40
3.0
 40
4.0
 40
4.0
 40
4.0
 40
4.0
 10
80.6948101635261
 20
-136.5343132992
 30
0.0
 10
80.6948101635261
 20
-136.5536102436392
 30
0.0
 10
80.67897044170799
 20
-136.5694499658577
 30
0.0
 10
80.65967349775585
 20
-136.5694499658577
 30
0.0
 10
80.64002377603494
 20
-136.5694499658577
 30
0.0
 10
80.62418609095512
 20
-136.5536102436392
 30
0.0
 10
80.62418609095512
 20
-136.5343132992
 30
0.0
 10
80.62418609095512
 20
-136.5150163547601
 30
0.0
 10
80.64002377603494
 20
-136.4991766325416
 30
0.0
 10
80.65967349775585
 20
-136.4991766325416
 30
0.0
 10
80.67897044170799
 20
-136.4991766325416
 30
0.0
 10
80.6948101635261
 20
-136.5150163547601
 30
0.0
 10
80.6948101635261
 20
-136.5343132992
 30
0.0
  0
POLYLINE
  5
D8
330
1F
100
AcDbEntity
  8
_U+30EC_U+30A4_U+30E4_U+30FC 1
 62
   179
420
  2234388
370
     9
100
AcDb2dPolyline
 66
     1
 10
0.0
 20
0.0
 30
0.0
  0
VERTEX
  5
D9
330
D8
100
AcDbEntity
  8
_U+30EC_U+30A4_U+30E4_U+30FC 1
 62
   179
420
  2234388
370
     9
100
AcDbVertex
100
AcDb2dVertex
 10
84.65978534014894
 20
-118.5341799703666
 30
0.0
  0
VERTEX
  5
DA
330
D8
100
AcDbEntity
  8
_U+30EC_U+30A4_U+30E4_U+30FC 1
 62
   179
420
  2234388
370
     9
100
AcDbVertex
100
AcDb2dVertex
 10
105.6596934155078
 20
-118.5341799703666
 30
0.0
  0
SEQEND
  5
DB
330
D8
100
AcDbEntity
  8
_U+30EC_U+30A4_U+30E4_U+30FC 1
 62
   179
420
  2234388
370
     9
  0
POLYLINE
  5
DC
330
1F
100
AcDbEntity
  8
_U+30EC_U+30A4_U+30E4_U+30FC 1
 62
   179
420
  2234388
370
     9
100
AcDb2dPolyline
 66
     1
 10
0.0
 20
0.0
 30
0.0
  0
VERTEX
  5
DD
330
DC
100
AcDbEntity
  8
_U+30EC_U+30A4_U+30E4_U+30FC 1
 62
   179
420
  2234388
370
     9
100
AcDbVertex
100
AcDb2dVertex
 10
84.65978534014894
 20
-124.4942194133209
 30
0.0
  0
VERTEX
  5
DE
330
DC
100
AcDbEntity
  8
_U+30EC_U+30A4_U+30E4_U+30FC 1
 62
   179
420
  2234388
370
     9
100
AcDbVertex
100
AcDb2dVertex
 10
84.65978534014894
 20
-117.5344430261719
 30
0.0
  0
SEQEND
  5
DF
330
DC
100
AcDbEntity
  8
_U+30EC_U+30A4_U+30E4_U+30FC 1
 62
   179
420
  2234388
370
     9
  0
POLYLINE
  5
E0
330
1F
100
AcDbEntity
  8
_U+30EC_U+30A4_U+30E4_U+30FC 1
 62
   179
420
  2234388
370
     9
100
AcDb2dPolyline
 66
     1
 10
0.0
 20
0.0
 30
0.0
  0
VERTEX
  5
E1
330
E0
100
AcDbEntity
  8
_U+30EC_U+30A4_U+30E4_U+30FC 1
 62
   179
420
  2234388
370
     9
100
AcDbVertex
100
AcDb2dVertex
 10
105.6596934155078
 20
-124.4942194133209
 30
0.0
  0
VERTEX
  5
E2
330
E0
100
AcDbEntity
  8
_U+30EC_U+30A4_U+30E4_U+30FC 1
 62
   179
420
  2234388
370
     9
100
AcDbVertex
100
AcDb2dVertex
 10
105.6596934155078
 20
-117.5344430261719
 30
0.0
  0
SEQEND
  5
E3
330
E0
100
AcDbEntity
  8
_U+30EC_U+30A4_U+30E4_U+30FC 1
 62
   179
420
  2234388
370
     9
  0
INSERT
  5
E5
330
1F
100
AcDbEntity
  8
_U+30EC_U+30A4_U+30E4_U+30FC 1
100
AcDbBlockReference
  2
block 4
 10
0.0
 20
0.0
 30
0.0
  0
SPLINE
  5
EC
330
1F
100
AcDbEntity
  8
_U+30EC_U+30A4_U+30E4_U+30FC 1
 62
   179
420
  2234388
370
    25
100
AcDbSpline
210
0.0
220
0.0
230
1.0
 70
    11
 71
     3
 72
    17
 73
    13
 74
     0
 42
0.0000000001
 43
0.0000000001
 12
1.0
 22
0.0
 32
0.0
 13
1.0
 23
0.0
 33
0.0
 40
0.0
 40
0.0
 40
0.0
 40
0.0
 40
1.0
 40
1.0
 40
1.0
 40
2.0
 40
2.0
 40
2.0
 40
3.0
 40
3.0
 40
3.0
 40
4.0
 40
4.0
 40
4.0
 40
4.0
 10
84.6949220059192
 20
-127.0339371904637
 30
0.0
 10
84.6949220059192
 20
-127.0539044126809
 30
0.0
 10
84.67908228410107
 20
-127.069779412677
 30
0.0
 10
84.65978534014894
 20
-127.069779412677
 30
0.0
 10
84.64013561842802
 20
-127.069779412677
 30
0.0
 10
84.62429589660991
 20
-127.0539044126809
 30
0.0
 10
84.62429589660991
 20
-127.0339371904637
 30
0.0
 10
84.62429589660991
 20
-127.0146402460242
 30
0.0
 10
84.64013561842802
 20
-126.998800523806
 30
0.0
 10
84.65978534014894
 20
-126.998800523806
 30
0.0
 10
84.67908228410107
 20
-126.998800523806
 30
0.0
 10
84.6949220059192
 20
-127.0146402460242
 30
0.0
 10
84.6949220059192
 20
-127.0339371904637
 30
0.0
  0
SPLINE
  5
ED
330
1F
100
AcDbEntity
  8
_U+30EC_U+30A4_U+30E4_U+30FC 1
 62
   179
420
  2234388
370
    25
100
AcDbSpline
210
0.0
220
0.0
230
1.0
 70
    11
 71
     3
 72
    17
 73
    13
 74
     0
 42
0.0000000001
 43
0.0000000001
 12
1.0
 22
0.0
 32
0.0
 13
1.0
 23
0.0
 33
0.0
 40
0.0
 40
0.0
 40
0.0
 40
0.0
 40
1.0
 40
1.0
 40
1.0
 40
2.0
 40
2.0
 40
2.0
 40
3.0
 40
3.0
 40
3.0
 40
4.0
 40
4.0
 40
4.0
 40
4.0
 10
105.694830081278
 20
-127.0339371904637
 30
0.0
 10
105.694830081278
 20
-127.0539044126809
 30
0.0
 10
105.6789903594599
 20
-127.069779412677
 30
0.0
 10
105.6596934155078
 20
-127.069779412677
 30
0.0
 10
105.6400436937868
 20
-127.069779412677
 30
0.0
 10
105.6242039719687
 20
-127.0539044126809
 30
0.0
 10
105.6242039719687
 20
-127.0339371904637
 30
0.0
 10
105.6242039719687
 20
-127.0146402460242
 30
0.0
 10
105.6400436937868
 20
-126.998800523806
 30
0.0
 10
105.6596934155078
 20
-126.998800523806
 30
0.0
 10
105.6789903594599
 20
-126.998800523806
 30
0.0
 10
105.694830081278
 20
-127.0146402460242
 30
0.0
 10
105.694830081278
 20
-127.0339371904637
 30
0.0
  0
SPLINE
  5
EE
330
1F
100
AcDbEntity
  8
_U+30EC_U+30A4_U+30E4_U+30FC 1
 62
   179
420
  2234388
370
     9
100
AcDbSpline
210
0.0
220
0.0
230
1.0
 70
    11
 71
     3
 72
    17
 73
    13
 74
     0
 42
0.0000000001
 43
0.0000000001
 12
1.0
 22
0.0
 32
0.0
 13
1.0
 23
0.0
 33
0.0
 40
0.0
 40
0.0
 40
0.0
 40
0.0
 40
1.0
 40
1.0
 40
1.0
 40
2.0
 40
2.0
 40
2.0
 40
3.0
 40
3.0
 40
3.0
 40
4.0
 40
4.0
 40
4.0
 40
4.0
 10
105.694830081278
 20
-118.5341799703666
 30
0.0
 10
105.694830081278
 20
-118.5534769148061
 30
0.0
 10
105.6789903594599
 20
-118.5693519148021
 30
0.0
 10
105.6596934155078
 20
-118.5693519148021
 30
0.0
 10
105.6400436937868
 20
-118.5693519148021
 30
0.0
 10
105.6242039719687
 20
-118.5534769148061
 30
0.0
 10
105.6242039719687
 20
-118.5341799703666
 30
0.0
 10
105.6242039719687
 20
-118.5149183037046
 30
0.0
 10
105.6400436937868
 20
-118.4990433037085
 30
0.0
 10
105.6596934155078
 20
-118.4990433037085
 30
0.0
 10
105.6789903594599
 20
-118.4990433037085
 30
0.0
 10
105.694830081278
 20
-118.5149183037046
 30
0.0
 10
105.694830081278
 20
-118.5341799703666
 30
0.0
  0
POLYLINE
  5
EF
330
1F
100
AcDbEntity
  8
_U+30EC_U+30A4_U+30E4_U+30FC 1
 62
   179
420
  2234388
370
    25
100
AcDb2dPolyline
 66
     1
 10
0.0
 20
0.0
 30
0.0
  0
VERTEX
  5
F0
330
EF
100
AcDbEntity
  8
_U+30EC_U+30A4_U+30E4_U+30FC 1
 62
   179
420
  2234388
370
    25
100
AcDbVertex
100
AcDb2dVertex
 10
86.28690224308217
 20
-135.6919857994102
 30
0.0
  0
VERTEX
  5
F1
330
EF
100
AcDbEntity
  8
_U+30EC_U+30A4_U+30E4_U+30FC 1
 62
   179
420
  2234388
370
    25
100
AcDbVertex
100
AcDb2dVertex
 10
103.9047651269464
 20
-135.6919857994102
 30
0.0
  0
SEQEND
  5
F2
330
EF
100
AcDbEntity
  8
_U+30EC_U+30A4_U+30E4_U+30FC 1
 62
   179
420
  2234388
370
    25
  0
ENDSEC
  0
SECTION
  2
OBJECTS
  0
DICTIONARY
  5
C
330
0
100
AcDbDictionary
281
     1
  3
ACAD_GROUP
350
D
  3
ACAD_LAYOUT
350
1A
  3
ACAD_MATERIAL
350
3B
  3
ACAD_MLEADERSTYLE
350
F4
  3
ACAD_MLINESTYLE
350
17
  3
ACAD_PLOTSETTINGS
350
19
  3
ACAD_PLOTSTYLENAME
350
E
  3
ACAD_TABLESTYLE
350
F3
  3
ACAD_VISUALSTYLE
350
2A
  0
SUN
  5
3F
330
29
100
AcDbSun
 90
        1
290
     0
 63
     7
421
 16777215
 40
1.0
291
     1
 91
  2455826
 92
 54000000
292
     0
 70
     2
 71
   256
280
     1
  0
DICTIONARY
  5
D
102
{ACAD_REACTORS
330
C
102
}
330
C
100
AcDbDictionary
281
     1
  0
DICTIONARY
  5
1A
102
{ACAD_REACTORS
330
C
102
}
330
C
100
AcDbDictionary
281
     1
  3
Layout1
350
1E
  3
Layout2
350
26
  3
Model
350
22
  0
DICTIONARY
  5
3B
102
{ACAD_REACTORS
330
C
102
}
330
C
100
AcDbDictionary
281
     1
  3
ByBlock
350
3D
  3
ByLayer
350
3C
  3
Global
350
3E
  0
DICTIONARY
  5
F4
102
{ACAD_REACTORS
330
C
102
}
330
C
100
AcDbDictionary
281
     1
  0
DICTIONARY
  5
17
102
{ACAD_REACTORS
330
C
102
}
330
C
100
AcDbDictionary
281
     1
  3
Standard
350
18
  0
DICTIONARY
  5
19
102
{ACAD_REACTORS
330
C
102
}
330
C
100
AcDbDictionary
281
     1
  0
ACDBDICTIONARYWDFLT
  5
E
102
{ACAD_REACTORS
330
C
102
}
330
C
100
AcDbDictionary
281
     1
  3
Normal
350
F
100
AcDbDictionaryWithDefault
340
F
  0
DICTIONARY
  5
F3
102
{ACAD_REACTORS
330
C
102
}
330
C
100
AcDbDictionary
281
     1
  0
DICTIONARY
  5
2A
102
{ACAD_REACTORS
330
C
102
}
330
C
100
AcDbDictionary
281
     1
  3
2dWireframe
350
2F
  3
3D Hidden
350
31
  3
3dWireframe
350
30
  3
Basic
350
32
  3
Brighten
350
36
  3
ColorChange
350
3A
  3
Conceptual
350
34
  3
Dim
350
35
  3
Facepattern
350
39
  3
Flat
350
2B
  3
FlatWithEdges
350
2C
  3
Gouraud
350
2D
  3
GouraudWithEdges
350
2E
  3
Linepattern
350
38
  3
Realistic
350
33
  3
Thicken
350
37
  0
LAYOUT
  5
1E
102
{ACAD_REACTORS
330
1A
102
}
330
1A
100
AcDbPlotSettings
  1

  2
none_device
  4

  6

 40
0.0
 41
0.0
 42
0.0
 43
0.0
 44
0.0
 45
0.0
 46
0.0
 47
0.0
 48
0.0
 49
0.0
140
0.0
141
0.0
142
1.0
143
1.0
 70
   688
 72
     0
 73
     0
 74
     5
  7

 75
    16
 76
     0
 77
     2
 78
   300
147
1.0
148
0.0
149
0.0
100
AcDbLayout
  1
Layout1
 70
     1
 71
     1
 10
0.0
 20
0.0
 11
12.0
 21
9.0
 12
0.0
 22
0.0
 32
0.0
 14
1.000000000000000E+20
 24
1.000000000000000E+20
 34
1.000000000000000E+20
 15
-1.000000000000000E+20
 25
-1.000000000000000E+20
 35
-1.000000000000000E+20
146
0.0
 13
0.0
 23
0.0
 33
0.0
 16
1.0
 26
0.0
 36
0.0
 17
0.0
 27
1.0
 37
0.0
 76
     0
330
1B
  0
LAYOUT
  5
26
102
{ACAD_REACTORS
330
1A
102
}
330
1A
100
AcDbPlotSettings
  1

  2
none_device
  4

  6

 40
0.0
 41
0.0
 42
0.0
 43
0.0
 44
0.0
 45
0.0
 46
0.0
 47
0.0
 48
0.0
 49
0.0
140
0.0
141
0.0
142
1.0
143
1.0
 70
   688
 72
     0
 73
     0
 74
     5
  7

 75
    16
 76
     0
 77
     2
 78
   300
147
1.0
148
0.0
149
0.0
100
AcDbLayout
  1
Layout2
 70
     1
 71
     2
 10
0.0
 20
0.0
 11
0.0
 21
0.0
 12
0.0
 22
0.0
 32
0.0
 14
0.0
 24
0.0
 34
0.0
 15
0.0
 25
0.0
 35
0.0
146
0.0
 13
0.0
 23
0.0
 33
0.0
 16
1.0
 26
0.0
 36
0.0
 17
0.0
 27
1.0
 37
0.0
 76
     0
330
23
  0
LAYOUT
  5
22
102
{ACAD_REACTORS
330
1A
102
}
330
1A
100
AcDbPlotSettings
  1

  2
none_device
  4

  6

 40
0.0
 41
0.0
 42
0.0
 43
0.0
 44
0.0
 45
0.0
 46
0.0
 47
0.0
 48
0.0
 49
0.0
140
0.0
141
0.0
142
1.0
143
1.0
 70
  1712
 72
     0
 73
     0
 74
     0
  7

 75
     0
 76
     0
 77
     2
 78
   300
147
1.0
148
0.0
149
0.0
100
AcDbLayout
  1
Model
 70
     1
 71
     0
 10
0.0
 20
0.0
 11
12.0
 21
9.0
 12
0.0
 22
0.0
 32
0.0
 14
1.000000000000000E+20
 24
1.000000000000000E+20
 34
1.000000000000000E+20
 15
-1.000000000000000E+20
 25
-1.000000000000000E+20
 35
-1.000000000000000E+20
146
0.0
 13
0.0
 23
0.0
 33
0.0
 16
1.0
 26
0.0
 36
0.0
 17
0.0
 27
1.0
 37
0.0
 76
     0
330
1F
331
29
  0
MATERIAL
  5
3D
102
{ACAD_REACTORS
330
3B
102
}
330
3B
100
AcDbMaterial
  1
ByBlock
 72
     1
 94
      127
  0
MATERIAL
  5
3C
102
{ACAD_REACTORS
330
3B
102
}
330
3B
100
AcDbMaterial
  1
ByLayer
 72
     1
 94
      127
  0
MATERIAL
  5
3E
102
{ACAD_REACTORS
330
3B
102
}
330
3B
100
AcDbMaterial
  1
Global
 72
     1
 94
      127
  0
MLINESTYLE
  5
18
102
{ACAD_REACTORS
330
17
102
}
330
17
100
AcDbMlineStyle
  2
Standard
 70
     0
  3

 62
   256
 51
90.0
 52
90.0
 71
     2
 49
0.5
 62
   256
  6
BYLAYER
 49
-0.5
 62
   256
  6
BYLAYER
  0
ACDBPLACEHOLDER
  5
F
102
{ACAD_REACTORS
330
E
102
}
330
E
  0
VISUALSTYLE
  5
2F
102
{ACAD_REACTORS
330
2A
102
}
330
2A
100
AcDbVisualStyle
  2
2dWireframe
 70
     4
177
     2
291
     0
 71
     0
176
     1
 72
     2
176
     1
 73
     0
176
     1
 90
        0
176
     1
 40
-0.6
176
     1
 41
-30.0
176
     1
 62
     5
 63
     7
421
 16777215
176
     1
 74
     1
176
     1
 91
        4
176
     1
 64
     7
176
     1
 65
   257
176
     1
 75
     1
176
     1
175
     1
176
     1
 42
1.0
176
     1
 92
        0
176
     1
 66
   257
176
     1
 43
1.0
176
     1
 76
     1
176
     1
 77
     6
176
     1
 78
     2
176
     1
 67
     7
176
     1
 79
     5
176
     1
170
     0
176
     1
171
     0
176
     1
290
     0
176
     1
 93
        1
176
     1
 44
0.0
176
     1
173
     0
176
     1
  0
VISUALSTYLE
  5
31
102
{ACAD_REACTORS
330
2A
102
}
330
2A
100
AcDbVisualStyle
  2
3D Hidden
 70
     6
177
     2
291
     0
 71
     1
176
     1
 72
     2
176
     1
 73
     2
176
     1
 90
        0
176
     1
 40
-0.6
176
     1
 41
-30.0
176
     1
 62
     5
 63
     7
421
 16777215
176
     1
 74
     2
176
     1
 91
        2
176
     1
 64
     7
176
     1
 65
   257
176
     1
 75
     2
176
     1
175
     1
176
     1
 42
40.0
176
     1
 92
        0
176
     1
 66
   257
176
     1
 43
1.0
176
     1
 76
     1
176
     1
 77
     6
176
     1
 78
     2
176
     1
 67
     7
176
     1
 79
     3
176
     1
170
     0
176
     1
171
     0
176
     1
290
     0
176
     1
 93
        1
176
     1
 44
0.0
176
     1
173
     0
176
     1
  0
VISUALSTYLE
  5
30
102
{ACAD_REACTORS
330
2A
102
}
330
2A
100
AcDbVisualStyle
  2
3dWireframe
 70
     5
177
     2
291
     0
 71
     0
176
     1
 72
     2
176
     1
 73
     0
176
     1
 90
        0
176
     1
 40
-0.6
176
     1
 41
-30.0
176
     1
 62
     5
 63
     7
421
 16777215
176
     1
 74
     1
176
     1
 91
        4
176
     1
 64
     7
176
     1
 65
   257
176
     1
 75
     1
176
     1
175
     1
176
     1
 42
1.0
176
     1
 92
        0
176
     1
 66
   257
176
     1
 43
1.0
176
     1
 76
     1
176
     1
 77
     6
176
     1
 78
     2
176
     1
 67
     7
176
     1
 79
     5
176
     1
170
     0
176
     1
171
     0
176
     1
290
     0
176
     1
 93
        1
176
     1
 44
0.0
176
     1
173
     0
176
     1
  0
VISUALSTYLE
  5
32
102
{ACAD_REACTORS
330
2A
102
}
330
2A
100
AcDbVisualStyle
  2
Basic
 70
     7
177
     2
291
     1
 71
     1
176
     1
 72
     0
176
     1
 73
     1
176
     1
 90
        0
176
     1
 40
-0.6
176
     1
 41
-30.0
176
     1
 62
     5
 63
     7
421
 16777215
176
     1
 74
     0
176
     1
 91
        4
176
     1
 64
     7
176
     1
 65
   257
176
     1
 75
     1
176
     1
175
     1
176
     1
 42
1.0
176
     1
 92
        8
176
     1
 66
     7
176
     1
 43
1.0
176
     1
 76
     1
176
     1
 77
     6
176
     1
 78
     2
176
     1
 67
     7
176
     1
 79
     5
176
     1
170
     0
176
     1
171
     0
176
     1
290
     0
176
     1
 93
        1
176
     1
 44
0.0
176
     1
173
     0
176
     1
  0
VISUALSTYLE
  5
36
102
{ACAD_REACTORS
330
2A
102
}
330
2A
100
AcDbVisualStyle
  2
Brighten
 70
    12
177
     2
291
     1
 71
     2
176
     1
 72
     2
176
     1
 73
     0
176
     1
 90
        0
176
     1
 40
-0.6
176
     1
 41
-30.0
176
     1
 62
     5
 63
     7
421
 16777215
176
     1
 74
     1
176
     1
 91
        4
176
     1
 64
     7
176
     1
 65
   257
176
     1
 75
     1
176
     1
175
     1
176
     1
 42
1.0
176
     1
 92
        8
176
     1
 66
     7
176
     1
 43
1.0
176
     1
 76
     1
176
     1
 77
     6
176
     1
 78
     2
176
     1
 67
     7
176
     1
 79
     5
176
     1
170
     0
176
     1
171
     0
176
     1
290
     0
176
     1
 93
        1
176
     1
 44
50.0
176
     1
173
     0
176
     1
  0
VISUALSTYLE
  5
3A
102
{ACAD_REACTORS
330
2A
102
}
330
2A
100
AcDbVisualStyle
  2
ColorChange
 70
    16
177
     2
291
     1
 71
     2
176
     1
 72
     2
176
     1
 73
     3
176
     1
 90
        0
176
     1
 40
-0.6
176
     1
 41
-30.0
176
     1
 62
     5
 63
     8
421
  8421504
176
     1
 74
     1
176
     1
 91
        4
176
     1
 64
     7
176
     1
 65
   257
176
     1
 75
     1
176
     1
175
     1
176
     1
 42
1.0
176
     1
 92
        8
176
     1
 66
     8
424
  8421504
176
     1
 43
1.0
176
     1
 76
     1
176
     1
 77
     6
176
     1
 78
     2
176
     1
 67
     7
176
     1
 79
     5
176
     1
170
     0
176
     1
171
     0
176
     1
290
     0
176
     1
 93
        1
176
     1
 44
0.0
176
     1
173
     0
176
     1
  0
VISUALSTYLE
  5
34
102
{ACAD_REACTORS
330
2A
102
}
330
2A
100
AcDbVisualStyle
  2
Conceptual
 70
     9
177
     2
291
     0
 71
     3
176
     1
 72
     2
176
     1
 73
     0
176
     1
 90
        0
176
     1
 40
-0.6
176
     1
 41
-30.0
176
     1
 62
     5
 63
     7
421
 16777215
176
     1
 74
     2
176
     1
 91
        2
176
     1
 64
     7
176
     1
 65
   257
176
     1
 75
     1
176
     1
175
     1
176
     1
 42
40.0
176
     1
 92
        8
176
     1
 66
     7
176
     1
 43
1.0
176
     1
 76
     1
176
     1
 77
     6
176
     1
 78
     2
176
     1
 67
     7
176
     1
 79
     3
176
     1
170
     0
176
     1
171
     0
176
     1
290
     0
176
     1
 93
        1
176
     1
 44
0.0
176
     1
173
     0
176
     1
  0
VISUALSTYLE
  5
35
102
{ACAD_REACTORS
330
2A
102
}
330
2A
100
AcDbVisualStyle
  2
Dim
 70
    11
177
     2
291
     1
 71
     2
176
     1
 72
     2
176
     1
 73
     0
176
     1
 90
        0
176
     1
 40
-0.6
176
     1
 41
-30.0
176
     1
 62
     5
 63
     7
421
 16777215
176
     1
 74
     1
176
     1
 91
        4
176
     1
 64
     7
176
     1
 65
   257
176
     1
 75
     1
176
     1
175
     1
176
     1
 42
1.0
176
     1
 92
        8
176
     1
 66
     7
176
     1
 43
1.0
176
     1
 76
     1
176
     1
 77
     6
176
     1
 78
     2
176
     1
 67
     7
176
     1
 79
     5
176
     1
170
     0
176
     1
171
     0
176
     1
290
     0
176
     1
 93
        1
176
     1
 44
-50.0
176
     1
173
     0
176
     1
  0
VISUALSTYLE
  5
39
102
{ACAD_REACTORS
330
2A
102
}
330
2A
100
AcDbVisualStyle
  2
Facepattern
 70
    15
177
     2
291
     1
 71
     2
176
     1
 72
     2
176
     1
 73
     0
176
     1
 90
        0
176
     1
 40
-0.6
176
     1
 41
-30.0
176
     1
 62
     5
 63
     7
421
 16777215
176
     1
 74
     1
176
     1
 91
        4
176
     1
 64
     7
176
     1
 65
   257
176
     1
 75
     1
176
     1
175
     1
176
     1
 42
1.0
176
     1
 92
        8
176
     1
 66
     7
176
     1
 43
1.0
176
     1
 76
     1
176
     1
 77
     6
176
     1
 78
     2
176
     1
 67
     7
176
     1
 79
     5
176
     1
170
     0
176
     1
171
     0
176
     1
290
     0
176
     1
 93
        1
176
     1
 44
0.0
176
     1
173
     0
176
     1
  0
VISUALSTYLE
  5
2B
102
{ACAD_REACTORS
330
2A
102
}
330
2A
100
AcDbVisualStyle
  2
Flat
 70
     0
177
     2
291
     1
 71
     2
176
     1
 72
     1
176
     1
 73
     1
176
     1
 90
        2
176
     1
 40
-0.6
176
     1
 41
30.0
176
     1
 62
     5
 63
     7
421
 16777215
176
     1
 74
     0
176
     1
 91
        4
176
     1
 64
     7
176
     1
 65
   257
176
     1
 75
     1
176
     1
175
     1
176
     1
 42
1.0
176
     1
 92
        8
176
     1
 66
     7
176
     1
 43
1.0
176
     1
 76
     1
176
     1
 77
     6
176
     1
 78
     2
176
     1
 67
     7
176
     1
 79
     5
176
     1
170
     0
176
     1
171
     0
176
     1
290
     0
176
     1
 93
       13
176
     1
 44
0.0
176
     1
173
     0
176
     1
  0
VISUALSTYLE
  5
2C
102
{ACAD_REACTORS
330
2A
102
}
330
2A
100
AcDbVisualStyle
  2
FlatWithEdges
 70
     1
177
     2
291
     1
 71
     2
176
     1
 72
     1
176
     1
 73
     1
176
     1
 90
        2
176
     1
 40
-0.6
176
     1
 41
30.0
176
     1
 62
     5
 63
     7
421
 16777215
176
     1
 74
     1
176
     1
 91
        4
176
     1
 64
     7
176
     1
 65
   257
176
     1
 75
     1
176
     1
175
     1
176
     1
 42
1.0
176
     1
 92
        0
176
     1
 66
   257
176
     1
 43
1.0
176
     1
 76
     1
176
     1
 77
     6
176
     1
 78
     2
176
     1
 67
     7
176
     1
 79
     5
176
     1
170
     0
176
     1
171
     0
176
     1
290
     0
176
     1
 93
       13
176
     1
 44
0.0
176
     1
173
     0
176
     1
  0
VISUALSTYLE
  5
2D
102
{ACAD_REACTORS
330
2A
102
}
330
2A
100
AcDbVisualStyle
  2
Gouraud
 70
     2
177
     2
291
     1
 71
     2
176
     1
 72
     2
176
     1
 73
     1
176
     1
 90
        2
176
     1
 40
-0.6
176
     1
 41
30.0
176
     1
 62
     5
 63
     7
421
 16777215
176
     1
 74
     0
176
     1
 91
        4
176
     1
 64
     7
176
     1
 65
   257
176
     1
 75
     1
176
     1
175
     1
176
     1
 42
1.0
176
     1
 92
        0
176
     1
 66
     7
176
     1
 43
1.0
176
     1
 76
     1
176
     1
 77
     6
176
     1
 78
     2
176
     1
 67
     7
176
     1
 79
     5
176
     1
170
     0
176
     1
171
     0
176
     1
290
     0
176
     1
 93
       13
176
     1
 44
0.0
176
     1
173
     0
176
     1
  0
VISUALSTYLE
  5
2E
102
{ACAD_REACTORS
330
2A
102
}
330
2A
100
AcDbVisualStyle
  2
GouraudWithEdges
 70
     3
177
     2
291
     1
 71
     2
176
     1
 72
     2
176
     1
 73
     1
176
     1
 90
        2
176
     1
 40
-0.6
176
     1
 41
30.0
176
     1
 62
     5
 63
     7
421
 16777215
176
     1
 74
     1
176
     1
 91
        4
176
     1
 64
     7
176
     1
 65
   257
176
     1
 75
     1
176
     1
175
     1
176
     1
 42
1.0
176
     1
 92
        0
176
     1
 66
   257
176
     1
 43
1.0
176
     1
 76
     1
176
     1
 77
     6
176
     1
 78
     2
176
     1
 67
     7
176
     1
 79
     5
176
     1
170
     0
176
     1
171
     0
176
     1
290
     0
176
     1
 93
       13
176
     1
 44
0.0
176
     1
173
     0
176
     1
  0
VISUALSTYLE
  5
38
102
{ACAD_REACTORS
330
2A
102
}
330
2A
100
AcDbVisualStyle
  2
Linepattern
 70
    14
177
     2
291
     1
 71
     2
176
     1
 72
     2
176
     1
 73
     0
176
     1
 90
        0
176
     1
 40
-0.6
176
     1
 41
-30.0
176
     1
 62
     5
 63
     7
421
 16777215
176
     1
 74
     1
176
     1
 91
        4
176
     1
 64
     7
176
     1
 65
   257
176
     1
 75
     7
176
     1
175
     7
176
     1
 42
1.0
176
     1
 92
        8
176
     1
 66
     7
176
     1
 43
1.0
176
     1
 76
     1
176
     1
 77
     6
176
     1
 78
     2
176
     1
 67
     7
176
     1
 79
     5
176
     1
170
     0
176
     1
171
     0
176
     1
290
     0
176
     1
 93
        1
176
     1
 44
0.0
176
     1
173
     0
176
     1
  0
VISUALSTYLE
  5
33
102
{ACAD_REACTORS
330
2A
102
}
330
2A
100
AcDbVisualStyle
  2
Realistic
 70
     8
177
     2
291
     0
 71
     2
176
     1
 72
     2
176
     1
 73
     0
176
     1
 90
        0
176
     1
 40
-0.6
176
     1
 41
-30.0
176
     1
 62
     5
 63
     7
421
 16777215
176
     1
 74
     1
176
     1
 91
        0
176
     1
 64
     7
176
     1
 65
   257
176
     1
 75
     1
176
     1
175
     1
176
     1
 42
1.0
176
     1
 92
        8
176
     1
 66
     8
424
  7895160
176
     1
 43
1.0
176
     1
 76
     1
176
     1
 77
     6
176
     1
 78
     2
176
     1
 67
     7
176
     1
 79
     5
176
     1
170
     0
176
     1
171
     0
176
     1
290
     0
176
     1
 93
       13
176
     1
 44
0.0
176
     1
173
     0
176
     1
  0
VISUALSTYLE
  5
37
102
{ACAD_REACTORS
330
2A
102
}
330
2A
100
AcDbVisualStyle
  2
Thicken
 70
    13
177
     2
291
     1
 71
     2
176
     1
 72
     2
176
     1
 73
     0
176
     1
 90
        0
176
     1
 40
-0.6
176
     1
 41
-30.0
176
     1
 62
     5
 63
     7
421
 16777215
176
     1
 74
     1
176
     1
 91
        4
176
     1
 64
     7
176
     1
 65
   257
176
     1
 75
     1
176
     1
175
     1
176
     1
 42
1.0
176
     1
 92
       12
176
     1
 66
     7
176
     1
 43
1.0
176
     1
 76
     1
176
     1
 77
     6
176
     1
 78
     2
176
     1
 67
     7
176
     1
 79
     5
176
     1
170
     0
176
     1
171
     0
176
     1
290
     0
176
     1
 93
        1
176
     1
 44
0.0
176
     1
173
     0
176
     1
  0
ENDSEC
  0
EOF
