  0
SECTION
  2
HEADER
  9
$ACADVER
  1
AC1024
  9
$ACADMAINTVER
 70
     6
  9
$DWGCODEPAGE
  3
UNDEFINED
  9
$INSBASE
 10
0.0
 20
0.0
 30
0.0
  9
$EXTMIN
 10
1.000000000000000E+20
 20
1.000000000000000E+20
 30
1.000000000000000E+20
  9
$EXTMAX
 10
-1.000000000000000E+20
 20
-1.000000000000000E+20
 30
-1.000000000000000E+20
  9
$LIMMIN
 10
0.0
 20
0.0
  9
$LIMMAX
 10
12.0
 20
9.0
  9
$ORTHOMODE
 70
     0
  9
$REGENMODE
 70
     1
  9
$FILLMODE
 70
     1
  9
$QTEXTMODE
 70
     0
  9
$MIRRTEXT
 70
     1
  9
$LTSCALE
 40
1.0
  9
$ATTMODE
 70
     1
  9
$TEXTSIZE
 40
0.2
  9
$TRACEWID
 40
0.05
  9
$TEXTSTYLE
  7
Standard
  9
$CLAYER
  8
0
  9
$CELTYPE
  6
ByLayer
  9
$CECOLOR
 62
   256
  9
$CELTSCALE
 40
1.0
  9
$DISPSILH
 70
     0
  9
$DIMSCALE
 40
1.0
  9
$DIMASZ
 40
0.18
  9
$DIMEXO
 40
0.0625
  9
$DIMDLI
 40
0.38
  9
$DIMRND
 40
0.0
  9
$DIMDLE
 40
0.0
  9
$DIMEXE
 40
0.18
  9
$DIMTP
 40
0.0
  9
$DIMTM
 40
0.0
  9
$DIMTXT
 40
0.18
  9
$DIMCEN
 40
0.09
  9
$DIMTSZ
 40
0.0
  9
$DIMTOL
 70
     0
  9
$DIMLIM
 70
     0
  9
$DIMTIH
 70
     1
  9
$DIMTOH
 70
     1
  9
$DIMSE1
 70
     0
  9
$DIMSE2
 70
     0
  9
$DIMTAD
 70
     0
  9
$DIMZIN
 70
     0
  9
$DIMBLK
  1

  9
$DIMASO
 70
     1
  9
$DIMSHO
 70
     1
  9
$DIMPOST
  1

  9
$DIMAPOST
  1

  9
$DIMALT
 70
     0
  9
$DIMALTD
 70
     2
  9
$DIMALTF
 40
25.4
  9
$DIMLFAC
 40
1.0
  9
$DIMTOFL
 70
     0
  9
$DIMTVP
 40
0.0
  9
$DIMTIX
 70
     0
  9
$DIMSOXD
 70
     0
  9
$DIMSAH
 70
     0
  9
$DIMBLK1
  1

  9
$DIMBLK2
  1

  9
$DIMSTYLE
  2
Standard
  9
$DIMCLRD
 70
     0
  9
$DIMCLRE
 70
     0
  9
$DIMCLRT
 70
     0
  9
$DIMTFAC
 40
1.0
  9
$DIMGAP
 40
0.09
  9
$DIMJUST
 70
     0
  9
$DIMSD1
 70
     0
  9
$DIMSD2
 70
     0
  9
$DIMTOLJ
 70
     1
  9
$DIMTZIN
 70
     0
  9
$DIMALTZ
 70
     0
  9
$DIMALTTZ
 70
     0
  9
$DIMUPT
 70
     0
  9
$DIMDEC
 70
     4
  9
$DIMTDEC
 70
     4
  9
$DIMALTU
 70
     2
  9
$DIMALTTD
 70
     2
  9
$DIMTXSTY
  7
Standard
  9
$DIMAUNIT
 70
     0
  9
$DIMADEC
 70
     0
  9
$DIMALTRND
 40
0.0
  9
$DIMAZIN
 70
     0
  9
$DIMDSEP
 70
    46
  9
$DIMATFIT
 70
     3
  9
$DIMFRAC
 70
     0
  9
$DIMLDRBLK
  1

  9
$DIMLUNIT
 70
     2
  9
$DIMLWD
 70
    -2
  9
$DIMLWE
 70
    -2
  9
$DIMTMOVE
 70
     0
  9
$DIMFXL
 40
1.0
  9
$DIMFXLON
 70
     0
  9
$DIMJOGANG
 40
0.7853981633974483
  9
$DIMTFILL
 70
     0
  9
$DIMTFILLCLR
 70
     0
  9
$DIMARCSYM
 70
     0
  9
$DIMLTYPE
  6

  9
$DIMLTEX1
  6

  9
$DIMLTEX2
  6

  9
$DIMTXTDIRECTION
 70
     0
  9
$LUNITS
 70
     2
  9
$LUPREC
 70
     4
  9
$SKETCHINC
 40
0.1
  9
$FILLETRAD
 40
0.5
  9
$AUNITS
 70
     0
  9
$AUPREC
 70
     0
  9
$MENU
  1
.
  9
$ELEVATION
 40
0.0
  9
$PELEVATION
 40
0.0
  9
$THICKNESS
 40
0.0
  9
$LIMCHECK
 70
     0
  9
$CHAMFERA
 40
0.5
  9
$CHAMFERB
 40
0.5
  9
$CHAMFERC
 40
1.0
  9
$CHAMFERD
 40
0.0
  9
$SKPOLY
 70
     0
  9
$TDCREATE
 40
2457917.608958322
  9
$TDUCREATE
 40
2457917.233958333
  9
$TDUPDATE
 40
2457917.608958322
  9
$TDUUPDATE
 40
2457917.233958333
  9
$TDINDWG
 40
0.0000000116
  9
$TDUSRTIMER
 40
0.0000000116
  9
$USRTIMER
 70
     1
  9
$ANGBASE
 50
0.0
  9
$ANGDIR
 70
     0
  9
$PDMODE
 70
     0
  9
$PDSIZE
 40
0.0
  9
$PLINEWID
 40
0.0
  9
$SPLFRAME
 70
     0
  9
$SPLINETYPE
 70
     6
  9
$SPLINESEGS
 70
     8
  9
$HANDSEED
  5
E0
  9
$SURFTAB1
 70
     6
  9
$SURFTAB2
 70
     6
  9
$SURFTYPE
 70
     6
  9
$SURFU
 70
     6
  9
$SURFV
 70
     6
  9
$UCSBASE
  2

  9
$UCSNAME
  2

  9
$UCSORG
 10
0.0
 20
0.0
 30
0.0
  9
$UCSXDIR
 10
1.0
 20
0.0
 30
0.0
  9
$UCSYDIR
 10
0.0
 20
1.0
 30
0.0
  9
$UCSORTHOREF
  2

  9
$UCSORTHOVIEW
 70
     0
  9
$UCSORGTOP
 10
0.0
 20
0.0
 30
0.0
  9
$UCSORGBOTTOM
 10
0.0
 20
0.0
 30
0.0
  9
$UCSORGLEFT
 10
0.0
 20
0.0
 30
0.0
  9
$UCSORGRIGHT
 10
0.0
 20
0.0
 30
0.0
  9
$UCSORGFRONT
 10
0.0
 20
0.0
 30
0.0
  9
$UCSORGBACK
 10
0.0
 20
0.0
 30
0.0
  9
$PUCSBASE
  2

  9
$PUCSNAME
  2

  9
$PUCSORG
 10
0.0
 20
0.0
 30
0.0
  9
$PUCSXDIR
 10
1.0
 20
0.0
 30
0.0
  9
$PUCSYDIR
 10
0.0
 20
1.0
 30
0.0
  9
$PUCSORTHOREF
  2

  9
$PUCSORTHOVIEW
 70
     0
  9
$PUCSORGTOP
 10
0.0
 20
0.0
 30
0.0
  9
$PUCSORGBOTTOM
 10
0.0
 20
0.0
 30
0.0
  9
$PUCSORGLEFT
 10
0.0
 20
0.0
 30
0.0
  9
$PUCSORGRIGHT
 10
0.0
 20
0.0
 30
0.0
  9
$PUCSORGFRONT
 10
0.0
 20
0.0
 30
0.0
  9
$PUCSORGBACK
 10
0.0
 20
0.0
 30
0.0
  9
$USERI1
 70
     0
  9
$USERI2
 70
     0
  9
$USERI3
 70
     0
  9
$USERI4
 70
     0
  9
$USERI5
 70
     0
  9
$USERR1
 40
0.0
  9
$USERR2
 40
0.0
  9
$USERR3
 40
0.0
  9
$USERR4
 40
0.0
  9
$USERR5
 40
0.0
  9
$WORLDVIEW
 70
     1
  9
$SHADEDGE
 70
     3
  9
$SHADEDIF
 70
    70
  9
$TILEMODE
 70
     1
  9
$MAXACTVP
 70
    64
  9
$PINSBASE
 10
0.0
 20
0.0
 30
0.0
  9
$PLIMCHECK
 70
     0
  9
$PEXTMIN
 10
1.000000000000000E+20
 20
1.000000000000000E+20
 30
1.000000000000000E+20
  9
$PEXTMAX
 10
-1.000000000000000E+20
 20
-1.000000000000000E+20
 30
-1.000000000000000E+20
  9
$PLIMMIN
 10
0.0
 20
0.0
  9
$PLIMMAX
 10
12.0
 20
9.0
  9
$UNITMODE
 70
     0
  9
$VISRETAIN
 70
     1
  9
$PLINEGEN
 70
     0
  9
$PSLTSCALE
 70
     1
  9
$TREEDEPTH
 70
  3020
  9
$CMLSTYLE
  2
Standard
  9
$CMLJUST
 70
     0
  9
$CMLSCALE
 40
1.0
  9
$PROXYGRAPHICS
 70
     1
  9
$MEASUREMENT
 70
     0
  9
$CELWEIGHT
370
    -1
  9
$ENDCAPS
280
     0
  9
$JOINSTYLE
280
     0
  9
$LWDISPLAY
290
     1
  9
$INSUNITS
 70
     1
  9
$HYPERLINKBASE
  1

  9
$STYLESHEET
  1

  9
$XEDIT
290
     1
  9
$CEPSNTYPE
380
     0
  9
$PSTYLEMODE
290
     1
  9
$FINGERPRINTGUID
  2
{E18D5F45-1D9D-0C1C-2536-6ACABD8883D7}
  9
$VERSIONGUID
  2
{FAEB1C32-E019-11D5-929B-00C0DF256EC4}
  9
$EXTNAMES
290
     1
  9
$PSVPSCALE
 40
0.0
  9
$OLESTARTUP
290
     0
  9
$SORTENTS
280
   127
  9
$INDEXCTL
280
     0
  9
$HIDETEXT
280
     1
  9
$XCLIPFRAME
280
     2
  9
$HALOGAP
280
     0
  9
$OBSCOLOR
 70
   257
  9
$OBSLTYPE
280
     0
  9
$INTERSECTIONDISPLAY
280
     0
  9
$INTERSECTIONCOLOR
 70
   257
  9
$DIMASSOC
280
     2
  9
$PROJECTNAME
  1

  9
$CAMERADISPLAY
290
     0
  9
$LENSLENGTH
 40
50.0
  9
$CAMERAHEIGHT
 40
0.0
  9
$STEPSPERSEC
 40
2.0
  9
$STEPSIZE
 40
6.0
  9
$3DDWFPREC
 40
2.0
  9
$PSOLWIDTH
 40
0.25
  9
$PSOLHEIGHT
 40
4.0
  9
$LOFTANG1
 40
1.570796326794897
  9
$LOFTANG2
 40
1.570796326794897
  9
$LOFTMAG1
 40
0.0
  9
$LOFTMAG2
 40
0.0
  9
$LOFTPARAM
 70
     7
  9
$LOFTNORMALS
280
     1
  9
$LATITUDE
 40
37.795
  9
$LONGITUDE
 40
-122.394
  9
$NORTHDIRECTION
 40
0.0
  9
$TIMEZONE
 70
 -8000
  9
$LIGHTGLYPHDISPLAY
280
     1
  9
$TILEMODELIGHTSYNCH
280
     1
  9
$CMATERIAL
347
3C
  9
$SOLIDHIST
280
     1
  9
$SHOWHIST
280
     1
  9
$DWFFRAME
280
     2
  9
$DGNFRAME
280
     2
  9
$REALWORLDSCALE
290
     1
  9
$INTERFERECOLOR
 62
   256
  9
$CSHADOW
280
     0
  9
$SHADOWPLANELOCATION
 40
0.0
  0
ENDSEC
  0
SECTION
  2
CLASSES
  0
CLASS
  1
ACDBDICTIONARYWDFLT
  2
AcDbDictionaryWithDefault
  3
ObjectDBX Classes
 90
        0
 91
        4
280
     0
281
     0
  0
CLASS
  1
VISUALSTYLE
  2
AcDbVisualStyle
  3
ObjectDBX Classes
 90
     4095
 91
        4
280
     0
281
     0
  0
CLASS
  1
MATERIAL
  2
AcDbMaterial
  3
ObjectDBX Classes
 90
     1153
 91
        4
280
     0
281
     0
  0
CLASS
  1
SUN
  2
AcDbSun
  3
SCENEOE
 90
     1024
 91
        4
280
     0
281
     0
  0
ENDSEC
  0
SECTION
  2
TABLES
  0
TABLE
  2
VPORT
  5
8
330
0
100
AcDbSymbolTable
 70
     1
  0
VPORT
  5
29
330
8
100
AcDbSymbolTableRecord
100
AcDbViewportTableRecord
  2
*Active
 70
     0
 10
0.0
 20
0.0
 11
1.0
 21
1.0
 12
0.0
 22
0.0
 13
0.0
 23
0.0
 14
0.5
 24
0.5
 15
0.5
 25
0.5
 16
0.0
 26
0.0
 36
1.0
 17
91.00082462281999
 27
-128.4993055234307
 37
0.0
 40
256.9986110468615
 41
0.7081814508812795
 42
50.0
 43
0.0
 44
0.0
 50
0.0
 51
0.0
 71
     0
 72
   100
 73
     1
 74
     3
 75
     0
 76
     0
 77
     0
 78
     0
281
     0
 65
     1
110
0.0
120
0.0
130
0.0
111
1.0
121
0.0
131
0.0
112
0.0
122
1.0
132
0.0
 79
     0
146
0.0
 60
     3
 61
     5
292
     1
282
     1
141
0.0
142
0.0
 63
   250
361
3F
  0
ENDTAB
  0
TABLE
  2
LTYPE
  5
5
330
0
100
AcDbSymbolTable
 70
     1
  0
LTYPE
  5
14
330
5
100
AcDbSymbolTableRecord
100
AcDbLinetypeTableRecord
  2
ByBlock
 70
     0
  3

 72
    65
 73
     0
 40
0.0
  0
LTYPE
  5
15
330
5
100
AcDbSymbolTableRecord
100
AcDbLinetypeTableRecord
  2
ByLayer
 70
     0
  3

 72
    65
 73
     0
 40
0.0
  0
LTYPE
  5
16
330
5
100
AcDbSymbolTableRecord
100
AcDbLinetypeTableRecord
  2
Continuous
 70
     0
  3
Solid line
 72
    65
 73
     0
 40
0.0
  0
ENDTAB
  0
TABLE
  2
LAYER
  5
2
330
0
100
AcDbSymbolTable
 70
     2
  0
LAYER
  5
10
330
2
100
AcDbSymbolTableRecord
100
AcDbLayerTableRecord
  2
0
 70
     0
 62
     7
  6
Continuous
370
    -3
390
F
347
3E
  0
LAYER
  5
40
330
2
100
AcDbSymbolTableRecord
100
AcDbLayerTableRecord
  2
_U+30EC_U+30A4_U+30E4_U+30FC 1
 70
     0
 62
     7
  6
Continuous
370
    -3
390
F
347
3E
  0
ENDTAB
  0
TABLE
  2
STYLE
  5
3
330
0
100
AcDbSymbolTable
 70
     1
  0
STYLE
  5
11
330
3
100
AcDbSymbolTableRecord
100
AcDbTextStyleTableRecord
  2
Standard
 70
     0
 40
0.0
 41
1.0
 50
0.0
 71
     0
 42
0.2
  3
txt
  4

  0
ENDTAB
  0
TABLE
  2
VIEW
  5
6
330
0
100
AcDbSymbolTable
 70
     0
  0
ENDTAB
  0
TABLE
  2
UCS
  5
7
330
0
100
AcDbSymbolTable
 70
     0
  0
ENDTAB
  0
TABLE
  2
APPID
  5
9
330
0
100
AcDbSymbolTable
 70
     1
  0
APPID
  5
12
330
9
100
AcDbSymbolTableRecord
100
AcDbRegAppTableRecord
  2
ACAD
 70
     0
  0
ENDTAB
  0
TABLE
  2
DIMSTYLE
  5
A
330
0
100
AcDbSymbolTable
 70
     1
100
AcDbDimStyleTable
  0
DIMSTYLE
105
27
330
A
100
AcDbSymbolTableRecord
100
AcDbDimStyleTableRecord
  2
Standard
 70
     0
178
     0
340
11
  0
ENDTAB
  0
TABLE
  2
BLOCK_RECORD
  5
1
330
0
100
AcDbSymbolTable
 70
     4
  0
BLOCK_RECORD
  5
1F
330
1
100
AcDbSymbolTableRecord
100
AcDbBlockTableRecord
  2
*Model_Space
340
22
 70
     0
280
     1
281
     0
  0
BLOCK_RECORD
  5
1B
330
1
100
AcDbSymbolTableRecord
100
AcDbBlockTableRecord
  2
*Paper_Space
340
1E
 70
     0
280
     1
281
     0
  0
BLOCK_RECORD
  5
23
330
1
100
AcDbSymbolTableRecord
100
AcDbBlockTableRecord
  2
*Paper_Space0
340
26
 70
     0
280
     1
281
     0
  0
BLOCK_RECORD
  5
80
330
1
100
AcDbSymbolTableRecord
100
AcDbBlockTableRecord
  2
block 2
340
0
102
{BLKREFS
331
81
102
}
 70
     0
280
     1
281
     0
  0
BLOCK_RECORD
  5
96
330
1
100
AcDbSymbolTableRecord
100
AcDbBlockTableRecord
  2
block 3
340
0
102
{BLKREFS
331
97
102
}
 70
     0
280
     1
281
     0
  0
BLOCK_RECORD
  5
C9
330
1
100
AcDbSymbolTableRecord
100
AcDbBlockTableRecord
  2
block 4
340
0
102
{BLKREFS
331
CA
102
}
 70
     0
280
     1
281
     0
  0
ENDTAB
  0
ENDSEC
  0
SECTION
  2
BLOCKS
  0
BLOCK
  5
20
330
1F
100
AcDbEntity
  8
0
100
AcDbBlockBegin
  2
*Model_Space
 70
     0
 10
0.0
 20
0.0
 30
0.0
  3
*Model_Space
  1

  0
ENDBLK
  5
21
330
1F
100
AcDbEntity
  8
0
100
AcDbBlockEnd
  0
BLOCK
  5
1C
330
1B
100
AcDbEntity
 67
     1
  8
0
100
AcDbBlockBegin
  2
*Paper_Space
 70
     0
 10
0.0
 20
0.0
 30
0.0
  3
*Paper_Space
  1

  0
ENDBLK
  5
1D
330
1B
100
AcDbEntity
 67
     1
  8
0
100
AcDbBlockEnd
  0
BLOCK
  5
24
330
23
100
AcDbEntity
  8
0
100
AcDbBlockBegin
  2
*Paper_Space0
 70
     0
 10
0.0
 20
0.0
 30
0.0
  3
*Paper_Space0
  1

  0
ENDBLK
  5
25
330
23
100
AcDbEntity
  8
0
100
AcDbBlockEnd
  0
BLOCK
  5
82
330
80
100
AcDbEntity
  8
0
100
AcDbBlockBegin
  2
block 2
 70
     0
 10
0.0
 20
0.0
 30
0.0
  3
block 2
  1

  0
SPLINE
  5
84
330
80
100
AcDbEntity
  8
_U+30EC_U+30A4_U+30E4_U+30FC 1
370
     0
100
AcDbSpline
210
0.0
220
0.0
230
1.0
 70
    11
 71
     3
 72
    26
 73
    22
 74
     0
 42
0.0000000001
 43
0.0000000001
 12
1.0
 22
0.0
 32
0.0
 13
1.0
 23
0.0
 33
0.0
 40
0.0
 40
0.0
 40
0.0
 40
0.0
 40
1.0
 40
1.0
 40
1.0
 40
2.0
 40
2.0
 40
2.0
 40
3.0
 40
3.0
 40
3.0
 40
4.0
 40
4.0
 40
4.0
 40
5.0
 40
5.0
 40
5.0
 40
6.0
 40
6.0
 40
6.0
 40
7.0
 40
7.0
 40
7.0
 40
7.0
 10
94.61541338780448
 20
-119.7479017170248
 30
0.0
 10
94.61541338780448
 20
-119.7479017170248
 30
0.0
 10
94.61541338780448
 20
-118.643576359228
 30
0.0
 10
94.61541338780448
 20
-118.643576359228
 30
0.0
 10
94.61541338780448
 20
-118.643576359228
 30
0.0
 10
94.2970865649674
 20
-118.643576359228
 30
0.0
 10
94.2970865649674
 20
-118.643576359228
 30
0.0
 10
94.2970865649674
 20
-118.643576359228
 30
0.0
 10
94.2970865649674
 20
-118.4956095081365
 30
0.0
 10
94.2970865649674
 20
-118.4956095081365
 30
0.0
 10
94.61748044509564
 20
-118.4807955975499
 30
0.0
 10
94.66226668640388
 20
-118.3178425810976
 30
0.0
 10
94.69086097893145
 20
-118.2036376657616
 30
0.0
 10
94.69086097893145
 20
-118.2036376657616
 30
0.0
 10
94.83142087472964
 20
-118.2036376657616
 30
0.0
 10
94.83142087472964
 20
-118.2036376657616
 30
0.0
 10
94.83142087472964
 20
-118.2036376657616
 30
0.0
 10
94.83142087472964
 20
-119.7479017170248
 30
0.0
 10
94.83142087472964
 20
-119.7479017170248
 30
0.0
 10
94.83142087472964
 20
-119.7479017170248
 30
0.0
 10
94.61541338780448
 20
-119.7479017170248
 30
0.0
 10
94.61541338780448
 20
-119.7479017170248
 30
0.0
  0
HATCH
  5
85
330
80
100
AcDbEntity
  8
_U+30EC_U+30A4_U+30E4_U+30FC 1
 62
   179
420
  2234388
100
AcDbHatch
 10
0.0
 20
0.0
 30
0.0
210
0.0
220
0.0
230
1.0
  2
SOLID
 70
     1
 71
     0
 91
        1
 92
        1
 93
        1
 72
     4
 94
        3
 73
     0
 74
     1
 95
       26
 96
       22
 40
0.0
 40
0.0
 40
0.0
 40
0.0
 40
1.0
 40
1.0
 40
1.0
 40
2.0
 40
2.0
 40
2.0
 40
3.0
 40
3.0
 40
3.0
 40
4.0
 40
4.0
 40
4.0
 40
5.0
 40
5.0
 40
5.0
 40
6.0
 40
6.0
 40
6.0
 40
7.0
 40
7.0
 40
7.0
 40
7.0
 10
94.61541338780448
 20
-119.7479017170248
 10
94.61541338780448
 20
-119.7479017170248
 10
94.61541338780448
 20
-118.643576359228
 10
94.61541338780448
 20
-118.643576359228
 10
94.61541338780448
 20
-118.643576359228
 10
94.2970865649674
 20
-118.643576359228
 10
94.2970865649674
 20
-118.643576359228
 10
94.2970865649674
 20
-118.643576359228
 10
94.2970865649674
 20
-118.4956095081365
 10
94.2970865649674
 20
-118.4956095081365
 10
94.61748044509564
 20
-118.4807955975499
 10
94.66226668640388
 20
-118.3178425810976
 10
94.69086097893145
 20
-118.2036376657616
 10
94.69086097893145
 20
-118.2036376657616
 10
94.83142087472964
 20
-118.2036376657616
 10
94.83142087472964
 20
-118.2036376657616
 10
94.83142087472964
 20
-118.2036376657616
 10
94.83142087472964
 20
-119.7479017170248
 10
94.83142087472964
 20
-119.7479017170248
 10
94.83142087472964
 20
-119.7479017170248
 10
94.61541338780448
 20
-119.7479017170248
 10
94.61541338780448
 20
-119.7479017170248
 97
        0
 97
        0
 75
     2
 76
     1
 98
        0
  0
SPLINE
  5
86
330
80
100
AcDbEntity
  8
_U+30EC_U+30A4_U+30E4_U+30FC 1
370
     0
100
AcDbSpline
210
0.0
220
0.0
230
1.0
 70
    11
 71
     3
 72
    29
 73
    25
 74
     0
 42
0.0000000001
 43
0.0000000001
 12
1.0
 22
0.0
 32
0.0
 13
1.0
 23
0.0
 33
0.0
 40
0.0
 40
0.0
 40
0.0
 40
0.0
 40
1.0
 40
1.0
 40
1.0
 40
2.0
 40
2.0
 40
2.0
 40
3.0
 40
3.0
 40
3.0
 40
4.0
 40
4.0
 40
4.0
 40
5.0
 40
5.0
 40
5.0
 40
6.0
 40
6.0
 40
6.0
 40
7.0
 40
7.0
 40
7.0
 40
8.0
 40
8.0
 40
8.0
 40
8.0
 10
96.17914222855939
 20
-119.5703070447602
 30
0.0
 10
96.07510034490484
 20
-119.7795965954891
 30
0.0
 10
95.9076687043217
 20
-119.7987168754323
 30
0.0
 10
95.79570310105107
 20
-119.7987168754323
 30
0.0
 10
95.64067380421484
 20
-119.7987168754323
 30
0.0
 10
95.50390351345041
 20
-119.7522080863814
 30
0.0
 10
95.41191946399425
 20
-119.5703070447602
 30
0.0
 10
95.312011694922
 20
-119.3756591498436
 30
0.0
 10
95.29375268885018
 20
-119.1386365804584
 30
0.0
 10
95.29375268885018
 20
-118.9758558187803
 30
0.0
 10
95.29375268885018
 20
-118.8318508274969
 30
0.0
 10
95.30994463763085
 20
-118.5801866022994
 30
0.0
 10
95.41191946399425
 20
-118.3814045928005
 30
0.0
 10
95.5159613476488
 20
-118.1781439591708
 30
0.0
 10
95.67133515403356
 20
-118.1548895646453
 30
0.0
 10
95.79570310105107
 20
-118.1548895646453
 30
0.0
 10
95.94866534059616
 20
-118.1548895646453
 30
0.0
 10
96.08750268865174
 20
-118.199331296405
 30
0.0
 10
96.17914222855939
 20
-118.3814045928005
 30
0.0
 10
96.27491588304933
 20
-118.5738131756517
 30
0.0
 10
96.29765351325197
 20
-118.8022230063238
 30
0.0
 10
96.29765351325197
 20
-118.9758558187803
 30
0.0
 10
96.29765351325197
 20
-119.1470770643973
 30
0.0
 10
96.27698294034047
 20
-119.3777262071347
 30
0.0
 10
96.17914222855939
 20
-119.5703070447602
 30
0.0
  0
SPLINE
  5
87
330
80
100
AcDbEntity
  8
_U+30EC_U+30A4_U+30E4_U+30FC 1
370
     0
100
AcDbSpline
210
0.0
220
0.0
230
1.0
 70
    11
 71
     3
 72
    17
 73
    13
 74
     0
 42
0.0000000001
 43
0.0000000001
 12
1.0
 22
0.0
 32
0.0
 13
1.0
 23
0.0
 33
0.0
 40
0.0
 40
0.0
 40
0.0
 40
0.0
 40
1.0
 40
1.0
 40
1.0
 40
2.0
 40
2.0
 40
2.0
 40
3.0
 40
3.0
 40
3.0
 40
4.0
 40
4.0
 40
4.0
 40
4.0
 10
95.79570310105107
 20
-118.3474704022708
 30
0.0
 10
95.55489092663211
 20
-118.3474704022708
 30
0.0
 10
95.51010468532387
 20
-118.6310017607068
 30
0.0
 10
95.51010468532387
 20
-118.9758558187803
 30
0.0
 10
95.51010468532387
 20
-119.295216170263
 30
0.0
 10
95.54455564017637
 20
-119.6040689805156
 30
0.0
 10
95.79570310105107
 20
-119.6040689805156
 30
0.0
 10
96.0344482181789
 20
-119.6040689805156
 30
0.0
 10
96.0813015167783
 20
-119.322776934145
 30
0.0
 10
96.0813015167783
 20
-118.9758558187803
 30
0.0
 10
96.0813015167783
 20
-118.6563232125234
 30
0.0
 10
96.04443899508611
 20
-118.3474704022708
 30
0.0
 10
95.79570310105107
 20
-118.3474704022708
 30
0.0
  0
HATCH
  5
88
330
80
100
AcDbEntity
  8
_U+30EC_U+30A4_U+30E4_U+30FC 1
 62
   179
420
  2234388
100
AcDbHatch
 10
0.0
 20
0.0
 30
0.0
210
0.0
220
0.0
230
1.0
  2
SOLID
 70
     1
 71
     0
 91
        2
 92
        1
 93
        1
 72
     4
 94
        3
 73
     0
 74
     1
 95
       29
 96
       25
 40
0.0
 40
0.0
 40
0.0
 40
0.0
 40
1.0
 40
1.0
 40
1.0
 40
2.0
 40
2.0
 40
2.0
 40
3.0
 40
3.0
 40
3.0
 40
4.0
 40
4.0
 40
4.0
 40
5.0
 40
5.0
 40
5.0
 40
6.0
 40
6.0
 40
6.0
 40
7.0
 40
7.0
 40
7.0
 40
8.0
 40
8.0
 40
8.0
 40
8.0
 10
96.17914222855939
 20
-119.5703070447602
 10
96.07510034490484
 20
-119.7795965954891
 10
95.9076687043217
 20
-119.7987168754323
 10
95.79570310105107
 20
-119.7987168754323
 10
95.64067380421484
 20
-119.7987168754323
 10
95.50390351345041
 20
-119.7522080863814
 10
95.41191946399425
 20
-119.5703070447602
 10
95.312011694922
 20
-119.3756591498436
 10
95.29375268885018
 20
-119.1386365804584
 10
95.29375268885018
 20
-118.9758558187803
 10
95.29375268885018
 20
-118.8318508274969
 10
95.30994463763085
 20
-118.5801866022994
 10
95.41191946399425
 20
-118.3814045928005
 10
95.5159613476488
 20
-118.1781439591708
 10
95.67133515403356
 20
-118.1548895646453
 10
95.79570310105107
 20
-118.1548895646453
 10
95.94866534059616
 20
-118.1548895646453
 10
96.08750268865174
 20
-118.199331296405
 10
96.17914222855939
 20
-118.3814045928005
 10
96.27491588304933
 20
-118.5738131756517
 10
96.29765351325197
 20
-118.8022230063238
 10
96.29765351325197
 20
-118.9758558187803
 10
96.29765351325197
 20
-119.1470770643973
 10
96.27698294034047
 20
-119.3777262071347
 10
96.17914222855939
 20
-119.5703070447602
 97
        0
 97
        0
 92
        1
 93
        1
 72
     4
 94
        3
 73
     0
 74
     1
 95
       17
 96
       13
 40
0.0
 40
0.0
 40
0.0
 40
0.0
 40
1.0
 40
1.0
 40
1.0
 40
2.0
 40
2.0
 40
2.0
 40
3.0
 40
3.0
 40
3.0
 40
4.0
 40
4.0
 40
4.0
 40
4.0
 10
95.79570310105107
 20
-118.3474704022708
 10
95.55489092663211
 20
-118.3474704022708
 10
95.51010468532387
 20
-118.6310017607068
 10
95.51010468532387
 20
-118.9758558187803
 10
95.51010468532387
 20
-119.295216170263
 10
95.54455564017637
 20
-119.6040689805156
 10
95.79570310105107
 20
-119.6040689805156
 10
96.0344482181789
 20
-119.6040689805156
 10
96.0813015167783
 20
-119.322776934145
 10
96.0813015167783
 20
-118.9758558187803
 10
96.0813015167783
 20
-118.6563232125234
 10
96.04443899508611
 20
-118.3474704022708
 10
95.79570310105107
 20
-118.3474704022708
 97
        0
 97
        0
 75
     2
 76
     1
 98
        0
  0
ENDBLK
  5
83
330
80
100
AcDbEntity
  8
0
100
AcDbBlockEnd
  0
BLOCK
  5
98
330
96
100
AcDbEntity
  8
0
100
AcDbBlockBegin
  2
block 3
 70
     0
 10
0.0
 20
0.0
 30
0.0
  3
block 3
  1

  0
SPLINE
  5
9A
330
96
100
AcDbEntity
  8
_U+30EC_U+30A4_U+30E4_U+30FC 1
370
     0
100
AcDbSpline
210
0.0
220
0.0
230
1.0
 70
    11
 71
     3
 72
    32
 73
    28
 74
     0
 42
0.0000000001
 43
0.0000000001
 12
1.0
 22
0.0
 32
0.0
 13
1.0
 23
0.0
 33
0.0
 40
0.0
 40
0.0
 40
0.0
 40
0.0
 40
1.0
 40
1.0
 40
1.0
 40
2.0
 40
2.0
 40
2.0
 40
3.0
 40
3.0
 40
3.0
 40
4.0
 40
4.0
 40
4.0
 40
5.0
 40
5.0
 40
5.0
 40
6.0
 40
6.0
 40
6.0
 40
7.0
 40
7.0
 40
7.0
 40
8.0
 40
8.0
 40
8.0
 40
9.0
 40
9.0
 40
9.0
 40
9.0
 10
94.40250648681605
 20
-138.2988796312239
 30
0.0
 10
93.90469018919744
 20
-138.2988796312239
 30
0.0
 10
93.89642196003284
 20
-137.7445637676472
 30
0.0
 10
93.89642196003284
 20
-137.5309678475617
 30
0.0
 10
93.89642196003284
 20
-137.3004909595985
 30
0.0
 10
93.9150254756532
 20
-136.6531575179201
 30
0.0
 10
94.43936900850822
 20
-136.6531575179201
 30
0.0
 10
94.60645613954283
 20
-136.6531575179201
 30
0.0
 10
94.84313419937949
 20
-136.7227484467221
 30
0.0
 10
94.87999672107168
 20
-137.0548556515002
 30
0.0
 10
94.87999672107168
 20
-137.0548556515002
 30
0.0
 10
94.67398001105373
 20
-137.0548556515002
 30
0.0
 10
94.67398001105373
 20
-137.0548556515002
 30
0.0
 10
94.66364472459799
 20
-136.997667066445
 30
0.0
 10
94.63298337477926
 20
-136.8498724701278
 30
0.0
 10
94.43730195121707
 20
-136.8498724701278
 30
0.0
 10
94.15549314052363
 20
-136.8498724701278
 30
0.0
 10
94.11690807108883
 20
-137.1775010507751
 30
0.0
 10
94.10450572734193
 20
-137.382828741696
 30
0.0
 10
94.19442271950696
 20
-137.3046250741808
 30
0.0
 10
94.25953502417818
 20
-137.2453694318345
 30
0.0
 10
94.43523489392592
 20
-137.2453694318345
 30
0.0
 10
94.60852319683399
 20
-137.2453694318345
 30
0.0
 10
94.90032278443465
 20
-137.3532009205228
 30
0.0
 10
94.90032278443465
 20
-137.7593776782338
 30
0.0
 10
94.90032278443465
 20
-138.0787380297164
 30
0.0
 10
94.70843096590623
 20
-138.2988796312239
 30
0.0
 10
94.40250648681605
 20
-138.2988796312239
 30
0.0
  0
SPLINE
  5
9B
330
96
100
AcDbEntity
  8
_U+30EC_U+30A4_U+30E4_U+30FC 1
370
     0
100
AcDbSpline
210
0.0
220
0.0
230
1.0
 70
    11
 71
     3
 72
    17
 73
    13
 74
     0
 42
0.0000000001
 43
0.0000000001
 12
1.0
 22
0.0
 32
0.0
 13
1.0
 23
0.0
 33
0.0
 40
0.0
 40
0.0
 40
0.0
 40
0.0
 40
1.0
 40
1.0
 40
1.0
 40
2.0
 40
2.0
 40
2.0
 40
3.0
 40
3.0
 40
3.0
 40
4.0
 40
4.0
 40
4.0
 40
4.0
 10
94.41869843559672
 20
-137.4400173267511
 30
0.0
 10
94.16582842697937
 20
-137.4400173267511
 30
0.0
 10
94.1289659052872
 20
-137.6515461895455
 30
0.0
 10
94.1289659052872
 20
-137.7679904169469
 30
0.0
 10
94.1289659052872
 20
-137.9433457771461
 30
0.0
 10
94.22094995474338
 20
-138.1062987935984
 30
0.0
 10
94.39837237223375
 20
-138.1062987935984
 30
0.0
 10
94.51481659963518
 20
-138.1062987935984
 30
0.0
 10
94.68397078796096
 20
-138.0470431512521
 30
0.0
 10
94.68397078796096
 20
-137.7614447355249
 30
0.0
 10
94.68397078796096
 20
-137.5371690194352
 30
0.0
 10
94.54926755448768
 20
-137.4400173267511
 30
0.0
 10
94.41869843559672
 20
-137.4400173267511
 30
0.0
  0
HATCH
  5
9C
330
96
100
AcDbEntity
  8
_U+30EC_U+30A4_U+30E4_U+30FC 1
 62
   179
420
  2234388
100
AcDbHatch
 10
0.0
 20
0.0
 30
0.0
210
0.0
220
0.0
230
1.0
  2
SOLID
 70
     1
 71
     0
 91
        2
 92
        1
 93
        1
 72
     4
 94
        3
 73
     0
 74
     1
 95
       32
 96
       28
 40
0.0
 40
0.0
 40
0.0
 40
0.0
 40
1.0
 40
1.0
 40
1.0
 40
2.0
 40
2.0
 40
2.0
 40
3.0
 40
3.0
 40
3.0
 40
4.0
 40
4.0
 40
4.0
 40
5.0
 40
5.0
 40
5.0
 40
6.0
 40
6.0
 40
6.0
 40
7.0
 40
7.0
 40
7.0
 40
8.0
 40
8.0
 40
8.0
 40
9.0
 40
9.0
 40
9.0
 40
9.0
 10
94.40250648681605
 20
-138.2988796312239
 10
93.90469018919744
 20
-138.2988796312239
 10
93.89642196003284
 20
-137.7445637676472
 10
93.89642196003284
 20
-137.5309678475617
 10
93.89642196003284
 20
-137.3004909595985
 10
93.9150254756532
 20
-136.6531575179201
 10
94.43936900850822
 20
-136.6531575179201
 10
94.60645613954283
 20
-136.6531575179201
 10
94.84313419937949
 20
-136.7227484467221
 10
94.87999672107168
 20
-137.0548556515002
 10
94.87999672107168
 20
-137.0548556515002
 10
94.67398001105373
 20
-137.0548556515002
 10
94.67398001105373
 20
-137.0548556515002
 10
94.66364472459799
 20
-136.997667066445
 10
94.63298337477926
 20
-136.8498724701278
 10
94.43730195121707
 20
-136.8498724701278
 10
94.15549314052363
 20
-136.8498724701278
 10
94.11690807108883
 20
-137.1775010507751
 10
94.10450572734193
 20
-137.382828741696
 10
94.19442271950696
 20
-137.3046250741808
 10
94.25953502417818
 20
-137.2453694318345
 10
94.43523489392592
 20
-137.2453694318345
 10
94.60852319683399
 20
-137.2453694318345
 10
94.90032278443465
 20
-137.3532009205228
 10
94.90032278443465
 20
-137.7593776782338
 10
94.90032278443465
 20
-138.0787380297164
 10
94.70843096590623
 20
-138.2988796312239
 10
94.40250648681605
 20
-138.2988796312239
 97
        0
 97
        0
 92
        1
 93
        1
 72
     4
 94
        3
 73
     0
 74
     1
 95
       17
 96
       13
 40
0.0
 40
0.0
 40
0.0
 40
0.0
 40
1.0
 40
1.0
 40
1.0
 40
2.0
 40
2.0
 40
2.0
 40
3.0
 40
3.0
 40
3.0
 40
4.0
 40
4.0
 40
4.0
 40
4.0
 10
94.41869843559672
 20
-137.4400173267511
 10
94.16582842697937
 20
-137.4400173267511
 10
94.1289659052872
 20
-137.6515461895455
 10
94.1289659052872
 20
-137.7679904169469
 10
94.1289659052872
 20
-137.9433457771461
 10
94.22094995474338
 20
-138.1062987935984
 10
94.39837237223375
 20
-138.1062987935984
 10
94.51481659963518
 20
-138.1062987935984
 10
94.68397078796096
 20
-138.0470431512521
 10
94.68397078796096
 20
-137.7614447355249
 10
94.68397078796096
 20
-137.5371690194352
 10
94.54926755448768
 20
-137.4400173267511
 10
94.41869843559672
 20
-137.4400173267511
 97
        0
 97
        0
 75
     2
 76
     1
 98
        0
  0
POLYLINE
  5
9D
330
96
100
AcDbEntity
  8
_U+30EC_U+30A4_U+30E4_U+30FC 1
370
     0
100
AcDb2dPolyline
 66
     1
 10
0.0
 20
0.0
 30
0.0
  0
VERTEX
  5
9E
330
9D
100
AcDbEntity
  8
_U+30EC_U+30A4_U+30E4_U+30FC 1
370
     0
100
AcDbVertex
100
AcDb2dVertex
 10
95.10737302309816
 20
-138.2482367275907
 30
0.0
  0
VERTEX
  5
9F
330
9D
100
AcDbEntity
  8
_U+30EC_U+30A4_U+30E4_U+30FC 1
370
     0
100
AcDbVertex
100
AcDb2dVertex
 10
95.10737302309816
 20
-137.996400247619
 30
0.0
  0
VERTEX
  5
A0
330
9D
100
AcDbEntity
  8
_U+30EC_U+30A4_U+30E4_U+30FC 1
370
     0
100
AcDbVertex
100
AcDb2dVertex
 10
95.35025225480827
 20
-137.996400247619
 30
0.0
  0
VERTEX
  5
A1
330
9D
100
AcDbEntity
  8
_U+30EC_U+30A4_U+30E4_U+30FC 1
370
     0
100
AcDbVertex
100
AcDb2dVertex
 10
95.35025225480827
 20
-138.2482367275907
 30
0.0
  0
VERTEX
  5
A2
330
9D
100
AcDbEntity
  8
_U+30EC_U+30A4_U+30E4_U+30FC 1
370
     0
100
AcDbVertex
100
AcDb2dVertex
 10
95.10737302309816
 20
-138.2482367275907
 30
0.0
  0
SEQEND
  5
A3
330
9D
100
AcDbEntity
  8
_U+30EC_U+30A4_U+30E4_U+30FC 1
370
     0
  0
HATCH
  5
A4
330
96
100
AcDbEntity
  8
_U+30EC_U+30A4_U+30E4_U+30FC 1
 62
   179
420
  2234388
100
AcDbHatch
 10
0.0
 20
0.0
 30
0.0
210
0.0
220
0.0
230
1.0
  2
SOLID
 70
     1
 71
     0
 91
        1
 92
        1
 93
        4
 72
     1
 10
95.10737302309816
 20
-138.2482367275907
 11
95.10737302309816
 21
-137.996400247619
 72
     1
 10
95.10737302309816
 20
-137.996400247619
 11
95.35025225480827
 21
-137.996400247619
 72
     1
 10
95.35025225480827
 20
-137.996400247619
 11
95.35025225480827
 21
-138.2482367275907
 72
     1
 10
95.35025225480827
 20
-138.2482367275907
 11
95.10737302309816
 21
-138.2482367275907
 97
        0
 75
     2
 76
     1
 98
        0
  0
POLYLINE
  5
A5
330
96
100
AcDbEntity
  8
_U+30EC_U+30A4_U+30E4_U+30FC 1
370
     0
100
AcDb2dPolyline
 66
     1
 10
0.0
 20
0.0
 30
0.0
  0
VERTEX
  5
A6
330
A5
100
AcDbEntity
  8
_U+30EC_U+30A4_U+30E4_U+30FC 1
370
     0
100
AcDbVertex
100
AcDb2dVertex
 10
96.37999129534946
 20
-137.9013156122261
 30
0.0
  0
VERTEX
  5
A7
330
A5
100
AcDbEntity
  8
_U+30EC_U+30A4_U+30E4_U+30FC 1
370
     0
100
AcDbVertex
100
AcDb2dVertex
 10
96.37999129534946
 20
-138.2482367275907
 30
0.0
  0
VERTEX
  5
A8
330
A5
100
AcDbEntity
  8
_U+30EC_U+30A4_U+30E4_U+30FC 1
370
     0
100
AcDbVertex
100
AcDb2dVertex
 10
96.16984047074921
 20
-138.2482367275907
 30
0.0
  0
VERTEX
  5
A9
330
A5
100
AcDbEntity
  8
_U+30EC_U+30A4_U+30E4_U+30FC 1
370
     0
100
AcDbVertex
100
AcDb2dVertex
 10
96.16984047074921
 20
-137.9013156122261
 30
0.0
  0
VERTEX
  5
AA
330
A5
100
AcDbEntity
  8
_U+30EC_U+30A4_U+30E4_U+30FC 1
370
     0
100
AcDbVertex
100
AcDb2dVertex
 10
95.53732093965733
 20
-137.9013156122261
 30
0.0
  0
VERTEX
  5
AB
330
A5
100
AcDbEntity
  8
_U+30EC_U+30A4_U+30E4_U+30FC 1
370
     0
100
AcDbVertex
100
AcDb2dVertex
 10
95.53732093965733
 20
-137.6770398961363
 30
0.0
  0
VERTEX
  5
AC
330
A5
100
AcDbEntity
  8
_U+30EC_U+30A4_U+30E4_U+30FC 1
370
     0
100
AcDbVertex
100
AcDb2dVertex
 10
96.19223359140334
 20
-136.7038004215532
 30
0.0
  0
VERTEX
  5
AD
330
A5
100
AcDbEntity
  8
_U+30EC_U+30A4_U+30E4_U+30FC 1
370
     0
100
AcDbVertex
100
AcDb2dVertex
 10
96.37999129534946
 20
-136.7038004215532
 30
0.0
  0
VERTEX
  5
AE
330
A5
100
AcDbEntity
  8
_U+30EC_U+30A4_U+30E4_U+30FC 1
370
     0
100
AcDbVertex
100
AcDb2dVertex
 10
96.37999129534946
 20
-137.7021890931786
 30
0.0
  0
VERTEX
  5
AF
330
A5
100
AcDbEntity
  8
_U+30EC_U+30A4_U+30E4_U+30FC 1
370
     0
100
AcDbVertex
100
AcDb2dVertex
 10
96.58015134304247
 20
-137.7021890931786
 30
0.0
  0
VERTEX
  5
B0
330
A5
100
AcDbEntity
  8
_U+30EC_U+30A4_U+30E4_U+30FC 1
370
     0
100
AcDbVertex
100
AcDb2dVertex
 10
96.58015134304247
 20
-137.9013156122261
 30
0.0
  0
VERTEX
  5
B1
330
A5
100
AcDbEntity
  8
_U+30EC_U+30A4_U+30E4_U+30FC 1
370
     0
100
AcDbVertex
100
AcDb2dVertex
 10
96.37999129534946
 20
-137.9013156122261
 30
0.0
  0
SEQEND
  5
B2
330
A5
100
AcDbEntity
  8
_U+30EC_U+30A4_U+30E4_U+30FC 1
370
     0
  0
POLYLINE
  5
B3
330
96
100
AcDbEntity
  8
_U+30EC_U+30A4_U+30E4_U+30FC 1
370
     0
100
AcDb2dPolyline
 66
     1
 10
0.0
 20
0.0
 30
0.0
  0
VERTEX
  5
B4
330
B3
100
AcDbEntity
  8
_U+30EC_U+30A4_U+30E4_U+30FC 1
370
     0
100
AcDbVertex
100
AcDb2dVertex
 10
96.16984047074921
 20
-137.0465874223356
 30
0.0
  0
VERTEX
  5
B5
330
B3
100
AcDbEntity
  8
_U+30EC_U+30A4_U+30E4_U+30FC 1
370
     0
100
AcDbVertex
100
AcDb2dVertex
 10
95.72921275818575
 20
-137.7021890931786
 30
0.0
  0
VERTEX
  5
B6
330
B3
100
AcDbEntity
  8
_U+30EC_U+30A4_U+30E4_U+30FC 1
370
     0
100
AcDbVertex
100
AcDb2dVertex
 10
96.16984047074921
 20
-137.7021890931786
 30
0.0
  0
VERTEX
  5
B7
330
B3
100
AcDbEntity
  8
_U+30EC_U+30A4_U+30E4_U+30FC 1
370
     0
100
AcDbVertex
100
AcDb2dVertex
 10
96.16984047074921
 20
-137.0465874223356
 30
0.0
  0
SEQEND
  5
B8
330
B3
100
AcDbEntity
  8
_U+30EC_U+30A4_U+30E4_U+30FC 1
370
     0
  0
HATCH
  5
B9
330
96
100
AcDbEntity
  8
_U+30EC_U+30A4_U+30E4_U+30FC 1
 62
   179
420
  2234388
100
AcDbHatch
 10
0.0
 20
0.0
 30
0.0
210
0.0
220
0.0
230
1.0
  2
SOLID
 70
     1
 71
     0
 91
        2
 92
        1
 93
       11
 72
     1
 10
96.37999129534946
 20
-137.9013156122261
 11
96.37999129534946
 21
-138.2482367275907
 72
     1
 10
96.37999129534946
 20
-138.2482367275907
 11
96.16984047074921
 21
-138.2482367275907
 72
     1
 10
96.16984047074921
 20
-138.2482367275907
 11
96.16984047074921
 21
-137.9013156122261
 72
     1
 10
96.16984047074921
 20
-137.9013156122261
 11
95.53732093965733
 21
-137.9013156122261
 72
     1
 10
95.53732093965733
 20
-137.9013156122261
 11
95.53732093965733
 21
-137.6770398961363
 72
     1
 10
95.53732093965733
 20
-137.6770398961363
 11
96.19223359140334
 21
-136.7038004215532
 72
     1
 10
96.19223359140334
 20
-136.7038004215532
 11
96.37999129534946
 21
-136.7038004215532
 72
     1
 10
96.37999129534946
 20
-136.7038004215532
 11
96.37999129534946
 21
-137.7021890931786
 72
     1
 10
96.37999129534946
 20
-137.7021890931786
 11
96.58015134304247
 21
-137.7021890931786
 72
     1
 10
96.58015134304247
 20
-137.7021890931786
 11
96.58015134304247
 21
-137.9013156122261
 72
     1
 10
96.58015134304247
 20
-137.9013156122261
 11
96.37999129534946
 21
-137.9013156122261
 97
        0
 92
        1
 93
        3
 72
     1
 10
96.16984047074921
 20
-137.0465874223356
 11
95.72921275818575
 21
-137.7021890931786
 72
     1
 10
95.72921275818575
 20
-137.7021890931786
 11
96.16984047074921
 21
-137.7021890931786
 72
     1
 10
96.16984047074921
 20
-137.7021890931786
 11
96.16984047074921
 21
-137.0465874223356
 97
        0
 75
     2
 76
     1
 98
        0
  0
ENDBLK
  5
99
330
96
100
AcDbEntity
  8
0
100
AcDbBlockEnd
  0
BLOCK
  5
CB
330
C9
100
AcDbEntity
  8
0
100
AcDbBlockBegin
  2
block 4
 70
     0
 10
0.0
 20
0.0
 30
0.0
  3
block 4
  1

  0
SPLINE
  5
CD
330
C9
100
AcDbEntity
  8
_U+30EC_U+30A4_U+30E4_U+30FC 1
370
     0
100
AcDbSpline
210
0.0
220
0.0
230
1.0
 70
    11
 71
     3
 72
    26
 73
    22
 74
     0
 42
0.0000000001
 43
0.0000000001
 12
1.0
 22
0.0
 32
0.0
 13
1.0
 23
0.0
 33
0.0
 40
0.0
 40
0.0
 40
0.0
 40
0.0
 40
1.0
 40
1.0
 40
1.0
 40
2.0
 40
2.0
 40
2.0
 40
3.0
 40
3.0
 40
3.0
 40
4.0
 40
4.0
 40
4.0
 40
5.0
 40
5.0
 40
5.0
 40
6.0
 40
6.0
 40
6.0
 40
7.0
 40
7.0
 40
7.0
 40
7.0
 10
85.85574135223399
 20
-130.8147541990672
 30
0.0
 10
85.85574135223399
 20
-130.8147541990672
 30
0.0
 10
84.75141599443715
 20
-130.8147541990672
 30
0.0
 10
84.75141599443715
 20
-130.8147541990672
 30
0.0
 10
84.75141599443715
 20
-130.8147541990672
 30
0.0
 10
84.75141599443715
 20
-131.1330810219042
 30
0.0
 10
84.75141599443715
 20
-131.1330810219042
 30
0.0
 10
84.75141599443715
 20
-131.1330810219042
 30
0.0
 10
84.60344914334567
 20
-131.1330810219042
 30
0.0
 10
84.60344914334567
 20
-131.1330810219042
 30
0.0
 10
84.58863523275909
 20
-130.812687141776
 30
0.0
 10
84.42568221630678
 20
-130.7679009004678
 30
0.0
 10
84.31147730097075
 20
-130.7393066079402
 30
0.0
 10
84.31147730097075
 20
-130.7393066079402
 30
0.0
 10
84.31147730097075
 20
-130.5984022025935
 30
0.0
 10
84.31147730097075
 20
-130.5984022025935
 30
0.0
 10
84.31147730097075
 20
-130.5984022025935
 30
0.0
 10
85.85574135223399
 20
-130.5984022025935
 30
0.0
 10
85.85574135223399
 20
-130.5984022025935
 30
0.0
 10
85.85574135223399
 20
-130.5984022025935
 30
0.0
 10
85.85574135223399
 20
-130.8147541990672
 30
0.0
 10
85.85574135223399
 20
-130.8147541990672
 30
0.0
  0
HATCH
  5
CE
330
C9
100
AcDbEntity
  8
_U+30EC_U+30A4_U+30E4_U+30FC 1
 62
   179
420
  2234388
100
AcDbHatch
 10
0.0
 20
0.0
 30
0.0
210
0.0
220
0.0
230
1.0
  2
SOLID
 70
     1
 71
     0
 91
        1
 92
        1
 93
        1
 72
     4
 94
        3
 73
     0
 74
     1
 95
       26
 96
       22
 40
0.0
 40
0.0
 40
0.0
 40
0.0
 40
1.0
 40
1.0
 40
1.0
 40
2.0
 40
2.0
 40
2.0
 40
3.0
 40
3.0
 40
3.0
 40
4.0
 40
4.0
 40
4.0
 40
5.0
 40
5.0
 40
5.0
 40
6.0
 40
6.0
 40
6.0
 40
7.0
 40
7.0
 40
7.0
 40
7.0
 10
85.85574135223399
 20
-130.8147541990672
 10
85.85574135223399
 20
-130.8147541990672
 10
84.75141599443715
 20
-130.8147541990672
 10
84.75141599443715
 20
-130.8147541990672
 10
84.75141599443715
 20
-130.8147541990672
 10
84.75141599443715
 20
-131.1330810219042
 10
84.75141599443715
 20
-131.1330810219042
 10
84.75141599443715
 20
-131.1330810219042
 10
84.60344914334567
 20
-131.1330810219042
 10
84.60344914334567
 20
-131.1330810219042
 10
84.58863523275909
 20
-130.812687141776
 10
84.42568221630678
 20
-130.7679009004678
 10
84.31147730097075
 20
-130.7393066079402
 10
84.31147730097075
 20
-130.7393066079402
 10
84.31147730097075
 20
-130.5984022025935
 10
84.31147730097075
 20
-130.5984022025935
 10
84.31147730097075
 20
-130.5984022025935
 10
85.85574135223399
 20
-130.5984022025935
 10
85.85574135223399
 20
-130.5984022025935
 10
85.85574135223399
 20
-130.5984022025935
 10
85.85574135223399
 20
-130.8147541990672
 10
85.85574135223399
 20
-130.8147541990672
 97
        0
 97
        0
 75
     2
 76
     1
 98
        0
  0
SPLINE
  5
CF
330
C9
100
AcDbEntity
  8
_U+30EC_U+30A4_U+30E4_U+30FC 1
370
     0
100
AcDbSpline
210
0.0
220
0.0
230
1.0
 70
    11
 71
     3
 72
    29
 73
    25
 74
     0
 42
0.0000000001
 43
0.0000000001
 12
1.0
 22
0.0
 32
0.0
 13
1.0
 23
0.0
 33
0.0
 40
0.0
 40
0.0
 40
0.0
 40
0.0
 40
1.0
 40
1.0
 40
1.0
 40
2.0
 40
2.0
 40
2.0
 40
3.0
 40
3.0
 40
3.0
 40
4.0
 40
4.0
 40
4.0
 40
5.0
 40
5.0
 40
5.0
 40
6.0
 40
6.0
 40
6.0
 40
7.0
 40
7.0
 40
7.0
 40
8.0
 40
8.0
 40
8.0
 40
8.0
 10
85.67814667996936
 20
-129.2510253583123
 30
0.0
 10
85.88743623069828
 20
-129.3550672419668
 30
0.0
 10
85.90655651064142
 20
-129.5221543730014
 30
0.0
 10
85.90655651064142
 20
-129.6344644858206
 30
0.0
 10
85.90655651064142
 20
-129.7894937826568
 30
0.0
 10
85.86004772159055
 20
-129.9262640734212
 30
0.0
 10
85.67814667996936
 20
-130.0179036133289
 30
0.0
 10
85.48349878505275
 20
-130.1178113824011
 30
0.0
 10
85.24647621566756
 20
-130.1364148980215
 30
0.0
 10
85.08369545398949
 20
-130.1364148980215
 30
0.0
 10
84.93969046270605
 20
-130.1364148980215
 30
0.0
 10
84.68802623750855
 20
-130.1198784396923
 30
0.0
 10
84.48924422800964
 20
-130.0179036133289
 30
0.0
 10
84.2859835943799
 20
-129.9138617296743
 30
0.0
 10
84.26272919985446
 20
-129.7588324328381
 30
0.0
 10
84.26272919985446
 20
-129.6344644858206
 30
0.0
 10
84.26272919985446
 20
-129.4815022462755
 30
0.0
 10
84.30717093161418
 20
-129.3426648982199
 30
0.0
 10
84.48924422800964
 20
-129.2510253583123
 30
0.0
 10
84.68165281086084
 20
-129.1549071942738
 30
0.0
 10
84.9100626415329
 20
-129.1325140736197
 30
0.0
 10
85.08369545398949
 20
-129.1325140736197
 30
0.0
 10
85.25491669960641
 20
-129.1325140736197
 30
0.0
 10
85.48556584234389
 20
-129.1528401369826
 30
0.0
 10
85.67814667996936
 20
-129.2510253583123
 30
0.0
  0
SPLINE
  5
D0
330
C9
100
AcDbEntity
  8
_U+30EC_U+30A4_U+30E4_U+30FC 1
370
     0
100
AcDbSpline
210
0.0
220
0.0
230
1.0
 70
    11
 71
     3
 72
    17
 73
    13
 74
     0
 42
0.0000000001
 43
0.0000000001
 12
1.0
 22
0.0
 32
0.0
 13
1.0
 23
0.0
 33
0.0
 40
0.0
 40
0.0
 40
0.0
 40
0.0
 40
1.0
 40
1.0
 40
1.0
 40
2.0
 40
2.0
 40
2.0
 40
3.0
 40
3.0
 40
3.0
 40
4.0
 40
4.0
 40
4.0
 40
4.0
 10
84.45531003747993
 20
-129.6344644858206
 30
0.0
 10
84.45531003747993
 20
-129.8752766602395
 30
0.0
 10
84.73884139591598
 20
-129.9200629015478
 30
0.0
 10
85.08369545398949
 20
-129.9200629015478
 30
0.0
 10
85.40305580547215
 20
-129.9200629015478
 30
0.0
 10
85.71190861572481
 20
-129.8852674371468
 30
0.0
 10
85.71190861572481
 20
-129.6344644858206
 30
0.0
 10
85.71190861572481
 20
-129.3957193686927
 30
0.0
 10
85.43061656935416
 20
-129.3488660700934
 30
0.0
 10
85.08369545398949
 20
-129.3488660700934
 30
0.0
 10
84.76416284773258
 20
-129.3488660700934
 30
0.0
 10
84.45531003747993
 20
-129.385384082237
 30
0.0
 10
84.45531003747993
 20
-129.6344644858206
 30
0.0
  0
HATCH
  5
D1
330
C9
100
AcDbEntity
  8
_U+30EC_U+30A4_U+30E4_U+30FC 1
 62
   179
420
  2234388
100
AcDbHatch
 10
0.0
 20
0.0
 30
0.0
210
0.0
220
0.0
230
1.0
  2
SOLID
 70
     1
 71
     0
 91
        2
 92
        1
 93
        1
 72
     4
 94
        3
 73
     0
 74
     1
 95
       29
 96
       25
 40
0.0
 40
0.0
 40
0.0
 40
0.0
 40
1.0
 40
1.0
 40
1.0
 40
2.0
 40
2.0
 40
2.0
 40
3.0
 40
3.0
 40
3.0
 40
4.0
 40
4.0
 40
4.0
 40
5.0
 40
5.0
 40
5.0
 40
6.0
 40
6.0
 40
6.0
 40
7.0
 40
7.0
 40
7.0
 40
8.0
 40
8.0
 40
8.0
 40
8.0
 10
85.67814667996936
 20
-129.2510253583123
 10
85.88743623069828
 20
-129.3550672419668
 10
85.90655651064142
 20
-129.5221543730014
 10
85.90655651064142
 20
-129.6344644858206
 10
85.90655651064142
 20
-129.7894937826568
 10
85.86004772159055
 20
-129.9262640734212
 10
85.67814667996936
 20
-130.0179036133289
 10
85.48349878505275
 20
-130.1178113824011
 10
85.24647621566756
 20
-130.1364148980215
 10
85.08369545398949
 20
-130.1364148980215
 10
84.93969046270605
 20
-130.1364148980215
 10
84.68802623750855
 20
-130.1198784396923
 10
84.48924422800964
 20
-130.0179036133289
 10
84.2859835943799
 20
-129.9138617296743
 10
84.26272919985446
 20
-129.7588324328381
 10
84.26272919985446
 20
-129.6344644858206
 10
84.26272919985446
 20
-129.4815022462755
 10
84.30717093161418
 20
-129.3426648982199
 10
84.48924422800964
 20
-129.2510253583123
 10
84.68165281086084
 20
-129.1549071942738
 10
84.9100626415329
 20
-129.1325140736197
 10
85.08369545398949
 20
-129.1325140736197
 10
85.25491669960641
 20
-129.1325140736197
 10
85.48556584234389
 20
-129.1528401369826
 10
85.67814667996936
 20
-129.2510253583123
 97
        0
 97
        0
 92
        1
 93
        1
 72
     4
 94
        3
 73
     0
 74
     1
 95
       17
 96
       13
 40
0.0
 40
0.0
 40
0.0
 40
0.0
 40
1.0
 40
1.0
 40
1.0
 40
2.0
 40
2.0
 40
2.0
 40
3.0
 40
3.0
 40
3.0
 40
4.0
 40
4.0
 40
4.0
 40
4.0
 10
84.45531003747993
 20
-129.6344644858206
 10
84.45531003747993
 20
-129.8752766602395
 10
84.73884139591598
 20
-129.9200629015478
 10
85.08369545398949
 20
-129.9200629015478
 10
85.40305580547215
 20
-129.9200629015478
 10
85.71190861572481
 20
-129.8852674371468
 10
85.71190861572481
 20
-129.6344644858206
 10
85.71190861572481
 20
-129.3957193686927
 10
85.43061656935416
 20
-129.3488660700934
 10
85.08369545398949
 20
-129.3488660700934
 10
84.76416284773258
 20
-129.3488660700934
 10
84.45531003747993
 20
-129.385384082237
 10
84.45531003747993
 20
-129.6344644858206
 97
        0
 97
        0
 75
     2
 76
     1
 98
        0
  0
POLYLINE
  5
D2
330
C9
100
AcDbEntity
  8
_U+30EC_U+30A4_U+30E4_U+30FC 1
370
     0
100
AcDb2dPolyline
 66
     1
 10
0.0
 20
0.0
 30
0.0
  0
VERTEX
  5
D3
330
D2
100
AcDbEntity
  8
_U+30EC_U+30A4_U+30E4_U+30FC 1
370
     0
100
AcDbVertex
100
AcDb2dVertex
 10
85.85574135223399
 20
-128.9254638349561
 30
0.0
  0
VERTEX
  5
D4
330
D2
100
AcDbEntity
  8
_U+30EC_U+30A4_U+30E4_U+30FC 1
370
     0
100
AcDbVertex
100
AcDb2dVertex
 10
85.60407712703649
 20
-128.9254638349561
 30
0.0
  0
VERTEX
  5
D5
330
D2
100
AcDbEntity
  8
_U+30EC_U+30A4_U+30E4_U+30FC 1
370
     0
100
AcDbVertex
100
AcDb2dVertex
 10
85.60407712703649
 20
-128.682584603246
 30
0.0
  0
VERTEX
  5
D6
330
D2
100
AcDbEntity
  8
_U+30EC_U+30A4_U+30E4_U+30FC 1
370
     0
100
AcDbVertex
100
AcDb2dVertex
 10
85.85574135223399
 20
-128.682584603246
 30
0.0
  0
VERTEX
  5
D7
330
D2
100
AcDbEntity
  8
_U+30EC_U+30A4_U+30E4_U+30FC 1
370
     0
100
AcDbVertex
100
AcDb2dVertex
 10
85.85574135223399
 20
-128.9254638349561
 30
0.0
  0
SEQEND
  5
D8
330
D2
100
AcDbEntity
  8
_U+30EC_U+30A4_U+30E4_U+30FC 1
370
     0
  0
HATCH
  5
D9
330
C9
100
AcDbEntity
  8
_U+30EC_U+30A4_U+30E4_U+30FC 1
 62
   179
420
  2234388
100
AcDbHatch
 10
0.0
 20
0.0
 30
0.0
210
0.0
220
0.0
230
1.0
  2
SOLID
 70
     1
 71
     0
 91
        1
 92
        1
 93
        4
 72
     1
 10
85.85574135223399
 20
-128.9254638349561
 11
85.60407712703649
 21
-128.9254638349561
 72
     1
 10
85.60407712703649
 20
-128.9254638349561
 11
85.60407712703649
 21
-128.682584603246
 72
     1
 10
85.60407712703649
 20
-128.682584603246
 11
85.85574135223399
 21
-128.682584603246
 72
     1
 10
85.85574135223399
 20
-128.682584603246
 11
85.85574135223399
 21
-128.9254638349561
 97
        0
 75
     2
 76
     1
 98
        0
  0
SPLINE
  5
DA
330
C9
100
AcDbEntity
  8
_U+30EC_U+30A4_U+30E4_U+30FC 1
370
     0
100
AcDbSpline
210
0.0
220
0.0
230
1.0
 70
    11
 71
     3
 72
    53
 73
    49
 74
     0
 42
0.0000000001
 43
0.0000000001
 12
1.0
 22
0.0
 32
0.0
 13
1.0
 23
0.0
 33
0.0
 40
0.0
 40
0.0
 40
0.0
 40
0.0
 40
1.0
 40
1.0
 40
1.0
 40
2.0
 40
2.0
 40
2.0
 40
3.0
 40
3.0
 40
3.0
 40
4.0
 40
4.0
 40
4.0
 40
5.0
 40
5.0
 40
5.0
 40
6.0
 40
6.0
 40
6.0
 40
7.0
 40
7.0
 40
7.0
 40
8.0
 40
8.0
 40
8.0
 40
9.0
 40
9.0
 40
9.0
 40
10.0
 40
10.0
 40
10.0
 40
11.0
 40
11.0
 40
11.0
 40
12.0
 40
12.0
 40
12.0
 40
13.0
 40
13.0
 40
13.0
 40
14.0
 40
14.0
 40
14.0
 40
15.0
 40
15.0
 40
15.0
 40
16.0
 40
16.0
 40
16.0
 40
16.0
 10
85.90655651064142
 20
-127.9914984489049
 30
0.0
 10
85.90655651064142
 20
-128.0669460400319
 30
0.0
 10
85.8896755427637
 20
-128.164786751813
 30
0.0
 10
85.82611353106084
 20
-128.2627997183683
 30
0.0
 10
85.71621498508136
 20
-128.4300591041772
 30
0.0
 10
85.58495684709335
 20
-128.4505574223145
 30
0.0
 10
85.47712535840503
 20
-128.4688164283863
 30
0.0
 10
85.47712535840503
 20
-128.4688164283863
 30
0.0
 10
85.47712535840503
 20
-128.254703743978
 30
0.0
 10
85.47712535840503
 20
-128.254703743978
 30
0.0
 10
85.67590736790395
 20
-128.2016492735052
 30
0.0
 10
85.7055351890771
 20
-128.0791761290045
 30
0.0
 10
85.7055351890771
 20
-127.9894313916138
 30
0.0
 10
85.7055351890771
 20
-127.8547281581405
 30
0.0
 10
85.60614418432763
 20
-127.7077948356946
 30
0.0
 10
85.37342798429901
 20
-127.7077948356946
 30
0.0
 10
85.11745738974494
 20
-127.7077948356946
 30
0.0
 10
85.04769420616864
 20
-127.8812553933769
 30
0.0
 10
85.04769420616864
 20
-127.9975273660041
 30
0.0
 10
85.04769420616864
 20
-128.0281887158228
 30
0.0
 10
85.04769420616864
 20
-128.164786751813
 30
0.0
 10
85.17671303209124
 20
-128.2505696293957
 30
0.0
 10
85.17671303209124
 20
-128.2505696293957
 30
0.0
 10
85.1575927521481
 20
-128.4198960724957
 30
0.0
 10
85.1575927521481
 20
-128.4198960724957
 30
0.0
 10
85.1575927521481
 20
-128.4198960724957
 30
0.0
 10
84.31147730097075
 20
-128.3036240998686
 30
0.0
 10
84.31147730097075
 20
-128.3036240998686
 30
0.0
 10
84.31147730097075
 20
-128.3036240998686
 30
0.0
 10
84.31147730097075
 20
-127.5527655388583
 30
0.0
 10
84.31147730097075
 20
-127.5527655388583
 30
0.0
 10
84.31147730097075
 20
-127.5527655388583
 30
0.0
 10
84.50612519588736
 20
-127.5527655388583
 30
0.0
 10
84.50612519588736
 20
-127.5527655388583
 30
0.0
 10
84.50612519588736
 20
-127.5527655388583
 30
0.0
 10
84.50612519588736
 20
-128.1465277457411
 30
0.0
 10
84.50612519588736
 20
-128.1465277457411
 30
0.0
 10
84.50612519588736
 20
-128.1465277457411
 30
0.0
 10
84.92918292147604
 20
-128.2097452478955
 30
0.0
 10
84.92918292147604
 20
-128.2097452478955
 30
0.0
 10
84.89542098572059
 20
-128.1506618603235
 30
0.0
 10
84.85511336854317
 20
-128.0710801546142
 30
0.0
 10
84.85511336854317
 20
-127.9567029845039
 30
0.0
 10
84.85511336854317
 20
-127.7119289502769
 30
0.0
 10
85.04132077952093
 20
-127.4835191196048
 30
0.0
 10
85.35447995913013
 20
-127.4835191196048
 30
0.0
 10
85.67177325332165
 20
-127.4835191196048
 30
0.0
 10
85.90655651064142
 20
-127.6996988613042
 30
0.0
 10
85.90655651064142
 20
-127.9914984489049
 30
0.0
  0
HATCH
  5
DB
330
C9
100
AcDbEntity
  8
_U+30EC_U+30A4_U+30E4_U+30FC 1
 62
   179
420
  2234388
100
AcDbHatch
 10
0.0
 20
0.0
 30
0.0
210
0.0
220
0.0
230
1.0
  2
SOLID
 70
     1
 71
     0
 91
        1
 92
        1
 93
        1
 72
     4
 94
        3
 73
     0
 74
     1
 95
       53
 96
       49
 40
0.0
 40
0.0
 40
0.0
 40
0.0
 40
1.0
 40
1.0
 40
1.0
 40
2.0
 40
2.0
 40
2.0
 40
3.0
 40
3.0
 40
3.0
 40
4.0
 40
4.0
 40
4.0
 40
5.0
 40
5.0
 40
5.0
 40
6.0
 40
6.0
 40
6.0
 40
7.0
 40
7.0
 40
7.0
 40
8.0
 40
8.0
 40
8.0
 40
9.0
 40
9.0
 40
9.0
 40
10.0
 40
10.0
 40
10.0
 40
11.0
 40
11.0
 40
11.0
 40
12.0
 40
12.0
 40
12.0
 40
13.0
 40
13.0
 40
13.0
 40
14.0
 40
14.0
 40
14.0
 40
15.0
 40
15.0
 40
15.0
 40
16.0
 40
16.0
 40
16.0
 40
16.0
 10
85.90655651064142
 20
-127.9914984489049
 10
85.90655651064142
 20
-128.0669460400319
 10
85.8896755427637
 20
-128.164786751813
 10
85.82611353106084
 20
-128.2627997183683
 10
85.71621498508136
 20
-128.4300591041772
 10
85.58495684709335
 20
-128.4505574223145
 10
85.47712535840503
 20
-128.4688164283863
 10
85.47712535840503
 20
-128.4688164283863
 10
85.47712535840503
 20
-128.254703743978
 10
85.47712535840503
 20
-128.254703743978
 10
85.67590736790395
 20
-128.2016492735052
 10
85.7055351890771
 20
-128.0791761290045
 10
85.7055351890771
 20
-127.9894313916138
 10
85.7055351890771
 20
-127.8547281581405
 10
85.60614418432763
 20
-127.7077948356946
 10
85.37342798429901
 20
-127.7077948356946
 10
85.11745738974494
 20
-127.7077948356946
 10
85.04769420616864
 20
-127.8812553933769
 10
85.04769420616864
 20
-127.9975273660041
 10
85.04769420616864
 20
-128.0281887158228
 10
85.04769420616864
 20
-128.164786751813
 10
85.17671303209124
 20
-128.2505696293957
 10
85.17671303209124
 20
-128.2505696293957
 10
85.1575927521481
 20
-128.4198960724957
 10
85.1575927521481
 20
-128.4198960724957
 10
85.1575927521481
 20
-128.4198960724957
 10
84.31147730097075
 20
-128.3036240998686
 10
84.31147730097075
 20
-128.3036240998686
 10
84.31147730097075
 20
-128.3036240998686
 10
84.31147730097075
 20
-127.5527655388583
 10
84.31147730097075
 20
-127.5527655388583
 10
84.31147730097075
 20
-127.5527655388583
 10
84.50612519588736
 20
-127.5527655388583
 10
84.50612519588736
 20
-127.5527655388583
 10
84.50612519588736
 20
-127.5527655388583
 10
84.50612519588736
 20
-128.1465277457411
 10
84.50612519588736
 20
-128.1465277457411
 10
84.50612519588736
 20
-128.1465277457411
 10
84.92918292147604
 20
-128.2097452478955
 10
84.92918292147604
 20
-128.2097452478955
 10
84.89542098572059
 20
-128.1506618603235
 10
84.85511336854317
 20
-128.0710801546142
 10
84.85511336854317
 20
-127.9567029845039
 10
84.85511336854317
 20
-127.7119289502769
 10
85.04132077952093
 20
-127.4835191196048
 10
85.35447995913013
 20
-127.4835191196048
 10
85.67177325332165
 20
-127.4835191196048
 10
85.90655651064142
 20
-127.6996988613042
 10
85.90655651064142
 20
-127.9914984489049
 97
        0
 97
        0
 75
     2
 76
     1
 98
        0
  0
ENDBLK
  5
CC
330
C9
100
AcDbEntity
  8
0
100
AcDbBlockEnd
  0
ENDSEC
  0
SECTION
  2
ENTITIES
  0
SPLINE
  5
41
330
1F
100
AcDbEntity
  8
_U+30EC_U+30A4_U+30E4_U+30FC 1
 62
   179
420
  2234388
370
    25
100
AcDbSpline
210
0.0
220
0.0
230
1.0
 70
     8
 71
     3
 72
    20
 73
    16
 74
     0
 42
0.0000000001
 43
0.0000000001
 12
1.0
 22
0.0
 32
0.0
 13
1.0
 23
0.0
 33
0.0
 40
0.0
 40
0.0
 40
0.0
 40
0.0
 40
1.0
 40
1.0
 40
1.0
 40
2.0
 40
2.0
 40
2.0
 40
3.0
 40
3.0
 40
3.0
 40
4.0
 40
4.0
 40
4.0
 40
5.0
 40
5.0
 40
5.0
 40
5.0
 10
100.2285032762912
 20
-134.6205644107893
 30
0.0
 10
100.2285032762912
 20
-134.6205644107893
 30
0.0
 10
100.2253988319259
 20
-124.6215016355114
 30
0.0
 10
100.2253988319259
 20
-124.6215016355114
 30
0.0
 10
100.2309021651189
 20
-124.3000858022583
 30
0.0
 10
100.1461649450585
 20
-124.1231677467469
 30
0.0
 10
99.72515995579921
 20
-124.1216155245251
 30
0.0
 10
99.72515995579921
 20
-124.1216155245251
 30
0.0
 10
90.72830379643925
 20
-124.12059246897
 30
0.0
 10
90.72830379643925
 20
-124.12059246897
 30
0.0
 10
90.30765158494876
 20
-124.1221446911918
 30
0.0
 10
90.22291664411094
 20
-124.2990627467029
 30
0.0
 10
90.22841769808129
 20
-124.620478579956
 30
0.0
 10
90.22841769808129
 20
-124.620478579956
 30
0.0
 10
90.22841769808129
 20
-134.6205644107893
 30
0.0
 10
90.22841769808129
 20
-134.6205644107893
 30
0.0
  0
POLYLINE
  5
42
330
1F
100
AcDbEntity
  8
_U+30EC_U+30A4_U+30E4_U+30FC 1
 62
   179
420
  2234388
370
    25
100
AcDb2dPolyline
 66
     1
 10
0.0
 20
0.0
 30
0.0
  0
VERTEX
  5
43
330
42
100
AcDbEntity
  8
_U+30EC_U+30A4_U+30E4_U+30FC 1
 62
   179
420
  2234388
370
    25
100
AcDbVertex
100
AcDb2dVertex
 10
90.22841769808129
 20
-134.6205644107893
 30
0.0
  0
VERTEX
  5
44
330
42
100
AcDbEntity
  8
_U+30EC_U+30A4_U+30E4_U+30FC 1
 62
   179
420
  2234388
370
    25
100
AcDbVertex
100
AcDb2dVertex
 10
92.02850154104621
 20
-134.6205644107893
 30
0.0
  0
SEQEND
  5
45
330
42
100
AcDbEntity
  8
_U+30EC_U+30A4_U+30E4_U+30FC 1
 62
   179
420
  2234388
370
    25
  0
POLYLINE
  5
46
330
1F
100
AcDbEntity
  8
_U+30EC_U+30A4_U+30E4_U+30FC 1
 62
   179
420
  2234388
370
     9
100
AcDb2dPolyline
 66
     1
 10
0.0
 20
0.0
 30
0.0
  0
VERTEX
  5
47
330
46
100
AcDbEntity
  8
_U+30EC_U+30A4_U+30E4_U+30FC 1
 62
   179
420
  2234388
370
     9
100
AcDbVertex
100
AcDb2dVertex
 10
98.42845471110314
 20
-125.9203235796312
 30
0.0
  0
VERTEX
  5
48
330
46
100
AcDbEntity
  8
_U+30EC_U+30A4_U+30E4_U+30FC 1
 62
   179
420
  2234388
370
     9
100
AcDbVertex
100
AcDb2dVertex
 10
98.42845471110314
 20
-130.6208052451224
 30
0.0
  0
SEQEND
  5
49
330
46
100
AcDbEntity
  8
_U+30EC_U+30A4_U+30E4_U+30FC 1
 62
   179
420
  2234388
370
     9
  0
POLYLINE
  5
4A
330
1F
100
AcDbEntity
  8
_U+30EC_U+30A4_U+30E4_U+30FC 1
 62
   179
420
  2234388
370
     9
100
AcDb2dPolyline
 66
     1
 10
0.0
 20
0.0
 30
0.0
  0
VERTEX
  5
4B
330
4A
100
AcDbEntity
  8
_U+30EC_U+30A4_U+30E4_U+30FC 1
 62
   179
420
  2234388
370
     9
100
AcDbVertex
100
AcDb2dVertex
 10
92.02850154104621
 20
-125.9203235796312
 30
0.0
  0
VERTEX
  5
4C
330
4A
100
AcDbEntity
  8
_U+30EC_U+30A4_U+30E4_U+30FC 1
 62
   179
420
  2234388
370
     9
100
AcDbVertex
100
AcDb2dVertex
 10
92.02850154104621
 20
-130.6208052451224
 30
0.0
  0
SEQEND
  5
4D
330
4A
100
AcDbEntity
  8
_U+30EC_U+30A4_U+30E4_U+30FC 1
 62
   179
420
  2234388
370
     9
  0
POLYLINE
  5
4E
330
1F
100
AcDbEntity
  8
_U+30EC_U+30A4_U+30E4_U+30FC 1
 62
   179
420
  2234388
370
     9
100
AcDb2dPolyline
 66
     1
 10
0.0
 20
0.0
 30
0.0
  0
VERTEX
  5
4F
330
4E
100
AcDbEntity
  8
_U+30EC_U+30A4_U+30E4_U+30FC 1
 62
   179
420
  2234388
370
     9
100
AcDbVertex
100
AcDb2dVertex
 10
92.02850154104621
 20
-125.9203235796312
 30
0.0
  0
VERTEX
  5
50
330
4E
100
AcDbEntity
  8
_U+30EC_U+30A4_U+30E4_U+30FC 1
 62
   179
420
  2234388
370
     9
100
AcDbVertex
100
AcDb2dVertex
 10
98.42845471110314
 20
-125.9203235796312
 30
0.0
  0
SEQEND
  5
51
330
4E
100
AcDbEntity
  8
_U+30EC_U+30A4_U+30E4_U+30FC 1
 62
   179
420
  2234388
370
     9
  0
POLYLINE
  5
52
330
1F
100
AcDbEntity
  8
_U+30EC_U+30A4_U+30E4_U+30FC 1
 62
   179
420
  2234388
370
    25
100
AcDb2dPolyline
 66
     1
 10
0.0
 20
0.0
 30
0.0
  0
VERTEX
  5
53
330
52
100
AcDbEntity
  8
_U+30EC_U+30A4_U+30E4_U+30FC 1
 62
   179
420
  2234388
370
    25
100
AcDbVertex
100
AcDb2dVertex
 10
98.42845471110314
 20
-134.6205644107893
 30
0.0
  0
VERTEX
  5
54
330
52
100
AcDbEntity
  8
_U+30EC_U+30A4_U+30E4_U+30FC 1
 62
   179
420
  2234388
370
    25
100
AcDbVertex
100
AcDb2dVertex
 10
100.2285032762912
 20
-134.6205644107893
 30
0.0
  0
SEQEND
  5
55
330
52
100
AcDbEntity
  8
_U+30EC_U+30A4_U+30E4_U+30FC 1
 62
   179
420
  2234388
370
    25
  0
POLYLINE
  5
56
330
1F
100
AcDbEntity
  8
_U+30EC_U+30A4_U+30E4_U+30FC 1
 62
   179
420
  2234388
370
     9
100
AcDb2dPolyline
 66
     1
 10
0.0
 20
0.0
 30
0.0
  0
VERTEX
  5
57
330
56
100
AcDbEntity
  8
_U+30EC_U+30A4_U+30E4_U+30FC 1
 62
   179
420
  2234388
370
     9
100
AcDbVertex
100
AcDb2dVertex
 10
97.42868251438723
 20
-131.620577467095
 30
0.0
  0
VERTEX
  5
58
330
56
100
AcDbEntity
  8
_U+30EC_U+30A4_U+30E4_U+30FC 1
 62
   179
420
  2234388
370
     9
100
AcDbVertex
100
AcDb2dVertex
 10
98.42845471110314
 20
-130.6208052451224
 30
0.0
  0
SEQEND
  5
59
330
56
100
AcDbEntity
  8
_U+30EC_U+30A4_U+30E4_U+30FC 1
 62
   179
420
  2234388
370
     9
  0
POLYLINE
  5
5A
330
1F
100
AcDbEntity
  8
_U+30EC_U+30A4_U+30E4_U+30FC 1
 62
   179
420
  2234388
370
     9
100
AcDb2dPolyline
 66
     1
 10
0.0
 20
0.0
 30
0.0
  0
VERTEX
  5
5B
330
5A
100
AcDbEntity
  8
_U+30EC_U+30A4_U+30E4_U+30FC 1
 62
   179
420
  2234388
370
     9
100
AcDbVertex
100
AcDb2dVertex
 10
97.42868251438723
 20
-131.620577467095
 30
0.0
  0
VERTEX
  5
5C
330
5A
100
AcDbEntity
  8
_U+30EC_U+30A4_U+30E4_U+30FC 1
 62
   179
420
  2234388
370
     9
100
AcDbVertex
100
AcDb2dVertex
 10
98.42845471110314
 20
-132.6203144112893
 30
0.0
  0
SEQEND
  5
5D
330
5A
100
AcDbEntity
  8
_U+30EC_U+30A4_U+30E4_U+30FC 1
 62
   179
420
  2234388
370
     9
  0
POLYLINE
  5
5E
330
1F
100
AcDbEntity
  8
_U+30EC_U+30A4_U+30E4_U+30FC 1
 62
   179
420
  2234388
370
     9
100
AcDb2dPolyline
 66
     1
 10
0.0
 20
0.0
 30
0.0
  0
VERTEX
  5
5F
330
5E
100
AcDbEntity
  8
_U+30EC_U+30A4_U+30E4_U+30FC 1
 62
   179
420
  2234388
370
     9
100
AcDbVertex
100
AcDb2dVertex
 10
98.42845471110314
 20
-132.6203144112893
 30
0.0
  0
VERTEX
  5
60
330
5E
100
AcDbEntity
  8
_U+30EC_U+30A4_U+30E4_U+30FC 1
 62
   179
420
  2234388
370
     9
100
AcDbVertex
100
AcDb2dVertex
 10
98.42845471110314
 20
-134.6205644107893
 30
0.0
  0
SEQEND
  5
61
330
5E
100
AcDbEntity
  8
_U+30EC_U+30A4_U+30E4_U+30FC 1
 62
   179
420
  2234388
370
     9
  0
POLYLINE
  5
62
330
1F
100
AcDbEntity
  8
_U+30EC_U+30A4_U+30E4_U+30FC 1
 62
   179
420
  2234388
370
     9
100
AcDb2dPolyline
 66
     1
 10
0.0
 20
0.0
 30
0.0
  0
VERTEX
  5
63
330
62
100
AcDbEntity
  8
_U+30EC_U+30A4_U+30E4_U+30FC 1
 62
   179
420
  2234388
370
     9
100
AcDbVertex
100
AcDb2dVertex
 10
93.02859123775403
 20
-131.620577467095
 30
0.0
  0
VERTEX
  5
64
330
62
100
AcDbEntity
  8
_U+30EC_U+30A4_U+30E4_U+30FC 1
 62
   179
420
  2234388
370
     9
100
AcDbVertex
100
AcDb2dVertex
 10
92.02850154104621
 20
-130.6208052451224
 30
0.0
  0
SEQEND
  5
65
330
62
100
AcDbEntity
  8
_U+30EC_U+30A4_U+30E4_U+30FC 1
 62
   179
420
  2234388
370
     9
  0
POLYLINE
  5
66
330
1F
100
AcDbEntity
  8
_U+30EC_U+30A4_U+30E4_U+30FC 1
 62
   179
420
  2234388
370
     9
100
AcDb2dPolyline
 66
     1
 10
0.0
 20
0.0
 30
0.0
  0
VERTEX
  5
67
330
66
100
AcDbEntity
  8
_U+30EC_U+30A4_U+30E4_U+30FC 1
 62
   179
420
  2234388
370
     9
100
AcDbVertex
100
AcDb2dVertex
 10
93.02859123775403
 20
-131.620577467095
 30
0.0
  0
VERTEX
  5
68
330
66
100
AcDbEntity
  8
_U+30EC_U+30A4_U+30E4_U+30FC 1
 62
   179
420
  2234388
370
     9
100
AcDbVertex
100
AcDb2dVertex
 10
92.02850154104621
 20
-132.6203144112893
 30
0.0
  0
SEQEND
  5
69
330
66
100
AcDbEntity
  8
_U+30EC_U+30A4_U+30E4_U+30FC 1
 62
   179
420
  2234388
370
     9
  0
POLYLINE
  5
6A
330
1F
100
AcDbEntity
  8
_U+30EC_U+30A4_U+30E4_U+30FC 1
 62
   179
420
  2234388
370
     9
100
AcDb2dPolyline
 66
     1
 10
0.0
 20
0.0
 30
0.0
  0
VERTEX
  5
6B
330
6A
100
AcDbEntity
  8
_U+30EC_U+30A4_U+30E4_U+30FC 1
 62
   179
420
  2234388
370
     9
100
AcDbVertex
100
AcDb2dVertex
 10
92.02850154104621
 20
-132.6203144112893
 30
0.0
  0
VERTEX
  5
6C
330
6A
100
AcDbEntity
  8
_U+30EC_U+30A4_U+30E4_U+30FC 1
 62
   179
420
  2234388
370
     9
100
AcDbVertex
100
AcDb2dVertex
 10
92.02850154104621
 20
-134.6205644107893
 30
0.0
  0
SEQEND
  5
6D
330
6A
100
AcDbEntity
  8
_U+30EC_U+30A4_U+30E4_U+30FC 1
 62
   179
420
  2234388
370
     9
  0
SPLINE
  5
6E
330
1F
100
AcDbEntity
  8
_U+30EC_U+30A4_U+30E4_U+30FC 1
 62
   179
420
  2234388
370
     9
100
AcDbSpline
210
0.0
220
0.0
230
1.0
 70
    11
 71
     3
 72
    17
 73
    13
 74
     0
 42
0.0000000001
 43
0.0000000001
 12
1.0
 22
0.0
 32
0.0
 13
1.0
 23
0.0
 33
0.0
 40
0.0
 40
0.0
 40
0.0
 40
0.0
 40
1.0
 40
1.0
 40
1.0
 40
2.0
 40
2.0
 40
2.0
 40
3.0
 40
3.0
 40
3.0
 40
4.0
 40
4.0
 40
4.0
 40
4.0
 10
86.32856529757481
 20
-124.12059246897
 30
0.0
 10
86.32856529757481
 20
-124.0654533023169
 30
0.0
 10
86.283799978429
 20
-124.0206858023281
 30
0.0
 10
86.22865863345697
 20
-124.0206858023281
 30
0.0
 10
86.17320196820513
 20
-124.0206858023281
 30
0.0
 10
86.12843446934724
 20
-124.0654533023169
 30
0.0
 10
86.12843446934724
 20
-124.12059246897
 30
0.0
 10
86.12843446934724
 20
-124.1756963578449
 30
0.0
 10
86.17320196820513
 20
-124.2204991356116
 30
0.0
 10
86.22865863345697
 20
-124.2204991356116
 30
0.0
 10
86.283799978429
 20
-124.2204991356116
 30
0.0
 10
86.32856529757481
 20
-124.1756963578449
 30
0.0
 10
86.32856529757481
 20
-124.12059246897
 30
0.0
  0
SPLINE
  5
6F
330
1F
100
AcDbEntity
  8
_U+30EC_U+30A4_U+30E4_U+30FC 1
 62
   179
420
  2234388
370
     9
100
AcDbSpline
210
0.0
220
0.0
230
1.0
 70
    11
 71
     3
 72
    17
 73
    13
 74
     0
 42
0.0000000001
 43
0.0000000001
 12
1.0
 22
0.0
 32
0.0
 13
1.0
 23
0.0
 33
0.0
 40
0.0
 40
0.0
 40
0.0
 40
0.0
 40
1.0
 40
1.0
 40
1.0
 40
2.0
 40
2.0
 40
2.0
 40
3.0
 40
3.0
 40
3.0
 40
4.0
 40
4.0
 40
4.0
 40
4.0
 10
86.32856529757481
 20
-134.6205644107893
 30
0.0
 10
86.32856529757481
 20
-134.5654252441362
 30
0.0
 10
86.283799978429
 20
-134.5206577441477
 30
0.0
 10
86.22865863345697
 20
-134.5206577441477
 30
0.0
 10
86.17320196820513
 20
-134.5206577441477
 30
0.0
 10
86.12843446934724
 20
-134.5654252441362
 30
0.0
 10
86.12843446934724
 20
-134.6205644107893
 30
0.0
 10
86.12843446934724
 20
-134.6756682996642
 30
0.0
 10
86.17320196820513
 20
-134.7204710774309
 30
0.0
 10
86.22865863345697
 20
-134.7204710774309
 30
0.0
 10
86.283799978429
 20
-134.7204710774309
 30
0.0
 10
86.32856529757481
 20
-134.6756682996642
 30
0.0
 10
86.32856529757481
 20
-134.6205644107893
 30
0.0
  0
SPLINE
  5
70
330
1F
100
AcDbEntity
  8
_U+30EC_U+30A4_U+30E4_U+30FC 1
 62
   179
420
  2234388
370
     9
100
AcDbSpline
210
0.0
220
0.0
230
1.0
 70
    11
 71
     3
 72
    17
 73
    13
 74
     0
 42
0.0000000001
 43
0.0000000001
 12
1.0
 22
0.0
 32
0.0
 13
1.0
 23
0.0
 33
0.0
 40
0.0
 40
0.0
 40
0.0
 40
0.0
 40
1.0
 40
1.0
 40
1.0
 40
2.0
 40
2.0
 40
2.0
 40
3.0
 40
3.0
 40
3.0
 40
4.0
 40
4.0
 40
4.0
 40
4.0
 10
92.12840820516405
 20
-138.6203235764562
 30
0.0
 10
92.12840820516405
 20
-138.5651844098031
 30
0.0
 10
92.08360542852928
 20
-138.5204169098145
 30
0.0
 10
92.02850154104621
 20
-138.5204169098145
 30
0.0
 10
91.97336237578627
 20
-138.5204169098145
 30
0.0
 10
91.92859719923977
 20
-138.5651844098031
 30
0.0
 10
91.92859719923977
 20
-138.6203235764562
 30
0.0
 10
91.92859719923977
 20
-138.6761330208866
 30
0.0
 10
91.97336237578627
 20
-138.7209005208752
 30
0.0
 10
92.02850154104621
 20
-138.7209005208752
 30
0.0
 10
92.08360542852928
 20
-138.7209005208752
 30
0.0
 10
92.12840820516405
 20
-138.6761330208866
 30
0.0
 10
92.12840820516405
 20
-138.6203235764562
 30
0.0
  0
SPLINE
  5
71
330
1F
100
AcDbEntity
  8
_U+30EC_U+30A4_U+30E4_U+30FC 1
 62
   179
420
  2234388
370
     9
100
AcDbSpline
210
0.0
220
0.0
230
1.0
 70
    11
 71
     3
 72
    17
 73
    13
 74
     0
 42
0.0000000001
 43
0.0000000001
 12
1.0
 22
0.0
 32
0.0
 13
1.0
 23
0.0
 33
0.0
 40
0.0
 40
0.0
 40
0.0
 40
0.0
 40
1.0
 40
1.0
 40
1.0
 40
2.0
 40
2.0
 40
2.0
 40
3.0
 40
3.0
 40
3.0
 40
4.0
 40
4.0
 40
4.0
 40
4.0
 10
98.52836386425669
 20
-138.6203235764562
 30
0.0
 10
98.52836386425669
 20
-138.5651844098031
 30
0.0
 10
98.48391386426772
 20
-138.5204169098145
 30
0.0
 10
98.42845471110314
 20
-138.5204169098145
 30
0.0
 10
98.37331554584318
 20
-138.5204169098145
 30
0.0
 10
98.3285480469853
 20
-138.5651844098031
 30
0.0
 10
98.3285480469853
 20
-138.6203235764562
 30
0.0
 10
98.3285480469853
 20
-138.6761330208866
 30
0.0
 10
98.37331554584318
 20
-138.7209005208752
 30
0.0
 10
98.42845471110314
 20
-138.7209005208752
 30
0.0
 10
98.48391386426772
 20
-138.7209005208752
 30
0.0
 10
98.52836386425669
 20
-138.6761330208866
 30
0.0
 10
98.52836386425669
 20
-138.6203235764562
 30
0.0
  0
SPLINE
  5
72
330
1F
100
AcDbEntity
  8
_U+30EC_U+30A4_U+30E4_U+30FC 1
 62
   179
420
  2234388
370
     9
100
AcDbSpline
210
0.0
220
0.0
230
1.0
 70
    11
 71
     3
 72
    17
 73
    13
 74
     0
 42
0.0000000001
 43
0.0000000001
 12
1.0
 22
0.0
 32
0.0
 13
1.0
 23
0.0
 33
0.0
 40
0.0
 40
0.0
 40
0.0
 40
0.0
 40
1.0
 40
1.0
 40
1.0
 40
2.0
 40
2.0
 40
2.0
 40
3.0
 40
3.0
 40
3.0
 40
4.0
 40
4.0
 40
4.0
 40
4.0
 10
90.32867713996791
 20
-120.1208333033031
 30
0.0
 10
90.32867713996791
 20
-120.0657294144279
 30
0.0
 10
90.28390964111001
 20
-120.0209266366615
 30
0.0
 10
90.22841769808129
 20
-120.0209266366615
 30
0.0
 10
90.17331381059822
 20
-120.0209266366615
 30
0.0
 10
90.12851103396345
 20
-120.0657294144279
 30
0.0
 10
90.12851103396345
 20
-120.1208333033031
 30
0.0
 10
90.12851103396345
 20
-120.1759724699559
 30
0.0
 10
90.17331381059822
 20
-120.2207399699448
 30
0.0
 10
90.22841769808129
 20
-120.2207399699448
 30
0.0
 10
90.28390964111001
 20
-120.2207399699448
 30
0.0
 10
90.32867713996791
 20
-120.1759724699559
 30
0.0
 10
90.32867713996791
 20
-120.1208333033031
 30
0.0
  0
SPLINE
  5
73
330
1F
100
AcDbEntity
  8
_U+30EC_U+30A4_U+30E4_U+30FC 1
 62
   179
420
  2234388
370
     9
100
AcDbSpline
210
0.0
220
0.0
230
1.0
 70
    11
 71
     3
 72
    17
 73
    13
 74
     0
 42
0.0000000001
 43
0.0000000001
 12
1.0
 22
0.0
 32
0.0
 13
1.0
 23
0.0
 33
0.0
 40
0.0
 40
0.0
 40
0.0
 40
0.0
 40
1.0
 40
1.0
 40
1.0
 40
2.0
 40
2.0
 40
2.0
 40
3.0
 40
3.0
 40
3.0
 40
4.0
 40
4.0
 40
4.0
 40
4.0
 10
100.328409940409
 20
-120.1208333033031
 30
0.0
 10
100.328409940409
 20
-120.0657294144279
 30
0.0
 10
100.2836424415511
 20
-120.0209266366615
 30
0.0
 10
100.2285032762912
 20
-120.0209266366615
 30
0.0
 10
100.1733993888081
 20
-120.0209266366615
 30
0.0
 10
100.1285966121734
 20
-120.0657294144279
 30
0.0
 10
100.1285966121734
 20
-120.1208333033031
 30
0.0
 10
100.1285966121734
 20
-120.1759724699559
 30
0.0
 10
100.1733993888081
 20
-120.2207399699448
 30
0.0
 10
100.2285032762912
 20
-120.2207399699448
 30
0.0
 10
100.2836424415511
 20
-120.2207399699448
 30
0.0
 10
100.328409940409
 20
-120.1759724699559
 30
0.0
 10
100.328409940409
 20
-120.1208333033031
 30
0.0
  0
POLYLINE
  5
74
330
1F
100
AcDbEntity
  8
_U+30EC_U+30A4_U+30E4_U+30FC 1
 62
   179
420
  2234388
370
     9
100
AcDb2dPolyline
 66
     1
 10
0.0
 20
0.0
 30
0.0
  0
VERTEX
  5
75
330
74
100
AcDbEntity
  8
_U+30EC_U+30A4_U+30E4_U+30FC 1
 62
   179
420
  2234388
370
     9
100
AcDbVertex
100
AcDb2dVertex
 10
90.22841769808129
 20
-120.1208333033031
 30
0.0
  0
VERTEX
  5
76
330
74
100
AcDbEntity
  8
_U+30EC_U+30A4_U+30E4_U+30FC 1
 62
   179
420
  2234388
370
     9
100
AcDbVertex
100
AcDb2dVertex
 10
100.2285032762912
 20
-120.1208333033031
 30
0.0
  0
SEQEND
  5
77
330
74
100
AcDbEntity
  8
_U+30EC_U+30A4_U+30E4_U+30FC 1
 62
   179
420
  2234388
370
     9
  0
POLYLINE
  5
78
330
1F
100
AcDbEntity
  8
_U+30EC_U+30A4_U+30E4_U+30FC 1
 62
   179
420
  2234388
370
     9
100
AcDb2dPolyline
 66
     1
 10
0.0
 20
0.0
 30
0.0
  0
VERTEX
  5
79
330
78
100
AcDbEntity
  8
_U+30EC_U+30A4_U+30E4_U+30FC 1
 62
   179
420
  2234388
370
     9
100
AcDbVertex
100
AcDb2dVertex
 10
90.22841769808129
 20
-121.5808746918272
 30
0.0
  0
VERTEX
  5
7A
330
78
100
AcDbEntity
  8
_U+30EC_U+30A4_U+30E4_U+30FC 1
 62
   179
420
  2234388
370
     9
100
AcDbVertex
100
AcDb2dVertex
 10
90.22841769808129
 20
-119.1203908035532
 30
0.0
  0
SEQEND
  5
7B
330
78
100
AcDbEntity
  8
_U+30EC_U+30A4_U+30E4_U+30FC 1
 62
   179
420
  2234388
370
     9
  0
POLYLINE
  5
7C
330
1F
100
AcDbEntity
  8
_U+30EC_U+30A4_U+30E4_U+30FC 1
 62
   179
420
  2234388
370
     9
100
AcDb2dPolyline
 66
     1
 10
0.0
 20
0.0
 30
0.0
  0
VERTEX
  5
7D
330
7C
100
AcDbEntity
  8
_U+30EC_U+30A4_U+30E4_U+30FC 1
 62
   179
420
  2234388
370
     9
100
AcDbVertex
100
AcDb2dVertex
 10
100.2285032762912
 20
-121.5808746918272
 30
0.0
  0
VERTEX
  5
7E
330
7C
100
AcDbEntity
  8
_U+30EC_U+30A4_U+30E4_U+30FC 1
 62
   179
420
  2234388
370
     9
100
AcDbVertex
100
AcDb2dVertex
 10
100.2285032762912
 20
-119.1203908035532
 30
0.0
  0
SEQEND
  5
7F
330
7C
100
AcDbEntity
  8
_U+30EC_U+30A4_U+30E4_U+30FC 1
 62
   179
420
  2234388
370
     9
  0
INSERT
  5
81
330
1F
100
AcDbEntity
  8
_U+30EC_U+30A4_U+30E4_U+30FC 1
100
AcDbBlockReference
  2
block 2
 10
0.0
 20
0.0
 30
0.0
  0
SPLINE
  5
89
330
1F
100
AcDbEntity
  8
_U+30EC_U+30A4_U+30E4_U+30FC 1
 62
   179
420
  2234388
370
     9
100
AcDbSpline
210
0.0
220
0.0
230
1.0
 70
    11
 71
     3
 72
    17
 73
    13
 74
     0
 42
0.0000000001
 43
0.0000000001
 12
1.0
 22
0.0
 32
0.0
 13
1.0
 23
0.0
 33
0.0
 40
0.0
 40
0.0
 40
0.0
 40
0.0
 40
1.0
 40
1.0
 40
1.0
 40
2.0
 40
2.0
 40
2.0
 40
3.0
 40
3.0
 40
3.0
 40
4.0
 40
4.0
 40
4.0
 40
4.0
 10
100.2636399420614
 20
-120.1208333033031
 30
0.0
 10
100.2636399420614
 20
-120.1401302477426
 30
0.0
 10
100.2481555304934
 20
-120.1559699699609
 30
0.0
 10
100.2285032762912
 20
-120.1559699699609
 30
0.0
 10
100.2088535545703
 20
-120.1559699699609
 30
0.0
 10
100.1933666105209
 20
-120.1401302477426
 30
0.0
 10
100.1933666105209
 20
-120.1208333033031
 30
0.0
 10
100.1933666105209
 20
-120.1008660810859
 30
0.0
 10
100.2088535545703
 20
-120.0849910810899
 30
0.0
 10
100.2285032762912
 20
-120.0849910810899
 30
0.0
 10
100.2481555304934
 20
-120.0849910810899
 30
0.0
 10
100.2636399420614
 20
-120.1008660810859
 30
0.0
 10
100.2636399420614
 20
-120.1208333033031
 30
0.0
  0
POLYLINE
  5
8A
330
1F
100
AcDbEntity
  8
_U+30EC_U+30A4_U+30E4_U+30FC 1
 62
   179
420
  2234388
370
     9
100
AcDb2dPolyline
 66
     1
 10
0.0
 20
0.0
 30
0.0
  0
VERTEX
  5
8B
330
8A
100
AcDbEntity
  8
_U+30EC_U+30A4_U+30E4_U+30FC 1
 62
   179
420
  2234388
370
     9
100
AcDbVertex
100
AcDb2dVertex
 10
92.02850154104621
 20
-138.6203235764562
 30
0.0
  0
VERTEX
  5
8C
330
8A
100
AcDbEntity
  8
_U+30EC_U+30A4_U+30E4_U+30FC 1
 62
   179
420
  2234388
370
     9
100
AcDbVertex
100
AcDb2dVertex
 10
98.42845471110314
 20
-138.6203235764562
 30
0.0
  0
SEQEND
  5
8D
330
8A
100
AcDbEntity
  8
_U+30EC_U+30A4_U+30E4_U+30FC 1
 62
   179
420
  2234388
370
     9
  0
POLYLINE
  5
8E
330
1F
100
AcDbEntity
  8
_U+30EC_U+30A4_U+30E4_U+30FC 1
 62
   179
420
  2234388
370
     9
100
AcDb2dPolyline
 66
     1
 10
0.0
 20
0.0
 30
0.0
  0
VERTEX
  5
8F
330
8E
100
AcDbEntity
  8
_U+30EC_U+30A4_U+30E4_U+30FC 1
 62
   179
420
  2234388
370
     9
100
AcDbVertex
100
AcDb2dVertex
 10
92.02850154104621
 20
-137.1602821879325
 30
0.0
  0
VERTEX
  5
90
330
8E
100
AcDbEntity
  8
_U+30EC_U+30A4_U+30E4_U+30FC 1
 62
   179
420
  2234388
370
     9
100
AcDbVertex
100
AcDb2dVertex
 10
92.02850154104621
 20
-139.6207660762061
 30
0.0
  0
SEQEND
  5
91
330
8E
100
AcDbEntity
  8
_U+30EC_U+30A4_U+30E4_U+30FC 1
 62
   179
420
  2234388
370
     9
  0
POLYLINE
  5
92
330
1F
100
AcDbEntity
  8
_U+30EC_U+30A4_U+30E4_U+30FC 1
 62
   179
420
  2234388
370
     9
100
AcDb2dPolyline
 66
     1
 10
0.0
 20
0.0
 30
0.0
  0
VERTEX
  5
93
330
92
100
AcDbEntity
  8
_U+30EC_U+30A4_U+30E4_U+30FC 1
 62
   179
420
  2234388
370
     9
100
AcDbVertex
100
AcDb2dVertex
 10
98.42845471110314
 20
-137.1602821879325
 30
0.0
  0
VERTEX
  5
94
330
92
100
AcDbEntity
  8
_U+30EC_U+30A4_U+30E4_U+30FC 1
 62
   179
420
  2234388
370
     9
100
AcDbVertex
100
AcDb2dVertex
 10
98.42845471110314
 20
-139.6207660762061
 30
0.0
  0
SEQEND
  5
95
330
92
100
AcDbEntity
  8
_U+30EC_U+30A4_U+30E4_U+30FC 1
 62
   179
420
  2234388
370
     9
  0
INSERT
  5
97
330
1F
100
AcDbEntity
  8
_U+30EC_U+30A4_U+30E4_U+30FC 1
100
AcDbBlockReference
  2
block 3
 10
0.0
 20
0.0
 30
0.0
  0
SPLINE
  5
BA
330
1F
100
AcDbEntity
  8
_U+30EC_U+30A4_U+30E4_U+30FC 1
 62
   179
420
  2234388
370
     9
100
AcDbSpline
210
0.0
220
0.0
230
1.0
 70
    11
 71
     3
 72
    17
 73
    13
 74
     0
 42
0.0000000001
 43
0.0000000001
 12
1.0
 22
0.0
 32
0.0
 13
1.0
 23
0.0
 33
0.0
 40
0.0
 40
0.0
 40
0.0
 40
0.0
 40
1.0
 40
1.0
 40
1.0
 40
2.0
 40
2.0
 40
2.0
 40
3.0
 40
3.0
 40
3.0
 40
4.0
 40
4.0
 40
4.0
 40
4.0
 10
92.06363820681646
 20
-134.6205644107893
 30
0.0
 10
92.06363820681646
 20
-134.6398613552291
 30
0.0
 10
92.04811598499025
 20
-134.655701077447
 30
0.0
 10
92.02850154104621
 20
-134.655701077447
 30
0.0
 10
92.00920459709407
 20
-134.655701077447
 30
0.0
 10
91.99336487527596
 20
-134.6398613552291
 30
0.0
 10
91.99336487527596
 20
-134.6205644107893
 30
0.0
 10
91.99336487527596
 20
-134.6012674663495
 30
0.0
 10
92.00920459709407
 20
-134.5854277441316
 30
0.0
 10
92.02850154104621
 20
-134.5854277441316
 30
0.0
 10
92.04811598499025
 20
-134.5854277441316
 30
0.0
 10
92.06363820681646
 20
-134.6012674663495
 30
0.0
 10
92.06363820681646
 20
-134.6205644107893
 30
0.0
  0
SPLINE
  5
BB
330
1F
100
AcDbEntity
  8
_U+30EC_U+30A4_U+30E4_U+30FC 1
 62
   179
420
  2234388
370
     9
100
AcDbSpline
210
0.0
220
0.0
230
1.0
 70
    11
 71
     3
 72
    17
 73
    13
 74
     0
 42
0.0000000001
 43
0.0000000001
 12
1.0
 22
0.0
 32
0.0
 13
1.0
 23
0.0
 33
0.0
 40
0.0
 40
0.0
 40
0.0
 40
0.0
 40
1.0
 40
1.0
 40
1.0
 40
2.0
 40
2.0
 40
2.0
 40
3.0
 40
3.0
 40
3.0
 40
4.0
 40
4.0
 40
4.0
 40
4.0
 10
98.46394415464218
 20
-134.6205644107893
 30
0.0
 10
98.46394415464218
 20
-134.6398613552291
 30
0.0
 10
98.44806915504718
 20
-134.655701077447
 30
0.0
 10
98.42845471110314
 20
-134.655701077447
 30
0.0
 10
98.409157767151
 20
-134.655701077447
 30
0.0
 10
98.39331804533289
 20
-134.6398613552291
 30
0.0
 10
98.39331804533289
 20
-134.6205644107893
 30
0.0
 10
98.39331804533289
 20
-134.6012674663495
 30
0.0
 10
98.409157767151
 20
-134.5854277441316
 30
0.0
 10
98.42845471110314
 20
-134.5854277441316
 30
0.0
 10
98.44806915504718
 20
-134.5854277441316
 30
0.0
 10
98.46394415464218
 20
-134.6012674663495
 30
0.0
 10
98.46394415464218
 20
-134.6205644107893
 30
0.0
  0
SPLINE
  5
BC
330
1F
100
AcDbEntity
  8
_U+30EC_U+30A4_U+30E4_U+30FC 1
 62
   179
420
  2234388
370
     9
100
AcDbSpline
210
0.0
220
0.0
230
1.0
 70
    11
 71
     3
 72
    17
 73
    13
 74
     0
 42
0.0000000001
 43
0.0000000001
 12
1.0
 22
0.0
 32
0.0
 13
1.0
 23
0.0
 33
0.0
 40
0.0
 40
0.0
 40
0.0
 40
0.0
 40
1.0
 40
1.0
 40
1.0
 40
2.0
 40
2.0
 40
2.0
 40
3.0
 40
3.0
 40
3.0
 40
4.0
 40
4.0
 40
4.0
 40
4.0
 10
98.46394415464218
 20
-138.6203235764562
 30
0.0
 10
98.46394415464218
 20
-138.6402907986734
 30
0.0
 10
98.44806915504718
 20
-138.6561305208913
 30
0.0
 10
98.42845471110314
 20
-138.6561305208913
 30
0.0
 10
98.409157767151
 20
-138.6561305208913
 30
0.0
 10
98.39331804533289
 20
-138.6402907986734
 30
0.0
 10
98.39331804533289
 20
-138.6203235764562
 30
0.0
 10
98.39331804533289
 20
-138.6010266320164
 30
0.0
 10
98.409157767151
 20
-138.5851516320203
 30
0.0
 10
98.42845471110314
 20
-138.5851516320203
 30
0.0
 10
98.44806915504718
 20
-138.5851516320203
 30
0.0
 10
98.46394415464218
 20
-138.6010266320164
 30
0.0
 10
98.46394415464218
 20
-138.6203235764562
 30
0.0
  0
POLYLINE
  5
BD
330
1F
100
AcDbEntity
  8
_U+30EC_U+30A4_U+30E4_U+30FC 1
 62
   179
420
  2234388
370
     9
100
AcDb2dPolyline
 66
     1
 10
0.0
 20
0.0
 30
0.0
  0
VERTEX
  5
BE
330
BD
100
AcDbEntity
  8
_U+30EC_U+30A4_U+30E4_U+30FC 1
 62
   179
420
  2234388
370
     9
100
AcDbVertex
100
AcDb2dVertex
 10
86.22865863345697
 20
-124.12059246897
 30
0.0
  0
VERTEX
  5
BF
330
BD
100
AcDbEntity
  8
_U+30EC_U+30A4_U+30E4_U+30FC 1
 62
   179
420
  2234388
370
     9
100
AcDbVertex
100
AcDb2dVertex
 10
86.22865863345697
 20
-134.6205644107893
 30
0.0
  0
SEQEND
  5
C0
330
BD
100
AcDbEntity
  8
_U+30EC_U+30A4_U+30E4_U+30FC 1
 62
   179
420
  2234388
370
     9
  0
POLYLINE
  5
C1
330
1F
100
AcDbEntity
  8
_U+30EC_U+30A4_U+30E4_U+30FC 1
 62
   179
420
  2234388
370
     9
100
AcDb2dPolyline
 66
     1
 10
0.0
 20
0.0
 30
0.0
  0
VERTEX
  5
C2
330
C1
100
AcDbEntity
  8
_U+30EC_U+30A4_U+30E4_U+30FC 1
 62
   179
420
  2234388
370
     9
100
AcDbVertex
100
AcDb2dVertex
 10
87.68834720732833
 20
-124.12059246897
 30
0.0
  0
VERTEX
  5
C3
330
C1
100
AcDbEntity
  8
_U+30EC_U+30A4_U+30E4_U+30FC 1
 62
   179
420
  2234388
370
     9
100
AcDbVertex
100
AcDb2dVertex
 10
85.22856893674917
 20
-124.12059246897
 30
0.0
  0
SEQEND
  5
C4
330
C1
100
AcDbEntity
  8
_U+30EC_U+30A4_U+30E4_U+30FC 1
 62
   179
420
  2234388
370
     9
  0
POLYLINE
  5
C5
330
1F
100
AcDbEntity
  8
_U+30EC_U+30A4_U+30E4_U+30FC 1
 62
   179
420
  2234388
370
     9
100
AcDb2dPolyline
 66
     1
 10
0.0
 20
0.0
 30
0.0
  0
VERTEX
  5
C6
330
C5
100
AcDbEntity
  8
_U+30EC_U+30A4_U+30E4_U+30FC 1
 62
   179
420
  2234388
370
     9
100
AcDbVertex
100
AcDb2dVertex
 10
87.68834720732833
 20
-134.6205644107893
 30
0.0
  0
VERTEX
  5
C7
330
C5
100
AcDbEntity
  8
_U+30EC_U+30A4_U+30E4_U+30FC 1
 62
   179
420
  2234388
370
     9
100
AcDbVertex
100
AcDb2dVertex
 10
85.22856893674917
 20
-134.6205644107893
 30
0.0
  0
SEQEND
  5
C8
330
C5
100
AcDbEntity
  8
_U+30EC_U+30A4_U+30E4_U+30FC 1
 62
   179
420
  2234388
370
     9
  0
INSERT
  5
CA
330
1F
100
AcDbEntity
  8
_U+30EC_U+30A4_U+30E4_U+30FC 1
100
AcDbBlockReference
  2
block 4
 10
0.0
 20
0.0
 30
0.0
  0
SPLINE
  5
DC
330
1F
100
AcDbEntity
  8
_U+30EC_U+30A4_U+30E4_U+30FC 1
 62
   179
420
  2234388
370
    25
100
AcDbSpline
210
0.0
220
0.0
230
1.0
 70
    11
 71
     3
 72
    17
 73
    13
 74
     0
 42
0.0000000001
 43
0.0000000001
 12
1.0
 22
0.0
 32
0.0
 13
1.0
 23
0.0
 33
0.0
 40
0.0
 40
0.0
 40
0.0
 40
0.0
 40
1.0
 40
1.0
 40
1.0
 40
2.0
 40
2.0
 40
2.0
 40
3.0
 40
3.0
 40
3.0
 40
4.0
 40
4.0
 40
4.0
 40
4.0
 10
90.26390714162032
 20
-134.6205644107893
 30
0.0
 10
90.26390714162032
 20
-134.6398613552291
 30
0.0
 10
90.24806741980221
 20
-134.655701077447
 30
0.0
 10
90.22841769808129
 20
-134.655701077447
 30
0.0
 10
90.20912075412915
 20
-134.655701077447
 30
0.0
 10
90.19328331078508
 20
-134.6398613552291
 30
0.0
 10
90.19328331078508
 20
-134.6205644107893
 30
0.0
 10
90.19328331078508
 20
-134.6012674663495
 30
0.0
 10
90.20912075412915
 20
-134.5854277441316
 30
0.0
 10
90.22841769808129
 20
-134.5854277441316
 30
0.0
 10
90.24806741980221
 20
-134.5854277441316
 30
0.0
 10
90.26390714162032
 20
-134.6012674663495
 30
0.0
 10
90.26390714162032
 20
-134.6205644107893
 30
0.0
  0
SPLINE
  5
DD
330
1F
100
AcDbEntity
  8
_U+30EC_U+30A4_U+30E4_U+30FC 1
 62
   179
420
  2234388
370
     9
100
AcDbSpline
210
0.0
220
0.0
230
1.0
 70
    11
 71
     3
 72
    17
 73
    13
 74
     0
 42
0.0000000001
 43
0.0000000001
 12
1.0
 22
0.0
 32
0.0
 13
1.0
 23
0.0
 33
0.0
 40
0.0
 40
0.0
 40
0.0
 40
0.0
 40
1.0
 40
1.0
 40
1.0
 40
2.0
 40
2.0
 40
2.0
 40
3.0
 40
3.0
 40
3.0
 40
4.0
 40
4.0
 40
4.0
 40
4.0
 10
86.26379529922724
 20
-134.6205644107893
 30
0.0
 10
86.26379529922724
 20
-134.6398613552291
 30
0.0
 10
86.24795557740912
 20
-134.655701077447
 30
0.0
 10
86.22865863345697
 20
-134.655701077447
 30
0.0
 10
86.20904418951294
 20
-134.655701077447
 30
0.0
 10
86.19316918991794
 20
-134.6398613552291
 30
0.0
 10
86.19316918991794
 20
-134.6205644107893
 30
0.0
 10
86.19316918991794
 20
-134.6012674663495
 30
0.0
 10
86.20904418951294
 20
-134.5854277441316
 30
0.0
 10
86.22865863345697
 20
-134.5854277441316
 30
0.0
 10
86.24795557740912
 20
-134.5854277441316
 30
0.0
 10
86.26379529922724
 20
-134.6012674663495
 30
0.0
 10
86.26379529922724
 20
-134.6205644107893
 30
0.0
  0
ENDSEC
  0
SECTION
  2
OBJECTS
  0
DICTIONARY
  5
C
330
0
100
AcDbDictionary
281
     1
  3
ACAD_GROUP
350
D
  3
ACAD_LAYOUT
350
1A
  3
ACAD_MATERIAL
350
3B
  3
ACAD_MLEADERSTYLE
350
DF
  3
ACAD_MLINESTYLE
350
17
  3
ACAD_PLOTSETTINGS
350
19
  3
ACAD_PLOTSTYLENAME
350
E
  3
ACAD_TABLESTYLE
350
DE
  3
ACAD_VISUALSTYLE
350
2A
  0
SUN
  5
3F
330
29
100
AcDbSun
 90
        1
290
     0
 63
     7
421
 16777215
 40
1.0
291
     1
 91
  2455826
 92
 54000000
292
     0
 70
     2
 71
   256
280
     1
  0
DICTIONARY
  5
D
102
{ACAD_REACTORS
330
C
102
}
330
C
100
AcDbDictionary
281
     1
  0
DICTIONARY
  5
1A
102
{ACAD_REACTORS
330
C
102
}
330
C
100
AcDbDictionary
281
     1
  3
Layout1
350
1E
  3
Layout2
350
26
  3
Model
350
22
  0
DICTIONARY
  5
3B
102
{ACAD_REACTORS
330
C
102
}
330
C
100
AcDbDictionary
281
     1
  3
ByBlock
350
3D
  3
ByLayer
350
3C
  3
Global
350
3E
  0
DICTIONARY
  5
DF
102
{ACAD_REACTORS
330
C
102
}
330
C
100
AcDbDictionary
281
     1
  0
DICTIONARY
  5
17
102
{ACAD_REACTORS
330
C
102
}
330
C
100
AcDbDictionary
281
     1
  3
Standard
350
18
  0
DICTIONARY
  5
19
102
{ACAD_REACTORS
330
C
102
}
330
C
100
AcDbDictionary
281
     1
  0
ACDBDICTIONARYWDFLT
  5
E
102
{ACAD_REACTORS
330
C
102
}
330
C
100
AcDbDictionary
281
     1
  3
Normal
350
F
100
AcDbDictionaryWithDefault
340
F
  0
DICTIONARY
  5
DE
102
{ACAD_REACTORS
330
C
102
}
330
C
100
AcDbDictionary
281
     1
  0
DICTIONARY
  5
2A
102
{ACAD_REACTORS
330
C
102
}
330
C
100
AcDbDictionary
281
     1
  3
2dWireframe
350
2F
  3
3D Hidden
350
31
  3
3dWireframe
350
30
  3
Basic
350
32
  3
Brighten
350
36
  3
ColorChange
350
3A
  3
Conceptual
350
34
  3
Dim
350
35
  3
Facepattern
350
39
  3
Flat
350
2B
  3
FlatWithEdges
350
2C
  3
Gouraud
350
2D
  3
GouraudWithEdges
350
2E
  3
Linepattern
350
38
  3
Realistic
350
33
  3
Thicken
350
37
  0
LAYOUT
  5
1E
102
{ACAD_REACTORS
330
1A
102
}
330
1A
100
AcDbPlotSettings
  1

  2
none_device
  4

  6

 40
0.0
 41
0.0
 42
0.0
 43
0.0
 44
0.0
 45
0.0
 46
0.0
 47
0.0
 48
0.0
 49
0.0
140
0.0
141
0.0
142
1.0
143
1.0
 70
   688
 72
     0
 73
     0
 74
     5
  7

 75
    16
 76
     0
 77
     2
 78
   300
147
1.0
148
0.0
149
0.0
100
AcDbLayout
  1
Layout1
 70
     1
 71
     1
 10
0.0
 20
0.0
 11
12.0
 21
9.0
 12
0.0
 22
0.0
 32
0.0
 14
1.000000000000000E+20
 24
1.000000000000000E+20
 34
1.000000000000000E+20
 15
-1.000000000000000E+20
 25
-1.000000000000000E+20
 35
-1.000000000000000E+20
146
0.0
 13
0.0
 23
0.0
 33
0.0
 16
1.0
 26
0.0
 36
0.0
 17
0.0
 27
1.0
 37
0.0
 76
     0
330
1B
  0
LAYOUT
  5
26
102
{ACAD_REACTORS
330
1A
102
}
330
1A
100
AcDbPlotSettings
  1

  2
none_device
  4

  6

 40
0.0
 41
0.0
 42
0.0
 43
0.0
 44
0.0
 45
0.0
 46
0.0
 47
0.0
 48
0.0
 49
0.0
140
0.0
141
0.0
142
1.0
143
1.0
 70
   688
 72
     0
 73
     0
 74
     5
  7

 75
    16
 76
     0
 77
     2
 78
   300
147
1.0
148
0.0
149
0.0
100
AcDbLayout
  1
Layout2
 70
     1
 71
     2
 10
0.0
 20
0.0
 11
0.0
 21
0.0
 12
0.0
 22
0.0
 32
0.0
 14
0.0
 24
0.0
 34
0.0
 15
0.0
 25
0.0
 35
0.0
146
0.0
 13
0.0
 23
0.0
 33
0.0
 16
1.0
 26
0.0
 36
0.0
 17
0.0
 27
1.0
 37
0.0
 76
     0
330
23
  0
LAYOUT
  5
22
102
{ACAD_REACTORS
330
1A
102
}
330
1A
100
AcDbPlotSettings
  1

  2
none_device
  4

  6

 40
0.0
 41
0.0
 42
0.0
 43
0.0
 44
0.0
 45
0.0
 46
0.0
 47
0.0
 48
0.0
 49
0.0
140
0.0
141
0.0
142
1.0
143
1.0
 70
  1712
 72
     0
 73
     0
 74
     0
  7

 75
     0
 76
     0
 77
     2
 78
   300
147
1.0
148
0.0
149
0.0
100
AcDbLayout
  1
Model
 70
     1
 71
     0
 10
0.0
 20
0.0
 11
12.0
 21
9.0
 12
0.0
 22
0.0
 32
0.0
 14
1.000000000000000E+20
 24
1.000000000000000E+20
 34
1.000000000000000E+20
 15
-1.000000000000000E+20
 25
-1.000000000000000E+20
 35
-1.000000000000000E+20
146
0.0
 13
0.0
 23
0.0
 33
0.0
 16
1.0
 26
0.0
 36
0.0
 17
0.0
 27
1.0
 37
0.0
 76
     0
330
1F
331
29
  0
MATERIAL
  5
3D
102
{ACAD_REACTORS
330
3B
102
}
330
3B
100
AcDbMaterial
  1
ByBlock
 72
     1
 94
      127
  0
MATERIAL
  5
3C
102
{ACAD_REACTORS
330
3B
102
}
330
3B
100
AcDbMaterial
  1
ByLayer
 72
     1
 94
      127
  0
MATERIAL
  5
3E
102
{ACAD_REACTORS
330
3B
102
}
330
3B
100
AcDbMaterial
  1
Global
 72
     1
 94
      127
  0
MLINESTYLE
  5
18
102
{ACAD_REACTORS
330
17
102
}
330
17
100
AcDbMlineStyle
  2
Standard
 70
     0
  3

 62
   256
 51
90.0
 52
90.0
 71
     2
 49
0.5
 62
   256
  6
BYLAYER
 49
-0.5
 62
   256
  6
BYLAYER
  0
ACDBPLACEHOLDER
  5
F
102
{ACAD_REACTORS
330
E
102
}
330
E
  0
VISUALSTYLE
  5
2F
102
{ACAD_REACTORS
330
2A
102
}
330
2A
100
AcDbVisualStyle
  2
2dWireframe
 70
     4
177
     2
291
     0
 71
     0
176
     1
 72
     2
176
     1
 73
     0
176
     1
 90
        0
176
     1
 40
-0.6
176
     1
 41
-30.0
176
     1
 62
     5
 63
     7
421
 16777215
176
     1
 74
     1
176
     1
 91
        4
176
     1
 64
     7
176
     1
 65
   257
176
     1
 75
     1
176
     1
175
     1
176
     1
 42
1.0
176
     1
 92
        0
176
     1
 66
   257
176
     1
 43
1.0
176
     1
 76
     1
176
     1
 77
     6
176
     1
 78
     2
176
     1
 67
     7
176
     1
 79
     5
176
     1
170
     0
176
     1
171
     0
176
     1
290
     0
176
     1
 93
        1
176
     1
 44
0.0
176
     1
173
     0
176
     1
  0
VISUALSTYLE
  5
31
102
{ACAD_REACTORS
330
2A
102
}
330
2A
100
AcDbVisualStyle
  2
3D Hidden
 70
     6
177
     2
291
     0
 71
     1
176
     1
 72
     2
176
     1
 73
     2
176
     1
 90
        0
176
     1
 40
-0.6
176
     1
 41
-30.0
176
     1
 62
     5
 63
     7
421
 16777215
176
     1
 74
     2
176
     1
 91
        2
176
     1
 64
     7
176
     1
 65
   257
176
     1
 75
     2
176
     1
175
     1
176
     1
 42
40.0
176
     1
 92
        0
176
     1
 66
   257
176
     1
 43
1.0
176
     1
 76
     1
176
     1
 77
     6
176
     1
 78
     2
176
     1
 67
     7
176
     1
 79
     3
176
     1
170
     0
176
     1
171
     0
176
     1
290
     0
176
     1
 93
        1
176
     1
 44
0.0
176
     1
173
     0
176
     1
  0
VISUALSTYLE
  5
30
102
{ACAD_REACTORS
330
2A
102
}
330
2A
100
AcDbVisualStyle
  2
3dWireframe
 70
     5
177
     2
291
     0
 71
     0
176
     1
 72
     2
176
     1
 73
     0
176
     1
 90
        0
176
     1
 40
-0.6
176
     1
 41
-30.0
176
     1
 62
     5
 63
     7
421
 16777215
176
     1
 74
     1
176
     1
 91
        4
176
     1
 64
     7
176
     1
 65
   257
176
     1
 75
     1
176
     1
175
     1
176
     1
 42
1.0
176
     1
 92
        0
176
     1
 66
   257
176
     1
 43
1.0
176
     1
 76
     1
176
     1
 77
     6
176
     1
 78
     2
176
     1
 67
     7
176
     1
 79
     5
176
     1
170
     0
176
     1
171
     0
176
     1
290
     0
176
     1
 93
        1
176
     1
 44
0.0
176
     1
173
     0
176
     1
  0
VISUALSTYLE
  5
32
102
{ACAD_REACTORS
330
2A
102
}
330
2A
100
AcDbVisualStyle
  2
Basic
 70
     7
177
     2
291
     1
 71
     1
176
     1
 72
     0
176
     1
 73
     1
176
     1
 90
        0
176
     1
 40
-0.6
176
     1
 41
-30.0
176
     1
 62
     5
 63
     7
421
 16777215
176
     1
 74
     0
176
     1
 91
        4
176
     1
 64
     7
176
     1
 65
   257
176
     1
 75
     1
176
     1
175
     1
176
     1
 42
1.0
176
     1
 92
        8
176
     1
 66
     7
176
     1
 43
1.0
176
     1
 76
     1
176
     1
 77
     6
176
     1
 78
     2
176
     1
 67
     7
176
     1
 79
     5
176
     1
170
     0
176
     1
171
     0
176
     1
290
     0
176
     1
 93
        1
176
     1
 44
0.0
176
     1
173
     0
176
     1
  0
VISUALSTYLE
  5
36
102
{ACAD_REACTORS
330
2A
102
}
330
2A
100
AcDbVisualStyle
  2
Brighten
 70
    12
177
     2
291
     1
 71
     2
176
     1
 72
     2
176
     1
 73
     0
176
     1
 90
        0
176
     1
 40
-0.6
176
     1
 41
-30.0
176
     1
 62
     5
 63
     7
421
 16777215
176
     1
 74
     1
176
     1
 91
        4
176
     1
 64
     7
176
     1
 65
   257
176
     1
 75
     1
176
     1
175
     1
176
     1
 42
1.0
176
     1
 92
        8
176
     1
 66
     7
176
     1
 43
1.0
176
     1
 76
     1
176
     1
 77
     6
176
     1
 78
     2
176
     1
 67
     7
176
     1
 79
     5
176
     1
170
     0
176
     1
171
     0
176
     1
290
     0
176
     1
 93
        1
176
     1
 44
50.0
176
     1
173
     0
176
     1
  0
VISUALSTYLE
  5
3A
102
{ACAD_REACTORS
330
2A
102
}
330
2A
100
AcDbVisualStyle
  2
ColorChange
 70
    16
177
     2
291
     1
 71
     2
176
     1
 72
     2
176
     1
 73
     3
176
     1
 90
        0
176
     1
 40
-0.6
176
     1
 41
-30.0
176
     1
 62
     5
 63
     8
421
  8421504
176
     1
 74
     1
176
     1
 91
        4
176
     1
 64
     7
176
     1
 65
   257
176
     1
 75
     1
176
     1
175
     1
176
     1
 42
1.0
176
     1
 92
        8
176
     1
 66
     8
424
  8421504
176
     1
 43
1.0
176
     1
 76
     1
176
     1
 77
     6
176
     1
 78
     2
176
     1
 67
     7
176
     1
 79
     5
176
     1
170
     0
176
     1
171
     0
176
     1
290
     0
176
     1
 93
        1
176
     1
 44
0.0
176
     1
173
     0
176
     1
  0
VISUALSTYLE
  5
34
102
{ACAD_REACTORS
330
2A
102
}
330
2A
100
AcDbVisualStyle
  2
Conceptual
 70
     9
177
     2
291
     0
 71
     3
176
     1
 72
     2
176
     1
 73
     0
176
     1
 90
        0
176
     1
 40
-0.6
176
     1
 41
-30.0
176
     1
 62
     5
 63
     7
421
 16777215
176
     1
 74
     2
176
     1
 91
        2
176
     1
 64
     7
176
     1
 65
   257
176
     1
 75
     1
176
     1
175
     1
176
     1
 42
40.0
176
     1
 92
        8
176
     1
 66
     7
176
     1
 43
1.0
176
     1
 76
     1
176
     1
 77
     6
176
     1
 78
     2
176
     1
 67
     7
176
     1
 79
     3
176
     1
170
     0
176
     1
171
     0
176
     1
290
     0
176
     1
 93
        1
176
     1
 44
0.0
176
     1
173
     0
176
     1
  0
VISUALSTYLE
  5
35
102
{ACAD_REACTORS
330
2A
102
}
330
2A
100
AcDbVisualStyle
  2
Dim
 70
    11
177
     2
291
     1
 71
     2
176
     1
 72
     2
176
     1
 73
     0
176
     1
 90
        0
176
     1
 40
-0.6
176
     1
 41
-30.0
176
     1
 62
     5
 63
     7
421
 16777215
176
     1
 74
     1
176
     1
 91
        4
176
     1
 64
     7
176
     1
 65
   257
176
     1
 75
     1
176
     1
175
     1
176
     1
 42
1.0
176
     1
 92
        8
176
     1
 66
     7
176
     1
 43
1.0
176
     1
 76
     1
176
     1
 77
     6
176
     1
 78
     2
176
     1
 67
     7
176
     1
 79
     5
176
     1
170
     0
176
     1
171
     0
176
     1
290
     0
176
     1
 93
        1
176
     1
 44
-50.0
176
     1
173
     0
176
     1
  0
VISUALSTYLE
  5
39
102
{ACAD_REACTORS
330
2A
102
}
330
2A
100
AcDbVisualStyle
  2
Facepattern
 70
    15
177
     2
291
     1
 71
     2
176
     1
 72
     2
176
     1
 73
     0
176
     1
 90
        0
176
     1
 40
-0.6
176
     1
 41
-30.0
176
     1
 62
     5
 63
     7
421
 16777215
176
     1
 74
     1
176
     1
 91
        4
176
     1
 64
     7
176
     1
 65
   257
176
     1
 75
     1
176
     1
175
     1
176
     1
 42
1.0
176
     1
 92
        8
176
     1
 66
     7
176
     1
 43
1.0
176
     1
 76
     1
176
     1
 77
     6
176
     1
 78
     2
176
     1
 67
     7
176
     1
 79
     5
176
     1
170
     0
176
     1
171
     0
176
     1
290
     0
176
     1
 93
        1
176
     1
 44
0.0
176
     1
173
     0
176
     1
  0
VISUALSTYLE
  5
2B
102
{ACAD_REACTORS
330
2A
102
}
330
2A
100
AcDbVisualStyle
  2
Flat
 70
     0
177
     2
291
     1
 71
     2
176
     1
 72
     1
176
     1
 73
     1
176
     1
 90
        2
176
     1
 40
-0.6
176
     1
 41
30.0
176
     1
 62
     5
 63
     7
421
 16777215
176
     1
 74
     0
176
     1
 91
        4
176
     1
 64
     7
176
     1
 65
   257
176
     1
 75
     1
176
     1
175
     1
176
     1
 42
1.0
176
     1
 92
        8
176
     1
 66
     7
176
     1
 43
1.0
176
     1
 76
     1
176
     1
 77
     6
176
     1
 78
     2
176
     1
 67
     7
176
     1
 79
     5
176
     1
170
     0
176
     1
171
     0
176
     1
290
     0
176
     1
 93
       13
176
     1
 44
0.0
176
     1
173
     0
176
     1
  0
VISUALSTYLE
  5
2C
102
{ACAD_REACTORS
330
2A
102
}
330
2A
100
AcDbVisualStyle
  2
FlatWithEdges
 70
     1
177
     2
291
     1
 71
     2
176
     1
 72
     1
176
     1
 73
     1
176
     1
 90
        2
176
     1
 40
-0.6
176
     1
 41
30.0
176
     1
 62
     5
 63
     7
421
 16777215
176
     1
 74
     1
176
     1
 91
        4
176
     1
 64
     7
176
     1
 65
   257
176
     1
 75
     1
176
     1
175
     1
176
     1
 42
1.0
176
     1
 92
        0
176
     1
 66
   257
176
     1
 43
1.0
176
     1
 76
     1
176
     1
 77
     6
176
     1
 78
     2
176
     1
 67
     7
176
     1
 79
     5
176
     1
170
     0
176
     1
171
     0
176
     1
290
     0
176
     1
 93
       13
176
     1
 44
0.0
176
     1
173
     0
176
     1
  0
VISUALSTYLE
  5
2D
102
{ACAD_REACTORS
330
2A
102
}
330
2A
100
AcDbVisualStyle
  2
Gouraud
 70
     2
177
     2
291
     1
 71
     2
176
     1
 72
     2
176
     1
 73
     1
176
     1
 90
        2
176
     1
 40
-0.6
176
     1
 41
30.0
176
     1
 62
     5
 63
     7
421
 16777215
176
     1
 74
     0
176
     1
 91
        4
176
     1
 64
     7
176
     1
 65
   257
176
     1
 75
     1
176
     1
175
     1
176
     1
 42
1.0
176
     1
 92
        0
176
     1
 66
     7
176
     1
 43
1.0
176
     1
 76
     1
176
     1
 77
     6
176
     1
 78
     2
176
     1
 67
     7
176
     1
 79
     5
176
     1
170
     0
176
     1
171
     0
176
     1
290
     0
176
     1
 93
       13
176
     1
 44
0.0
176
     1
173
     0
176
     1
  0
VISUALSTYLE
  5
2E
102
{ACAD_REACTORS
330
2A
102
}
330
2A
100
AcDbVisualStyle
  2
GouraudWithEdges
 70
     3
177
     2
291
     1
 71
     2
176
     1
 72
     2
176
     1
 73
     1
176
     1
 90
        2
176
     1
 40
-0.6
176
     1
 41
30.0
176
     1
 62
     5
 63
     7
421
 16777215
176
     1
 74
     1
176
     1
 91
        4
176
     1
 64
     7
176
     1
 65
   257
176
     1
 75
     1
176
     1
175
     1
176
     1
 42
1.0
176
     1
 92
        0
176
     1
 66
   257
176
     1
 43
1.0
176
     1
 76
     1
176
     1
 77
     6
176
     1
 78
     2
176
     1
 67
     7
176
     1
 79
     5
176
     1
170
     0
176
     1
171
     0
176
     1
290
     0
176
     1
 93
       13
176
     1
 44
0.0
176
     1
173
     0
176
     1
  0
VISUALSTYLE
  5
38
102
{ACAD_REACTORS
330
2A
102
}
330
2A
100
AcDbVisualStyle
  2
Linepattern
 70
    14
177
     2
291
     1
 71
     2
176
     1
 72
     2
176
     1
 73
     0
176
     1
 90
        0
176
     1
 40
-0.6
176
     1
 41
-30.0
176
     1
 62
     5
 63
     7
421
 16777215
176
     1
 74
     1
176
     1
 91
        4
176
     1
 64
     7
176
     1
 65
   257
176
     1
 75
     7
176
     1
175
     7
176
     1
 42
1.0
176
     1
 92
        8
176
     1
 66
     7
176
     1
 43
1.0
176
     1
 76
     1
176
     1
 77
     6
176
     1
 78
     2
176
     1
 67
     7
176
     1
 79
     5
176
     1
170
     0
176
     1
171
     0
176
     1
290
     0
176
     1
 93
        1
176
     1
 44
0.0
176
     1
173
     0
176
     1
  0
VISUALSTYLE
  5
33
102
{ACAD_REACTORS
330
2A
102
}
330
2A
100
AcDbVisualStyle
  2
Realistic
 70
     8
177
     2
291
     0
 71
     2
176
     1
 72
     2
176
     1
 73
     0
176
     1
 90
        0
176
     1
 40
-0.6
176
     1
 41
-30.0
176
     1
 62
     5
 63
     7
421
 16777215
176
     1
 74
     1
176
     1
 91
        0
176
     1
 64
     7
176
     1
 65
   257
176
     1
 75
     1
176
     1
175
     1
176
     1
 42
1.0
176
     1
 92
        8
176
     1
 66
     8
424
  7895160
176
     1
 43
1.0
176
     1
 76
     1
176
     1
 77
     6
176
     1
 78
     2
176
     1
 67
     7
176
     1
 79
     5
176
     1
170
     0
176
     1
171
     0
176
     1
290
     0
176
     1
 93
       13
176
     1
 44
0.0
176
     1
173
     0
176
     1
  0
VISUALSTYLE
  5
37
102
{ACAD_REACTORS
330
2A
102
}
330
2A
100
AcDbVisualStyle
  2
Thicken
 70
    13
177
     2
291
     1
 71
     2
176
     1
 72
     2
176
     1
 73
     0
176
     1
 90
        0
176
     1
 40
-0.6
176
     1
 41
-30.0
176
     1
 62
     5
 63
     7
421
 16777215
176
     1
 74
     1
176
     1
 91
        4
176
     1
 64
     7
176
     1
 65
   257
176
     1
 75
     1
176
     1
175
     1
176
     1
 42
1.0
176
     1
 92
       12
176
     1
 66
     7
176
     1
 43
1.0
176
     1
 76
     1
176
     1
 77
     6
176
     1
 78
     2
176
     1
 67
     7
176
     1
 79
     5
176
     1
170
     0
176
     1
171
     0
176
     1
290
     0
176
     1
 93
        1
176
     1
 44
0.0
176
     1
173
     0
176
     1
  0
ENDSEC
  0
EOF
